  0
SECTION
  2
HEADER
  9
$ACADVER
  1
AC1014
  9
$ACADMAINTVER
 70
     9
  9
$DWGCODEPAGE
  3
ANSI_932
  9
$INSBASE
 10
0.0
 20
0.0
 30
0.0
  9
$EXTMIN
 10
44.41773900683415
 20
66.64655809839985
 30
0.0
  9
$EXTMAX
 10
1102.516008791141
 20
519.9744109531597
 30
0.0
  9
$LIMMIN
 10
0.0
 20
0.0
  9
$LIMMAX
 10
297.0
 20
210.0
  9
$ORTHOMODE
 70
     1
  9
$REGENMODE
 70
     1
  9
$FILLMODE
 70
     1
  9
$QTEXTMODE
 70
     0
  9
$MIRRTEXT
 70
     0
  9
$DRAGMODE
 70
     2
  9
$LTSCALE
 40
3.0
  9
$OSMODE
 70
    37
  9
$ATTMODE
 70
     1
  9
$TEXTSIZE
 40
2.0
  9
$TRACEWID
 40
1.0
  9
$TEXTSTYLE
  7
STANDARD
  9
$CLAYER
  8
0
  9
$CELTYPE
  6
BYLAYER
  9
$CECOLOR
 62
   256
  9
$CELTSCALE
 40
1.0
  9
$DELOBJ
 70
     1
  9
$DISPSILH
 70
     0
  9
$DIMSCALE
 40
3.0
  9
$DIMASZ
 40
1.8
  9
$DIMEXO
 40
0.625
  9
$DIMDLI
 40
3.75
  9
$DIMRND
 40
0.0
  9
$DIMDLE
 40
0.0
  9
$DIMEXE
 40
0.8
  9
$DIMTP
 40
0.0
  9
$DIMTM
 40
0.0
  9
$DIMTXT
 40
1.8
  9
$DIMCEN
 40
2.5
  9
$DIMTSZ
 40
0.0
  9
$DIMTOL
 70
     0
  9
$DIMLIM
 70
     0
  9
$DIMTIH
 70
     0
  9
$DIMTOH
 70
     0
  9
$DIMSE1
 70
     0
  9
$DIMSE2
 70
     0
  9
$DIMTAD
 70
     1
  9
$DIMZIN
 70
     8
  9
$DIMBLK
  1

  9
$DIMASO
 70
     1
  9
$DIMSHO
 70
     1
  9
$DIMPOST
  1

  9
$DIMAPOST
  1

  9
$DIMALT
 70
     0
  9
$DIMALTD
 70
     4
  9
$DIMALTF
 40
0.0394
  9
$DIMLFAC
 40
1.0
  9
$DIMTOFL
 70
     1
  9
$DIMTVP
 40
0.0
  9
$DIMTIX
 70
     0
  9
$DIMSOXD
 70
     0
  9
$DIMSAH
 70
     0
  9
$DIMBLK1
  1

  9
$DIMBLK2
  1

  9
$DIMSTYLE
  2
STANDARD
  9
$DIMCLRD
 70
     0
  9
$DIMCLRE
 70
     0
  9
$DIMCLRT
 70
     0
  9
$DIMTFAC
 40
1.0
  9
$DIMGAP
 40
0.75
  9
$DIMJUST
 70
     0
  9
$DIMSD1
 70
     0
  9
$DIMSD2
 70
     0
  9
$DIMTOLJ
 70
     1
  9
$DIMTZIN
 70
     0
  9
$DIMALTZ
 70
     0
  9
$DIMALTTZ
 70
     0
  9
$DIMFIT
 70
     3
  9
$DIMUPT
 70
     0
  9
$DIMUNIT
 70
     8
  9
$DIMDEC
 70
     2
  9
$DIMTDEC
 70
     2
  9
$DIMALTU
 70
     8
  9
$DIMALTTD
 70
     4
  9
$DIMTXSTY
  7
STANDARD
  9
$DIMAUNIT
 70
     0
  9
$LUNITS
 70
     2
  9
$LUPREC
 70
     3
  9
$SKETCHINC
 40
1.0
  9
$FILLETRAD
 40
10.0
  9
$AUNITS
 70
     0
  9
$AUPREC
 70
     2
  9
$MENU
  1
.
  9
$ELEVATION
 40
0.0
  9
$PELEVATION
 40
0.0
  9
$THICKNESS
 40
0.0
  9
$LIMCHECK
 70
     0
  9
$BLIPMODE
 70
     0
  9
$CHAMFERA
 40
0.0
  9
$CHAMFERB
 40
0.0
  9
$CHAMFERC
 40
20.0
  9
$CHAMFERD
 40
0.0
  9
$SKPOLY
 70
     0
  9
$TDCREATE
 40
2454411.413675127
  9
$TDUPDATE
 40
2454425.735439630
  9
$TDINDWG
 40
0.0288639468
  9
$TDUSRTIMER
 40
0.0288639468
  9
$USRTIMER
 70
     1
  9
$ANGBASE
 50
0.0
  9
$ANGDIR
 70
     0
  9
$PDMODE
 70
     0
  9
$PDSIZE
 40
-10.0
  9
$PLINEWID
 40
0.0
  9
$COORDS
 70
     0
  9
$SPLFRAME
 70
     0
  9
$SPLINETYPE
 70
     6
  9
$SPLINESEGS
 70
     8
  9
$ATTDIA
 70
     0
  9
$ATTREQ
 70
     1
  9
$HANDLING
 70
-16383
  9
$HANDSEED
  5
3EDB
  9
$SURFTAB1
 70
     6
  9
$SURFTAB2
 70
     6
  9
$SURFTYPE
 70
     6
  9
$SURFU
 70
     6
  9
$SURFV
 70
     6
  9
$UCSNAME
  2

  9
$UCSORG
 10
0.0
 20
0.0
 30
0.0
  9
$UCSXDIR
 10
1.0
 20
0.0
 30
0.0
  9
$UCSYDIR
 10
0.0
 20
1.0
 30
0.0
  9
$PUCSNAME
  2

  9
$PUCSORG
 10
0.0
 20
0.0
 30
0.0
  9
$PUCSXDIR
 10
1.0
 20
0.0
 30
0.0
  9
$PUCSYDIR
 10
0.0
 20
1.0
 30
0.0
  9
$USERI1
 70
     0
  9
$USERI2
 70
     0
  9
$USERI3
 70
     0
  9
$USERI4
 70
     0
  9
$USERI5
 70
     0
  9
$USERR1
 40
0.0
  9
$USERR2
 40
0.0
  9
$USERR3
 40
0.0
  9
$USERR4
 40
0.0
  9
$USERR5
 40
0.0
  9
$WORLDVIEW
 70
     1
  9
$SHADEDGE
 70
     3
  9
$SHADEDIF
 70
    70
  9
$TILEMODE
 70
     1
  9
$MAXACTVP
 70
    48
  9
$PINSBASE
 10
0.0
 20
0.0
 30
0.0
  9
$PLIMCHECK
 70
     0
  9
$PEXTMIN
 10
0.0
 20
0.0
 30
0.0
  9
$PEXTMAX
 10
0.0
 20
0.0
 30
0.0
  9
$PLIMMIN
 10
0.0
 20
0.0
  9
$PLIMMAX
 10
12.0
 20
9.0
  9
$UNITMODE
 70
     0
  9
$VISRETAIN
 70
     1
  9
$PLINEGEN
 70
     0
  9
$PSLTSCALE
 70
     1
  9
$TREEDEPTH
 70
  3020
  9
$PICKSTYLE
 70
     1
  9
$CMLSTYLE
  2
STANDARD
  9
$CMLJUST
 70
     0
  9
$CMLSCALE
 40
1.0
  9
$PROXYGRAPHICS
 70
     1
  9
$MEASUREMENT
 70
     0
  0
ENDSEC
  0
SECTION
  2
CLASSES
  0
CLASS
  1
DICTIONARYVAR
  2
AcDbDictionaryVar
  3
AutoCAD 2000
 90
        0
280
     0
281
     0
  0
CLASS
  1
ACDBDICTIONARYWDFLT
  2
AcDbDictionaryWithDefault
  3
AutoCAD 2000
 90
        0
280
     0
281
     0
  0
CLASS
  1
ACDBPLACEHOLDER
  2
AcDbPlaceHolder
  3
AutoCAD 2000
 90
        0
280
     0
281
     0
  0
CLASS
  1
LAYOUT
  2
AcDbLayout
  3
AutoCAD 2000
 90
        0
280
     0
281
     0
  0
CLASS
  1
MATERIAL
  2
AcDbMaterial
  3
ObjectDBX Classes
 90
     1153
280
     0
281
     0
  0
CLASS
  1
VISUALSTYLE
  2
AcDbVisualStyle
  3
ObjectDBX Classes
 90
     4095
280
     0
281
     0
  0
CLASS
  1
TABLESTYLE
  2
AcDbTableStyle
  3
ObjectDBX Classes
 90
     4095
280
     0
281
     0
  0
CLASS
  1
SCALE
  2
AcDbScale
  3
ObjectDBX Classes
 90
     1153
280
     0
281
     0
  0
CLASS
  1
MLEADERSTYLE
  2
AcDbMLeaderStyle
  3
ACDB_MLEADERSTYLE_CLASS
 90
     4095
280
     0
281
     0
  0
CLASS
  1
CELLSTYLEMAP
  2
AcDbCellStyleMap
  3
ObjectDBX Classes
 90
     1152
280
     0
281
     0
  0
CLASS
  1
SORTENTSTABLE
  2
AcDbSortentsTable
  3
AutoCAD 2000
 90
        0
280
     0
281
     0
  0
CLASS
  1
ACAD_PROXY_OBJECT_WRAPPER
  2
AcDbProxyObjectWrapper
  3
AutoCAD 2000
 90
        0
280
     0
281
     0
  0
CLASS
  1
LONG_TRANSACTION
  2
AcDbLongTransaction
  3
AutoCAD 2000
 90
        0
280
     0
281
     0
  0
CLASS
  1
LWPOLYLINE
  2
AcDbPolyline
  3
AutoCAD 2000
 90
        0
280
     0
281
     1
  0
CLASS
  1
HATCH
  2
AcDbHatch
  3
AutoCAD 2000
 90
        0
280
     0
281
     1
  0
CLASS
  1
XRECORD
  2
AcDbXrecord
  3
AutoCAD 2000
 90
        0
280
     0
281
     0
  0
ENDSEC
  0
SECTION
  2
TABLES
  0
TABLE
  2
VPORT
  5
6E
102
{ACAD_XDICTIONARY
360
1D47
102
}
330
0
100
AcDbSymbolTable
 70
     2
  0
VPORT
  5
3EB5
330
6E
100
AcDbSymbolTableRecord
100
AcDbViewportTableRecord
  2
*ACTIVE
 70
     0
 10
0.0
 20
0.0
 11
1.0
 21
1.0
 12
581.0505005637845
 22
283.6905690305468
 13
0.0
 23
0.0
 14
10.0
 24
10.0
 15
10.0
 25
10.0
 16
0.0
 26
0.0
 36
1.0
 17
0.0
 27
0.0
 37
0.0
 40
614.4765716560926
 41
1.753504672897196
 42
50.0
 43
0.0
 44
0.0
 50
0.0
 51
0.0
 71
     0
 72
   100
 73
     1
 74
     3
 75
     0
 76
     0
 77
     0
 78
     0
  0
ENDTAB
  0
TABLE
  2
LTYPE
  5
69
330
0
100
AcDbSymbolTable
 70
     5
  0
LTYPE
  5
6A
330
69
100
AcDbSymbolTableRecord
100
AcDbLinetypeTableRecord
  2
BYBLOCK
 70
     0
  3

 72
    65
 73
     0
 40
0.0
  0
LTYPE
  5
6B
330
69
100
AcDbSymbolTableRecord
100
AcDbLinetypeTableRecord
  2
BYLAYER
 70
     0
  3

 72
    65
 73
     0
 40
0.0
  0
LTYPE
  5
8
330
69
100
AcDbSymbolTableRecord
100
AcDbLinetypeTableRecord
  2
CONTINUOUS
 70
     0
  3
Solid line
 72
    65
 73
     0
 40
0.0
  0
LTYPE
  5
27C
330
69
100
AcDbSymbolTableRecord
100
AcDbLinetypeTableRecord
  2
SEKKEI_A2_
 70
     0
  3
center(A2)  ____ _ ____ _ ____ _ ____ _ ____ _ 
 72
    65
 73
     4
 40
14.28749999999999
 49
9.525
 74
     0
 49
-1.587499999999999
 74
     0
 49
1.587499999999999
 74
     0
 49
-1.587499999999999
 74
     0
  0
LTYPE
  5
7F0
330
69
100
AcDbSymbolTableRecord
100
AcDbLinetypeTableRecord
  2
HIDDEN3
 70
     0
  3
Hidden (.3x) _ _ _ _ _ _ _ _ _ _ _ _ _ _ _ _ _
 72
    65
 73
     2
 40
2.857499999999999
 49
1.905
 74
     0
 49
-0.9525
 74
     0
  0
LTYPE
  5
ADB
330
69
100
AcDbSymbolTableRecord
100
AcDbLinetypeTableRecord
  2
CENS
 70
     0
  3
(一点鎖線１)---- - ---- - ---- - ---- - ---- - 
 72
    65
 73
     4
 40
7.0
 49
4.0
 74
     0
 49
-1.0
 74
     0
 49
1.0
 74
     0
 49
-1.0
 74
     0
  0
ENDTAB
  0
TABLE
  2
LAYER
  5
66
102
{ACAD_XDICTIONARY
360
ADC
102
}
330
0
100
AcDbSymbolTable
 70
     9
  0
LAYER
  5
5E
102
{ACAD_XDICTIONARY
360
1D2D
102
}
330
66
100
AcDbSymbolTableRecord
100
AcDbLayerTableRecord
  2
0
 70
     0
 62
     7
  6
CONTINUOUS
  0
LAYER
  5
3E
102
{ACAD_XDICTIONARY
360
1D2F
102
}
330
66
100
AcDbSymbolTableRecord
100
AcDbLayerTableRecord
  2
CENTER
 70
     0
 62
     3
  6
SEKKEI_A2_
  0
LAYER
  5
2B5
102
{ACAD_XDICTIONARY
360
1D35
102
}
330
66
100
AcDbSymbolTableRecord
100
AcDbLayerTableRecord
  2
HIDS
 70
     0
 62
     1
  6
HIDDEN3
  0
LAYER
  5
2BA
102
{ACAD_XDICTIONARY
360
1D37
102
}
330
66
100
AcDbSymbolTableRecord
100
AcDbLayerTableRecord
  2
HOJO
 70
     0
 62
     4
  6
CONTINUOUS
  0
LAYER
  5
3FA
102
{ACAD_XDICTIONARY
360
1D3B
102
}
330
66
100
AcDbSymbolTableRecord
100
AcDbLayerTableRecord
  2
TITLE
 70
     0
 62
     4
  6
CONTINUOUS
  0
ENDTAB
  0
TABLE
  2
STYLE
  5
67
330
0
100
AcDbSymbolTable
 70
     1
  0
STYLE
  5
16
330
67
100
AcDbSymbolTableRecord
100
AcDbTextStyleTableRecord
  2
STANDARD
 70
     0
 40
0.0
 41
1.0
 50
0.0
 71
     0
 42
2.0
  3
simplex.shx
  4
extfont.shx
  0
ENDTAB
  0
TABLE
  2
VIEW
  5
6C
330
0
100
AcDbSymbolTable
 70
     0
  0
ENDTAB
  0
TABLE
  2
UCS
  5
6D
330
0
100
AcDbSymbolTable
 70
     0
  0
ENDTAB
  0
TABLE
  2
APPID
  5
70
330
0
100
AcDbSymbolTable
 70
     2
  0
APPID
  5
71
330
70
100
AcDbSymbolTableRecord
100
AcDbRegAppTableRecord
  2
ACAD
 70
     0
  0
APPID
  5
1680
330
70
100
AcDbSymbolTableRecord
100
AcDbRegAppTableRecord
  2
ACAD_MLEADERVER
 70
     0
  0
ENDTAB
  0
TABLE
  2
DIMSTYLE
  5
72
330
0
100
AcDbSymbolTable
 70
     1
  0
DIMSTYLE
105
73
330
72
100
AcDbSymbolTableRecord
100
AcDbDimStyleTableRecord
  2
STANDARD
 70
     0
  3

  4

  5

  6

  7

 40
3.0
 41
1.8
 42
0.625
 43
3.75
 44
0.8
 45
0.0
 46
0.0
 47
0.0
 48
0.0
140
1.8
141
2.5
142
0.0
143
0.0394
144
1.0
145
0.0
146
1.0
147
0.75
 71
     0
 72
     0
 73
     0
 74
     0
 75
     0
 76
     0
 77
     1
 78
     8
170
     0
171
     4
172
     1
173
     0
174
     0
175
     0
176
     0
177
     0
178
     0
270
     8
271
     2
272
     2
273
     8
274
     4
340
16
275
     0
280
     0
281
     0
282
     0
283
     1
284
     0
285
     0
286
     0
287
     3
288
     0
  0
ENDTAB
  0
TABLE
  2
BLOCK_RECORD
  5
1
330
0
100
AcDbSymbolTable
 70
    42
  0
BLOCK_RECORD
  5
2
102
{ACAD_XDICTIONARY
360
3ED7
102
}
330
1
100
AcDbSymbolTableRecord
100
AcDbBlockTableRecord
  2
*MODEL_SPACE
  0
BLOCK_RECORD
  5
3EB0
102
{ACAD_XDICTIONARY
360
3ED9
102
}
330
1
100
AcDbSymbolTableRecord
100
AcDbBlockTableRecord
  2
*PAPER_SPACE
  0
ENDTAB
  0
ENDSEC
  0
SECTION
  2
BLOCKS
  0
BLOCK
  5
5D
330
2
100
AcDbEntity
  8
0
100
AcDbBlockBegin
  2
*MODEL_SPACE
 70
     0
 10
0.0
 20
0.0
 30
0.0
  3
*MODEL_SPACE
  1

  0
ENDBLK
  5
5F
330
2
100
AcDbEntity
  8
0
100
AcDbBlockEnd
  0
BLOCK
  5
3EB2
330
3EB0
100
AcDbEntity
 67
     1
  8
0
100
AcDbBlockBegin
  2
*PAPER_SPACE
 70
     0
 10
0.0
 20
0.0
 30
0.0
  3
*PAPER_SPACE
  1

  0
ENDBLK
  5
3EB3
330
3EB0
100
AcDbEntity
 67
     1
  8
0
100
AcDbBlockEnd
  0
ENDSEC
  0
SECTION
  2
ENTITIES
  0
TEXT
  5
EF0
330
2
100
AcDbEntity
  8
TITLE
100
AcDbText
 10
387.651463420334
 20
459.5261773309297
 30
0.0
 40
7.5
  1
AFCZ22H-7~10M750S1
100
AcDbText
  0
TEXT
  5
EF1
330
2
100
AcDbEntity
  8
TITLE
100
AcDbText
 10
387.651463420334
 20
448.0261773309297
 30
0.0
 40
7.5
  1
AFCZ22H-7~10L750S1
100
AcDbText
  0
LINE
  5
3808
330
2
100
AcDbEntity
  8
0
100
AcDbLine
 10
230.2289441888802
 20
183.146558098397
 30
0.0
 11
180.6065778247825
 21
183.1465580983975
 31
0.0
  0
ARC
  5
3809
330
2
100
AcDbEntity
  8
0
100
AcDbCircle
 10
205.4177610068286
 20
-12.35344190159682
 30
0.0
 40
200.0
100
AcDbArc
 50
84.10530161359629
 51
95.89469838640374
  0
LINE
  5
380A
330
2
100
AcDbEntity
  8
0
100
AcDbLine
 10
230.2289441888802
 20
177.646558098397
 30
0.0
 11
180.6065778247825
 21
177.6465580983975
 31
0.0
  0
LINE
  5
380B
330
2
100
AcDbEntity
  8
0
100
AcDbLine
 10
180.6065778247825
 20
90.14655809840906
 30
0.0
 11
230.2289441888802
 21
90.14655809840929
 31
0.0
  0
LINE
  5
380C
330
2
100
AcDbEntity
  8
0
100
AcDbLine
 10
180.6065778247825
 20
95.64655809840905
 30
0.0
 11
230.2289441888802
 21
95.64655809840928
 31
0.0
  0
ARC
  5
380D
330
2
100
AcDbEntity
  8
0
100
AcDbCircle
 10
205.4177610068286
 20
285.6465580984031
 30
0.0
 40
200.0
100
AcDbArc
 50
264.1053016135962
 51
275.8946983864037
  0
LINE
  5
380E
330
2
100
AcDbEntity
  8
CENTER
100
AcDbLine
 10
259.0243627246272
 20
83.03995638060724
 30
0.0
 11
151.8111592890336
 21
190.2531598162008
 31
0.0
  0
LINE
  5
380F
330
2
100
AcDbEntity
  8
CENTER
100
AcDbLine
 10
151.8111592890341
 20
83.03995638060518
 30
0.0
 11
259.0243627246327
 21
190.2531598162044
 31
0.0
  0
CIRCLE
  5
3810
330
2
100
AcDbEntity
  8
0
100
AcDbCircle
 10
205.4177610068322
 20
136.6465580984034
 30
0.0
 40
26.57735026918937
  0
CIRCLE
  5
3811
330
2
100
AcDbEntity
  8
0
100
AcDbCircle
 10
205.4177610068322
 20
136.6465580984034
 30
0.0
 40
26.0
  0
CIRCLE
  5
3812
330
2
100
AcDbEntity
  8
0
100
AcDbCircle
 10
205.4177610068322
 20
136.6465580984032
 30
0.0
 40
32.42260000000154
  0
CIRCLE
  5
3813
330
2
100
AcDbEntity
  8
0
100
AcDbCircle
 10
205.4177610068322
 20
136.6465580984032
 30
0.0
 40
35.50000000000153
  0
CIRCLE
  5
3814
330
2
100
AcDbEntity
  8
0
100
AcDbCircle
 10
205.4177610068322
 20
136.6465580984032
 30
0.0
 40
35.00000000000153
  0
CIRCLE
  5
3815
330
2
100
AcDbEntity
  8
0
100
AcDbCircle
 10
205.4177610068322
 20
136.6465580984032
 30
0.0
 40
33.00000000000153
  0
LINE
  5
3816
330
2
100
AcDbEntity
  8
CENTER
100
AcDbLine
 10
266.4177610068288
 20
136.6465580983977
 30
0.0
 11
44.41773900683415
 21
136.6465580983977
 31
0.0
  0
LINE
  5
3817
330
2
100
AcDbEntity
  8
0
100
AcDbLine
 10
177.0710439188492
 20
97.11102419247641
 30
0.0
 11
165.8822271009044
 21
108.2998410104212
 31
0.0
  0
ARC
  5
3818
330
2
100
AcDbEntity
  8
0
100
AcDbCircle
 10
129.9177390068339
 20
93.6465580984086
 30
0.0
 40
5.0
100
AcDbArc
 50
90.0
 51
180.0
  0
LINE
  5
3819
330
2
100
AcDbEntity
  8
CENTER
100
AcDbLine
 10
162.4177610068286
 20
84.8965580984027
 30
0.0
 11
162.4177610068286
 21
102.3965580984029
 31
0.0
  0
LINE
  5
381A
330
2
100
AcDbEntity
  8
0
100
AcDbLine
 10
173.1819566223234
 20
93.22193689595019
 30
0.0
 11
161.9931398043786
 21
104.4107537138952
 31
0.0
  0
CIRCLE
  5
381B
330
2
100
AcDbEntity
  8
0
100
AcDbCircle
 10
162.4177610068322
 20
93.64655809840291
 30
0.0
 40
4.307179676972509
  0
CIRCLE
  5
381C
330
2
100
AcDbEntity
  8
0
100
AcDbCircle
 10
162.4177610068322
 20
93.64655809840291
 30
0.0
 40
5.000000000000113
  0
LINE
  5
381D
330
2
100
AcDbEntity
  8
0
100
AcDbLine
 10
154.937761006829
 20
93.64655809840224
 30
0.0
 11
154.937761006829
 21
179.646558098402
 31
0.0
  0
LINE
  5
381E
330
2
100
AcDbEntity
  8
0
100
AcDbLine
 10
154.4177610068395
 20
93.64655809840838
 30
0.0
 11
154.4177610068395
 21
179.6465580984031
 31
0.0
  0
LINE
  5
381F
330
2
100
AcDbEntity
  8
0
100
AcDbLine
 10
124.9177390068339
 20
87.14655809840815
 30
0.0
 11
124.9177390068357
 21
186.1465580984089
 31
0.0
  0
LINE
  5
3820
330
2
100
AcDbEntity
  8
CENTER
100
AcDbLine
 10
205.4177610068322
 20
75.64655809840314
 30
0.0
 11
205.4177610068322
 21
197.6465580984032
 31
0.0
  0
LINE
  5
3821
330
2
100
AcDbEntity
  8
0
100
AcDbLine
 10
87.41773900683416
 20
89.90937842142518
 30
0.0
 11
87.41773900683416
 21
98.52373777537019
 31
0.0
  0
LINE
  5
3822
330
2
100
AcDbEntity
  8
0
100
AcDbLine
 10
93.41773900683415
 20
99.21655809839791
 30
0.0
 11
93.41773900683415
 21
89.21655809839791
 31
0.0
  0
LINE
  5
3823
330
2
100
AcDbEntity
  8
0
100
AcDbLine
 10
94.41773900683415
 20
89.21655809839791
 30
0.0
 11
94.41773900683415
 21
99.21655809839791
 31
0.0
  0
LINE
  5
3824
330
2
100
AcDbEntity
  8
0
100
AcDbLine
 10
93.41773900683415
 20
99.21655809839791
 30
0.0
 11
93.41773900683415
 21
89.21655809839791
 31
0.0
  0
LINE
  5
3825
330
2
100
AcDbEntity
  8
0
100
AcDbLine
 10
87.81773900683379
 20
99.21655809839791
 30
0.0
 11
87.81773900683379
 21
89.21655809839791
 31
0.0
  0
LINE
  5
3826
330
2
100
AcDbEntity
  8
0
100
AcDbLine
 10
54.41773900683415
 20
176.6465580983974
 30
0.0
 11
54.41773900683415
 21
96.64655809839821
 31
0.0
  0
LINE
  5
3827
330
2
100
AcDbEntity
  8
0
100
AcDbLine
 10
94.41773900683143
 20
186.524343870941
 30
0.0
 11
94.41773900683234
 21
86.76877232585463
 31
0.0
  0
LINE
  5
3828
330
2
100
AcDbEntity
  8
0
100
AcDbLine
 10
58.41773900683051
 20
176.7163783581102
 30
0.0
 11
58.41773900683233
 21
96.57673783868524
 31
0.0
  0
LINE
  5
3829
330
2
100
AcDbEntity
  8
0
100
AcDbLine
 10
60.41773900683051
 20
178.6465580983947
 30
0.0
 11
60.41773900683051
 21
94.64655809840115
 31
0.0
  0
LINE
  5
382A
330
2
100
AcDbEntity
  8
0
100
AcDbLine
 10
109.4177390068341
 20
85.1465580984032
 30
0.0
 11
109.4177390068341
 21
136.6465580984032
 31
0.0
  0
LINE
  5
382B
330
2
100
AcDbEntity
  8
0
100
AcDbLine
 10
109.4177390068339
 20
85.1465580984086
 30
0.0
 11
122.9177390068339
 21
85.14655809840816
 31
0.0
  0
LINE
  5
382C
330
2
100
AcDbEntity
  8
0
100
AcDbLine
 10
109.4177390068339
 20
85.64655809840861
 30
0.0
 11
122.9177390068339
 21
85.64655809840814
 31
0.0
  0
LINE
  5
382D
330
2
100
AcDbEntity
  8
0
100
AcDbLine
 10
60.41773900683415
 20
94.6465580983982
 30
0.0
 11
87.41773900683416
 21
94.48947669350223
 31
0.0
  0
LINE
  5
382E
330
2
100
AcDbEntity
  8
0
100
AcDbLine
 10
54.41773900683415
 20
96.64655809839821
 30
0.0
 11
58.41773900683233
 21
96.57673783868546
 31
0.0
  0
LINE
  5
382F
330
2
100
AcDbEntity
  8
0
100
AcDbLine
 10
58.41773900683233
 20
96.57673783868546
 30
0.0
 11
60.41773900683415
 21
94.6465580983982
 31
0.0
  0
LINE
  5
3830
330
2
100
AcDbEntity
  8
CENTER
  6
CENS
100
AcDbLine
 10
114.4177390068341
 20
94.21655809839791
 30
0.0
 11
82.41773900683416
 21
94.21655809839791
 31
0.0
  0
LINE
  5
3831
330
2
100
AcDbEntity
  8
0
100
AcDbLine
 10
109.4177390068341
 20
85.6465580983982
 30
0.0
 11
95.40901247133456
 21
85.76881040279028
 31
0.0
  0
ARC
  5
3832
330
2
100
AcDbEntity
  8
0
100
AcDbCircle
 10
95.41773900683233
 20
86.76877232585463
 30
0.0
 40
1.0
100
AcDbArc
 50
180.0
 51
269.5000000000345
  0
LINE
  5
3833
330
2
100
AcDbEntity
  8
0
100
AcDbLine
 10
93.41773900683415
 20
89.21655809839791
 30
0.0
 11
87.81773900683379
 21
89.21655809839791
 31
0.0
  0
LINE
  5
3834
330
2
100
AcDbEntity
  8
0
100
AcDbLine
 10
87.81773900683379
 20
89.21655809839768
 30
0.0
 11
87.41773900683416
 21
89.90937842142518
 31
0.0
  0
LINE
  5
3835
330
2
100
AcDbEntity
  8
0
100
AcDbLine
 10
93.41773900683415
 20
89.21655809839791
 30
0.0
 11
94.41773900683415
 21
89.21655809839791
 31
0.0
  0
LINE
  5
3836
330
2
100
AcDbEntity
  8
CENTER
100
AcDbLine
 10
153.6677610068286
 20
93.64655809840291
 30
0.0
 11
171.1677610068286
 21
93.64655809840291
 31
0.0
  0
LINE
  5
3837
330
2
100
AcDbEntity
  8
0
100
AcDbLine
 10
162.4177610068322
 20
96.53330944435106
 30
0.0
 11
164.9177610068322
 21
95.08993377137676
 31
0.0
  0
LINE
  5
3838
330
2
100
AcDbEntity
  8
0
100
AcDbLine
 10
164.9177610068322
 20
92.20318242542886
 30
0.0
 11
162.4177610068322
 21
90.75980675245478
 31
0.0
  0
LINE
  5
3839
330
2
100
AcDbEntity
  8
0
100
AcDbLine
 10
162.4177610068322
 20
85.64655809840315
 30
0.0
 11
165.4177610068322
 21
85.6465580984036
 31
0.0
  0
LINE
  5
383A
330
2
100
AcDbEntity
  8
0
100
AcDbLine
 10
162.4177610068268
 20
85.6465580984036
 30
0.0
 11
165.4177610068286
 21
85.6465580984036
 31
0.0
  0
ARC
  5
383B
330
2
100
AcDbEntity
  8
0
100
AcDbCircle
 10
122.9177390068339
 20
87.64655809840816
 30
0.0
 40
2.0
100
AcDbArc
 50
270.0
 51
0.0
  0
ARC
  5
383C
330
2
100
AcDbEntity
  8
0
100
AcDbCircle
 10
122.9177390068339
 20
87.14655809840815
 30
0.0
 40
2.0
100
AcDbArc
 50
270.0
 51
0.0
  0
ARC
  5
383D
330
2
100
AcDbEntity
  8
0
100
AcDbCircle
 10
162.4177610068322
 20
93.64655809840314
 30
0.0
 40
8.0
100
AcDbArc
 50
180.0
 51
270.0
  0
ARC
  5
383E
330
2
100
AcDbEntity
  8
0
100
AcDbCircle
 10
162.4177610068286
 20
93.64655809840883
 30
0.0
 40
8.0
100
AcDbArc
 50
180.0
 51
270.0
  0
ARC
  5
383F
330
2
100
AcDbEntity
  8
0
100
AcDbCircle
 10
162.937761006829
 20
93.64655809840224
 30
0.0
 40
8.0
100
AcDbArc
 50
179.9999999999739
 51
270.0
  0
LINE
  5
3840
330
2
100
AcDbEntity
  8
0
100
AcDbLine
 10
154.4177610068322
 20
96.64655809840565
 30
0.0
 11
154.4177610068322
 21
93.64655809840314
 31
0.0
  0
LINE
  5
3841
330
2
100
AcDbEntity
  8
0
100
AcDbLine
 10
162.4177610068322
 20
96.53330944435106
 30
0.0
 11
159.9177610068322
 21
95.08993377137699
 31
0.0
  0
LINE
  5
3842
330
2
100
AcDbEntity
  8
0
100
AcDbLine
 10
159.9177610068322
 20
92.20318242542886
 30
0.0
 11
162.4177610068322
 21
90.75980675245478
 31
0.0
  0
LINE
  5
3843
330
2
100
AcDbEntity
  8
0
100
AcDbLine
 10
159.9177610068322
 20
92.20318242542886
 30
0.0
 11
159.9177610068322
 21
95.08993377137699
 31
0.0
  0
ARC
  5
3844
330
2
100
AcDbEntity
  8
0
100
AcDbCircle
 10
178.7156320765038
 20
27.02135377641889
 30
0.0
 40
60.0
100
AcDbArc
 50
84.10530161359629
 51
101.8050678104414
  0
ARC
  5
3845
330
2
100
AcDbEntity
  8
0
100
AcDbCircle
 10
165.4177610068322
 20
90.6465580984036
 30
0.0
 40
5.0
100
AcDbArc
 50
270.0
 51
281.8050678104415
  0
ARC
  5
3846
330
2
100
AcDbEntity
  8
0
100
AcDbCircle
 10
165.4177610068286
 20
90.6465580984036
 30
0.0
 40
5.0
100
AcDbArc
 50
270.0
 51
281.8050678104415
  0
ARC
  5
3847
330
2
100
AcDbEntity
  8
0
100
AcDbCircle
 10
180.6065778247825
 20
100.646558098409
 30
0.0
 40
10.5
100
AcDbArc
 50
224.9999999999896
 51
270.0
  0
LINE
  5
3848
330
2
100
AcDbEntity
  8
0
100
AcDbLine
 10
164.9177610068322
 20
92.20318242542886
 30
0.0
 11
164.9177610068322
 21
95.08993377137676
 31
0.0
  0
ARC
  5
3849
330
2
100
AcDbEntity
  8
0
100
AcDbCircle
 10
180.6065778247825
 20
100.646558098409
 30
0.0
 40
5.0
100
AcDbArc
 50
224.9999999999896
 51
270.0
  0
LINE
  5
384A
330
2
100
AcDbEntity
  8
0
100
AcDbLine
 10
176.5884017849489
 20
90.94582300704042
 30
0.0
 11
178.6931606629564
 21
96.02716043585246
 31
0.0
  0
LINE
  5
384B
330
2
100
AcDbEntity
  8
0
100
AcDbLine
 10
164.9177610068304
 20
178.2031824254298
 30
0.0
 11
164.9177610068304
 21
181.0899337713777
 31
0.0
  0
LINE
  5
384C
330
2
100
AcDbEntity
  8
0
100
AcDbLine
 10
176.5884017849489
 20
182.3472931897659
 30
0.0
 11
178.6931606629564
 21
177.2659557609538
 31
0.0
  0
LINE
  5
384D
330
2
100
AcDbEntity
  8
0
100
AcDbLine
 10
154.4177610068322
 20
179.6465580984031
 30
0.0
 11
154.4177610068322
 21
176.6465580984057
 31
0.0
  0
LINE
  5
384E
330
2
100
AcDbEntity
  8
0
100
AcDbLine
 10
159.9177610068322
 20
178.2031824254298
 30
0.0
 11
159.9177610068322
 21
181.0899337713779
 31
0.0
  0
ARC
  5
384F
330
2
100
AcDbEntity
  8
0
100
AcDbCircle
 10
129.9177390068339
 20
179.6465580984084
 30
0.0
 40
5.0
100
AcDbArc
 50
180.0
 51
270.0
  0
LINE
  5
3850
330
2
100
AcDbEntity
  8
CENTER
100
AcDbLine
 10
162.4177610068304
 20
188.3965580984066
 30
0.0
 11
162.4177610068304
 21
170.8965580984066
 31
0.0
  0
CIRCLE
  5
3851
330
2
100
AcDbEntity
  8
0
100
AcDbCircle
 10
162.4177610068304
 20
179.6465580984038
 30
0.0
 40
4.307179676972509
  0
CIRCLE
  5
3852
330
2
100
AcDbEntity
  8
0
100
AcDbCircle
 10
162.4177610068304
 20
179.6465580984038
 30
0.0
 40
5.000000000000113
  0
LINE
  5
3853
330
2
100
AcDbEntity
  8
0
100
AcDbLine
 10
161.9931398043786
 20
168.8823624829111
 30
0.0
 11
173.1819566223234
 21
180.0711793008561
 31
0.0
  0
LINE
  5
3854
330
2
100
AcDbEntity
  8
CENTER
  6
CENS
100
AcDbLine
 10
68.41773900683415
 20
187.5889579719155
 30
0.0
 11
68.41773900683415
 21
164.2290319695487
 31
0.0
  0
ARC
  5
3855
330
2
100
AcDbEntity
  8
0
100
AcDbCircle
 10
63.41782193869744
 20
178.6643029634451
 30
0.0
 40
4.000000000000014
100
AcDbArc
 50
90.32999999998624
 51
180.3299999999993
  0
LINE
  5
3856
330
2
100
AcDbEntity
  8
0
100
AcDbLine
 10
87.41773900683416
 20
183.3837377753704
 30
0.0
 11
87.41773900683416
 21
174.7693784214254
 31
0.0
  0
LINE
  5
3857
330
2
100
AcDbEntity
  8
0
100
AcDbLine
 10
93.41773900683415
 20
174.0765580983977
 30
0.0
 11
93.41773900683415
 21
184.0765580983977
 31
0.0
  0
LINE
  5
3858
330
2
100
AcDbEntity
  8
0
100
AcDbLine
 10
94.41773900683415
 20
184.0765580983977
 30
0.0
 11
94.41773900683415
 21
174.0765580983977
 31
0.0
  0
LINE
  5
3859
330
2
100
AcDbEntity
  8
0
100
AcDbLine
 10
93.41773900683415
 20
174.0765580983977
 30
0.0
 11
93.41773900683415
 21
184.0765580983977
 31
0.0
  0
LINE
  5
385A
330
2
100
AcDbEntity
  8
0
100
AcDbLine
 10
87.81773900683379
 20
174.0765580983977
 30
0.0
 11
87.81773900683379
 21
184.0765580983977
 31
0.0
  0
LINE
  5
385B
330
2
100
AcDbEntity
  8
0
100
AcDbLine
 10
59.41789133415091
 20
178.6407411548009
 30
0.0
 11
87.41773900683416
 21
178.8036395032932
 31
0.0
  0
LINE
  5
385C
330
2
100
AcDbEntity
  8
0
100
AcDbLine
 10
109.4177390068341
 20
188.1465580984033
 30
0.0
 11
109.4177390068341
 21
136.6465580984032
 31
0.0
  0
LINE
  5
385D
330
2
100
AcDbEntity
  8
0
100
AcDbLine
 10
87.81773900683379
 20
99.21655809839791
 30
0.0
 11
93.41773900683415
 21
99.21655809839791
 31
0.0
  0
LINE
  5
385E
330
2
100
AcDbEntity
  8
0
100
AcDbLine
 10
87.81773900683379
 20
99.21655809839791
 30
0.0
 11
87.41773900683416
 21
98.52373777537019
 31
0.0
  0
LINE
  5
385F
330
2
100
AcDbEntity
  8
0
100
AcDbLine
 10
94.41773900683415
 20
99.21655809839791
 30
0.0
 11
93.41773900683415
 21
99.21655809839791
 31
0.0
  0
LINE
  5
3860
330
2
100
AcDbEntity
  8
0
100
AcDbLine
 10
54.41773900683415
 20
176.6465580983974
 30
0.0
 11
58.41773900683051
 21
176.7163783581102
 31
0.0
  0
LINE
  5
3861
330
2
100
AcDbEntity
  8
0
100
AcDbLine
 10
58.41773900683051
 20
176.7163783581102
 30
0.0
 11
60.41773900683051
 21
178.6465580983947
 31
0.0
  0
LINE
  5
3862
330
2
100
AcDbEntity
  8
0
100
AcDbLine
 10
87.81773900683379
 20
174.0765580983977
 30
0.0
 11
93.41773900683415
 21
174.0765580983977
 31
0.0
  0
LINE
  5
3863
330
2
100
AcDbEntity
  8
0
100
AcDbLine
 10
87.81773900683379
 20
174.0765580983977
 30
0.0
 11
87.41773900683416
 21
174.7693784214254
 31
0.0
  0
LINE
  5
3864
330
2
100
AcDbEntity
  8
0
100
AcDbLine
 10
94.41773900683415
 20
174.0765580983977
 30
0.0
 11
93.41773900683415
 21
174.0765580983977
 31
0.0
  0
LINE
  5
3865
330
2
100
AcDbEntity
  8
0
100
AcDbLine
 10
153.9177610068304
 20
128.9654123505436
 30
0.0
 11
153.9177610068322
 21
144.3277038462627
 31
0.0
  0
LINE
  5
3866
330
2
100
AcDbEntity
  8
0
100
AcDbLine
 10
158.9177610068377
 20
161.4577412804522
 30
0.0
 11
158.9177610068377
 21
111.8353749163541
 31
0.0
  0
LINE
  5
3867
330
2
100
AcDbEntity
  8
0
100
AcDbLine
 10
164.4177610068377
 20
161.4577412804522
 30
0.0
 11
164.4177610068377
 21
111.8353749163539
 31
0.0
  0
LINE
  5
3868
330
2
100
AcDbEntity
  8
0
100
AcDbLine
 10
133.9177390068339
 20
172.6465580984082
 30
0.0
 11
133.9177390068339
 21
100.6465580983985
 31
0.0
  0
LINE
  5
3869
330
2
100
AcDbEntity
  8
0
100
AcDbLine
 10
159.7170259154695
 20
107.8171988765209
 30
0.0
 11
164.7983633442813
 21
109.9219577545287
 31
0.0
  0
LINE
  5
386A
330
2
100
AcDbEntity
  8
0
100
AcDbLine
 10
135.7907443530416
 20
101.6465580984004
 30
0.0
 11
152.4177610068395
 21
101.6465580984001
 31
0.0
  0
LINE
  5
386B
330
2
100
AcDbEntity
  8
0
100
AcDbLine
 10
149.4177610068341
 20
106.6465580984026
 30
0.0
 11
138.9177390068321
 21
106.6465580984033
 31
0.0
  0
ARC
  5
386C
330
2
100
AcDbEntity
  8
0
100
AcDbCircle
 10
138.9177390068302
 20
101.6465580984031
 30
0.0
 40
5.0
100
AcDbArc
 50
90.0
 51
180.0
  0
LINE
  5
386D
330
2
100
AcDbEntity
  8
0
100
AcDbLine
 10
131.9177390068302
 20
98.64655809840337
 30
0.0
 11
129.9177390068339
 21
98.6465580984036
 31
0.0
  0
ARC
  5
386E
330
2
100
AcDbEntity
  8
0
100
AcDbCircle
 10
131.9177390068302
 20
100.6465580983985
 30
0.0
 40
2.0
100
AcDbArc
 50
270.0
 51
0.0
  0
ARC
  5
386F
330
2
100
AcDbEntity
  8
0
100
AcDbCircle
 10
135.7907443530416
 20
99.64655809840042
 30
0.0
 40
2.0
100
AcDbArc
 50
90.0
 51
165.5224878140405
  0
ARC
  5
3870
330
2
100
AcDbEntity
  8
0
100
AcDbCircle
 10
149.4177610068341
 20
101.6465580984026
 30
0.0
 40
5.0
100
AcDbArc
 50
0.0
 51
90.0
  0
ARC
  5
3871
330
2
100
AcDbEntity
  8
0
100
AcDbCircle
 10
169.4177610068377
 20
111.8353749163541
 30
0.0
 40
10.5
100
AcDbArc
 50
180.0
 51
224.9999999999896
  0
ARC
  5
3872
330
2
100
AcDbEntity
  8
0
100
AcDbCircle
 10
152.4177610068395
 20
99.64655809840019
 30
0.0
 40
2.0
100
AcDbArc
 50
0.0
 51
90.0
  0
LINE
  5
3873
330
2
100
AcDbEntity
  8
0
100
AcDbLine
 10
133.9177390068339
 20
128.9654123505436
 30
0.0
 11
154.4177610068377
 21
128.9654123505436
 31
0.0
  0
ARC
  5
3874
330
2
100
AcDbEntity
  8
0
100
AcDbCircle
 10
169.4177610068377
 20
111.8353749163539
 30
0.0
 40
5.0
100
AcDbArc
 50
180.0
 51
224.9999999999896
  0
LINE
  5
3875
330
2
100
AcDbEntity
  8
CENTER
100
AcDbLine
 10
154.7445559260809
 20
171.1465580984034
 30
0.0
 11
165.0909660875945
 21
171.1465580984034
 31
0.0
  0
LINE
  5
3876
330
2
100
AcDbEntity
  8
0
100
AcDbLine
 10
164.9177610068304
 20
178.2031824254298
 30
0.0
 11
162.4177610068322
 21
176.7598067524557
 31
0.0
  0
LINE
  5
3877
330
2
100
AcDbEntity
  8
0
100
AcDbLine
 10
159.7170259154695
 20
165.4759173202854
 30
0.0
 11
164.7983633442813
 21
163.3711584422774
 31
0.0
  0
LINE
  5
3878
330
2
100
AcDbEntity
  8
0
100
AcDbLine
 10
133.9177390068339
 20
144.3277038462629
 30
0.0
 11
154.4177610068377
 21
144.3277038462625
 31
0.0
  0
LINE
  5
3879
330
2
100
AcDbEntity
  8
0
100
AcDbLine
 10
135.7907443530398
 20
171.6465580984002
 30
0.0
 11
152.4177610068395
 21
171.6465580984002
 31
0.0
  0
LINE
  5
387A
330
2
100
AcDbEntity
  8
0
100
AcDbLine
 10
149.4177610068341
 20
166.6465580984032
 30
0.0
 11
138.9177390068339
 21
166.6465580984032
 31
0.0
  0
ARC
  5
387B
330
2
100
AcDbEntity
  8
0
100
AcDbCircle
 10
138.9177390068339
 20
171.6465580984032
 30
0.0
 40
5.0
100
AcDbArc
 50
180.0
 51
270.0
  0
LINE
  5
387C
330
2
100
AcDbEntity
  8
0
100
AcDbLine
 10
131.9177390068339
 20
174.6465580984091
 30
0.0
 11
129.9177390068321
 21
174.6465580984095
 31
0.0
  0
ARC
  5
387D
330
2
100
AcDbEntity
  8
0
100
AcDbCircle
 10
135.7907443530398
 20
173.6465580984002
 30
0.0
 40
2.0
100
AcDbArc
 50
194.4775121859594
 51
270.0
  0
ARC
  5
387E
330
2
100
AcDbEntity
  8
0
100
AcDbCircle
 10
131.9177390068339
 20
172.6465580984082
 30
0.0
 40
2.0
100
AcDbArc
 50
0.0
 51
89.99999999994789
  0
ARC
  5
387F
330
2
100
AcDbEntity
  8
0
100
AcDbCircle
 10
149.4177610068341
 20
171.6465580984032
 30
0.0
 40
5.0
100
AcDbArc
 50
270.0
 51
0.0
  0
LINE
  5
3880
330
2
100
AcDbEntity
  8
CENTER
100
AcDbLine
 10
159.9177610068377
 20
176.3197631791604
 30
0.0
 11
159.9177610068377
 21
165.9733530176463
 31
0.0
  0
ARC
  5
3881
330
2
100
AcDbEntity
  8
0
100
AcDbCircle
 10
169.4177610068377
 20
161.4577412804522
 30
0.0
 40
10.5
100
AcDbArc
 50
135.0000000000103
 51
180.0
  0
ARC
  5
3882
330
2
100
AcDbEntity
  8
0
100
AcDbCircle
 10
152.4177610068395
 20
173.6465580984002
 30
0.0
 40
2.0
100
AcDbArc
 50
270.0
 51
0.0
  0
LINE
  5
3883
330
2
100
AcDbEntity
  8
0
100
AcDbLine
 10
159.9177610068322
 20
178.2031824254298
 30
0.0
 11
162.4177610068322
 21
176.7598067524557
 31
0.0
  0
CIRCLE
  5
3884
330
2
100
AcDbEntity
  8
0
100
AcDbCircle
 10
159.9177610068377
 20
171.1465580984034
 30
0.0
 40
1.6
  0
CIRCLE
  5
3885
330
2
100
AcDbEntity
  8
HOJO
100
AcDbCircle
 10
159.9177610068377
 20
171.1465580984034
 30
0.0
 40
2.0
  0
LINE
  5
3886
330
2
100
AcDbEntity
  8
0
100
AcDbLine
 10
165.8822271009044
 20
164.9932751863851
 30
0.0
 11
177.0710439188492
 21
176.1820920043301
 31
0.0
  0
ARC
  5
3887
330
2
100
AcDbEntity
  8
0
100
AcDbCircle
 10
169.4177610068377
 20
161.4577412804522
 30
0.0
 40
5.0
100
AcDbArc
 50
135.0000000000103
 51
180.0
  0
ARC
  5
3888
330
2
100
AcDbEntity
  8
0
100
AcDbCircle
 10
180.6065778247825
 20
172.6465580983975
 30
0.0
 40
5.0
100
AcDbArc
 50
90.0
 51
135.0000000000103
  0
LINE
  5
3889
330
2
100
AcDbEntity
  8
0
100
AcDbLine
 10
109.4177390068339
 20
188.1465580984086
 30
0.0
 11
122.9177390068357
 21
188.1465580984091
 31
0.0
  0
LINE
  5
388A
330
2
100
AcDbEntity
  8
0
100
AcDbLine
 10
109.4177390068339
 20
187.6465580984086
 30
0.0
 11
122.9177390068357
 21
187.6465580984091
 31
0.0
  0
ARC
  5
388B
330
2
100
AcDbEntity
  8
0
100
AcDbCircle
 10
73.41765607497086
 20
178.7218985103249
 30
0.0
 40
4.000000000000014
100
AcDbArc
 50
0.32999999999927
 51
90.32999999998624
  0
LINE
  5
388C
330
2
100
AcDbEntity
  8
0
100
AcDbLine
 10
63.39478371994459
 20
182.6642366179544
 30
0.0
 11
73.39461785621802
 21
182.7218321648345
 31
0.0
  0
LINE
  5
388D
330
2
100
AcDbEntity
  8
CENTER
  6
CENS
100
AcDbLine
 10
114.4177390068341
 20
179.0765580983977
 30
0.0
 11
82.41773900683416
 21
179.0765580983977
 31
0.0
  0
LINE
  5
388E
330
2
100
AcDbEntity
  8
0
100
AcDbLine
 10
109.4177390068341
 20
187.6465580983972
 30
0.0
 11
95.40901247133456
 21
187.5243057940051
 31
0.0
  0
LINE
  5
388F
330
2
100
AcDbEntity
  8
0
100
AcDbLine
 10
93.41773900683415
 20
184.0765580983977
 30
0.0
 11
87.81773900683379
 21
184.0765580983977
 31
0.0
  0
LINE
  5
3890
330
2
100
AcDbEntity
  8
0
100
AcDbLine
 10
87.81773900683379
 20
184.0765580983979
 30
0.0
 11
87.41773900683416
 21
183.3837377753704
 31
0.0
  0
LINE
  5
3891
330
2
100
AcDbEntity
  8
0
100
AcDbLine
 10
93.41773900683415
 20
184.0765580983977
 30
0.0
 11
94.41773900683415
 21
184.0765580983977
 31
0.0
  0
ARC
  5
3892
330
2
100
AcDbEntity
  8
0
100
AcDbCircle
 10
95.41773900683415
 20
186.524343870941
 30
0.0
 40
1.0
100
AcDbArc
 50
90.49999999996549
 51
180.0
  0
LINE
  5
3893
330
2
100
AcDbEntity
  8
CENTER
100
AcDbLine
 10
153.6677610068304
 20
179.6465580984066
 30
0.0
 11
171.1677610068304
 21
179.6465580984066
 31
0.0
  0
LINE
  5
3894
330
2
100
AcDbEntity
  8
0
100
AcDbLine
 10
162.4177610068304
 20
182.533309444352
 30
0.0
 11
164.9177610068304
 21
181.0899337713777
 31
0.0
  0
LINE
  5
3895
330
2
100
AcDbEntity
  8
0
100
AcDbLine
 10
162.4177610068322
 20
187.6465580984032
 30
0.0
 11
165.4177610068322
 21
187.6465580984032
 31
0.0
  0
LINE
  5
3896
330
2
100
AcDbEntity
  8
0
100
AcDbLine
 10
165.4177610068286
 20
187.6465580984032
 30
0.0
 11
162.4177610068395
 21
187.6465580984032
 31
0.0
  0
ARC
  5
3897
330
2
100
AcDbEntity
  8
0
100
AcDbCircle
 10
122.9177390068357
 20
186.1465580984091
 30
0.0
 40
2.0
100
AcDbArc
 50
0.0
 51
90.0
  0
ARC
  5
3898
330
2
100
AcDbEntity
  8
0
100
AcDbCircle
 10
122.9177390068357
 20
185.6465580984091
 30
0.0
 40
2.0
100
AcDbArc
 50
0.0
 51
90.0
  0
ARC
  5
3899
330
2
100
AcDbEntity
  8
0
100
AcDbCircle
 10
162.4177610068322
 20
179.6465580984031
 30
0.0
 40
8.0
100
AcDbArc
 50
90.0
 51
180.0
  0
ARC
  5
389A
330
2
100
AcDbEntity
  8
0
100
AcDbCircle
 10
162.4177610068395
 20
179.6465580984031
 30
0.0
 40
8.0
100
AcDbArc
 50
90.0
 51
180.0
  0
ARC
  5
389B
330
2
100
AcDbEntity
  8
0
100
AcDbCircle
 10
162.9377610068354
 20
179.646558098402
 30
0.0
 40
8.0
100
AcDbArc
 50
90.0
 51
179.9999999999739
  0
LINE
  5
389C
330
2
100
AcDbEntity
  8
0
100
AcDbLine
 10
162.4177610068304
 20
182.533309444352
 30
0.0
 11
159.9177610068322
 21
181.0899337713779
 31
0.0
  0
ARC
  5
389D
330
2
100
AcDbEntity
  8
0
100
AcDbCircle
 10
178.7156320765038
 20
246.2717624203878
 30
0.0
 40
60.0
100
AcDbArc
 50
258.1949321895585
 51
275.8946983864037
  0
ARC
  5
389E
330
2
100
AcDbEntity
  8
0
100
AcDbCircle
 10
180.6065778247825
 20
172.6465580983975
 30
0.0
 40
10.5
100
AcDbArc
 50
90.0
 51
135.0000000000103
  0
ARC
  5
389F
330
2
100
AcDbEntity
  8
0
100
AcDbCircle
 10
165.4177610068322
 20
182.6465580984032
 30
0.0
 40
5.0
100
AcDbArc
 50
78.19493218950516
 51
90.0
  0
ARC
  5
38A0
330
2
100
AcDbEntity
  8
0
100
AcDbCircle
 10
165.4177610068286
 20
182.6465580984032
 30
0.0
 40
5.0
100
AcDbArc
 50
78.19493218955852
 51
90.0
  0
LINE
  5
38A1
330
2
100
AcDbEntity
  8
0
100
AcDbLine
 10
434.837731189506
 20
91.64655809839997
 30
0.0
 11
434.837731189506
 21
181.6465580983995
 31
0.0
  0
LINE
  5
38A2
330
2
100
AcDbEntity
  8
0
100
AcDbLine
 10
429.837731189506
 20
86.36652469114734
 30
0.0
 11
429.837731189506
 21
186.9265915056471
 31
0.0
  0
LINE
  5
38A3
330
2
100
AcDbEntity
  8
CENTER
100
AcDbLine
 10
376.8377311895005
 20
198.1465580983899
 30
0.0
 11
376.8377311895005
 21
75.14655809839098
 31
0.0
  0
LINE
  5
38A5
330
2
100
AcDbEntity
  8
HIDS
100
AcDbLine
 10
334.3377311895205
 20
96.47498522313709
 30
0.0
 11
334.3377311895078
 21
98.646558098382
 31
0.0
  0
LINE
  5
38A6
330
2
100
AcDbEntity
  8
0
100
AcDbLine
 10
332.7377311895074
 20
88.64655809838177
 30
0.0
 11
332.7377311895093
 21
98.646558098382
 31
0.0
  0
LINE
  5
38A7
330
2
100
AcDbEntity
  8
0
100
AcDbLine
 10
332.3377311895096
 20
89.33937842140972
 30
0.0
 11
332.3377311895078
 21
97.95373777535429
 31
0.0
  0
LINE
  5
38A8
330
2
100
AcDbEntity
  8
0
100
AcDbLine
 10
338.3377311895096
 20
88.64655809838177
 30
0.0
 11
338.3377311895096
 21
98.64655809838177
 31
0.0
  0
CIRCLE
  5
38A9
330
2
100
AcDbEntity
  8
0
100
AcDbCircle
 10
248.4177610068341
 20
93.64655809839996
 30
0.0
 40
4.307179676972509
  0
CIRCLE
  5
38AA
330
2
100
AcDbEntity
  8
0
100
AcDbCircle
 10
248.4177610068341
 20
93.64655809839996
 30
0.0
 40
5.000000000000113
  0
ARC
  5
38AB
330
2
100
AcDbEntity
  8
0
100
AcDbCircle
 10
251.4177610068286
 20
96.64655809840315
 30
0.0
 40
5.0
100
AcDbArc
 50
0.0
 51
11.80506781046993
  0
LINE
  5
38AC
330
2
100
AcDbEntity
  8
CENTER
100
AcDbLine
 10
248.4177610068322
 20
84.89655809839996
 30
0.0
 11
248.4177610068322
 21
102.3965580984002
 31
0.0
  0
LINE
  5
38AD
330
2
100
AcDbEntity
  8
0
100
AcDbLine
 10
248.842382209284
 20
104.410753713895
 30
0.0
 11
237.6535653913392
 21
93.22193689595042
 31
0.0
  0
LINE
  5
38AE
330
2
100
AcDbEntity
  8
0
100
AcDbLine
 10
244.9532949127583
 20
108.2998410104212
 30
0.0
 11
233.7644780948135
 21
97.11102419247641
 31
0.0
  0
LINE
  5
38AF
330
2
100
AcDbEntity
  8
CENTER
100
AcDbLine
 10
250.9177610068286
 20
96.97335301764589
 30
0.0
 11
250.9177610068286
 21
107.3197631791599
 31
0.0
  0
LINE
  5
38B0
330
2
100
AcDbEntity
  8
0
100
AcDbLine
 10
339.8377311895078
 20
185.5984843349281
 30
0.0
 11
339.8377311895078
 21
87.69463202801899
 31
0.0
  0
LINE
  5
38B1
330
2
100
AcDbEntity
  8
0
100
AcDbLine
 10
347.337731189506
 20
85.64655809839814
 30
0.0
 11
347.337731189506
 21
187.6421946645128
 31
0.0
  0
LINE
  5
38B2
330
2
100
AcDbEntity
  8
0
100
AcDbLine
 10
325.8377311895133
 20
93.56851118411624
 30
0.0
 11
325.8377311895133
 21
179.7246050126646
 31
0.0
  0
LINE
  5
38B3
330
2
100
AcDbEntity
  8
0
100
AcDbLine
 10
376.8377311895132
 20
85.14655809839087
 30
0.0
 11
419.9161587930452
 21
85.56889562391507
 31
0.0
  0
LINE
  5
38B4
330
2
100
AcDbEntity
  8
0
100
AcDbLine
 10
428.837731189506
 20
96.64655809837995
 30
0.0
 11
347.337731189506
 21
96.64655809837995
 31
0.0
  0
LINE
  5
38B5
330
2
100
AcDbEntity
  8
0
100
AcDbLine
 10
428.837731189506
 20
93.64655809838245
 30
0.0
 11
347.337731189506
 21
93.64655809838245
 31
0.0
  0
LINE
  5
38B6
330
2
100
AcDbEntity
  8
0
100
AcDbLine
 10
347.3377311895096
 20
85.64655809839814
 30
0.0
 11
429.837731189506
 21
86.36652469114734
 31
0.0
  0
LINE
  5
38B7
330
2
100
AcDbEntity
  8
0
100
AcDbLine
 10
248.4177610068341
 20
96.53330944434811
 30
0.0
 11
250.917761006834
 21
95.08993377137381
 31
0.0
  0
LINE
  5
38B8
330
2
100
AcDbEntity
  8
0
100
AcDbLine
 10
250.917761006834
 20
92.20318242542589
 30
0.0
 11
248.4177610068359
 21
90.75980675245181
 31
0.0
  0
LINE
  5
38B9
330
2
100
AcDbEntity
  8
CENTER
100
AcDbLine
 10
257.1677610068322
 20
93.64655809839996
 30
0.0
 11
239.6677610068322
 21
93.64655809839996
 31
0.0
  0
ARC
  5
38BA
330
2
100
AcDbEntity
  8
0
100
AcDbCircle
 10
248.4177610068322
 20
93.6465580984086
 30
0.0
 40
8.0
100
AcDbArc
 50
270.0
 51
0.0
  0
ARC
  5
38BB
330
2
100
AcDbEntity
  8
0
100
AcDbCircle
 10
232.1198899371534
 20
27.02135377641889
 30
0.0
 40
60.0
100
AcDbArc
 50
78.19493218955852
 51
95.89469838640374
  0
ARC
  5
38BC
330
2
100
AcDbEntity
  8
0
100
AcDbCircle
 10
245.4177610068286
 20
90.64655809840315
 30
0.0
 40
5.0
100
AcDbArc
 50
258.1949321895585
 51
270.0
  0
LINE
  5
38BD
330
2
100
AcDbEntity
  8
0
100
AcDbLine
 10
248.4177610068286
 20
85.6465580984036
 30
0.0
 11
245.4177610068286
 21
85.64655809840315
 31
0.0
  0
LINE
  5
38BE
330
2
100
AcDbEntity
  8
0
100
AcDbLine
 10
234.2471202287138
 20
90.94582300704018
 30
0.0
 11
232.1423613507063
 21
96.02716043585246
 31
0.0
  0
ARC
  5
38BF
330
2
100
AcDbEntity
  8
0
100
AcDbCircle
 10
230.2289441888802
 20
100.6465580984092
 30
0.0
 40
5.0
100
AcDbArc
 50
270.0
 51
315.0000000000104
  0
ARC
  5
38C0
330
2
100
AcDbEntity
  8
0
100
AcDbCircle
 10
230.2289441888802
 20
100.6465580984092
 30
0.0
 40
10.5
100
AcDbArc
 50
270.0
 51
315.0000000000104
  0
LINE
  5
38C1
330
2
100
AcDbEntity
  8
0
100
AcDbLine
 10
248.4177610068341
 20
96.53330944434811
 30
0.0
 11
245.9177610068359
 21
95.08993377137404
 31
0.0
  0
LINE
  5
38C2
330
2
100
AcDbEntity
  8
0
100
AcDbLine
 10
245.9177610068359
 20
92.20318242542589
 30
0.0
 11
248.4177610068359
 21
90.75980675245181
 31
0.0
  0
LINE
  5
38C3
330
2
100
AcDbEntity
  8
0
100
AcDbLine
 10
245.9177610068359
 20
92.20318242542589
 30
0.0
 11
245.9177610068359
 21
95.08993377137404
 31
0.0
  0
LINE
  5
38C4
330
2
100
AcDbEntity
  8
0
100
AcDbLine
 10
250.917761006834
 20
92.20318242542589
 30
0.0
 11
250.917761006834
 21
95.08993377137381
 31
0.0
  0
LINE
  5
38C5
330
2
100
AcDbEntity
  8
0
100
AcDbLine
 10
256.4177610068286
 20
93.64655809840337
 30
0.0
 11
256.4177610068286
 21
96.64655809840088
 31
0.0
  0
LINE
  5
38C6
330
2
100
AcDbEntity
  8
CENTER
100
AcDbLine
 10
327.3377311895096
 20
93.646558098382
 30
0.0
 11
353.4030569747706
 21
93.646558098382
 31
0.0
  0
LINE
  5
38C7
330
2
100
AcDbEntity
  8
HIDS
100
AcDbLine
 10
339.2519447518811
 20
90.73234453603459
 30
0.0
 11
334.9235176271472
 21
95.06077166076329
 31
0.0
  0
LINE
  5
38C8
330
2
100
AcDbEntity
  8
0
100
AcDbLine
 10
338.3377311895096
 20
88.64655809838177
 30
0.0
 11
332.7377311895093
 21
88.64655809838177
 31
0.0
  0
LINE
  5
38C9
330
2
100
AcDbEntity
  8
0
100
AcDbLine
 10
376.8377311895132
 20
85.14655809839087
 30
0.0
 11
333.7593035859831
 21
85.56889562391598
 31
0.0
  0
ARC
  5
38CA
330
2
100
AcDbEntity
  8
0
100
AcDbCircle
 10
333.8377311895133
 20
93.56851118411624
 30
0.0
 40
8.0
100
AcDbArc
 50
180.0
 51
269.4382946674162
  0
ARC
  5
38CB
330
2
100
AcDbEntity
  8
HIDS
100
AcDbCircle
 10
336.3377311895205
 20
96.47498522313709
 30
0.0
 40
2.0
100
AcDbArc
 50
180.0
 51
225.0000000000633
  0
LINE
  5
38CC
330
2
100
AcDbEntity
  8
0
100
AcDbLine
 10
332.7377311895093
 20
88.64655809838177
 30
0.0
 11
332.3377311895096
 21
89.33937842140972
 31
0.0
  0
ARC
  5
38CD
330
2
100
AcDbEntity
  8
0
100
AcDbCircle
 10
341.8377311895078
 20
87.69463202801899
 30
0.0
 40
2.0
100
AcDbArc
 50
180.0
 51
269.4999999999824
  0
LINE
  5
38CE
330
2
100
AcDbEntity
  8
0
100
AcDbLine
 10
341.8202781185105
 20
85.6947081818903
 30
0.0
 11
347.337731189506
 21
85.64655809839814
 31
0.0
  0
ARC
  5
38CF
330
2
100
AcDbEntity
  8
HIDS
100
AcDbCircle
 10
337.8377311895078
 20
89.31813097366079
 30
0.0
 40
2.0
100
AcDbArc
 50
0.0
 51
45.00000000006333
  0
LINE
  5
38D0
330
2
100
AcDbEntity
  8
0
100
AcDbLine
 10
338.3377311895078
 20
88.64655809838177
 30
0.0
 11
339.8377311895078
 21
88.64655809838177
 31
0.0
  0
ARC
  5
38D1
330
2
100
AcDbEntity
  8
0
100
AcDbCircle
 10
419.8377311895133
 20
93.56851118411531
 30
0.0
 40
8.0
100
AcDbArc
 50
270.5617053325316
 51
294.9148177589203
  0
LINE
  5
38D2
330
2
100
AcDbEntity
  8
0
100
AcDbLine
 10
429.837731189506
 20
91.64655809839997
 30
0.0
 11
434.837731189506
 21
91.64655809839997
 31
0.0
  0
LINE
  5
38D3
330
2
100
AcDbEntity
  8
0
100
AcDbLine
 10
376.8377311895132
 20
188.14655809839
 30
0.0
 11
419.9161587930452
 21
187.7242205728658
 31
0.0
  0
LINE
  5
38D5
330
2
100
AcDbEntity
  8
CENTER
100
AcDbLine
 10
500.837731189506
 20
136.6465580983972
 30
0.0
 11
315.8377311895133
 21
136.6465580983972
 31
0.0
  0
LINE
  5
38D6
330
2
100
AcDbEntity
  8
0
100
AcDbLine
 10
428.837731189506
 20
116.1064589212056
 30
0.0
 11
347.337731189506
 21
116.1064589212056
 31
0.0
  0
LINE
  5
38D7
330
2
100
AcDbEntity
  8
0
100
AcDbLine
 10
428.837731189506
 20
176.6465580984145
 30
0.0
 11
347.337731189506
 21
176.6465580984145
 31
0.0
  0
LINE
  5
38D8
330
2
100
AcDbEntity
  8
0
100
AcDbLine
 10
428.837731189506
 20
179.646558098412
 30
0.0
 11
347.337731189506
 21
179.646558098412
 31
0.0
  0
LINE
  5
38D9
330
2
100
AcDbEntity
  8
0
100
AcDbLine
 10
347.3377311895042
 20
187.6465580983963
 30
0.0
 11
429.837731189506
 21
186.9265915056471
 31
0.0
  0
LINE
  5
38DA
330
2
100
AcDbEntity
  8
0
100
AcDbLine
 10
428.837731189506
 20
157.1866572755889
 30
0.0
 11
347.337731189506
 21
157.1866572755889
 31
0.0
  0
LINE
  5
38DB
330
2
100
AcDbEntity
  8
HIDS
100
AcDbLine
 10
339.2519447518811
 20
182.5607716607599
 30
0.0
 11
334.9235176271472
 21
178.2323445360312
 31
0.0
  0
LINE
  5
38DC
330
2
100
AcDbEntity
  8
0
100
AcDbLine
 10
332.7377311895074
 20
184.6465580984125
 30
0.0
 11
332.7377311895093
 21
174.6465580984125
 31
0.0
  0
LINE
  5
38DD
330
2
100
AcDbEntity
  8
0
100
AcDbLine
 10
332.3377311895096
 20
183.9537377753848
 30
0.0
 11
332.3377311895078
 21
175.3393784214402
 31
0.0
  0
LINE
  5
38DE
330
2
100
AcDbEntity
  8
0
100
AcDbLine
 10
338.3377311895096
 20
184.6465580984125
 30
0.0
 11
338.3377311895096
 21
174.6465580984127
 31
0.0
  0
LINE
  5
38DF
330
2
100
AcDbEntity
  8
0
100
AcDbLine
 10
347.337731189506
 20
152.8395728362566
 30
0.0
 11
347.3377311895042
 21
187.6465580983963
 31
0.0
  0
LINE
  5
38E0
330
2
100
AcDbEntity
  8
0
100
AcDbLine
 10
245.9177610068322
 20
178.2031824254293
 30
0.0
 11
245.9177610068322
 21
181.0899337713775
 31
0.0
  0
LINE
  5
38E1
330
2
100
AcDbEntity
  8
0
100
AcDbLine
 10
250.9177610068322
 20
178.2031824254293
 30
0.0
 11
250.9177610068322
 21
181.0899337713772
 31
0.0
  0
LINE
  5
38E2
330
2
100
AcDbEntity
  8
0
100
AcDbLine
 10
237.6535653913392
 20
180.0711793008559
 30
0.0
 11
248.842382209284
 21
168.8823624829111
 31
0.0
  0
LINE
  5
38E3
330
2
100
AcDbEntity
  8
0
100
AcDbLine
 10
234.2471202287138
 20
182.3472931897659
 30
0.0
 11
232.1423613507063
 21
177.2659557609538
 31
0.0
  0
LINE
  5
38E4
330
2
100
AcDbEntity
  8
0
100
AcDbLine
 10
256.4177610068286
 20
176.6465580984009
 30
0.0
 11
256.4177610068286
 21
179.6465580984031
 31
0.0
  0
CIRCLE
  5
38E5
330
2
100
AcDbEntity
  8
0
100
AcDbCircle
 10
248.4177610068322
 20
179.6465580984034
 30
0.0
 40
4.307179676972509
  0
CIRCLE
  5
38E6
330
2
100
AcDbEntity
  8
0
100
AcDbCircle
 10
248.4177610068322
 20
179.6465580984034
 30
0.0
 40
5.000000000000113
  0
LINE
  5
38E7
330
2
100
AcDbEntity
  8
CENTER
100
AcDbLine
 10
248.4177610068322
 20
188.3965580984063
 30
0.0
 11
248.4177610068322
 21
170.8965580984063
 31
0.0
  0
LINE
  5
38E9
330
2
100
AcDbEntity
  8
0
100
AcDbLine
 10
251.917761006825
 20
111.8353749163539
 30
0.0
 11
251.917761006825
 21
161.4577412804522
 31
0.0
  0
LINE
  5
38EA
330
2
100
AcDbEntity
  8
0
100
AcDbLine
 10
246.4177610068249
 20
111.8353749163541
 30
0.0
 11
246.4177610068249
 21
161.4577412804522
 31
0.0
  0
ARC
  5
38EB
330
2
100
AcDbEntity
  8
0
100
AcDbCircle
 10
56.41776100682864
 20
136.6465580984032
 30
0.0
 40
200.0
100
AcDbArc
 50
354.1053016135977
 51
5.894698386400654
  0
LINE
  5
38EC
330
2
100
AcDbEntity
  8
0
100
AcDbLine
 10
251.118496098195
 20
107.8171988765207
 30
0.0
 11
246.0371586693813
 21
109.9219577545287
 31
0.0
  0
ARC
  5
38ED
330
2
100
AcDbEntity
  8
0
100
AcDbCircle
 10
241.417761006825
 20
111.8353749163539
 30
0.0
 40
10.5
100
AcDbArc
 50
315.0000000000104
 51
0.0
  0
LINE
  5
38EE
330
2
100
AcDbEntity
  8
CENTER
100
AcDbLine
 10
256.0909660875854
 20
102.1465580984029
 30
0.0
 11
245.7445559260718
 21
102.1465580984029
 31
0.0
  0
CIRCLE
  5
38EF
330
2
100
AcDbEntity
  8
HOJO
100
AcDbCircle
 10
250.9177610068286
 20
102.1465580984029
 30
0.0
 40
2.0
  0
CIRCLE
  5
38F0
330
2
100
AcDbEntity
  8
0
100
AcDbCircle
 10
250.9177610068286
 20
102.1465580984029
 30
0.0
 40
1.6
  0
ARC
  5
38F1
330
2
100
AcDbEntity
  8
0
100
AcDbCircle
 10
241.417761006825
 20
111.8353749163541
 30
0.0
 40
5.0
100
AcDbArc
 50
315.0000000000104
 51
0.0
  0
ARC
  5
38F2
330
2
100
AcDbEntity
  8
0
100
AcDbCircle
 10
315.0429653288133
 20
109.9444291680777
 30
0.0
 40
60.0
100
AcDbArc
 50
174.1053016135977
 51
191.8050678104699
  0
LINE
  5
38F3
330
2
100
AcDbEntity
  8
0
100
AcDbLine
 10
250.9177610068322
 20
178.2031824254293
 30
0.0
 11
248.4177610068322
 21
176.7598067524552
 31
0.0
  0
LINE
  5
38F4
330
2
100
AcDbEntity
  8
0
100
AcDbLine
 10
251.118496098195
 20
165.4759173202854
 30
0.0
 11
246.0371586693813
 21
163.3711584422774
 31
0.0
  0
ARC
  5
38F5
330
2
100
AcDbEntity
  8
0
100
AcDbCircle
 10
241.417761006825
 20
161.4577412804522
 30
0.0
 40
10.5
100
AcDbArc
 50
0.0
 51
44.99999999998963
  0
LINE
  5
38F6
330
2
100
AcDbEntity
  8
0
100
AcDbLine
 10
233.7644780948135
 20
176.1820920043299
 30
0.0
 11
244.9532949127583
 21
164.9932751863851
 31
0.0
  0
ARC
  5
38F7
330
2
100
AcDbEntity
  8
0
100
AcDbCircle
 10
241.417761006825
 20
161.4577412804522
 30
0.0
 40
5.0
100
AcDbArc
 50
0.0
 51
44.99999999998963
  0
ARC
  5
38F8
330
2
100
AcDbEntity
  8
0
100
AcDbCircle
 10
230.2289441888802
 20
172.646558098397
 30
0.0
 40
5.0
100
AcDbArc
 50
44.99999999998963
 51
90.0
  0
LINE
  5
38F9
330
2
100
AcDbEntity
  8
0
100
AcDbLine
 10
245.9177610068322
 20
178.2031824254293
 30
0.0
 11
248.4177610068322
 21
176.7598067524552
 31
0.0
  0
ARC
  5
38FA
330
2
100
AcDbEntity
  8
0
100
AcDbCircle
 10
315.0429653288133
 20
163.3486870287279
 30
0.0
 40
60.0
100
AcDbArc
 50
168.19493218953
 51
185.8946983864006
  0
ARC
  5
38FB
330
2
100
AcDbEntity
  8
0
100
AcDbCircle
 10
251.4177610068286
 20
176.6465580984032
 30
0.0
 40
5.0
100
AcDbArc
 50
348.19493218953
 51
0.0
  0
LINE
  5
38FC
330
2
100
AcDbEntity
  8
0
100
AcDbLine
 10
330.5377311895176
 20
103.6465580983958
 30
0.0
 11
330.5377311895176
 21
169.6465580983982
 31
0.0
  0
LINE
  5
38FD
330
2
100
AcDbEntity
  8
0
100
AcDbLine
 10
326.8377311895169
 20
169.6465580983991
 30
0.0
 11
326.8377311895169
 21
103.6465580983931
 31
0.0
  0
LINE
  5
38FE
330
2
100
AcDbEntity
  8
0
100
AcDbLine
 10
334.3377311895078
 20
174.6465580984127
 30
0.0
 11
334.3377311895078
 21
98.646558098382
 31
0.0
  0
LINE
  5
38FF
330
2
100
AcDbEntity
  8
0
100
AcDbLine
 10
330.3377311895133
 20
103.8465580983963
 30
0.0
 11
330.3377311895133
 21
169.4465580983933
 31
0.0
  0
LINE
  5
3900
330
2
100
AcDbEntity
  8
0
100
AcDbLine
 10
328.3377311895096
 20
103.8465580983952
 30
0.0
 11
328.3377311897115
 21
169.4465580983979
 31
0.0
  0
LINE
  5
3901
330
2
100
AcDbEntity
  8
0
100
AcDbLine
 10
333.8377311895133
 20
101.6465580983963
 30
0.0
 11
333.8377311894951
 21
171.6465580983741
 31
0.0
  0
LINE
  5
3903
330
2
100
AcDbEntity
  8
0
100
AcDbLine
 10
338.3377311895096
 20
98.646558098382
 30
0.0
 11
332.7377311895093
 21
98.646558098382
 31
0.0
  0
LINE
  5
3904
330
2
100
AcDbEntity
  8
0
100
AcDbLine
 10
325.8377311895078
 20
119.6465580983984
 30
0.0
 11
325.8377311895133
 21
104.2239083675849
 31
0.0
  0
ARC
  5
3905
330
2
100
AcDbEntity
  8
0
100
AcDbCircle
 10
330.1377311895125
 20
104.1465580983958
 30
0.0
 40
0.2
100
AcDbArc
 50
0.0
 51
90.0
  0
ARC
  5
3906
330
2
100
AcDbEntity
  8
0
100
AcDbCircle
 10
328.537731189514
 20
104.1465580983956
 30
0.0
 40
0.2
100
AcDbArc
 50
90.0
 51
179.9999999999218
  0
ARC
  5
3907
330
2
100
AcDbEntity
  8
0
100
AcDbCircle
 10
328.1377311895125
 20
103.8465580983956
 30
0.0
 40
0.2
100
AcDbArc
 50
270.0
 51
359.9999999999218
  0
LINE
  5
3908
330
2
100
AcDbEntity
  8
0
100
AcDbLine
 10
328.537731189514
 20
104.3465580983956
 30
0.0
 11
330.1377311895125
 21
104.3465580983959
 31
0.0
  0
LINE
  5
3909
330
2
100
AcDbEntity
  8
0
100
AcDbLine
 10
330.3377311895133
 20
103.8465580983961
 30
0.0
 11
330.537731189514
 21
103.6465580983958
 31
0.0
  0
LINE
  5
390A
330
2
100
AcDbEntity
  8
0
100
AcDbLine
 10
326.8377311895132
 20
103.6465580983954
 30
0.0
 11
325.8377311895133
 21
104.2239083675849
 31
0.0
  0
LINE
  5
390B
330
2
100
AcDbEntity
  8
0
100
AcDbLine
 10
326.8377311895132
 20
103.6465580983954
 30
0.0
 11
328.1377311895125
 21
103.6465580983958
 31
0.0
  0
LINE
  5
390C
330
2
100
AcDbEntity
  8
0
100
AcDbLine
 10
333.8377311895078
 20
103.6465580983963
 30
0.0
 11
333.8377311895078
 21
101.6465580984017
 31
0.0
  0
LINE
  5
390D
330
2
100
AcDbEntity
  8
0
100
AcDbLine
 10
330.537731189514
 20
103.6465580983958
 30
0.0
 11
333.8377311895133
 21
103.6465580983963
 31
0.0
  0
LINE
  5
390E
330
2
100
AcDbEntity
  8
0
100
AcDbLine
 10
332.7377311895093
 20
98.646558098382
 30
0.0
 11
332.3377311895096
 21
97.95373777535429
 31
0.0
  0
LINE
  5
390F
330
2
100
AcDbEntity
  8
0
100
AcDbLine
 10
333.8377311895133
 20
101.6465580983963
 30
0.0
 11
334.3377311895133
 21
101.1465580983967
 31
0.0
  0
LINE
  5
3910
330
2
100
AcDbEntity
  8
0
100
AcDbLine
 10
338.3377311895096
 20
98.646558098382
 30
0.0
 11
339.8377311895078
 21
98.646558098382
 31
0.0
  0
LINE
  5
3911
330
2
100
AcDbEntity
  8
0
100
AcDbLine
 10
338.3377311895096
 20
174.6465580984125
 30
0.0
 11
332.7377311895093
 21
174.6465580984125
 31
0.0
  0
LINE
  5
3912
330
2
100
AcDbEntity
  8
0
100
AcDbLine
 10
325.8377311894951
 20
169.0692078291961
 30
0.0
 11
325.8377311894987
 21
153.6465580983979
 31
0.0
  0
LINE
  5
3913
330
2
100
AcDbEntity
  8
HIDS
100
AcDbLine
 10
334.3377311895205
 20
176.8181309736574
 30
0.0
 11
334.3377311895078
 21
174.6465580984125
 31
0.0
  0
LINE
  5
3914
330
2
100
AcDbEntity
  8
0
100
AcDbLine
 10
332.7377311895093
 20
174.6465580984125
 30
0.0
 11
332.3377311895096
 21
175.3393784214402
 31
0.0
  0
ARC
  5
3915
330
2
100
AcDbEntity
  8
0
100
AcDbCircle
 10
330.137731189518
 20
169.1465580983981
 30
0.0
 40
0.2
100
AcDbArc
 50
269.9999999999478
 51
0.0
  0
ARC
  5
3916
330
2
100
AcDbEntity
  8
0
100
AcDbCircle
 10
328.5377311895176
 20
169.1465580983986
 30
0.0
 40
0.2
100
AcDbArc
 50
180.0
 51
269.9999999999478
  0
ARC
  5
3917
330
2
100
AcDbEntity
  8
0
100
AcDbCircle
 10
328.137731189518
 20
169.4465580983983
 30
0.0
 40
0.2
100
AcDbArc
 50
0.0
 51
90.0
  0
ARC
  5
3918
330
2
100
AcDbEntity
  8
HIDS
100
AcDbCircle
 10
336.3377311895205
 20
176.8181309736574
 30
0.0
 40
2.0
100
AcDbArc
 50
134.9999999999366
 51
180.0
  0
LINE
  5
3919
330
2
100
AcDbEntity
  8
0
100
AcDbLine
 10
326.8377311895169
 20
169.6465580983991
 30
0.0
 11
328.137731189518
 21
169.6465580983986
 31
0.0
  0
LINE
  5
391A
330
2
100
AcDbEntity
  8
0
100
AcDbLine
 10
326.8377311895169
 20
169.6465580983991
 30
0.0
 11
325.8377311895169
 21
169.0692078292095
 31
0.0
  0
LINE
  5
391B
330
2
100
AcDbEntity
  8
0
100
AcDbLine
 10
330.3377311895133
 20
169.4465580983933
 30
0.0
 11
330.5377311895176
 21
169.6465580983982
 31
0.0
  0
LINE
  5
391C
330
2
100
AcDbEntity
  8
0
100
AcDbLine
 10
328.5377311895176
 20
168.9465580983986
 30
0.0
 11
330.137731189518
 21
168.9465580983981
 31
0.0
  0
LINE
  5
391D
330
2
100
AcDbEntity
  8
0
100
AcDbLine
 10
333.8377311894951
 20
171.6465580983741
 30
0.0
 11
334.3377311895187
 21
172.1465580983968
 31
0.0
  0
LINE
  5
391E
330
2
100
AcDbEntity
  8
0
100
AcDbLine
 10
330.5377311895176
 20
169.6465580983982
 30
0.0
 11
333.8377311895169
 21
169.6465580983972
 31
0.0
  0
LINE
  5
391F
330
2
100
AcDbEntity
  8
0
100
AcDbLine
 10
338.3377311895096
 20
174.6465580984125
 30
0.0
 11
339.8377311895078
 21
174.6465580984125
 31
0.0
  0
LINE
  5
3920
330
2
100
AcDbEntity
  8
0
100
AcDbLine
 10
248.4177610068322
 20
182.5333094443515
 30
0.0
 11
250.9177610068322
 21
181.0899337713772
 31
0.0
  0
LINE
  5
3921
330
2
100
AcDbEntity
  8
CENTER
100
AcDbLine
 10
257.167761006834
 20
179.6465580984034
 30
0.0
 11
239.6677610068341
 21
179.6465580984034
 31
0.0
  0
ARC
  5
3922
330
2
100
AcDbEntity
  8
0
100
AcDbCircle
 10
248.4177610068322
 20
179.6465580984086
 30
0.0
 40
8.0
100
AcDbArc
 50
0.0
 51
90.0
  0
ARC
  5
3923
330
2
100
AcDbEntity
  8
0
100
AcDbCircle
 10
232.1198899371534
 20
246.2717624203873
 30
0.0
 40
60.0
100
AcDbArc
 50
264.1053016135962
 51
281.8050678104415
  0
ARC
  5
3924
330
2
100
AcDbEntity
  8
0
100
AcDbCircle
 10
230.2289441888802
 20
172.646558098397
 30
0.0
 40
10.5
100
AcDbArc
 50
44.99999999998963
 51
90.0
  0
LINE
  5
3925
330
2
100
AcDbEntity
  8
0
100
AcDbLine
 10
248.4177610068286
 20
187.6465580984032
 30
0.0
 11
245.4177610068286
 21
187.6465580984032
 31
0.0
  0
ARC
  5
3926
330
2
100
AcDbEntity
  8
0
100
AcDbCircle
 10
245.4177610068286
 20
182.6465580984027
 30
0.0
 40
5.0
100
AcDbArc
 50
90.0
 51
101.8050678104414
  0
LINE
  5
3927
330
2
100
AcDbEntity
  8
0
100
AcDbLine
 10
248.4177610068322
 20
182.5333094443515
 30
0.0
 11
245.9177610068322
 21
181.0899337713775
 31
0.0
  0
LINE
  5
3929
330
2
100
AcDbEntity
  8
0
100
AcDbLine
 10
338.3377311895096
 20
184.6465580984125
 30
0.0
 11
332.7377311895093
 21
184.6465580984125
 31
0.0
  0
LINE
  5
392A
330
2
100
AcDbEntity
  8
CENTER
100
AcDbLine
 10
327.3377311895096
 20
179.6465580984125
 30
0.0
 11
353.4030569747706
 21
179.6465580984125
 31
0.0
  0
LINE
  5
392B
330
2
100
AcDbEntity
  8
0
100
AcDbLine
 10
376.8377311895132
 20
188.14655809839
 30
0.0
 11
333.7593035859831
 21
187.7242205728649
 31
0.0
  0
ARC
  5
392C
330
2
100
AcDbEntity
  8
0
100
AcDbCircle
 10
333.8377311895133
 20
179.7246050126646
 30
0.0
 40
8.0
100
AcDbArc
 50
90.56170533253165
 51
180.0
  0
LINE
  5
392D
330
2
100
AcDbEntity
  8
0
100
AcDbLine
 10
332.7377311895093
 20
184.6465580984125
 30
0.0
 11
332.3377311895096
 21
183.9537377753848
 31
0.0
  0
LINE
  5
392E
330
2
100
AcDbEntity
  8
0
100
AcDbLine
 10
341.8202781185105
 20
187.5984081810566
 30
0.0
 11
347.3376931118441
 21
187.6465579322501
 31
0.0
  0
LINE
  5
392F
330
2
100
AcDbEntity
  8
0
100
AcDbLine
 10
338.3377311895078
 20
184.6465580984125
 30
0.0
 11
339.8377311895078
 21
184.6465580984125
 31
0.0
  0
ARC
  5
3930
330
2
100
AcDbEntity
  8
0
100
AcDbCircle
 10
341.8377311895078
 20
185.5984843349281
 30
0.0
 40
2.0
100
AcDbArc
 50
90.50000000001759
 51
180.0
  0
ARC
  5
3931
330
2
100
AcDbEntity
  8
HIDS
100
AcDbCircle
 10
337.8377311895078
 20
183.9749852231337
 30
0.0
 40
2.0
100
AcDbArc
 50
314.9999999999366
 51
0.0
  0
LINE
  5
3936
330
2
100
AcDbEntity
  8
0
100
AcDbLine
 10
490.337731189506
 20
147.6466188182271
 30
0.0
 11
450.837731189506
 21
147.6466032610615
 31
0.0
  0
LINE
  5
3937
330
2
100
AcDbEntity
  8
0
100
AcDbLine
 10
450.837731189506
 20
125.6466032610598
 30
0.0
 11
490.337731189506
 21
125.6466188182252
 31
0.0
  0
LINE
  5
3939
330
2
100
AcDbEntity
  8
0
100
AcDbLine
 10
450.837731189506
 20
148.6466032610616
 30
0.0
 11
450.8382957227982
 21
124.6466032738076
 31
0.0
  0
LINE
  5
393A
330
2
100
AcDbEntity
  8
0
100
AcDbLine
 10
449.837731189506
 20
152.8578829638025
 30
0.0
 11
449.837731189506
 21
120.435233232992
 31
0.0
  0
LINE
  5
393B
330
2
100
AcDbEntity
  8
0
100
AcDbLine
 10
448.8377311895078
 20
104.577935648012
 30
0.0
 11
448.8377311895078
 21
168.7151805487849
 31
0.0
  0
LINE
  5
393C
330
2
100
AcDbEntity
  8
0
100
AcDbLine
 10
436.7679321961027
 20
102.2250714299384
 30
0.0
 11
446.9075301829129
 21
102.5791539939741
 31
0.0
  0
ARC
  5
393D
330
2
100
AcDbEntity
  8
0
100
AcDbCircle
 10
436.8377311895078
 20
100.2262897759005
 30
0.0
 40
2.0
100
AcDbArc
 50
92.00000000000365
 51
180.0
  0
ARC
  5
393E
330
2
100
AcDbEntity
  8
0
100
AcDbCircle
 10
446.8377311895078
 20
104.577935648012
 30
0.0
 40
2.0
100
AcDbArc
 50
272.0000000000036
 51
0.0
  0
LINE
  5
393F
330
2
100
AcDbEntity
  8
0
100
AcDbLine
 10
450.837731189506
 20
124.6465129357329
 30
0.0
 11
449.837731189506
 21
124.0691626665432
 31
0.0
  0
LINE
  5
3940
330
2
100
AcDbEntity
  8
0
100
AcDbLine
 10
449.587731189506
 20
120.0022205310999
 30
0.0
 11
449.4358926597328
 21
119.9145565150623
 31
0.0
  0
ARC
  5
3941
330
2
100
AcDbEntity
  8
0
100
AcDbCircle
 10
448.4358926597328
 20
121.6466073226311
 30
0.0
 40
2.0
100
AcDbArc
 50
281.5907202811201
 51
299.9999999999997
  0
ARC
  5
3942
330
2
100
AcDbEntity
  8
0
100
AcDbCircle
 10
449.337731189506
 20
120.435233232992
 30
0.0
 40
0.5
100
AcDbArc
 50
299.9999999999997
 51
0.0
  0
LINE
  5
3943
330
2
100
AcDbEntity
  8
0
100
AcDbLine
 10
449.587731189506
 20
153.2908956656946
 30
0.0
 11
449.4358926597328
 21
153.3785596817322
 31
0.0
  0
LINE
  5
3944
330
2
100
AcDbEntity
  8
0
100
AcDbLine
 10
450.837731189506
 20
148.6466032610616
 30
0.0
 11
449.837731189506
 21
149.2239535302513
 31
0.0
  0
ARC
  5
3945
330
2
100
AcDbEntity
  8
0
100
AcDbCircle
 10
448.4358926597328
 20
151.6465088741634
 30
0.0
 40
2.0
100
AcDbArc
 50
60.00000000000028
 51
78.40927971887985
  0
ARC
  5
3946
330
2
100
AcDbEntity
  8
0
100
AcDbCircle
 10
449.337731189506
 20
152.8578829638025
 30
0.0
 40
0.5
100
AcDbArc
 50
0.0
 51
60.00000000000028
  0
LINE
  5
3947
330
2
100
AcDbEntity
  8
0
100
AcDbLine
 10
436.7679321961027
 20
171.0680447668588
 30
0.0
 11
446.9075301829129
 21
170.7139622028231
 31
0.0
  0
ARC
  5
3948
330
2
100
AcDbEntity
  8
0
100
AcDbCircle
 10
436.8377311895078
 20
173.0668264208967
 30
0.0
 40
2.0
100
AcDbArc
 50
180.0
 51
267.9999999999963
  0
ARC
  5
3949
330
2
100
AcDbEntity
  8
0
100
AcDbCircle
 10
446.8377311895078
 20
168.7151805487852
 30
0.0
 40
2.0
100
AcDbArc
 50
0.0
 51
0.0
  0
ARC
  5
394A
330
2
100
AcDbEntity
  8
0
100
AcDbCircle
 10
446.8377311895078
 20
168.7151805487849
 30
0.0
 40
2.0
100
AcDbArc
 50
0.0
 51
87.99999999999633
  0
LINE
  5
394B
330
2
100
AcDbEntity
  8
0
100
AcDbLine
 10
490.337731189506
 20
147.6466188182271
 30
0.0
 11
490.337731189506
 21
125.6466188182252
 31
0.0
  0
LINE
  5
394C
330
2
100
AcDbEntity
  8
0
100
AcDbLine
 10
490.837731189506
 20
126.1466190151513
 30
0.0
 11
490.837731189506
 21
147.1466190151533
 31
0.0
  0
LINE
  5
394D
330
2
100
AcDbEntity
  8
0
100
AcDbLine
 10
490.837731189506
 20
126.1466190151513
 30
0.0
 11
490.337731189506
 21
125.6466188182252
 31
0.0
  0
LINE
  5
394E
330
2
100
AcDbEntity
  8
0
100
AcDbLine
 10
490.337731189506
 20
147.6466188182271
 30
0.0
 11
490.837731189506
 21
147.1466190151533
 31
0.0
  0
ARC
  5
3950
330
2
100
AcDbEntity
  8
0
100
AcDbCircle
 10
419.8377311895133
 20
179.7246050126655
 30
0.0
 40
8.0
100
AcDbArc
 50
65.08518224130918
 51
89.43829466741625
  0
LINE
  5
3951
330
2
100
AcDbEntity
  8
0
100
AcDbLine
 10
429.837731189506
 20
181.6465580983995
 30
0.0
 11
434.837731189506
 21
181.6465580983995
 31
0.0
  0
ARC
  5
3955
330
2
100
AcDbEntity
  8
0
100
AcDbCircle
 10
729.9759090264283
 20
93.64655809839803
 30
0.0
 40
5.0
100
AcDbArc
 50
0.0
 51
90.0
  0
LINE
  5
3956
330
2
100
AcDbEntity
  8
CENTER
100
AcDbLine
 10
696.902315897632
 20
102.2201512272068
 30
0.0
 11
696.902315897632
 21
86.22015122720711
 31
0.0
  0
ARC
  5
3957
330
2
100
AcDbEntity
  8
0
100
AcDbCircle
 10
657.0995263941272
 20
97.60655809839102
 30
0.0
 40
2.040000000002968
100
AcDbArc
 50
307.5189678668038
 51
90.0
  0
ARC
  5
3958
330
2
100
AcDbEntity
  8
0
100
AcDbCircle
 10
656.9720809641271
 20
97.47905809839096
 30
0.0
 40
0.1275000000001855
100
AcDbArc
 50
270.0
 51
90.0
  0
LINE
  5
3959
330
2
100
AcDbEntity
  8
0
100
AcDbLine
 10
655.0595263941245
 20
97.60655809839125
 30
0.0
 11
655.0595263941245
 21
93.64655809838508
 31
0.0
  0
LINE
  5
395A
330
2
100
AcDbEntity
  8
0
100
AcDbLine
 10
653.259580964122
 20
97.60655623639866
 30
0.0
 11
652.6895818951174
 21
96.46655809838911
 31
0.0
  0
LINE
  5
395B
330
2
100
AcDbEntity
  8
0
100
AcDbLine
 10
653.259580964122
 20
97.60655623639866
 30
0.0
 11
653.259580964122
 21
96.46655809838932
 31
0.0
  0
LINE
  5
395C
330
2
100
AcDbEntity
  8
0
100
AcDbLine
 10
652.1195809641207
 20
99.6465580983944
 30
0.0
 11
649.1195809641153
 21
93.64655809838575
 31
0.0
  0
CIRCLE
  5
395D
330
2
100
AcDbEntity
  8
HOJO
100
AcDbCircle
 10
696.9023158976356
 20
94.22015122720688
 30
0.0
 40
4.0
  0
LINE
  5
395E
330
2
100
AcDbEntity
  8
CENTER
100
AcDbLine
 10
654.4759090264428
 20
206.6465580983998
 30
0.0
 11
654.4759090264428
 21
66.64655809839985
 31
0.0
  0
LINE
  5
395F
330
2
100
AcDbEntity
  8
0
100
AcDbLine
 10
705.4759090264355
 20
179.6465580983914
 30
0.0
 11
705.4759090264392
 21
93.6465580983919
 31
0.0
  0
LINE
  5
3960
330
2
100
AcDbEntity
  8
0
100
AcDbLine
 10
734.9759310264412
 20
186.1465580984003
 30
0.0
 11
734.9759310264375
 21
87.14655809839985
 31
0.0
  0
ARC
  5
3961
330
2
100
AcDbEntity
  8
0
100
AcDbCircle
 10
608.4759090264411
 20
96.64655809839757
 30
0.0
 40
5.0
100
AcDbArc
 50
168.19493218953
 51
180.0
  0
CIRCLE
  5
3962
330
2
100
AcDbEntity
  8
HOJO
100
AcDbCircle
 10
612.0495021552483
 20
94.22015122720688
 30
0.0
 40
4.0
  0
LINE
  5
3963
330
2
100
AcDbEntity
  8
CENTER
100
AcDbLine
 10
612.0495021552483
 20
102.2201512272068
 30
0.0
 11
612.0495021552483
 21
86.22015122720711
 31
0.0
  0
CIRCLE
  5
3964
330
2
100
AcDbEntity
  8
0
100
AcDbCircle
 10
654.4759090264411
 20
136.6465580983998
 30
0.0
 40
45.0
  0
CIRCLE
  5
3965
330
2
100
AcDbEntity
  8
CENTER
100
AcDbCircle
 10
654.4759090264411
 20
136.6465580983998
 30
0.0
 40
60.0
  0
LINE
  5
3966
330
2
100
AcDbEntity
  8
CENTER
100
AcDbLine
 10
600.8693073086451
 20
190.2531598161933
 30
0.0
 11
708.0825107442397
 21
83.03995638059735
 31
0.0
  0
LINE
  5
3967
330
2
100
AcDbEntity
  8
CENTER
100
AcDbLine
 10
708.082510744236
 20
190.2531598161942
 30
0.0
 11
600.8693073086383
 21
83.03995638059587
 31
0.0
  0
LINE
  5
396D
330
2
100
AcDbEntity
  8
0
100
AcDbLine
 10
801.475931026443
 20
96.57673783868501
 30
0.0
 11
801.475931026443
 21
136.6465580983972
 31
0.0
  0
LINE
  5
396E
330
2
100
AcDbEntity
  8
0
100
AcDbLine
 10
799.4759310264412
 20
94.64655809839774
 30
0.0
 11
799.4759310264412
 21
136.6465580983972
 31
0.0
  0
LINE
  5
396F
330
2
100
AcDbEntity
  8
0
100
AcDbLine
 10
772.4759310264412
 20
89.90937842142471
 30
0.0
 11
772.4759310264412
 21
98.52373777536975
 31
0.0
  0
LINE
  5
3970
330
2
100
AcDbEntity
  8
0
100
AcDbLine
 10
766.4759310264412
 20
99.21655809839746
 30
0.0
 11
766.4759310264412
 21
89.21655809839746
 31
0.0
  0
LINE
  5
3971
330
2
100
AcDbEntity
  8
0
100
AcDbLine
 10
765.4759310264412
 20
89.21655809839746
 30
0.0
 11
765.4759310264412
 21
99.21655809839746
 31
0.0
  0
LINE
  5
3972
330
2
100
AcDbEntity
  8
0
100
AcDbLine
 10
766.4759310264412
 20
99.21655809839746
 30
0.0
 11
766.4759310264412
 21
89.21655809839746
 31
0.0
  0
LINE
  5
3973
330
2
100
AcDbEntity
  8
0
100
AcDbLine
 10
772.0759310264416
 20
99.21655809839746
 30
0.0
 11
772.0759310264416
 21
89.21655809839746
 31
0.0
  0
LINE
  5
3974
330
2
100
AcDbEntity
  8
0
100
AcDbLine
 10
805.4759310264412
 20
176.646558098397
 30
0.0
 11
805.4759310264412
 21
96.64655809839775
 31
0.0
  0
LINE
  5
3975
330
2
100
AcDbEntity
  8
0
100
AcDbLine
 10
765.475931026443
 20
136.6465580983972
 30
0.0
 11
765.475931026443
 21
86.76877232585416
 31
0.0
  0
LINE
  5
3976
330
2
100
AcDbEntity
  8
0
100
AcDbLine
 10
750.4759310264412
 20
85.14655809839979
 30
0.0
 11
750.4759310264412
 21
188.1465580984
 31
0.0
  0
ARC
  5
3979
330
2
100
AcDbEntity
  8
0
100
AcDbCircle
 10
654.4759090264411
 20
285.6465580983973
 30
0.0
 40
200.0
100
AcDbArc
 50
264.1053016135962
 51
275.8946983863513
  0
LINE
  5
397B
330
2
100
AcDbEntity
  8
CENTER
100
AcDbLine
 10
620.0495021552483
 20
94.22015122720848
 30
0.0
 11
604.0495021552483
 21
94.22015122720848
 31
0.0
  0
ARC
  5
397C
330
2
100
AcDbEntity
  8
0
100
AcDbCircle
 10
627.7737800961144
 20
27.02135377641332
 30
0.0
 40
60.0
100
AcDbArc
 50
84.10530161364862
 51
101.8050678104414
  0
ARC
  5
397D
330
2
100
AcDbEntity
  8
0
100
AcDbCircle
 10
611.4759090264392
 20
93.64655809839144
 30
0.0
 40
8.0
100
AcDbArc
 50
180.0
 51
270.0
  0
LINE
  5
397E
330
2
100
AcDbEntity
  8
0
100
AcDbLine
 10
611.475909026441
 20
85.64655809839711
 30
0.0
 11
614.475909026441
 21
85.64655809839758
 31
0.0
  0
ARC
  5
397F
330
2
100
AcDbEntity
  8
0
100
AcDbCircle
 10
614.475909026441
 20
90.64655809839804
 30
0.0
 40
5.0
100
AcDbArc
 50
270.0
 51
281.8050678104415
  0
LINE
  5
3980
330
2
100
AcDbEntity
  8
0
100
AcDbLine
 10
603.475909026441
 20
96.64655809839985
 30
0.0
 11
603.475909026441
 21
93.64655809839758
 31
0.0
  0
CIRCLE
  5
3981
330
2
100
AcDbEntity
  8
0
100
AcDbCircle
 10
612.0495021552483
 20
94.22015122720688
 30
0.0
 40
3.2
  0
ARC
  5
3982
330
2
100
AcDbEntity
  8
0
100
AcDbCircle
 10
681.178037956764
 20
27.02135377641286
 30
0.0
 40
60.0
100
AcDbArc
 50
78.19493218950516
 51
95.89469838635135
  0
LINE
  5
3983
330
2
100
AcDbEntity
  8
0
100
AcDbLine
 10
657.6722361577644
 20
93.64655809838529
 30
0.0
 11
659.8322370887631
 21
93.64655809838575
 31
0.0
  0
LINE
  5
3984
330
2
100
AcDbEntity
  8
0
100
AcDbLine
 10
658.3419354288722
 20
95.98852849717957
 30
0.0
 11
659.8322370887631
 21
93.64655809838575
 31
0.0
  0
LINE
  5
3985
330
2
100
AcDbEntity
  8
0
100
AcDbLine
 10
655.3145809641241
 20
97.35155809839069
 30
0.0
 11
657.6722361577644
 21
93.64655809838529
 31
0.0
  0
LINE
  5
3986
330
2
100
AcDbEntity
  8
0
100
AcDbLine
 10
655.3145809641241
 20
97.35155809839069
 30
0.0
 11
656.9720809641271
 21
97.35155809839069
 31
0.0
  0
LINE
  5
3987
330
2
100
AcDbEntity
  8
0
100
AcDbLine
 10
652.6895818951174
 20
96.46655809838911
 30
0.0
 11
653.259580964122
 21
96.46655809838932
 31
0.0
  0
LINE
  5
3988
330
2
100
AcDbEntity
  8
0
100
AcDbLine
 10
653.259580964122
 20
94.54655809838675
 30
0.0
 11
653.259580964122
 21
93.64655809838529
 31
0.0
  0
LINE
  5
3989
330
2
100
AcDbEntity
  8
0
100
AcDbLine
 10
651.7295818951147
 20
94.54655809838698
 30
0.0
 11
653.259580964122
 21
94.54655809838675
 31
0.0
  0
LINE
  5
398A
330
2
100
AcDbEntity
  8
0
100
AcDbLine
 10
651.7295818951147
 20
94.54655809838698
 30
0.0
 11
651.2795818951158
 21
93.64655809838529
 31
0.0
  0
LINE
  5
398B
330
2
100
AcDbEntity
  8
0
100
AcDbLine
 10
653.259580964122
 20
93.64655809838529
 30
0.0
 11
655.0595263941245
 21
93.64655809838508
 31
0.0
  0
LINE
  5
398C
330
2
100
AcDbEntity
  8
0
100
AcDbLine
 10
649.1195809641153
 20
93.64655809838575
 30
0.0
 11
651.2795818951158
 21
93.64655809838529
 31
0.0
  0
ARC
  5
398D
330
2
100
AcDbEntity
  8
0
100
AcDbCircle
 10
697.4759090264374
 20
93.64655809839167
 30
0.0
 40
8.0
100
AcDbArc
 50
270.0
 51
0.0
  0
LINE
  5
398E
330
2
100
AcDbEntity
  8
CENTER
100
AcDbLine
 10
704.9023158976356
 20
94.22015122720688
 30
0.0
 11
688.9023158976356
 21
94.22015122720688
 31
0.0
  0
ARC
  5
398F
330
2
100
AcDbEntity
  8
0
100
AcDbCircle
 10
694.475909026441
 20
90.64655809839734
 30
0.0
 40
5.0
100
AcDbArc
 50
258.1949321895051
 51
270.0
  0
LINE
  5
3990
330
2
100
AcDbEntity
  8
0
100
AcDbLine
 10
694.475909026441
 20
85.64655809839758
 30
0.0
 11
697.4759090264374
 21
85.64655809839758
 31
0.0
  0
CIRCLE
  5
3991
330
2
100
AcDbEntity
  8
0
100
AcDbCircle
 10
696.9023158976356
 20
94.22015122720688
 30
0.0
 40
3.2
  0
LINE
  5
3992
330
2
100
AcDbEntity
  8
CENTER
  6
CENS
100
AcDbLine
 10
745.4759310264412
 20
94.21655809839746
 30
0.0
 11
777.4759310264412
 21
94.21655809839746
 31
0.0
  0
LINE
  5
3993
330
2
100
AcDbEntity
  8
0
100
AcDbLine
 10
766.4759310264412
 20
89.21655809839746
 30
0.0
 11
772.0759310264416
 21
89.21655809839746
 31
0.0
  0
LINE
  5
3994
330
2
100
AcDbEntity
  8
0
100
AcDbLine
 10
750.4759310264412
 20
85.14655809839984
 30
0.0
 11
736.9759310264376
 21
85.1465580983994
 31
0.0
  0
LINE
  5
3995
330
2
100
AcDbEntity
  8
0
100
AcDbLine
 10
750.4759310264412
 20
85.64655809839985
 30
0.0
 11
736.9759310264376
 21
85.64655809839939
 31
0.0
  0
ARC
  5
3996
330
2
100
AcDbEntity
  8
0
100
AcDbCircle
 10
736.9759310264376
 20
87.6465580983994
 30
0.0
 40
2.0
100
AcDbArc
 50
180.0
 51
270.0
  0
ARC
  5
3997
330
2
100
AcDbEntity
  8
0
100
AcDbCircle
 10
736.9759310264376
 20
87.14655809839939
 30
0.0
 40
2.0
100
AcDbArc
 50
180.0
 51
270.0
  0
LINE
  5
3998
330
2
100
AcDbEntity
  8
0
100
AcDbLine
 10
750.4759310264412
 20
85.64655809839775
 30
0.0
 11
764.4846575619408
 21
85.76881040278982
 31
0.0
  0
ARC
  5
3999
330
2
100
AcDbEntity
  8
0
100
AcDbCircle
 10
764.475931026443
 20
86.76877232585416
 30
0.0
 40
1.0
100
AcDbArc
 50
270.4999999999654
 51
0.0
  0
LINE
  5
399A
330
2
100
AcDbEntity
  8
0
100
AcDbLine
 10
766.4759310264412
 20
89.21655809839746
 30
0.0
 11
765.4759310264412
 21
89.21655809839746
 31
0.0
  0
LINE
  5
399B
330
2
100
AcDbEntity
  8
0
100
AcDbLine
 10
799.4759310264412
 20
94.64655809839774
 30
0.0
 11
772.4759310264412
 21
94.48947669350179
 31
0.0
  0
LINE
  5
399C
330
2
100
AcDbEntity
  8
0
100
AcDbLine
 10
772.0759310264416
 20
89.21655809839723
 30
0.0
 11
772.4759310264412
 21
89.90937842142471
 31
0.0
  0
LINE
  5
399D
330
2
100
AcDbEntity
  8
0
100
AcDbLine
 10
805.4759310264412
 20
96.64655809839775
 30
0.0
 11
801.475931026443
 21
96.57673783868501
 31
0.0
  0
LINE
  5
399E
330
2
100
AcDbEntity
  8
0
100
AcDbLine
 10
801.475931026443
 20
96.57673783868501
 30
0.0
 11
799.4759310264412
 21
94.64655809839774
 31
0.0
  0
ARC
  5
399F
330
2
100
AcDbEntity
  8
0
100
AcDbCircle
 10
720.9759310264394
 20
171.6465580983998
 30
0.0
 40
5.0
100
AcDbArc
 50
270.0
 51
0.0
  0
LINE
  5
39A0
330
2
100
AcDbEntity
  8
0
100
AcDbLine
 10
724.1029256802298
 20
171.6465580983978
 30
0.0
 11
707.475909026441
 21
171.646558098398
 31
0.0
  0
ARC
  5
39A1
330
2
100
AcDbEntity
  8
0
100
AcDbCircle
 10
720.9759310264375
 20
101.6465580983998
 30
0.0
 40
5.0
100
AcDbArc
 50
0.0
 51
90.0
  0
LINE
  5
39A2
330
2
100
AcDbEntity
  8
0
100
AcDbLine
 10
707.4759090264373
 20
134.1465580983975
 30
0.0
 11
723.9759310264376
 21
134.1465580983975
 31
0.0
  0
LINE
  5
39A3
330
2
100
AcDbEntity
  8
0
100
AcDbLine
 10
707.4759090264373
 20
139.1465580983975
 30
0.0
 11
723.9759310264376
 21
139.1465580983975
 31
0.0
  0
LINE
  5
39A4
330
2
100
AcDbEntity
  8
0
100
AcDbLine
 10
724.102925680228
 20
101.6465580983975
 30
0.0
 11
707.4759090264392
 21
101.6465580983975
 31
0.0
  0
LINE
  5
39A6
330
2
100
AcDbEntity
  8
CENTER
100
AcDbLine
 10
584.475909026441
 20
136.6465580983972
 30
0.0
 11
815.4759310264411
 21
136.646558098397
 31
0.0
  0
LINE
  5
39A7
330
2
100
AcDbEntity
  8
CENTER
100
AcDbLine
 10
696.9023158976337
 20
187.0729649695928
 30
0.0
 11
696.9023158976337
 21
171.0729649695928
 31
0.0
  0
CIRCLE
  5
39A8
330
2
100
AcDbEntity
  8
HOJO
100
AcDbCircle
 10
696.9023158976337
 20
179.0729649695928
 30
0.0
 40
4.0
  0
CIRCLE
  5
39A9
330
2
100
AcDbEntity
  8
0
100
AcDbCircle
 10
696.9023158976337
 20
179.0729649695928
 30
0.0
 40
3.2
  0
LINE
  5
39AA
330
2
100
AcDbEntity
  8
0
100
AcDbLine
 10
603.475909026441
 20
179.6465580983973
 30
0.0
 11
603.475909026441
 21
176.6465580983998
 31
0.0
  0
CIRCLE
  5
39AB
330
2
100
AcDbEntity
  8
0
100
AcDbCircle
 10
612.0495021552483
 20
179.0729649695926
 30
0.0
 40
3.2
  0
CIRCLE
  5
39AC
330
2
100
AcDbEntity
  8
HOJO
100
AcDbCircle
 10
612.0495021552483
 20
179.0729649695926
 30
0.0
 40
4.0
  0
LINE
  5
39AD
330
2
100
AcDbEntity
  8
CENTER
100
AcDbLine
 10
612.0495021552446
 20
187.0729649695926
 30
0.0
 11
612.0495021552446
 21
171.0729649695925
 31
0.0
  0
CIRCLE
  5
39AE
330
2
100
AcDbEntity
  8
0
100
AcDbCircle
 10
654.4759090264411
 20
136.6465580983998
 30
0.0
 40
26.0
  0
CIRCLE
  5
39AF
330
2
100
AcDbEntity
  8
0
100
AcDbCircle
 10
654.4759090264411
 20
136.6465580983998
 30
0.0
 40
34.0
  0
ARC
  5
39B0
330
2
100
AcDbEntity
  8
0
100
AcDbCircle
 10
803.475909026441
 20
136.6465580983975
 30
0.0
 40
200.0
100
AcDbArc
 50
174.1053016135977
 51
185.8946983864006
  0
ARC
  5
39B1
330
2
100
AcDbEntity
  8
0
100
AcDbCircle
 10
544.8507047044545
 20
109.9444291680728
 30
0.0
 40
60.0
100
AcDbArc
 50
348.19493218953
 51
5.894698386400654
  0
ARC
  5
39B2
330
2
100
AcDbEntity
  8
0
100
AcDbCircle
 10
544.8507047044545
 20
163.348687028723
 30
0.0
 40
60.0
100
AcDbArc
 50
354.1053016135977
 51
11.80506781046993
  0
ARC
  5
39B3
330
2
100
AcDbEntity
  8
0
100
AcDbCircle
 10
608.4759090264411
 20
176.6465580983975
 30
0.0
 40
5.0
100
AcDbArc
 50
180.0
 51
191.8050678104699
  0
CIRCLE
  5
39B4
330
2
100
AcDbEntity
  8
0
100
AcDbCircle
 10
654.4759090264428
 20
136.6465580984008
 30
0.0
 40
16.99995077575704
  0
CIRCLE
  5
39B5
330
2
100
AcDbEntity
  8
0
100
AcDbCircle
 10
654.4759090264428
 20
136.6465580984008
 30
0.0
 40
12.57739543185027
  0
CIRCLE
  5
39B6
330
2
100
AcDbEntity
  8
0
100
AcDbCircle
 10
654.4759090264428
 20
136.6465580984008
 30
0.0
 40
12.00004516266062
  0
CIRCLE
  5
39B7
330
2
100
AcDbEntity
  8
0
100
AcDbCircle
 10
654.4759090264428
 20
136.6465580984008
 30
0.0
 40
11.00006071982613
  0
LINE
  5
39B8
330
2
100
AcDbEntity
  8
0
100
AcDbLine
 10
652.1195809641207
 20
99.6465580983944
 30
0.0
 11
657.0995263941272
 21
99.6465580983944
 31
0.0
  0
LINE
  5
39B9
330
2
100
AcDbEntity
  8
0
100
AcDbLine
 10
655.0595263941245
 20
97.60655809839125
 30
0.0
 11
656.9720809641271
 21
97.60655809839125
 31
0.0
  0
ARC
  5
39BA
330
2
100
AcDbEntity
  8
0
100
AcDbCircle
 10
710.4759090264356
 20
101.6465580983998
 30
0.0
 40
5.0
100
AcDbArc
 50
90.0
 51
180.0
  0
LINE
  5
39BB
330
2
100
AcDbEntity
  8
0
100
AcDbLine
 10
710.4759090264356
 20
106.6465580983998
 30
0.0
 11
720.9759310264375
 21
106.6465580983998
 31
0.0
  0
ARC
  5
39BC
330
2
100
AcDbEntity
  8
0
100
AcDbCircle
 10
707.4759090264392
 20
99.64655809839758
 30
0.0
 40
2.0
100
AcDbArc
 50
90.0
 51
180.0
  0
ARC
  5
39BD
330
2
100
AcDbEntity
  8
0
100
AcDbCircle
 10
707.4759090264373
 20
132.1465580983975
 30
0.0
 40
2.0
100
AcDbArc
 50
90.0
 51
180.0
  0
ARC
  5
39BE
330
2
100
AcDbEntity
  8
0
100
AcDbCircle
 10
707.4759090264373
 20
141.1465580983975
 30
0.0
 40
2.0
100
AcDbArc
 50
180.0
 51
270.0
  0
ARC
  5
39BF
330
2
100
AcDbEntity
  8
0
100
AcDbCircle
 10
710.4759090264374
 20
171.6465580984003
 30
0.0
 40
5.0
100
AcDbArc
 50
180.0
 51
270.0
  0
LINE
  5
39C0
330
2
100
AcDbEntity
  8
0
100
AcDbLine
 10
710.4759090264374
 20
166.6465580984002
 30
0.0
 11
720.9759310264394
 21
166.6465580983996
 31
0.0
  0
ARC
  5
39C1
330
2
100
AcDbEntity
  8
0
100
AcDbCircle
 10
707.475909026441
 20
173.646558098398
 30
0.0
 40
2.0
100
AcDbArc
 50
180.0
 51
270.0
  0
ARC
  5
39C2
330
2
100
AcDbEntity
  8
0
100
AcDbCircle
 10
654.4759090264411
 20
-12.3534419016029
 30
0.0
 40
200.0
100
AcDbArc
 50
84.10530161364862
 51
95.89469838635135
  0
LINE
  5
39C4
330
2
100
AcDbEntity
  8
CENTER
100
AcDbLine
 10
620.0495021552483
 20
179.0729649695926
 30
0.0
 11
604.0495021552483
 21
179.0729649695926
 31
0.0
  0
ARC
  5
39C5
330
2
100
AcDbEntity
  8
0
100
AcDbCircle
 10
627.7737800961144
 20
246.271762420382
 30
0.0
 40
60.0
100
AcDbArc
 50
258.1949321895051
 51
275.8946983863513
  0
ARC
  5
39C6
330
2
100
AcDbEntity
  8
0
100
AcDbCircle
 10
611.4759090264392
 20
179.6465580983912
 30
0.0
 40
8.0
100
AcDbArc
 50
90.0
 51
180.0
  0
ARC
  5
39C7
330
2
100
AcDbEntity
  8
0
100
AcDbCircle
 10
614.475909026441
 20
182.6465580983973
 30
0.0
 40
5.0
100
AcDbArc
 50
78.19493218950516
 51
90.0
  0
LINE
  5
39C8
330
2
100
AcDbEntity
  8
0
100
AcDbLine
 10
611.475909026441
 20
187.6465580983973
 30
0.0
 11
614.475909026441
 21
187.6465580983973
 31
0.0
  0
ARC
  5
39C9
330
2
100
AcDbEntity
  8
0
100
AcDbCircle
 10
681.1780379567657
 20
246.2717624203818
 30
0.0
 40
60.0
100
AcDbArc
 50
264.1053016135962
 51
281.8050678104415
  0
ARC
  5
39CA
330
2
100
AcDbEntity
  8
0
100
AcDbCircle
 10
697.4759090264428
 20
179.6465580983912
 30
0.0
 40
8.0
100
AcDbArc
 50
0.0
 51
90.0
  0
LINE
  5
39CB
330
2
100
AcDbEntity
  8
CENTER
100
AcDbLine
 10
704.9023158976337
 20
179.0729649695923
 30
0.0
 11
688.9023158976337
 21
179.0729649695923
 31
0.0
  0
ARC
  5
39CC
330
2
100
AcDbEntity
  8
0
100
AcDbCircle
 10
694.475909026441
 20
182.6465580983968
 30
0.0
 40
5.0
100
AcDbArc
 50
90.0
 51
101.8050678104414
  0
LINE
  5
39CD
330
2
100
AcDbEntity
  8
0
100
AcDbLine
 10
697.475909026441
 20
187.6465580983971
 30
0.0
 11
694.475909026441
 21
187.6465580983968
 31
0.0
  0
ARC
  5
39CE
330
2
100
AcDbEntity
  8
0
100
AcDbCircle
 10
729.9759090264392
 20
179.6465580983975
 30
0.0
 40
5.0
100
AcDbArc
 50
270.0
 51
0.0
  0
LINE
  5
39D2
330
2
100
AcDbEntity
  8
CENTER
  6
CENS
100
AcDbLine
 10
791.4759310264412
 20
187.5889579719151
 30
0.0
 11
791.4759310264412
 21
164.2290319695483
 31
0.0
  0
ARC
  5
39D3
330
2
100
AcDbEntity
  8
0
100
AcDbCircle
 10
796.4758480945779
 20
178.6643029634447
 30
0.0
 40
4.000000000000014
100
AcDbArc
 50
359.6700000000007
 51
89.67000000001375
  0
LINE
  5
39D4
330
2
100
AcDbEntity
  8
0
100
AcDbLine
 10
772.4759310264412
 20
183.38373777537
 30
0.0
 11
772.4759310264412
 21
174.769378421425
 31
0.0
  0
LINE
  5
39D5
330
2
100
AcDbEntity
  8
0
100
AcDbLine
 10
766.4759310264412
 20
174.0765580983973
 30
0.0
 11
766.4759310264412
 21
184.0765580983973
 31
0.0
  0
LINE
  5
39D6
330
2
100
AcDbEntity
  8
0
100
AcDbLine
 10
765.4759310264412
 20
184.0765580983973
 30
0.0
 11
765.4759310264412
 21
174.0765580983973
 31
0.0
  0
LINE
  5
39D7
330
2
100
AcDbEntity
  8
0
100
AcDbLine
 10
766.4759310264412
 20
174.0765580983973
 30
0.0
 11
766.4759310264412
 21
184.0765580983973
 31
0.0
  0
LINE
  5
39D8
330
2
100
AcDbEntity
  8
0
100
AcDbLine
 10
772.0759310264416
 20
174.0765580983973
 30
0.0
 11
772.0759310264416
 21
184.0765580983973
 31
0.0
  0
LINE
  5
39D9
330
2
100
AcDbEntity
  8
0
100
AcDbLine
 10
800.4757786991245
 20
178.6407411548005
 30
0.0
 11
772.4759310264412
 21
178.8036395032928
 31
0.0
  0
LINE
  5
39DA
330
2
100
AcDbEntity
  8
0
100
AcDbLine
 10
765.4759310264412
 20
186.5243438709406
 30
0.0
 11
765.475931026443
 21
147.6892591038809
 31
0.0
  0
LINE
  5
39DD
330
2
100
AcDbEntity
  8
0
100
AcDbLine
 10
725.9759090264374
 20
172.6465580983978
 30
0.0
 11
725.9759090264355
 21
100.646558098398
 31
0.0
  0
SPLINE
  5
39DE
330
2
100
AcDbEntity
  8
HOJO
100
AcDbSpline
210
0.0
220
0.0
230
1.0
 70
     8
 71
     3
 72
    20
 73
    16
 74
     0
 42
0.0000000001
 43
0.0000000001
 40
1.221331719906463
 40
1.221331719906463
 40
1.221331719906463
 40
1.221331719906463
 40
5.647385924430076
 40
9.759277458584113
 40
14.59638394258456
 40
18.6386056126129
 40
22.25598020257161
 40
26.57819511411361
 40
31.00332353479096
 40
40.39337194914635
 40
45.49899296170218
 40
52.02718752358933
 40
57.17041693382338
 40
65.63449353306062
 40
69.3611614947018
 40
69.3611614947018
 40
69.3611614947018
 40
69.3611614947018
 10
801.7764135834708
 20
176.711133415567
 30
0.0
 10
800.409253379879
 20
175.8758602023286
 30
0.0
 10
797.9535816489474
 20
174.3472375567655
 30
0.0
 10
796.6442832204697
 20
169.8228953691964
 30
0.0
 10
795.4943738949219
 20
166.4313258746779
 30
0.0
 10
792.006617482933
 20
162.7575606634337
 30
0.0
 10
790.3347823065701
 20
159.2322005334545
 30
0.0
 10
788.3575357461154
 20
155.6814838359596
 30
0.0
 10
784.9697544335517
 20
150.0924392475056
 30
0.0
 10
777.4453953892366
 20
150.2680156950969
 30
0.0
 10
770.717056032588
 20
149.1216451615992
 30
0.0
 10
765.3737894871806
 20
147.4030330571186
 30
0.0
 10
758.3750089727941
 20
147.0668617723952
 30
0.0
 10
754.6602761735698
 20
141.5808674404402
 30
0.0
 10
753.3384347347741
 20
137.810960947264
 30
0.0
 10
752.925761961665
 20
136.6465580983972
 30
0.0
  0
LINE
  5
39DF
330
2
100
AcDbEntity
  8
0
100
AcDbLine
 10
760.9759310264412
 20
144.1465580983972
 30
0.0
 11
756.645804007519
 21
136.6465580983972
 31
0.0
  0
LINE
  5
39E0
330
2
100
AcDbEntity
  8
0
100
AcDbLine
 10
796.4759310264412
 20
144.6465580983972
 30
0.0
 11
796.4759310264412
 21
136.6465580983972
 31
0.0
  0
LINE
  5
39E1
330
2
100
AcDbEntity
  8
0
100
AcDbLine
 10
785.4759310264412
 20
151.975701659474
 30
0.0
 11
785.4759310264412
 21
136.6465580983972
 31
0.0
  0
LINE
  5
39E2
330
2
100
AcDbEntity
  8
0
100
AcDbLine
 10
783.4759310264412
 20
150.9219683190925
 30
0.0
 11
783.4759310264412
 21
136.6465580983972
 31
0.0
  0
LINE
  5
39E3
330
2
100
AcDbEntity
  8
0
100
AcDbLine
 10
760.9759310264412
 20
144.8965580983973
 30
0.0
 11
760.9759310264412
 21
136.6465580983972
 31
0.0
  0
LINE
  5
39E4
330
2
100
AcDbEntity
  8
0
100
AcDbLine
 10
766.9759310264412
 20
144.8965580983973
 30
0.0
 11
766.9759310264412
 21
136.6465580983975
 31
0.0
  0
LINE
  5
39E5
330
2
100
AcDbEntity
  8
0
100
AcDbLine
 10
798.4759310264412
 20
156.3965580983972
 30
0.0
 11
798.475931026443
 21
136.6465580983972
 31
0.0
  0
LINE
  5
39E6
330
2
100
AcDbEntity
  8
0
100
AcDbLine
 10
798.4759310264412
 20
171.6465580983973
 30
0.0
 11
798.4759310264412
 21
136.6465580983972
 31
0.0
  0
LINE
  5
39E7
330
2
100
AcDbEntity
  8
0
100
AcDbLine
 10
772.0759310264416
 20
99.21655809839746
 30
0.0
 11
766.4759310264412
 21
99.21655809839746
 31
0.0
  0
ARC
  5
39E8
330
2
100
AcDbEntity
  8
0
100
AcDbCircle
 10
727.9759090264356
 20
100.646558098398
 30
0.0
 40
2.0
100
AcDbArc
 50
180.0
 51
270.0
  0
LINE
  5
39E9
330
2
100
AcDbEntity
  8
0
100
AcDbLine
 10
729.9759090264283
 20
98.64655809839803
 30
0.0
 11
727.9759090264356
 21
98.64655809839803
 31
0.0
  0
ARC
  5
39EA
330
2
100
AcDbEntity
  8
0
100
AcDbCircle
 10
724.102925680228
 20
99.64655809839758
 30
0.0
 40
2.0
100
AcDbArc
 50
14.47751218595946
 51
90.0
  0
LINE
  5
39EB
330
2
100
AcDbEntity
  8
0
100
AcDbLine
 10
765.4759310264412
 20
99.21655809839746
 30
0.0
 11
766.4759310264412
 21
99.21655809839746
 31
0.0
  0
ARC
  5
39EC
330
2
100
AcDbEntity
  8
0
100
AcDbCircle
 10
723.9759310264376
 20
132.1465580983975
 30
0.0
 40
2.0
100
AcDbArc
 50
0.0
 51
90.0
  0
LINE
  5
39ED
330
2
100
AcDbEntity
  8
0
100
AcDbLine
 10
772.0759310264416
 20
99.21655809839746
 30
0.0
 11
772.4759310264412
 21
98.52373777536975
 31
0.0
  0
LINE
  5
39EE
330
2
100
AcDbEntity
  8
0
100
AcDbLine
 10
766.9759310264412
 20
144.8965580983973
 30
0.0
 11
760.9759310264412
 21
144.8965580983973
 31
0.0
  0
LINE
  5
39EF
330
2
100
AcDbEntity
  8
0
100
AcDbLine
 10
772.0759310264416
 20
174.0765580983973
 30
0.0
 11
766.4759310264412
 21
174.0765580983973
 31
0.0
  0
ARC
  5
39F0
330
2
100
AcDbEntity
  8
0
100
AcDbCircle
 10
723.9759310264376
 20
141.1465580983975
 30
0.0
 40
2.0
100
AcDbArc
 50
270.0
 51
0.0
  0
ARC
  5
39F1
330
2
100
AcDbEntity
  8
0
100
AcDbCircle
 10
724.1029256802298
 20
173.6465580983975
 30
0.0
 40
2.0
100
AcDbArc
 50
270.0
 51
345.5224878140406
  0
ARC
  5
39F2
330
2
100
AcDbEntity
  8
0
100
AcDbCircle
 10
727.9759090264374
 20
172.6465580983978
 30
0.0
 40
2.0
100
AcDbArc
 50
90.0
 51
180.0
  0
LINE
  5
39F3
330
2
100
AcDbEntity
  8
0
100
AcDbLine
 10
729.9759090264392
 20
174.6465580983975
 30
0.0
 11
727.9759090264374
 21
174.6465580983977
 31
0.0
  0
LINE
  5
39F4
330
2
100
AcDbEntity
  8
0
100
AcDbLine
 10
765.4759310264412
 20
174.0765580983973
 30
0.0
 11
766.4759310264412
 21
174.0765580983973
 31
0.0
  0
LINE
  5
39F5
330
2
100
AcDbEntity
  8
0
100
AcDbLine
 10
796.4759310264412
 20
144.6465580983972
 30
0.0
 11
785.4759310264412
 21
144.6465580983975
 31
0.0
  0
LINE
  5
39F6
330
2
100
AcDbEntity
  8
0
100
AcDbLine
 10
783.4759310264412
 20
144.6465580983975
 30
0.0
 11
766.9759310264412
 21
144.6465580983972
 31
0.0
  0
LINE
  5
39F7
330
2
100
AcDbEntity
  8
0
100
AcDbLine
 10
798.4759310264412
 20
145.8012586367768
 30
0.0
 11
796.4759310264412
 21
144.6465580983972
 31
0.0
  0
LINE
  5
39F8
330
2
100
AcDbEntity
  8
0
100
AcDbLine
 10
798.4759310264412
 20
156.3965580983972
 30
0.0
 11
788.7381264559239
 21
156.3965580983972
 31
0.0
  0
LINE
  5
39F9
330
2
100
AcDbEntity
  8
0
100
AcDbLine
 10
772.0759310264416
 20
174.0765580983973
 30
0.0
 11
772.4759310264412
 21
174.769378421425
 31
0.0
  0
LINE
  5
39FA
330
2
100
AcDbEntity
  8
0
100
AcDbLine
 10
798.4759310264412
 20
165.646558098397
 30
0.0
 11
794.5662776776548
 21
165.6465580983972
 31
0.0
  0
LINE
  5
39FB
330
2
100
AcDbEntity
  8
0
100
AcDbLine
 10
805.4759310264412
 20
171.6465580983975
 30
0.0
 11
798.4759310264412
 21
171.6465580983973
 31
0.0
  0
LINE
  5
39FC
330
2
100
AcDbEntity
  8
0
100
AcDbLine
 10
805.4759310264412
 20
176.646558098397
 30
0.0
 11
801.4759310264448
 21
176.7163783581098
 31
0.0
  0
LINE
  5
39FD
330
2
100
AcDbEntity
  8
0
100
AcDbLine
 10
801.4759310264448
 20
176.7163783581098
 30
0.0
 11
799.4759310264448
 21
178.6465580983943
 31
0.0
  0
LINE
  5
39FE
330
2
100
AcDbEntity
  8
0
100
AcDbLine
 10
801.4759310264448
 20
176.7163783581098
 30
0.0
 11
801.4759310264448
 21
176.5270665849614
 31
0.0
  0
LINE
  5
39FF
330
2
100
AcDbEntity
  8
0
100
AcDbLine
 10
799.4759310264448
 20
178.6465580983943
 30
0.0
 11
799.4759310264448
 21
175.14585841393
 31
0.0
  0
LINE
  5
3A00
330
2
100
AcDbEntity
  8
CENTER
  6
CENS
100
AcDbLine
 10
745.4759310264412
 20
179.0765580983973
 30
0.0
 11
777.4759310264412
 21
179.0765580983973
 31
0.0
  0
LINE
  5
3A01
330
2
100
AcDbEntity
  8
0
100
AcDbLine
 10
766.4759310264412
 20
184.0765580983973
 30
0.0
 11
772.0759310264416
 21
184.0765580983973
 31
0.0
  0
LINE
  5
3A02
330
2
100
AcDbEntity
  8
0
100
AcDbLine
 10
750.4759310264412
 20
188.1465580983998
 30
0.0
 11
736.9759310264412
 21
188.1465580984
 31
0.0
  0
LINE
  5
3A03
330
2
100
AcDbEntity
  8
0
100
AcDbLine
 10
750.4759310264412
 20
187.6465580983998
 30
0.0
 11
736.9759310264412
 21
187.6465580984
 31
0.0
  0
ARC
  5
3A04
330
2
100
AcDbEntity
  8
0
100
AcDbCircle
 10
736.9759310264412
 20
186.1465580984
 30
0.0
 40
2.0
100
AcDbArc
 50
90.0
 51
180.0
  0
ARC
  5
3A05
330
2
100
AcDbEntity
  8
0
100
AcDbCircle
 10
736.9759310264412
 20
185.6465580984
 30
0.0
 40
2.0
100
AcDbArc
 50
90.0
 51
180.0
  0
LINE
  5
3A06
330
2
100
AcDbEntity
  8
0
100
AcDbLine
 10
750.4759310264412
 20
187.6465580983968
 30
0.0
 11
764.4846575619408
 21
187.5243057940047
 31
0.0
  0
LINE
  5
3A07
330
2
100
AcDbEntity
  8
0
100
AcDbLine
 10
766.4759310264412
 20
184.0765580983973
 30
0.0
 11
765.4759310264412
 21
184.0765580983973
 31
0.0
  0
ARC
  5
3A08
330
2
100
AcDbEntity
  8
0
100
AcDbCircle
 10
764.4759310264412
 20
186.5243438709406
 30
0.0
 40
1.0
100
AcDbArc
 50
0.0
 51
89.5000000000345
  0
LINE
  5
3A09
330
2
100
AcDbEntity
  8
0
100
AcDbLine
 10
796.4988863133307
 20
182.664236617954
 30
0.0
 11
786.4990521770574
 21
182.7218321648341
 31
0.0
  0
LINE
  5
3A0A
330
2
100
AcDbEntity
  8
0
100
AcDbLine
 10
772.0759310264416
 20
184.0765580983975
 30
0.0
 11
772.4759310264412
 21
183.38373777537
 31
0.0
  0
ARC
  5
3A0B
330
2
100
AcDbEntity
  8
0
100
AcDbCircle
 10
786.4760139583045
 20
178.7218985103246
 30
0.0
 40
4.000000000000014
100
AcDbArc
 50
89.67000000001375
 51
179.6700000000007
  0
CIRCLE
  5
3A0E
330
2
100
AcDbEntity
  8
0
100
AcDbCircle
 10
999.0860087911411
 20
94.21655809839746
 30
0.0
 40
4.307179676972423
  0
CIRCLE
  5
3A0F
330
2
100
AcDbEntity
  8
0
100
AcDbCircle
 10
999.0860087911411
 20
94.21655809839746
 30
0.0
 40
5.0
  0
CIRCLE
  5
3A10
330
2
100
AcDbEntity
  8
0
100
AcDbCircle
 10
1083.946008791141
 20
94.21655809839746
 30
0.0
 40
4.307179676972423
  0
CIRCLE
  5
3A11
330
2
100
AcDbEntity
  8
0
100
AcDbCircle
 10
1083.946008791141
 20
94.21655809839746
 30
0.0
 40
5.0
  0
CIRCLE
  5
3A12
330
2
100
AcDbEntity
  8
CENTER
100
AcDbCircle
 10
1041.516008791141
 20
136.6465580983972
 30
0.0
 40
45.0
  0
LINE
  5
3A13
330
2
100
AcDbEntity
  8
CENTER
100
AcDbLine
 10
1083.946008791141
 20
85.71655809839745
 30
0.0
 11
1083.946008791141
 21
102.7165580983974
 31
0.0
  0
LINE
  5
3A14
330
2
100
AcDbEntity
  8
CENTER
100
AcDbLine
 10
999.0860087911411
 20
85.71655809839745
 30
0.0
 11
999.0860087911411
 21
102.7165580983974
 31
0.0
  0
ARC
  5
3A15
330
2
100
AcDbEntity
  8
0
100
AcDbCircle
 10
1014.516008791141
 20
109.6465580983972
 30
0.0
 40
13.0
100
AcDbArc
 50
180.0
 51
270.0
  0
ARC
  5
3A16
330
2
100
AcDbEntity
  8
0
100
AcDbCircle
 10
1014.516008791141
 20
109.6465580983972
 30
0.0
 40
15.0
100
AcDbArc
 50
180.0
 51
270.0
  0
LINE
  5
3A17
330
2
100
AcDbEntity
  8
CENTER
100
AcDbLine
 10
1009.696203637746
 20
97.32675294500275
 30
0.0
 11
1009.696203637746
 21
112.3267529450027
 31
0.0
  0
LINE
  5
3A18
330
2
100
AcDbEntity
  8
CENTER
100
AcDbLine
 10
1073.335813944535
 20
97.32675294500275
 30
0.0
 11
1073.335813944535
 21
112.3267529450027
 31
0.0
  0
ARC
  5
3A19
330
2
100
AcDbEntity
  8
0
100
AcDbCircle
 10
1068.516008791139
 20
109.6465580983972
 30
0.0
 40
13.0
100
AcDbArc
 50
270.0
 51
0.0
  0
ARC
  5
3A1A
330
2
100
AcDbEntity
  8
0
100
AcDbCircle
 10
1068.516008791141
 20
109.6465580983972
 30
0.0
 40
15.0
100
AcDbArc
 50
270.0
 51
0.0
  0
LINE
  5
3A1B
330
2
100
AcDbEntity
  8
CENTER
100
AcDbLine
 10
1041.516008791141
 20
198.146558098405
 30
0.0
 11
1041.516008791141
 21
75.14655809840594
 31
0.0
  0
LINE
  5
3A1C
330
2
100
AcDbEntity
  8
0
100
AcDbLine
 10
990.5160087911413
 20
179.7246050126805
 30
0.0
 11
990.5160087911413
 21
93.56851118413038
 31
0.0
  0
LINE
  5
3A1D
330
2
100
AcDbEntity
  8
0
100
AcDbLine
 10
1092.516008791141
 20
179.7246050126796
 30
0.0
 11
1092.516008791141
 21
93.5685111841313
 31
0.0
  0
LINE
  5
3A1E
330
2
100
AcDbEntity
  8
0
100
AcDbLine
 10
983.5160087911486
 20
181.6465580983959
 30
0.0
 11
983.5160087911486
 21
91.64655809839638
 31
0.0
  0
LINE
  5
3A1F
330
2
100
AcDbEntity
  8
0
100
AcDbLine
 10
988.5160087911485
 20
186.9222280717659
 30
0.0
 11
988.5160087911485
 21
86.37088812503231
 31
0.0
  0
LINE
  5
3A20
330
2
100
AcDbEntity
  8
0
100
AcDbLine
 10
1014.516008791141
 20
96.64655809839729
 30
0.0
 11
1068.516008791139
 21
96.64655809839729
 31
0.0
  0
LINE
  5
3A21
330
2
100
AcDbEntity
  8
0
100
AcDbLine
 10
1014.516008791141
 20
94.64655809839729
 30
0.0
 11
1068.516008791141
 21
94.64655809839729
 31
0.0
  0
LINE
  5
3A22
330
2
100
AcDbEntity
  8
0
100
AcDbLine
 10
998.5160087911413
 20
85.64655809839729
 30
0.0
 11
1084.516008791141
 21
85.64655809839729
 31
0.0
  0
LINE
  5
3A23
330
2
100
AcDbEntity
  8
0
100
AcDbLine
 10
1041.516008791141
 20
85.14655809840594
 30
0.0
 11
1084.594436394673
 21
85.56889562393104
 31
0.0
  0
LINE
  5
3A25
330
2
100
AcDbEntity
  8
0
100
AcDbLine
 10
1041.516008791141
 20
85.14655809840594
 30
0.0
 11
998.4375811876111
 21
85.56889562393013
 31
0.0
  0
LINE
  5
3A26
330
2
100
AcDbEntity
  8
CENTER
100
AcDbLine
 10
1007.586008791141
 20
94.21655809839746
 30
0.0
 11
990.586008791141
 21
94.21655809839746
 31
0.0
  0
ARC
  5
3A27
330
2
100
AcDbEntity
  8
0
100
AcDbCircle
 10
998.5160087911413
 20
93.6465580983973
 30
0.0
 40
8.0
100
AcDbArc
 50
180.0
 51
270.0
  0
ARC
  5
3A28
330
2
100
AcDbEntity
  8
0
100
AcDbCircle
 10
998.5160087911413
 20
93.56851118413038
 30
0.0
 40
8.0
100
AcDbArc
 50
180.0
 51
269.4382946674683
  0
LINE
  5
3A29
330
2
100
AcDbEntity
  8
0
100
AcDbLine
 10
995.1458457686735
 20
86.31303041425423
 30
0.0
 11
988.5160087911485
 21
86.37088812503231
 31
0.0
  0
LINE
  5
3A2A
330
2
100
AcDbEntity
  8
0
100
AcDbLine
 10
988.5160087911485
 20
91.64655809839638
 30
0.0
 11
983.5160087911486
 21
91.64655809839638
 31
0.0
  0
LWPOLYLINE
  5
3A2B
330
2
100
AcDbEntity
  8
0
100
AcDbPolyline
 90
        6
 70
     1
 43
0.0
 10
1001.586008791141
 20
95.65993377137152
 10
999.0860087911411
 20
97.10330944434559
 10
996.586008791141
 20
95.65993377137152
 10
996.586008791141
 20
92.77318242542339
 10
999.0860087911411
 20
91.32980675244931
 10
1001.586008791141
 20
92.77318242542339
  0
CIRCLE
  5
3A2C
330
2
100
AcDbEntity
  8
0
100
AcDbCircle
 10
999.0860087911411
 20
94.21655809839746
 30
0.0
 40
2.886751345948113
  0
ARC
  5
3A2D
330
2
100
AcDbEntity
  8
0
100
AcDbCircle
 10
1084.516008791141
 20
93.6465580983973
 30
0.0
 40
8.0
100
AcDbArc
 50
270.0
 51
0.0
  0
LINE
  5
3A2E
330
2
100
AcDbEntity
  8
CENTER
100
AcDbLine
 10
1075.446008791141
 20
94.21655809839746
 30
0.0
 11
1092.446008791141
 21
94.21655809839746
 31
0.0
  0
ARC
  5
3A2F
330
2
100
AcDbEntity
  8
0
100
AcDbCircle
 10
1084.516008791141
 20
93.5685111841313
 30
0.0
 40
8.0
100
AcDbArc
 50
270.5617053325316
 51
0.0
  0
LWPOLYLINE
  5
3A30
330
2
100
AcDbEntity
  8
0
100
AcDbPolyline
 90
        6
 70
     1
 43
0.0
 10
1086.446008791141
 20
95.65993377137152
 10
1083.946008791141
 20
97.10330944434559
 10
1081.446008791141
 20
95.65993377137152
 10
1081.446008791141
 20
92.77318242542339
 10
1083.946008791141
 20
91.32980675244931
 10
1086.446008791141
 20
92.77318242542339
  0
CIRCLE
  5
3A31
330
2
100
AcDbEntity
  8
0
100
AcDbCircle
 10
1083.946008791141
 20
94.21655809839746
 30
0.0
 40
2.886751345948113
  0
CIRCLE
  5
3A33
330
2
100
AcDbEntity
  8
0
100
AcDbCircle
 10
1041.516008791141
 20
136.6465580983972
 30
0.0
 40
29.0
  0
CIRCLE
  5
3A34
330
2
100
AcDbEntity
  8
0
100
AcDbCircle
 10
1041.516008791141
 20
136.6465580983972
 30
0.0
 40
34.99999999953029
  0
LINE
  5
3A35
330
2
100
AcDbEntity
  8
CENTER
100
AcDbLine
 10
1065.835813944535
 20
168.466363251792
 30
0.0
 11
1080.835813944535
 21
168.466363251792
 31
0.0
  0
LINE
  5
3A36
330
2
100
AcDbEntity
  8
0
100
AcDbLine
 10
1014.516008791141
 20
176.6465580983972
 30
0.0
 11
1068.516008791139
 21
176.6465580983972
 31
0.0
  0
LINE
  5
3A37
330
2
100
AcDbEntity
  8
0
100
AcDbLine
 10
1014.516008791141
 20
178.6465580983972
 30
0.0
 11
1068.516008791141
 21
178.6465580983972
 31
0.0
  0
LINE
  5
3A38
330
2
100
AcDbEntity
  8
CENTER
100
AcDbLine
 10
1065.835813944535
 20
104.8267529450027
 30
0.0
 11
1080.835813944535
 21
104.8267529450027
 31
0.0
  0
LINE
  5
3A39
330
2
100
AcDbEntity
  8
0
100
AcDbLine
 10
998.5160087911431
 20
187.6465580983973
 30
0.0
 11
1084.516008791141
 21
187.6465580983973
 31
0.0
  0
LINE
  5
3A3A
330
2
100
AcDbEntity
  8
CENTER
100
AcDbLine
 10
917.5160087911356
 20
136.6465580983972
 30
0.0
 11
1102.516008791141
 21
136.6465580983972
 31
0.0
  0
LINE
  5
3A3B
330
2
100
AcDbEntity
  8
0
100
AcDbLine
 10
1041.516008791141
 20
188.146558098405
 30
0.0
 11
1084.594436394673
 21
187.7242205728799
 31
0.0
  0
ARC
  5
3A3D
330
2
100
AcDbEntity
  8
0
100
AcDbCircle
 10
1031.141009814594
 20
178.4718321648341
 30
0.0
 40
4.25
100
AcDbArc
 50
2.35620725154016
 51
90.0
  0
ARC
  5
3A3E
330
2
100
AcDbEntity
  8
0
100
AcDbCircle
 10
1021.641009814594
 20
178.4718321648341
 30
0.0
 40
4.25
100
AcDbArc
 50
90.0
 51
177.6437927484598
  0
LINE
  5
3A3F
330
2
100
AcDbEntity
  8
CENTER
  6
CENS
100
AcDbLine
 10
1026.516008791141
 20
187.5889579719151
 30
0.0
 11
1026.516008791141
 21
120.7988929408678
 31
0.0
  0
LWPOLYLINE
  5
3A40
330
2
100
AcDbEntity
  8
0
100
AcDbPolyline
 90
        6
 70
     1
 43
0.0
 10
1001.586008791141
 20
180.5199337713716
 10
999.0860087911411
 20
181.9633094443457
 10
996.586008791141
 20
180.5199337713716
 10
996.586008791141
 20
177.6331824254235
 10
999.0860087911411
 20
176.1898067524494
 10
1001.586008791141
 20
177.6331824254235
  0
CIRCLE
  5
3A41
330
2
100
AcDbEntity
  8
0
100
AcDbCircle
 10
999.0860087911411
 20
179.0765580983975
 30
0.0
 40
2.886751345948113
  0
CIRCLE
  5
3A42
330
2
100
AcDbEntity
  8
0
100
AcDbCircle
 10
999.0860087911411
 20
179.0765580983975
 30
0.0
 40
4.307179676972423
  0
CIRCLE
  5
3A43
330
2
100
AcDbEntity
  8
0
100
AcDbCircle
 10
999.0860087911411
 20
179.0765580983975
 30
0.0
 40
5.0
  0
ARC
  5
3A44
330
2
100
AcDbEntity
  8
0
100
AcDbCircle
 10
1014.516008791141
 20
163.6465580983973
 30
0.0
 40
13.0
100
AcDbArc
 50
90.0
 51
180.0
  0
ARC
  5
3A45
330
2
100
AcDbEntity
  8
0
100
AcDbCircle
 10
1014.516008791141
 20
163.6465580983973
 30
0.0
 40
15.0
100
AcDbArc
 50
90.0
 51
180.0
  0
LINE
  5
3A46
330
2
100
AcDbEntity
  8
CENTER
100
AcDbLine
 10
999.0860087911411
 20
187.5765580983975
 30
0.0
 11
999.0860087911411
 21
170.5765580983975
 31
0.0
  0
ARC
  5
3A47
330
2
100
AcDbEntity
  8
0
100
AcDbCircle
 10
981.5160087911486
 20
100.2262897758992
 30
0.0
 40
2.0
100
AcDbArc
 50
0.0
 51
87.99999999999636
  0
ARC
  5
3A48
330
2
100
AcDbEntity
  8
0
100
AcDbCircle
 10
981.5160087911486
 20
173.0668264208953
 30
0.0
 40
2.0
100
AcDbArc
 50
272.0000000000036
 51
0.0
  0
LINE
  5
3A49
330
2
100
AcDbEntity
  8
0
100
AcDbLine
 10
967.5160087911356
 20
124.6465129357325
 30
0.0
 11
967.5154442578435
 21
148.6465129229868
 31
0.0
  0
LINE
  5
3A4A
330
2
100
AcDbEntity
  8
0
100
AcDbLine
 10
968.5160087911356
 20
120.4352332329922
 30
0.0
 11
968.5160087911356
 21
152.8578829638022
 31
0.0
  0
LINE
  5
3A4B
330
2
100
AcDbEntity
  8
0
100
AcDbLine
 10
928.0160087911356
 20
125.6464973785673
 30
0.0
 11
928.0160087911356
 21
147.6464973785691
 31
0.0
  0
LINE
  5
3A4C
330
2
100
AcDbEntity
  8
0
100
AcDbLine
 10
927.5160087911356
 20
147.1464971816435
 30
0.0
 11
927.5160087911356
 21
126.1464971816417
 31
0.0
  0
LINE
  5
3A4D
330
2
100
AcDbEntity
  8
0
100
AcDbLine
 10
969.5160087911485
 20
168.7151805487838
 30
0.0
 11
969.5160087911485
 21
104.5779356480107
 31
0.0
  0
LINE
  5
3A4E
330
2
100
AcDbEntity
  8
0
100
AcDbLine
 10
928.0160087911356
 20
125.6464973785673
 30
0.0
 11
967.5160087911356
 21
125.6465129357325
 31
0.0
  0
LINE
  5
3A4F
330
2
100
AcDbEntity
  8
0
100
AcDbLine
 10
928.0160087911356
 20
125.6464973785673
 30
0.0
 11
927.5160087911356
 21
126.1464971816417
 31
0.0
  0
ARC
  5
3A50
330
2
100
AcDbEntity
  8
0
100
AcDbCircle
 10
971.5160087911485
 20
104.5779356480107
 30
0.0
 40
2.0
100
AcDbArc
 50
180.0
 51
267.9999999999963
  0
LINE
  5
3A51
330
2
100
AcDbEntity
  8
0
100
AcDbLine
 10
981.5858077845536
 20
102.2250714299371
 30
0.0
 11
971.4462097977435
 21
102.5791539939728
 31
0.0
  0
LINE
  5
3A52
330
2
100
AcDbEntity
  8
0
100
AcDbLine
 10
967.5160087911356
 20
124.6465129357325
 30
0.0
 11
968.5160087911356
 21
124.0691626665434
 31
0.0
  0
LINE
  5
3A53
330
2
100
AcDbEntity
  8
0
100
AcDbLine
 10
968.7660087911355
 20
120.0022205311001
 30
0.0
 11
968.9178473209087
 21
119.9145565150624
 31
0.0
  0
ARC
  5
3A54
330
2
100
AcDbEntity
  8
0
100
AcDbCircle
 10
969.9178473209087
 20
121.6466073226306
 30
0.0
 40
2.0
100
AcDbArc
 50
240.0000000000002
 51
258.4092797188798
  0
ARC
  5
3A55
330
2
100
AcDbEntity
  8
0
100
AcDbCircle
 10
969.0160087911356
 20
120.4352332329922
 30
0.0
 40
0.5
100
AcDbArc
 50
180.0
 51
240.0000000000002
  0
LINE
  5
3A56
330
2
100
AcDbEntity
  8
0
100
AcDbLine
 10
967.5160087911356
 20
147.6465129357343
 30
0.0
 11
928.0160087911356
 21
147.6464973785691
 31
0.0
  0
LINE
  5
3A57
330
2
100
AcDbEntity
  8
0
100
AcDbLine
 10
927.5160087911356
 20
147.1464971816435
 30
0.0
 11
928.0160087911356
 21
147.6464973785691
 31
0.0
  0
LINE
  5
3A58
330
2
100
AcDbEntity
  8
0
100
AcDbLine
 10
968.7660087911355
 20
153.2908956656942
 30
0.0
 11
968.9178473209087
 21
153.3785596817319
 31
0.0
  0
ARC
  5
3A59
330
2
100
AcDbEntity
  8
0
100
AcDbCircle
 10
969.9178473209087
 20
151.6465088741638
 30
0.0
 40
2.0
100
AcDbArc
 50
101.5907202811201
 51
119.9999999999997
  0
ARC
  5
3A5A
330
2
100
AcDbEntity
  8
0
100
AcDbCircle
 10
969.0160087911356
 20
152.8578829638022
 30
0.0
 40
0.5
100
AcDbArc
 50
119.9999999999997
 51
180.0
  0
LINE
  5
3A5B
330
2
100
AcDbEntity
  8
0
100
AcDbLine
 10
967.5160087911356
 20
148.6466032610619
 30
0.0
 11
968.5160087911356
 21
149.223953530251
 31
0.0
  0
ARC
  5
3A5C
330
2
100
AcDbEntity
  8
0
100
AcDbCircle
 10
971.5160087911485
 20
168.7151805487838
 30
0.0
 40
2.0
100
AcDbArc
 50
92.00000000000365
 51
180.0
  0
LINE
  5
3A5D
330
2
100
AcDbEntity
  8
0
100
AcDbLine
 10
981.5858077845518
 20
171.0680447668574
 30
0.0
 11
971.4462097977435
 21
170.7139622028217
 31
0.0
  0
ARC
  5
3A5E
330
2
100
AcDbEntity
  8
0
100
AcDbCircle
 10
1041.516008791141
 20
136.6465580983972
 30
0.0
 40
9.154700538379415
100
AcDbArc
 50
4.699230675936476
 51
175.3007693240635
  0
CIRCLE
  5
3A5F
330
2
100
AcDbEntity
  8
0
100
AcDbCircle
 10
1041.516008791141
 20
136.6465580983972
 30
0.0
 40
19.75
  0
LINE
  5
3A60
330
2
100
AcDbEntity
  8
HIDS
100
AcDbLine
 10
1024.016008791141
 20
141.6465580983973
 30
0.0
 11
1024.016008791141
 21
137.3965580983973
 31
0.0
  0
LINE
  5
3A61
330
2
100
AcDbEntity
  8
HIDS
100
AcDbLine
 10
1024.432675457807
 20
139.563224765064
 30
0.0
 11
1024.432675457807
 21
137.3965580983973
 31
0.0
  0
LINE
  5
3A62
330
2
100
AcDbEntity
  8
HIDS
100
AcDbLine
 10
1028.599342124475
 20
139.563224765064
 30
0.0
 11
1028.599342124475
 21
137.3965580983973
 31
0.0
  0
LINE
  5
3A63
330
2
100
AcDbEntity
  8
HIDS
100
AcDbLine
 10
1029.016008791141
 20
141.6465580983973
 30
0.0
 11
1029.016008791141
 21
137.3965580983973
 31
0.0
  0
LINE
  5
3A64
330
2
100
AcDbEntity
  8
HIDS
100
AcDbLine
 10
1023.516008791141
 20
141.6465580983973
 30
0.0
 11
1023.516008791141
 21
137.3965580983973
 31
0.0
  0
LINE
  5
3A65
330
2
100
AcDbEntity
  8
HIDS
100
AcDbLine
 10
1029.516008791141
 20
141.6465580983973
 30
0.0
 11
1029.516008791141
 21
137.3965580983973
 31
0.0
  0
CIRCLE
  5
3A66
330
2
100
AcDbEntity
  8
0
100
AcDbCircle
 10
1041.516008791141
 20
136.6465580983972
 30
0.0
 40
8.0
  0
LINE
  5
3A67
330
2
100
AcDbEntity
  8
0
100
AcDbLine
 10
999.5160087911413
 20
163.6465580983973
 30
0.0
 11
999.5160087911413
 21
109.6465580983972
 31
0.0
  0
LINE
  5
3A68
330
2
100
AcDbEntity
  8
0
100
AcDbLine
 10
1001.516008791141
 20
163.6465580983973
 30
0.0
 11
1001.516008791141
 21
109.6465580983972
 31
0.0
  0
LINE
  5
3A69
330
2
100
AcDbEntity
  8
HIDS
100
AcDbLine
 10
1029.016008791141
 20
127.6465580983972
 30
0.0
 11
1024.016008791141
 21
127.6465580983972
 31
0.0
  0
LINE
  5
3A6A
330
2
100
AcDbEntity
  8
HIDS
100
AcDbLine
 10
1024.016008791141
 20
127.6465580983972
 30
0.0
 11
1025.016008791141
 21
126.6465580983972
 31
0.0
  0
LINE
  5
3A6B
330
2
100
AcDbEntity
  8
0
100
AcDbLine
 10
1021.780254435151
 20
137.3965580983973
 30
0.0
 11
1033.551242630103
 21
137.3965580983973
 31
0.0
  0
LINE
  5
3A6C
330
2
100
AcDbEntity
  8
0
100
AcDbLine
 10
1021.780254435151
 20
135.8965580983972
 30
0.0
 11
1033.551242630103
 21
135.8965580983972
 31
0.0
  0
LINE
  5
3A6D
330
2
100
AcDbEntity
  8
CENTER
100
AcDbLine
 10
1017.196203637746
 20
104.8267529450027
 30
0.0
 11
1002.196203637746
 21
104.8267529450027
 31
0.0
  0
CIRCLE
  5
3A6E
330
2
100
AcDbEntity
  8
HOJO
100
AcDbCircle
 10
1009.696203637746
 20
104.8267529450027
 30
0.0
 40
3.0
  0
CIRCLE
  5
3A6F
330
2
100
AcDbEntity
  8
0
100
AcDbCircle
 10
1009.696203637746
 20
104.8267529450027
 30
0.0
 40
2.5
  0
LINE
  5
3A70
330
2
100
AcDbEntity
  8
HIDS
100
AcDbLine
 10
1024.432675457807
 20
135.8965580983972
 30
0.0
 11
1024.432675457807
 21
127.2298914317307
 31
0.0
  0
LINE
  5
3A71
330
2
100
AcDbEntity
  8
HIDS
100
AcDbLine
 10
1024.016008791141
 20
135.8965580983972
 30
0.0
 11
1024.016008791141
 21
127.6465580983972
 31
0.0
  0
LINE
  5
3A72
330
2
100
AcDbEntity
  8
HIDS
100
AcDbLine
 10
1024.016008791141
 20
135.8965580983972
 30
0.0
 11
1024.016008791141
 21
127.4916413865972
 31
0.0
  0
LINE
  5
3A73
330
2
100
AcDbEntity
  8
HIDS
100
AcDbLine
 10
1024.432675457807
 20
135.8965580983972
 30
0.0
 11
1024.432675457807
 21
126.7358456001848
 31
0.0
  0
LINE
  5
3A74
330
2
100
AcDbEntity
  8
0
100
AcDbLine
 10
1024.016008791141
 20
137.3965580983973
 30
0.0
 11
1024.016008791141
 21
135.8965580983972
 31
0.0
  0
LINE
  5
3A75
330
2
100
AcDbEntity
  8
HOJO
100
AcDbLine
 10
1024.432675457807
 20
137.3965580983973
 30
0.0
 11
1024.432675457807
 21
135.8965580983975
 31
0.0
  0
ARC
  5
3A76
330
2
100
AcDbEntity
  8
0
100
AcDbCircle
 10
1041.516008791141
 20
136.6465580983972
 30
0.0
 40
9.154700538379415
100
AcDbArc
 50
184.6992306759364
 51
355.3007693240634
  0
LINE
  5
3A77
330
2
100
AcDbEntity
  8
HIDS
100
AcDbLine
 10
1028.599342124475
 20
135.8965580983972
 30
0.0
 11
1028.599342124475
 21
121.7059348777207
 31
0.0
  0
LINE
  5
3A78
330
2
100
AcDbEntity
  8
HIDS
100
AcDbLine
 10
1029.016008791141
 20
135.8965580983972
 30
0.0
 11
1029.016008791141
 21
121.3556294150244
 31
0.0
  0
LINE
  5
3A79
330
2
100
AcDbEntity
  8
HIDS
100
AcDbLine
 10
1028.016008791141
 20
126.6465580983972
 30
0.0
 11
1025.016008791141
 21
126.6465580983972
 31
0.0
  0
LINE
  5
3A7A
330
2
100
AcDbEntity
  8
HIDS
100
AcDbLine
 10
1029.016008791141
 20
127.6465580983972
 30
0.0
 11
1028.016008791141
 21
126.6465580983972
 31
0.0
  0
LINE
  5
3A7B
330
2
100
AcDbEntity
  8
HOJO
100
AcDbLine
 10
1028.599342124475
 20
137.3965580983973
 30
0.0
 11
1028.599342124475
 21
135.8965580983975
 31
0.0
  0
LINE
  5
3A7C
330
2
100
AcDbEntity
  8
0
100
AcDbLine
 10
1029.016008791141
 20
137.3965580983973
 30
0.0
 11
1029.016008791141
 21
135.8965580983975
 31
0.0
  0
LINE
  5
3A7D
330
2
100
AcDbEntity
  8
0
100
AcDbLine
 10
1049.480774952179
 20
137.3965580983973
 30
0.0
 11
1058.71600879114
 21
137.3965580983973
 31
0.0
  0
LINE
  5
3A7E
330
2
100
AcDbEntity
  8
0
100
AcDbLine
 10
1049.480774952179
 20
135.8965580983972
 30
0.0
 11
1058.71600879114
 21
135.8965580983972
 31
0.0
  0
LINE
  5
3A7F
330
2
100
AcDbEntity
  8
0
100
AcDbLine
 10
1058.71600879114
 20
135.8965580983972
 30
0.0
 11
1058.71600879114
 21
137.3965580983973
 31
0.0
  0
LINE
  5
3A80
330
2
100
AcDbEntity
  8
HIDS
100
AcDbLine
 10
1024.312157478136
 20
146.3465580983973
 30
0.0
 11
1030.766008791141
 21
146.3465580983975
 31
0.0
  0
LINE
  5
3A81
330
2
100
AcDbEntity
  8
HIDS
100
AcDbLine
 10
1022.409399986857
 20
141.6465580983973
 30
0.0
 11
1031.516008791141
 21
141.6465580983973
 31
0.0
  0
LINE
  5
3A82
330
2
100
AcDbEntity
  8
HIDS
100
AcDbLine
 10
1030.24639354887
 20
146.6465580983973
 30
0.0
 11
1024.48478746089
 21
146.6465580983973
 31
0.0
  0
LINE
  5
3A83
330
2
100
AcDbEntity
  8
HIDS
100
AcDbLine
 10
1029.016008791141
 20
139.563224765064
 30
0.0
 11
1024.016008791141
 21
139.563224765064
 31
0.0
  0
LINE
  5
3A84
330
2
100
AcDbEntity
  8
HIDS
100
AcDbLine
 10
1020.266008791141
 20
178.6465580983972
 30
0.0
 11
1020.266008791141
 21
156.3807289702632
 31
0.0
  0
LINE
  5
3A85
330
2
100
AcDbEntity
  8
0
100
AcDbLine
 10
1024.48478746089
 20
146.6465580983973
 30
0.0
 11
1022.785624033411
 21
146.6465580983973
 31
0.0
  0
LINE
  5
3A86
330
2
100
AcDbEntity
  8
0
100
AcDbLine
 10
1022.266008791141
 20
146.3465580983973
 30
0.0
 11
1022.785624033411
 21
146.6465580983973
 31
0.0
  0
LINE
  5
3A87
330
2
100
AcDbEntity
  8
0
100
AcDbLine
 10
1022.266008791141
 20
146.3465580983973
 30
0.0
 11
1024.312157478136
 21
146.3465580983973
 31
0.0
  0
LINE
  5
3A88
330
2
100
AcDbEntity
  8
HIDS
100
AcDbLine
 10
1024.016008791141
 20
141.6465580983973
 30
0.0
 11
1024.432675457807
 21
139.563224765064
 31
0.0
  0
LINE
  5
3A89
330
2
100
AcDbEntity
  8
0
100
AcDbLine
 10
1022.266008791141
 20
141.6465580983973
 30
0.0
 11
1022.409399986857
 21
141.6465580983973
 31
0.0
  0
LINE
  5
3A8A
330
2
100
AcDbEntity
  8
0
100
AcDbLine
 10
1022.266008791141
 20
146.3465580983973
 30
0.0
 11
1022.266008791141
 21
141.6465580983973
 31
0.0
  0
LINE
  5
3A8B
330
2
100
AcDbEntity
  8
CENTER
100
AcDbLine
 10
1017.196203637746
 20
168.466363251792
 30
0.0
 11
1002.196203637746
 21
168.466363251792
 31
0.0
  0
CIRCLE
  5
3A8C
330
2
100
AcDbEntity
  8
0
100
AcDbCircle
 10
1009.696203637746
 20
168.466363251792
 30
0.0
 40
2.5
  0
CIRCLE
  5
3A8D
330
2
100
AcDbEntity
  8
HOJO
100
AcDbCircle
 10
1009.696203637746
 20
168.466363251792
 30
0.0
 40
3.0
  0
LINE
  5
3A8E
330
2
100
AcDbEntity
  8
CENTER
100
AcDbLine
 10
1009.696203637746
 20
175.966363251792
 30
0.0
 11
1009.696203637746
 21
160.966363251792
 31
0.0
  0
LINE
  5
3A8F
330
2
100
AcDbEntity
  8
HIDS
100
AcDbLine
 10
1031.516008791141
 20
141.6465580983973
 30
0.0
 11
1031.516008791142
 21
153.6777794286488
 31
0.0
  0
LINE
  5
3A90
330
2
100
AcDbEntity
  8
HIDS
100
AcDbLine
 10
1030.24639354887
 20
146.6465580983973
 30
0.0
 11
1030.766008791141
 21
146.3465580983973
 31
0.0
  0
LINE
  5
3A91
330
2
100
AcDbEntity
  8
HIDS
100
AcDbLine
 10
1029.016008791141
 20
141.6465580983973
 30
0.0
 11
1028.599342124475
 21
139.563224765064
 31
0.0
  0
LINE
  5
3A92
330
2
100
AcDbEntity
  8
HIDS
100
AcDbLine
 10
1030.766008791141
 20
141.6465580983973
 30
0.0
 11
1030.766008791141
 21
146.3465580983973
 31
0.0
  0
LINE
  5
3A93
330
2
100
AcDbEntity
  8
HIDS
100
AcDbLine
 10
1032.766008791141
 20
178.6465580983972
 30
0.0
 11
1032.766008791142
 21
164.2950209851476
 31
0.0
  0
LINE
  5
3A95
330
2
100
AcDbEntity
  8
0
100
AcDbLine
 10
1021.641009814594
 20
182.7218321648341
 30
0.0
 11
1031.391009814593
 21
182.7218321648341
 31
0.0
  0
LINE
  5
3A96
330
2
100
AcDbEntity
  8
0
100
AcDbLine
 10
1041.516008791141
 20
188.146558098405
 30
0.0
 11
998.4375811876111
 21
187.7242205728808
 31
0.0
  0
LINE
  5
3A97
330
2
100
AcDbEntity
  8
CENTER
100
AcDbLine
 10
1007.586008791141
 20
179.0765580983975
 30
0.0
 11
990.586008791141
 21
179.0765580983975
 31
0.0
  0
ARC
  5
3A98
330
2
100
AcDbEntity
  8
0
100
AcDbCircle
 10
998.5160087911431
 20
179.6465580983972
 30
0.0
 40
8.0
100
AcDbArc
 50
90.0
 51
180.0
  0
ARC
  5
3A99
330
2
100
AcDbEntity
  8
0
100
AcDbCircle
 10
998.5160087911413
 20
179.7246050126805
 30
0.0
 40
8.0
100
AcDbArc
 50
90.56170533253165
 51
180.0
  0
LINE
  5
3A9A
330
2
100
AcDbEntity
  8
0
100
AcDbLine
 10
995.1458457686735
 20
186.9800857825439
 30
0.0
 11
988.5160087911485
 21
186.9222280717659
 31
0.0
  0
LINE
  5
3A9B
330
2
100
AcDbEntity
  8
0
100
AcDbLine
 10
988.5160087911485
 20
181.6465580983959
 30
0.0
 11
983.5160087911486
 21
181.6465580983959
 31
0.0
  0
LWPOLYLINE
  5
3A9D
330
2
100
AcDbEntity
  8
0
100
AcDbPolyline
 90
        6
 70
     1
 43
0.0
 10
1086.446008791141
 20
180.5199337713716
 10
1083.946008791141
 20
181.9633094443457
 10
1081.446008791141
 20
180.5199337713716
 10
1081.446008791141
 20
177.6331824254235
 10
1083.946008791141
 20
176.1898067524494
 10
1086.446008791141
 20
177.6331824254235
  0
CIRCLE
  5
3A9E
330
2
100
AcDbEntity
  8
0
100
AcDbCircle
 10
1083.946008791141
 20
179.0765580983975
 30
0.0
 40
2.886751345948113
  0
CIRCLE
  5
3A9F
330
2
100
AcDbEntity
  8
0
100
AcDbCircle
 10
1083.946008791141
 20
179.0765580983975
 30
0.0
 40
4.307179676972423
  0
CIRCLE
  5
3AA0
330
2
100
AcDbEntity
  8
0
100
AcDbCircle
 10
1083.946008791141
 20
179.0765580983975
 30
0.0
 40
5.0
  0
LINE
  5
3AA1
330
2
100
AcDbEntity
  8
CENTER
100
AcDbLine
 10
1083.946008791141
 20
187.5765580983975
 30
0.0
 11
1083.946008791141
 21
170.5765580983975
 31
0.0
  0
ARC
  5
3AA2
330
2
100
AcDbEntity
  8
0
100
AcDbCircle
 10
1068.516008791141
 20
163.6465580983973
 30
0.0
 40
15.0
100
AcDbArc
 50
0.0
 51
90.0
  0
ARC
  5
3AA3
330
2
100
AcDbEntity
  8
0
100
AcDbCircle
 10
1068.516008791139
 20
163.6465580983973
 30
0.0
 40
13.0
100
AcDbArc
 50
0.0
 51
90.0
  0
LINE
  5
3AA4
330
2
100
AcDbEntity
  8
0
100
AcDbLine
 10
1083.516008791141
 20
163.6465580983973
 30
0.0
 11
1083.516008791141
 21
109.6465580983972
 31
0.0
  0
LINE
  5
3AA5
330
2
100
AcDbEntity
  8
0
100
AcDbLine
 10
1081.516008791139
 20
163.6465580983973
 30
0.0
 11
1081.516008791139
 21
109.6465580983972
 31
0.0
  0
CIRCLE
  5
3AA6
330
2
100
AcDbEntity
  8
HOJO
100
AcDbCircle
 10
1073.335813944535
 20
104.8267529450027
 30
0.0
 40
3.0
  0
CIRCLE
  5
3AA7
330
2
100
AcDbEntity
  8
0
100
AcDbCircle
 10
1073.335813944535
 20
104.8267529450027
 30
0.0
 40
2.5
  0
CIRCLE
  5
3AA8
330
2
100
AcDbEntity
  8
0
100
AcDbCircle
 10
1073.335813944535
 20
168.466363251792
 30
0.0
 40
2.5
  0
CIRCLE
  5
3AA9
330
2
100
AcDbEntity
  8
HOJO
100
AcDbCircle
 10
1073.335813944535
 20
168.466363251792
 30
0.0
 40
3.0
  0
LINE
  5
3AAA
330
2
100
AcDbEntity
  8
CENTER
100
AcDbLine
 10
1073.335813944535
 20
175.966363251792
 30
0.0
 11
1073.335813944535
 21
160.966363251792
 31
0.0
  0
ARC
  5
3AAB
330
2
100
AcDbEntity
  8
0
100
AcDbCircle
 10
1084.516008791141
 20
179.6465580983972
 30
0.0
 40
8.0
100
AcDbArc
 50
0.0
 51
90.0
  0
LINE
  5
3AAC
330
2
100
AcDbEntity
  8
CENTER
100
AcDbLine
 10
1075.446008791141
 20
179.0765580983975
 30
0.0
 11
1092.446008791141
 21
179.0765580983975
 31
0.0
  0
ARC
  5
3AAD
330
2
100
AcDbEntity
  8
0
100
AcDbCircle
 10
1084.516008791141
 20
179.7246050126796
 30
0.0
 40
8.0
100
AcDbArc
 50
0.0
 51
89.43829466741624
  0
ARC
  5
3AAE
330
2
100
AcDbEntity
  8
0
100
AcDbCircle
 10
724.0512394220745
 20
421.9744109531557
 30
0.0
 40
2.0
100
AcDbArc
 50
14.47751218590101
 51
90.0
  0
ARC
  5
3AAF
330
2
100
AcDbEntity
  8
0
100
AcDbCircle
 10
727.9242227682839
 20
422.9744109531552
 30
0.0
 40
2.0
100
AcDbArc
 50
181.5000000000157
 51
270.0
  0
ARC
  5
3AB0
330
2
100
AcDbEntity
  8
0
100
AcDbCircle
 10
706.8930910749563
 20
421.9744109531552
 30
0.0
 40
2.0
100
AcDbArc
 50
90.0
 51
179.5000000000084
  0
LINE
  5
3AB1
330
2
100
AcDbEntity
  8
0
100
AcDbLine
 10
633.9358098492661
 20
487.9744109531552
 30
0.0
 11
633.9358098492661
 21
407.474410953157
 31
0.0
  0
LINE
  5
3AB2
330
2
100
AcDbEntity
  8
0
100
AcDbLine
 10
734.9759310264412
 20
507.9744109531577
 30
0.0
 11
734.9759310264375
 21
409.9744109531573
 31
0.0
  0
LINE
  5
3AB3
330
2
100
AcDbEntity
  8
0
100
AcDbLine
 10
697.2141029926965
 20
488.4656844176577
 30
0.0
 11
697.2141029926965
 21
407.474410953157
 31
0.0
  0
LINE
  5
3AB4
330
2
100
AcDbEntity
  8
0
100
AcDbLine
 10
675.0160082036159
 20
487.9744109531552
 30
0.0
 11
675.0160082036122
 21
407.474410953157
 31
0.0
  0
LINE
  5
3AB5
330
2
100
AcDbEntity
  8
0
100
AcDbLine
 10
694.475909026441
 20
458.9744109531552
 30
0.0
 11
694.475909026441
 21
407.474410953157
 31
0.0
  0
LINE
  5
3AB6
330
2
100
AcDbEntity
  8
0
100
AcDbLine
 10
705.2159090264399
 20
458.9744109531552
 30
0.0
 11
704.7533850335317
 21
405.9744109531552
 31
0.0
  0
LINE
  5
3AB7
330
2
100
AcDbEntity
  8
0
100
AcDbLine
 10
614.475909026441
 20
487.9744109531552
 30
0.0
 11
614.4759090264392
 21
407.474410953157
 31
0.0
  0
LINE
  5
3AB8
330
2
100
AcDbEntity
  8
0
100
AcDbLine
 10
611.4759090264392
 20
487.9744109531552
 30
0.0
 11
611.4759090264374
 21
407.474410953157
 31
0.0
  0
LINE
  5
3AB9
330
2
100
AcDbEntity
  8
0
100
AcDbLine
 10
603.475909026441
 20
488.4744109531552
 30
0.0
 11
604.1958756191793
 21
405.9744109531552
 31
0.0
  0
LINE
  5
3ABA
330
2
100
AcDbEntity
  8
CENTER
100
AcDbLine
 10
654.4759090264396
 20
519.9744109531597
 30
0.0
 11
654.4759090264419
 21
334.9744109531497
 31
0.0
  0
LINE
  5
3ABB
330
2
100
AcDbEntity
  8
0
100
AcDbLine
 10
805.4759310264412
 20
418.9744109531557
 30
0.0
 11
805.4759310264412
 21
498.9744109531548
 31
0.0
  0
LINE
  5
3ABC
330
2
100
AcDbEntity
  8
0
100
AcDbLine
 10
765.4759310264412
 20
409.0966251806118
 30
0.0
 11
765.475931026443
 21
508.8521967256983
 31
0.0
  0
LINE
  5
3ABD
330
2
100
AcDbEntity
  8
0
100
AcDbLine
 10
801.4759310264448
 20
418.9045906934427
 30
0.0
 11
801.475931026443
 21
499.0442312128675
 31
0.0
  0
LINE
  5
3ABE
330
2
100
AcDbEntity
  8
0
100
AcDbLine
 10
799.4759310264448
 20
416.9744109531584
 30
0.0
 11
799.4759310264448
 21
439.8513053275428
 31
0.0
  0
LINE
  5
3ABF
330
2
100
AcDbEntity
  8
0
100
AcDbLine
 10
750.4759310264412
 20
407.9744109531572
 30
0.0
 11
750.4759310264412
 21
509.9744109531575
 31
0.0
  0
LINE
  5
3AC0
330
2
100
AcDbEntity
  8
0
100
AcDbLine
 10
622.4072865760531
 20
386.9744109531538
 30
0.0
 11
686.5445314768272
 21
386.9744109531538
 31
0.0
  0
LINE
  5
3AC1
330
2
100
AcDbEntity
  8
0
100
AcDbLine
 10
604.1958756191793
 20
405.9744109531552
 30
0.0
 11
704.7533850335317
 21
405.9744109531552
 31
0.0
  0
LINE
  5
3AC2
330
2
100
AcDbEntity
  8
0
100
AcDbLine
 10
609.475909026441
 20
400.9744109531552
 30
0.0
 11
699.475909026441
 21
400.9744109531552
 31
0.0
  0
LINE
  5
3AC3
330
2
100
AcDbEntity
  8
0
100
AcDbLine
 10
609.475909026441
 20
405.9744109531552
 30
0.0
 11
609.475909026441
 21
400.9744109531552
 31
0.0
  0
LINE
  5
3AC4
330
2
100
AcDbEntity
  8
0
100
AcDbLine
 10
620.0544223579814
 20
399.0442099465585
 30
0.0
 11
620.4085049220152
 21
388.9046119597492
 31
0.0
  0
ARC
  5
3AC5
330
2
100
AcDbEntity
  8
0
100
AcDbCircle
 10
622.4072865760531
 20
388.9744109531538
 30
0.0
 40
2.0
100
AcDbArc
 50
182.0000000000037
 51
270.0
  0
ARC
  5
3AC6
330
2
100
AcDbEntity
  8
0
100
AcDbCircle
 10
618.0556407039435
 20
398.9744109531538
 30
0.0
 40
2.0
100
AcDbArc
 50
2.000000000003726
 51
90.0
  0
LINE
  5
3AC7
330
2
100
AcDbEntity
  8
0
100
AcDbLine
 10
643.475954189103
 20
384.9744109531497
 30
0.0
 11
643.4759697462681
 21
345.4744109531497
 31
0.0
  0
LINE
  5
3AC8
330
2
100
AcDbEntity
  8
0
100
AcDbLine
 10
665.47596974627
 20
345.4744109531497
 30
0.0
 11
665.4759541891048
 21
384.9744109531497
 31
0.0
  0
LINE
  5
3AC9
330
2
100
AcDbEntity
  8
0
100
AcDbLine
 10
665.47596974627
 20
345.4744109531497
 30
0.0
 11
643.4759697462681
 21
345.4744109531497
 31
0.0
  0
LINE
  5
3ACA
330
2
100
AcDbEntity
  8
0
100
AcDbLine
 10
643.9759699431938
 20
344.9744109531498
 30
0.0
 11
664.9759699431956
 21
344.9744109531498
 31
0.0
  0
LINE
  5
3ACB
330
2
100
AcDbEntity
  8
0
100
AcDbLine
 10
643.9759699431938
 20
344.9744109531498
 30
0.0
 11
643.4759697462681
 21
345.4744109531497
 31
0.0
  0
LINE
  5
3ACC
330
2
100
AcDbEntity
  8
0
100
AcDbLine
 10
665.47596974627
 20
345.4744109531497
 30
0.0
 11
664.9759699431956
 21
344.9744109531498
 31
0.0
  0
LINE
  5
3ACD
330
2
100
AcDbEntity
  8
0
100
AcDbLine
 10
666.4759541891048
 20
384.9744109531497
 30
0.0
 11
642.4759542018505
 21
384.9738464198576
 31
0.0
  0
LINE
  5
3ACE
330
2
100
AcDbEntity
  8
0
100
AcDbLine
 10
670.6872338918451
 20
385.9744109531498
 30
0.0
 11
638.2645841610351
 21
385.9744109531498
 31
0.0
  0
LINE
  5
3ACF
330
2
100
AcDbEntity
  8
0
100
AcDbLine
 10
637.8315714591431
 20
386.2244109531498
 30
0.0
 11
637.7439074431054
 21
386.3762494829229
 31
0.0
  0
ARC
  5
3AD0
330
2
100
AcDbEntity
  8
0
100
AcDbCircle
 10
639.4759582506735
 20
387.3762494829229
 30
0.0
 40
2.0
100
AcDbArc
 50
191.5907202811265
 51
210.0000000000239
  0
ARC
  5
3AD1
330
2
100
AcDbEntity
  8
0
100
AcDbCircle
 10
638.2645841610351
 20
386.4744109531498
 30
0.0
 40
0.5
100
AcDbArc
 50
210.0000000000239
 51
270.0
  0
LINE
  5
3AD2
330
2
100
AcDbEntity
  8
0
100
AcDbLine
 10
642.4758638637754
 20
384.9744109531497
 30
0.0
 11
641.8985135945863
 21
385.9744109531498
 31
0.0
  0
LINE
  5
3AD3
330
2
100
AcDbEntity
  8
0
100
AcDbLine
 10
666.4759541891048
 20
384.9744109531497
 30
0.0
 11
667.0533044582939
 21
385.9744109531498
 31
0.0
  0
LINE
  5
3AD4
330
2
100
AcDbEntity
  8
0
100
AcDbLine
 10
671.1202465937372
 20
386.2244109531498
 30
0.0
 11
671.2079106097749
 21
386.3762494829229
 31
0.0
  0
ARC
  5
3AD5
330
2
100
AcDbEntity
  8
0
100
AcDbCircle
 10
669.4758598022067
 20
387.3762494829229
 30
0.0
 40
2.0
100
AcDbArc
 50
329.999999999976
 51
348.4092797188734
  0
ARC
  5
3AD6
330
2
100
AcDbEntity
  8
0
100
AcDbCircle
 10
670.6872338918451
 20
386.4744109531498
 30
0.0
 40
0.5
100
AcDbArc
 50
270.0
 51
329.999999999976
  0
LINE
  5
3AD7
330
2
100
AcDbEntity
  8
0
100
AcDbLine
 10
699.475909026441
 20
405.9744109531552
 30
0.0
 11
699.475909026441
 21
400.9744109531552
 31
0.0
  0
LINE
  5
3AD8
330
2
100
AcDbEntity
  8
0
100
AcDbLine
 10
688.8973956949008
 20
399.044209946559
 30
0.0
 11
688.543313130865
 21
388.9046119597492
 31
0.0
  0
ARC
  5
3AD9
330
2
100
AcDbEntity
  8
0
100
AcDbCircle
 10
686.5445314768272
 20
388.9744109531538
 30
0.0
 40
2.0
100
AcDbArc
 50
270.0
 51
357.9999999999962
  0
ARC
  5
3ADA
330
2
100
AcDbEntity
  8
0
100
AcDbCircle
 10
690.8961773489386
 20
398.9744109531538
 30
0.0
 40
2.0
100
AcDbArc
 50
90.0
 51
177.9999999999962
  0
LINE
  5
3ADB
330
2
100
AcDbEntity
  8
CENTER
  6
CENS
100
AcDbLine
 10
745.4759310264412
 20
416.5444109531554
 30
0.0
 11
777.4759310264412
 21
416.5444109531554
 31
0.0
  0
LINE
  5
3ADC
330
2
100
AcDbEntity
  8
0
100
AcDbLine
 10
766.4759310264412
 20
411.5444109531554
 30
0.0
 11
772.0759310264416
 21
411.5444109531554
 31
0.0
  0
LINE
  5
3ADD
330
2
100
AcDbEntity
  8
0
100
AcDbLine
 10
772.0759310264416
 20
421.5444109531554
 30
0.0
 11
766.4759310264412
 21
421.5444109531554
 31
0.0
  0
LINE
  5
3ADE
330
2
100
AcDbEntity
  8
0
100
AcDbLine
 10
750.4759310264412
 20
407.9744109531572
 30
0.0
 11
736.9759310264376
 21
407.9744109531571
 31
0.0
  0
ARC
  5
3ADF
330
2
100
AcDbEntity
  8
0
100
AcDbCircle
 10
736.9759310264376
 20
409.974410953157
 30
0.0
 40
2.0
100
AcDbArc
 50
180.0
 51
270.0
  0
ARC
  5
3AE0
330
2
100
AcDbEntity
  8
0
100
AcDbCircle
 10
729.7647076914322
 20
415.9744109531552
 30
0.0
 40
5.0
100
AcDbArc
 50
1.499999999989629
 51
90.0
  0
LINE
  5
3AE1
330
2
100
AcDbEntity
  8
0
100
AcDbLine
 10
727.9242227682839
 20
420.9744109531552
 30
0.0
 11
729.7647076914322
 21
420.9744109531552
 31
0.0
  0
LINE
  5
3AE2
330
2
100
AcDbEntity
  8
0
100
AcDbLine
 10
766.4759310264412
 20
421.5444109531554
 30
0.0
 11
766.4759310264412
 21
411.5444109531554
 31
0.0
  0
LINE
  5
3AE3
330
2
100
AcDbEntity
  8
0
100
AcDbLine
 10
765.4759310264412
 20
411.5444109531554
 30
0.0
 11
765.4759310264412
 21
421.5444109531554
 31
0.0
  0
LINE
  5
3AE4
330
2
100
AcDbEntity
  8
0
100
AcDbLine
 10
766.4759310264412
 20
421.5444109531554
 30
0.0
 11
766.4759310264412
 21
411.5444109531554
 31
0.0
  0
LINE
  5
3AE5
330
2
100
AcDbEntity
  8
0
100
AcDbLine
 10
750.4759310264412
 20
407.9744109531556
 30
0.0
 11
764.4846575619408
 21
408.0966632575478
 31
0.0
  0
LINE
  5
3AE6
330
2
100
AcDbEntity
  8
0
100
AcDbLine
 10
766.4759310264412
 20
411.5444109531554
 30
0.0
 11
765.4759310264412
 21
411.5444109531554
 31
0.0
  0
ARC
  5
3AE7
330
2
100
AcDbEntity
  8
0
100
AcDbCircle
 10
764.4759310264412
 20
409.0966251806118
 30
0.0
 40
1.0
100
AcDbArc
 50
270.4999999999654
 51
0.0
  0
LINE
  5
3AE8
330
2
100
AcDbEntity
  8
0
100
AcDbLine
 10
765.4759310264412
 20
421.5444109531554
 30
0.0
 11
766.4759310264412
 21
421.5444109531554
 31
0.0
  0
LINE
  5
3AE9
330
2
100
AcDbEntity
  8
0
100
AcDbLine
 10
799.475931026443
 20
416.9744109531556
 30
0.0
 11
772.4759310264412
 21
416.8173295482597
 31
0.0
  0
LINE
  5
3AEA
330
2
100
AcDbEntity
  8
0
100
AcDbLine
 10
772.4759310264412
 20
412.2372312761826
 30
0.0
 11
772.4759310264412
 21
420.8515906301276
 31
0.0
  0
LINE
  5
3AEB
330
2
100
AcDbEntity
  8
0
100
AcDbLine
 10
772.0759310264416
 20
421.5444109531554
 30
0.0
 11
772.0759310264416
 21
411.5444109531554
 31
0.0
  0
LINE
  5
3AEC
330
2
100
AcDbEntity
  8
0
100
AcDbLine
 10
772.0759310264416
 20
411.544410953155
 30
0.0
 11
772.4759310264412
 21
412.2372312761826
 31
0.0
  0
LINE
  5
3AED
330
2
100
AcDbEntity
  8
0
100
AcDbLine
 10
772.0759310264416
 20
421.5444109531554
 30
0.0
 11
772.4759310264412
 21
420.8515906301276
 31
0.0
  0
LINE
  5
3AEE
330
2
100
AcDbEntity
  8
0
100
AcDbLine
 10
805.4759310264412
 20
418.9744109531557
 30
0.0
 11
801.4759310264448
 21
418.9045906934427
 31
0.0
  0
LINE
  5
3AEF
330
2
100
AcDbEntity
  8
0
100
AcDbLine
 10
801.4759310264448
 20
418.9045906934427
 30
0.0
 11
799.4759310264448
 21
416.9744109531584
 31
0.0
  0
ARC
  5
3AF0
330
2
100
AcDbEntity
  8
0
100
AcDbCircle
 10
723.0979950688865
 20
463.4744109531552
 30
0.0
 40
2.0
100
AcDbArc
 50
270.0
 51
358.4999999999843
  0
ARC
  5
3AF1
330
2
100
AcDbEntity
  8
0
100
AcDbCircle
 10
723.097995068892
 20
454.4744109531555
 30
0.0
 40
2.0
100
AcDbArc
 50
1.500000000015675
 51
90.0
  0
ARC
  5
3AF2
330
2
100
AcDbEntity
  8
0
100
AcDbCircle
 10
720.8694513777113
 20
492.9744109531593
 30
0.0
 40
5.0
100
AcDbArc
 50
270.0
 51
358.4999999999843
  0
ARC
  5
3AF3
330
2
100
AcDbEntity
  8
0
100
AcDbCircle
 10
720.8956372992793
 20
423.9744109531555
 30
0.0
 40
5.0
100
AcDbArc
 50
1.500000000015675
 51
90.0
  0
LINE
  5
3AF4
330
2
100
AcDbEntity
  8
0
100
AcDbLine
 10
706.8930910749563
 20
423.9744109531552
 30
0.0
 11
724.0512394220745
 21
423.9744109531557
 31
0.0
  0
LINE
  5
3AF5
330
2
100
AcDbEntity
  8
CENTER
100
AcDbLine
 10
593.7333516262688
 20
458.9744109531552
 30
0.0
 11
815.4759310264411
 21
458.9744109531552
 31
0.0
  0
LINE
  5
3AF6
330
2
100
AcDbEntity
  8
CENTER
100
AcDbLine
 10
697.4759090264556
 20
508.4744109531595
 30
0.0
 11
697.4759090264556
 21
474.909085167895
 31
0.0
  0
LINE
  5
3AF7
330
2
100
AcDbEntity
  8
0
100
AcDbLine
 10
687.4759090264411
 20
505.2744109531459
 30
0.0
 11
687.4759090264392
 21
501.9744109531461
 31
0.0
  0
LINE
  5
3AF8
330
2
100
AcDbEntity
  8
0
100
AcDbLine
 10
621.4759090264392
 20
505.2744109531499
 30
0.0
 11
621.4759090264392
 21
501.9744109531502
 31
0.0
  0
LINE
  5
3AF9
330
2
100
AcDbEntity
  8
CENTER
100
AcDbLine
 10
611.4759090264247
 20
508.474410953155
 30
0.0
 11
611.4759090264247
 21
474.909085167895
 31
0.0
  0
LINE
  5
3AFA
330
2
100
AcDbEntity
  8
0
100
AcDbLine
 10
692.4759090264556
 20
501.4744109531553
 30
0.0
 11
616.4759090264246
 21
501.4744109531553
 31
0.0
  0
LINE
  5
3AFB
330
2
100
AcDbEntity
  8
0
100
AcDbLine
 10
603.475909026441
 20
488.4744109531543
 30
0.0
 11
704.9584664266071
 21
488.4744109531598
 31
0.0
  0
LINE
  5
3AFC
330
2
100
AcDbEntity
  8
0
100
AcDbLine
 10
619.4759090264392
 20
501.9744109531497
 30
0.0
 11
689.4759090264192
 21
501.9744109531662
 31
0.0
  0
LINE
  5
3AFD
330
2
100
AcDbEntity
  8
0
100
AcDbLine
 10
603.4802724603228
 20
488.4744109531575
 30
0.0
 11
704.9584664266117
 21
488.474410953157
 31
0.0
  0
LINE
  5
3AFE
330
2
100
AcDbEntity
  8
0
100
AcDbLine
 10
605.6206156843013
 20
495.974410953153
 30
0.0
 11
702.8621986968532
 21
495.9744109531575
 31
0.0
  0
LINE
  5
3AFF
330
2
100
AcDbEntity
  8
HIDS
100
AcDbLine
 10
614.3043361511804
 20
501.4744109531434
 30
0.0
 11
616.4759090264246
 21
501.4744109531553
 31
0.0
  0
LINE
  5
3B00
330
2
100
AcDbEntity
  8
0
100
AcDbLine
 10
616.4759090264246
 20
503.0744109531546
 30
0.0
 11
615.7830887033973
 21
503.4744109531548
 31
0.0
  0
LINE
  5
3B01
330
2
100
AcDbEntity
  8
0
100
AcDbLine
 10
606.4759090264247
 20
503.0744109531552
 30
0.0
 11
616.4759090264246
 21
503.0744109531546
 31
0.0
  0
LINE
  5
3B02
330
2
100
AcDbEntity
  8
0
100
AcDbLine
 10
606.4759090264247
 20
497.4744109531548
 30
0.0
 11
616.4759090264246
 21
497.4744109531548
 31
0.0
  0
LINE
  5
3B03
330
2
100
AcDbEntity
  8
0
100
AcDbLine
 10
603.6213010343503
 20
494.0267648497711
 30
0.0
 11
603.4759075306896
 21
488.4744109531543
 31
0.0
  0
ARC
  5
3B04
330
2
100
AcDbEntity
  8
0
100
AcDbCircle
 10
605.6206156843013
 20
493.9744109531552
 30
0.0
 40
2.0
100
AcDbArc
 50
90.0
 51
178.5000000000103
  0
ARC
  5
3B05
330
2
100
AcDbEntity
  8
HIDS
100
AcDbCircle
 10
614.3043361511804
 20
499.4744109531434
 30
0.0
 40
2.0
100
AcDbArc
 50
90.0
 51
135.0000000000103
  0
ARC
  5
3B06
330
2
100
AcDbEntity
  8
HIDS
100
AcDbCircle
 10
607.1474819017034
 20
497.9744109531552
 30
0.0
 40
2.0
100
AcDbArc
 50
270.0
 51
315.0000000000104
  0
LINE
  5
3B07
330
2
100
AcDbEntity
  8
HIDS
100
AcDbLine
 10
608.5616954640768
 20
496.5601973907828
 30
0.0
 11
612.8901225888053
 21
500.8886245155158
 31
0.0
  0
LINE
  5
3B08
330
2
100
AcDbEntity
  8
0
100
AcDbLine
 10
606.4759090264247
 20
497.4744109531552
 30
0.0
 11
606.4759090264247
 21
495.9744109531552
 31
0.0
  0
LINE
  5
3B09
330
2
100
AcDbEntity
  8
0
100
AcDbLine
 10
606.4759090264247
 20
503.0744109531546
 30
0.0
 11
607.168729349452
 21
503.4744109531548
 31
0.0
  0
LINE
  5
3B0A
330
2
100
AcDbEntity
  8
0
100
AcDbLine
 10
607.168729349452
 20
503.4744109531548
 30
0.0
 11
615.7830887033973
 21
503.4744109531552
 31
0.0
  0
LINE
  5
3B0B
330
2
100
AcDbEntity
  8
0
100
AcDbLine
 10
606.4759090264247
 20
497.4744109531548
 30
0.0
 11
606.4759090264247
 21
503.0744109531546
 31
0.0
  0
LINE
  5
3B0C
330
2
100
AcDbEntity
  8
0
100
AcDbLine
 10
616.4759090264246
 20
497.4744109531548
 30
0.0
 11
616.4759090264246
 21
495.9744109531552
 31
0.0
  0
LINE
  5
3B0D
330
2
100
AcDbEntity
  8
0
100
AcDbLine
 10
616.4759090264246
 20
497.4744109531548
 30
0.0
 11
616.4759090264246
 21
503.0744109531546
 31
0.0
  0
LINE
  5
3B0E
330
2
100
AcDbEntity
  8
0
100
AcDbLine
 10
621.4759090264392
 20
501.9744109531552
 30
0.0
 11
619.4759090264446
 21
501.9744109531552
 31
0.0
  0
LINE
  5
3B0F
330
2
100
AcDbEntity
  8
0
100
AcDbLine
 10
619.4759090264392
 20
501.9744109531497
 30
0.0
 11
618.9759090264392
 21
501.4744109531497
 31
0.0
  0
ARC
  5
3B10
330
2
100
AcDbEntity
  8
0
100
AcDbCircle
 10
707.2578134884402
 20
463.4744109531552
 30
0.0
 40
2.0
100
AcDbArc
 50
179.5000000000084
 51
270.0
  0
LINE
  5
3B11
330
2
100
AcDbEntity
  8
0
100
AcDbLine
 10
705.2159090264399
 20
458.9744109531552
 30
0.0
 11
704.9584664266135
 21
488.474410953157
 31
0.0
  0
LINE
  5
3B12
330
2
100
AcDbEntity
  8
0
100
AcDbLine
 10
694.4890019872232
 20
488.4744109531588
 30
0.0
 11
695.2359862194603
 21
459.9482340048475
 31
0.0
  0
LINE
  5
3B13
330
2
100
AcDbEntity
  8
0
100
AcDbLine
 10
709.9106590456945
 20
428.9744109531552
 30
0.0
 11
720.8956372992793
 21
428.9744109531555
 31
0.0
  0
ARC
  5
3B14
330
2
100
AcDbEntity
  8
0
100
AcDbCircle
 10
709.9106590456945
 20
423.9744109531552
 30
0.0
 40
5.0
100
AcDbArc
 50
90.0
 51
179.5000000000084
  0
LINE
  5
3B15
330
2
100
AcDbEntity
  8
0
100
AcDbLine
 10
696.2356435444376
 20
458.9744109531554
 30
0.0
 11
705.2159090264399
 21
458.9744109531552
 31
0.0
  0
LINE
  5
3B16
330
2
100
AcDbEntity
  8
0
100
AcDbLine
 10
696.2356435444376
 20
458.9744109531554
 30
0.0
 11
696.2356435444357
 21
458.9744109531554
 31
0.0
  0
ARC
  5
3B17
330
2
100
AcDbEntity
  8
0
100
AcDbCircle
 10
696.2356435444357
 20
459.9744109531554
 30
0.0
 40
1.0
100
AcDbArc
 50
181.5000000000157
 51
270.0
  0
LINE
  5
3B18
330
2
100
AcDbEntity
  8
0
100
AcDbLine
 10
707.1767142781541
 20
456.4744109531554
 30
0.0
 11
723.097995068892
 21
456.4744109531554
 31
0.0
  0
LINE
  5
3B19
330
2
100
AcDbEntity
  8
0
100
AcDbLine
 10
707.2578134884402
 20
461.4744109531552
 30
0.0
 11
723.0979950688865
 21
461.4744109531552
 31
0.0
  0
ARC
  5
3B1A
330
2
100
AcDbEntity
  8
0
100
AcDbCircle
 10
707.1767142781541
 20
454.4744109531555
 30
0.0
 40
2.0
100
AcDbArc
 50
90.0
 51
179.5000000000084
  0
LINE
  5
3B1B
330
2
100
AcDbEntity
  8
0
100
AcDbLine
 10
702.4759090264556
 20
503.0744109531546
 30
0.0
 11
701.7830887034283
 21
503.4744109531548
 31
0.0
  0
LINE
  5
3B1C
330
2
100
AcDbEntity
  8
0
100
AcDbLine
 10
702.4759090264556
 20
503.0744109531552
 30
0.0
 11
692.4759090264556
 21
503.0744109531546
 31
0.0
  0
LINE
  5
3B1D
330
2
100
AcDbEntity
  8
0
100
AcDbLine
 10
702.4759090264556
 20
497.4744109531548
 30
0.0
 11
692.4759090264556
 21
497.4744109531548
 31
0.0
  0
LINE
  5
3B1E
330
2
100
AcDbEntity
  8
0
100
AcDbLine
 10
689.4759090264192
 20
501.9744109531662
 30
0.0
 11
689.9759090264392
 21
501.4744109531452
 31
0.0
  0
ARC
  5
3B1F
330
2
100
AcDbEntity
  8
HIDS
100
AcDbCircle
 10
701.8043361511768
 20
497.9744109531552
 30
0.0
 40
2.0
100
AcDbArc
 50
224.9999999999896
 51
270.0
  0
LINE
  5
3B20
330
2
100
AcDbEntity
  8
HIDS
100
AcDbLine
 10
694.6474819016998
 20
501.4744109531434
 30
0.0
 11
692.4759090264556
 21
501.4744109531553
 31
0.0
  0
LINE
  5
3B21
330
2
100
AcDbEntity
  8
0
100
AcDbLine
 10
692.4759090264556
 20
497.4744109531548
 30
0.0
 11
692.4759090264556
 21
495.9744109531552
 31
0.0
  0
LINE
  5
3B22
330
2
100
AcDbEntity
  8
0
100
AcDbLine
 10
692.4759090264556
 20
503.0744109531546
 30
0.0
 11
693.1687293494828
 21
503.4744109531548
 31
0.0
  0
LINE
  5
3B23
330
2
100
AcDbEntity
  8
0
100
AcDbLine
 10
692.4759090264556
 20
497.4744109531548
 30
0.0
 11
692.4759090264556
 21
503.0744109531546
 31
0.0
  0
ARC
  5
3B24
330
2
100
AcDbEntity
  8
HIDS
100
AcDbCircle
 10
694.6474819016998
 20
499.4744109531434
 30
0.0
 40
2.0
100
AcDbArc
 50
44.99999999998963
 51
90.0
  0
LINE
  5
3B25
330
2
100
AcDbEntity
  8
0
100
AcDbLine
 10
701.7830887034283
 20
503.4744109531548
 30
0.0
 11
693.1687293494828
 21
503.4744109531552
 31
0.0
  0
LINE
  5
3B26
330
2
100
AcDbEntity
  8
HIDS
100
AcDbLine
 10
700.3901225888035
 20
496.5601973907828
 30
0.0
 11
696.0616954640731
 21
500.8886245155158
 31
0.0
  0
LINE
  5
3B27
330
2
100
AcDbEntity
  8
0
100
AcDbLine
 10
704.8621225429819
 20
493.9918640241549
 30
0.0
 11
704.910272626475
 21
488.4744109531598
 31
0.0
  0
LINE
  5
3B28
330
2
100
AcDbEntity
  8
0
100
AcDbLine
 10
720.8694513777113
 20
487.9744109531593
 30
0.0
 11
705.458466426609
 21
487.9744109531593
 31
0.0
  0
LINE
  5
3B29
330
2
100
AcDbEntity
  8
0
100
AcDbLine
 10
705.458466426609
 20
487.9744109531593
 30
0.0
 11
704.958466426608
 21
488.4744109531598
 31
0.0
  0
LINE
  5
3B2A
330
2
100
AcDbEntity
  8
0
100
AcDbLine
 10
702.4759090264556
 20
497.4744109531552
 30
0.0
 11
702.4759090264556
 21
495.9744109531552
 31
0.0
  0
LINE
  5
3B2B
330
2
100
AcDbEntity
  8
0
100
AcDbLine
 10
702.4759090264556
 20
497.4744109531548
 30
0.0
 11
702.4759090264556
 21
503.0744109531546
 31
0.0
  0
ARC
  5
3B2C
330
2
100
AcDbEntity
  8
0
100
AcDbCircle
 10
702.8621986968532
 20
493.9744109531575
 30
0.0
 40
2.0
100
AcDbArc
 50
0.5000000000176293
 51
90.0
  0
LINE
  5
3B2D
330
2
100
AcDbEntity
  8
0
100
AcDbLine
 10
621.4759090264392
 20
505.2744109531499
 30
0.0
 11
687.4759090264411
 21
505.2744109531459
 31
0.0
  0
LINE
  5
3B2E
330
2
100
AcDbEntity
  8
0
100
AcDbLine
 10
687.4759090264411
 20
508.9744109531461
 30
0.0
 11
621.4759090264374
 21
508.9744109531507
 31
0.0
  0
LINE
  5
3B2F
330
2
100
AcDbEntity
  8
0
100
AcDbLine
 10
621.6759090264381
 20
505.4744109531506
 30
0.0
 11
687.2759090264366
 21
505.4744109531506
 31
0.0
  0
LINE
  5
3B30
330
2
100
AcDbEntity
  8
0
100
AcDbLine
 10
621.6759090264381
 20
507.4744109531507
 30
0.0
 11
687.2759090264403
 21
507.4744109529519
 31
0.0
  0
LINE
  5
3B31
330
2
100
AcDbEntity
  8
0
100
AcDbLine
 10
686.8985587572383
 20
509.9744109531688
 30
0.0
 11
622.0532592956274
 21
509.9744109531506
 31
0.0
  0
ARC
  5
3B32
330
2
100
AcDbEntity
  8
0
100
AcDbCircle
 10
621.9759090264392
 20
505.6744109531505
 30
0.0
 40
0.2
100
AcDbArc
 50
270.0
 51
0.0
  0
ARC
  5
3B33
330
2
100
AcDbEntity
  8
0
100
AcDbCircle
 10
621.9759090264374
 20
507.2744109531499
 30
0.0
 40
0.2
100
AcDbArc
 50
0.0
 51
89.99999999989578
  0
ARC
  5
3B34
330
2
100
AcDbEntity
  8
0
100
AcDbCircle
 10
621.6759090264381
 20
507.6744109531505
 30
0.0
 40
0.2
100
AcDbArc
 50
180.0
 51
269.9999999998957
  0
LINE
  5
3B35
330
2
100
AcDbEntity
  8
0
100
AcDbLine
 10
622.1759090264381
 20
507.2744109531499
 30
0.0
 11
622.1759090264381
 21
505.6744109531505
 31
0.0
  0
LINE
  5
3B36
330
2
100
AcDbEntity
  8
0
100
AcDbLine
 10
621.6759090264381
 20
505.4744109531506
 30
0.0
 11
621.4759090264392
 21
505.2744109531499
 31
0.0
  0
LINE
  5
3B37
330
2
100
AcDbEntity
  8
0
100
AcDbLine
 10
621.4759090264374
 20
508.9744109531502
 30
0.0
 11
622.0532592956274
 21
509.9744109531506
 31
0.0
  0
LINE
  5
3B38
330
2
100
AcDbEntity
  8
0
100
AcDbLine
 10
621.4759090264374
 20
508.9744109531507
 30
0.0
 11
621.4759090264392
 21
507.6744109531505
 31
0.0
  0
ARC
  5
3B39
330
2
100
AcDbEntity
  8
0
100
AcDbCircle
 10
686.975909026441
 20
505.6744109531459
 30
0.0
 40
0.2
100
AcDbArc
 50
179.9999999999479
 51
270.0
  0
ARC
  5
3B3A
330
2
100
AcDbEntity
  8
0
100
AcDbCircle
 10
686.975909026441
 20
507.2744109531458
 30
0.0
 40
0.2
100
AcDbArc
 50
90.0
 51
179.9999999999479
  0
ARC
  5
3B3B
330
2
100
AcDbEntity
  8
0
100
AcDbCircle
 10
687.2759090264403
 20
507.674410953146
 30
0.0
 40
0.2
100
AcDbArc
 50
270.0
 51
0.0
  0
LINE
  5
3B3C
330
2
100
AcDbEntity
  8
0
100
AcDbLine
 10
687.4759090264411
 20
508.9744109531461
 30
0.0
 11
687.4759090264411
 21
507.674410953146
 31
0.0
  0
LINE
  5
3B3D
330
2
100
AcDbEntity
  8
0
100
AcDbLine
 10
687.4759090264411
 20
508.9744109531461
 30
0.0
 11
686.8985587572528
 21
509.9744109531461
 31
0.0
  0
LINE
  5
3B3E
330
2
100
AcDbEntity
  8
0
100
AcDbLine
 10
687.2759090264366
 20
505.4744109531506
 30
0.0
 11
687.4759090264411
 21
505.2744109531459
 31
0.0
  0
LINE
  5
3B3F
330
2
100
AcDbEntity
  8
0
100
AcDbLine
 10
686.7759090264403
 20
507.2744109531463
 30
0.0
 11
686.7759090264403
 21
505.6744109531459
 31
0.0
  0
LINE
  5
3B40
330
2
100
AcDbEntity
  8
0
100
AcDbLine
 10
772.4759310264412
 20
505.7115906301278
 30
0.0
 11
772.4759310264412
 21
497.0972312761828
 31
0.0
  0
LINE
  5
3B41
330
2
100
AcDbEntity
  8
0
100
AcDbLine
 10
766.4759310264412
 20
496.4044109531551
 30
0.0
 11
766.4759310264412
 21
506.404410953155
 31
0.0
  0
LINE
  5
3B42
330
2
100
AcDbEntity
  8
0
100
AcDbLine
 10
765.4759310264412
 20
506.404410953155
 30
0.0
 11
765.4759310264412
 21
496.4044109531551
 31
0.0
  0
LINE
  5
3B43
330
2
100
AcDbEntity
  8
0
100
AcDbLine
 10
766.4759310264412
 20
496.4044109531551
 30
0.0
 11
766.4759310264412
 21
506.404410953155
 31
0.0
  0
LINE
  5
3B44
330
2
100
AcDbEntity
  8
0
100
AcDbLine
 10
772.0759310264416
 20
496.4044109531551
 30
0.0
 11
772.0759310264416
 21
506.404410953155
 31
0.0
  0
LINE
  5
3B45
330
2
100
AcDbEntity
  8
0
100
AcDbLine
 10
724.9808440068059
 20
458.9744109531552
 30
0.0
 11
725.9249081183329
 21
495.0267648497709
 31
0.0
  0
LINE
  5
3B46
330
2
100
AcDbEntity
  8
0
100
AcDbLine
 10
799.4759310264448
 20
448.0975165787676
 30
0.0
 11
799.4759310264448
 21
500.9744109531521
 31
0.0
  0
LINE
  5
3B47
330
2
100
AcDbEntity
  8
0
100
AcDbLine
 10
724.9808440068114
 20
458.9744109531552
 30
0.0
 11
725.9249081183329
 21
422.9220570565393
 31
0.0
  0
LINE
  5
3B48
330
2
100
AcDbEntity
  8
CENTER
  6
CENS
100
AcDbLine
 10
791.4759310264376
 20
432.0954810541612
 30
0.0
 11
791.4759310264376
 21
455.8533408521493
 31
0.0
  0
CIRCLE
  5
3B49
330
2
100
AcDbEntity
  8
0
100
AcDbCircle
 10
791.4759310264412
 20
443.9744109531552
 30
0.0
 40
9.0
  0
LINE
  5
3B4A
330
2
100
AcDbEntity
  8
CENTER
  6
CENS
100
AcDbLine
 10
803.3548609254317
 20
443.9744109531552
 30
0.0
 11
779.5970011274435
 21
443.9744109531552
 31
0.0
  0
LINE
  5
3B4B
330
2
100
AcDbEntity
  8
CENTER
  6
CENS
100
AcDbLine
 10
745.4759310264412
 20
501.4044109531551
 30
0.0
 11
777.4759310264412
 21
501.4044109531551
 31
0.0
  0
LINE
  5
3B4C
330
2
100
AcDbEntity
  8
0
100
AcDbLine
 10
772.0759310264416
 20
496.4044109531551
 30
0.0
 11
766.4759310264412
 21
496.4044109531551
 31
0.0
  0
ARC
  5
3B4D
330
2
100
AcDbEntity
  8
0
100
AcDbCircle
 10
729.7647076914322
 20
501.9744109531557
 30
0.0
 40
5.0
100
AcDbArc
 50
270.0
 51
358.4999999999843
  0
ARC
  5
3B4E
330
2
100
AcDbEntity
  8
0
100
AcDbCircle
 10
727.9242227682839
 20
494.9744109531552
 30
0.0
 40
2.0
100
AcDbArc
 50
90.0
 51
178.5000000000103
  0
LINE
  5
3B4F
330
2
100
AcDbEntity
  8
0
100
AcDbLine
 10
727.9242227682839
 20
496.9744109531553
 30
0.0
 11
729.7647076914322
 21
496.9744109531553
 31
0.0
  0
LINE
  5
3B50
330
2
100
AcDbEntity
  8
0
100
AcDbLine
 10
765.4759310264412
 20
496.4044109531551
 30
0.0
 11
766.4759310264412
 21
496.4044109531551
 31
0.0
  0
LINE
  5
3B51
330
2
100
AcDbEntity
  8
0
100
AcDbLine
 10
799.4759310264412
 20
500.9744109531547
 30
0.0
 11
772.4759310264412
 21
501.1314923580507
 31
0.0
  0
LINE
  5
3B52
330
2
100
AcDbEntity
  8
0
100
AcDbLine
 10
772.0759310264416
 20
496.4044109531551
 30
0.0
 11
772.4759310264412
 21
497.0972312761828
 31
0.0
  0
LINE
  5
3B53
330
2
100
AcDbEntity
  8
0
100
AcDbLine
 10
805.4759310264412
 20
498.9744109531548
 30
0.0
 11
801.475931026443
 21
499.0442312128675
 31
0.0
  0
LINE
  5
3B54
330
2
100
AcDbEntity
  8
0
100
AcDbLine
 10
801.475931026443
 20
499.0442312128675
 30
0.0
 11
799.4759310264412
 21
500.9744109531547
 31
0.0
  0
LINE
  5
3B55
330
2
100
AcDbEntity
  8
0
100
AcDbLine
 10
766.4759310264412
 20
506.404410953155
 30
0.0
 11
772.0759310264416
 21
506.404410953155
 31
0.0
  0
LINE
  5
3B56
330
2
100
AcDbEntity
  8
0
100
AcDbLine
 10
750.4759310264412
 20
509.9744109531575
 30
0.0
 11
736.9759310264412
 21
509.9744109531577
 31
0.0
  0
ARC
  5
3B57
330
2
100
AcDbEntity
  8
0
100
AcDbCircle
 10
736.9759310264412
 20
507.9744109531577
 30
0.0
 40
2.0
100
AcDbArc
 50
90.0
 51
180.0
  0
LINE
  5
3B58
330
2
100
AcDbEntity
  8
0
100
AcDbLine
 10
750.4759310264412
 20
509.9744109531548
 30
0.0
 11
764.4846575619408
 21
509.8521586487627
 31
0.0
  0
LINE
  5
3B59
330
2
100
AcDbEntity
  8
0
100
AcDbLine
 10
766.4759310264412
 20
506.404410953155
 30
0.0
 11
765.4759310264412
 21
506.404410953155
 31
0.0
  0
ARC
  5
3B5A
330
2
100
AcDbEntity
  8
0
100
AcDbCircle
 10
764.475931026443
 20
508.8521967256983
 30
0.0
 40
1.0
100
AcDbArc
 50
0.0
 51
89.5000000000345
  0
LINE
  5
3B5B
330
2
100
AcDbEntity
  8
0
100
AcDbLine
 10
772.0759310264416
 20
506.4044109531555
 30
0.0
 11
772.4759310264412
 21
505.7115906301278
 31
0.0
  0
LINE
  5
3E43
330
2
100
AcDbEntity
  8
0
100
AcDbLine
 10
347.337731189506
 20
157.1866572755888
 30
0.0
 11
341.8202781185105
 21
157.1866572755888
 31
0.0
  0
LINE
  5
3E44
330
2
100
AcDbEntity
  8
0
100
AcDbLine
 10
347.337731189506
 20
116.1064589212054
 30
0.0
 11
341.8202781185105
 21
116.1064589212054
 31
0.0
  0
LINE
  5
3E45
330
2
100
AcDbEntity
  8
0
100
AcDbLine
 10
347.337731189506
 20
96.64655809837988
 30
0.0
 11
341.8202781185105
 21
96.64655809837988
 31
0.0
  0
LINE
  5
3E46
330
2
100
AcDbEntity
  8
0
100
AcDbLine
 10
347.3377311895051
 20
176.6465580984144
 30
0.0
 11
341.8202781185105
 21
176.6465580984144
 31
0.0
  0
LINE
  5
3E47
330
2
100
AcDbEntity
  8
0
100
AcDbLine
 10
347.3377311895042
 20
179.6465580984119
 30
0.0
 11
341.8202781185105
 21
179.6465580984119
 31
0.0
  0
LINE
  5
3E48
330
2
100
AcDbEntity
  8
0
100
AcDbLine
 10
347.337731189506
 20
93.64655809838238
 30
0.0
 11
341.8202781185105
 21
93.64655809838238
 31
0.0
  0
CIRCLE
  5
3E6D
330
2
100
AcDbEntity
  8
0
100
AcDbCircle
 10
654.4759090264383
 20
136.6465580984065
 30
0.0
 40
26.57735026918937
  0
ENDSEC
  0
SECTION
  2
OBJECTS
  0
DICTIONARY
  5
7
330
0
100
AcDbDictionary
  3
ACAD_COLOR
350
1CFA
  3
ACAD_GROUP
350
75
  3
ACAD_LAYOUT
350
61
  3
ACAD_MATERIAL
350
1CD0
  3
ACAD_MLEADERSTYLE
350
1D1F
  3
ACAD_MLINESTYLE
350
76
  3
ACAD_PLOTSETTINGS
350
77
  3
ACAD_PLOTSTYLENAME
350
6
  3
ACAD_SCALELIST
350
1CFD
  3
ACAD_TABLESTYLE
350
1CFB
  3
ACAD_VISUALSTYLE
350
1CE9
  3
ACADDIM
350
480
  3
ACDB_RECOMPOSE_DATA
350
1D3F
  3
ACDBHEADERROUNDTRIPXREC
350
3EB6
  3
ACDBVARIABLEDICTIONARY
350
102
  3
DWGPROPS
350
3E83
  0
DICTIONARY
  5
1D47
330
6E
100
AcDbDictionary
280
     1
  3
ACAD_XREC_ROUNDTRIP
360
3E8A
  0
DICTIONARY
  5
ADC
330
66
100
AcDbDictionary
280
     1
  3
ACAD_LAYERSTATES
360
ADD
  0
DICTIONARY
  5
1D2D
330
5E
100
AcDbDictionary
280
     1
  3
ACAD_XREC_ROUNDTRIP
360
3E86
  3
ADSK_XREC_LAYER_RECONCILED
360
1D2E
  0
DICTIONARY
  5
1D2F
330
3E
100
AcDbDictionary
280
     1
  3
ACAD_XREC_ROUNDTRIP
360
3E85
  3
ADSK_XREC_LAYER_RECONCILED
360
1D30
  0
DICTIONARY
  5
1D35
330
2B5
100
AcDbDictionary
280
     1
  3
ACAD_XREC_ROUNDTRIP
360
3E90
  3
ADSK_XREC_LAYER_RECONCILED
360
1D36
  0
DICTIONARY
  5
1D37
330
2BA
100
AcDbDictionary
280
     1
  3
ACAD_XREC_ROUNDTRIP
360
3E91
  3
ADSK_XREC_LAYER_RECONCILED
360
1D38
  0
DICTIONARY
  5
1D3B
330
3FA
100
AcDbDictionary
280
     1
  3
ACAD_XREC_ROUNDTRIP
360
3E93
  3
ADSK_XREC_LAYER_RECONCILED
360
1D3C
  0
DICTIONARY
  5
3ED7
330
2
100
AcDbDictionary
280
     1
  3
ACAD_LAYOUTSELFREF
360
3ED8
  0
DICTIONARY
  5
3ED9
330
3EB0
100
AcDbDictionary
280
     1
  3
ACAD_LAYOUTSELFREF
360
3EDA
  0
DICTIONARY
  5
1CFA
102
{ACAD_REACTORS
330
7
102
}
330
7
100
AcDbDictionary
  0
DICTIONARY
  5
75
102
{ACAD_REACTORS
330
7
102
}
330
7
100
AcDbDictionary
  0
DICTIONARY
  5
61
102
{ACAD_REACTORS
330
7
102
}
330
7
100
AcDbDictionary
  0
DICTIONARY
  5
1CD0
102
{ACAD_REACTORS
330
7
102
}
330
7
100
AcDbDictionary
  3
BYBLOCK
350
1CD9
  3
BYLAYER
350
1CD1
  3
GLOBAL
350
1CE1
  0
DICTIONARY
  5
1D1F
102
{ACAD_REACTORS
330
7
102
}
330
7
100
AcDbDictionary
  3
STANDARD
350
1D20
  0
DICTIONARY
  5
76
102
{ACAD_REACTORS
330
7
102
}
330
7
100
AcDbDictionary
  3
STANDARD
350
78
  0
DICTIONARY
  5
77
102
{ACAD_REACTORS
330
7
102
}
330
7
100
AcDbDictionary
  0
ACDBDICTIONARYWDFLT
  5
6
102
{ACAD_REACTORS
330
7
102
}
330
7
100
AcDbDictionary
281
     1
  3
Normal
350
5
100
AcDbDictionaryWithDefault
340
5
  0
DICTIONARY
  5
1CFD
102
{ACAD_REACTORS
330
7
102
}
330
7
100
AcDbDictionary
  3
A0
350
1CFE
  3
A1
350
1CFF
  3
A2
350
1D00
  3
A3
350
1D01
  3
A4
350
1D02
  3
A5
350
1D03
  3
A6
350
1D04
  3
A7
350
1D05
  3
A8
350
1D06
  3
A9
350
1D07
  3
B0
350
1D08
  3
B1
350
1D09
  3
B2
350
1D0A
  3
B3
350
1D0B
  3
B4
350
1D0C
  3
B5
350
1D0D
  3
B6
350
1D0E
  3
B7
350
1D0F
  3
B8
350
1D10
  3
B9
350
1D11
  3
C0
350
1D12
  3
C1
350
1D13
  3
C2
350
1D14
  3
C3
350
1D15
  3
C4
350
1D16
  3
C5
350
1D17
  3
C6
350
1D18
  3
C7
350
1D19
  3
C8
350
1D1A
  3
C9
350
1D1B
  3
D0
350
1D1C
  3
D1
350
1D1D
  3
D2
350
1D1E
  0
DICTIONARY
  5
1CFB
102
{ACAD_REACTORS
330
7
102
}
330
7
100
AcDbDictionary
  3
STANDARD
350
1CFC
  0
DICTIONARY
  5
1CE9
102
{ACAD_REACTORS
330
7
102
}
330
7
100
AcDbDictionary
  3
2DWIREFRAME
350
1CEF
  3
3D_HIDDEN
350
1CF1
  3
3DWIREFRAME
350
1CF0
  3
BASIC
350
1CEE
  3
BRIGHTEN
350
1CF5
  3
COLORCHANGE
350
1CF9
  3
CONCEPTUAL
350
1CF2
  3
DIM
350
1CF4
  3
FACEPATTERN
350
1CF8
  3
FLAT
350
1CEA
  3
FLATWITHEDGES
350
1CEB
  3
GOURAUD
350
1CEC
  3
GOURAUDWITHEDGES
350
1CED
  3
LINEPATTERN
350
1CF7
  3
REALISTIC
350
1CF3
  3
THICKEN
350
1CF6
  0
XRECORD
  5
480
102
{ACAD_REACTORS
330
7
102
}
330
7
100
AcDbXrecord
 90
   990106
  3

 60
     0
 61
     0
 62
     1
 63
     3
 64
     1
 65
     0
 66
     0
 67
     3
 68
     1
 69
     0
 70
     0
 71
     0
 72
     0
 40
0.0
170
     2
340
0
  0
XRECORD
  5
1D3F
102
{ACAD_REACTORS
330
7
102
}
330
7
100
AcDbXrecord
 90
        1
330
1CFC
  0
DICTIONARY
  5
3EB6
102
{ACAD_REACTORS
330
7
102
}
330
7
100
AcDbDictionary
  3
CEPSNTYPE
350
3EC0
  3
DIMSTYLEDATA
350
3EC4
  3
FINGERPRINTGUID
350
3EC1
  3
HYPERLINKBASE
350
3EB9
  3
INSUNITS
350
3EBF
  3
LAYOUTDICT
350
3EBB
  3
LWETCUNION
350
3EBE
  3
PLOTSETDICT
350
3EBC
  3
PLOTSTYLNAMDICT
350
3EBD
  3
PSVPSCALE
350
3EC3
  3
PUCSBASE
350
3EC7
  3
PUCSORGBACK
350
3ECD
  3
PUCSORGBOTTOM
350
3EC9
  3
PUCSORGFRONT
350
3ECC
  3
PUCSORGLEFT
350
3ECA
  3
PUCSORGRIGHT
350
3ECB
  3
PUCSORGTOP
350
3EC8
  3
PUCSORTHOREF
350
3EC5
  3
PUCSORTHOVIEW
350
3EC6
  3
STYLESHEET
350
3EBA
  3
TSTACKALIGN
350
3EB7
  3
TSTACKSIZE
350
3EB8
  3
UCSBASE
350
3ED0
  3
UCSORGBACK
350
3ED6
  3
UCSORGBOTTOM
350
3ED2
  3
UCSORGFRONT
350
3ED5
  3
UCSORGLEFT
350
3ED3
  3
UCSORGRIGHT
350
3ED4
  3
UCSORGTOP
350
3ED1
  3
UCSORTHOREF
350
3ECE
  3
UCSORTHOVIEW
350
3ECF
  3
VERSIONGUID
350
3EC2
  0
DICTIONARY
  5
102
102
{ACAD_REACTORS
330
7
102
}
330
7
100
AcDbDictionary
  3
CANNOSCALE
350
1D5F
  3
CMLEADERSTYLE
350
1D5E
  3
CTABLESTYLE
350
1D5D
  3
DIMASSOC
350
103
  3
INDEXCTL
350
1D60
  3
SORTENTS
350
549
  0
XRECORD
  5
3E83
102
{ACAD_REACTORS
330
7
102
}
330
7
100
AcDbXrecord
  1
DWGPROPS COOKIE
  2

  3

  4

  6

  7

  8
ymorima
  9

300
=
301
=
302
=
303
=
304
=
305
=
306
=
307
=
308
=
309
=
 40
0.0286798495370371
 41
2454411.413675127
 42
2454425.727452974
  1

 90
        0
  0
XRECORD
  5
3E8A
102
{ACAD_REACTORS
330
1D47
102
}
330
1D47
100
AcDbXrecord
102
VTR_0.000_0.000_1.000_1.000_VISUALSTYLE
340
1CEF
102
VTR_0.000_0.000_1.000_1.000_GRIDDISPLAY
 70
     3
102
VTR_0.000_0.000_1.000_1.000_GRIDMAJOR
 70
     5
102
VTR_0.000_0.000_1.000_1.000_DEFAULTLIGHTING
280
     1
102
VTR_0.000_0.000_1.000_1.000_DEFAULTLIGHTINGTYPE
 70
     1
102
VTR_0.000_0.000_1.000_1.000_BRIGHTNESS
141
0.0
102
VTR_0.000_0.000_1.000_1.000_CONTRAST
142
0.0
  0
DICTIONARY
  5
ADD
102
{ACAD_REACTORS
330
ADC
102
}
330
ADC
100
AcDbDictionary
  0
XRECORD
  5
3E86
102
{ACAD_REACTORS
330
1D2D
102
}
330
1D2D
100
AcDbXrecord
102
MATERIAL
340
1CE1
  0
XRECORD
  5
1D2E
102
{ACAD_REACTORS
330
1D2D
102
}
330
1D2D
100
AcDbXrecord
290
     1
  0
XRECORD
  5
3E85
102
{ACAD_REACTORS
330
1D2F
102
}
330
1D2F
100
AcDbXrecord
102
MATERIAL
340
1CE1
  0
XRECORD
  5
1D30
102
{ACAD_REACTORS
330
1D2F
102
}
330
1D2F
100
AcDbXrecord
290
     1
  0
XRECORD
  5
3E90
102
{ACAD_REACTORS
330
1D35
102
}
330
1D35
100
AcDbXrecord
102
MATERIAL
340
1CE1
  0
XRECORD
  5
1D36
102
{ACAD_REACTORS
330
1D35
102
}
330
1D35
100
AcDbXrecord
290
     1
  0
XRECORD
  5
3E91
102
{ACAD_REACTORS
330
1D37
102
}
330
1D37
100
AcDbXrecord
102
MATERIAL
340
1CE1
  0
XRECORD
  5
1D38
102
{ACAD_REACTORS
330
1D37
102
}
330
1D37
100
AcDbXrecord
290
     1
  0
XRECORD
  5
3E93
102
{ACAD_REACTORS
330
1D3B
102
}
330
1D3B
100
AcDbXrecord
102
MATERIAL
340
1CE1
  0
XRECORD
  5
1D3C
102
{ACAD_REACTORS
330
1D3B
102
}
330
1D3B
100
AcDbXrecord
290
     1
  0
XRECORD
  5
3ED8
102
{ACAD_REACTORS
330
3ED7
102
}
330
3ED7
100
AcDbXrecord
340
2
  0
XRECORD
  5
3EDA
102
{ACAD_REACTORS
330
3ED9
102
}
330
3ED9
100
AcDbXrecord
340
3EB0
  0
ACAD_PROXY_OBJECT
  5
1CD9
102
{ACAD_XDICTIONARY
360
1CDA
102
}
102
{ACAD_REACTORS
330
1CD0
102
}
330
1CD0
100
AcDbProxyObject
 90
      499
 91
      511
 93
     1340
310
42109E509B1BD8DAC02004014080404555555555555953FAA155555555555654FEA9AA400014080404555555555555953FAA155555555555654FEA9AA400000000000000E03F4080404555555555555953FAA155555555555654FEA9AA4014080404555555555555953FAA155555555555654FEA9AA4010201011555555555
310
55654FEA8555555555555953FAA6A9005020101155555555555654FEA8555555555555953FAA6A9000
 94
        0
1001
ACAD
1000
AcadProxyRoundTripData
1071
      504
1071
   655383
1070
     0
  0
ACAD_PROXY_OBJECT
  5
1CD1
102
{ACAD_XDICTIONARY
360
1CD2
102
}
102
{ACAD_REACTORS
330
1CD0
102
}
330
1CD0
100
AcDbProxyObject
 90
      499
 91
      511
 93
     1340
310
42109E53185E595C802004014080404555555555555953FAA155555555555654FEA9AA400014080404555555555555953FAA155555555555654FEA9AA400000000000000E03F4080404555555555555953FAA155555555555654FEA9AA4014080404555555555555953FAA155555555555654FEA9AA4010201011555555555
310
55654FEA8555555555555953FAA6A9005020101155555555555654FEA8555555555555953FAA6A9000
 94
        0
1001
ACAD
1000
AcadProxyRoundTripData
1071
      504
1071
   655383
1070
     0
  0
ACAD_PROXY_OBJECT
  5
1CE1
102
{ACAD_XDICTIONARY
360
1CE2
102
}
102
{ACAD_REACTORS
330
1CD0
102
}
330
1CD0
100
AcDbProxyObject
 90
      499
 91
      511
 93
     1332
310
41D1DB1BD8985B002004014080404555555555555953FAA155555555555654FEA9AA400014080404555555555555953FAA155555555555654FEA9AA400000000000000E03F4080404555555555555953FAA155555555555654FEA9AA4014080404555555555555953FAA155555555555654FEA9AA401020101155555555555
310
654FEA8555555555555953FAA6A9005020101155555555555654FEA8555555555555953FAA6A9000
 94
        0
1001
ACAD
1000
AcadProxyRoundTripData
1071
      504
1071
   655383
1070
     0
  0
ACAD_PROXY_OBJECT
  5
1D20
102
{ACAD_REACTORS
330
1D1F
102
}
330
1D1F
100
AcDbProxyObject
 90
      499
 91
      511
 93
      618
310
40901902A4063FBFFFFFE056BD1B81E855B9FC0AD7A3703D0AD73F4254DD185B99185C990000AD7A3703D0AC73F90141901A02B5E8DC0F42B1CFC02B5E8DC0F42B1CFE5764000000000000300FC6
340
6A
340
0
340
16
340
0
 94
        0
1001
ACAD_MLEADERVER
1070
     2
1001
ACAD
1000
AcadProxyRoundTripData
1071
      508
1071
   655383
1070
     0
  0
MLINESTYLE
  5
78
102
{ACAD_REACTORS
330
76
102
}
330
76
100
AcDbMlineStyle
  2
STANDARD
 70
     0
  3

 62
     0
 51
90.0
 52
90.0
 71
     2
 49
0.5
 62
   256
  6
BYLAYER
 49
-0.5
 62
   256
  6
BYLAYER
  0
ACDBPLACEHOLDER
  5
5
102
{ACAD_REACTORS
330
6
102
}
330
6
100
AcDbPlaceHolder
280
     0
  0
ACAD_PROXY_OBJECT
  5
1CFE
102
{ACAD_REACTORS
330
1CFD
102
}
330
1CFD
100
AcDbProxyObject
 90
      499
 91
      511
 93
       49
310
904313A3100598
 94
        0
1001
ACAD
1000
AcadProxyRoundTripData
1071
      507
1071
   655383
1070
     0
  0
ACAD_PROXY_OBJECT
  5
1CFF
102
{ACAD_REACTORS
330
1CFD
102
}
330
1CFD
100
AcDbProxyObject
 90
      499
 91
      511
 93
      113
310
904313A3200400000000000000406B
 94
        0
1001
ACAD
1000
AcadProxyRoundTripData
1071
      507
1071
   655383
1070
     0
  0
ACAD_PROXY_OBJECT
  5
1D00
102
{ACAD_REACTORS
330
1CFD
102
}
330
1CFD
100
AcDbProxyObject
 90
      499
 91
      511
 93
      113
310
904313A3400400000000000010406B
 94
        0
1001
ACAD
1000
AcadProxyRoundTripData
1071
      507
1071
   655383
1070
     0
  0
ACAD_PROXY_OBJECT
  5
1D01
102
{ACAD_REACTORS
330
1CFD
102
}
330
1CFD
100
AcDbProxyObject
 90
      499
 91
      511
 93
      113
310
904313A3500400000000000014406B
 94
        0
1001
ACAD
1000
AcadProxyRoundTripData
1071
      507
1071
   655383
1070
     0
  0
ACAD_PROXY_OBJECT
  5
1D02
102
{ACAD_REACTORS
330
1CFD
102
}
330
1CFD
100
AcDbProxyObject
 90
      499
 91
      511
 93
      113
310
904313A3800400000000000020406B
 94
        0
1001
ACAD
1000
AcadProxyRoundTripData
1071
      507
1071
   655383
1070
     0
  0
ACAD_PROXY_OBJECT
  5
1D03
102
{ACAD_REACTORS
330
1CFD
102
}
330
1CFD
100
AcDbProxyObject
 90
      499
 91
      511
 93
      121
310
905313A3130004000000000000244051
 94
        0
1001
ACAD
1000
AcadProxyRoundTripData
1071
      507
1071
   655383
1070
     0
  0
ACAD_PROXY_OBJECT
  5
1D04
102
{ACAD_REACTORS
330
1CFD
102
}
330
1CFD
100
AcDbProxyObject
 90
      499
 91
      511
 93
      121
310
905313A3136004000000000000304051
 94
        0
1001
ACAD
1000
AcadProxyRoundTripData
1071
      507
1071
   655383
1070
     0
  0
ACAD_PROXY_OBJECT
  5
1D05
102
{ACAD_REACTORS
330
1CFD
102
}
330
1CFD
100
AcDbProxyObject
 90
      499
 91
      511
 93
      121
310
905313A3230004000000000000344051
 94
        0
1001
ACAD
1000
AcadProxyRoundTripData
1071
      507
1071
   655383
1070
     0
  0
ACAD_PROXY_OBJECT
  5
1D06
102
{ACAD_REACTORS
330
1CFD
102
}
330
1CFD
100
AcDbProxyObject
 90
      499
 91
      511
 93
      121
310
905313A33300040000000000003E4051
 94
        0
1001
ACAD
1000
AcadProxyRoundTripData
1071
      507
1071
   655383
1070
     0
  0
ACAD_PROXY_OBJECT
  5
1D07
102
{ACAD_REACTORS
330
1CFD
102
}
330
1CFD
100
AcDbProxyObject
 90
      499
 91
      511
 93
      121
310
905313A3430004000000000000444051
 94
        0
1001
ACAD
1000
AcadProxyRoundTripData
1071
      507
1071
   655383
1070
     0
  0
ACAD_PROXY_OBJECT
  5
1D08
102
{ACAD_REACTORS
330
1CFD
102
}
330
1CFD
100
AcDbProxyObject
 90
      499
 91
      511
 93
      121
310
905313A3530004000000000000494051
 94
        0
1001
ACAD
1000
AcadProxyRoundTripData
1071
      507
1071
   655383
1070
     0
  0
ACAD_PROXY_OBJECT
  5
1D09
102
{ACAD_REACTORS
330
1CFD
102
}
330
1CFD
100
AcDbProxyObject
 90
      499
 91
      511
 93
      129
310
906313A313030004000000000000594038
 94
        0
1001
ACAD
1000
AcadProxyRoundTripData
1071
      507
1071
   655383
1070
     0
  0
ACAD_PROXY_OBJECT
  5
1D0A
102
{ACAD_REACTORS
330
1CFD
102
}
330
1CFD
100
AcDbProxyObject
 90
      499
 91
      511
 93
      113
310
904323A31000000000000000010159
 94
        0
1001
ACAD
1000
AcadProxyRoundTripData
1071
      507
1071
   655383
1070
     0
  0
ACAD_PROXY_OBJECT
  5
1D0B
102
{ACAD_REACTORS
330
1CFD
102
}
330
1CFD
100
AcDbProxyObject
 90
      499
 91
      511
 93
      113
310
904343A31000000000000000410159
 94
        0
1001
ACAD
1000
AcadProxyRoundTripData
1071
      507
1071
   655383
1070
     0
  0
ACAD_PROXY_OBJECT
  5
1D0C
102
{ACAD_REACTORS
330
1CFD
102
}
330
1CFD
100
AcDbProxyObject
 90
      499
 91
      511
 93
      113
310
904383A31000000000000000810159
 94
        0
1001
ACAD
1000
AcadProxyRoundTripData
1071
      507
1071
   655383
1070
     0
  0
ACAD_PROXY_OBJECT
  5
1D0D
102
{ACAD_REACTORS
330
1CFD
102
}
330
1CFD
100
AcDbProxyObject
 90
      499
 91
      511
 93
      121
310
90531303A31000000000000000910140
 94
        0
1001
ACAD
1000
AcadProxyRoundTripData
1071
      507
1071
   655383
1070
     0
  0
ACAD_PROXY_OBJECT
  5
1D0E
102
{ACAD_REACTORS
330
1CFD
102
}
330
1CFD
100
AcDbProxyObject
 90
      499
 91
      511
 93
      129
310
9063130303A31000000000000001650138
 94
        0
1001
ACAD
1000
AcadProxyRoundTripData
1071
      507
1071
   655383
1070
     0
  0
ACAD_PROXY_OBJECT
  5
1D0F
102
{ACAD_REACTORS
330
1CFD
102
}
330
1CFD
100
AcDbProxyObject
 90
      499
 91
      511
 93
      265
310
90F312F31323822203D2031272D302200000000000000200FC00000000000028402B
 94
        0
1001
ACAD
1000
AcadProxyRoundTripData
1071
      507
1071
   655383
1070
     0
  0
ACAD_PROXY_OBJECT
  5
1D10
102
{ACAD_REACTORS
330
1CFD
102
}
330
1CFD
100
AcDbProxyObject
 90
      499
 91
      511
 93
      257
310
90E312F363422203D2031272D302200000000000000240FC000000000000284040
 94
        0
1001
ACAD
1000
AcadProxyRoundTripData
1071
      507
1071
   655383
1070
     0
  0
ACAD_PROXY_OBJECT
  5
1D11
102
{ACAD_REACTORS
330
1CFD
102
}
330
1CFD
100
AcDbProxyObject
 90
      499
 91
      511
 93
      257
310
90E312F333222203D2031272D302200000000000000280FC000000000000284040
 94
        0
1001
ACAD
1000
AcadProxyRoundTripData
1071
      507
1071
   655383
1070
     0
  0
ACAD_PROXY_OBJECT
  5
1D12
102
{ACAD_REACTORS
330
1CFD
102
}
330
1CFD
100
AcDbProxyObject
 90
      499
 91
      511
 93
      257
310
90E312F313622203D2031272D3022000000000000002C0FC000000000000284040
 94
        0
1001
ACAD
1000
AcadProxyRoundTripData
1071
      507
1071
   655383
1070
     0
  0
ACAD_PROXY_OBJECT
  5
1D13
102
{ACAD_REACTORS
330
1CFD
102
}
330
1CFD
100
AcDbProxyObject
 90
      499
 91
      511
 93
      257
310
90E332F333222203D2031272D3022000000000000002E0FC000000000000284040
 94
        0
1001
ACAD
1000
AcadProxyRoundTripData
1071
      507
1071
   655383
1070
     0
  0
ACAD_PROXY_OBJECT
  5
1D14
102
{ACAD_REACTORS
330
1CFD
102
}
330
1CFD
100
AcDbProxyObject
 90
      499
 91
      511
 93
      249
310
90D312F3822203D2031272D302200000000000000300FC000000000000284040
 94
        0
1001
ACAD
1000
AcadProxyRoundTripData
1071
      507
1071
   655383
1070
     0
  0
ACAD_PROXY_OBJECT
  5
1D15
102
{ACAD_REACTORS
330
1CFD
102
}
330
1CFD
100
AcDbProxyObject
 90
      499
 91
      511
 93
      257
310
90E332F313622203D2031272D302200000000000000320FC000000000000284040
 94
        0
1001
ACAD
1000
AcadProxyRoundTripData
1071
      507
1071
   655383
1070
     0
  0
ACAD_PROXY_OBJECT
  5
1D16
102
{ACAD_REACTORS
330
1CFD
102
}
330
1CFD
100
AcDbProxyObject
 90
      499
 91
      511
 93
      249
310
90D312F3422203D2031272D302200000000000000340FC000000000000284040
 94
        0
1001
ACAD
1000
AcadProxyRoundTripData
1071
      507
1071
   655383
1070
     0
  0
ACAD_PROXY_OBJECT
  5
1D17
102
{ACAD_REACTORS
330
1CFD
102
}
330
1CFD
100
AcDbProxyObject
 90
      499
 91
      511
 93
      249
310
90D332F3822203D2031272D302200000000000000360FC000000000000284040
 94
        0
1001
ACAD
1000
AcadProxyRoundTripData
1071
      507
1071
   655383
1070
     0
  0
ACAD_PROXY_OBJECT
  5
1D18
102
{ACAD_REACTORS
330
1CFD
102
}
330
1CFD
100
AcDbProxyObject
 90
      499
 91
      511
 93
      249
310
90D312F3222203D2031272D302200000000000000380FC000000000000284040
 94
        0
1001
ACAD
1000
AcadProxyRoundTripData
1071
      507
1071
   655383
1070
     0
  0
ACAD_PROXY_OBJECT
  5
1D19
102
{ACAD_REACTORS
330
1CFD
102
}
330
1CFD
100
AcDbProxyObject
 90
      499
 91
      511
 93
      249
310
90D332F3422203D2031272D3022000000000000003A0FC000000000000284040
 94
        0
1001
ACAD
1000
AcadProxyRoundTripData
1071
      507
1071
   655383
1070
     0
  0
ACAD_PROXY_OBJECT
  5
1D1A
102
{ACAD_REACTORS
330
1CFD
102
}
330
1CFD
100
AcDbProxyObject
 90
      499
 91
      511
 93
      169
310
90B3122203D2031272D3022004000000000000284020
 94
        0
1001
ACAD
1000
AcadProxyRoundTripData
1071
      507
1071
   655383
1070
     0
  0
ACAD_PROXY_OBJECT
  5
1D1B
102
{ACAD_REACTORS
330
1CFD
102
}
330
1CFD
100
AcDbProxyObject
 90
      499
 91
      511
 93
      265
310
90F312D312F3222203D2031272D3022000000000000003E0FC00000000000028402B
 94
        0
1001
ACAD
1000
AcadProxyRoundTripData
1071
      507
1071
   655383
1070
     0
  0
ACAD_PROXY_OBJECT
  5
1D1C
102
{ACAD_REACTORS
330
1CFD
102
}
330
1CFD
100
AcDbProxyObject
 90
      499
 91
      511
 93
      233
310
90B3322203D2031272D30220000000000000002100000000000000284000
 94
        0
1001
ACAD
1000
AcadProxyRoundTripData
1071
      507
1071
   655383
1070
     0
  0
ACAD_PROXY_OBJECT
  5
1D1D
102
{ACAD_REACTORS
330
1CFD
102
}
330
1CFD
100
AcDbProxyObject
 90
      499
 91
      511
 93
      233
310
90B3622203D2031272D30220000000000000006100000000000000284000
 94
        0
1001
ACAD
1000
AcadProxyRoundTripData
1071
      507
1071
   655383
1070
     0
  0
ACAD_PROXY_OBJECT
  5
1D1E
102
{ACAD_REACTORS
330
1CFD
102
}
330
1CFD
100
AcDbProxyObject
 90
      499
 91
      511
 93
      257
310
90E31272D3022203D2031272D3022000000000000000A100000000000000284040
 94
        0
1001
ACAD
1000
AcadProxyRoundTripData
1071
      507
1071
   655383
1070
     0
  0
ACAD_PROXY_OBJECT
  5
1CFC
102
{ACAD_XDICTIONARY
360
1D3D
102
}
102
{ACAD_REACTORS
330
1CFB
102
}
330
1CFB
100
AcDbProxyObject
 90
      499
 91
      511
 93
     1849
310
4254DD185B99185C990028B81E85EB51B8AE3F2E07A17AD46E2B8FC02B5E8DC0F42B1CFD028000000C1008070000C3001FDFF8000000C1003FBFF000000182007F7FE00000030400FEFFC00000060801FDFF8000000C1003FBFF00000018200000000000000681FA0B0000001820100E000186003FBFF000000182007F7FE0
310
0000030400FEFFC00000060801FDFF8000000C1003FBFF000000182007F7FE000000304000AD7A3703D0AC73F4160000003040201C00030C007F7FE00000030400FEFFC00000060801FDFF8000000C1003FBFF000000182007F7FE00000030400FEFFC000000608000
340
16
340
16
340
16
 94
        0
1001
ACAD
1000
AcadProxyRoundTripData
1071
      506
1071
   655383
1070
     0
  0
ACAD_PROXY_OBJECT
  5
1CEF
102
{ACAD_REACTORS
330
1CE9
102
}
330
1CE9
100
AcDbProxyObject
 90
      499
 91
      511
 93
      444
310
430C9915DA5C99599C985B59401049028333333333333E3BF0000000000000FB0107901411070040501600405405064090741402480A0340
 94
        0
1001
ACAD
1000
AcDbSavedByObjectVersion
1070
     0
1000
AcadProxyRoundTripData
1071
      505
1071
   655383
1070
     0
  0
ACAD_PROXY_OBJECT
  5
1CF1
102
{ACAD_REACTORS
330
1CE9
102
}
330
1CE9
100
AcDbProxyObject
 90
      499
 91
      511
 93
      508
310
428CD108121A5919195B8010640502408333333333333E3BF0000000000000FB01079024090700405020000000000001110200405405064090740C02480A0340
 94
        0
1001
ACAD
1000
AcDbSavedByObjectVersion
1070
     0
1000
AcadProxyRoundTripData
1071
      505
1071
   655383
1070
     0
  0
ACAD_PROXY_OBJECT
  5
1CF0
102
{ACAD_REACTORS
330
1CE9
102
}
330
1CE9
100
AcDbProxyObject
 90
      499
 91
      511
 93
      444
310
430CD915DA5C99599C985B59401059028333333333333E3BF0000000000000FB0107901411070040501600405405064090741402480A0340
 94
        0
1001
ACAD
1000
AcDbSavedByObjectVersion
1070
     0
1000
AcadProxyRoundTripData
1071
      505
1071
   655383
1070
     0
  0
ACAD_PROXY_OBJECT
  5
1CEE
102
{ACAD_REACTORS
330
1CE9
102
}
330
1CE9
100
AcDbProxyObject
 90
      499
 91
      511
 93
      396
310
4190985CDA58C0107406404333333333333E3BF0000000000000FB0107A41107004050150841D405064090741402480A0356
 94
        0
1001
ACAD
1000
AcDbSavedByObjectVersion
1070
     0
1000
AcadProxyRoundTripData
1071
      505
1071
   655383
1070
     0
  0
ACAD_PROXY_OBJECT
  5
1CF5
102
{ACAD_REACTORS
330
1CE9
102
}
330
1CE9
100
AcDbProxyObject
 90
      499
 91
      511
 93
      436
310
42509C9A59DA1D195B8010C409028333333333333E3BF0000000000000FB010790141107004050150841D405064090741402480A029956
 94
        0
1001
ACAD
1000
AcDbSavedByObjectVersion
1070
     0
1000
AcadProxyRoundTripData
1071
      505
1071
   655383
1070
     0
  0
ACAD_PROXY_OBJECT
  5
1CF9
102
{ACAD_REACTORS
330
1CE9
102
}
330
1CE9
100
AcDbProxyObject
 90
      499
 91
      511
 93
      460
310
4310DBDB1BDC90DA185B99D9401104090240C333333333333E3BF0000000000000FB0108901411070040501508421405064090741402480A0354
 94
        0
1001
ACAD
1000
AcDbSavedByObjectVersion
1070
     0
1000
AcadProxyRoundTripData
1071
      505
1071
   655383
1070
     0
  0
ACAD_PROXY_OBJECT
  5
1CF2
102
{ACAD_REACTORS
330
1CE9
102
}
330
1CE9
100
AcDbProxyObject
 90
      499
 91
      511
 93
      508
310
42D0DBDB98D95C1D1D585B0010940D028333333333333E3BF0000000000000FB0107902409070040501000000000000111010841D405064090740C02480A0340
 94
        0
1001
ACAD
1000
AcDbSavedByObjectVersion
1070
     0
1000
AcadProxyRoundTripData
1071
      505
1071
   655383
1070
     0
  0
ACAD_PROXY_OBJECT
  5
1CF4
102
{ACAD_REACTORS
330
1CE9
102
}
330
1CE9
100
AcDbProxyObject
 90
      499
 91
      511
 93
      420
310
41111A5B4010B409028333333333333E3BF0000000000000FB010790141107004050150841D405064090741402480A02677FFFFFDB
 94
        0
1001
ACAD
1000
AcDbSavedByObjectVersion
1070
     0
1000
AcadProxyRoundTripData
1071
      505
1071
   655383
1070
     0
  0
ACAD_PROXY_OBJECT
  5
1CF8
102
{ACAD_REACTORS
330
1CE9
102
}
330
1CE9
100
AcDbProxyObject
 90
      499
 91
      511
 93
      452
310
43119858D95C185D1D195C9B8010F409028333333333333E3BF0000000000000FB010790141107004050150841D405064090741402480A0350
 94
        0
1001
ACAD
1000
AcDbSavedByObjectVersion
1070
     0
1000
AcadProxyRoundTripData
1071
      505
1071
   655383
1070
     0
  0
ACAD_PROXY_OBJECT
  5
1CEA
102
{ACAD_REACTORS
330
1CE9
102
}
330
1CE9
100
AcDbProxyObject
 90
      499
 91
      511
 93
      396
310
41519B185D00240901404333333333333E3BF0000000000000F9010740A41107004050150841D405064090741402480A1B55
 94
        0
1001
ACAD
1000
AcDbSavedByObjectVersion
1070
     0
1000
AcadProxyRoundTripData
1071
      505
1071
   655383
1070
     0
  0
ACAD_PROXY_OBJECT
  5
1CEB
102
{ACAD_REACTORS
330
1CE9
102
}
330
1CE9
100
AcDbProxyObject
 90
      499
 91
      511
 93
      484
310
43919B185D15DA5D1A115919D95CC010140901404333333333333E3BF0000000000000F9010740901411070040501600405405064090741402480A1B50
 94
        0
1001
ACAD
1000
AcDbSavedByObjectVersion
1070
     0
1000
AcadProxyRoundTripData
1071
      505
1071
   655383
1070
     0
  0
ACAD_PROXY_OBJECT
  5
1CEC
102
{ACAD_REACTORS
330
1CE9
102
}
330
1CE9
100
AcDbProxyObject
 90
      499
 91
      511
 93
      420
310
4211DBDD5C985D590010240902404333333333333E3BF0000000000000F9010740A411070040501641D405064090741402480A1B50
 94
        0
1001
ACAD
1000
AcDbSavedByObjectVersion
1070
     0
1000
AcadProxyRoundTripData
1071
      505
1071
   655383
1070
     0
  0
ACAD_PROXY_OBJECT
  5
1CED
102
{ACAD_REACTORS
330
1CE9
102
}
330
1CE9
100
AcDbProxyObject
 90
      499
 91
      511
 93
      508
310
4451DBDD5C985D5915DA5D1A115919D95CC010340902404333333333333E3BF0000000000000F9010740901411070040501600405405064090741402480A1B50
 94
        0
1001
ACAD
1000
AcDbSavedByObjectVersion
1070
     0
1000
AcadProxyRoundTripData
1071
      505
1071
   655383
1070
     0
  0
ACAD_PROXY_OBJECT
  5
1CF7
102
{ACAD_REACTORS
330
1CE9
102
}
330
1CE9
100
AcDbProxyObject
 90
      499
 91
      511
 93
      452
310
43131A5B995C185D1D195C9B8010E409028333333333333E3BF0000000000000FB010790141107004050750841D405064090741402483A0350
 94
        0
1001
ACAD
1000
AcDbSavedByObjectVersion
1070
     0
1000
AcadProxyRoundTripData
1071
      505
1071
   655383
1070
     0
  0
ACAD_PROXY_OBJECT
  5
1CF3
102
{ACAD_REACTORS
330
1CE9
102
}
330
1CE9
100
AcDbProxyObject
 90
      499
 91
      511
 93
      428
310
429499585B1A5CDD1A58C0108409028333333333333E3BF0000000000000FB01079019070040501508421405064090741402480A1B45
 94
        0
1001
ACAD
1000
AcDbSavedByObjectVersion
1070
     0
1000
AcadProxyRoundTripData
1071
      505
1071
   655383
1070
     0
  0
ACAD_PROXY_OBJECT
  5
1CF6
102
{ACAD_REACTORS
330
1CE9
102
}
330
1CE9
100
AcDbProxyObject
 90
      499
 91
      511
 93
      420
310
42151A1A58DAD95B8010D409028333333333333E3BF0000000000000FB010790141107004050150C41D405064090741402480A0352
 94
        0
1001
ACAD
1000
AcDbSavedByObjectVersion
1070
     0
1000
AcadProxyRoundTripData
1071
      505
1071
   655383
1070
     0
  0
XRECORD
  5
3EC0
102
{ACAD_REACTORS
330
3EB6
102
}
330
3EB6
100
AcDbXrecord
 90
        0
  0
XRECORD
  5
3EC4
102
{ACAD_REACTORS
330
3EB6
102
}
330
3EB6
100
AcDbXrecord
1000
DSTYLE
1002
{
1070
   179
 70
     2
1070
   277
 70
     6
1002
}
  0
XRECORD
  5
3EC1
102
{ACAD_REACTORS
330
3EB6
102
}
330
3EB6
100
AcDbXrecord
  1
{6385560B-F4B1-4644-A7C2-A3E32AC3D232}
  0
XRECORD
  5
3EB9
102
{ACAD_REACTORS
330
3EB6
102
}
330
3EB6
100
AcDbXrecord
  1

  0
XRECORD
  5
3EBF
102
{ACAD_REACTORS
330
3EB6
102
}
330
3EB6
100
AcDbXrecord
 90
        0
  0
XRECORD
  5
3EBB
102
{ACAD_REACTORS
330
3EB6
102
}
330
3EB6
100
AcDbXrecord
340
61
  0
XRECORD
  5
3EBE
102
{ACAD_REACTORS
330
3EB6
102
}
330
3EB6
100
AcDbXrecord
 90
    10781
  0
XRECORD
  5
3EBC
102
{ACAD_REACTORS
330
3EB6
102
}
330
3EB6
100
AcDbXrecord
340
77
  0
XRECORD
  5
3EBD
102
{ACAD_REACTORS
330
3EB6
102
}
330
3EB6
100
AcDbXrecord
340
6
  0
XRECORD
  5
3EC3
102
{ACAD_REACTORS
330
3EB6
102
}
330
3EB6
100
AcDbXrecord
 40
0.0
  0
XRECORD
  5
3EC7
102
{ACAD_REACTORS
330
3EB6
102
}
330
3EB6
100
AcDbXrecord
340
0
  0
XRECORD
  5
3ECD
102
{ACAD_REACTORS
330
3EB6
102
}
330
3EB6
100
AcDbXrecord
 10
0.0
 20
0.0
 30
0.0
  0
XRECORD
  5
3EC9
102
{ACAD_REACTORS
330
3EB6
102
}
330
3EB6
100
AcDbXrecord
 10
0.0
 20
0.0
 30
0.0
  0
XRECORD
  5
3ECC
102
{ACAD_REACTORS
330
3EB6
102
}
330
3EB6
100
AcDbXrecord
 10
0.0
 20
0.0
 30
0.0
  0
XRECORD
  5
3ECA
102
{ACAD_REACTORS
330
3EB6
102
}
330
3EB6
100
AcDbXrecord
 10
0.0
 20
0.0
 30
0.0
  0
XRECORD
  5
3ECB
102
{ACAD_REACTORS
330
3EB6
102
}
330
3EB6
100
AcDbXrecord
 10
0.0
 20
0.0
 30
0.0
  0
XRECORD
  5
3EC8
102
{ACAD_REACTORS
330
3EB6
102
}
330
3EB6
100
AcDbXrecord
 10
0.0
 20
0.0
 30
0.0
  0
XRECORD
  5
3EC5
102
{ACAD_REACTORS
330
3EB6
102
}
330
3EB6
100
AcDbXrecord
340
0
  0
XRECORD
  5
3EC6
102
{ACAD_REACTORS
330
3EB6
102
}
330
3EB6
100
AcDbXrecord
 70
     0
  0
XRECORD
  5
3EBA
102
{ACAD_REACTORS
330
3EB6
102
}
330
3EB6
100
AcDbXrecord
  1
Sekkei.ctb
  0
XRECORD
  5
3EB7
102
{ACAD_REACTORS
330
3EB6
102
}
330
3EB6
100
AcDbXrecord
 90
        1
  0
XRECORD
  5
3EB8
102
{ACAD_REACTORS
330
3EB6
102
}
330
3EB6
100
AcDbXrecord
 90
       70
  0
XRECORD
  5
3ED0
102
{ACAD_REACTORS
330
3EB6
102
}
330
3EB6
100
AcDbXrecord
340
0
  0
XRECORD
  5
3ED6
102
{ACAD_REACTORS
330
3EB6
102
}
330
3EB6
100
AcDbXrecord
 10
0.0
 20
0.0
 30
0.0
  0
XRECORD
  5
3ED2
102
{ACAD_REACTORS
330
3EB6
102
}
330
3EB6
100
AcDbXrecord
 10
0.0
 20
0.0
 30
0.0
  0
XRECORD
  5
3ED5
102
{ACAD_REACTORS
330
3EB6
102
}
330
3EB6
100
AcDbXrecord
 10
0.0
 20
0.0
 30
0.0
  0
XRECORD
  5
3ED3
102
{ACAD_REACTORS
330
3EB6
102
}
330
3EB6
100
AcDbXrecord
 10
0.0
 20
0.0
 30
0.0
  0
XRECORD
  5
3ED4
102
{ACAD_REACTORS
330
3EB6
102
}
330
3EB6
100
AcDbXrecord
 10
0.0
 20
0.0
 30
0.0
  0
XRECORD
  5
3ED1
102
{ACAD_REACTORS
330
3EB6
102
}
330
3EB6
100
AcDbXrecord
 10
0.0
 20
0.0
 30
0.0
  0
XRECORD
  5
3ECE
102
{ACAD_REACTORS
330
3EB6
102
}
330
3EB6
100
AcDbXrecord
340
0
  0
XRECORD
  5
3ECF
102
{ACAD_REACTORS
330
3EB6
102
}
330
3EB6
100
AcDbXrecord
 70
     0
  0
XRECORD
  5
3EC2
102
{ACAD_REACTORS
330
3EB6
102
}
330
3EB6
100
AcDbXrecord
  1
{0AAED144-4E13-487D-A2E5-62BEE829D80B}
  0
DICTIONARYVAR
  5
1D5F
102
{ACAD_REACTORS
330
102
102
}
330
102
100
DictionaryVariables
280
     0
  1
1:1
  0
DICTIONARYVAR
  5
1D5E
102
{ACAD_REACTORS
330
102
102
}
330
102
100
DictionaryVariables
280
     0
  1
STANDARD
  0
DICTIONARYVAR
  5
1D5D
102
{ACAD_REACTORS
330
102
102
}
330
102
100
DictionaryVariables
280
     0
  1
STANDARD
  0
DICTIONARYVAR
  5
103
102
{ACAD_REACTORS
330
102
102
}
330
102
100
DictionaryVariables
280
     0
  1
1
  0
DICTIONARYVAR
  5
1D60
102
{ACAD_REACTORS
330
102
102
}
330
102
100
DictionaryVariables
280
     0
  1
0
  0
DICTIONARYVAR
  5
549
102
{ACAD_REACTORS
330
102
102
}
330
102
100
DictionaryVariables
280
     0
  1
96
  0
DICTIONARY
  5
1CDA
330
1CD9
100
AcDbDictionary
280
     1
  3
ACAD_XREC_ROUNDTRIP
360
3E97
  3
BUMPTILE
360
1CDC
  3
DIFFUSETILE
360
1CDB
  3
OPACITYTILE
360
1CDF
  3
REFLECTIONTILE
360
1CDE
  3
REFRACTIONTILE
360
1CE0
  3
SPECULARTILE
360
1CDD
  0
DICTIONARY
  5
1CD2
330
1CD1
100
AcDbDictionary
280
     1
  3
ACAD_XREC_ROUNDTRIP
360
3E96
  3
BUMPTILE
360
1CD4
  3
DIFFUSETILE
360
1CD3
  3
OPACITYTILE
360
1CD7
  3
REFLECTIONTILE
360
1CD6
  3
REFRACTIONTILE
360
1CD8
  3
SPECULARTILE
360
1CD5
  0
DICTIONARY
  5
1CE2
330
1CE1
100
AcDbDictionary
280
     1
  3
ACAD_XREC_ROUNDTRIP
360
3E98
  3
BUMPTILE
360
1CE4
  3
DIFFUSETILE
360
1CE3
  3
OPACITYTILE
360
1CE7
  3
REFLECTIONTILE
360
1CE6
  3
REFRACTIONTILE
360
1CE8
  3
SPECULARTILE
360
1CE5
  0
DICTIONARY
  5
1D3D
330
1CFC
100
AcDbDictionary
280
     1
  3
ACAD_ROUNDTRIP_2008_TABLES
360
3E82
  3
ACAD_XREC_ROUNDTRIP
360
3E99
  0
XRECORD
  5
3E97
102
{ACAD_REACTORS
330
1CDA
102
}
330
1CDA
100
AcDbXrecord
102
MATERIAL
148
0.0
149
0.0
149
0.0
 93
        0
 94
      127
282
     0
 72
     0
 77
     0
171
     0
175
     0
179
     0
273
     0
  0
XRECORD
  5
1CDC
102
{ACAD_REACTORS
330
1CDA
102
}
330
1CDA
100
AcDbXrecord
270
     1
271
     1
  0
XRECORD
  5
1CDB
102
{ACAD_REACTORS
330
1CDA
102
}
330
1CDA
100
AcDbXrecord
270
     1
271
     1
  0
XRECORD
  5
1CDF
102
{ACAD_REACTORS
330
1CDA
102
}
330
1CDA
100
AcDbXrecord
270
     1
271
     1
  0
XRECORD
  5
1CDE
102
{ACAD_REACTORS
330
1CDA
102
}
330
1CDA
100
AcDbXrecord
270
     1
271
     1
  0
XRECORD
  5
1CE0
102
{ACAD_REACTORS
330
1CDA
102
}
330
1CDA
100
AcDbXrecord
270
     1
271
     1
  0
XRECORD
  5
1CDD
102
{ACAD_REACTORS
330
1CDA
102
}
330
1CDA
100
AcDbXrecord
270
     1
271
     1
  0
XRECORD
  5
3E96
102
{ACAD_REACTORS
330
1CD2
102
}
330
1CD2
100
AcDbXrecord
102
MATERIAL
148
0.0
149
0.0
149
0.0
 93
        0
 94
      127
282
     0
 72
     0
 77
     0
171
     0
175
     0
179
     0
273
     0
  0
XRECORD
  5
1CD4
102
{ACAD_REACTORS
330
1CD2
102
}
330
1CD2
100
AcDbXrecord
270
     1
271
     1
  0
XRECORD
  5
1CD3
102
{ACAD_REACTORS
330
1CD2
102
}
330
1CD2
100
AcDbXrecord
270
     1
271
     1
  0
XRECORD
  5
1CD7
102
{ACAD_REACTORS
330
1CD2
102
}
330
1CD2
100
AcDbXrecord
270
     1
271
     1
  0
XRECORD
  5
1CD6
102
{ACAD_REACTORS
330
1CD2
102
}
330
1CD2
100
AcDbXrecord
270
     1
271
     1
  0
XRECORD
  5
1CD8
102
{ACAD_REACTORS
330
1CD2
102
}
330
1CD2
100
AcDbXrecord
270
     1
271
     1
  0
XRECORD
  5
1CD5
102
{ACAD_REACTORS
330
1CD2
102
}
330
1CD2
100
AcDbXrecord
270
     1
271
     1
  0
XRECORD
  5
3E98
102
{ACAD_REACTORS
330
1CE2
102
}
330
1CE2
100
AcDbXrecord
102
MATERIAL
148
0.0
149
0.0
149
0.0
 93
        0
 94
      127
282
     0
 72
     0
 77
     0
171
     0
175
     0
179
     0
273
     0
  0
XRECORD
  5
1CE4
102
{ACAD_REACTORS
330
1CE2
102
}
330
1CE2
100
AcDbXrecord
270
     1
271
     1
  0
XRECORD
  5
1CE3
102
{ACAD_REACTORS
330
1CE2
102
}
330
1CE2
100
AcDbXrecord
270
     1
271
     1
  0
XRECORD
  5
1CE7
102
{ACAD_REACTORS
330
1CE2
102
}
330
1CE2
100
AcDbXrecord
270
     1
271
     1
  0
XRECORD
  5
1CE6
102
{ACAD_REACTORS
330
1CE2
102
}
330
1CE2
100
AcDbXrecord
270
     1
271
     1
  0
XRECORD
  5
1CE8
102
{ACAD_REACTORS
330
1CE2
102
}
330
1CE2
100
AcDbXrecord
270
     1
271
     1
  0
XRECORD
  5
1CE5
102
{ACAD_REACTORS
330
1CE2
102
}
330
1CE2
100
AcDbXrecord
270
     1
271
     1
  0
ACAD_PROXY_OBJECT
  5
3E82
102
{ACAD_REACTORS
330
1D3D
102
}
330
1D3D
100
AcDbProxyObject
 90
      499
 91
      511
 93
     5304
310
40D054060020000020000003200101A000080002A5058000000C100000000000000340FD012E07A17AD46E2B8FCB81E85EB51B8AE3F2E07A17AD46E2B8FCB81E85EB51B8AE3F02B5E8DC0F42B1CFC0AD7A3703D0AC73F419019018000000C1003FBFFFFFE02B5E8DC0F42A9CFD029018000000C1003FBFFFFFE02B5E8DC0F4
310
2A9CFD049018000000C1003FBFFFFFE02B5E8DC0F42A9CFD089018000000C1003FBFFFFFE02B5E8DC0F42A9CFD109018000000C1003FBFFFFFE02B5E8DC0F42A9CFD209018000000C1003FBFFFFFE02B5E8DC0F42A9CFD01405075F5449544C450041501A8000000C800406800020000A9416000000304000AD7A3703D0AC7
310
3F404B81E85EB51B8AE3F2E07A17AD46E2B8FCB81E85EB51B8AE3F2E07A17AD46E2B8FC0AD7A3703D0AC73F02B5E8DC0F42B1CFD0640640600000030400FEFFFFFF80AD7A3703D0AA73F40A40600000030400FEFFFFFF80AD7A3703D0AA73F41240600000030400FEFFFFFF80AD7A3703D0AA73F42240600000030400FEFFF
310
FFF80AD7A3703D0AA73F44240600000030400FEFFFFFF80AD7A3703D0AA73F48240600000030400FEFFFFFF80AD7A3703D0AA73F409014217D2115051115480105406A0000003200101A000080002A5028000000C10002B5E8DC0F42B1CFD012E07A17AD46E2B8FCB81E85EB51B8AE3F2E07A17AD46E2B8FCB81E85EB51B8A
310
E3F02B5E8DC0F42B1CFC0AD7A3703D0AC73F419019018000000C1003FBFFFFFE02B5E8DC0F42A9CFD029018000000C1003FBFFFFFE02B5E8DC0F42A9CFD049018000000C1003FBFFFFFE02B5E8DC0F42A9CFD089018000000C1003FBFFFFFE02B5E8DC0F42A9CFD109018000000C1003FBFFFFFE02B5E8DC0F42A9CFD20901
310
8000000C1003FBFFFFFE02B5E8DC0F42A9CFD03409065F444154410000
340
16
340
0
340
0
340
0
340
0
340
0
340
0
340
16
340
0
340
0
340
0
340
0
340
0
340
0
340
16
340
0
340
0
340
0
340
0
340
0
340
0
 94
        0
1001
ACAD
1000
AcadProxyRoundTripData
1071
      509
1071
   655383
1070
     0
  0
XRECORD
  5
3E99
102
{ACAD_REACTORS
330
1D3D
102
}
330
1D3D
100
AcDbXrecord
102
ACAD_ROUNDTRIP_PRE2007_TABLESTYLE
 90
      512
 91
        0
  1

 92
      512
 93
        0
  2

 94
      512
 95
        0
  3

  0
ENDSEC
  0
EOF
