  0
SECTION
  2
HEADER
  9
$ACADVER
  1
AC1014
  9
$ACADMAINTVER
 70
     9
  9
$DWGCODEPAGE
  3
ANSI_932
  9
$INSBASE
 10
0.0
 20
0.0
 30
0.0
  9
$EXTMIN
 10
44.41773900683839
 20
66.64655809839962
 30
0.0
  9
$EXTMAX
 10
1102.516008791141
 20
519.9744109531597
 30
0.0
  9
$LIMMIN
 10
0.0
 20
0.0
  9
$LIMMAX
 10
297.0
 20
210.0
  9
$ORTHOMODE
 70
     1
  9
$REGENMODE
 70
     1
  9
$FILLMODE
 70
     1
  9
$QTEXTMODE
 70
     0
  9
$MIRRTEXT
 70
     0
  9
$DRAGMODE
 70
     2
  9
$LTSCALE
 40
3.0
  9
$OSMODE
 70
    37
  9
$ATTMODE
 70
     1
  9
$TEXTSIZE
 40
2.0
  9
$TRACEWID
 40
1.0
  9
$TEXTSTYLE
  7
STANDARD
  9
$CLAYER
  8
0
  9
$CELTYPE
  6
BYLAYER
  9
$CECOLOR
 62
   256
  9
$CELTSCALE
 40
1.0
  9
$DELOBJ
 70
     1
  9
$DISPSILH
 70
     0
  9
$DIMSCALE
 40
3.0
  9
$DIMASZ
 40
1.8
  9
$DIMEXO
 40
0.625
  9
$DIMDLI
 40
3.75
  9
$DIMRND
 40
0.0
  9
$DIMDLE
 40
0.0
  9
$DIMEXE
 40
0.8
  9
$DIMTP
 40
0.0
  9
$DIMTM
 40
0.0
  9
$DIMTXT
 40
1.8
  9
$DIMCEN
 40
2.5
  9
$DIMTSZ
 40
0.0
  9
$DIMTOL
 70
     0
  9
$DIMLIM
 70
     0
  9
$DIMTIH
 70
     0
  9
$DIMTOH
 70
     0
  9
$DIMSE1
 70
     0
  9
$DIMSE2
 70
     0
  9
$DIMTAD
 70
     1
  9
$DIMZIN
 70
     8
  9
$DIMBLK
  1

  9
$DIMASO
 70
     1
  9
$DIMSHO
 70
     1
  9
$DIMPOST
  1

  9
$DIMAPOST
  1

  9
$DIMALT
 70
     0
  9
$DIMALTD
 70
     4
  9
$DIMALTF
 40
0.0394
  9
$DIMLFAC
 40
1.0
  9
$DIMTOFL
 70
     1
  9
$DIMTVP
 40
0.0
  9
$DIMTIX
 70
     0
  9
$DIMSOXD
 70
     0
  9
$DIMSAH
 70
     0
  9
$DIMBLK1
  1

  9
$DIMBLK2
  1

  9
$DIMSTYLE
  2
STANDARD
  9
$DIMCLRD
 70
     0
  9
$DIMCLRE
 70
     0
  9
$DIMCLRT
 70
     0
  9
$DIMTFAC
 40
1.0
  9
$DIMGAP
 40
0.75
  9
$DIMJUST
 70
     0
  9
$DIMSD1
 70
     0
  9
$DIMSD2
 70
     0
  9
$DIMTOLJ
 70
     1
  9
$DIMTZIN
 70
     0
  9
$DIMALTZ
 70
     0
  9
$DIMALTTZ
 70
     0
  9
$DIMFIT
 70
     3
  9
$DIMUPT
 70
     0
  9
$DIMUNIT
 70
     8
  9
$DIMDEC
 70
     2
  9
$DIMTDEC
 70
     2
  9
$DIMALTU
 70
     8
  9
$DIMALTTD
 70
     4
  9
$DIMTXSTY
  7
STANDARD
  9
$DIMAUNIT
 70
     0
  9
$LUNITS
 70
     2
  9
$LUPREC
 70
     3
  9
$SKETCHINC
 40
1.0
  9
$FILLETRAD
 40
10.0
  9
$AUNITS
 70
     0
  9
$AUPREC
 70
     2
  9
$MENU
  1
.
  9
$ELEVATION
 40
0.0
  9
$PELEVATION
 40
0.0
  9
$THICKNESS
 40
0.0
  9
$LIMCHECK
 70
     0
  9
$BLIPMODE
 70
     0
  9
$CHAMFERA
 40
0.0
  9
$CHAMFERB
 40
0.0
  9
$CHAMFERC
 40
20.0
  9
$CHAMFERD
 40
0.0
  9
$SKPOLY
 70
     0
  9
$TDCREATE
 40
2454411.432936921
  9
$TDUPDATE
 40
2454425.735240335
  9
$TDINDWG
 40
0.0372629282
  9
$TDUSRTIMER
 40
0.0372627431
  9
$USRTIMER
 70
     1
  9
$ANGBASE
 50
0.0
  9
$ANGDIR
 70
     0
  9
$PDMODE
 70
     0
  9
$PDSIZE
 40
-10.0
  9
$PLINEWID
 40
0.0
  9
$COORDS
 70
     0
  9
$SPLFRAME
 70
     0
  9
$SPLINETYPE
 70
     6
  9
$SPLINESEGS
 70
     8
  9
$ATTDIA
 70
     0
  9
$ATTREQ
 70
     1
  9
$HANDLING
 70
-16383
  9
$HANDSEED
  5
279B
  9
$SURFTAB1
 70
     6
  9
$SURFTAB2
 70
     6
  9
$SURFTYPE
 70
     6
  9
$SURFU
 70
     6
  9
$SURFV
 70
     6
  9
$UCSNAME
  2

  9
$UCSORG
 10
0.0
 20
0.0
 30
0.0
  9
$UCSXDIR
 10
1.0
 20
0.0
 30
0.0
  9
$UCSYDIR
 10
0.0
 20
1.0
 30
0.0
  9
$PUCSNAME
  2

  9
$PUCSORG
 10
0.0
 20
0.0
 30
0.0
  9
$PUCSXDIR
 10
1.0
 20
0.0
 30
0.0
  9
$PUCSYDIR
 10
0.0
 20
1.0
 30
0.0
  9
$USERI1
 70
     0
  9
$USERI2
 70
     0
  9
$USERI3
 70
     0
  9
$USERI4
 70
     0
  9
$USERI5
 70
     0
  9
$USERR1
 40
0.0
  9
$USERR2
 40
0.0
  9
$USERR3
 40
0.0
  9
$USERR4
 40
0.0
  9
$USERR5
 40
0.0
  9
$WORLDVIEW
 70
     1
  9
$SHADEDGE
 70
     3
  9
$SHADEDIF
 70
    70
  9
$TILEMODE
 70
     1
  9
$MAXACTVP
 70
    48
  9
$PINSBASE
 10
0.0
 20
0.0
 30
0.0
  9
$PLIMCHECK
 70
     0
  9
$PEXTMIN
 10
0.0
 20
0.0
 30
0.0
  9
$PEXTMAX
 10
0.0
 20
0.0
 30
0.0
  9
$PLIMMIN
 10
0.0
 20
0.0
  9
$PLIMMAX
 10
12.0
 20
9.0
  9
$UNITMODE
 70
     0
  9
$VISRETAIN
 70
     1
  9
$PLINEGEN
 70
     0
  9
$PSLTSCALE
 70
     1
  9
$TREEDEPTH
 70
  3020
  9
$PICKSTYLE
 70
     1
  9
$CMLSTYLE
  2
STANDARD
  9
$CMLJUST
 70
     0
  9
$CMLSCALE
 40
1.0
  9
$PROXYGRAPHICS
 70
     1
  9
$MEASUREMENT
 70
     0
  0
ENDSEC
  0
SECTION
  2
CLASSES
  0
CLASS
  1
DICTIONARYVAR
  2
AcDbDictionaryVar
  3
AutoCAD 2000
 90
        0
280
     0
281
     0
  0
CLASS
  1
ACDBDICTIONARYWDFLT
  2
AcDbDictionaryWithDefault
  3
AutoCAD 2000
 90
        0
280
     0
281
     0
  0
CLASS
  1
ACDBPLACEHOLDER
  2
AcDbPlaceHolder
  3
AutoCAD 2000
 90
        0
280
     0
281
     0
  0
CLASS
  1
LAYOUT
  2
AcDbLayout
  3
AutoCAD 2000
 90
        0
280
     0
281
     0
  0
CLASS
  1
MATERIAL
  2
AcDbMaterial
  3
ObjectDBX Classes
 90
     1153
280
     0
281
     0
  0
CLASS
  1
VISUALSTYLE
  2
AcDbVisualStyle
  3
ObjectDBX Classes
 90
     4095
280
     0
281
     0
  0
CLASS
  1
TABLESTYLE
  2
AcDbTableStyle
  3
ObjectDBX Classes
 90
     4095
280
     0
281
     0
  0
CLASS
  1
SCALE
  2
AcDbScale
  3
ObjectDBX Classes
 90
     1153
280
     0
281
     0
  0
CLASS
  1
MLEADERSTYLE
  2
AcDbMLeaderStyle
  3
ACDB_MLEADERSTYLE_CLASS
 90
     4095
280
     0
281
     0
  0
CLASS
  1
CELLSTYLEMAP
  2
AcDbCellStyleMap
  3
ObjectDBX Classes
 90
     1152
280
     0
281
     0
  0
CLASS
  1
SORTENTSTABLE
  2
AcDbSortentsTable
  3
AutoCAD 2000
 90
        0
280
     0
281
     0
  0
CLASS
  1
ACAD_PROXY_OBJECT_WRAPPER
  2
AcDbProxyObjectWrapper
  3
AutoCAD 2000
 90
        0
280
     0
281
     0
  0
CLASS
  1
LONG_TRANSACTION
  2
AcDbLongTransaction
  3
AutoCAD 2000
 90
        0
280
     0
281
     0
  0
CLASS
  1
LWPOLYLINE
  2
AcDbPolyline
  3
AutoCAD 2000
 90
        0
280
     0
281
     1
  0
CLASS
  1
HATCH
  2
AcDbHatch
  3
AutoCAD 2000
 90
        0
280
     0
281
     1
  0
CLASS
  1
XRECORD
  2
AcDbXrecord
  3
AutoCAD 2000
 90
        0
280
     0
281
     0
  0
ENDSEC
  0
SECTION
  2
TABLES
  0
TABLE
  2
VPORT
  5
6E
102
{ACAD_XDICTIONARY
360
1E8C
102
}
330
0
100
AcDbSymbolTable
 70
     2
  0
VPORT
  5
2775
330
6E
100
AcDbSymbolTableRecord
100
AcDbViewportTableRecord
  2
*ACTIVE
 70
     0
 10
0.0
 20
0.0
 11
1.0
 21
1.0
 12
581.0505005637845
 22
283.6905690305468
 13
0.0
 23
0.0
 14
10.0
 24
10.0
 15
10.0
 25
10.0
 16
0.0
 26
0.0
 36
1.0
 17
0.0
 27
0.0
 37
0.0
 40
614.4765716560926
 41
1.753504672897196
 42
50.0
 43
0.0
 44
0.0
 50
0.0
 51
0.0
 71
     0
 72
   100
 73
     1
 74
     3
 75
     0
 76
     0
 77
     0
 78
     0
  0
ENDTAB
  0
TABLE
  2
LTYPE
  5
69
330
0
100
AcDbSymbolTable
 70
     5
  0
LTYPE
  5
6A
330
69
100
AcDbSymbolTableRecord
100
AcDbLinetypeTableRecord
  2
BYBLOCK
 70
     0
  3

 72
    65
 73
     0
 40
0.0
  0
LTYPE
  5
6B
330
69
100
AcDbSymbolTableRecord
100
AcDbLinetypeTableRecord
  2
BYLAYER
 70
     0
  3

 72
    65
 73
     0
 40
0.0
  0
LTYPE
  5
8
330
69
100
AcDbSymbolTableRecord
100
AcDbLinetypeTableRecord
  2
CONTINUOUS
 70
     0
  3
Solid line
 72
    65
 73
     0
 40
0.0
  0
LTYPE
  5
27C
330
69
100
AcDbSymbolTableRecord
100
AcDbLinetypeTableRecord
  2
SEKKEI_A2_
 70
     0
  3
center(A2)  ____ _ ____ _ ____ _ ____ _ ____ _ 
 72
    65
 73
     4
 40
14.28749999999999
 49
9.525
 74
     0
 49
-1.587499999999999
 74
     0
 49
1.587499999999999
 74
     0
 49
-1.587499999999999
 74
     0
  0
LTYPE
  5
7F0
330
69
100
AcDbSymbolTableRecord
100
AcDbLinetypeTableRecord
  2
HIDDEN3
 70
     0
  3
Hidden (.3x) _ _ _ _ _ _ _ _ _ _ _ _ _ _ _ _ _
 72
    65
 73
     2
 40
2.857499999999999
 49
1.905
 74
     0
 49
-0.9525
 74
     0
  0
LTYPE
  5
ADB
330
69
100
AcDbSymbolTableRecord
100
AcDbLinetypeTableRecord
  2
CENS
 70
     0
  3
(一点鎖線１)---- - ---- - ---- - ---- - ---- - 
 72
    65
 73
     4
 40
7.0
 49
4.0
 74
     0
 49
-1.0
 74
     0
 49
1.0
 74
     0
 49
-1.0
 74
     0
  0
ENDTAB
  0
TABLE
  2
LAYER
  5
66
102
{ACAD_XDICTIONARY
360
ADC
102
}
330
0
100
AcDbSymbolTable
 70
     9
  0
LAYER
  5
5E
102
{ACAD_XDICTIONARY
360
1E71
102
}
330
66
100
AcDbSymbolTableRecord
100
AcDbLayerTableRecord
  2
0
 70
     0
 62
     7
  6
CONTINUOUS
  0
LAYER
  5
3E
102
{ACAD_XDICTIONARY
360
1E73
102
}
330
66
100
AcDbSymbolTableRecord
100
AcDbLayerTableRecord
  2
CENTER
 70
     0
 62
     3
  6
SEKKEI_A2_
  0
LAYER
  5
2B5
102
{ACAD_XDICTIONARY
360
1E79
102
}
330
66
100
AcDbSymbolTableRecord
100
AcDbLayerTableRecord
  2
HIDS
 70
     0
 62
     1
  6
HIDDEN3
  0
LAYER
  5
2BA
102
{ACAD_XDICTIONARY
360
1E7B
102
}
330
66
100
AcDbSymbolTableRecord
100
AcDbLayerTableRecord
  2
HOJO
 70
     0
 62
     4
  6
CONTINUOUS
  0
LAYER
  5
3FA
102
{ACAD_XDICTIONARY
360
1E7F
102
}
330
66
100
AcDbSymbolTableRecord
100
AcDbLayerTableRecord
  2
TITLE
 70
     0
 62
     4
  6
CONTINUOUS
  0
ENDTAB
  0
TABLE
  2
STYLE
  5
67
330
0
100
AcDbSymbolTable
 70
     1
  0
STYLE
  5
16
330
67
100
AcDbSymbolTableRecord
100
AcDbTextStyleTableRecord
  2
STANDARD
 70
     0
 40
0.0
 41
1.0
 50
0.0
 71
     0
 42
2.0
  3
simplex.shx
  4
extfont.shx
  0
ENDTAB
  0
TABLE
  2
VIEW
  5
6C
330
0
100
AcDbSymbolTable
 70
     0
  0
ENDTAB
  0
TABLE
  2
UCS
  5
6D
330
0
100
AcDbSymbolTable
 70
     0
  0
ENDTAB
  0
TABLE
  2
APPID
  5
70
330
0
100
AcDbSymbolTable
 70
     2
  0
APPID
  5
71
330
70
100
AcDbSymbolTableRecord
100
AcDbRegAppTableRecord
  2
ACAD
 70
     0
  0
APPID
  5
1E47
330
70
100
AcDbSymbolTableRecord
100
AcDbRegAppTableRecord
  2
ACAD_MLEADERVER
 70
     0
  0
ENDTAB
  0
TABLE
  2
DIMSTYLE
  5
72
330
0
100
AcDbSymbolTable
 70
     1
  0
DIMSTYLE
105
73
330
72
100
AcDbSymbolTableRecord
100
AcDbDimStyleTableRecord
  2
STANDARD
 70
     0
  3

  4

  5

  6

  7

 40
3.0
 41
1.8
 42
0.625
 43
3.75
 44
0.8
 45
0.0
 46
0.0
 47
0.0
 48
0.0
140
1.8
141
2.5
142
0.0
143
0.0394
144
1.0
145
0.0
146
1.0
147
0.75
 71
     0
 72
     0
 73
     0
 74
     0
 75
     0
 76
     0
 77
     1
 78
     8
170
     0
171
     4
172
     1
173
     0
174
     0
175
     0
176
     0
177
     0
178
     0
270
     8
271
     2
272
     2
273
     8
274
     4
340
16
275
     0
280
     0
281
     0
282
     0
283
     1
284
     0
285
     0
286
     0
287
     3
288
     0
  0
ENDTAB
  0
TABLE
  2
BLOCK_RECORD
  5
1
330
0
100
AcDbSymbolTable
 70
    42
  0
BLOCK_RECORD
  5
2
102
{ACAD_XDICTIONARY
360
2797
102
}
330
1
100
AcDbSymbolTableRecord
100
AcDbBlockTableRecord
  2
*MODEL_SPACE
  0
BLOCK_RECORD
  5
2770
102
{ACAD_XDICTIONARY
360
2799
102
}
330
1
100
AcDbSymbolTableRecord
100
AcDbBlockTableRecord
  2
*PAPER_SPACE
  0
ENDTAB
  0
ENDSEC
  0
SECTION
  2
BLOCKS
  0
BLOCK
  5
5D
330
2
100
AcDbEntity
  8
0
100
AcDbBlockBegin
  2
*MODEL_SPACE
 70
     0
 10
0.0
 20
0.0
 30
0.0
  3
*MODEL_SPACE
  1

  0
ENDBLK
  5
5F
330
2
100
AcDbEntity
  8
0
100
AcDbBlockEnd
  0
BLOCK
  5
2772
330
2770
100
AcDbEntity
 67
     1
  8
0
100
AcDbBlockBegin
  2
*PAPER_SPACE
 70
     0
 10
0.0
 20
0.0
 30
0.0
  3
*PAPER_SPACE
  1

  0
ENDBLK
  5
2773
330
2770
100
AcDbEntity
 67
     1
  8
0
100
AcDbBlockEnd
  0
ENDSEC
  0
SECTION
  2
ENTITIES
  0
TEXT
  5
EF2
330
2
100
AcDbEntity
  8
TITLE
100
AcDbText
 10
362.9089359360325
 20
455.4344429823929
 30
0.0
 40
7.5
  1
AFCZ22H-7~10M750S2
100
AcDbText
  0
TEXT
  5
EF3
330
2
100
AcDbEntity
  8
TITLE
100
AcDbText
 10
362.9089359360325
 20
443.9344429823929
 30
0.0
 40
7.5
  1
AFCZ22H-7~10L750S2
100
AcDbText
  0
LINE
  5
EF6
330
2
100
AcDbEntity
  8
CENTER
100
AcDbLine
 10
266.417761006833
 20
136.646558098397
 30
0.0
 11
44.41773900683839
 21
136.646558098397
 31
0.0
  0
LINE
  5
EFA
330
2
100
AcDbEntity
  8
CENTER
100
AcDbLine
 10
593.7333516262693
 20
458.9744109531552
 30
0.0
 11
815.4759310264418
 21
458.9744109531552
 31
0.0
  0
LINE
  5
F0C
330
2
100
AcDbEntity
  8
0
100
AcDbLine
 10
750.4759310264412
 20
85.14655809839963
 30
0.0
 11
750.4759310264412
 21
188.1465580983999
 31
0.0
  0
LINE
  5
F26
330
2
100
AcDbEntity
  8
0
100
AcDbLine
 10
109.4177390068383
 20
188.1465580984028
 30
0.0
 11
109.4177390068383
 21
136.6465580984025
 31
0.0
  0
LINE
  5
F29
330
2
100
AcDbEntity
  8
0
100
AcDbLine
 10
109.4177390068383
 20
85.14655809840252
 30
0.0
 11
109.4177390068383
 21
136.6465580984025
 31
0.0
  0
LINE
  5
FC8
330
2
100
AcDbEntity
  8
0
100
AcDbLine
 10
750.4759310264418
 20
407.9744109531572
 30
0.0
 11
750.4759310264418
 21
509.9744109531575
 31
0.0
  0
LINE
  5
FCE
330
2
100
AcDbEntity
  8
CENTER
100
AcDbLine
 10
584.475909026441
 20
136.6465580983971
 30
0.0
 11
815.4759310264411
 21
136.6465580983968
 31
0.0
  0
LINE
  5
11DD
330
2
100
AcDbEntity
  8
0
100
AcDbLine
 10
988.5160087911485
 20
186.9222280717659
 30
0.0
 11
988.5160087911485
 21
86.37088812503231
 31
0.0
  0
LINE
  5
11DE
330
2
100
AcDbEntity
  8
0
100
AcDbLine
 10
983.5160087911486
 20
181.6465580983959
 30
0.0
 11
983.5160087911486
 21
91.64655809839638
 31
0.0
  0
LINE
  5
11DF
330
2
100
AcDbEntity
  8
0
100
AcDbLine
 10
988.5160087911485
 20
181.6465580983959
 30
0.0
 11
983.5160087911486
 21
181.6465580983959
 31
0.0
  0
LINE
  5
11E0
330
2
100
AcDbEntity
  8
0
100
AcDbLine
 10
988.5160087911485
 20
91.64655809839638
 30
0.0
 11
983.5160087911486
 21
91.64655809839638
 31
0.0
  0
LINE
  5
11E1
330
2
100
AcDbEntity
  8
0
100
AcDbLine
 10
969.5160087911485
 20
168.7151805487839
 30
0.0
 11
969.5160087911485
 21
104.5779356480107
 31
0.0
  0
LINE
  5
11E2
330
2
100
AcDbEntity
  8
0
100
AcDbLine
 10
981.5858077845518
 20
171.0680447668575
 30
0.0
 11
971.4462097977435
 21
170.7139622028218
 31
0.0
  0
ARC
  5
11E3
330
2
100
AcDbEntity
  8
0
100
AcDbCircle
 10
981.5160087911486
 20
173.0668264208953
 30
0.0
 40
2.0
100
AcDbArc
 50
272.0000000000036
 51
0.0
  0
ARC
  5
11E4
330
2
100
AcDbEntity
  8
0
100
AcDbCircle
 10
971.5160087911485
 20
168.7151805487839
 30
0.0
 40
2.0
100
AcDbArc
 50
92.00000000000365
 51
180.0
  0
LINE
  5
11E5
330
2
100
AcDbEntity
  8
0
100
AcDbLine
 10
981.5858077845536
 20
102.2250714299371
 30
0.0
 11
971.4462097977435
 21
102.5791539939728
 31
0.0
  0
ARC
  5
11E6
330
2
100
AcDbEntity
  8
0
100
AcDbCircle
 10
981.5160087911486
 20
100.2262897758992
 30
0.0
 40
2.0
100
AcDbArc
 50
0.0
 51
87.99999999999636
  0
ARC
  5
11E7
330
2
100
AcDbEntity
  8
0
100
AcDbCircle
 10
971.5160087911485
 20
104.5779356480107
 30
0.0
 40
2.0
100
AcDbArc
 50
180.0
 51
267.9999999999963
  0
LINE
  5
11E8
330
2
100
AcDbEntity
  8
0
100
AcDbLine
 10
1092.516008791141
 20
179.7246050126797
 30
0.0
 11
1092.516008791141
 21
93.5685111841313
 31
0.0
  0
LINE
  5
11E9
330
2
100
AcDbEntity
  8
0
100
AcDbLine
 10
990.5160087911413
 20
179.7246050126806
 30
0.0
 11
990.5160087911413
 21
93.56851118413038
 31
0.0
  0
ARC
  5
11EA
330
2
100
AcDbEntity
  8
0
100
AcDbCircle
 10
998.5160087911413
 20
93.56851118413038
 30
0.0
 40
8.0
100
AcDbArc
 50
180.0
 51
269.4382946674683
  0
LINE
  5
11EB
330
2
100
AcDbEntity
  8
0
100
AcDbLine
 10
1041.516008791141
 20
188.146558098405
 30
0.0
 11
1084.594436394673
 21
187.7242205728799
 31
0.0
  0
ARC
  5
11EC
330
2
100
AcDbEntity
  8
0
100
AcDbCircle
 10
1084.516008791141
 20
179.7246050126797
 30
0.0
 40
8.0
100
AcDbArc
 50
0.0
 51
89.43829466741624
  0
LINE
  5
11ED
330
2
100
AcDbEntity
  8
0
100
AcDbLine
 10
1041.516008791141
 20
188.146558098405
 30
0.0
 11
998.4375811876111
 21
187.7242205728808
 31
0.0
  0
ARC
  5
11EE
330
2
100
AcDbEntity
  8
0
100
AcDbCircle
 10
998.5160087911413
 20
179.7246050126806
 30
0.0
 40
8.0
100
AcDbArc
 50
90.56170533253165
 51
180.0
  0
LINE
  5
11EF
330
2
100
AcDbEntity
  8
0
100
AcDbLine
 10
1041.516008791141
 20
85.14655809840594
 30
0.0
 11
1084.594436394673
 21
85.56889562393104
 31
0.0
  0
ARC
  5
11F0
330
2
100
AcDbEntity
  8
0
100
AcDbCircle
 10
1084.516008791141
 20
93.5685111841313
 30
0.0
 40
8.0
100
AcDbArc
 50
270.5617053325316
 51
0.0
  0
LINE
  5
11F1
330
2
100
AcDbEntity
  8
0
100
AcDbLine
 10
1041.516008791141
 20
85.14655809840594
 30
0.0
 11
998.4375811876111
 21
85.56889562393013
 31
0.0
  0
LINE
  5
11F2
330
2
100
AcDbEntity
  8
0
100
AcDbLine
 10
995.1458457686735
 20
186.980085782544
 30
0.0
 11
988.5160087911485
 21
186.9222280717659
 31
0.0
  0
LINE
  5
11F3
330
2
100
AcDbEntity
  8
0
100
AcDbLine
 10
995.1458457686735
 20
86.31303041425423
 30
0.0
 11
988.5160087911485
 21
86.37088812503231
 31
0.0
  0
LINE
  5
11F4
330
2
100
AcDbEntity
  8
CENTER
100
AcDbLine
 10
1041.516008791141
 20
198.146558098405
 30
0.0
 11
1041.516008791141
 21
75.14655809840594
 31
0.0
  0
LINE
  5
11F5
330
2
100
AcDbEntity
  8
CENTER
100
AcDbLine
 10
917.5160087911356
 20
136.6465580983972
 30
0.0
 11
1102.516008791141
 21
136.6465580983972
 31
0.0
  0
LINE
  5
11FC
330
2
100
AcDbEntity
  8
CENTER
100
AcDbLine
 10
1075.446008791141
 20
179.0765580983976
 30
0.0
 11
1092.446008791141
 21
179.0765580983976
 31
0.0
  0
LINE
  5
11FD
330
2
100
AcDbEntity
  8
0
100
AcDbLine
 10
998.5160087911431
 20
187.6465580983973
 30
0.0
 11
1084.516008791141
 21
187.6465580983973
 31
0.0
  0
LINE
  5
11FE
330
2
100
AcDbEntity
  8
CENTER
100
AcDbLine
 10
1075.446008791141
 20
94.21655809839746
 30
0.0
 11
1092.446008791141
 21
94.21655809839746
 31
0.0
  0
ARC
  5
11FF
330
2
100
AcDbEntity
  8
0
100
AcDbCircle
 10
1068.516008791141
 20
109.6465580983972
 30
0.0
 40
15.0
100
AcDbArc
 50
270.0
 51
0.0
  0
ARC
  5
1200
330
2
100
AcDbEntity
  8
0
100
AcDbCircle
 10
1068.516008791139
 20
109.6465580983972
 30
0.0
 40
13.0
100
AcDbArc
 50
270.0
 51
0.0
  0
LINE
  5
1201
330
2
100
AcDbEntity
  8
0
100
AcDbLine
 10
998.5160087911413
 20
85.64655809839729
 30
0.0
 11
1084.516008791141
 21
85.64655809839729
 31
0.0
  0
ARC
  5
1202
330
2
100
AcDbEntity
  8
0
100
AcDbCircle
 10
1068.516008791139
 20
163.6465580983973
 30
0.0
 40
13.0
100
AcDbArc
 50
0.0
 51
90.0
  0
ARC
  5
1203
330
2
100
AcDbEntity
  8
0
100
AcDbCircle
 10
1068.516008791141
 20
163.6465580983973
 30
0.0
 40
15.0
100
AcDbArc
 50
0.0
 51
90.0
  0
LINE
  5
1204
330
2
100
AcDbEntity
  8
0
100
AcDbLine
 10
1081.516008791139
 20
163.6465580983973
 30
0.0
 11
1081.516008791139
 21
109.6465580983972
 31
0.0
  0
LINE
  5
1205
330
2
100
AcDbEntity
  8
0
100
AcDbLine
 10
1001.516008791141
 20
163.6465580983973
 30
0.0
 11
1001.516008791141
 21
109.6465580983972
 31
0.0
  0
LINE
  5
1206
330
2
100
AcDbEntity
  8
0
100
AcDbLine
 10
999.5160087911413
 20
163.6465580983973
 30
0.0
 11
999.5160087911413
 21
109.6465580983972
 31
0.0
  0
LINE
  5
1207
330
2
100
AcDbEntity
  8
CENTER
100
AcDbLine
 10
1073.335813944535
 20
97.32675294500275
 30
0.0
 11
1073.335813944535
 21
112.3267529450027
 31
0.0
  0
LINE
  5
1208
330
2
100
AcDbEntity
  8
CENTER
100
AcDbLine
 10
1009.696203637746
 20
97.32675294500275
 30
0.0
 11
1009.696203637746
 21
112.3267529450027
 31
0.0
  0
ARC
  5
1209
330
2
100
AcDbEntity
  8
0
100
AcDbCircle
 10
1014.516008791141
 20
109.6465580983972
 30
0.0
 40
15.0
100
AcDbArc
 50
180.0
 51
270.0
  0
ARC
  5
120A
330
2
100
AcDbEntity
  8
0
100
AcDbCircle
 10
1014.516008791141
 20
109.6465580983972
 30
0.0
 40
13.0
100
AcDbArc
 50
180.0
 51
270.0
  0
LINE
  5
120B
330
2
100
AcDbEntity
  8
0
100
AcDbLine
 10
1014.516008791141
 20
94.64655809839729
 30
0.0
 11
1068.516008791141
 21
94.64655809839729
 31
0.0
  0
LINE
  5
120C
330
2
100
AcDbEntity
  8
0
100
AcDbLine
 10
1014.516008791141
 20
96.64655809839729
 30
0.0
 11
1068.516008791139
 21
96.64655809839729
 31
0.0
  0
ARC
  5
120D
330
2
100
AcDbEntity
  8
0
100
AcDbCircle
 10
998.5160087911413
 20
93.6465580983973
 30
0.0
 40
8.0
100
AcDbArc
 50
180.0
 51
270.0
  0
LINE
  5
120E
330
2
100
AcDbEntity
  8
CENTER
100
AcDbLine
 10
999.0860087911411
 20
85.71655809839745
 30
0.0
 11
999.0860087911411
 21
102.7165580983974
 31
0.0
  0
LINE
  5
120F
330
2
100
AcDbEntity
  8
CENTER
100
AcDbLine
 10
1007.586008791141
 20
94.21655809839746
 30
0.0
 11
990.586008791141
 21
94.21655809839746
 31
0.0
  0
LINE
  5
1210
330
2
100
AcDbEntity
  8
CENTER
100
AcDbLine
 10
1017.196203637746
 20
104.8267529450027
 30
0.0
 11
1002.196203637746
 21
104.8267529450027
 31
0.0
  0
LINE
  5
1211
330
2
100
AcDbEntity
  8
CENTER
100
AcDbLine
 10
1065.835813944535
 20
104.8267529450027
 30
0.0
 11
1080.835813944535
 21
104.8267529450027
 31
0.0
  0
LINE
  5
1212
330
2
100
AcDbEntity
  8
0
100
AcDbLine
 10
1014.516008791141
 20
178.6465580983973
 30
0.0
 11
1068.516008791141
 21
178.6465580983973
 31
0.0
  0
LINE
  5
1213
330
2
100
AcDbEntity
  8
0
100
AcDbLine
 10
1014.516008791141
 20
176.6465580983973
 30
0.0
 11
1068.516008791139
 21
176.6465580983973
 31
0.0
  0
ARC
  5
1214
330
2
100
AcDbEntity
  8
0
100
AcDbCircle
 10
998.5160087911431
 20
179.6465580983973
 30
0.0
 40
8.0
100
AcDbArc
 50
90.0
 51
180.0
  0
LINE
  5
1215
330
2
100
AcDbEntity
  8
CENTER
100
AcDbLine
 10
999.0860087911411
 20
187.5765580983976
 30
0.0
 11
999.0860087911411
 21
170.5765580983976
 31
0.0
  0
ARC
  5
1216
330
2
100
AcDbEntity
  8
0
100
AcDbCircle
 10
1014.516008791141
 20
163.6465580983973
 30
0.0
 40
15.0
100
AcDbArc
 50
90.0
 51
180.0
  0
LINE
  5
1217
330
2
100
AcDbEntity
  8
CENTER
100
AcDbLine
 10
1017.196203637746
 20
168.4663632517921
 30
0.0
 11
1002.196203637746
 21
168.4663632517921
 31
0.0
  0
ARC
  5
1218
330
2
100
AcDbEntity
  8
0
100
AcDbCircle
 10
1014.516008791141
 20
163.6465580983973
 30
0.0
 40
13.0
100
AcDbArc
 50
90.0
 51
180.0
  0
LINE
  5
1219
330
2
100
AcDbEntity
  8
CENTER
100
AcDbLine
 10
1009.696203637746
 20
175.9663632517921
 30
0.0
 11
1009.696203637746
 21
160.966363251792
 31
0.0
  0
LINE
  5
121A
330
2
100
AcDbEntity
  8
CENTER
100
AcDbLine
 10
1007.586008791141
 20
179.0765580983976
 30
0.0
 11
990.586008791141
 21
179.0765580983976
 31
0.0
  0
LINE
  5
121B
330
2
100
AcDbEntity
  8
CENTER
100
AcDbLine
 10
1073.335813944535
 20
175.9663632517921
 30
0.0
 11
1073.335813944535
 21
160.966363251792
 31
0.0
  0
LINE
  5
121C
330
2
100
AcDbEntity
  8
CENTER
100
AcDbLine
 10
1065.835813944535
 20
168.4663632517921
 30
0.0
 11
1080.835813944535
 21
168.4663632517921
 31
0.0
  0
LINE
  5
121D
330
2
100
AcDbEntity
  8
0
100
AcDbLine
 10
1083.516008791141
 20
163.6465580983973
 30
0.0
 11
1083.516008791141
 21
109.6465580983972
 31
0.0
  0
ARC
  5
121E
330
2
100
AcDbEntity
  8
0
100
AcDbCircle
 10
1084.516008791141
 20
93.6465580983973
 30
0.0
 40
8.0
100
AcDbArc
 50
270.0
 51
0.0
  0
LINE
  5
121F
330
2
100
AcDbEntity
  8
CENTER
100
AcDbLine
 10
1083.946008791141
 20
85.71655809839745
 30
0.0
 11
1083.946008791141
 21
102.7165580983974
 31
0.0
  0
ARC
  5
1220
330
2
100
AcDbEntity
  8
0
100
AcDbCircle
 10
1084.516008791141
 20
179.6465580983973
 30
0.0
 40
8.0
100
AcDbArc
 50
0.0
 51
90.0
  0
LINE
  5
1221
330
2
100
AcDbEntity
  8
CENTER
100
AcDbLine
 10
1083.946008791141
 20
187.5765580983976
 30
0.0
 11
1083.946008791141
 21
170.5765580983976
 31
0.0
  0
LINE
  5
1222
330
2
100
AcDbEntity
  8
0
100
AcDbLine
 10
799.4759310264454
 20
416.9744109531584
 30
0.0
 11
799.4759310264454
 21
439.8513053275428
 31
0.0
  0
LINE
  5
1223
330
2
100
AcDbEntity
  8
0
100
AcDbLine
 10
799.4759310264454
 20
448.0975165787676
 30
0.0
 11
799.4759310264454
 21
500.9744109531521
 31
0.0
  0
LINE
  5
1224
330
2
100
AcDbEntity
  8
0
100
AcDbLine
 10
801.4759310264453
 20
418.9045906934427
 30
0.0
 11
801.4759310264436
 21
499.0442312128675
 31
0.0
  0
LINE
  5
1225
330
2
100
AcDbEntity
  8
0
100
AcDbLine
 10
765.4759310264418
 20
409.0966251806118
 30
0.0
 11
765.4759310264436
 21
508.8521967256983
 31
0.0
  0
LINE
  5
1226
330
2
100
AcDbEntity
  8
0
100
AcDbLine
 10
801.4759310264436
 20
499.0442312128675
 30
0.0
 11
799.4759310264417
 21
500.9744109531547
 31
0.0
  0
LINE
  5
1227
330
2
100
AcDbEntity
  8
0
100
AcDbLine
 10
805.4759310264417
 20
498.9744109531548
 30
0.0
 11
801.4759310264436
 21
499.0442312128675
 31
0.0
  0
LINE
  5
1228
330
2
100
AcDbEntity
  8
0
100
AcDbLine
 10
750.4759310264418
 20
509.9744109531548
 30
0.0
 11
764.4846575619413
 21
509.8521586487627
 31
0.0
  0
LINE
  5
1229
330
2
100
AcDbEntity
  8
0
100
AcDbLine
 10
799.4759310264417
 20
500.9744109531547
 30
0.0
 11
772.4759310264418
 21
501.1314923580507
 31
0.0
  0
LINE
  5
122A
330
2
100
AcDbEntity
  8
0
100
AcDbLine
 10
801.4759310264453
 20
418.9045906934427
 30
0.0
 11
799.4759310264454
 21
416.9744109531584
 31
0.0
  0
LINE
  5
122B
330
2
100
AcDbEntity
  8
0
100
AcDbLine
 10
805.4759310264417
 20
418.9744109531557
 30
0.0
 11
801.4759310264453
 21
418.9045906934427
 31
0.0
  0
LINE
  5
122C
330
2
100
AcDbEntity
  8
0
100
AcDbLine
 10
750.4759310264418
 20
407.9744109531556
 30
0.0
 11
764.4846575619413
 21
408.0966632575478
 31
0.0
  0
LINE
  5
122D
330
2
100
AcDbEntity
  8
0
100
AcDbLine
 10
799.4759310264436
 20
416.9744109531556
 30
0.0
 11
772.4759310264418
 21
416.8173295482597
 31
0.0
  0
CIRCLE
  5
122E
330
2
100
AcDbEntity
  8
0
100
AcDbCircle
 10
1041.516008791141
 20
136.6465580983972
 30
0.0
 40
34.99999999953029
  0
ARC
  5
122F
330
2
100
AcDbEntity
  8
0
100
AcDbCircle
 10
764.4759310264418
 20
409.0966251806118
 30
0.0
 40
1.0
100
AcDbArc
 50
270.4999999999654
 51
0.0
  0
ARC
  5
1230
330
2
100
AcDbEntity
  8
0
100
AcDbCircle
 10
764.4759310264436
 20
508.8521967256983
 30
0.0
 40
1.0
100
AcDbArc
 50
0.0
 51
89.5000000000345
  0
LINE
  5
1231
330
2
100
AcDbEntity
  8
0
100
AcDbLine
 10
805.4759310264417
 20
418.9744109531557
 30
0.0
 11
805.4759310264417
 21
498.9744109531548
 31
0.0
  0
CIRCLE
  5
1232
330
2
100
AcDbEntity
  8
HOJO
100
AcDbCircle
 10
1009.696203637746
 20
168.4663632517921
 30
0.0
 40
3.0
  0
CIRCLE
  5
1233
330
2
100
AcDbEntity
  8
0
100
AcDbCircle
 10
1009.696203637746
 20
168.4663632517921
 30
0.0
 40
2.5
  0
CIRCLE
  5
1234
330
2
100
AcDbEntity
  8
HOJO
100
AcDbCircle
 10
1009.696203637746
 20
104.8267529450027
 30
0.0
 40
3.0
  0
CIRCLE
  5
1235
330
2
100
AcDbEntity
  8
0
100
AcDbCircle
 10
1009.696203637746
 20
104.8267529450027
 30
0.0
 40
2.5
  0
CIRCLE
  5
1236
330
2
100
AcDbEntity
  8
HOJO
100
AcDbCircle
 10
1073.335813944535
 20
104.8267529450027
 30
0.0
 40
3.0
  0
CIRCLE
  5
1237
330
2
100
AcDbEntity
  8
0
100
AcDbCircle
 10
1073.335813944535
 20
104.8267529450027
 30
0.0
 40
2.5
  0
CIRCLE
  5
1238
330
2
100
AcDbEntity
  8
HOJO
100
AcDbCircle
 10
1073.335813944535
 20
168.4663632517921
 30
0.0
 40
3.0
  0
CIRCLE
  5
1239
330
2
100
AcDbEntity
  8
0
100
AcDbCircle
 10
1073.335813944535
 20
168.4663632517921
 30
0.0
 40
2.5
  0
CIRCLE
  5
123A
330
2
100
AcDbEntity
  8
CENTER
100
AcDbCircle
 10
1041.516008791141
 20
136.6465580983972
 30
0.0
 40
45.0
  0
LINE
  5
123B
330
2
100
AcDbEntity
  8
HIDS
100
AcDbLine
 10
1032.766008791141
 20
178.6465580983973
 30
0.0
 11
1032.766008791142
 21
164.2950209851476
 31
0.0
  0
LINE
  5
123C
330
2
100
AcDbEntity
  8
HIDS
100
AcDbLine
 10
1020.266008791141
 20
178.6465580983973
 30
0.0
 11
1020.266008791141
 21
156.3807289702632
 31
0.0
  0
LINE
  5
123D
330
2
100
AcDbEntity
  8
0
100
AcDbLine
 10
799.4759310264448
 20
178.6465580983939
 30
0.0
 11
799.4759310264448
 21
175.1458584139297
 31
0.0
  0
LINE
  5
123E
330
2
100
AcDbEntity
  8
0
100
AcDbLine
 10
801.4759310264448
 20
176.7163783581094
 30
0.0
 11
801.4759310264448
 21
176.5270665849611
 31
0.0
  0
LINE
  5
123F
330
2
100
AcDbEntity
  8
0
100
AcDbLine
 10
765.4759310264412
 20
186.5243438709402
 30
0.0
 11
765.475931026443
 21
147.6892591038805
 31
0.0
  0
LINE
  5
1240
330
2
100
AcDbEntity
  8
0
100
AcDbLine
 10
765.475931026443
 20
136.6465580983968
 30
0.0
 11
765.475931026443
 21
86.76877232585377
 31
0.0
  0
LINE
  5
1241
330
2
100
AcDbEntity
  8
0
100
AcDbLine
 10
801.475931026443
 20
96.5767378386846
 30
0.0
 11
799.4759310264412
 21
94.64655809839735
 31
0.0
  0
LINE
  5
1242
330
2
100
AcDbEntity
  8
0
100
AcDbLine
 10
805.4759310264412
 20
96.64655809839736
 30
0.0
 11
801.475931026443
 21
96.5767378386846
 31
0.0
  0
LINE
  5
1243
330
2
100
AcDbEntity
  8
0
100
AcDbLine
 10
750.4759310264412
 20
85.64655809839734
 30
0.0
 11
764.4846575619408
 21
85.76881040278943
 31
0.0
  0
LINE
  5
1244
330
2
100
AcDbEntity
  8
0
100
AcDbLine
 10
799.4759310264412
 20
94.64655809839735
 30
0.0
 11
772.4759310264412
 21
94.48947669350138
 31
0.0
  0
LINE
  5
1245
330
2
100
AcDbEntity
  8
0
100
AcDbLine
 10
801.4759310264448
 20
176.7163783581094
 30
0.0
 11
799.4759310264448
 21
178.6465580983939
 31
0.0
  0
LINE
  5
1246
330
2
100
AcDbEntity
  8
0
100
AcDbLine
 10
805.4759310264412
 20
176.6465580983967
 30
0.0
 11
801.4759310264448
 21
176.7163783581094
 31
0.0
  0
LINE
  5
1247
330
2
100
AcDbEntity
  8
0
100
AcDbLine
 10
750.4759310264412
 20
187.6465580983964
 30
0.0
 11
764.4846575619408
 21
187.5243057940044
 31
0.0
  0
LINE
  5
1248
330
2
100
AcDbEntity
  8
0
100
AcDbLine
 10
800.4757786991245
 20
178.6407411548001
 30
0.0
 11
772.4759310264412
 21
178.8036395032924
 31
0.0
  0
ARC
  5
1249
330
2
100
AcDbEntity
  8
0
100
AcDbCircle
 10
764.4759310264412
 20
186.5243438709402
 30
0.0
 40
1.0
100
AcDbArc
 50
0.0
 51
89.5000000000345
  0
ARC
  5
124A
330
2
100
AcDbEntity
  8
0
100
AcDbCircle
 10
764.475931026443
 20
86.76877232585377
 30
0.0
 40
1.0
100
AcDbArc
 50
270.4999999999654
 51
0.0
  0
LINE
  5
124B
330
2
100
AcDbEntity
  8
0
100
AcDbLine
 10
805.4759310264412
 20
176.6465580983967
 30
0.0
 11
805.4759310264412
 21
96.64655809839736
 31
0.0
  0
CIRCLE
  5
124C
330
2
100
AcDbEntity
  8
0
100
AcDbCircle
 10
999.0860087911411
 20
179.0765580983976
 30
0.0
 40
5.0
  0
CIRCLE
  5
124D
330
2
100
AcDbEntity
  8
0
100
AcDbCircle
 10
999.0860087911411
 20
179.0765580983976
 30
0.0
 40
4.307179676972423
  0
CIRCLE
  5
124E
330
2
100
AcDbEntity
  8
0
100
AcDbCircle
 10
999.0860087911411
 20
179.0765580983976
 30
0.0
 40
2.886751345948113
  0
LWPOLYLINE
  5
124F
330
2
100
AcDbEntity
  8
0
100
AcDbPolyline
 90
        6
 70
     1
 43
0.0
 10
1001.586008791141
 20
180.5199337713716
 10
999.0860087911411
 20
181.9633094443457
 10
996.586008791141
 20
180.5199337713716
 10
996.586008791141
 20
177.6331824254235
 10
999.0860087911411
 20
176.1898067524494
 10
1001.586008791141
 20
177.6331824254235
  0
CIRCLE
  5
1250
330
2
100
AcDbEntity
  8
0
100
AcDbCircle
 10
1083.946008791141
 20
179.0765580983976
 30
0.0
 40
5.0
  0
CIRCLE
  5
1251
330
2
100
AcDbEntity
  8
0
100
AcDbCircle
 10
1083.946008791141
 20
179.0765580983976
 30
0.0
 40
4.307179676972423
  0
CIRCLE
  5
1252
330
2
100
AcDbEntity
  8
0
100
AcDbCircle
 10
1083.946008791141
 20
179.0765580983976
 30
0.0
 40
2.886751345948113
  0
LWPOLYLINE
  5
1253
330
2
100
AcDbEntity
  8
0
100
AcDbPolyline
 90
        6
 70
     1
 43
0.0
 10
1086.446008791141
 20
180.5199337713716
 10
1083.946008791141
 20
181.9633094443457
 10
1081.446008791141
 20
180.5199337713716
 10
1081.446008791141
 20
177.6331824254235
 10
1083.946008791141
 20
176.1898067524494
 10
1086.446008791141
 20
177.6331824254235
  0
CIRCLE
  5
1254
330
2
100
AcDbEntity
  8
0
100
AcDbCircle
 10
1083.946008791141
 20
94.21655809839746
 30
0.0
 40
5.0
  0
CIRCLE
  5
1255
330
2
100
AcDbEntity
  8
0
100
AcDbCircle
 10
1083.946008791141
 20
94.21655809839746
 30
0.0
 40
4.307179676972423
  0
CIRCLE
  5
1256
330
2
100
AcDbEntity
  8
0
100
AcDbCircle
 10
1083.946008791141
 20
94.21655809839746
 30
0.0
 40
2.886751345948113
  0
LWPOLYLINE
  5
1257
330
2
100
AcDbEntity
  8
0
100
AcDbPolyline
 90
        6
 70
     1
 43
0.0
 10
1086.446008791141
 20
95.65993377137152
 10
1083.946008791141
 20
97.10330944434559
 10
1081.446008791141
 20
95.65993377137152
 10
1081.446008791141
 20
92.77318242542339
 10
1083.946008791141
 20
91.32980675244931
 10
1086.446008791141
 20
92.77318242542339
  0
CIRCLE
  5
1258
330
2
100
AcDbEntity
  8
0
100
AcDbCircle
 10
999.0860087911411
 20
94.21655809839746
 30
0.0
 40
5.0
  0
CIRCLE
  5
1259
330
2
100
AcDbEntity
  8
0
100
AcDbCircle
 10
999.0860087911411
 20
94.21655809839746
 30
0.0
 40
4.307179676972423
  0
CIRCLE
  5
125A
330
2
100
AcDbEntity
  8
0
100
AcDbCircle
 10
999.0860087911411
 20
94.21655809839746
 30
0.0
 40
2.886751345948113
  0
LWPOLYLINE
  5
125B
330
2
100
AcDbEntity
  8
0
100
AcDbPolyline
 90
        6
 70
     1
 43
0.0
 10
1001.586008791141
 20
95.65993377137152
 10
999.0860087911411
 20
97.10330944434559
 10
996.586008791141
 20
95.65993377137152
 10
996.586008791141
 20
92.77318242542339
 10
999.0860087911411
 20
91.32980675244931
 10
1001.586008791141
 20
92.77318242542339
  0
LINE
  5
125C
330
2
100
AcDbEntity
  8
0
100
AcDbLine
 10
772.0759310264416
 20
174.076558098397
 30
0.0
 11
772.4759310264412
 21
174.7693784214247
 31
0.0
  0
LINE
  5
125D
330
2
100
AcDbEntity
  8
0
100
AcDbLine
 10
772.0759310264416
 20
174.076558098397
 30
0.0
 11
772.0759310264416
 21
184.076558098397
 31
0.0
  0
LINE
  5
125E
330
2
100
AcDbEntity
  8
0
100
AcDbLine
 10
766.4759310264412
 20
174.076558098397
 30
0.0
 11
766.4759310264412
 21
184.076558098397
 31
0.0
  0
LINE
  5
125F
330
2
100
AcDbEntity
  8
0
100
AcDbLine
 10
766.4759310264412
 20
184.076558098397
 30
0.0
 11
765.4759310264412
 21
184.076558098397
 31
0.0
  0
LINE
  5
1260
330
2
100
AcDbEntity
  8
0
100
AcDbLine
 10
765.4759310264412
 20
184.076558098397
 30
0.0
 11
765.4759310264412
 21
174.076558098397
 31
0.0
  0
LINE
  5
1261
330
2
100
AcDbEntity
  8
0
100
AcDbLine
 10
765.4759310264412
 20
174.076558098397
 30
0.0
 11
766.4759310264412
 21
174.076558098397
 31
0.0
  0
LINE
  5
1262
330
2
100
AcDbEntity
  8
0
100
AcDbLine
 10
766.4759310264412
 20
174.076558098397
 30
0.0
 11
766.4759310264412
 21
184.076558098397
 31
0.0
  0
LINE
  5
1263
330
2
100
AcDbEntity
  8
0
100
AcDbLine
 10
772.0759310264416
 20
174.076558098397
 30
0.0
 11
766.4759310264412
 21
174.076558098397
 31
0.0
  0
LINE
  5
1264
330
2
100
AcDbEntity
  8
0
100
AcDbLine
 10
772.4759310264412
 20
183.3837377753697
 30
0.0
 11
772.4759310264412
 21
174.7693784214247
 31
0.0
  0
LINE
  5
1265
330
2
100
AcDbEntity
  8
0
100
AcDbLine
 10
766.4759310264412
 20
184.076558098397
 30
0.0
 11
772.0759310264416
 21
184.076558098397
 31
0.0
  0
LINE
  5
1266
330
2
100
AcDbEntity
  8
0
100
AcDbLine
 10
772.0759310264416
 20
184.0765580983972
 30
0.0
 11
772.4759310264412
 21
183.3837377753697
 31
0.0
  0
LINE
  5
1267
330
2
100
AcDbEntity
  8
CENTER
  6
CENS
100
AcDbLine
 10
745.4759310264412
 20
179.076558098397
 30
0.0
 11
777.4759310264412
 21
179.076558098397
 31
0.0
  0
LINE
  5
1268
330
2
100
AcDbEntity
  8
0
100
AcDbLine
 10
772.0759310264416
 20
99.21655809839705
 30
0.0
 11
772.4759310264412
 21
98.52373777536934
 31
0.0
  0
LINE
  5
1269
330
2
100
AcDbEntity
  8
0
100
AcDbLine
 10
772.0759310264416
 20
99.21655809839705
 30
0.0
 11
772.0759310264416
 21
89.21655809839705
 31
0.0
  0
LINE
  5
126A
330
2
100
AcDbEntity
  8
0
100
AcDbLine
 10
766.4759310264412
 20
99.21655809839705
 30
0.0
 11
766.4759310264412
 21
89.21655809839705
 31
0.0
  0
LINE
  5
126B
330
2
100
AcDbEntity
  8
0
100
AcDbLine
 10
766.4759310264412
 20
89.21655809839705
 30
0.0
 11
765.4759310264412
 21
89.21655809839705
 31
0.0
  0
LINE
  5
126C
330
2
100
AcDbEntity
  8
0
100
AcDbLine
 10
765.4759310264412
 20
89.21655809839705
 30
0.0
 11
765.4759310264412
 21
99.21655809839705
 31
0.0
  0
LINE
  5
126D
330
2
100
AcDbEntity
  8
0
100
AcDbLine
 10
765.4759310264412
 20
99.21655809839705
 30
0.0
 11
766.4759310264412
 21
99.21655809839705
 31
0.0
  0
LINE
  5
126E
330
2
100
AcDbEntity
  8
0
100
AcDbLine
 10
766.4759310264412
 20
99.21655809839705
 30
0.0
 11
766.4759310264412
 21
89.21655809839705
 31
0.0
  0
LINE
  5
126F
330
2
100
AcDbEntity
  8
0
100
AcDbLine
 10
772.0759310264416
 20
99.21655809839705
 30
0.0
 11
766.4759310264412
 21
99.21655809839705
 31
0.0
  0
LINE
  5
1270
330
2
100
AcDbEntity
  8
0
100
AcDbLine
 10
772.4759310264412
 20
89.90937842142432
 30
0.0
 11
772.4759310264412
 21
98.52373777536934
 31
0.0
  0
LINE
  5
1271
330
2
100
AcDbEntity
  8
0
100
AcDbLine
 10
766.4759310264412
 20
89.21655809839705
 30
0.0
 11
772.0759310264416
 21
89.21655809839705
 31
0.0
  0
LINE
  5
1272
330
2
100
AcDbEntity
  8
0
100
AcDbLine
 10
772.0759310264416
 20
89.21655809839682
 30
0.0
 11
772.4759310264412
 21
89.90937842142432
 31
0.0
  0
LINE
  5
1273
330
2
100
AcDbEntity
  8
CENTER
  6
CENS
100
AcDbLine
 10
745.4759310264412
 20
94.21655809839705
 30
0.0
 11
777.4759310264412
 21
94.21655809839705
 31
0.0
  0
LINE
  5
1274
330
2
100
AcDbEntity
  8
0
100
AcDbLine
 10
772.0759310264421
 20
421.5444109531554
 30
0.0
 11
772.4759310264418
 21
420.8515906301276
 31
0.0
  0
LINE
  5
1275
330
2
100
AcDbEntity
  8
0
100
AcDbLine
 10
772.0759310264421
 20
421.5444109531554
 30
0.0
 11
772.0759310264421
 21
411.5444109531554
 31
0.0
  0
LINE
  5
1276
330
2
100
AcDbEntity
  8
0
100
AcDbLine
 10
766.4759310264417
 20
421.5444109531554
 30
0.0
 11
766.4759310264417
 21
411.5444109531554
 31
0.0
  0
LINE
  5
1277
330
2
100
AcDbEntity
  8
0
100
AcDbLine
 10
766.4759310264417
 20
411.5444109531554
 30
0.0
 11
765.4759310264418
 21
411.5444109531554
 31
0.0
  0
LINE
  5
1278
330
2
100
AcDbEntity
  8
0
100
AcDbLine
 10
765.4759310264418
 20
411.5444109531554
 30
0.0
 11
765.4759310264418
 21
421.5444109531554
 31
0.0
  0
LINE
  5
1279
330
2
100
AcDbEntity
  8
0
100
AcDbLine
 10
765.4759310264418
 20
421.5444109531554
 30
0.0
 11
766.4759310264417
 21
421.5444109531554
 31
0.0
  0
LINE
  5
127A
330
2
100
AcDbEntity
  8
0
100
AcDbLine
 10
766.4759310264417
 20
421.5444109531554
 30
0.0
 11
766.4759310264417
 21
411.5444109531554
 31
0.0
  0
LINE
  5
127B
330
2
100
AcDbEntity
  8
0
100
AcDbLine
 10
772.0759310264421
 20
421.5444109531554
 30
0.0
 11
766.4759310264417
 21
421.5444109531554
 31
0.0
  0
LINE
  5
127C
330
2
100
AcDbEntity
  8
0
100
AcDbLine
 10
772.4759310264418
 20
412.2372312761826
 30
0.0
 11
772.4759310264418
 21
420.8515906301276
 31
0.0
  0
LINE
  5
127D
330
2
100
AcDbEntity
  8
0
100
AcDbLine
 10
766.4759310264417
 20
411.5444109531554
 30
0.0
 11
772.0759310264421
 21
411.5444109531554
 31
0.0
  0
LINE
  5
127E
330
2
100
AcDbEntity
  8
0
100
AcDbLine
 10
772.0759310264421
 20
411.544410953155
 30
0.0
 11
772.4759310264418
 21
412.2372312761826
 31
0.0
  0
LINE
  5
127F
330
2
100
AcDbEntity
  8
CENTER
  6
CENS
100
AcDbLine
 10
745.4759310264417
 20
416.5444109531554
 30
0.0
 11
777.4759310264418
 21
416.5444109531554
 31
0.0
  0
LINE
  5
1280
330
2
100
AcDbEntity
  8
0
100
AcDbLine
 10
772.0759310264421
 20
496.4044109531551
 30
0.0
 11
772.4759310264418
 21
497.0972312761828
 31
0.0
  0
LINE
  5
1281
330
2
100
AcDbEntity
  8
0
100
AcDbLine
 10
772.0759310264421
 20
496.4044109531551
 30
0.0
 11
772.0759310264421
 21
506.404410953155
 31
0.0
  0
LINE
  5
1282
330
2
100
AcDbEntity
  8
0
100
AcDbLine
 10
766.4759310264417
 20
496.4044109531551
 30
0.0
 11
766.4759310264417
 21
506.404410953155
 31
0.0
  0
LINE
  5
1283
330
2
100
AcDbEntity
  8
0
100
AcDbLine
 10
766.4759310264417
 20
506.404410953155
 30
0.0
 11
765.4759310264418
 21
506.404410953155
 31
0.0
  0
LINE
  5
1284
330
2
100
AcDbEntity
  8
0
100
AcDbLine
 10
765.4759310264418
 20
506.404410953155
 30
0.0
 11
765.4759310264418
 21
496.4044109531551
 31
0.0
  0
LINE
  5
1285
330
2
100
AcDbEntity
  8
0
100
AcDbLine
 10
765.4759310264418
 20
496.4044109531551
 30
0.0
 11
766.4759310264417
 21
496.4044109531551
 31
0.0
  0
LINE
  5
1286
330
2
100
AcDbEntity
  8
0
100
AcDbLine
 10
766.4759310264417
 20
496.4044109531551
 30
0.0
 11
766.4759310264417
 21
506.404410953155
 31
0.0
  0
LINE
  5
1287
330
2
100
AcDbEntity
  8
0
100
AcDbLine
 10
772.0759310264421
 20
496.4044109531551
 30
0.0
 11
766.4759310264417
 21
496.4044109531551
 31
0.0
  0
LINE
  5
1288
330
2
100
AcDbEntity
  8
0
100
AcDbLine
 10
772.4759310264418
 20
505.7115906301278
 30
0.0
 11
772.4759310264418
 21
497.0972312761828
 31
0.0
  0
LINE
  5
1289
330
2
100
AcDbEntity
  8
0
100
AcDbLine
 10
766.4759310264417
 20
506.404410953155
 30
0.0
 11
772.0759310264421
 21
506.404410953155
 31
0.0
  0
LINE
  5
128A
330
2
100
AcDbEntity
  8
0
100
AcDbLine
 10
772.0759310264421
 20
506.4044109531555
 30
0.0
 11
772.4759310264418
 21
505.7115906301278
 31
0.0
  0
LINE
  5
128B
330
2
100
AcDbEntity
  8
CENTER
  6
CENS
100
AcDbLine
 10
745.4759310264417
 20
501.4044109531551
 30
0.0
 11
777.4759310264418
 21
501.4044109531551
 31
0.0
  0
LINE
  5
128C
330
2
100
AcDbEntity
  8
0
100
AcDbLine
 10
796.4988863133307
 20
182.6642366179537
 30
0.0
 11
786.4990521770574
 21
182.7218321648337
 31
0.0
  0
ARC
  5
128D
330
2
100
AcDbEntity
  8
0
100
AcDbCircle
 10
786.4760139583045
 20
178.7218985103242
 30
0.0
 40
4.000000000000014
100
AcDbArc
 50
89.67000000001375
 51
179.6700000000007
  0
ARC
  5
128E
330
2
100
AcDbEntity
  8
0
100
AcDbCircle
 10
796.4758480945779
 20
178.6643029634444
 30
0.0
 40
4.000000000000014
100
AcDbArc
 50
359.6700000000007
 51
89.67000000001375
  0
LINE
  5
128F
330
2
100
AcDbEntity
  8
CENTER
  6
CENS
100
AcDbLine
 10
791.4759310264412
 20
187.5889579719147
 30
0.0
 11
791.4759310264412
 21
164.2290319695479
 31
0.0
  0
CIRCLE
  5
1290
330
2
100
AcDbEntity
  8
0
100
AcDbCircle
 10
791.4759310264417
 20
443.9744109531552
 30
0.0
 40
9.0
  0
LINE
  5
1291
330
2
100
AcDbEntity
  8
CENTER
  6
CENS
100
AcDbLine
 10
791.4759310264381
 20
432.0954810541612
 30
0.0
 11
791.4759310264381
 21
455.8533408521493
 31
0.0
  0
LINE
  5
1292
330
2
100
AcDbEntity
  8
CENTER
  6
CENS
100
AcDbLine
 10
803.3548609254323
 20
443.9744109531552
 30
0.0
 11
779.597001127444
 21
443.9744109531552
 31
0.0
  0
LINE
  5
1293
330
2
100
AcDbEntity
  8
0
100
AcDbLine
 10
805.4759310264412
 20
171.6465580983971
 30
0.0
 11
798.4759310264412
 21
171.6465580983969
 31
0.0
  0
LINE
  5
1294
330
2
100
AcDbEntity
  8
0
100
AcDbLine
 10
798.4759310264412
 20
171.6465580983969
 30
0.0
 11
798.4759310264412
 21
136.6465580983968
 31
0.0
  0
LINE
  5
1295
330
2
100
AcDbEntity
  8
0
100
AcDbLine
 10
798.4759310264412
 20
156.3965580983968
 30
0.0
 11
798.475931026443
 21
136.6465580983968
 31
0.0
  0
LINE
  5
1296
330
2
100
AcDbEntity
  8
0
100
AcDbLine
 10
798.4759310264412
 20
156.3965580983968
 30
0.0
 11
788.7381264559239
 21
156.3965580983968
 31
0.0
  0
SPLINE
  5
1297
330
2
100
AcDbEntity
  8
HOJO
100
AcDbSpline
210
0.0
220
0.0
230
1.0
 70
     8
 71
     3
 72
    20
 73
    16
 74
     0
 42
0.0000000001
 43
0.0000000001
 40
1.221331719906463
 40
1.221331719906463
 40
1.221331719906463
 40
1.221331719906463
 40
5.647385924430076
 40
9.759277458584113
 40
14.59638394258456
 40
18.6386056126129
 40
22.25598020257161
 40
26.57819511411361
 40
31.00332353479096
 40
40.39337194914635
 40
45.49899296170218
 40
52.02718752358933
 40
57.17041693382338
 40
65.63449353306062
 40
69.3611614947018
 40
69.3611614947018
 40
69.3611614947018
 40
69.3611614947018
 10
801.7764135834708
 20
176.7111334155666
 30
0.0
 10
800.409253379879
 20
175.8758602023282
 30
0.0
 10
797.9535816489474
 20
174.3472375567652
 30
0.0
 10
796.6442832204697
 20
169.8228953691961
 30
0.0
 10
795.4943738949219
 20
166.4313258746775
 30
0.0
 10
792.006617482933
 20
162.7575606634333
 30
0.0
 10
790.3347823065701
 20
159.2322005334541
 30
0.0
 10
788.3575357461154
 20
155.6814838359592
 30
0.0
 10
784.9697544335517
 20
150.0924392475052
 30
0.0
 10
777.4453953892366
 20
150.2680156950965
 30
0.0
 10
770.717056032588
 20
149.1216451615988
 30
0.0
 10
765.3737894871806
 20
147.4030330571182
 30
0.0
 10
758.3750089727941
 20
147.0668617723948
 30
0.0
 10
754.6602761735698
 20
141.5808674404398
 30
0.0
 10
753.3384347347741
 20
137.8109609472636
 30
0.0
 10
752.925761961665
 20
136.6465580983968
 30
0.0
  0
LINE
  5
1298
330
2
100
AcDbEntity
  8
CENTER
  6
CENS
100
AcDbLine
 10
1026.516008791141
 20
187.5889579719151
 30
0.0
 11
1026.516008791141
 21
120.7988929408678
 31
0.0
  0
LINE
  5
1299
330
2
100
AcDbEntity
  8
0
100
AcDbLine
 10
1021.780254435151
 20
135.8965580983972
 30
0.0
 11
1032.045660328703
 21
135.8965580983972
 31
0.0
  0
LINE
  5
129A
330
2
100
AcDbEntity
  8
0
100
AcDbLine
 10
1021.780254435151
 20
137.3965580983973
 30
0.0
 11
1032.045660328703
 21
137.3965580983975
 31
0.0
  0
LINE
  5
129B
330
2
100
AcDbEntity
  8
0
100
AcDbLine
 10
1058.71600879114
 20
135.8965580983972
 30
0.0
 11
1058.71600879114
 21
137.3965580983973
 31
0.0
  0
LINE
  5
129C
330
2
100
AcDbEntity
  8
0
100
AcDbLine
 10
1050.986357253579
 20
135.8965580983972
 30
0.0
 11
1058.71600879114
 21
135.8965580983972
 31
0.0
  0
LINE
  5
129D
330
2
100
AcDbEntity
  8
0
100
AcDbLine
 10
1050.986357253579
 20
137.3965580983973
 30
0.0
 11
1058.71600879114
 21
137.3965580983973
 31
0.0
  0
LINE
  5
129E
330
2
100
AcDbEntity
  8
HIDS
100
AcDbLine
 10
1029.016008791141
 20
135.8965580983972
 30
0.0
 11
1029.016008791141
 21
121.3556294150244
 31
0.0
  0
LINE
  5
129F
330
2
100
AcDbEntity
  8
HIDS
100
AcDbLine
 10
1024.432675457807
 20
135.8965580983972
 30
0.0
 11
1024.432675457807
 21
126.7358456001848
 31
0.0
  0
LINE
  5
12A0
330
2
100
AcDbEntity
  8
HIDS
100
AcDbLine
 10
1024.016008791141
 20
135.8965580983972
 30
0.0
 11
1024.016008791141
 21
127.4916413865972
 31
0.0
  0
LINE
  5
12A1
330
2
100
AcDbEntity
  8
HIDS
100
AcDbLine
 10
1029.516008791141
 20
141.6465580983973
 30
0.0
 11
1029.516008791141
 21
137.3965580983973
 31
0.0
  0
LINE
  5
12A2
330
2
100
AcDbEntity
  8
HIDS
100
AcDbLine
 10
1023.516008791141
 20
141.6465580983973
 30
0.0
 11
1023.516008791141
 21
137.3965580983973
 31
0.0
  0
LINE
  5
12A3
330
2
100
AcDbEntity
  8
HIDS
100
AcDbLine
 10
1030.766008791141
 20
141.6465580983973
 30
0.0
 11
1030.766008791141
 21
146.3465580983973
 31
0.0
  0
LINE
  5
12A4
330
2
100
AcDbEntity
  8
0
100
AcDbLine
 10
1022.266008791141
 20
146.3465580983973
 30
0.0
 11
1022.266008791141
 21
141.6465580983973
 31
0.0
  0
LINE
  5
12A5
330
2
100
AcDbEntity
  8
HIDS
100
AcDbLine
 10
1029.016008791141
 20
127.6465580983972
 30
0.0
 11
1028.016008791141
 21
126.6465580983972
 31
0.0
  0
LINE
  5
12A6
330
2
100
AcDbEntity
  8
HIDS
100
AcDbLine
 10
1024.016008791141
 20
127.6465580983972
 30
0.0
 11
1025.016008791141
 21
126.6465580983972
 31
0.0
  0
LINE
  5
12A7
330
2
100
AcDbEntity
  8
HIDS
100
AcDbLine
 10
1028.016008791141
 20
126.6465580983972
 30
0.0
 11
1025.016008791141
 21
126.6465580983972
 31
0.0
  0
LINE
  5
12A8
330
2
100
AcDbEntity
  8
HIDS
100
AcDbLine
 10
1029.016008791141
 20
141.6465580983973
 30
0.0
 11
1029.016008791141
 21
137.3965580983973
 31
0.0
  0
LINE
  5
12A9
330
2
100
AcDbEntity
  8
HIDS
100
AcDbLine
 10
1028.599342124475
 20
139.563224765064
 30
0.0
 11
1028.599342124475
 21
137.3965580983973
 31
0.0
  0
LINE
  5
12AA
330
2
100
AcDbEntity
  8
HIDS
100
AcDbLine
 10
1024.432675457807
 20
139.563224765064
 30
0.0
 11
1024.432675457807
 21
137.3965580983973
 31
0.0
  0
LINE
  5
12AB
330
2
100
AcDbEntity
  8
HIDS
100
AcDbLine
 10
1024.016008791141
 20
141.6465580983973
 30
0.0
 11
1024.016008791141
 21
137.3965580983973
 31
0.0
  0
LINE
  5
12AC
330
2
100
AcDbEntity
  8
HIDS
100
AcDbLine
 10
1029.016008791141
 20
127.6465580983972
 30
0.0
 11
1024.016008791141
 21
127.6465580983972
 31
0.0
  0
LINE
  5
12AD
330
2
100
AcDbEntity
  8
HIDS
100
AcDbLine
 10
1029.016008791141
 20
139.563224765064
 30
0.0
 11
1024.016008791141
 21
139.563224765064
 31
0.0
  0
LINE
  5
12AE
330
2
100
AcDbEntity
  8
0
100
AcDbLine
 10
1022.266008791141
 20
141.6465580983973
 30
0.0
 11
1022.409399986857
 21
141.6465580983973
 31
0.0
  0
LINE
  5
12AF
330
2
100
AcDbEntity
  8
HIDS
100
AcDbLine
 10
1024.016008791141
 20
141.6465580983973
 30
0.0
 11
1024.432675457807
 21
139.563224765064
 31
0.0
  0
LINE
  5
12B0
330
2
100
AcDbEntity
  8
HIDS
100
AcDbLine
 10
1029.016008791141
 20
141.6465580983973
 30
0.0
 11
1028.599342124475
 21
139.563224765064
 31
0.0
  0
LINE
  5
12B1
330
2
100
AcDbEntity
  8
0
100
AcDbLine
 10
1022.266008791141
 20
146.3465580983973
 30
0.0
 11
1024.312157478136
 21
146.3465580983973
 31
0.0
  0
LINE
  5
12B2
330
2
100
AcDbEntity
  8
HIDS
100
AcDbLine
 10
1030.24639354887
 20
146.6465580983973
 30
0.0
 11
1024.48478746089
 21
146.6465580983973
 31
0.0
  0
LINE
  5
12B3
330
2
100
AcDbEntity
  8
0
100
AcDbLine
 10
1022.266008791141
 20
146.3465580983973
 30
0.0
 11
1022.785624033411
 21
146.6465580983973
 31
0.0
  0
LINE
  5
12B4
330
2
100
AcDbEntity
  8
HIDS
100
AcDbLine
 10
1030.24639354887
 20
146.6465580983973
 30
0.0
 11
1030.766008791141
 21
146.3465580983973
 31
0.0
  0
LINE
  5
12B5
330
2
100
AcDbEntity
  8
HIDS
100
AcDbLine
 10
1022.409399986857
 20
141.6465580983973
 30
0.0
 11
1031.516008791141
 21
141.6465580983973
 31
0.0
  0
LINE
  5
12B6
330
2
100
AcDbEntity
  8
0
100
AcDbLine
 10
1024.48478746089
 20
146.6465580983973
 30
0.0
 11
1022.785624033411
 21
146.6465580983973
 31
0.0
  0
LINE
  5
12B7
330
2
100
AcDbEntity
  8
HIDS
100
AcDbLine
 10
1024.312157478136
 20
146.3465580983973
 30
0.0
 11
1030.766008791141
 21
146.3465580983975
 31
0.0
  0
LINE
  5
12B8
330
2
100
AcDbEntity
  8
0
100
AcDbLine
 10
1029.016008791141
 20
137.3965580983973
 30
0.0
 11
1029.016008791141
 21
135.8965580983975
 31
0.0
  0
LINE
  5
12B9
330
2
100
AcDbEntity
  8
HOJO
100
AcDbLine
 10
1028.599342124475
 20
137.3965580983973
 30
0.0
 11
1028.599342124475
 21
135.8965580983975
 31
0.0
  0
LINE
  5
12BA
330
2
100
AcDbEntity
  8
HOJO
100
AcDbLine
 10
1024.432675457807
 20
137.3965580983973
 30
0.0
 11
1024.432675457807
 21
135.8965580983975
 31
0.0
  0
LINE
  5
12BB
330
2
100
AcDbEntity
  8
0
100
AcDbLine
 10
1024.016008791141
 20
137.3965580983973
 30
0.0
 11
1024.016008791141
 21
135.8965580983972
 31
0.0
  0
LINE
  5
12BC
330
2
100
AcDbEntity
  8
HIDS
100
AcDbLine
 10
1024.016008791141
 20
135.8965580983972
 30
0.0
 11
1024.016008791141
 21
127.6465580983972
 31
0.0
  0
LINE
  5
12BD
330
2
100
AcDbEntity
  8
HIDS
100
AcDbLine
 10
1028.599342124475
 20
135.8965580983972
 30
0.0
 11
1028.599342124475
 21
127.2298914317307
 31
0.0
  0
LINE
  5
12BE
330
2
100
AcDbEntity
  8
HIDS
100
AcDbLine
 10
1024.432675457807
 20
135.8965580983972
 30
0.0
 11
1024.432675457807
 21
127.2298914317307
 31
0.0
  0
CIRCLE
  5
12BF
330
2
100
AcDbEntity
  8
0
100
AcDbCircle
 10
1041.516008791141
 20
136.6465580983972
 30
0.0
 40
19.75
  0
LINE
  5
12C1
330
2
100
AcDbEntity
  8
0
100
AcDbLine
 10
1021.641009814594
 20
182.7218321648341
 30
0.0
 11
1031.391009814593
 21
182.7218321648341
 31
0.0
  0
ARC
  5
12C2
330
2
100
AcDbEntity
  8
0
100
AcDbCircle
 10
1021.641009814594
 20
178.4718321648341
 30
0.0
 40
4.25
100
AcDbArc
 50
90.0
 51
177.6437927484598
  0
ARC
  5
12C3
330
2
100
AcDbEntity
  8
0
100
AcDbCircle
 10
1031.141009814594
 20
178.4718321648341
 30
0.0
 40
4.25
100
AcDbArc
 50
2.356207251540161
 51
90.0
  0
LINE
  5
12C4
330
2
100
AcDbEntity
  8
0
100
AcDbLine
 10
60.41773900683475
 20
178.6465580983941
 30
0.0
 11
60.41773900683475
 21
94.64655809840047
 31
0.0
  0
LINE
  5
12C5
330
2
100
AcDbEntity
  8
0
100
AcDbLine
 10
58.41773900683475
 20
176.7163783581096
 30
0.0
 11
58.41773900683657
 21
96.57673783868455
 31
0.0
  0
LINE
  5
12C6
330
2
100
AcDbEntity
  8
0
100
AcDbLine
 10
94.41773900683566
 20
186.5243438709404
 30
0.0
 11
94.41773900683656
 21
86.76877232585395
 31
0.0
  0
LINE
  5
12C7
330
2
100
AcDbEntity
  8
0
100
AcDbLine
 10
58.41773900683657
 20
96.57673783868478
 30
0.0
 11
60.41773900683839
 21
94.64655809839753
 31
0.0
  0
LINE
  5
12C8
330
2
100
AcDbEntity
  8
0
100
AcDbLine
 10
54.41773900683839
 20
96.64655809839752
 30
0.0
 11
58.41773900683657
 21
96.57673783868478
 31
0.0
  0
LINE
  5
12C9
330
2
100
AcDbEntity
  8
0
100
AcDbLine
 10
109.4177390068383
 20
85.64655809839752
 30
0.0
 11
95.40901247133879
 21
85.7688104027896
 31
0.0
  0
LINE
  5
12CA
330
2
100
AcDbEntity
  8
0
100
AcDbLine
 10
60.41773900683839
 20
94.64655809839753
 30
0.0
 11
87.41773900683838
 21
94.48947669350156
 31
0.0
  0
LINE
  5
12CB
330
2
100
AcDbEntity
  8
0
100
AcDbLine
 10
58.41773900683475
 20
176.7163783581096
 30
0.0
 11
60.41773900683475
 21
178.6465580983941
 31
0.0
  0
LINE
  5
12CC
330
2
100
AcDbEntity
  8
0
100
AcDbLine
 10
54.41773900683839
 20
176.6465580983968
 30
0.0
 11
58.41773900683475
 21
176.7163783581096
 31
0.0
  0
LINE
  5
12CD
330
2
100
AcDbEntity
  8
0
100
AcDbLine
 10
109.4177390068383
 20
187.6465580983966
 30
0.0
 11
95.40901247133879
 21
187.5243057940045
 31
0.0
  0
LINE
  5
12CE
330
2
100
AcDbEntity
  8
0
100
AcDbLine
 10
59.41789133415515
 20
178.6407411548003
 30
0.0
 11
87.41773900683838
 21
178.8036395032926
 31
0.0
  0
ARC
  5
12CF
330
2
100
AcDbEntity
  8
0
100
AcDbCircle
 10
95.41773900683839
 20
186.5243438709404
 30
0.0
 40
1.0
100
AcDbArc
 50
90.49999999996549
 51
180.0
  0
ARC
  5
12D0
330
2
100
AcDbEntity
  8
0
100
AcDbCircle
 10
95.41773900683656
 20
86.76877232585395
 30
0.0
 40
1.0
100
AcDbArc
 50
180.0
 51
269.5000000000345
  0
LINE
  5
12D1
330
2
100
AcDbEntity
  8
0
100
AcDbLine
 10
54.41773900683839
 20
176.6465580983968
 30
0.0
 11
54.41773900683839
 21
96.64655809839752
 31
0.0
  0
LINE
  5
12D2
330
2
100
AcDbEntity
  8
0
100
AcDbLine
 10
87.81773900683802
 20
174.0765580983971
 30
0.0
 11
87.41773900683838
 21
174.7693784214249
 31
0.0
  0
LINE
  5
12D3
330
2
100
AcDbEntity
  8
0
100
AcDbLine
 10
87.81773900683802
 20
174.0765580983971
 30
0.0
 11
87.81773900683802
 21
184.0765580983971
 31
0.0
  0
LINE
  5
12D4
330
2
100
AcDbEntity
  8
0
100
AcDbLine
 10
93.41773900683838
 20
174.0765580983971
 30
0.0
 11
93.41773900683838
 21
184.0765580983971
 31
0.0
  0
LINE
  5
12D5
330
2
100
AcDbEntity
  8
0
100
AcDbLine
 10
93.41773900683838
 20
184.0765580983971
 30
0.0
 11
94.41773900683839
 21
184.0765580983971
 31
0.0
  0
LINE
  5
12D6
330
2
100
AcDbEntity
  8
0
100
AcDbLine
 10
94.41773900683839
 20
184.0765580983971
 30
0.0
 11
94.41773900683839
 21
174.0765580983971
 31
0.0
  0
LINE
  5
12D7
330
2
100
AcDbEntity
  8
0
100
AcDbLine
 10
94.41773900683839
 20
174.0765580983971
 30
0.0
 11
93.41773900683838
 21
174.0765580983971
 31
0.0
  0
LINE
  5
12D8
330
2
100
AcDbEntity
  8
0
100
AcDbLine
 10
93.41773900683838
 20
174.0765580983971
 30
0.0
 11
93.41773900683838
 21
184.0765580983971
 31
0.0
  0
LINE
  5
12D9
330
2
100
AcDbEntity
  8
0
100
AcDbLine
 10
87.81773900683802
 20
174.0765580983971
 30
0.0
 11
93.41773900683838
 21
174.0765580983971
 31
0.0
  0
LINE
  5
12DA
330
2
100
AcDbEntity
  8
0
100
AcDbLine
 10
87.41773900683838
 20
183.3837377753699
 30
0.0
 11
87.41773900683838
 21
174.7693784214249
 31
0.0
  0
LINE
  5
12DB
330
2
100
AcDbEntity
  8
0
100
AcDbLine
 10
93.41773900683838
 20
184.0765580983971
 30
0.0
 11
87.81773900683802
 21
184.0765580983971
 31
0.0
  0
LINE
  5
12DC
330
2
100
AcDbEntity
  8
0
100
AcDbLine
 10
87.81773900683802
 20
184.0765580983974
 30
0.0
 11
87.41773900683838
 21
183.3837377753699
 31
0.0
  0
LINE
  5
12DD
330
2
100
AcDbEntity
  8
CENTER
  6
CENS
100
AcDbLine
 10
114.4177390068383
 20
179.0765580983971
 30
0.0
 11
82.41773900683838
 21
179.0765580983971
 31
0.0
  0
LINE
  5
12DE
330
2
100
AcDbEntity
  8
0
100
AcDbLine
 10
87.81773900683802
 20
99.21655809839723
 30
0.0
 11
87.41773900683838
 21
98.52373777536952
 31
0.0
  0
LINE
  5
12DF
330
2
100
AcDbEntity
  8
0
100
AcDbLine
 10
87.81773900683802
 20
99.21655809839723
 30
0.0
 11
87.81773900683802
 21
89.21655809839723
 31
0.0
  0
LINE
  5
12E0
330
2
100
AcDbEntity
  8
0
100
AcDbLine
 10
93.41773900683838
 20
99.21655809839723
 30
0.0
 11
93.41773900683838
 21
89.21655809839723
 31
0.0
  0
LINE
  5
12E1
330
2
100
AcDbEntity
  8
0
100
AcDbLine
 10
93.41773900683838
 20
89.21655809839723
 30
0.0
 11
94.41773900683839
 21
89.21655809839723
 31
0.0
  0
LINE
  5
12E2
330
2
100
AcDbEntity
  8
0
100
AcDbLine
 10
94.41773900683839
 20
89.21655809839723
 30
0.0
 11
94.41773900683839
 21
99.21655809839723
 31
0.0
  0
LINE
  5
12E3
330
2
100
AcDbEntity
  8
0
100
AcDbLine
 10
94.41773900683839
 20
99.21655809839723
 30
0.0
 11
93.41773900683838
 21
99.21655809839723
 31
0.0
  0
LINE
  5
12E4
330
2
100
AcDbEntity
  8
0
100
AcDbLine
 10
93.41773900683838
 20
99.21655809839723
 30
0.0
 11
93.41773900683838
 21
89.21655809839723
 31
0.0
  0
LINE
  5
12E5
330
2
100
AcDbEntity
  8
0
100
AcDbLine
 10
87.81773900683802
 20
99.21655809839723
 30
0.0
 11
93.41773900683838
 21
99.21655809839723
 31
0.0
  0
LINE
  5
12E6
330
2
100
AcDbEntity
  8
0
100
AcDbLine
 10
87.41773900683838
 20
89.90937842142448
 30
0.0
 11
87.41773900683838
 21
98.52373777536952
 31
0.0
  0
LINE
  5
12E7
330
2
100
AcDbEntity
  8
0
100
AcDbLine
 10
93.41773900683838
 20
89.21655809839723
 30
0.0
 11
87.81773900683802
 21
89.21655809839723
 31
0.0
  0
LINE
  5
12E8
330
2
100
AcDbEntity
  8
0
100
AcDbLine
 10
87.81773900683802
 20
89.216558098397
 30
0.0
 11
87.41773900683838
 21
89.90937842142448
 31
0.0
  0
LINE
  5
12E9
330
2
100
AcDbEntity
  8
CENTER
  6
CENS
100
AcDbLine
 10
114.4177390068383
 20
94.21655809839723
 30
0.0
 11
82.41773900683838
 21
94.21655809839723
 31
0.0
  0
LINE
  5
12EA
330
2
100
AcDbEntity
  8
0
100
AcDbLine
 10
63.39478371994883
 20
182.6642366179538
 30
0.0
 11
73.39461785622225
 21
182.7218321648339
 31
0.0
  0
ARC
  5
12EB
330
2
100
AcDbEntity
  8
0
100
AcDbCircle
 10
73.4176560749751
 20
178.7218985103244
 30
0.0
 40
4.000000000000014
100
AcDbArc
 50
0.32999999999927
 51
90.32999999998624
  0
ARC
  5
12EC
330
2
100
AcDbEntity
  8
0
100
AcDbCircle
 10
63.41782193870168
 20
178.6643029634445
 30
0.0
 40
4.000000000000014
100
AcDbArc
 50
90.32999999998624
 51
180.3299999999993
  0
LINE
  5
12ED
330
2
100
AcDbEntity
  8
CENTER
  6
CENS
100
AcDbLine
 10
68.41773900683839
 20
187.5889579719149
 30
0.0
 11
68.41773900683839
 21
164.229031969548
 31
0.0
  0
LINE
  5
12EE
330
2
100
AcDbEntity
  8
0
100
AcDbLine
 10
798.4759310264412
 20
171.6465580983969
 30
0.0
 11
798.4759310264412
 21
136.6465580983968
 31
0.0
  0
LINE
  5
12EF
330
2
100
AcDbEntity
  8
0
100
AcDbLine
 10
798.4759310264412
 20
156.3965580983968
 30
0.0
 11
798.4759310264412
 21
136.6465580983968
 31
0.0
  0
LINE
  5
12F0
330
2
100
AcDbEntity
  8
0
100
AcDbLine
 10
796.4759310264412
 20
146.1465580983968
 30
0.0
 11
785.4759310264412
 21
146.1465580983971
 31
0.0
  0
LINE
  5
12F1
330
2
100
AcDbEntity
  8
0
100
AcDbLine
 10
766.9759310264412
 20
146.3965580983968
 30
0.0
 11
766.9759310264412
 21
136.6465580983968
 31
0.0
  0
LINE
  5
12F2
330
2
100
AcDbEntity
  8
0
100
AcDbLine
 10
766.9759310264412
 20
146.3965580983968
 30
0.0
 11
760.9759310264412
 21
146.3965580983968
 31
0.0
  0
LINE
  5
12F3
330
2
100
AcDbEntity
  8
0
100
AcDbLine
 10
760.9759310264412
 20
146.3965580983968
 30
0.0
 11
760.9759310264412
 21
136.6465580983968
 31
0.0
  0
LINE
  5
12F4
330
2
100
AcDbEntity
  8
0
100
AcDbLine
 10
783.4759310264412
 20
150.9219683190921
 30
0.0
 11
783.4759310264412
 21
136.6465580983968
 31
0.0
  0
LINE
  5
12F5
330
2
100
AcDbEntity
  8
0
100
AcDbLine
 10
785.4759310264412
 20
151.9757016594736
 30
0.0
 11
785.4759310264412
 21
136.6465580983968
 31
0.0
  0
LINE
  5
12F6
330
2
100
AcDbEntity
  8
0
100
AcDbLine
 10
783.4759310264412
 20
146.1465580983971
 30
0.0
 11
766.9759310264412
 21
146.1465580983968
 31
0.0
  0
LINE
  5
12F7
330
2
100
AcDbEntity
  8
0
100
AcDbLine
 10
798.4759310264412
 20
147.3012586367764
 30
0.0
 11
796.4759310264412
 21
146.1465580983968
 31
0.0
  0
LINE
  5
12F8
330
2
100
AcDbEntity
  8
0
100
AcDbLine
 10
796.4759310264412
 20
146.1465580983968
 30
0.0
 11
796.4759310264394
 21
136.6465580983968
 31
0.0
  0
LINE
  5
12F9
330
2
100
AcDbEntity
  8
0
100
AcDbLine
 10
760.9759310264412
 20
145.6465580983969
 30
0.0
 11
755.7797786037331
 21
136.6465580983968
 31
0.0
  0
ARC
  5
12FA
330
2
100
AcDbEntity
  8
0
100
AcDbCircle
 10
1041.516008791141
 20
136.6465580983972
 30
0.0
 40
10.6547005383793
100
AcDbArc
 50
184.0364720827379
 51
355.963527917262
  0
ARC
  5
12FB
330
2
100
AcDbEntity
  8
0
100
AcDbCircle
 10
1041.516008791141
 20
136.6465580983972
 30
0.0
 40
10.6547005383793
100
AcDbArc
 50
4.036472082737907
 51
175.9635279172621
  0
CIRCLE
  5
12FC
330
2
100
AcDbEntity
  8
0
100
AcDbCircle
 10
1041.516008791141
 20
136.6465580983972
 30
0.0
 40
9.5
  0
LINE
  5
12FD
330
2
100
AcDbEntity
  8
HIDS
100
AcDbLine
 10
1031.516008791141
 20
141.6465580983973
 30
0.0
 11
1031.516008791142
 21
153.6777794286488
 31
0.0
  0
LINE
  5
12FE
330
2
100
AcDbEntity
  8
0
100
AcDbLine
 10
799.4759310264412
 20
94.64655809839735
 30
0.0
 11
799.4759310264412
 21
136.6465580983968
 31
0.0
  0
LINE
  5
12FF
330
2
100
AcDbEntity
  8
0
100
AcDbLine
 10
801.475931026443
 20
96.5767378386846
 30
0.0
 11
801.475931026443
 21
136.6465580983968
 31
0.0
  0
LINE
  5
1300
330
2
100
AcDbEntity
  8
0
100
AcDbLine
 10
798.4759310264412
 20
165.6465580983966
 30
0.0
 11
794.5662776776548
 21
165.6465580983969
 31
0.0
  0
CIRCLE
  5
1301
330
2
100
AcDbEntity
  8
0
100
AcDbCircle
 10
1041.516008791141
 20
136.6465580983972
 30
0.0
 40
29.0
  0
LINE
  5
2299
330
2
100
AcDbEntity
  8
0
100
AcDbLine
 10
376.8377311895132
 20
188.1465580983899
 30
0.0
 11
333.7593035859831
 21
187.7242205728648
 31
0.0
  0
LINE
  5
229A
330
2
100
AcDbEntity
  8
0
100
AcDbLine
 10
428.837731189506
 20
157.1866572755889
 30
0.0
 11
347.337731189506
 21
157.1866572755889
 31
0.0
  0
LINE
  5
229B
330
2
100
AcDbEntity
  8
0
100
AcDbLine
 10
347.3377311895042
 20
187.6465580983963
 30
0.0
 11
429.837731189506
 21
186.9265915056471
 31
0.0
  0
LINE
  5
229C
330
2
100
AcDbEntity
  8
0
100
AcDbLine
 10
428.837731189506
 20
179.646558098412
 30
0.0
 11
347.337731189506
 21
179.646558098412
 31
0.0
  0
LINE
  5
229D
330
2
100
AcDbEntity
  8
0
100
AcDbLine
 10
428.837731189506
 20
176.6465580984145
 30
0.0
 11
347.337731189506
 21
176.6465580984145
 31
0.0
  0
LINE
  5
229E
330
2
100
AcDbEntity
  8
0
100
AcDbLine
 10
376.8377311895132
 20
85.14655809839087
 30
0.0
 11
333.7593035859831
 21
85.56889562391598
 31
0.0
  0
LINE
  5
229F
330
2
100
AcDbEntity
  8
0
100
AcDbLine
 10
347.3377311895096
 20
85.64655809839814
 30
0.0
 11
429.837731189506
 21
86.36652469114734
 31
0.0
  0
LINE
  5
22A0
330
2
100
AcDbEntity
  8
0
100
AcDbLine
 10
428.837731189506
 20
93.64655809838245
 30
0.0
 11
347.337731189506
 21
93.64655809838245
 31
0.0
  0
LINE
  5
22A1
330
2
100
AcDbEntity
  8
0
100
AcDbLine
 10
428.837731189506
 20
96.64655809837995
 30
0.0
 11
347.337731189506
 21
96.64655809837995
 31
0.0
  0
LINE
  5
22A2
330
2
100
AcDbEntity
  8
0
100
AcDbLine
 10
428.837731189506
 20
116.1064589212055
 30
0.0
 11
347.337731189506
 21
116.1064589212055
 31
0.0
  0
LINE
  5
22A3
330
2
100
AcDbEntity
  8
CENTER
100
AcDbLine
 10
500.837731189506
 20
136.6465580983971
 30
0.0
 11
315.8377311895133
 21
136.6465580983972
 31
0.0
  0
LINE
  5
22A6
330
2
100
AcDbEntity
  8
0
100
AcDbLine
 10
325.8377311895133
 20
93.56851118411624
 30
0.0
 11
325.8377311895133
 21
179.7246050126646
 31
0.0
  0
LINE
  5
22A7
330
2
100
AcDbEntity
  8
0
100
AcDbLine
 10
347.337731189506
 20
85.64655809839814
 30
0.0
 11
347.337731189506
 21
187.6421946645127
 31
0.0
  0
LINE
  5
22A8
330
2
100
AcDbEntity
  8
0
100
AcDbLine
 10
333.8377311895133
 20
101.6465580983963
 30
0.0
 11
333.8377311894951
 21
171.646558098374
 31
0.0
  0
LINE
  5
22A9
330
2
100
AcDbEntity
  8
0
100
AcDbLine
 10
328.3377311895096
 20
103.8465580983952
 30
0.0
 11
328.3377311897115
 21
169.4465580983978
 31
0.0
  0
LINE
  5
22AA
330
2
100
AcDbEntity
  8
0
100
AcDbLine
 10
330.3377311895133
 20
103.8465580983963
 30
0.0
 11
330.3377311895133
 21
169.4465580983933
 31
0.0
  0
LINE
  5
22AB
330
2
100
AcDbEntity
  8
0
100
AcDbLine
 10
339.8377311895078
 20
185.5984843349281
 30
0.0
 11
339.8377311895078
 21
87.69463202801899
 31
0.0
  0
LINE
  5
22AC
330
2
100
AcDbEntity
  8
0
100
AcDbLine
 10
334.3377311895078
 20
174.6465580984127
 30
0.0
 11
334.3377311895078
 21
98.646558098382
 31
0.0
  0
LINE
  5
22AD
330
2
100
AcDbEntity
  8
0
100
AcDbLine
 10
326.8377311895169
 20
169.646558098399
 30
0.0
 11
326.8377311895169
 21
103.6465580983931
 31
0.0
  0
LINE
  5
22AE
330
2
100
AcDbEntity
  8
0
100
AcDbLine
 10
330.5377311895176
 20
103.6465580983958
 30
0.0
 11
330.5377311895176
 21
169.6465580983981
 31
0.0
  0
LINE
  5
22AF
330
2
100
AcDbEntity
  8
CENTER
100
AcDbLine
 10
205.4177610068364
 20
75.64655809839712
 30
0.0
 11
205.4177610068364
 21
197.6465580983971
 31
0.0
  0
CIRCLE
  5
22B0
330
2
100
AcDbEntity
  8
0
100
AcDbCircle
 10
205.4177610068364
 20
136.6465580983971
 30
0.0
 40
33.00000000000153
  0
CIRCLE
  5
22B1
330
2
100
AcDbEntity
  8
0
100
AcDbCircle
 10
205.4177610068364
 20
136.6465580983971
 30
0.0
 40
35.00000000000153
  0
CIRCLE
  5
22B2
330
2
100
AcDbEntity
  8
0
100
AcDbCircle
 10
205.4177610068364
 20
136.6465580983971
 30
0.0
 40
35.50000000000153
  0
CIRCLE
  5
22B3
330
2
100
AcDbEntity
  8
0
100
AcDbCircle
 10
205.4177610068364
 20
136.6465580983971
 30
0.0
 40
32.42260000000154
  0
CIRCLE
  5
22B4
330
2
100
AcDbEntity
  8
0
100
AcDbCircle
 10
205.4177610068364
 20
136.6465580983973
 30
0.0
 40
26.0
  0
CIRCLE
  5
22B5
330
2
100
AcDbEntity
  8
0
100
AcDbCircle
 10
205.4177610068364
 20
136.6465580983973
 30
0.0
 40
26.57735026918937
  0
LINE
  5
22B6
330
2
100
AcDbEntity
  8
CENTER
100
AcDbLine
 10
151.8111592890383
 20
83.03995638059916
 30
0.0
 11
259.0243627246369
 21
190.2531598161983
 31
0.0
  0
LINE
  5
22B7
330
2
100
AcDbEntity
  8
CENTER
100
AcDbLine
 10
259.0243627246314
 20
83.0399563806012
 30
0.0
 11
151.8111592890378
 21
190.2531598161947
 31
0.0
  0
LINE
  5
22B8
330
2
100
AcDbEntity
  8
0
100
AcDbLine
 10
124.9177390068381
 20
87.14655809840213
 30
0.0
 11
124.9177390068399
 21
186.1465580984028
 31
0.0
  0
LINE
  5
22B9
330
2
100
AcDbEntity
  8
0
100
AcDbLine
 10
154.4177610068437
 20
93.64655809840234
 30
0.0
 11
154.4177610068437
 21
179.6465580983971
 31
0.0
  0
LINE
  5
22BA
330
2
100
AcDbEntity
  8
0
100
AcDbLine
 10
133.9177390068381
 20
172.6465580984021
 30
0.0
 11
133.9177390068381
 21
100.6465580983925
 31
0.0
  0
LINE
  5
22BB
330
2
100
AcDbEntity
  8
0
100
AcDbLine
 10
154.9377610068332
 20
93.64655809839621
 30
0.0
 11
154.9377610068332
 21
179.6465580983959
 31
0.0
  0
LINE
  5
22BC
330
2
100
AcDbEntity
  8
0
100
AcDbLine
 10
164.4177610068419
 20
161.4577412804461
 30
0.0
 11
164.4177610068419
 21
111.8353749163478
 31
0.0
  0
LINE
  5
22BD
330
2
100
AcDbEntity
  8
0
100
AcDbLine
 10
158.9177610068419
 20
161.4577412804461
 30
0.0
 11
158.9177610068419
 21
111.835374916348
 31
0.0
  0
LINE
  5
22BE
330
2
100
AcDbEntity
  8
0
100
AcDbLine
 10
153.9177610068346
 20
128.9654123505375
 30
0.0
 11
153.9177610068364
 21
144.3277038462566
 31
0.0
  0
ARC
  5
22BF
330
2
100
AcDbEntity
  8
0
100
AcDbCircle
 10
56.41776100683284
 20
136.6465580983971
 30
0.0
 40
200.0
100
AcDbArc
 50
354.1053016135961
 51
5.894698386403893
  0
LINE
  5
22C0
330
2
100
AcDbEntity
  8
0
100
AcDbLine
 10
246.4177610068292
 20
111.835374916348
 30
0.0
 11
246.4177610068292
 21
161.4577412804461
 31
0.0
  0
LINE
  5
22C1
330
2
100
AcDbEntity
  8
0
100
AcDbLine
 10
251.9177610068292
 20
111.8353749163478
 30
0.0
 11
251.9177610068292
 21
161.4577412804461
 31
0.0
  0
ARC
  5
22C2
330
2
100
AcDbEntity
  8
0
100
AcDbCircle
 10
232.1198899371576
 20
27.02135377641286
 30
0.0
 40
60.0
100
AcDbArc
 50
78.19493218955852
 51
95.89469838640388
  0
ARC
  5
22C3
330
2
100
AcDbEntity
  8
0
100
AcDbCircle
 10
230.2289441888843
 20
100.6465580984032
 30
0.0
 40
10.5
100
AcDbArc
 50
270.0
 51
315.0000000000092
  0
ARC
  5
22C4
330
2
100
AcDbEntity
  8
0
100
AcDbCircle
 10
230.2289441888843
 20
100.6465580984032
 30
0.0
 40
5.0
100
AcDbArc
 50
270.0
 51
315.0000000000092
  0
LINE
  5
22C6
330
2
100
AcDbEntity
  8
0
100
AcDbLine
 10
159.7170259154737
 20
107.8171988765149
 30
0.0
 11
164.7983633442855
 21
109.9219577545226
 31
0.0
  0
LINE
  5
22C7
330
2
100
AcDbEntity
  8
0
100
AcDbLine
 10
162.417761006831
 20
85.64655809839758
 30
0.0
 11
165.4177610068328
 21
85.64655809839758
 31
0.0
  0
LINE
  5
22C8
330
2
100
AcDbEntity
  8
0
100
AcDbLine
 10
162.4177610068364
 20
85.64655809839711
 30
0.0
 11
165.4177610068364
 21
85.64655809839758
 31
0.0
  0
CIRCLE
  5
22C9
330
2
100
AcDbEntity
  8
0
100
AcDbCircle
 10
162.4177610068364
 20
93.64655809839689
 30
0.0
 40
5.000000000000113
  0
CIRCLE
  5
22CA
330
2
100
AcDbEntity
  8
0
100
AcDbCircle
 10
162.4177610068364
 20
93.64655809839689
 30
0.0
 40
4.307179676972509
  0
LINE
  5
22CB
330
2
100
AcDbEntity
  8
0
100
AcDbLine
 10
164.9177610068364
 20
92.20318242542282
 30
0.0
 11
162.4177610068364
 21
90.75980675244876
 31
0.0
  0
LINE
  5
22CC
330
2
100
AcDbEntity
  8
0
100
AcDbLine
 10
162.4177610068364
 20
96.53330944434504
 30
0.0
 11
164.9177610068364
 21
95.08993377137073
 31
0.0
  0
LINE
  5
22CD
330
2
100
AcDbEntity
  8
CENTER
100
AcDbLine
 10
153.6677610068328
 20
93.64655809839689
 30
0.0
 11
171.1677610068328
 21
93.64655809839689
 31
0.0
  0
ARC
  5
22CE
330
2
100
AcDbEntity
  8
0
100
AcDbCircle
 10
162.9377610068332
 20
93.64655809839621
 30
0.0
 40
8.0
100
AcDbArc
 50
179.9999999999739
 51
270.0
  0
LINE
  5
22CF
330
2
100
AcDbEntity
  8
0
100
AcDbLine
 10
173.1819566223276
 20
93.22193689594417
 30
0.0
 11
161.9931398043828
 21
104.4107537138892
 31
0.0
  0
ARC
  5
22D0
330
2
100
AcDbEntity
  8
0
100
AcDbCircle
 10
135.7907443530458
 20
99.6465580983944
 30
0.0
 40
2.0
100
AcDbArc
 50
90.0
 51
165.5224878140373
  0
ARC
  5
22D1
330
2
100
AcDbEntity
  8
0
100
AcDbCircle
 10
152.4177610068437
 20
99.64655809839417
 30
0.0
 40
2.0
100
AcDbArc
 50
0.0
 51
90.0
  0
LINE
  5
22D2
330
2
100
AcDbEntity
  8
CENTER
100
AcDbLine
 10
162.4177610068328
 20
84.89655809839666
 30
0.0
 11
162.4177610068328
 21
102.3965580983968
 31
0.0
  0
ARC
  5
22D3
330
2
100
AcDbEntity
  8
0
100
AcDbCircle
 10
129.9177390068381
 20
93.64655809840257
 30
0.0
 40
5.0
100
AcDbArc
 50
90.0
 51
180.0
  0
ARC
  5
22D4
330
2
100
AcDbEntity
  8
0
100
AcDbCircle
 10
122.9177390068381
 20
87.64655809840212
 30
0.0
 40
2.0
100
AcDbArc
 50
270.0
 51
0.0
  0
ARC
  5
22D5
330
2
100
AcDbEntity
  8
0
100
AcDbCircle
 10
122.9177390068381
 20
87.14655809840213
 30
0.0
 40
2.0
100
AcDbArc
 50
270.0
 51
0.0
  0
LINE
  5
22D6
330
2
100
AcDbEntity
  8
0
100
AcDbLine
 10
109.4177390068381
 20
85.64655809840258
 30
0.0
 11
122.9177390068381
 21
85.64655809840212
 31
0.0
  0
LINE
  5
22D7
330
2
100
AcDbEntity
  8
0
100
AcDbLine
 10
109.4177390068381
 20
85.14655809840258
 30
0.0
 11
122.9177390068381
 21
85.14655809840212
 31
0.0
  0
LINE
  5
22D8
330
2
100
AcDbEntity
  8
0
100
AcDbLine
 10
159.9177610068364
 20
92.20318242542282
 30
0.0
 11
159.9177610068364
 21
95.08993377137096
 31
0.0
  0
LINE
  5
22D9
330
2
100
AcDbEntity
  8
0
100
AcDbLine
 10
159.9177610068364
 20
92.20318242542282
 30
0.0
 11
162.4177610068364
 21
90.75980675244876
 31
0.0
  0
LINE
  5
22DA
330
2
100
AcDbEntity
  8
0
100
AcDbLine
 10
162.4177610068364
 20
96.53330944434504
 30
0.0
 11
159.9177610068364
 21
95.08993377137096
 31
0.0
  0
LINE
  5
22DB
330
2
100
AcDbEntity
  8
0
100
AcDbLine
 10
131.9177390068345
 20
98.64655809839735
 30
0.0
 11
129.9177390068381
 21
98.64655809839758
 31
0.0
  0
ARC
  5
22DC
330
2
100
AcDbEntity
  8
0
100
AcDbCircle
 10
131.9177390068345
 20
100.6465580983925
 30
0.0
 40
2.0
100
AcDbArc
 50
270.0
 51
0.0
  0
LINE
  5
22DD
330
2
100
AcDbEntity
  8
0
100
AcDbLine
 10
154.4177610068364
 20
96.64655809839963
 30
0.0
 11
154.4177610068364
 21
93.64655809839712
 31
0.0
  0
ARC
  5
22DE
330
2
100
AcDbEntity
  8
0
100
AcDbCircle
 10
162.4177610068328
 20
93.64655809840281
 30
0.0
 40
8.0
100
AcDbArc
 50
180.0
 51
270.0
  0
ARC
  5
22DF
330
2
100
AcDbEntity
  8
0
100
AcDbCircle
 10
162.4177610068364
 20
93.64655809839712
 30
0.0
 40
8.0
100
AcDbArc
 50
180.0
 51
270.0
  0
ARC
  5
22E0
330
2
100
AcDbEntity
  8
0
100
AcDbCircle
 10
169.4177610068419
 20
111.835374916348
 30
0.0
 40
10.5
100
AcDbArc
 50
180.0
 51
224.9999999999908
  0
LINE
  5
22E1
330
2
100
AcDbEntity
  8
0
100
AcDbLine
 10
149.4177610068383
 20
106.6465580983966
 30
0.0
 11
138.9177390068363
 21
106.6465580983973
 31
0.0
  0
ARC
  5
22E2
330
2
100
AcDbEntity
  8
0
100
AcDbCircle
 10
138.9177390068345
 20
101.6465580983971
 30
0.0
 40
5.0
100
AcDbArc
 50
90.0
 51
180.0
  0
LINE
  5
22E3
330
2
100
AcDbEntity
  8
0
100
AcDbLine
 10
135.7907443530458
 20
101.6465580983944
 30
0.0
 11
152.4177610068437
 21
101.6465580983941
 31
0.0
  0
LINE
  5
22E4
330
2
100
AcDbEntity
  8
0
100
AcDbLine
 10
133.9177390068381
 20
128.9654123505375
 30
0.0
 11
154.4177610068419
 21
128.9654123505375
 31
0.0
  0
ARC
  5
22E5
330
2
100
AcDbEntity
  8
0
100
AcDbCircle
 10
149.4177610068383
 20
101.6465580983966
 30
0.0
 40
5.0
100
AcDbArc
 50
0.0
 51
90.0
  0
LINE
  5
22E6
330
2
100
AcDbEntity
  8
0
100
AcDbLine
 10
177.0710439188534
 20
97.11102419247039
 30
0.0
 11
165.8822271009086
 21
108.2998410104152
 31
0.0
  0
ARC
  5
22E7
330
2
100
AcDbEntity
  8
0
100
AcDbCircle
 10
205.4177610068328
 20
285.6465580983971
 30
0.0
 40
200.0
100
AcDbArc
 50
264.1053016135961
 51
275.8946983864039
  0
LINE
  5
22E8
330
2
100
AcDbEntity
  8
0
100
AcDbLine
 10
180.6065778247867
 20
95.64655809840303
 30
0.0
 11
230.2289441888843
 21
95.64655809840326
 31
0.0
  0
LINE
  5
22E9
330
2
100
AcDbEntity
  8
0
100
AcDbLine
 10
180.6065778247867
 20
90.14655809840304
 30
0.0
 11
230.2289441888843
 21
90.14655809840325
 31
0.0
  0
ARC
  5
22EA
330
2
100
AcDbEntity
  8
0
100
AcDbCircle
 10
178.715632076508
 20
27.02135377641286
 30
0.0
 40
60.0
100
AcDbArc
 50
84.10530161359611
 51
101.8050678104414
  0
ARC
  5
22EB
330
2
100
AcDbEntity
  8
0
100
AcDbCircle
 10
165.4177610068328
 20
90.64655809839758
 30
0.0
 40
5.0
100
AcDbArc
 50
270.0
 51
281.8050678104415
  0
ARC
  5
22EC
330
2
100
AcDbEntity
  8
0
100
AcDbCircle
 10
165.4177610068364
 20
90.64655809839758
 30
0.0
 40
5.0
100
AcDbArc
 50
270.0
 51
281.8050678104415
  0
LINE
  5
22ED
330
2
100
AcDbEntity
  8
0
100
AcDbLine
 10
176.5884017849531
 20
90.94582300703439
 30
0.0
 11
178.6931606629606
 21
96.02716043584644
 31
0.0
  0
ARC
  5
22EE
330
2
100
AcDbEntity
  8
0
100
AcDbCircle
 10
180.6065778247867
 20
100.646558098403
 30
0.0
 40
10.5
100
AcDbArc
 50
224.9999999999908
 51
270.0
  0
ARC
  5
22EF
330
2
100
AcDbEntity
  8
0
100
AcDbCircle
 10
180.6065778247867
 20
100.646558098403
 30
0.0
 40
5.0
100
AcDbArc
 50
224.9999999999908
 51
270.0
  0
LINE
  5
22F0
330
2
100
AcDbEntity
  8
0
100
AcDbLine
 10
164.9177610068364
 20
92.20318242542282
 30
0.0
 11
164.9177610068364
 21
95.08993377137073
 31
0.0
  0
ARC
  5
22F1
330
2
100
AcDbEntity
  8
0
100
AcDbCircle
 10
169.4177610068419
 20
111.8353749163478
 30
0.0
 40
5.0
100
AcDbArc
 50
180.0
 51
224.9999999999908
  0
ARC
  5
22F2
330
2
100
AcDbEntity
  8
0
100
AcDbCircle
 10
315.0429653288175
 20
109.9444291680716
 30
0.0
 40
60.0
100
AcDbArc
 50
174.1053016135961
 51
191.8050678104683
  0
CIRCLE
  5
22F3
330
2
100
AcDbEntity
  8
0
100
AcDbCircle
 10
250.9177610068328
 20
102.1465580983969
 30
0.0
 40
1.6
  0
CIRCLE
  5
22F4
330
2
100
AcDbEntity
  8
HOJO
100
AcDbCircle
 10
250.9177610068328
 20
102.1465580983969
 30
0.0
 40
2.0
  0
LINE
  5
22F5
330
2
100
AcDbEntity
  8
CENTER
100
AcDbLine
 10
250.9177610068328
 20
96.97335301763985
 30
0.0
 11
250.9177610068328
 21
107.3197631791539
 31
0.0
  0
LINE
  5
22F6
330
2
100
AcDbEntity
  8
0
100
AcDbLine
 10
244.9532949127625
 20
108.2998410104152
 30
0.0
 11
233.7644780948177
 21
97.11102419247039
 31
0.0
  0
LINE
  5
22F7
330
2
100
AcDbEntity
  8
0
100
AcDbLine
 10
248.8423822092883
 20
104.4107537138889
 30
0.0
 11
237.6535653913435
 21
93.2219368959444
 31
0.0
  0
LINE
  5
22F8
330
2
100
AcDbEntity
  8
CENTER
100
AcDbLine
 10
248.4177610068365
 20
84.89655809839394
 30
0.0
 11
248.4177610068365
 21
102.3965580983941
 31
0.0
  0
LINE
  5
22F9
330
2
100
AcDbEntity
  8
0
100
AcDbLine
 10
248.4177610068328
 20
85.64655809839758
 30
0.0
 11
245.4177610068328
 21
85.64655809839711
 31
0.0
  0
ARC
  5
22FA
330
2
100
AcDbEntity
  8
0
100
AcDbCircle
 10
245.4177610068328
 20
90.64655809839711
 30
0.0
 40
5.0
100
AcDbArc
 50
258.1949321895585
 51
270.0
  0
ARC
  5
22FB
330
2
100
AcDbEntity
  8
0
100
AcDbCircle
 10
251.4177610068328
 20
96.64655809839713
 30
0.0
 40
5.0
100
AcDbArc
 50
0.0
 51
11.80506781046833
  0
LINE
  5
22FC
330
2
100
AcDbEntity
  8
0
100
AcDbLine
 10
256.4177610068328
 20
93.64655809839735
 30
0.0
 11
256.4177610068328
 21
96.64655809839485
 31
0.0
  0
ARC
  5
22FD
330
2
100
AcDbEntity
  8
0
100
AcDbCircle
 10
248.4177610068365
 20
93.64655809840257
 30
0.0
 40
8.0
100
AcDbArc
 50
270.0
 51
0.0
  0
LINE
  5
22FE
330
2
100
AcDbEntity
  8
CENTER
100
AcDbLine
 10
257.1677610068364
 20
93.64655809839394
 30
0.0
 11
239.6677610068365
 21
93.64655809839394
 31
0.0
  0
LINE
  5
22FF
330
2
100
AcDbEntity
  8
0
100
AcDbLine
 10
234.247120228718
 20
90.94582300703416
 30
0.0
 11
232.1423613507105
 21
96.02716043584644
 31
0.0
  0
CIRCLE
  5
2300
330
2
100
AcDbEntity
  8
0
100
AcDbCircle
 10
248.4177610068383
 20
93.64655809839394
 30
0.0
 40
5.000000000000113
  0
LINE
  5
2301
330
2
100
AcDbEntity
  8
0
100
AcDbLine
 10
250.9177610068383
 20
92.20318242541987
 30
0.0
 11
250.9177610068383
 21
95.08993377136778
 31
0.0
  0
LINE
  5
2302
330
2
100
AcDbEntity
  8
0
100
AcDbLine
 10
245.9177610068401
 20
92.20318242541987
 30
0.0
 11
245.9177610068401
 21
95.08993377136802
 31
0.0
  0
CIRCLE
  5
2303
330
2
100
AcDbEntity
  8
0
100
AcDbCircle
 10
248.4177610068383
 20
93.64655809839394
 30
0.0
 40
4.307179676972509
  0
LINE
  5
2304
330
2
100
AcDbEntity
  8
0
100
AcDbLine
 10
245.9177610068401
 20
92.20318242541987
 30
0.0
 11
248.4177610068401
 21
90.75980675244579
 31
0.0
  0
LINE
  5
2305
330
2
100
AcDbEntity
  8
0
100
AcDbLine
 10
250.9177610068383
 20
92.20318242541987
 30
0.0
 11
248.4177610068401
 21
90.75980675244579
 31
0.0
  0
LINE
  5
2306
330
2
100
AcDbEntity
  8
0
100
AcDbLine
 10
248.4177610068383
 20
96.53330944434209
 30
0.0
 11
245.9177610068401
 21
95.08993377136802
 31
0.0
  0
LINE
  5
2307
330
2
100
AcDbEntity
  8
0
100
AcDbLine
 10
248.4177610068383
 20
96.53330944434209
 30
0.0
 11
250.9177610068383
 21
95.08993377136778
 31
0.0
  0
LINE
  5
2308
330
2
100
AcDbEntity
  8
CENTER
100
AcDbLine
 10
256.0909660875896
 20
102.1465580983969
 30
0.0
 11
245.744555926076
 21
102.1465580983969
 31
0.0
  0
ARC
  5
2309
330
2
100
AcDbEntity
  8
0
100
AcDbCircle
 10
241.4177610068292
 20
111.8353749163478
 30
0.0
 40
10.5
100
AcDbArc
 50
315.0000000000092
 51
0.0
  0
LINE
  5
230A
330
2
100
AcDbEntity
  8
0
100
AcDbLine
 10
251.1184960981992
 20
107.8171988765146
 30
0.0
 11
246.0371586693856
 21
109.9219577545226
 31
0.0
  0
ARC
  5
230B
330
2
100
AcDbEntity
  8
0
100
AcDbCircle
 10
241.4177610068292
 20
111.835374916348
 30
0.0
 40
5.0
100
AcDbArc
 50
315.0000000000092
 51
0.0
  0
LINE
  5
230C
330
2
100
AcDbEntity
  8
0
100
AcDbLine
 10
333.8377311895133
 20
101.6465580983963
 30
0.0
 11
334.3377311895133
 21
101.1465580983967
 31
0.0
  0
ARC
  5
230D
330
2
100
AcDbEntity
  8
0
100
AcDbCircle
 10
333.8377311895133
 20
93.56851118411624
 30
0.0
 40
8.0
100
AcDbArc
 50
180.0
 51
269.4382946674161
  0
LINE
  5
230E
330
2
100
AcDbEntity
  8
0
100
AcDbLine
 10
341.8202781185105
 20
85.6947081818903
 30
0.0
 11
347.337731189506
 21
85.64655809839814
 31
0.0
  0
ARC
  5
230F
330
2
100
AcDbEntity
  8
0
100
AcDbCircle
 10
341.8377311895078
 20
87.69463202801899
 30
0.0
 40
2.0
100
AcDbArc
 50
180.0
 51
269.4999999999823
  0
LINE
  5
2310
330
2
100
AcDbEntity
  8
0
100
AcDbLine
 10
338.3377311895096
 20
98.646558098382
 30
0.0
 11
332.7377311895093
 21
98.646558098382
 31
0.0
  0
LINE
  5
2311
330
2
100
AcDbEntity
  8
0
100
AcDbLine
 10
338.3377311895096
 20
88.64655809838177
 30
0.0
 11
332.7377311895093
 21
88.64655809838177
 31
0.0
  0
LINE
  5
2312
330
2
100
AcDbEntity
  8
0
100
AcDbLine
 10
338.3377311895096
 20
88.64655809838177
 30
0.0
 11
338.3377311895096
 21
98.64655809838177
 31
0.0
  0
LINE
  5
2313
330
2
100
AcDbEntity
  8
0
100
AcDbLine
 10
332.3377311895096
 20
89.33937842140972
 30
0.0
 11
332.3377311895078
 21
97.95373777535429
 31
0.0
  0
LINE
  5
2314
330
2
100
AcDbEntity
  8
0
100
AcDbLine
 10
332.7377311895074
 20
88.64655809838177
 30
0.0
 11
332.7377311895093
 21
98.646558098382
 31
0.0
  0
LINE
  5
2315
330
2
100
AcDbEntity
  8
0
100
AcDbLine
 10
332.7377311895093
 20
88.64655809838177
 30
0.0
 11
332.3377311895096
 21
89.33937842140972
 31
0.0
  0
LINE
  5
2316
330
2
100
AcDbEntity
  8
0
100
AcDbLine
 10
332.7377311895093
 20
98.646558098382
 30
0.0
 11
332.3377311895096
 21
97.95373777535429
 31
0.0
  0
LINE
  5
2317
330
2
100
AcDbEntity
  8
0
100
AcDbLine
 10
338.3377311895078
 20
88.64655809838177
 30
0.0
 11
339.8377311895078
 21
88.64655809838177
 31
0.0
  0
LINE
  5
2318
330
2
100
AcDbEntity
  8
0
100
AcDbLine
 10
338.3377311895096
 20
98.646558098382
 30
0.0
 11
339.8377311895078
 21
98.646558098382
 31
0.0
  0
LINE
  5
2319
330
2
100
AcDbEntity
  8
HIDS
100
AcDbLine
 10
339.2519447518811
 20
90.73234453603459
 30
0.0
 11
334.9235176271472
 21
95.06077166076329
 31
0.0
  0
ARC
  5
231A
330
2
100
AcDbEntity
  8
HIDS
100
AcDbCircle
 10
337.8377311895078
 20
89.31813097366079
 30
0.0
 40
2.0
100
AcDbArc
 50
0.0
 51
45.00000000006447
  0
ARC
  5
231B
330
2
100
AcDbEntity
  8
HIDS
100
AcDbCircle
 10
336.3377311895205
 20
96.47498522313709
 30
0.0
 40
2.0
100
AcDbArc
 50
180.0
 51
225.0000000000644
  0
LINE
  5
231C
330
2
100
AcDbEntity
  8
HIDS
100
AcDbLine
 10
334.3377311895205
 20
96.47498522313709
 30
0.0
 11
334.3377311895078
 21
98.646558098382
 31
0.0
  0
LINE
  5
231D
330
2
100
AcDbEntity
  8
CENTER
100
AcDbLine
 10
327.3377311895096
 20
93.646558098382
 30
0.0
 11
353.4030569747706
 21
93.646558098382
 31
0.0
  0
LINE
  5
231E
330
2
100
AcDbEntity
  8
0
100
AcDbLine
 10
330.537731189514
 20
103.6465580983958
 30
0.0
 11
333.8377311895133
 21
103.6465580983963
 31
0.0
  0
LINE
  5
231F
330
2
100
AcDbEntity
  8
0
100
AcDbLine
 10
333.8377311895078
 20
103.6465580983963
 30
0.0
 11
333.8377311895078
 21
101.6465580984017
 31
0.0
  0
LINE
  5
2320
330
2
100
AcDbEntity
  8
0
100
AcDbLine
 10
325.8377311895078
 20
119.6465580983983
 30
0.0
 11
325.8377311895133
 21
104.2239083675849
 31
0.0
  0
LINE
  5
2321
330
2
100
AcDbEntity
  8
0
100
AcDbLine
 10
326.8377311895132
 20
103.6465580983954
 30
0.0
 11
328.1377311895125
 21
103.6465580983958
 31
0.0
  0
LINE
  5
2322
330
2
100
AcDbEntity
  8
0
100
AcDbLine
 10
326.8377311895132
 20
103.6465580983954
 30
0.0
 11
325.8377311895133
 21
104.2239083675849
 31
0.0
  0
LINE
  5
2323
330
2
100
AcDbEntity
  8
0
100
AcDbLine
 10
330.3377311895133
 20
103.8465580983961
 30
0.0
 11
330.537731189514
 21
103.6465580983958
 31
0.0
  0
LINE
  5
2324
330
2
100
AcDbEntity
  8
0
100
AcDbLine
 10
328.537731189514
 20
104.3465580983956
 30
0.0
 11
330.1377311895125
 21
104.3465580983959
 31
0.0
  0
ARC
  5
2325
330
2
100
AcDbEntity
  8
0
100
AcDbCircle
 10
328.1377311895125
 20
103.8465580983956
 30
0.0
 40
0.2
100
AcDbArc
 50
270.0
 51
359.9999999999218
  0
ARC
  5
2326
330
2
100
AcDbEntity
  8
0
100
AcDbCircle
 10
328.537731189514
 20
104.1465580983956
 30
0.0
 40
0.2
100
AcDbArc
 50
90.0
 51
179.9999999999218
  0
ARC
  5
2327
330
2
100
AcDbEntity
  8
0
100
AcDbCircle
 10
330.1377311895125
 20
104.1465580983958
 30
0.0
 40
0.2
100
AcDbArc
 50
0.0
 51
90.0
  0
ARC
  5
2328
330
2
100
AcDbEntity
  8
0
100
AcDbCircle
 10
232.1198899371576
 20
246.2717624203814
 30
0.0
 40
60.0
100
AcDbArc
 50
264.1053016135961
 51
281.8050678104415
  0
ARC
  5
2329
330
2
100
AcDbEntity
  8
0
100
AcDbCircle
 10
230.2289441888843
 20
172.6465580983909
 30
0.0
 40
5.0
100
AcDbArc
 50
44.99999999999078
 51
90.0
  0
ARC
  5
232A
330
2
100
AcDbEntity
  8
0
100
AcDbCircle
 10
230.2289441888843
 20
172.6465580983909
 30
0.0
 40
10.5
100
AcDbArc
 50
44.99999999999078
 51
90.0
  0
LINE
  5
232B
330
2
100
AcDbEntity
  8
0
100
AcDbLine
 10
165.4177610068328
 20
187.6465580983971
 30
0.0
 11
162.4177610068437
 21
187.6465580983971
 31
0.0
  0
LINE
  5
232C
330
2
100
AcDbEntity
  8
0
100
AcDbLine
 10
162.4177610068364
 20
187.6465580983971
 30
0.0
 11
165.4177610068364
 21
187.6465580983971
 31
0.0
  0
LINE
  5
232D
330
2
100
AcDbEntity
  8
0
100
AcDbLine
 10
161.9931398043828
 20
168.882362482905
 30
0.0
 11
173.1819566223276
 21
180.07117930085
 31
0.0
  0
LINE
  5
232E
330
2
100
AcDbEntity
  8
0
100
AcDbLine
 10
159.7170259154737
 20
165.4759173202793
 30
0.0
 11
164.7983633442855
 21
163.3711584422713
 31
0.0
  0
LINE
  5
232F
330
2
100
AcDbEntity
  8
0
100
AcDbLine
 10
164.9177610068346
 20
178.2031824254237
 30
0.0
 11
162.4177610068364
 21
176.7598067524496
 31
0.0
  0
LINE
  5
2330
330
2
100
AcDbEntity
  8
0
100
AcDbLine
 10
162.4177610068346
 20
182.5333094443459
 30
0.0
 11
164.9177610068346
 21
181.0899337713716
 31
0.0
  0
LINE
  5
2331
330
2
100
AcDbEntity
  8
CENTER
100
AcDbLine
 10
153.6677610068346
 20
179.6465580984005
 30
0.0
 11
171.1677610068346
 21
179.6465580984005
 31
0.0
  0
LINE
  5
2332
330
2
100
AcDbEntity
  8
CENTER
100
AcDbLine
 10
154.7445559260851
 20
171.1465580983973
 30
0.0
 11
165.0909660875987
 21
171.1465580983973
 31
0.0
  0
ARC
  5
2333
330
2
100
AcDbEntity
  8
0
100
AcDbCircle
 10
162.9377610068396
 20
179.6465580983959
 30
0.0
 40
8.0
100
AcDbArc
 50
90.0
 51
179.9999999999739
  0
CIRCLE
  5
2334
330
2
100
AcDbEntity
  8
0
100
AcDbCircle
 10
162.4177610068346
 20
179.6465580983977
 30
0.0
 40
5.000000000000113
  0
CIRCLE
  5
2335
330
2
100
AcDbEntity
  8
0
100
AcDbCircle
 10
162.4177610068346
 20
179.6465580983977
 30
0.0
 40
4.307179676972509
  0
ARC
  5
2336
330
2
100
AcDbEntity
  8
0
100
AcDbCircle
 10
162.4177610068437
 20
179.6465580983971
 30
0.0
 40
8.0
100
AcDbArc
 50
90.0
 51
180.0
  0
ARC
  5
2337
330
2
100
AcDbEntity
  8
0
100
AcDbCircle
 10
162.4177610068364
 20
179.6465580983971
 30
0.0
 40
8.0
100
AcDbArc
 50
90.0
 51
180.0
  0
LINE
  5
2338
330
2
100
AcDbEntity
  8
CENTER
100
AcDbLine
 10
162.4177610068346
 20
188.3965580984005
 30
0.0
 11
162.4177610068346
 21
170.8965580984005
 31
0.0
  0
ARC
  5
2339
330
2
100
AcDbEntity
  8
0
100
AcDbCircle
 10
129.9177390068381
 20
179.6465580984023
 30
0.0
 40
5.0
100
AcDbArc
 50
180.0
 51
270.0
  0
ARC
  5
233A
330
2
100
AcDbEntity
  8
0
100
AcDbCircle
 10
169.4177610068419
 20
161.4577412804461
 30
0.0
 40
10.5
100
AcDbArc
 50
135.0000000000092
 51
180.0
  0
CIRCLE
  5
233B
330
2
100
AcDbEntity
  8
HOJO
100
AcDbCircle
 10
159.9177610068419
 20
171.1465580983973
 30
0.0
 40
2.0
  0
LINE
  5
233C
330
2
100
AcDbEntity
  8
CENTER
100
AcDbLine
 10
159.9177610068419
 20
176.3197631791543
 30
0.0
 11
159.9177610068419
 21
165.9733530176403
 31
0.0
  0
CIRCLE
  5
233D
330
2
100
AcDbEntity
  8
0
100
AcDbCircle
 10
159.9177610068419
 20
171.1465580983973
 30
0.0
 40
1.6
  0
LINE
  5
233E
330
2
100
AcDbEntity
  8
0
100
AcDbLine
 10
159.9177610068364
 20
178.2031824254237
 30
0.0
 11
159.9177610068364
 21
181.0899337713718
 31
0.0
  0
LINE
  5
233F
330
2
100
AcDbEntity
  8
0
100
AcDbLine
 10
159.9177610068364
 20
178.2031824254237
 30
0.0
 11
162.4177610068364
 21
176.7598067524496
 31
0.0
  0
LINE
  5
2340
330
2
100
AcDbEntity
  8
0
100
AcDbLine
 10
162.4177610068346
 20
182.5333094443459
 30
0.0
 11
159.9177610068364
 21
181.0899337713718
 31
0.0
  0
LINE
  5
2341
330
2
100
AcDbEntity
  8
0
100
AcDbLine
 10
133.9177390068381
 20
144.3277038462569
 30
0.0
 11
154.4177610068419
 21
144.3277038462564
 31
0.0
  0
LINE
  5
2342
330
2
100
AcDbEntity
  8
0
100
AcDbLine
 10
131.9177390068381
 20
174.646558098403
 30
0.0
 11
129.9177390068363
 21
174.6465580984034
 31
0.0
  0
LINE
  5
2343
330
2
100
AcDbEntity
  8
0
100
AcDbLine
 10
149.4177610068383
 20
166.6465580983971
 30
0.0
 11
138.9177390068381
 21
166.6465580983971
 31
0.0
  0
ARC
  5
2344
330
2
100
AcDbEntity
  8
0
100
AcDbCircle
 10
138.9177390068381
 20
171.6465580983971
 30
0.0
 40
5.0
100
AcDbArc
 50
180.0
 51
270.0
  0
ARC
  5
2345
330
2
100
AcDbEntity
  8
0
100
AcDbCircle
 10
131.9177390068381
 20
172.6465580984021
 30
0.0
 40
2.0
100
AcDbArc
 50
0.0
 51
89.99999999994789
  0
LINE
  5
2346
330
2
100
AcDbEntity
  8
0
100
AcDbLine
 10
135.790744353044
 20
171.6465580983941
 30
0.0
 11
152.4177610068437
 21
171.6465580983941
 31
0.0
  0
ARC
  5
2347
330
2
100
AcDbEntity
  8
0
100
AcDbCircle
 10
135.790744353044
 20
173.6465580983941
 30
0.0
 40
2.0
100
AcDbArc
 50
194.4775121859626
 51
270.0
  0
ARC
  5
2348
330
2
100
AcDbEntity
  8
0
100
AcDbCircle
 10
152.4177610068437
 20
173.6465580983941
 30
0.0
 40
2.0
100
AcDbArc
 50
270.0
 51
0.0
  0
LINE
  5
2349
330
2
100
AcDbEntity
  8
0
100
AcDbLine
 10
154.4177610068364
 20
179.6465580983971
 30
0.0
 11
154.4177610068364
 21
176.6465580983996
 31
0.0
  0
ARC
  5
234A
330
2
100
AcDbEntity
  8
0
100
AcDbCircle
 10
149.4177610068383
 20
171.6465580983971
 30
0.0
 40
5.0
100
AcDbArc
 50
270.0
 51
0.0
  0
ARC
  5
234B
330
2
100
AcDbEntity
  8
0
100
AcDbCircle
 10
122.9177390068399
 20
185.646558098403
 30
0.0
 40
2.0
100
AcDbArc
 50
0.0
 51
90.0
  0
ARC
  5
234C
330
2
100
AcDbEntity
  8
0
100
AcDbCircle
 10
122.9177390068399
 20
186.146558098403
 30
0.0
 40
2.0
100
AcDbArc
 50
0.0
 51
90.0
  0
LINE
  5
234D
330
2
100
AcDbEntity
  8
0
100
AcDbLine
 10
109.4177390068381
 20
187.6465580984025
 30
0.0
 11
122.9177390068399
 21
187.646558098403
 31
0.0
  0
LINE
  5
234E
330
2
100
AcDbEntity
  8
0
100
AcDbLine
 10
109.4177390068381
 20
188.1465580984025
 30
0.0
 11
122.9177390068399
 21
188.146558098403
 31
0.0
  0
ARC
  5
234F
330
2
100
AcDbEntity
  8
0
100
AcDbCircle
 10
180.6065778247867
 20
172.6465580983914
 30
0.0
 40
10.5
100
AcDbArc
 50
90.0
 51
135.0000000000092
  0
LINE
  5
2350
330
2
100
AcDbEntity
  8
0
100
AcDbLine
 10
230.2289441888843
 20
177.6465580983909
 30
0.0
 11
180.6065778247867
 21
177.6465580983914
 31
0.0
  0
ARC
  5
2351
330
2
100
AcDbEntity
  8
0
100
AcDbCircle
 10
169.4177610068419
 20
161.4577412804461
 30
0.0
 40
5.0
100
AcDbArc
 50
135.0000000000092
 51
180.0
  0
LINE
  5
2352
330
2
100
AcDbEntity
  8
0
100
AcDbLine
 10
165.8822271009086
 20
164.993275186379
 30
0.0
 11
177.0710439188534
 21
176.182092004324
 31
0.0
  0
LINE
  5
2353
330
2
100
AcDbEntity
  8
0
100
AcDbLine
 10
176.5884017849531
 20
182.3472931897598
 30
0.0
 11
178.6931606629606
 21
177.2659557609478
 31
0.0
  0
ARC
  5
2354
330
2
100
AcDbEntity
  8
0
100
AcDbCircle
 10
180.6065778247867
 20
172.6465580983914
 30
0.0
 40
5.0
100
AcDbArc
 50
90.0
 51
135.0000000000092
  0
LINE
  5
2355
330
2
100
AcDbEntity
  8
0
100
AcDbLine
 10
164.9177610068346
 20
178.2031824254237
 30
0.0
 11
164.9177610068346
 21
181.0899337713716
 31
0.0
  0
ARC
  5
2356
330
2
100
AcDbEntity
  8
0
100
AcDbCircle
 10
205.4177610068328
 20
-12.35344190160287
 30
0.0
 40
200.0
100
AcDbArc
 50
84.10530161359611
 51
95.89469838640388
  0
LINE
  5
2357
330
2
100
AcDbEntity
  8
0
100
AcDbLine
 10
230.2289441888843
 20
183.1465580983909
 30
0.0
 11
180.6065778247867
 21
183.1465580983914
 31
0.0
  0
ARC
  5
2358
330
2
100
AcDbEntity
  8
0
100
AcDbCircle
 10
178.715632076508
 20
246.2717624203818
 30
0.0
 40
60.0
100
AcDbArc
 50
258.1949321895585
 51
275.8946983864039
  0
ARC
  5
2359
330
2
100
AcDbEntity
  8
0
100
AcDbCircle
 10
165.4177610068328
 20
182.6465580983971
 30
0.0
 40
5.0
100
AcDbArc
 50
78.19493218955852
 51
90.0
  0
ARC
  5
235A
330
2
100
AcDbEntity
  8
0
100
AcDbCircle
 10
165.4177610068364
 20
182.6465580983971
 30
0.0
 40
5.0
100
AcDbArc
 50
78.19493218950483
 51
90.0
  0
ARC
  5
235C
330
2
100
AcDbEntity
  8
0
100
AcDbCircle
 10
248.4177610068365
 20
179.6465580984025
 30
0.0
 40
8.0
100
AcDbArc
 50
0.0
 51
90.0
  0
LINE
  5
235D
330
2
100
AcDbEntity
  8
CENTER
100
AcDbLine
 10
248.4177610068365
 20
188.3965580984003
 30
0.0
 11
248.4177610068365
 21
170.8965580984003
 31
0.0
  0
CIRCLE
  5
235E
330
2
100
AcDbEntity
  8
0
100
AcDbCircle
 10
248.4177610068365
 20
179.6465580983973
 30
0.0
 40
5.000000000000113
  0
CIRCLE
  5
235F
330
2
100
AcDbEntity
  8
0
100
AcDbCircle
 10
248.4177610068365
 20
179.6465580983973
 30
0.0
 40
4.307179676972509
  0
ARC
  5
2360
330
2
100
AcDbEntity
  8
0
100
AcDbCircle
 10
315.0429653288175
 20
163.3486870287218
 30
0.0
 40
60.0
100
AcDbArc
 50
168.1949321895316
 51
185.8946983864038
  0
ARC
  5
2361
330
2
100
AcDbEntity
  8
0
100
AcDbCircle
 10
241.4177610068292
 20
161.4577412804461
 30
0.0
 40
10.5
100
AcDbArc
 50
0.0
 51
44.99999999999078
  0
ARC
  5
2362
330
2
100
AcDbEntity
  8
0
100
AcDbCircle
 10
241.4177610068292
 20
161.4577412804461
 30
0.0
 40
5.0
100
AcDbArc
 50
0.0
 51
44.99999999999078
  0
ARC
  5
2363
330
2
100
AcDbEntity
  8
0
100
AcDbCircle
 10
251.4177610068328
 20
176.6465580983971
 30
0.0
 40
5.0
100
AcDbArc
 50
348.1949321895317
 51
0.0
  0
LINE
  5
2364
330
2
100
AcDbEntity
  8
0
100
AcDbLine
 10
256.4177610068328
 20
176.6465580983948
 30
0.0
 11
256.4177610068328
 21
179.6465580983971
 31
0.0
  0
LINE
  5
2365
330
2
100
AcDbEntity
  8
CENTER
100
AcDbLine
 10
257.1677610068383
 20
179.6465580983973
 30
0.0
 11
239.6677610068383
 21
179.6465580983973
 31
0.0
  0
LINE
  5
2366
330
2
100
AcDbEntity
  8
0
100
AcDbLine
 10
233.7644780948177
 20
176.1820920043238
 30
0.0
 11
244.9532949127625
 21
164.993275186379
 31
0.0
  0
LINE
  5
2367
330
2
100
AcDbEntity
  8
0
100
AcDbLine
 10
234.247120228718
 20
182.3472931897598
 30
0.0
 11
232.1423613507105
 21
177.2659557609478
 31
0.0
  0
LINE
  5
2368
330
2
100
AcDbEntity
  8
0
100
AcDbLine
 10
237.6535653913435
 20
180.0711793008498
 30
0.0
 11
248.8423822092883
 21
168.882362482905
 31
0.0
  0
LINE
  5
2369
330
2
100
AcDbEntity
  8
0
100
AcDbLine
 10
251.1184960981992
 20
165.4759173202793
 30
0.0
 11
246.0371586693856
 21
163.3711584422713
 31
0.0
  0
LINE
  5
236A
330
2
100
AcDbEntity
  8
0
100
AcDbLine
 10
250.9177610068364
 20
178.2031824254232
 30
0.0
 11
250.9177610068364
 21
181.0899337713711
 31
0.0
  0
LINE
  5
236B
330
2
100
AcDbEntity
  8
0
100
AcDbLine
 10
245.9177610068365
 20
178.2031824254232
 30
0.0
 11
245.9177610068365
 21
181.0899337713714
 31
0.0
  0
LINE
  5
236C
330
2
100
AcDbEntity
  8
0
100
AcDbLine
 10
245.9177610068365
 20
178.2031824254232
 30
0.0
 11
248.4177610068365
 21
176.7598067524492
 31
0.0
  0
LINE
  5
236D
330
2
100
AcDbEntity
  8
0
100
AcDbLine
 10
250.9177610068364
 20
178.2031824254232
 30
0.0
 11
248.4177610068365
 21
176.7598067524492
 31
0.0
  0
LINE
  5
236E
330
2
100
AcDbEntity
  8
0
100
AcDbLine
 10
248.4177610068365
 20
182.5333094443454
 30
0.0
 11
245.9177610068365
 21
181.0899337713714
 31
0.0
  0
LINE
  5
236F
330
2
100
AcDbEntity
  8
0
100
AcDbLine
 10
248.4177610068365
 20
182.5333094443454
 30
0.0
 11
250.9177610068364
 21
181.0899337713711
 31
0.0
  0
ARC
  5
2370
330
2
100
AcDbEntity
  8
0
100
AcDbCircle
 10
245.4177610068328
 20
182.6465580983966
 30
0.0
 40
5.0
100
AcDbArc
 50
90.0
 51
101.8050678104414
  0
LINE
  5
2371
330
2
100
AcDbEntity
  8
0
100
AcDbLine
 10
248.4177610068328
 20
187.6465580983971
 30
0.0
 11
245.4177610068328
 21
187.6465580983971
 31
0.0
  0
LINE
  5
2372
330
2
100
AcDbEntity
  8
0
100
AcDbLine
 10
347.337731189506
 20
152.8395728362565
 30
0.0
 11
347.3377311895042
 21
187.6465580983963
 31
0.0
  0
ARC
  5
2373
330
2
100
AcDbEntity
  8
0
100
AcDbCircle
 10
333.8377311895133
 20
179.7246050126646
 30
0.0
 40
8.0
100
AcDbArc
 50
90.56170533253167
 51
180.0
  0
ARC
  5
2374
330
2
100
AcDbEntity
  8
HIDS
100
AcDbCircle
 10
337.8377311895078
 20
183.9749852231336
 30
0.0
 40
2.0
100
AcDbArc
 50
314.9999999999355
 51
0.0
  0
LINE
  5
2375
330
2
100
AcDbEntity
  8
0
100
AcDbLine
 10
338.3377311895096
 20
184.6465580984124
 30
0.0
 11
338.3377311895096
 21
174.6465580984127
 31
0.0
  0
LINE
  5
2376
330
2
100
AcDbEntity
  8
0
100
AcDbLine
 10
332.3377311895096
 20
183.9537377753847
 30
0.0
 11
332.3377311895078
 21
175.3393784214401
 31
0.0
  0
LINE
  5
2377
330
2
100
AcDbEntity
  8
0
100
AcDbLine
 10
332.7377311895074
 20
184.6465580984124
 30
0.0
 11
332.7377311895093
 21
174.6465580984124
 31
0.0
  0
LINE
  5
2378
330
2
100
AcDbEntity
  8
0
100
AcDbLine
 10
325.8377311894951
 20
169.069207829196
 30
0.0
 11
325.8377311894987
 21
153.6465580983979
 31
0.0
  0
LINE
  5
2379
330
2
100
AcDbEntity
  8
0
100
AcDbLine
 10
330.5377311895176
 20
169.6465580983981
 30
0.0
 11
333.8377311895169
 21
169.6465580983972
 31
0.0
  0
LINE
  5
237A
330
2
100
AcDbEntity
  8
HIDS
100
AcDbLine
 10
339.2519447518811
 20
182.5607716607598
 30
0.0
 11
334.9235176271472
 21
178.2323445360311
 31
0.0
  0
LINE
  5
237B
330
2
100
AcDbEntity
  8
0
100
AcDbLine
 10
333.8377311894951
 20
171.646558098374
 30
0.0
 11
334.3377311895187
 21
172.1465580983967
 31
0.0
  0
LINE
  5
237C
330
2
100
AcDbEntity
  8
0
100
AcDbLine
 10
328.5377311895176
 20
168.9465580983985
 30
0.0
 11
330.137731189518
 21
168.9465580983981
 31
0.0
  0
LINE
  5
237D
330
2
100
AcDbEntity
  8
0
100
AcDbLine
 10
330.3377311895133
 20
169.4465580983933
 30
0.0
 11
330.5377311895176
 21
169.6465580983981
 31
0.0
  0
LINE
  5
237E
330
2
100
AcDbEntity
  8
0
100
AcDbLine
 10
326.8377311895169
 20
169.646558098399
 30
0.0
 11
325.8377311895169
 21
169.0692078292095
 31
0.0
  0
LINE
  5
237F
330
2
100
AcDbEntity
  8
0
100
AcDbLine
 10
326.8377311895169
 20
169.646558098399
 30
0.0
 11
328.137731189518
 21
169.6465580983986
 31
0.0
  0
ARC
  5
2380
330
2
100
AcDbEntity
  8
HIDS
100
AcDbCircle
 10
336.3377311895205
 20
176.8181309736573
 30
0.0
 40
2.0
100
AcDbArc
 50
134.9999999999355
 51
180.0
  0
ARC
  5
2381
330
2
100
AcDbEntity
  8
0
100
AcDbCircle
 10
328.137731189518
 20
169.4465580983983
 30
0.0
 40
0.2
100
AcDbArc
 50
0.0
 51
90.0
  0
ARC
  5
2382
330
2
100
AcDbEntity
  8
0
100
AcDbCircle
 10
328.5377311895176
 20
169.1465580983986
 30
0.0
 40
0.2
100
AcDbArc
 50
180.0
 51
269.9999999999478
  0
ARC
  5
2383
330
2
100
AcDbEntity
  8
0
100
AcDbCircle
 10
330.137731189518
 20
169.1465580983981
 30
0.0
 40
0.2
100
AcDbArc
 50
269.9999999999478
 51
0.0
  0
LINE
  5
2384
330
2
100
AcDbEntity
  8
0
100
AcDbLine
 10
338.3377311895096
 20
174.6465580984124
 30
0.0
 11
332.7377311895093
 21
174.6465580984124
 31
0.0
  0
LINE
  5
2385
330
2
100
AcDbEntity
  8
0
100
AcDbLine
 10
332.7377311895093
 20
174.6465580984124
 30
0.0
 11
332.3377311895096
 21
175.3393784214401
 31
0.0
  0
LINE
  5
2386
330
2
100
AcDbEntity
  8
0
100
AcDbLine
 10
338.3377311895096
 20
174.6465580984124
 30
0.0
 11
339.8377311895078
 21
174.6465580984124
 31
0.0
  0
LINE
  5
2387
330
2
100
AcDbEntity
  8
HIDS
100
AcDbLine
 10
334.3377311895205
 20
176.8181309736573
 30
0.0
 11
334.3377311895078
 21
174.6465580984124
 31
0.0
  0
LINE
  5
2388
330
2
100
AcDbEntity
  8
CENTER
100
AcDbLine
 10
327.3377311895096
 20
179.6465580984124
 30
0.0
 11
353.4030569747706
 21
179.6465580984124
 31
0.0
  0
LINE
  5
2389
330
2
100
AcDbEntity
  8
0
100
AcDbLine
 10
341.8202781185105
 20
187.5984081810566
 30
0.0
 11
347.3376931118441
 21
187.64655793225
 31
0.0
  0
ARC
  5
238A
330
2
100
AcDbEntity
  8
0
100
AcDbCircle
 10
341.8377311895078
 20
185.5984843349281
 30
0.0
 40
2.0
100
AcDbArc
 50
90.50000000001762
 51
180.0
  0
LINE
  5
238B
330
2
100
AcDbEntity
  8
0
100
AcDbLine
 10
338.3377311895096
 20
184.6465580984124
 30
0.0
 11
332.7377311895093
 21
184.6465580984124
 31
0.0
  0
LINE
  5
238C
330
2
100
AcDbEntity
  8
0
100
AcDbLine
 10
332.7377311895093
 20
184.6465580984124
 30
0.0
 11
332.3377311895096
 21
183.9537377753847
 31
0.0
  0
LINE
  5
238D
330
2
100
AcDbEntity
  8
0
100
AcDbLine
 10
338.3377311895078
 20
184.6465580984124
 30
0.0
 11
339.8377311895078
 21
184.6465580984124
 31
0.0
  0
ARC
  5
2391
330
2
100
AcDbEntity
  8
0
100
AcDbCircle
 10
627.7737800961144
 20
246.2717624203818
 30
0.0
 40
60.0
100
AcDbArc
 50
258.1949321895048
 51
275.8946983863513
  0
ARC
  5
2392
330
2
100
AcDbEntity
  8
0
100
AcDbCircle
 10
627.7737800961144
 20
27.02135377641309
 30
0.0
 40
60.0
100
AcDbArc
 50
84.10530161364862
 51
101.8050678104414
  0
LINE
  5
2393
330
2
100
AcDbEntity
  8
CENTER
100
AcDbLine
 10
708.082510744236
 20
190.253159816194
 30
0.0
 11
600.8693073086383
 21
83.03995638059564
 31
0.0
  0
LINE
  5
2394
330
2
100
AcDbEntity
  8
CENTER
100
AcDbLine
 10
600.8693073086451
 20
190.2531598161931
 30
0.0
 11
708.0825107442397
 21
83.03995638059712
 31
0.0
  0
CIRCLE
  5
2395
330
2
100
AcDbEntity
  8
CENTER
100
AcDbCircle
 10
654.4759090264411
 20
136.6465580983996
 30
0.0
 40
60.0
  0
CIRCLE
  5
2396
330
2
100
AcDbEntity
  8
0
100
AcDbCircle
 10
654.4759090264411
 20
136.6465580983996
 30
0.0
 40
34.0
  0
CIRCLE
  5
2397
330
2
100
AcDbEntity
  8
0
100
AcDbCircle
 10
654.4759090264411
 20
136.6465580983996
 30
0.0
 40
45.0
  0
ARC
  5
239A
330
2
100
AcDbEntity
  8
0
100
AcDbCircle
 10
803.475909026441
 20
136.6465580983973
 30
0.0
 40
200.0
100
AcDbArc
 50
174.1053016135961
 51
185.8946983864038
  0
LINE
  5
239E
330
2
100
AcDbEntity
  8
CENTER
100
AcDbLine
 10
376.8377311895005
 20
198.1465580983898
 30
0.0
 11
376.8377311895005
 21
75.14655809839098
 31
0.0
  0
LINE
  5
239F
330
2
100
AcDbEntity
  8
0
100
AcDbLine
 10
429.837731189506
 20
86.36652469114734
 30
0.0
 11
429.837731189506
 21
186.9265915056471
 31
0.0
  0
LINE
  5
23A0
330
2
100
AcDbEntity
  8
0
100
AcDbLine
 10
434.837731189506
 20
91.64655809839997
 30
0.0
 11
434.837731189506
 21
181.6465580983995
 31
0.0
  0
LINE
  5
23A1
330
2
100
AcDbEntity
  8
0
100
AcDbLine
 10
448.8377311895078
 20
104.577935648012
 30
0.0
 11
448.8377311895078
 21
168.7151805487849
 31
0.0
  0
LINE
  5
23A2
330
2
100
AcDbEntity
  8
0
100
AcDbLine
 10
449.837731189506
 20
152.8578829638024
 30
0.0
 11
449.837731189506
 21
120.435233232992
 31
0.0
  0
LINE
  5
23A3
330
2
100
AcDbEntity
  8
0
100
AcDbLine
 10
450.837731189506
 20
148.6466032610616
 30
0.0
 11
450.8382957227982
 21
124.6466032738076
 31
0.0
  0
LINE
  5
23A4
330
2
100
AcDbEntity
  8
0
100
AcDbLine
 10
490.837731189506
 20
126.1466190151512
 30
0.0
 11
490.837731189506
 21
147.1466190151533
 31
0.0
  0
LINE
  5
23A5
330
2
100
AcDbEntity
  8
0
100
AcDbLine
 10
490.337731189506
 20
147.6466188182271
 30
0.0
 11
490.337731189506
 21
125.6466188182251
 31
0.0
  0
LINE
  5
23A6
330
2
100
AcDbEntity
  8
0
100
AcDbLine
 10
376.8377311895132
 20
85.14655809839087
 30
0.0
 11
419.9161587930452
 21
85.56889562391507
 31
0.0
  0
ARC
  5
23A7
330
2
100
AcDbEntity
  8
0
100
AcDbCircle
 10
419.8377311895133
 20
93.56851118411531
 30
0.0
 40
8.0
100
AcDbArc
 50
270.5617053325316
 51
294.9148177589203
  0
ARC
  5
23A8
330
2
100
AcDbEntity
  8
0
100
AcDbCircle
 10
436.8377311895078
 20
100.2262897759005
 30
0.0
 40
2.0
100
AcDbArc
 50
92.0000000000037
 51
180.0
  0
LINE
  5
23A9
330
2
100
AcDbEntity
  8
0
100
AcDbLine
 10
429.837731189506
 20
91.64655809839997
 30
0.0
 11
434.837731189506
 21
91.64655809839997
 31
0.0
  0
LINE
  5
23AA
330
2
100
AcDbEntity
  8
0
100
AcDbLine
 10
450.837731189506
 20
125.6466032610598
 30
0.0
 11
490.337731189506
 21
125.6466188182251
 31
0.0
  0
LINE
  5
23AB
330
2
100
AcDbEntity
  8
0
100
AcDbLine
 10
436.7679321961027
 20
102.2250714299384
 30
0.0
 11
446.9075301829129
 21
102.5791539939741
 31
0.0
  0
ARC
  5
23AC
330
2
100
AcDbEntity
  8
0
100
AcDbCircle
 10
446.8377311895078
 20
104.577935648012
 30
0.0
 40
2.0
100
AcDbArc
 50
272.0000000000037
 51
0.0
  0
ARC
  5
23AD
330
2
100
AcDbEntity
  8
0
100
AcDbCircle
 10
449.337731189506
 20
120.435233232992
 30
0.0
 40
0.5
100
AcDbArc
 50
300.0000000000005
 51
0.0
  0
ARC
  5
23AE
330
2
100
AcDbEntity
  8
0
100
AcDbCircle
 10
448.4358926597328
 20
121.6466073226311
 30
0.0
 40
2.0
100
AcDbArc
 50
281.5907202811201
 51
300.0000000000005
  0
LINE
  5
23AF
330
2
100
AcDbEntity
  8
0
100
AcDbLine
 10
449.587731189506
 20
120.0022205310998
 30
0.0
 11
449.4358926597328
 21
119.9145565150622
 31
0.0
  0
LINE
  5
23B0
330
2
100
AcDbEntity
  8
0
100
AcDbLine
 10
450.837731189506
 20
124.6465129357328
 30
0.0
 11
449.837731189506
 21
124.0691626665432
 31
0.0
  0
LINE
  5
23B1
330
2
100
AcDbEntity
  8
0
100
AcDbLine
 10
490.837731189506
 20
126.1466190151512
 30
0.0
 11
490.337731189506
 21
125.6466188182251
 31
0.0
  0
LINE
  5
23B2
330
2
100
AcDbEntity
  8
CENTER
100
AcDbLine
 10
612.0495021552483
 20
102.2201512272066
 30
0.0
 11
612.0495021552483
 21
86.22015122720688
 31
0.0
  0
ARC
  5
23B3
330
2
100
AcDbEntity
  8
0
100
AcDbCircle
 10
544.8507047044545
 20
109.9444291680725
 30
0.0
 40
60.0
100
AcDbArc
 50
348.1949321895317
 51
5.894698386403893
  0
LINE
  5
23B4
330
2
100
AcDbEntity
  8
CENTER
100
AcDbLine
 10
620.0495021552483
 20
94.22015122720825
 30
0.0
 11
604.0495021552483
 21
94.22015122720825
 31
0.0
  0
CIRCLE
  5
23B5
330
2
100
AcDbEntity
  8
HOJO
100
AcDbCircle
 10
612.0495021552483
 20
94.22015122720665
 30
0.0
 40
4.0
  0
CIRCLE
  5
23B6
330
2
100
AcDbEntity
  8
0
100
AcDbCircle
 10
612.0495021552483
 20
94.22015122720665
 30
0.0
 40
3.2
  0
ARC
  5
23B7
330
2
100
AcDbEntity
  8
0
100
AcDbCircle
 10
608.4759090264411
 20
96.64655809839736
 30
0.0
 40
5.0
100
AcDbArc
 50
168.1949321895316
 51
180.0
  0
LINE
  5
23B8
330
2
100
AcDbEntity
  8
0
100
AcDbLine
 10
603.475909026441
 20
96.64655809839963
 30
0.0
 11
603.475909026441
 21
93.64655809839735
 31
0.0
  0
ARC
  5
23B9
330
2
100
AcDbEntity
  8
0
100
AcDbCircle
 10
614.475909026441
 20
90.64655809839781
 30
0.0
 40
5.0
100
AcDbArc
 50
270.0
 51
281.8050678104415
  0
LINE
  5
23BA
330
2
100
AcDbEntity
  8
0
100
AcDbLine
 10
611.475909026441
 20
85.6465580983969
 30
0.0
 11
614.475909026441
 21
85.64655809839734
 31
0.0
  0
ARC
  5
23BB
330
2
100
AcDbEntity
  8
0
100
AcDbCircle
 10
611.4759090264392
 20
93.64655809839121
 30
0.0
 40
8.0
100
AcDbArc
 50
180.0
 51
270.0
  0
LINE
  5
23C1
330
2
100
AcDbEntity
  8
0
100
AcDbLine
 10
376.8377311895132
 20
188.1465580983899
 30
0.0
 11
419.9161587930452
 21
187.7242205728657
 31
0.0
  0
ARC
  5
23C2
330
2
100
AcDbEntity
  8
0
100
AcDbCircle
 10
419.8377311895133
 20
179.7246050126655
 30
0.0
 40
8.0
100
AcDbArc
 50
65.08518224130987
 51
89.43829466741622
  0
LINE
  5
23C4
330
2
100
AcDbEntity
  8
0
100
AcDbLine
 10
490.337731189506
 20
147.6466188182271
 30
0.0
 11
450.837731189506
 21
147.6466032610614
 31
0.0
  0
ARC
  5
23C5
330
2
100
AcDbEntity
  8
0
100
AcDbCircle
 10
449.337731189506
 20
152.8578829638024
 30
0.0
 40
0.5
100
AcDbArc
 50
0.0
 51
59.99999999999946
  0
ARC
  5
23C6
330
2
100
AcDbEntity
  8
0
100
AcDbCircle
 10
448.4358926597328
 20
151.6465088741633
 30
0.0
 40
2.0
100
AcDbArc
 50
59.99999999999946
 51
78.40927971887985
  0
LINE
  5
23C7
330
2
100
AcDbEntity
  8
0
100
AcDbLine
 10
450.837731189506
 20
148.6466032610616
 30
0.0
 11
449.837731189506
 21
149.2239535302512
 31
0.0
  0
LINE
  5
23C8
330
2
100
AcDbEntity
  8
0
100
AcDbLine
 10
449.587731189506
 20
153.2908956656946
 30
0.0
 11
449.4358926597328
 21
153.3785596817322
 31
0.0
  0
LINE
  5
23C9
330
2
100
AcDbEntity
  8
0
100
AcDbLine
 10
429.837731189506
 20
181.6465580983995
 30
0.0
 11
434.837731189506
 21
181.6465580983995
 31
0.0
  0
ARC
  5
23CA
330
2
100
AcDbEntity
  8
0
100
AcDbCircle
 10
446.8377311895078
 20
168.7151805487849
 30
0.0
 40
2.0
100
AcDbArc
 50
0.0
 51
87.99999999999627
  0
LINE
  5
23CB
330
2
100
AcDbEntity
  8
0
100
AcDbLine
 10
436.7679321961027
 20
171.0680447668587
 30
0.0
 11
446.9075301829129
 21
170.713962202823
 31
0.0
  0
ARC
  5
23CC
330
2
100
AcDbEntity
  8
0
100
AcDbCircle
 10
436.8377311895078
 20
173.0668264208966
 30
0.0
 40
2.0
100
AcDbArc
 50
180.0
 51
267.9999999999963
  0
ARC
  5
23CD
330
2
100
AcDbEntity
  8
0
100
AcDbCircle
 10
446.8377311895078
 20
168.7151805487851
 30
0.0
 40
2.0
100
AcDbArc
 50
0.0
 51
0.0
  0
LINE
  5
23CE
330
2
100
AcDbEntity
  8
0
100
AcDbLine
 10
490.337731189506
 20
147.6466188182271
 30
0.0
 11
490.837731189506
 21
147.1466190151533
 31
0.0
  0
LINE
  5
23CF
330
2
100
AcDbEntity
  8
CENTER
100
AcDbLine
 10
612.0495021552446
 20
187.0729649695923
 30
0.0
 11
612.0495021552446
 21
171.0729649695923
 31
0.0
  0
ARC
  5
23D0
330
2
100
AcDbEntity
  8
0
100
AcDbCircle
 10
611.4759090264392
 20
179.6465580983909
 30
0.0
 40
8.0
100
AcDbArc
 50
90.0
 51
180.0
  0
ARC
  5
23D1
330
2
100
AcDbEntity
  8
0
100
AcDbCircle
 10
544.8507047044545
 20
163.3486870287228
 30
0.0
 40
60.0
100
AcDbArc
 50
354.1053016135961
 51
11.80506781046833
  0
LINE
  5
23D2
330
2
100
AcDbEntity
  8
CENTER
100
AcDbLine
 10
620.0495021552483
 20
179.0729649695923
 30
0.0
 11
604.0495021552483
 21
179.0729649695923
 31
0.0
  0
CIRCLE
  5
23D3
330
2
100
AcDbEntity
  8
HOJO
100
AcDbCircle
 10
612.0495021552483
 20
179.0729649695923
 30
0.0
 40
4.0
  0
CIRCLE
  5
23D4
330
2
100
AcDbEntity
  8
0
100
AcDbCircle
 10
612.0495021552483
 20
179.0729649695923
 30
0.0
 40
3.2
  0
ARC
  5
23D5
330
2
100
AcDbEntity
  8
0
100
AcDbCircle
 10
608.4759090264411
 20
176.6465580983973
 30
0.0
 40
5.0
100
AcDbArc
 50
180.0
 51
191.8050678104683
  0
LINE
  5
23D6
330
2
100
AcDbEntity
  8
0
100
AcDbLine
 10
603.475909026441
 20
179.6465580983971
 30
0.0
 11
603.475909026441
 21
176.6465580983996
 31
0.0
  0
LINE
  5
23D7
330
2
100
AcDbEntity
  8
0
100
AcDbLine
 10
611.475909026441
 20
187.6465580983971
 30
0.0
 11
614.475909026441
 21
187.6465580983971
 31
0.0
  0
ARC
  5
23D8
330
2
100
AcDbEntity
  8
0
100
AcDbCircle
 10
614.475909026441
 20
182.6465580983971
 30
0.0
 40
5.0
100
AcDbArc
 50
78.19493218950483
 51
90.0
  0
LINE
  5
23D9
330
2
100
AcDbEntity
  8
0
100
AcDbLine
 10
734.9759310264412
 20
186.1465580984
 30
0.0
 11
734.9759310264375
 21
87.14655809839962
 31
0.0
  0
LINE
  5
23DB
330
2
100
AcDbEntity
  8
0
100
AcDbLine
 10
705.4759090264355
 20
179.6465580983912
 30
0.0
 11
705.4759090264392
 21
93.64655809839167
 31
0.0
  0
LINE
  5
23DC
330
2
100
AcDbEntity
  8
0
100
AcDbLine
 10
725.9759090264374
 20
172.6465580983975
 30
0.0
 11
725.9759090264355
 21
100.6465580983977
 31
0.0
  0
LINE
  5
23DD
330
2
100
AcDbEntity
  8
0
100
AcDbLine
 10
927.5160087911356
 20
147.1464971816435
 30
0.0
 11
927.5160087911356
 21
126.1464971816417
 31
0.0
  0
LINE
  5
23DE
330
2
100
AcDbEntity
  8
0
100
AcDbLine
 10
928.0160087911356
 20
125.6464973785673
 30
0.0
 11
928.0160087911356
 21
147.6464973785691
 31
0.0
  0
LINE
  5
23E3
330
2
100
AcDbEntity
  8
0
100
AcDbLine
 10
968.5160087911356
 20
120.4352332329922
 30
0.0
 11
968.5160087911356
 21
152.8578829638022
 31
0.0
  0
LINE
  5
23E4
330
2
100
AcDbEntity
  8
0
100
AcDbLine
 10
967.5160087911356
 20
124.6465129357325
 30
0.0
 11
967.5154442578435
 21
148.6465129229868
 31
0.0
  0
LINE
  5
23E5
330
2
100
AcDbEntity
  8
CENTER
100
AcDbLine
 10
654.4759090264428
 20
206.6465580983996
 30
0.0
 11
654.4759090264428
 21
66.64655809839962
 31
0.0
  0
CIRCLE
  5
23E6
330
2
100
AcDbEntity
  8
0
100
AcDbCircle
 10
654.4759090264411
 20
136.6465580983996
 30
0.0
 40
26.0
  0
CIRCLE
  5
23E7
330
2
100
AcDbEntity
  8
0
100
AcDbCircle
 10
654.4759090264428
 20
136.6465580984006
 30
0.0
 40
11.00006071982613
  0
CIRCLE
  5
23E8
330
2
100
AcDbEntity
  8
0
100
AcDbCircle
 10
654.4759090264428
 20
136.6465580984006
 30
0.0
 40
12.00004516266062
  0
CIRCLE
  5
23E9
330
2
100
AcDbEntity
  8
0
100
AcDbCircle
 10
654.4759090264428
 20
136.6465580984006
 30
0.0
 40
12.57739543185027
  0
CIRCLE
  5
23EA
330
2
100
AcDbEntity
  8
0
100
AcDbCircle
 10
654.4759090264428
 20
136.6465580984006
 30
0.0
 40
16.99995077575704
  0
CIRCLE
  5
23EB
330
2
100
AcDbEntity
  8
0
100
AcDbCircle
 10
696.9023158976356
 20
94.22015122720665
 30
0.0
 40
3.2
  0
CIRCLE
  5
23EC
330
2
100
AcDbEntity
  8
HOJO
100
AcDbCircle
 10
696.9023158976356
 20
94.22015122720665
 30
0.0
 40
4.0
  0
LINE
  5
23ED
330
2
100
AcDbEntity
  8
0
100
AcDbLine
 10
694.475909026441
 20
85.64655809839734
 30
0.0
 11
697.4759090264374
 21
85.64655809839734
 31
0.0
  0
LINE
  5
23EE
330
2
100
AcDbEntity
  8
CENTER
100
AcDbLine
 10
704.9023158976356
 20
94.22015122720665
 30
0.0
 11
688.9023158976356
 21
94.22015122720665
 31
0.0
  0
ARC
  5
23EF
330
2
100
AcDbEntity
  8
0
100
AcDbCircle
 10
654.4759090264411
 20
285.6465580983971
 30
0.0
 40
200.0
100
AcDbArc
 50
264.1053016135961
 51
275.8946983863513
  0
LINE
  5
23F0
330
2
100
AcDbEntity
  8
0
100
AcDbLine
 10
658.3419354288722
 20
95.98852849717934
 30
0.0
 11
659.8322370887631
 21
93.64655809838552
 31
0.0
  0
LINE
  5
23F1
330
2
100
AcDbEntity
  8
0
100
AcDbLine
 10
657.6722361577644
 20
93.64655809838508
 30
0.0
 11
659.8322370887631
 21
93.64655809838552
 31
0.0
  0
LINE
  5
23F2
330
2
100
AcDbEntity
  8
0
100
AcDbLine
 10
649.1195809641153
 20
93.64655809838552
 30
0.0
 11
651.2795818951158
 21
93.64655809838508
 31
0.0
  0
LINE
  5
23F3
330
2
100
AcDbEntity
  8
0
100
AcDbLine
 10
652.1195809641207
 20
99.64655809839417
 30
0.0
 11
649.1195809641153
 21
93.64655809838552
 31
0.0
  0
LINE
  5
23F4
330
2
100
AcDbEntity
  8
0
100
AcDbLine
 10
653.259580964122
 20
93.64655809838508
 30
0.0
 11
655.0595263941245
 21
93.64655809838485
 31
0.0
  0
LINE
  5
23F5
330
2
100
AcDbEntity
  8
0
100
AcDbLine
 10
651.7295818951147
 20
94.54655809838675
 30
0.0
 11
651.2795818951158
 21
93.64655809838508
 31
0.0
  0
LINE
  5
23F6
330
2
100
AcDbEntity
  8
0
100
AcDbLine
 10
651.7295818951147
 20
94.54655809838675
 30
0.0
 11
653.259580964122
 21
94.54655809838653
 31
0.0
  0
LINE
  5
23F7
330
2
100
AcDbEntity
  8
0
100
AcDbLine
 10
653.259580964122
 20
94.54655809838653
 30
0.0
 11
653.259580964122
 21
93.64655809838508
 31
0.0
  0
LINE
  5
23F8
330
2
100
AcDbEntity
  8
0
100
AcDbLine
 10
652.6895818951174
 20
96.46655809838888
 30
0.0
 11
653.259580964122
 21
96.46655809838911
 31
0.0
  0
LINE
  5
23F9
330
2
100
AcDbEntity
  8
0
100
AcDbLine
 10
653.259580964122
 20
97.60655623639843
 30
0.0
 11
653.259580964122
 21
96.46655809838911
 31
0.0
  0
LINE
  5
23FA
330
2
100
AcDbEntity
  8
0
100
AcDbLine
 10
653.259580964122
 20
97.60655623639843
 30
0.0
 11
652.6895818951174
 21
96.46655809838888
 31
0.0
  0
LINE
  5
23FB
330
2
100
AcDbEntity
  8
0
100
AcDbLine
 10
655.0595263941245
 20
97.60655809839102
 30
0.0
 11
655.0595263941245
 21
93.64655809838485
 31
0.0
  0
LINE
  5
23FC
330
2
100
AcDbEntity
  8
0
100
AcDbLine
 10
655.0595263941245
 20
97.60655809839102
 30
0.0
 11
656.9720809641271
 21
97.60655809839102
 31
0.0
  0
LINE
  5
23FD
330
2
100
AcDbEntity
  8
0
100
AcDbLine
 10
655.3145809641241
 20
97.35155809839046
 30
0.0
 11
656.9720809641271
 21
97.35155809839046
 31
0.0
  0
ARC
  5
23FE
330
2
100
AcDbEntity
  8
0
100
AcDbCircle
 10
656.9720809641271
 20
97.47905809839075
 30
0.0
 40
0.1275000000001855
100
AcDbArc
 50
270.0
 51
90.0
  0
LINE
  5
23FF
330
2
100
AcDbEntity
  8
0
100
AcDbLine
 10
652.1195809641207
 20
99.64655809839417
 30
0.0
 11
657.0995263941272
 21
99.64655809839417
 31
0.0
  0
ARC
  5
2400
330
2
100
AcDbEntity
  8
0
100
AcDbCircle
 10
657.0995263941272
 20
97.60655809839079
 30
0.0
 40
2.040000000002968
100
AcDbArc
 50
307.5189678668038
 51
90.0
  0
LINE
  5
2401
330
2
100
AcDbEntity
  8
0
100
AcDbLine
 10
655.3145809641241
 20
97.35155809839046
 30
0.0
 11
657.6722361577644
 21
93.64655809838508
 31
0.0
  0
ARC
  5
2402
330
2
100
AcDbEntity
  8
0
100
AcDbCircle
 10
694.475909026441
 20
90.64655809839711
 30
0.0
 40
5.0
100
AcDbArc
 50
258.1949321895048
 51
270.0
  0
ARC
  5
2403
330
2
100
AcDbEntity
  8
0
100
AcDbCircle
 10
681.178037956764
 20
27.02135377641264
 30
0.0
 40
60.0
100
AcDbArc
 50
78.19493218950483
 51
95.89469838635137
  0
LINE
  5
2404
330
2
100
AcDbEntity
  8
CENTER
100
AcDbLine
 10
696.902315897632
 20
102.2201512272066
 30
0.0
 11
696.902315897632
 21
86.22015122720688
 31
0.0
  0
ARC
  5
2405
330
2
100
AcDbEntity
  8
0
100
AcDbCircle
 10
707.4759090264392
 20
99.64655809839735
 30
0.0
 40
2.0
100
AcDbArc
 50
90.0
 51
180.0
  0
ARC
  5
2406
330
2
100
AcDbEntity
  8
0
100
AcDbCircle
 10
724.102925680228
 20
99.64655809839735
 30
0.0
 40
2.0
100
AcDbArc
 50
14.47751218596261
 51
90.0
  0
ARC
  5
2407
330
2
100
AcDbEntity
  8
0
100
AcDbCircle
 10
729.9759090264283
 20
93.6465580983978
 30
0.0
 40
5.0
100
AcDbArc
 50
0.0
 51
90.0
  0
LINE
  5
2408
330
2
100
AcDbEntity
  8
0
100
AcDbLine
 10
729.9759090264283
 20
98.64655809839781
 30
0.0
 11
727.9759090264356
 21
98.64655809839781
 31
0.0
  0
ARC
  5
2409
330
2
100
AcDbEntity
  8
0
100
AcDbCircle
 10
697.4759090264374
 20
93.64655809839144
 30
0.0
 40
8.0
100
AcDbArc
 50
270.0
 51
0.0
  0
ARC
  5
240A
330
2
100
AcDbEntity
  8
0
100
AcDbCircle
 10
727.9759090264356
 20
100.6465580983977
 30
0.0
 40
2.0
100
AcDbArc
 50
180.0
 51
270.0
  0
ARC
  5
240B
330
2
100
AcDbEntity
  8
0
100
AcDbCircle
 10
736.9759310264376
 20
87.64655809839917
 30
0.0
 40
2.0
100
AcDbArc
 50
180.0
 51
270.0
  0
LINE
  5
240C
330
2
100
AcDbEntity
  8
0
100
AcDbLine
 10
750.4759310264412
 20
85.64655809839962
 30
0.0
 11
736.9759310264376
 21
85.64655809839917
 31
0.0
  0
LINE
  5
240D
330
2
100
AcDbEntity
  8
0
100
AcDbLine
 10
750.4759310264412
 20
85.14655809839963
 30
0.0
 11
736.9759310264376
 21
85.14655809839917
 31
0.0
  0
ARC
  5
240E
330
2
100
AcDbEntity
  8
0
100
AcDbCircle
 10
736.9759310264376
 20
87.14655809839916
 30
0.0
 40
2.0
100
AcDbArc
 50
180.0
 51
270.0
  0
LINE
  5
240F
330
2
100
AcDbEntity
  8
0
100
AcDbLine
 10
724.102925680228
 20
101.6465580983973
 30
0.0
 11
707.4759090264392
 21
101.6465580983973
 31
0.0
  0
ARC
  5
2410
330
2
100
AcDbEntity
  8
0
100
AcDbCircle
 10
710.4759090264356
 20
101.6465580983996
 30
0.0
 40
5.0
100
AcDbArc
 50
90.0
 51
180.0
  0
LINE
  5
2411
330
2
100
AcDbEntity
  8
0
100
AcDbLine
 10
710.4759090264356
 20
106.6465580983996
 30
0.0
 11
720.9759310264375
 21
106.6465580983996
 31
0.0
  0
LINE
  5
2412
330
2
100
AcDbEntity
  8
0
100
AcDbLine
 10
707.4759090264373
 20
139.1465580983973
 30
0.0
 11
723.9759310264376
 21
139.1465580983973
 31
0.0
  0
LINE
  5
2413
330
2
100
AcDbEntity
  8
0
100
AcDbLine
 10
707.4759090264373
 20
134.1465580983973
 30
0.0
 11
723.9759310264376
 21
134.1465580983973
 31
0.0
  0
ARC
  5
2414
330
2
100
AcDbEntity
  8
0
100
AcDbCircle
 10
707.4759090264373
 20
141.1465580983973
 30
0.0
 40
2.0
100
AcDbArc
 50
180.0
 51
270.0
  0
ARC
  5
2415
330
2
100
AcDbEntity
  8
0
100
AcDbCircle
 10
707.4759090264373
 20
132.1465580983973
 30
0.0
 40
2.0
100
AcDbArc
 50
90.0
 51
180.0
  0
ARC
  5
2416
330
2
100
AcDbEntity
  8
0
100
AcDbCircle
 10
723.9759310264376
 20
141.1465580983973
 30
0.0
 40
2.0
100
AcDbArc
 50
270.0
 51
0.0
  0
ARC
  5
2417
330
2
100
AcDbEntity
  8
0
100
AcDbCircle
 10
723.9759310264376
 20
132.1465580983973
 30
0.0
 40
2.0
100
AcDbArc
 50
0.0
 51
90.0
  0
ARC
  5
2418
330
2
100
AcDbEntity
  8
0
100
AcDbCircle
 10
720.9759310264375
 20
101.6465580983996
 30
0.0
 40
5.0
100
AcDbArc
 50
0.0
 51
90.0
  0
LINE
  5
241A
330
2
100
AcDbEntity
  8
0
100
AcDbLine
 10
928.0160087911356
 20
125.6464973785673
 30
0.0
 11
967.5160087911356
 21
125.6465129357325
 31
0.0
  0
LINE
  5
241B
330
2
100
AcDbEntity
  8
0
100
AcDbLine
 10
928.0160087911356
 20
125.6464973785673
 30
0.0
 11
927.5160087911356
 21
126.1464971816417
 31
0.0
  0
ARC
  5
241C
330
2
100
AcDbEntity
  8
0
100
AcDbCircle
 10
969.0160087911356
 20
120.4352332329922
 30
0.0
 40
0.5
100
AcDbArc
 50
180.0
 51
239.9999999999994
  0
ARC
  5
241D
330
2
100
AcDbEntity
  8
0
100
AcDbCircle
 10
969.9178473209087
 20
121.6466073226306
 30
0.0
 40
2.0
100
AcDbArc
 50
239.9999999999994
 51
258.4092797188798
  0
LINE
  5
241E
330
2
100
AcDbEntity
  8
0
100
AcDbLine
 10
968.7660087911355
 20
120.0022205311001
 30
0.0
 11
968.9178473209087
 21
119.9145565150624
 31
0.0
  0
LINE
  5
241F
330
2
100
AcDbEntity
  8
0
100
AcDbLine
 10
967.5160087911356
 20
124.6465129357325
 30
0.0
 11
968.5160087911356
 21
124.0691626665434
 31
0.0
  0
LINE
  5
2429
330
2
100
AcDbEntity
  8
0
100
AcDbLine
 10
697.475909026441
 20
187.6465580983968
 30
0.0
 11
694.475909026441
 21
187.6465580983966
 31
0.0
  0
CIRCLE
  5
242A
330
2
100
AcDbEntity
  8
0
100
AcDbCircle
 10
696.9023158976337
 20
179.0729649695926
 30
0.0
 40
3.2
  0
CIRCLE
  5
242B
330
2
100
AcDbEntity
  8
HOJO
100
AcDbCircle
 10
696.9023158976337
 20
179.0729649695926
 30
0.0
 40
4.0
  0
LINE
  5
242C
330
2
100
AcDbEntity
  8
CENTER
100
AcDbLine
 10
704.9023158976337
 20
179.0729649695921
 30
0.0
 11
688.9023158976337
 21
179.0729649695921
 31
0.0
  0
ARC
  5
242D
330
2
100
AcDbEntity
  8
0
100
AcDbCircle
 10
654.4759090264411
 20
-12.3534419016031
 30
0.0
 40
200.0
100
AcDbArc
 50
84.10530161364862
 51
95.89469838635137
  0
ARC
  5
242E
330
2
100
AcDbEntity
  8
0
100
AcDbCircle
 10
694.475909026441
 20
182.6465580983966
 30
0.0
 40
5.0
100
AcDbArc
 50
90.0
 51
101.8050678104414
  0
ARC
  5
242F
330
2
100
AcDbEntity
  8
0
100
AcDbCircle
 10
681.1780379567657
 20
246.2717624203816
 30
0.0
 40
60.0
100
AcDbArc
 50
264.1053016135961
 51
281.8050678104415
  0
LINE
  5
2430
330
2
100
AcDbEntity
  8
CENTER
100
AcDbLine
 10
696.9023158976337
 20
187.0729649695926
 30
0.0
 11
696.9023158976337
 21
171.0729649695925
 31
0.0
  0
ARC
  5
2431
330
2
100
AcDbEntity
  8
0
100
AcDbCircle
 10
697.4759090264428
 20
179.6465580983909
 30
0.0
 40
8.0
100
AcDbArc
 50
0.0
 51
90.0
  0
ARC
  5
2432
330
2
100
AcDbEntity
  8
0
100
AcDbCircle
 10
729.9759090264392
 20
179.6465580983973
 30
0.0
 40
5.0
100
AcDbArc
 50
270.0
 51
0.0
  0
LINE
  5
2433
330
2
100
AcDbEntity
  8
0
100
AcDbLine
 10
729.9759090264392
 20
174.6465580983973
 30
0.0
 11
727.9759090264374
 21
174.6465580983975
 31
0.0
  0
LINE
  5
2434
330
2
100
AcDbEntity
  8
0
100
AcDbLine
 10
724.1029256802298
 20
171.6465580983975
 30
0.0
 11
707.475909026441
 21
171.6465580983978
 31
0.0
  0
ARC
  5
2435
330
2
100
AcDbEntity
  8
0
100
AcDbCircle
 10
707.475909026441
 20
173.6465580983978
 30
0.0
 40
2.0
100
AcDbArc
 50
180.0
 51
270.0
  0
ARC
  5
2436
330
2
100
AcDbEntity
  8
0
100
AcDbCircle
 10
710.4759090264374
 20
171.6465580984
 30
0.0
 40
5.0
100
AcDbArc
 50
180.0
 51
270.0
  0
LINE
  5
2437
330
2
100
AcDbEntity
  8
0
100
AcDbLine
 10
710.4759090264374
 20
166.6465580984
 30
0.0
 11
720.9759310264394
 21
166.6465580983993
 31
0.0
  0
ARC
  5
2438
330
2
100
AcDbEntity
  8
0
100
AcDbCircle
 10
727.9759090264374
 20
172.6465580983975
 30
0.0
 40
2.0
100
AcDbArc
 50
90.0
 51
180.0
  0
ARC
  5
2439
330
2
100
AcDbEntity
  8
0
100
AcDbCircle
 10
724.1029256802298
 20
173.6465580983973
 30
0.0
 40
2.0
100
AcDbArc
 50
270.0
 51
345.5224878140374
  0
ARC
  5
243A
330
2
100
AcDbEntity
  8
0
100
AcDbCircle
 10
720.9759310264394
 20
171.6465580983996
 30
0.0
 40
5.0
100
AcDbArc
 50
270.0
 51
0.0
  0
ARC
  5
243B
330
2
100
AcDbEntity
  8
0
100
AcDbCircle
 10
736.9759310264412
 20
185.6465580983998
 30
0.0
 40
2.0
100
AcDbArc
 50
90.0
 51
180.0
  0
LINE
  5
243C
330
2
100
AcDbEntity
  8
0
100
AcDbLine
 10
750.4759310264412
 20
187.6465580983996
 30
0.0
 11
736.9759310264412
 21
187.6465580983998
 31
0.0
  0
LINE
  5
243D
330
2
100
AcDbEntity
  8
0
100
AcDbLine
 10
750.4759310264412
 20
188.1465580983996
 30
0.0
 11
736.9759310264412
 21
188.1465580983998
 31
0.0
  0
ARC
  5
243E
330
2
100
AcDbEntity
  8
0
100
AcDbCircle
 10
736.9759310264412
 20
186.1465580983998
 30
0.0
 40
2.0
100
AcDbArc
 50
90.0
 51
180.0
  0
LINE
  5
243F
330
2
100
AcDbEntity
  8
0
100
AcDbLine
 10
643.9759699431943
 20
344.9744109531498
 30
0.0
 11
664.9759699431962
 21
344.9744109531498
 31
0.0
  0
LINE
  5
2440
330
2
100
AcDbEntity
  8
0
100
AcDbLine
 10
665.4759697462706
 20
345.4744109531497
 30
0.0
 11
643.4759697462688
 21
345.4744109531497
 31
0.0
  0
LINE
  5
2441
330
2
100
AcDbEntity
  8
0
100
AcDbLine
 10
643.9759699431943
 20
344.9744109531498
 30
0.0
 11
643.4759697462688
 21
345.4744109531497
 31
0.0
  0
LINE
  5
2442
330
2
100
AcDbEntity
  8
0
100
AcDbLine
 10
665.4759697462706
 20
345.4744109531497
 30
0.0
 11
664.9759699431962
 21
344.9744109531498
 31
0.0
  0
LINE
  5
2444
330
2
100
AcDbEntity
  8
0
100
AcDbLine
 10
967.5160087911356
 20
147.6465129357343
 30
0.0
 11
928.0160087911356
 21
147.6464973785691
 31
0.0
  0
LINE
  5
2445
330
2
100
AcDbEntity
  8
0
100
AcDbLine
 10
927.5160087911356
 20
147.1464971816435
 30
0.0
 11
928.0160087911356
 21
147.6464973785691
 31
0.0
  0
LINE
  5
2446
330
2
100
AcDbEntity
  8
0
100
AcDbLine
 10
967.5160087911356
 20
148.6466032610619
 30
0.0
 11
968.5160087911356
 21
149.223953530251
 31
0.0
  0
ARC
  5
2447
330
2
100
AcDbEntity
  8
0
100
AcDbCircle
 10
969.0160087911356
 20
152.8578829638022
 30
0.0
 40
0.5
100
AcDbArc
 50
120.0000000000005
 51
180.0
  0
ARC
  5
2448
330
2
100
AcDbEntity
  8
0
100
AcDbCircle
 10
969.9178473209087
 20
151.6465088741638
 30
0.0
 40
2.0
100
AcDbArc
 50
101.5907202811201
 51
120.0000000000005
  0
LINE
  5
2449
330
2
100
AcDbEntity
  8
0
100
AcDbLine
 10
968.7660087911355
 20
153.2908956656942
 30
0.0
 11
968.9178473209087
 21
153.3785596817319
 31
0.0
  0
LINE
  5
2461
330
2
100
AcDbEntity
  8
CENTER
100
AcDbLine
 10
654.4759090264403
 20
519.9744109531597
 30
0.0
 11
654.4759090264425
 21
334.9744109531497
 31
0.0
  0
LINE
  5
2462
330
2
100
AcDbEntity
  8
0
100
AcDbLine
 10
665.4759697462706
 20
345.4744109531497
 30
0.0
 11
665.4759541891054
 21
384.9744109531497
 31
0.0
  0
LINE
  5
2463
330
2
100
AcDbEntity
  8
0
100
AcDbLine
 10
643.4759541891036
 20
384.9744109531497
 30
0.0
 11
643.4759697462688
 21
345.4744109531497
 31
0.0
  0
LINE
  5
2465
330
2
100
AcDbEntity
  8
0
100
AcDbLine
 10
605.6206156843018
 20
495.974410953153
 30
0.0
 11
702.8621986968538
 21
495.9744109531575
 31
0.0
  0
LINE
  5
2466
330
2
100
AcDbEntity
  8
0
100
AcDbLine
 10
609.4759090264416
 20
400.9744109531552
 30
0.0
 11
699.4759090264416
 21
400.9744109531552
 31
0.0
  0
LINE
  5
2467
330
2
100
AcDbEntity
  8
0
100
AcDbLine
 10
604.1958756191799
 20
405.9744109531552
 30
0.0
 11
704.7533850335322
 21
405.9744109531552
 31
0.0
  0
LINE
  5
2468
330
2
100
AcDbEntity
  8
0
100
AcDbLine
 10
622.4072865760537
 20
386.9744109531538
 30
0.0
 11
686.5445314768277
 21
386.9744109531538
 31
0.0
  0
LINE
  5
2469
330
2
100
AcDbEntity
  8
0
100
AcDbLine
 10
603.4802724603233
 20
488.4744109531575
 30
0.0
 11
704.9584664266123
 21
488.474410953157
 31
0.0
  0
LINE
  5
246A
330
2
100
AcDbEntity
  8
0
100
AcDbLine
 10
619.4759090264398
 20
501.9744109531497
 30
0.0
 11
689.4759090264198
 21
501.9744109531662
 31
0.0
  0
LINE
  5
246B
330
2
100
AcDbEntity
  8
0
100
AcDbLine
 10
686.8985587572389
 20
509.9744109531688
 30
0.0
 11
622.053259295628
 21
509.9744109531506
 31
0.0
  0
LINE
  5
246C
330
2
100
AcDbEntity
  8
0
100
AcDbLine
 10
621.6759090264387
 20
507.4744109531507
 30
0.0
 11
687.2759090264409
 21
507.4744109529519
 31
0.0
  0
LINE
  5
246D
330
2
100
AcDbEntity
  8
0
100
AcDbLine
 10
621.6759090264387
 20
505.4744109531506
 30
0.0
 11
687.2759090264373
 21
505.4744109531506
 31
0.0
  0
LINE
  5
246E
330
2
100
AcDbEntity
  8
0
100
AcDbLine
 10
603.4759090264416
 20
488.4744109531543
 30
0.0
 11
704.9584664266077
 21
488.4744109531598
 31
0.0
  0
LINE
  5
246F
330
2
100
AcDbEntity
  8
0
100
AcDbLine
 10
692.4759090264561
 20
501.4744109531553
 30
0.0
 11
616.4759090264253
 21
501.4744109531553
 31
0.0
  0
LINE
  5
2470
330
2
100
AcDbEntity
  8
0
100
AcDbLine
 10
687.4759090264416
 20
508.9744109531461
 30
0.0
 11
621.4759090264379
 21
508.9744109531507
 31
0.0
  0
LINE
  5
2471
330
2
100
AcDbEntity
  8
0
100
AcDbLine
 10
621.4759090264398
 20
505.2744109531499
 30
0.0
 11
687.4759090264416
 21
505.2744109531459
 31
0.0
  0
LINE
  5
2472
330
2
100
AcDbEntity
  8
0
100
AcDbLine
 10
603.4759090264416
 20
488.4744109531552
 30
0.0
 11
604.1958756191799
 21
405.9744109531552
 31
0.0
  0
LINE
  5
2473
330
2
100
AcDbEntity
  8
0
100
AcDbLine
 10
611.4759090264398
 20
487.9744109531552
 30
0.0
 11
611.475909026438
 21
407.474410953157
 31
0.0
  0
LINE
  5
2474
330
2
100
AcDbEntity
  8
0
100
AcDbLine
 10
614.4759090264416
 20
487.9744109531552
 30
0.0
 11
614.4759090264398
 21
407.474410953157
 31
0.0
  0
LINE
  5
2475
330
2
100
AcDbEntity
  8
0
100
AcDbLine
 10
609.4759090264416
 20
405.9744109531552
 30
0.0
 11
609.4759090264416
 21
400.9744109531552
 31
0.0
  0
ARC
  5
2476
330
2
100
AcDbEntity
  8
0
100
AcDbCircle
 10
622.4072865760537
 20
388.9744109531538
 30
0.0
 40
2.0
100
AcDbArc
 50
182.0000000000037
 51
270.0
  0
LINE
  5
2477
330
2
100
AcDbEntity
  8
0
100
AcDbLine
 10
620.0544223579819
 20
399.0442099465585
 30
0.0
 11
620.4085049220158
 21
388.9046119597492
 31
0.0
  0
ARC
  5
2478
330
2
100
AcDbEntity
  8
0
100
AcDbCircle
 10
618.055640703944
 20
398.9744109531538
 30
0.0
 40
2.0
100
AcDbArc
 50
2.000000000003725
 51
90.0
  0
LINE
  5
2479
330
2
100
AcDbEntity
  8
CENTER
100
AcDbLine
 10
611.4759090264252
 20
508.474410953155
 30
0.0
 11
611.4759090264252
 21
474.909085167895
 31
0.0
  0
LINE
  5
247A
330
2
100
AcDbEntity
  8
0
100
AcDbLine
 10
621.4759090264398
 20
505.2744109531499
 30
0.0
 11
621.4759090264398
 21
501.9744109531502
 31
0.0
  0
LINE
  5
247B
330
2
100
AcDbEntity
  8
0
100
AcDbLine
 10
619.4759090264398
 20
501.9744109531497
 30
0.0
 11
618.9759090264398
 21
501.4744109531497
 31
0.0
  0
LINE
  5
247C
330
2
100
AcDbEntity
  8
0
100
AcDbLine
 10
621.4759090264398
 20
501.9744109531552
 30
0.0
 11
619.4759090264453
 21
501.9744109531552
 31
0.0
  0
LINE
  5
247D
330
2
100
AcDbEntity
  8
0
100
AcDbLine
 10
621.4759090264379
 20
508.9744109531507
 30
0.0
 11
621.4759090264398
 21
507.6744109531505
 31
0.0
  0
LINE
  5
247E
330
2
100
AcDbEntity
  8
0
100
AcDbLine
 10
621.4759090264379
 20
508.9744109531502
 30
0.0
 11
622.053259295628
 21
509.9744109531506
 31
0.0
  0
LINE
  5
247F
330
2
100
AcDbEntity
  8
0
100
AcDbLine
 10
621.6759090264387
 20
505.4744109531506
 30
0.0
 11
621.4759090264398
 21
505.2744109531499
 31
0.0
  0
LINE
  5
2480
330
2
100
AcDbEntity
  8
0
100
AcDbLine
 10
622.1759090264387
 20
507.2744109531499
 30
0.0
 11
622.1759090264387
 21
505.6744109531505
 31
0.0
  0
ARC
  5
2481
330
2
100
AcDbEntity
  8
0
100
AcDbCircle
 10
605.6206156843018
 20
493.9744109531552
 30
0.0
 40
2.0
100
AcDbArc
 50
90.0
 51
178.5000000000103
  0
ARC
  5
2482
330
2
100
AcDbEntity
  8
0
100
AcDbCircle
 10
621.6759090264387
 20
507.6744109531505
 30
0.0
 40
0.2
100
AcDbArc
 50
180.0
 51
269.9999999998957
  0
ARC
  5
2483
330
2
100
AcDbEntity
  8
0
100
AcDbCircle
 10
621.9759090264379
 20
507.2744109531499
 30
0.0
 40
0.2
100
AcDbArc
 50
0.0
 51
89.99999999989578
  0
ARC
  5
2484
330
2
100
AcDbEntity
  8
0
100
AcDbCircle
 10
621.9759090264398
 20
505.6744109531505
 30
0.0
 40
0.2
100
AcDbArc
 50
270.0
 51
0.0
  0
LINE
  5
2485
330
2
100
AcDbEntity
  8
0
100
AcDbLine
 10
603.6213010343509
 20
494.0267648497711
 30
0.0
 11
603.4759075306903
 21
488.4744109531543
 31
0.0
  0
LINE
  5
2486
330
2
100
AcDbEntity
  8
0
100
AcDbLine
 10
616.4759090264253
 20
497.4744109531548
 30
0.0
 11
616.4759090264253
 21
503.0744109531546
 31
0.0
  0
LINE
  5
2487
330
2
100
AcDbEntity
  8
0
100
AcDbLine
 10
606.4759090264252
 20
497.4744109531548
 30
0.0
 11
606.4759090264252
 21
503.0744109531546
 31
0.0
  0
LINE
  5
2488
330
2
100
AcDbEntity
  8
0
100
AcDbLine
 10
606.4759090264252
 20
497.4744109531548
 30
0.0
 11
616.4759090264253
 21
497.4744109531548
 31
0.0
  0
LINE
  5
2489
330
2
100
AcDbEntity
  8
0
100
AcDbLine
 10
607.1687293494525
 20
503.4744109531548
 30
0.0
 11
615.783088703398
 21
503.4744109531552
 31
0.0
  0
LINE
  5
248A
330
2
100
AcDbEntity
  8
0
100
AcDbLine
 10
606.4759090264252
 20
503.0744109531552
 30
0.0
 11
616.4759090264253
 21
503.0744109531546
 31
0.0
  0
LINE
  5
248B
330
2
100
AcDbEntity
  8
0
100
AcDbLine
 10
606.4759090264252
 20
503.0744109531546
 30
0.0
 11
607.1687293494525
 21
503.4744109531548
 31
0.0
  0
LINE
  5
248C
330
2
100
AcDbEntity
  8
0
100
AcDbLine
 10
616.4759090264253
 20
503.0744109531546
 30
0.0
 11
615.783088703398
 21
503.4744109531548
 31
0.0
  0
LINE
  5
248D
330
2
100
AcDbEntity
  8
0
100
AcDbLine
 10
606.4759090264252
 20
497.4744109531552
 30
0.0
 11
606.4759090264252
 21
495.9744109531552
 31
0.0
  0
LINE
  5
248E
330
2
100
AcDbEntity
  8
0
100
AcDbLine
 10
616.4759090264253
 20
497.4744109531548
 30
0.0
 11
616.4759090264253
 21
495.9744109531552
 31
0.0
  0
LINE
  5
248F
330
2
100
AcDbEntity
  8
HIDS
100
AcDbLine
 10
608.5616954640774
 20
496.5601973907828
 30
0.0
 11
612.8901225888058
 21
500.8886245155158
 31
0.0
  0
ARC
  5
2490
330
2
100
AcDbEntity
  8
HIDS
100
AcDbCircle
 10
607.1474819017041
 20
497.9744109531552
 30
0.0
 40
2.0
100
AcDbArc
 50
270.0
 51
315.0000000000092
  0
ARC
  5
2491
330
2
100
AcDbEntity
  8
HIDS
100
AcDbCircle
 10
614.304336151181
 20
499.4744109531434
 30
0.0
 40
2.0
100
AcDbArc
 50
90.0
 51
135.0000000000092
  0
LINE
  5
2492
330
2
100
AcDbEntity
  8
HIDS
100
AcDbLine
 10
614.304336151181
 20
501.4744109531434
 30
0.0
 11
616.4759090264253
 21
501.4744109531553
 31
0.0
  0
LINE
  5
2493
330
2
100
AcDbEntity
  8
0
100
AcDbLine
 10
705.2159090264405
 20
458.9744109531552
 30
0.0
 11
704.7533850335322
 21
405.9744109531552
 31
0.0
  0
LINE
  5
2494
330
2
100
AcDbEntity
  8
0
100
AcDbLine
 10
724.9808440068119
 20
458.9744109531552
 30
0.0
 11
725.9249081183335
 21
422.9220570565393
 31
0.0
  0
LINE
  5
2495
330
2
100
AcDbEntity
  8
0
100
AcDbLine
 10
694.4759090264416
 20
458.9744109531552
 30
0.0
 11
694.4759090264416
 21
407.474410953157
 31
0.0
  0
LINE
  5
2496
330
2
100
AcDbEntity
  8
0
100
AcDbLine
 10
675.0160082036164
 20
487.9744109531552
 30
0.0
 11
675.0160082036128
 21
407.474410953157
 31
0.0
  0
LINE
  5
2497
330
2
100
AcDbEntity
  8
0
100
AcDbLine
 10
697.2141029926971
 20
488.4656844176577
 30
0.0
 11
697.2141029926971
 21
407.474410953157
 31
0.0
  0
LINE
  5
2498
330
2
100
AcDbEntity
  8
0
100
AcDbLine
 10
734.9759310264418
 20
507.9744109531577
 30
0.0
 11
734.9759310264381
 21
409.9744109531573
 31
0.0
  0
LINE
  5
249A
330
2
100
AcDbEntity
  8
0
100
AcDbLine
 10
633.9358098492668
 20
487.9744109531552
 30
0.0
 11
633.9358098492668
 21
407.474410953157
 31
0.0
  0
LINE
  5
249B
330
2
100
AcDbEntity
  8
0
100
AcDbLine
 10
670.6872338918457
 20
385.9744109531498
 30
0.0
 11
638.2645841610357
 21
385.9744109531498
 31
0.0
  0
LINE
  5
249C
330
2
100
AcDbEntity
  8
0
100
AcDbLine
 10
666.4759541891054
 20
384.9744109531497
 30
0.0
 11
642.475954201851
 21
384.9738464198576
 31
0.0
  0
LINE
  5
249D
330
2
100
AcDbEntity
  8
0
100
AcDbLine
 10
642.475863863776
 20
384.9744109531497
 30
0.0
 11
641.8985135945868
 21
385.9744109531498
 31
0.0
  0
ARC
  5
249E
330
2
100
AcDbEntity
  8
0
100
AcDbCircle
 10
638.2645841610357
 20
386.4744109531498
 30
0.0
 40
0.5
100
AcDbArc
 50
210.0000000000239
 51
270.0
  0
ARC
  5
249F
330
2
100
AcDbEntity
  8
0
100
AcDbCircle
 10
639.4759582506741
 20
387.3762494829229
 30
0.0
 40
2.0
100
AcDbArc
 50
191.5907202811265
 51
210.0000000000239
  0
LINE
  5
24A0
330
2
100
AcDbEntity
  8
0
100
AcDbLine
 10
637.8315714591437
 20
386.2244109531498
 30
0.0
 11
637.7439074431059
 21
386.3762494829229
 31
0.0
  0
ARC
  5
24A1
330
2
100
AcDbEntity
  8
0
100
AcDbCircle
 10
686.5445314768277
 20
388.9744109531538
 30
0.0
 40
2.0
100
AcDbArc
 50
270.0
 51
357.9999999999962
  0
ARC
  5
24A2
330
2
100
AcDbEntity
  8
0
100
AcDbCircle
 10
670.6872338918457
 20
386.4744109531498
 30
0.0
 40
0.5
100
AcDbArc
 50
270.0
 51
329.999999999976
  0
ARC
  5
24A3
330
2
100
AcDbEntity
  8
0
100
AcDbCircle
 10
669.4758598022072
 20
387.3762494829229
 30
0.0
 40
2.0
100
AcDbArc
 50
329.999999999976
 51
348.4092797188734
  0
LINE
  5
24A4
330
2
100
AcDbEntity
  8
0
100
AcDbLine
 10
666.4759541891054
 20
384.9744109531497
 30
0.0
 11
667.0533044582945
 21
385.9744109531498
 31
0.0
  0
LINE
  5
24A5
330
2
100
AcDbEntity
  8
0
100
AcDbLine
 10
671.1202465937377
 20
386.2244109531498
 30
0.0
 11
671.2079106097754
 21
386.3762494829229
 31
0.0
  0
LINE
  5
24A6
330
2
100
AcDbEntity
  8
0
100
AcDbLine
 10
688.8973956949013
 20
399.044209946559
 30
0.0
 11
688.5433131308656
 21
388.9046119597492
 31
0.0
  0
ARC
  5
24A7
330
2
100
AcDbEntity
  8
0
100
AcDbCircle
 10
690.8961773489392
 20
398.9744109531538
 30
0.0
 40
2.0
100
AcDbArc
 50
90.0
 51
177.9999999999962
  0
LINE
  5
24A8
330
2
100
AcDbEntity
  8
0
100
AcDbLine
 10
699.4759090264416
 20
405.9744109531552
 30
0.0
 11
699.4759090264416
 21
400.9744109531552
 31
0.0
  0
ARC
  5
24A9
330
2
100
AcDbEntity
  8
0
100
AcDbCircle
 10
729.7647076914328
 20
415.9744109531552
 30
0.0
 40
5.0
100
AcDbArc
 50
1.499999999989629
 51
90.0
  0
LINE
  5
24AA
330
2
100
AcDbEntity
  8
0
100
AcDbLine
 10
727.9242227682845
 20
420.9744109531552
 30
0.0
 11
729.7647076914328
 21
420.9744109531552
 31
0.0
  0
ARC
  5
24AB
330
2
100
AcDbEntity
  8
0
100
AcDbCircle
 10
709.910659045695
 20
423.9744109531552
 30
0.0
 40
5.0
100
AcDbArc
 50
90.0
 51
179.5000000000084
  0
LINE
  5
24AC
330
2
100
AcDbEntity
  8
0
100
AcDbLine
 10
706.8930910749569
 20
423.9744109531552
 30
0.0
 11
724.051239422075
 21
423.9744109531557
 31
0.0
  0
ARC
  5
24AD
330
2
100
AcDbEntity
  8
0
100
AcDbCircle
 10
706.8930910749569
 20
421.9744109531552
 30
0.0
 40
2.0
100
AcDbArc
 50
90.0
 51
179.5000000000084
  0
LINE
  5
24AE
330
2
100
AcDbEntity
  8
0
100
AcDbLine
 10
709.910659045695
 20
428.9744109531552
 30
0.0
 11
720.8956372992799
 21
428.9744109531555
 31
0.0
  0
ARC
  5
24AF
330
2
100
AcDbEntity
  8
0
100
AcDbCircle
 10
720.8956372992799
 20
423.9744109531555
 30
0.0
 40
5.0
100
AcDbArc
 50
1.500000000015675
 51
90.0
  0
ARC
  5
24B0
330
2
100
AcDbEntity
  8
0
100
AcDbCircle
 10
727.9242227682845
 20
422.9744109531552
 30
0.0
 40
2.0
100
AcDbArc
 50
181.5000000000157
 51
270.0
  0
ARC
  5
24B1
330
2
100
AcDbEntity
  8
0
100
AcDbCircle
 10
724.051239422075
 20
421.9744109531557
 30
0.0
 40
2.0
100
AcDbArc
 50
14.47751218590259
 51
90.0
  0
ARC
  5
24B2
330
2
100
AcDbEntity
  8
0
100
AcDbCircle
 10
736.9759310264381
 20
409.974410953157
 30
0.0
 40
2.0
100
AcDbArc
 50
180.0
 51
270.0
  0
LINE
  5
24B3
330
2
100
AcDbEntity
  8
0
100
AcDbLine
 10
750.4759310264418
 20
407.9744109531572
 30
0.0
 11
736.9759310264381
 21
407.9744109531571
 31
0.0
  0
LINE
  5
24B4
330
2
100
AcDbEntity
  8
HIDS
100
AcDbLine
 10
700.390122588804
 20
496.5601973907828
 30
0.0
 11
696.0616954640737
 21
500.8886245155158
 31
0.0
  0
LINE
  5
24B5
330
2
100
AcDbEntity
  8
0
100
AcDbLine
 10
702.4759090264561
 20
497.4744109531548
 30
0.0
 11
692.4759090264561
 21
497.4744109531548
 31
0.0
  0
LINE
  5
24B6
330
2
100
AcDbEntity
  8
0
100
AcDbLine
 10
701.7830887034289
 20
503.4744109531548
 30
0.0
 11
693.1687293494834
 21
503.4744109531552
 31
0.0
  0
LINE
  5
24B7
330
2
100
AcDbEntity
  8
0
100
AcDbLine
 10
702.4759090264561
 20
503.0744109531552
 30
0.0
 11
692.4759090264561
 21
503.0744109531546
 31
0.0
  0
LINE
  5
24B8
330
2
100
AcDbEntity
  8
0
100
AcDbLine
 10
696.2356435444381
 20
458.9744109531554
 30
0.0
 11
705.2159090264405
 21
458.9744109531552
 31
0.0
  0
LINE
  5
24B9
330
2
100
AcDbEntity
  8
0
100
AcDbLine
 10
694.4890019872238
 20
488.4744109531588
 30
0.0
 11
695.2359862194608
 21
459.9482340048475
 31
0.0
  0
ARC
  5
24BA
330
2
100
AcDbEntity
  8
0
100
AcDbCircle
 10
696.2356435444363
 20
459.9744109531554
 30
0.0
 40
1.0
100
AcDbArc
 50
181.5000000000157
 51
270.0
  0
LINE
  5
24BB
330
2
100
AcDbEntity
  8
0
100
AcDbLine
 10
696.2356435444381
 20
458.9744109531554
 30
0.0
 11
696.2356435444363
 21
458.9744109531554
 31
0.0
  0
ARC
  5
24BC
330
2
100
AcDbEntity
  8
HIDS
100
AcDbCircle
 10
694.6474819017004
 20
499.4744109531434
 30
0.0
 40
2.0
100
AcDbArc
 50
44.99999999999078
 51
90.0
  0
LINE
  5
24BD
330
2
100
AcDbEntity
  8
0
100
AcDbLine
 10
692.4759090264561
 20
497.4744109531548
 30
0.0
 11
692.4759090264561
 21
503.0744109531546
 31
0.0
  0
LINE
  5
24BE
330
2
100
AcDbEntity
  8
0
100
AcDbLine
 10
692.4759090264561
 20
503.0744109531546
 30
0.0
 11
693.1687293494834
 21
503.4744109531548
 31
0.0
  0
LINE
  5
24BF
330
2
100
AcDbEntity
  8
0
100
AcDbLine
 10
692.4759090264561
 20
497.4744109531548
 30
0.0
 11
692.4759090264561
 21
495.9744109531552
 31
0.0
  0
LINE
  5
24C0
330
2
100
AcDbEntity
  8
HIDS
100
AcDbLine
 10
694.6474819017004
 20
501.4744109531434
 30
0.0
 11
692.4759090264561
 21
501.4744109531553
 31
0.0
  0
LINE
  5
24C1
330
2
100
AcDbEntity
  8
0
100
AcDbLine
 10
687.4759090264416
 20
505.2744109531459
 30
0.0
 11
687.4759090264397
 21
501.9744109531461
 31
0.0
  0
LINE
  5
24C2
330
2
100
AcDbEntity
  8
0
100
AcDbLine
 10
689.4759090264198
 20
501.9744109531662
 30
0.0
 11
689.9759090264398
 21
501.4744109531452
 31
0.0
  0
LINE
  5
24C3
330
2
100
AcDbEntity
  8
0
100
AcDbLine
 10
686.7759090264408
 20
507.2744109531463
 30
0.0
 11
686.7759090264408
 21
505.6744109531459
 31
0.0
  0
LINE
  5
24C4
330
2
100
AcDbEntity
  8
0
100
AcDbLine
 10
687.2759090264373
 20
505.4744109531506
 30
0.0
 11
687.4759090264416
 21
505.2744109531459
 31
0.0
  0
LINE
  5
24C5
330
2
100
AcDbEntity
  8
0
100
AcDbLine
 10
687.4759090264416
 20
508.9744109531461
 30
0.0
 11
686.8985587572534
 21
509.9744109531461
 31
0.0
  0
LINE
  5
24C6
330
2
100
AcDbEntity
  8
0
100
AcDbLine
 10
687.4759090264416
 20
508.9744109531461
 30
0.0
 11
687.4759090264416
 21
507.674410953146
 31
0.0
  0
ARC
  5
24C7
330
2
100
AcDbEntity
  8
0
100
AcDbCircle
 10
687.2759090264409
 20
507.674410953146
 30
0.0
 40
0.2
100
AcDbArc
 50
270.0
 51
0.0
  0
ARC
  5
24C8
330
2
100
AcDbEntity
  8
0
100
AcDbCircle
 10
686.9759090264416
 20
507.2744109531458
 30
0.0
 40
0.2
100
AcDbArc
 50
90.0
 51
179.9999999999479
  0
ARC
  5
24C9
330
2
100
AcDbEntity
  8
0
100
AcDbCircle
 10
686.9759090264416
 20
505.6744109531459
 30
0.0
 40
0.2
100
AcDbArc
 50
179.9999999999479
 51
270.0
  0
LINE
  5
24CA
330
2
100
AcDbEntity
  8
0
100
AcDbLine
 10
705.2159090264405
 20
458.9744109531552
 30
0.0
 11
704.9584664266141
 21
488.474410953157
 31
0.0
  0
LINE
  5
24CB
330
2
100
AcDbEntity
  8
CENTER
100
AcDbLine
 10
697.4759090264561
 20
508.4744109531595
 30
0.0
 11
697.4759090264561
 21
474.909085167895
 31
0.0
  0
LINE
  5
24CC
330
2
100
AcDbEntity
  8
0
100
AcDbLine
 10
724.9808440068065
 20
458.9744109531552
 30
0.0
 11
725.9249081183335
 21
495.0267648497709
 31
0.0
  0
ARC
  5
24CD
330
2
100
AcDbEntity
  8
0
100
AcDbCircle
 10
720.8694513777119
 20
492.9744109531593
 30
0.0
 40
5.0
100
AcDbArc
 50
270.0
 51
358.4999999999843
  0
ARC
  5
24CE
330
2
100
AcDbEntity
  8
0
100
AcDbCircle
 10
707.1767142781546
 20
454.4744109531555
 30
0.0
 40
2.0
100
AcDbArc
 50
90.0
 51
179.5000000000084
  0
ARC
  5
24CF
330
2
100
AcDbEntity
  8
0
100
AcDbCircle
 10
707.2578134884407
 20
463.4744109531552
 30
0.0
 40
2.0
100
AcDbArc
 50
179.5000000000084
 51
270.0
  0
LINE
  5
24D0
330
2
100
AcDbEntity
  8
0
100
AcDbLine
 10
707.2578134884407
 20
461.4744109531552
 30
0.0
 11
723.0979950688871
 21
461.4744109531552
 31
0.0
  0
LINE
  5
24D1
330
2
100
AcDbEntity
  8
0
100
AcDbLine
 10
707.1767142781546
 20
456.4744109531554
 30
0.0
 11
723.0979950688926
 21
456.4744109531554
 31
0.0
  0
ARC
  5
24D2
330
2
100
AcDbEntity
  8
0
100
AcDbCircle
 10
723.0979950688926
 20
454.4744109531555
 30
0.0
 40
2.0
100
AcDbArc
 50
1.500000000015675
 51
90.0
  0
ARC
  5
24D3
330
2
100
AcDbEntity
  8
0
100
AcDbCircle
 10
723.0979950688871
 20
463.4744109531552
 30
0.0
 40
2.0
100
AcDbArc
 50
270.0
 51
358.4999999999843
  0
ARC
  5
24D4
330
2
100
AcDbEntity
  8
0
100
AcDbCircle
 10
729.7647076914328
 20
501.9744109531557
 30
0.0
 40
5.0
100
AcDbArc
 50
270.0
 51
358.4999999999843
  0
LINE
  5
24D5
330
2
100
AcDbEntity
  8
0
100
AcDbLine
 10
727.9242227682845
 20
496.9744109531553
 30
0.0
 11
729.7647076914328
 21
496.9744109531553
 31
0.0
  0
LINE
  5
24D6
330
2
100
AcDbEntity
  8
0
100
AcDbLine
 10
720.8694513777119
 20
487.9744109531593
 30
0.0
 11
705.4584664266095
 21
487.9744109531593
 31
0.0
  0
LINE
  5
24D7
330
2
100
AcDbEntity
  8
0
100
AcDbLine
 10
704.8621225429825
 20
493.9918640241549
 30
0.0
 11
704.9102726264756
 21
488.4744109531598
 31
0.0
  0
ARC
  5
24D8
330
2
100
AcDbEntity
  8
0
100
AcDbCircle
 10
702.8621986968538
 20
493.9744109531575
 30
0.0
 40
2.0
100
AcDbArc
 50
0.5000000000176293
 51
90.0
  0
ARC
  5
24D9
330
2
100
AcDbEntity
  8
HIDS
100
AcDbCircle
 10
701.8043361511773
 20
497.9744109531552
 30
0.0
 40
2.0
100
AcDbArc
 50
224.9999999999908
 51
270.0
  0
LINE
  5
24DA
330
2
100
AcDbEntity
  8
0
100
AcDbLine
 10
702.4759090264561
 20
497.4744109531548
 30
0.0
 11
702.4759090264561
 21
503.0744109531546
 31
0.0
  0
LINE
  5
24DB
330
2
100
AcDbEntity
  8
0
100
AcDbLine
 10
702.4759090264561
 20
503.0744109531546
 30
0.0
 11
701.7830887034289
 21
503.4744109531548
 31
0.0
  0
LINE
  5
24DC
330
2
100
AcDbEntity
  8
0
100
AcDbLine
 10
702.4759090264561
 20
497.4744109531552
 30
0.0
 11
702.4759090264561
 21
495.9744109531552
 31
0.0
  0
LINE
  5
24DD
330
2
100
AcDbEntity
  8
0
100
AcDbLine
 10
705.4584664266095
 20
487.9744109531593
 30
0.0
 11
704.9584664266086
 21
488.4744109531598
 31
0.0
  0
ARC
  5
24DE
330
2
100
AcDbEntity
  8
0
100
AcDbCircle
 10
727.9242227682845
 20
494.9744109531552
 30
0.0
 40
2.0
100
AcDbArc
 50
90.0
 51
178.5000000000103
  0
ARC
  5
24DF
330
2
100
AcDbEntity
  8
0
100
AcDbCircle
 10
736.9759310264417
 20
507.9744109531577
 30
0.0
 40
2.0
100
AcDbArc
 50
90.0
 51
180.0
  0
LINE
  5
24E0
330
2
100
AcDbEntity
  8
0
100
AcDbLine
 10
750.4759310264418
 20
509.9744109531575
 30
0.0
 11
736.9759310264417
 21
509.9744109531577
 31
0.0
  0
LINE
  5
2708
330
2
100
AcDbEntity
  8
0
100
AcDbLine
 10
347.337731189506
 20
157.1866572755887
 30
0.0
 11
341.8202781185105
 21
157.1866572755887
 31
0.0
  0
LINE
  5
2709
330
2
100
AcDbEntity
  8
0
100
AcDbLine
 10
347.337731189506
 20
116.1064589212054
 30
0.0
 11
341.8202781185105
 21
116.1064589212054
 31
0.0
  0
LINE
  5
270A
330
2
100
AcDbEntity
  8
0
100
AcDbLine
 10
347.337731189506
 20
96.64655809837981
 30
0.0
 11
341.8202781185105
 21
96.64655809837981
 31
0.0
  0
LINE
  5
270B
330
2
100
AcDbEntity
  8
0
100
AcDbLine
 10
347.3377311895051
 20
176.6465580984143
 30
0.0
 11
341.8202781185105
 21
176.6465580984143
 31
0.0
  0
LINE
  5
270C
330
2
100
AcDbEntity
  8
0
100
AcDbLine
 10
347.3377311895042
 20
179.6465580984118
 30
0.0
 11
341.8202781185105
 21
179.6465580984118
 31
0.0
  0
LINE
  5
270D
330
2
100
AcDbEntity
  8
0
100
AcDbLine
 10
347.337731189506
 20
93.64655809838231
 30
0.0
 11
341.8202781185105
 21
93.64655809838231
 31
0.0
  0
CIRCLE
  5
2733
330
2
100
AcDbEntity
  8
0
100
AcDbCircle
 10
654.4759090264383
 20
136.6465580984063
 30
0.0
 40
26.57735026918937
  0
ENDSEC
  0
SECTION
  2
OBJECTS
  0
DICTIONARY
  5
7
330
0
100
AcDbDictionary
  3
ACAD_COLOR
350
1E20
  3
ACAD_GROUP
350
75
  3
ACAD_LAYOUT
350
61
  3
ACAD_MATERIAL
350
1DF6
  3
ACAD_MLEADERSTYLE
350
1E45
  3
ACAD_MLINESTYLE
350
76
  3
ACAD_PLOTSETTINGS
350
77
  3
ACAD_PLOTSTYLENAME
350
6
  3
ACAD_SCALELIST
350
1E23
  3
ACAD_TABLESTYLE
350
1E21
  3
ACAD_VISUALSTYLE
350
1E0F
  3
ACADDIM
350
480
  3
ACDB_RECOMPOSE_DATA
350
1E83
  3
ACDBHEADERROUNDTRIPXREC
350
2776
  3
ACDBVARIABLEDICTIONARY
350
102
  3
DWGPROPS
350
2743
  0
DICTIONARY
  5
1E8C
330
6E
100
AcDbDictionary
280
     1
  3
ACAD_XREC_ROUNDTRIP
360
274A
  0
DICTIONARY
  5
ADC
330
66
100
AcDbDictionary
280
     1
  3
ACAD_LAYERSTATES
360
ADD
  0
DICTIONARY
  5
1E71
330
5E
100
AcDbDictionary
280
     1
  3
ACAD_XREC_ROUNDTRIP
360
2746
  3
ADSK_XREC_LAYER_RECONCILED
360
1E72
  0
DICTIONARY
  5
1E73
330
3E
100
AcDbDictionary
280
     1
  3
ACAD_XREC_ROUNDTRIP
360
2745
  3
ADSK_XREC_LAYER_RECONCILED
360
1E74
  0
DICTIONARY
  5
1E79
330
2B5
100
AcDbDictionary
280
     1
  3
ACAD_XREC_ROUNDTRIP
360
2750
  3
ADSK_XREC_LAYER_RECONCILED
360
1E7A
  0
DICTIONARY
  5
1E7B
330
2BA
100
AcDbDictionary
280
     1
  3
ACAD_XREC_ROUNDTRIP
360
2751
  3
ADSK_XREC_LAYER_RECONCILED
360
1E7C
  0
DICTIONARY
  5
1E7F
330
3FA
100
AcDbDictionary
280
     1
  3
ACAD_XREC_ROUNDTRIP
360
2753
  3
ADSK_XREC_LAYER_RECONCILED
360
1E80
  0
DICTIONARY
  5
2797
330
2
100
AcDbDictionary
280
     1
  3
ACAD_LAYOUTSELFREF
360
2798
  0
DICTIONARY
  5
2799
330
2770
100
AcDbDictionary
280
     1
  3
ACAD_LAYOUTSELFREF
360
279A
  0
DICTIONARY
  5
1E20
102
{ACAD_REACTORS
330
7
102
}
330
7
100
AcDbDictionary
  0
DICTIONARY
  5
75
102
{ACAD_REACTORS
330
7
102
}
330
7
100
AcDbDictionary
  0
DICTIONARY
  5
61
102
{ACAD_REACTORS
330
7
102
}
330
7
100
AcDbDictionary
  0
DICTIONARY
  5
1DF6
102
{ACAD_REACTORS
330
7
102
}
330
7
100
AcDbDictionary
  3
BYBLOCK
350
1DFF
  3
BYLAYER
350
1DF7
  3
GLOBAL
350
1E07
  0
DICTIONARY
  5
1E45
102
{ACAD_REACTORS
330
7
102
}
330
7
100
AcDbDictionary
  3
STANDARD
350
1E46
  0
DICTIONARY
  5
76
102
{ACAD_REACTORS
330
7
102
}
330
7
100
AcDbDictionary
  3
STANDARD
350
78
  0
DICTIONARY
  5
77
102
{ACAD_REACTORS
330
7
102
}
330
7
100
AcDbDictionary
  0
ACDBDICTIONARYWDFLT
  5
6
102
{ACAD_REACTORS
330
7
102
}
330
7
100
AcDbDictionary
281
     1
  3
Normal
350
5
100
AcDbDictionaryWithDefault
340
5
  0
DICTIONARY
  5
1E23
102
{ACAD_REACTORS
330
7
102
}
330
7
100
AcDbDictionary
  3
A0
350
1E24
  3
A1
350
1E25
  3
A2
350
1E26
  3
A3
350
1E27
  3
A4
350
1E28
  3
A5
350
1E29
  3
A6
350
1E2A
  3
A7
350
1E2B
  3
A8
350
1E2C
  3
A9
350
1E2D
  3
B0
350
1E2E
  3
B1
350
1E2F
  3
B2
350
1E30
  3
B3
350
1E31
  3
B4
350
1E32
  3
B5
350
1E33
  3
B6
350
1E34
  3
B7
350
1E35
  3
B8
350
1E36
  3
B9
350
1E37
  3
C0
350
1E38
  3
C1
350
1E39
  3
C2
350
1E3A
  3
C3
350
1E3B
  3
C4
350
1E3C
  3
C5
350
1E3D
  3
C6
350
1E3E
  3
C7
350
1E3F
  3
C8
350
1E40
  3
C9
350
1E41
  3
D0
350
1E42
  3
D1
350
1E43
  3
D2
350
1E44
  0
DICTIONARY
  5
1E21
102
{ACAD_REACTORS
330
7
102
}
330
7
100
AcDbDictionary
  3
STANDARD
350
1E22
  0
DICTIONARY
  5
1E0F
102
{ACAD_REACTORS
330
7
102
}
330
7
100
AcDbDictionary
  3
2DWIREFRAME
350
1E15
  3
3D_HIDDEN
350
1E17
  3
3DWIREFRAME
350
1E16
  3
BASIC
350
1E14
  3
BRIGHTEN
350
1E1B
  3
COLORCHANGE
350
1E1F
  3
CONCEPTUAL
350
1E18
  3
DIM
350
1E1A
  3
FACEPATTERN
350
1E1E
  3
FLAT
350
1E10
  3
FLATWITHEDGES
350
1E11
  3
GOURAUD
350
1E12
  3
GOURAUDWITHEDGES
350
1E13
  3
LINEPATTERN
350
1E1D
  3
REALISTIC
350
1E19
  3
THICKEN
350
1E1C
  0
XRECORD
  5
480
102
{ACAD_REACTORS
330
7
102
}
330
7
100
AcDbXrecord
 90
   990106
  3

 60
     0
 61
     0
 62
     1
 63
     3
 64
     1
 65
     0
 66
     0
 67
     3
 68
     1
 69
     0
 70
     0
 71
     0
 72
     0
 40
0.0
170
     2
340
0
  0
XRECORD
  5
1E83
102
{ACAD_REACTORS
330
7
102
}
330
7
100
AcDbXrecord
 90
        1
330
1E22
  0
DICTIONARY
  5
2776
102
{ACAD_REACTORS
330
7
102
}
330
7
100
AcDbDictionary
  3
CEPSNTYPE
350
2780
  3
DIMSTYLEDATA
350
2784
  3
FINGERPRINTGUID
350
2781
  3
HYPERLINKBASE
350
2779
  3
INSUNITS
350
277F
  3
LAYOUTDICT
350
277B
  3
LWETCUNION
350
277E
  3
PLOTSETDICT
350
277C
  3
PLOTSTYLNAMDICT
350
277D
  3
PSVPSCALE
350
2783
  3
PUCSBASE
350
2787
  3
PUCSORGBACK
350
278D
  3
PUCSORGBOTTOM
350
2789
  3
PUCSORGFRONT
350
278C
  3
PUCSORGLEFT
350
278A
  3
PUCSORGRIGHT
350
278B
  3
PUCSORGTOP
350
2788
  3
PUCSORTHOREF
350
2785
  3
PUCSORTHOVIEW
350
2786
  3
STYLESHEET
350
277A
  3
TSTACKALIGN
350
2777
  3
TSTACKSIZE
350
2778
  3
UCSBASE
350
2790
  3
UCSORGBACK
350
2796
  3
UCSORGBOTTOM
350
2792
  3
UCSORGFRONT
350
2795
  3
UCSORGLEFT
350
2793
  3
UCSORGRIGHT
350
2794
  3
UCSORGTOP
350
2791
  3
UCSORTHOREF
350
278E
  3
UCSORTHOVIEW
350
278F
  3
VERSIONGUID
350
2782
  0
DICTIONARY
  5
102
102
{ACAD_REACTORS
330
7
102
}
330
7
100
AcDbDictionary
  3
CANNOSCALE
350
1EA4
  3
CMLEADERSTYLE
350
1EA3
  3
CTABLESTYLE
350
1EA2
  3
DIMASSOC
350
103
  3
INDEXCTL
350
1EA5
  3
SORTENTS
350
549
  0
XRECORD
  5
2743
102
{ACAD_REACTORS
330
7
102
}
330
7
100
AcDbXrecord
  1
DWGPROPS COOKIE
  2

  3

  4

  6

  7

  8
ymorima
  9

300
=
301
=
302
=
303
=
304
=
305
=
306
=
307
=
308
=
309
=
 40
0.0370786574074074
 41
2454411.432936921
 42
2454425.727833657
  1

 90
        0
  0
XRECORD
  5
274A
102
{ACAD_REACTORS
330
1E8C
102
}
330
1E8C
100
AcDbXrecord
102
VTR_0.000_0.000_1.000_1.000_VISUALSTYLE
340
1E15
102
VTR_0.000_0.000_1.000_1.000_GRIDDISPLAY
 70
     3
102
VTR_0.000_0.000_1.000_1.000_GRIDMAJOR
 70
     5
102
VTR_0.000_0.000_1.000_1.000_DEFAULTLIGHTING
280
     1
102
VTR_0.000_0.000_1.000_1.000_DEFAULTLIGHTINGTYPE
 70
     1
102
VTR_0.000_0.000_1.000_1.000_BRIGHTNESS
141
0.0
102
VTR_0.000_0.000_1.000_1.000_CONTRAST
142
0.0
  0
DICTIONARY
  5
ADD
102
{ACAD_REACTORS
330
ADC
102
}
330
ADC
100
AcDbDictionary
  0
XRECORD
  5
2746
102
{ACAD_REACTORS
330
1E71
102
}
330
1E71
100
AcDbXrecord
102
MATERIAL
340
1E07
  0
XRECORD
  5
1E72
102
{ACAD_REACTORS
330
1E71
102
}
330
1E71
100
AcDbXrecord
290
     1
  0
XRECORD
  5
2745
102
{ACAD_REACTORS
330
1E73
102
}
330
1E73
100
AcDbXrecord
102
MATERIAL
340
1E07
  0
XRECORD
  5
1E74
102
{ACAD_REACTORS
330
1E73
102
}
330
1E73
100
AcDbXrecord
290
     1
  0
XRECORD
  5
2750
102
{ACAD_REACTORS
330
1E79
102
}
330
1E79
100
AcDbXrecord
102
MATERIAL
340
1E07
  0
XRECORD
  5
1E7A
102
{ACAD_REACTORS
330
1E79
102
}
330
1E79
100
AcDbXrecord
290
     1
  0
XRECORD
  5
2751
102
{ACAD_REACTORS
330
1E7B
102
}
330
1E7B
100
AcDbXrecord
102
MATERIAL
340
1E07
  0
XRECORD
  5
1E7C
102
{ACAD_REACTORS
330
1E7B
102
}
330
1E7B
100
AcDbXrecord
290
     1
  0
XRECORD
  5
2753
102
{ACAD_REACTORS
330
1E7F
102
}
330
1E7F
100
AcDbXrecord
102
MATERIAL
340
1E07
  0
XRECORD
  5
1E80
102
{ACAD_REACTORS
330
1E7F
102
}
330
1E7F
100
AcDbXrecord
290
     1
  0
XRECORD
  5
2798
102
{ACAD_REACTORS
330
2797
102
}
330
2797
100
AcDbXrecord
340
2
  0
XRECORD
  5
279A
102
{ACAD_REACTORS
330
2799
102
}
330
2799
100
AcDbXrecord
340
2770
  0
ACAD_PROXY_OBJECT
  5
1DFF
102
{ACAD_XDICTIONARY
360
1E00
102
}
102
{ACAD_REACTORS
330
1DF6
102
}
330
1DF6
100
AcDbProxyObject
 90
      499
 91
      511
 93
     1340
310
42109E509B1BD8DAC02004014080404555555555555953FAA155555555555654FEA9AA400014080404555555555555953FAA155555555555654FEA9AA400000000000000E03F4080404555555555555953FAA155555555555654FEA9AA4014080404555555555555953FAA155555555555654FEA9AA4010201011555555555
310
55654FEA8555555555555953FAA6A9005020101155555555555654FEA8555555555555953FAA6A9009
 94
        0
1001
ACAD
1000
AcadProxyRoundTripData
1071
      504
1071
   655383
1070
     0
  0
ACAD_PROXY_OBJECT
  5
1DF7
102
{ACAD_XDICTIONARY
360
1DF8
102
}
102
{ACAD_REACTORS
330
1DF6
102
}
330
1DF6
100
AcDbProxyObject
 90
      499
 91
      511
 93
     1340
310
42109E53185E595C802004014080404555555555555953FAA155555555555654FEA9AA400014080404555555555555953FAA155555555555654FEA9AA400000000000000E03F4080404555555555555953FAA155555555555654FEA9AA4014080404555555555555953FAA155555555555654FEA9AA4010201011555555555
310
55654FEA8555555555555953FAA6A9005020101155555555555654FEA8555555555555953FAA6A9009
 94
        0
1001
ACAD
1000
AcadProxyRoundTripData
1071
      504
1071
   655383
1070
     0
  0
ACAD_PROXY_OBJECT
  5
1E07
102
{ACAD_XDICTIONARY
360
1E08
102
}
102
{ACAD_REACTORS
330
1DF6
102
}
330
1DF6
100
AcDbProxyObject
 90
      499
 91
      511
 93
     1332
310
41D1DB1BD8985B002004014080404555555555555953FAA155555555555654FEA9AA400014080404555555555555953FAA155555555555654FEA9AA400000000000000E03F4080404555555555555953FAA155555555555654FEA9AA4014080404555555555555953FAA155555555555654FEA9AA401020101155555555555
310
654FEA8555555555555953FAA6A9005020101155555555555654FEA8555555555555953FAA6A9000
 94
        0
1001
ACAD
1000
AcadProxyRoundTripData
1071
      504
1071
   655383
1070
     0
  0
ACAD_PROXY_OBJECT
  5
1E46
102
{ACAD_REACTORS
330
1E45
102
}
330
1E45
100
AcDbProxyObject
 90
      499
 91
      511
 93
      618
310
40901902A4063FBFFFFFE056BD1B81E855B9FC0AD7A3703D0AD73F4254DD185B99185C990000AD7A3703D0AC73F90141901A02B5E8DC0F42B1CFC02B5E8DC0F42B1CFE5764000000000000300FC6
340
6A
340
0
340
16
340
0
 94
        0
1001
ACAD_MLEADERVER
1070
     2
1001
ACAD
1000
AcadProxyRoundTripData
1071
      508
1071
   655383
1070
     0
  0
MLINESTYLE
  5
78
102
{ACAD_REACTORS
330
76
102
}
330
76
100
AcDbMlineStyle
  2
STANDARD
 70
     0
  3

 62
     0
 51
90.0
 52
90.0
 71
     2
 49
0.5
 62
   256
  6
BYLAYER
 49
-0.5
 62
   256
  6
BYLAYER
  0
ACDBPLACEHOLDER
  5
5
102
{ACAD_REACTORS
330
6
102
}
330
6
100
AcDbPlaceHolder
280
     0
  0
ACAD_PROXY_OBJECT
  5
1E24
102
{ACAD_REACTORS
330
1E23
102
}
330
1E23
100
AcDbProxyObject
 90
      499
 91
      511
 93
       49
310
904313A3100598
 94
        0
1001
ACAD
1000
AcadProxyRoundTripData
1071
      507
1071
   655383
1070
     0
  0
ACAD_PROXY_OBJECT
  5
1E25
102
{ACAD_REACTORS
330
1E23
102
}
330
1E23
100
AcDbProxyObject
 90
      499
 91
      511
 93
      113
310
904313A3200400000000000000406B
 94
        0
1001
ACAD
1000
AcadProxyRoundTripData
1071
      507
1071
   655383
1070
     0
  0
ACAD_PROXY_OBJECT
  5
1E26
102
{ACAD_REACTORS
330
1E23
102
}
330
1E23
100
AcDbProxyObject
 90
      499
 91
      511
 93
      113
310
904313A3400400000000000010406B
 94
        0
1001
ACAD
1000
AcadProxyRoundTripData
1071
      507
1071
   655383
1070
     0
  0
ACAD_PROXY_OBJECT
  5
1E27
102
{ACAD_REACTORS
330
1E23
102
}
330
1E23
100
AcDbProxyObject
 90
      499
 91
      511
 93
      113
310
904313A3500400000000000014406B
 94
        0
1001
ACAD
1000
AcadProxyRoundTripData
1071
      507
1071
   655383
1070
     0
  0
ACAD_PROXY_OBJECT
  5
1E28
102
{ACAD_REACTORS
330
1E23
102
}
330
1E23
100
AcDbProxyObject
 90
      499
 91
      511
 93
      113
310
904313A3800400000000000020406B
 94
        0
1001
ACAD
1000
AcadProxyRoundTripData
1071
      507
1071
   655383
1070
     0
  0
ACAD_PROXY_OBJECT
  5
1E29
102
{ACAD_REACTORS
330
1E23
102
}
330
1E23
100
AcDbProxyObject
 90
      499
 91
      511
 93
      121
310
905313A3130004000000000000244051
 94
        0
1001
ACAD
1000
AcadProxyRoundTripData
1071
      507
1071
   655383
1070
     0
  0
ACAD_PROXY_OBJECT
  5
1E2A
102
{ACAD_REACTORS
330
1E23
102
}
330
1E23
100
AcDbProxyObject
 90
      499
 91
      511
 93
      121
310
905313A3136004000000000000304051
 94
        0
1001
ACAD
1000
AcadProxyRoundTripData
1071
      507
1071
   655383
1070
     0
  0
ACAD_PROXY_OBJECT
  5
1E2B
102
{ACAD_REACTORS
330
1E23
102
}
330
1E23
100
AcDbProxyObject
 90
      499
 91
      511
 93
      121
310
905313A3230004000000000000344051
 94
        0
1001
ACAD
1000
AcadProxyRoundTripData
1071
      507
1071
   655383
1070
     0
  0
ACAD_PROXY_OBJECT
  5
1E2C
102
{ACAD_REACTORS
330
1E23
102
}
330
1E23
100
AcDbProxyObject
 90
      499
 91
      511
 93
      121
310
905313A33300040000000000003E4051
 94
        0
1001
ACAD
1000
AcadProxyRoundTripData
1071
      507
1071
   655383
1070
     0
  0
ACAD_PROXY_OBJECT
  5
1E2D
102
{ACAD_REACTORS
330
1E23
102
}
330
1E23
100
AcDbProxyObject
 90
      499
 91
      511
 93
      121
310
905313A3430004000000000000444051
 94
        0
1001
ACAD
1000
AcadProxyRoundTripData
1071
      507
1071
   655383
1070
     0
  0
ACAD_PROXY_OBJECT
  5
1E2E
102
{ACAD_REACTORS
330
1E23
102
}
330
1E23
100
AcDbProxyObject
 90
      499
 91
      511
 93
      121
310
905313A3530004000000000000494051
 94
        0
1001
ACAD
1000
AcadProxyRoundTripData
1071
      507
1071
   655383
1070
     0
  0
ACAD_PROXY_OBJECT
  5
1E2F
102
{ACAD_REACTORS
330
1E23
102
}
330
1E23
100
AcDbProxyObject
 90
      499
 91
      511
 93
      129
310
906313A313030004000000000000594038
 94
        0
1001
ACAD
1000
AcadProxyRoundTripData
1071
      507
1071
   655383
1070
     0
  0
ACAD_PROXY_OBJECT
  5
1E30
102
{ACAD_REACTORS
330
1E23
102
}
330
1E23
100
AcDbProxyObject
 90
      499
 91
      511
 93
      113
310
904323A31000000000000000010159
 94
        0
1001
ACAD
1000
AcadProxyRoundTripData
1071
      507
1071
   655383
1070
     0
  0
ACAD_PROXY_OBJECT
  5
1E31
102
{ACAD_REACTORS
330
1E23
102
}
330
1E23
100
AcDbProxyObject
 90
      499
 91
      511
 93
      113
310
904343A31000000000000000410159
 94
        0
1001
ACAD
1000
AcadProxyRoundTripData
1071
      507
1071
   655383
1070
     0
  0
ACAD_PROXY_OBJECT
  5
1E32
102
{ACAD_REACTORS
330
1E23
102
}
330
1E23
100
AcDbProxyObject
 90
      499
 91
      511
 93
      113
310
904383A31000000000000000810159
 94
        0
1001
ACAD
1000
AcadProxyRoundTripData
1071
      507
1071
   655383
1070
     0
  0
ACAD_PROXY_OBJECT
  5
1E33
102
{ACAD_REACTORS
330
1E23
102
}
330
1E23
100
AcDbProxyObject
 90
      499
 91
      511
 93
      121
310
90531303A31000000000000000910140
 94
        0
1001
ACAD
1000
AcadProxyRoundTripData
1071
      507
1071
   655383
1070
     0
  0
ACAD_PROXY_OBJECT
  5
1E34
102
{ACAD_REACTORS
330
1E23
102
}
330
1E23
100
AcDbProxyObject
 90
      499
 91
      511
 93
      129
310
9063130303A31000000000000001650138
 94
        0
1001
ACAD
1000
AcadProxyRoundTripData
1071
      507
1071
   655383
1070
     0
  0
ACAD_PROXY_OBJECT
  5
1E35
102
{ACAD_REACTORS
330
1E23
102
}
330
1E23
100
AcDbProxyObject
 90
      499
 91
      511
 93
      265
310
90F312F31323822203D2031272D302200000000000000200FC00000000000028402B
 94
        0
1001
ACAD
1000
AcadProxyRoundTripData
1071
      507
1071
   655383
1070
     0
  0
ACAD_PROXY_OBJECT
  5
1E36
102
{ACAD_REACTORS
330
1E23
102
}
330
1E23
100
AcDbProxyObject
 90
      499
 91
      511
 93
      257
310
90E312F363422203D2031272D302200000000000000240FC000000000000284040
 94
        0
1001
ACAD
1000
AcadProxyRoundTripData
1071
      507
1071
   655383
1070
     0
  0
ACAD_PROXY_OBJECT
  5
1E37
102
{ACAD_REACTORS
330
1E23
102
}
330
1E23
100
AcDbProxyObject
 90
      499
 91
      511
 93
      257
310
90E312F333222203D2031272D302200000000000000280FC000000000000284040
 94
        0
1001
ACAD
1000
AcadProxyRoundTripData
1071
      507
1071
   655383
1070
     0
  0
ACAD_PROXY_OBJECT
  5
1E38
102
{ACAD_REACTORS
330
1E23
102
}
330
1E23
100
AcDbProxyObject
 90
      499
 91
      511
 93
      257
310
90E312F313622203D2031272D3022000000000000002C0FC000000000000284040
 94
        0
1001
ACAD
1000
AcadProxyRoundTripData
1071
      507
1071
   655383
1070
     0
  0
ACAD_PROXY_OBJECT
  5
1E39
102
{ACAD_REACTORS
330
1E23
102
}
330
1E23
100
AcDbProxyObject
 90
      499
 91
      511
 93
      257
310
90E332F333222203D2031272D3022000000000000002E0FC000000000000284040
 94
        0
1001
ACAD
1000
AcadProxyRoundTripData
1071
      507
1071
   655383
1070
     0
  0
ACAD_PROXY_OBJECT
  5
1E3A
102
{ACAD_REACTORS
330
1E23
102
}
330
1E23
100
AcDbProxyObject
 90
      499
 91
      511
 93
      249
310
90D312F3822203D2031272D302200000000000000300FC000000000000284040
 94
        0
1001
ACAD
1000
AcadProxyRoundTripData
1071
      507
1071
   655383
1070
     0
  0
ACAD_PROXY_OBJECT
  5
1E3B
102
{ACAD_REACTORS
330
1E23
102
}
330
1E23
100
AcDbProxyObject
 90
      499
 91
      511
 93
      257
310
90E332F313622203D2031272D302200000000000000320FC000000000000284040
 94
        0
1001
ACAD
1000
AcadProxyRoundTripData
1071
      507
1071
   655383
1070
     0
  0
ACAD_PROXY_OBJECT
  5
1E3C
102
{ACAD_REACTORS
330
1E23
102
}
330
1E23
100
AcDbProxyObject
 90
      499
 91
      511
 93
      249
310
90D312F3422203D2031272D302200000000000000340FC000000000000284040
 94
        0
1001
ACAD
1000
AcadProxyRoundTripData
1071
      507
1071
   655383
1070
     0
  0
ACAD_PROXY_OBJECT
  5
1E3D
102
{ACAD_REACTORS
330
1E23
102
}
330
1E23
100
AcDbProxyObject
 90
      499
 91
      511
 93
      249
310
90D332F3822203D2031272D302200000000000000360FC000000000000284040
 94
        0
1001
ACAD
1000
AcadProxyRoundTripData
1071
      507
1071
   655383
1070
     0
  0
ACAD_PROXY_OBJECT
  5
1E3E
102
{ACAD_REACTORS
330
1E23
102
}
330
1E23
100
AcDbProxyObject
 90
      499
 91
      511
 93
      249
310
90D312F3222203D2031272D302200000000000000380FC000000000000284040
 94
        0
1001
ACAD
1000
AcadProxyRoundTripData
1071
      507
1071
   655383
1070
     0
  0
ACAD_PROXY_OBJECT
  5
1E3F
102
{ACAD_REACTORS
330
1E23
102
}
330
1E23
100
AcDbProxyObject
 90
      499
 91
      511
 93
      249
310
90D332F3422203D2031272D3022000000000000003A0FC000000000000284040
 94
        0
1001
ACAD
1000
AcadProxyRoundTripData
1071
      507
1071
   655383
1070
     0
  0
ACAD_PROXY_OBJECT
  5
1E40
102
{ACAD_REACTORS
330
1E23
102
}
330
1E23
100
AcDbProxyObject
 90
      499
 91
      511
 93
      169
310
90B3122203D2031272D3022004000000000000284020
 94
        0
1001
ACAD
1000
AcadProxyRoundTripData
1071
      507
1071
   655383
1070
     0
  0
ACAD_PROXY_OBJECT
  5
1E41
102
{ACAD_REACTORS
330
1E23
102
}
330
1E23
100
AcDbProxyObject
 90
      499
 91
      511
 93
      265
310
90F312D312F3222203D2031272D3022000000000000003E0FC00000000000028402B
 94
        0
1001
ACAD
1000
AcadProxyRoundTripData
1071
      507
1071
   655383
1070
     0
  0
ACAD_PROXY_OBJECT
  5
1E42
102
{ACAD_REACTORS
330
1E23
102
}
330
1E23
100
AcDbProxyObject
 90
      499
 91
      511
 93
      233
310
90B3322203D2031272D30220000000000000002100000000000000284000
 94
        0
1001
ACAD
1000
AcadProxyRoundTripData
1071
      507
1071
   655383
1070
     0
  0
ACAD_PROXY_OBJECT
  5
1E43
102
{ACAD_REACTORS
330
1E23
102
}
330
1E23
100
AcDbProxyObject
 90
      499
 91
      511
 93
      233
310
90B3622203D2031272D30220000000000000006100000000000000284000
 94
        0
1001
ACAD
1000
AcadProxyRoundTripData
1071
      507
1071
   655383
1070
     0
  0
ACAD_PROXY_OBJECT
  5
1E44
102
{ACAD_REACTORS
330
1E23
102
}
330
1E23
100
AcDbProxyObject
 90
      499
 91
      511
 93
      257
310
90E31272D3022203D2031272D3022000000000000000A100000000000000284040
 94
        0
1001
ACAD
1000
AcadProxyRoundTripData
1071
      507
1071
   655383
1070
     0
  0
ACAD_PROXY_OBJECT
  5
1E22
102
{ACAD_XDICTIONARY
360
1E81
102
}
102
{ACAD_REACTORS
330
1E21
102
}
330
1E21
100
AcDbProxyObject
 90
      499
 91
      511
 93
     1849
310
4254DD185B99185C990028B81E85EB51B8AE3F2E07A17AD46E2B8FC02B5E8DC0F42B1CFD028000000C1008070000C3001FDFF8000000C1003FBFF000000182007F7FE00000030400FEFFC00000060801FDFF8000000C1003FBFF00000018200000000000000681FA0B0000001820100E000186003FBFF000000182007F7FE0
310
0000030400FEFFC00000060801FDFF8000000C1003FBFF000000182007F7FE000000304000AD7A3703D0AC73F4160000003040201C00030C007F7FE00000030400FEFFC00000060801FDFF8000000C1003FBFF000000182007F7FE00000030400FEFFC000000608000
340
16
340
16
340
16
 94
        0
1001
ACAD
1000
AcadProxyRoundTripData
1071
      506
1071
   655383
1070
     0
  0
ACAD_PROXY_OBJECT
  5
1E15
102
{ACAD_REACTORS
330
1E0F
102
}
330
1E0F
100
AcDbProxyObject
 90
      499
 91
      511
 93
      444
310
430C9915DA5C99599C985B59401049028333333333333E3BF0000000000000FB0107901411070040501600405405064090741402480A0340
 94
        0
1001
ACAD
1000
AcDbSavedByObjectVersion
1070
     0
1000
AcadProxyRoundTripData
1071
      505
1071
   655383
1070
     0
  0
ACAD_PROXY_OBJECT
  5
1E17
102
{ACAD_REACTORS
330
1E0F
102
}
330
1E0F
100
AcDbProxyObject
 90
      499
 91
      511
 93
      508
310
428CD108121A5919195B8010640502408333333333333E3BF0000000000000FB01079024090700405020000000000001110200405405064090740C02480A0340
 94
        0
1001
ACAD
1000
AcDbSavedByObjectVersion
1070
     0
1000
AcadProxyRoundTripData
1071
      505
1071
   655383
1070
     0
  0
ACAD_PROXY_OBJECT
  5
1E16
102
{ACAD_REACTORS
330
1E0F
102
}
330
1E0F
100
AcDbProxyObject
 90
      499
 91
      511
 93
      444
310
430CD915DA5C99599C985B59401059028333333333333E3BF0000000000000FB0107901411070040501600405405064090741402480A0340
 94
        0
1001
ACAD
1000
AcDbSavedByObjectVersion
1070
     0
1000
AcadProxyRoundTripData
1071
      505
1071
   655383
1070
     0
  0
ACAD_PROXY_OBJECT
  5
1E14
102
{ACAD_REACTORS
330
1E0F
102
}
330
1E0F
100
AcDbProxyObject
 90
      499
 91
      511
 93
      396
310
4190985CDA58C0107406404333333333333E3BF0000000000000FB0107A41107004050150841D405064090741402480A0356
 94
        0
1001
ACAD
1000
AcDbSavedByObjectVersion
1070
     0
1000
AcadProxyRoundTripData
1071
      505
1071
   655383
1070
     0
  0
ACAD_PROXY_OBJECT
  5
1E1B
102
{ACAD_REACTORS
330
1E0F
102
}
330
1E0F
100
AcDbProxyObject
 90
      499
 91
      511
 93
      436
310
42509C9A59DA1D195B8010C409028333333333333E3BF0000000000000FB010790141107004050150841D405064090741402480A029956
 94
        0
1001
ACAD
1000
AcDbSavedByObjectVersion
1070
     0
1000
AcadProxyRoundTripData
1071
      505
1071
   655383
1070
     0
  0
ACAD_PROXY_OBJECT
  5
1E1F
102
{ACAD_REACTORS
330
1E0F
102
}
330
1E0F
100
AcDbProxyObject
 90
      499
 91
      511
 93
      460
310
4310DBDB1BDC90DA185B99D9401104090240C333333333333E3BF0000000000000FB0108901411070040501508421405064090741402480A0354
 94
        0
1001
ACAD
1000
AcDbSavedByObjectVersion
1070
     0
1000
AcadProxyRoundTripData
1071
      505
1071
   655383
1070
     0
  0
ACAD_PROXY_OBJECT
  5
1E18
102
{ACAD_REACTORS
330
1E0F
102
}
330
1E0F
100
AcDbProxyObject
 90
      499
 91
      511
 93
      508
310
42D0DBDB98D95C1D1D585B0010940D028333333333333E3BF0000000000000FB0107902409070040501000000000000111010841D405064090740C02480A0340
 94
        0
1001
ACAD
1000
AcDbSavedByObjectVersion
1070
     0
1000
AcadProxyRoundTripData
1071
      505
1071
   655383
1070
     0
  0
ACAD_PROXY_OBJECT
  5
1E1A
102
{ACAD_REACTORS
330
1E0F
102
}
330
1E0F
100
AcDbProxyObject
 90
      499
 91
      511
 93
      420
310
41111A5B4010B409028333333333333E3BF0000000000000FB010790141107004050150841D405064090741402480A02677FFFFFDB
 94
        0
1001
ACAD
1000
AcDbSavedByObjectVersion
1070
     0
1000
AcadProxyRoundTripData
1071
      505
1071
   655383
1070
     0
  0
ACAD_PROXY_OBJECT
  5
1E1E
102
{ACAD_REACTORS
330
1E0F
102
}
330
1E0F
100
AcDbProxyObject
 90
      499
 91
      511
 93
      452
310
43119858D95C185D1D195C9B8010F409028333333333333E3BF0000000000000FB010790141107004050150841D405064090741402480A0350
 94
        0
1001
ACAD
1000
AcDbSavedByObjectVersion
1070
     0
1000
AcadProxyRoundTripData
1071
      505
1071
   655383
1070
     0
  0
ACAD_PROXY_OBJECT
  5
1E10
102
{ACAD_REACTORS
330
1E0F
102
}
330
1E0F
100
AcDbProxyObject
 90
      499
 91
      511
 93
      396
310
41519B185D00240901404333333333333E3BF0000000000000F9010740A41107004050150841D405064090741402480A1B55
 94
        0
1001
ACAD
1000
AcDbSavedByObjectVersion
1070
     0
1000
AcadProxyRoundTripData
1071
      505
1071
   655383
1070
     0
  0
ACAD_PROXY_OBJECT
  5
1E11
102
{ACAD_REACTORS
330
1E0F
102
}
330
1E0F
100
AcDbProxyObject
 90
      499
 91
      511
 93
      484
310
43919B185D15DA5D1A115919D95CC010140901404333333333333E3BF0000000000000F9010740901411070040501600405405064090741402480A1B50
 94
        0
1001
ACAD
1000
AcDbSavedByObjectVersion
1070
     0
1000
AcadProxyRoundTripData
1071
      505
1071
   655383
1070
     0
  0
ACAD_PROXY_OBJECT
  5
1E12
102
{ACAD_REACTORS
330
1E0F
102
}
330
1E0F
100
AcDbProxyObject
 90
      499
 91
      511
 93
      420
310
4211DBDD5C985D590010240902404333333333333E3BF0000000000000F9010740A411070040501641D405064090741402480A1B50
 94
        0
1001
ACAD
1000
AcDbSavedByObjectVersion
1070
     0
1000
AcadProxyRoundTripData
1071
      505
1071
   655383
1070
     0
  0
ACAD_PROXY_OBJECT
  5
1E13
102
{ACAD_REACTORS
330
1E0F
102
}
330
1E0F
100
AcDbProxyObject
 90
      499
 91
      511
 93
      508
310
4451DBDD5C985D5915DA5D1A115919D95CC010340902404333333333333E3BF0000000000000F9010740901411070040501600405405064090741402480A1B50
 94
        0
1001
ACAD
1000
AcDbSavedByObjectVersion
1070
     0
1000
AcadProxyRoundTripData
1071
      505
1071
   655383
1070
     0
  0
ACAD_PROXY_OBJECT
  5
1E1D
102
{ACAD_REACTORS
330
1E0F
102
}
330
1E0F
100
AcDbProxyObject
 90
      499
 91
      511
 93
      452
310
43131A5B995C185D1D195C9B8010E409028333333333333E3BF0000000000000FB010790141107004050750841D405064090741402483A0350
 94
        0
1001
ACAD
1000
AcDbSavedByObjectVersion
1070
     0
1000
AcadProxyRoundTripData
1071
      505
1071
   655383
1070
     0
  0
ACAD_PROXY_OBJECT
  5
1E19
102
{ACAD_REACTORS
330
1E0F
102
}
330
1E0F
100
AcDbProxyObject
 90
      499
 91
      511
 93
      428
310
429499585B1A5CDD1A58C0108409028333333333333E3BF0000000000000FB01079019070040501508421405064090741402480A1B45
 94
        0
1001
ACAD
1000
AcDbSavedByObjectVersion
1070
     0
1000
AcadProxyRoundTripData
1071
      505
1071
   655383
1070
     0
  0
ACAD_PROXY_OBJECT
  5
1E1C
102
{ACAD_REACTORS
330
1E0F
102
}
330
1E0F
100
AcDbProxyObject
 90
      499
 91
      511
 93
      420
310
42151A1A58DAD95B8010D409028333333333333E3BF0000000000000FB010790141107004050150C41D405064090741402480A0352
 94
        0
1001
ACAD
1000
AcDbSavedByObjectVersion
1070
     0
1000
AcadProxyRoundTripData
1071
      505
1071
   655383
1070
     0
  0
XRECORD
  5
2780
102
{ACAD_REACTORS
330
2776
102
}
330
2776
100
AcDbXrecord
 90
        0
  0
XRECORD
  5
2784
102
{ACAD_REACTORS
330
2776
102
}
330
2776
100
AcDbXrecord
1000
DSTYLE
1002
{
1070
   179
 70
     2
1070
   277
 70
     6
1002
}
  0
XRECORD
  5
2781
102
{ACAD_REACTORS
330
2776
102
}
330
2776
100
AcDbXrecord
  1
{6385560B-F4B1-4644-A7C2-A3E32AC3D232}
  0
XRECORD
  5
2779
102
{ACAD_REACTORS
330
2776
102
}
330
2776
100
AcDbXrecord
  1

  0
XRECORD
  5
277F
102
{ACAD_REACTORS
330
2776
102
}
330
2776
100
AcDbXrecord
 90
        0
  0
XRECORD
  5
277B
102
{ACAD_REACTORS
330
2776
102
}
330
2776
100
AcDbXrecord
340
61
  0
XRECORD
  5
277E
102
{ACAD_REACTORS
330
2776
102
}
330
2776
100
AcDbXrecord
 90
    10781
  0
XRECORD
  5
277C
102
{ACAD_REACTORS
330
2776
102
}
330
2776
100
AcDbXrecord
340
77
  0
XRECORD
  5
277D
102
{ACAD_REACTORS
330
2776
102
}
330
2776
100
AcDbXrecord
340
6
  0
XRECORD
  5
2783
102
{ACAD_REACTORS
330
2776
102
}
330
2776
100
AcDbXrecord
 40
0.0
  0
XRECORD
  5
2787
102
{ACAD_REACTORS
330
2776
102
}
330
2776
100
AcDbXrecord
340
0
  0
XRECORD
  5
278D
102
{ACAD_REACTORS
330
2776
102
}
330
2776
100
AcDbXrecord
 10
0.0
 20
0.0
 30
0.0
  0
XRECORD
  5
2789
102
{ACAD_REACTORS
330
2776
102
}
330
2776
100
AcDbXrecord
 10
0.0
 20
0.0
 30
0.0
  0
XRECORD
  5
278C
102
{ACAD_REACTORS
330
2776
102
}
330
2776
100
AcDbXrecord
 10
0.0
 20
0.0
 30
0.0
  0
XRECORD
  5
278A
102
{ACAD_REACTORS
330
2776
102
}
330
2776
100
AcDbXrecord
 10
0.0
 20
0.0
 30
0.0
  0
XRECORD
  5
278B
102
{ACAD_REACTORS
330
2776
102
}
330
2776
100
AcDbXrecord
 10
0.0
 20
0.0
 30
0.0
  0
XRECORD
  5
2788
102
{ACAD_REACTORS
330
2776
102
}
330
2776
100
AcDbXrecord
 10
0.0
 20
0.0
 30
0.0
  0
XRECORD
  5
2785
102
{ACAD_REACTORS
330
2776
102
}
330
2776
100
AcDbXrecord
340
0
  0
XRECORD
  5
2786
102
{ACAD_REACTORS
330
2776
102
}
330
2776
100
AcDbXrecord
 70
     0
  0
XRECORD
  5
277A
102
{ACAD_REACTORS
330
2776
102
}
330
2776
100
AcDbXrecord
  1
Sekkei.ctb
  0
XRECORD
  5
2777
102
{ACAD_REACTORS
330
2776
102
}
330
2776
100
AcDbXrecord
 90
        1
  0
XRECORD
  5
2778
102
{ACAD_REACTORS
330
2776
102
}
330
2776
100
AcDbXrecord
 90
       70
  0
XRECORD
  5
2790
102
{ACAD_REACTORS
330
2776
102
}
330
2776
100
AcDbXrecord
340
0
  0
XRECORD
  5
2796
102
{ACAD_REACTORS
330
2776
102
}
330
2776
100
AcDbXrecord
 10
0.0
 20
0.0
 30
0.0
  0
XRECORD
  5
2792
102
{ACAD_REACTORS
330
2776
102
}
330
2776
100
AcDbXrecord
 10
0.0
 20
0.0
 30
0.0
  0
XRECORD
  5
2795
102
{ACAD_REACTORS
330
2776
102
}
330
2776
100
AcDbXrecord
 10
0.0
 20
0.0
 30
0.0
  0
XRECORD
  5
2793
102
{ACAD_REACTORS
330
2776
102
}
330
2776
100
AcDbXrecord
 10
0.0
 20
0.0
 30
0.0
  0
XRECORD
  5
2794
102
{ACAD_REACTORS
330
2776
102
}
330
2776
100
AcDbXrecord
 10
0.0
 20
0.0
 30
0.0
  0
XRECORD
  5
2791
102
{ACAD_REACTORS
330
2776
102
}
330
2776
100
AcDbXrecord
 10
0.0
 20
0.0
 30
0.0
  0
XRECORD
  5
278E
102
{ACAD_REACTORS
330
2776
102
}
330
2776
100
AcDbXrecord
340
0
  0
XRECORD
  5
278F
102
{ACAD_REACTORS
330
2776
102
}
330
2776
100
AcDbXrecord
 70
     0
  0
XRECORD
  5
2782
102
{ACAD_REACTORS
330
2776
102
}
330
2776
100
AcDbXrecord
  1
{CB40B8F0-C67E-4F27-8B53-053FC97F17FC}
  0
DICTIONARYVAR
  5
1EA4
102
{ACAD_REACTORS
330
102
102
}
330
102
100
DictionaryVariables
280
     0
  1
1:1
  0
DICTIONARYVAR
  5
1EA3
102
{ACAD_REACTORS
330
102
102
}
330
102
100
DictionaryVariables
280
     0
  1
STANDARD
  0
DICTIONARYVAR
  5
1EA2
102
{ACAD_REACTORS
330
102
102
}
330
102
100
DictionaryVariables
280
     0
  1
STANDARD
  0
DICTIONARYVAR
  5
103
102
{ACAD_REACTORS
330
102
102
}
330
102
100
DictionaryVariables
280
     0
  1
1
  0
DICTIONARYVAR
  5
1EA5
102
{ACAD_REACTORS
330
102
102
}
330
102
100
DictionaryVariables
280
     0
  1
0
  0
DICTIONARYVAR
  5
549
102
{ACAD_REACTORS
330
102
102
}
330
102
100
DictionaryVariables
280
     0
  1
96
  0
DICTIONARY
  5
1E00
330
1DFF
100
AcDbDictionary
280
     1
  3
ACAD_XREC_ROUNDTRIP
360
2757
  3
BUMPTILE
360
1E02
  3
DIFFUSETILE
360
1E01
  3
OPACITYTILE
360
1E05
  3
REFLECTIONTILE
360
1E04
  3
REFRACTIONTILE
360
1E06
  3
SPECULARTILE
360
1E03
  0
DICTIONARY
  5
1DF8
330
1DF7
100
AcDbDictionary
280
     1
  3
ACAD_XREC_ROUNDTRIP
360
2756
  3
BUMPTILE
360
1DFA
  3
DIFFUSETILE
360
1DF9
  3
OPACITYTILE
360
1DFD
  3
REFLECTIONTILE
360
1DFC
  3
REFRACTIONTILE
360
1DFE
  3
SPECULARTILE
360
1DFB
  0
DICTIONARY
  5
1E08
330
1E07
100
AcDbDictionary
280
     1
  3
ACAD_XREC_ROUNDTRIP
360
2758
  3
BUMPTILE
360
1E0A
  3
DIFFUSETILE
360
1E09
  3
OPACITYTILE
360
1E0D
  3
REFLECTIONTILE
360
1E0C
  3
REFRACTIONTILE
360
1E0E
  3
SPECULARTILE
360
1E0B
  0
DICTIONARY
  5
1E81
330
1E22
100
AcDbDictionary
280
     1
  3
ACAD_ROUNDTRIP_2008_TABLES
360
2742
  3
ACAD_XREC_ROUNDTRIP
360
2759
  0
XRECORD
  5
2757
102
{ACAD_REACTORS
330
1E00
102
}
330
1E00
100
AcDbXrecord
102
MATERIAL
148
0.0
149
0.0
149
0.0
 93
        0
 94
      127
282
     0
 72
     0
 77
     0
171
     0
175
     0
179
     0
273
     0
  0
XRECORD
  5
1E02
102
{ACAD_REACTORS
330
1E00
102
}
330
1E00
100
AcDbXrecord
270
     1
271
     1
  0
XRECORD
  5
1E01
102
{ACAD_REACTORS
330
1E00
102
}
330
1E00
100
AcDbXrecord
270
     1
271
     1
  0
XRECORD
  5
1E05
102
{ACAD_REACTORS
330
1E00
102
}
330
1E00
100
AcDbXrecord
270
     1
271
     1
  0
XRECORD
  5
1E04
102
{ACAD_REACTORS
330
1E00
102
}
330
1E00
100
AcDbXrecord
270
     1
271
     1
  0
XRECORD
  5
1E06
102
{ACAD_REACTORS
330
1E00
102
}
330
1E00
100
AcDbXrecord
270
     1
271
     1
  0
XRECORD
  5
1E03
102
{ACAD_REACTORS
330
1E00
102
}
330
1E00
100
AcDbXrecord
270
     1
271
     1
  0
XRECORD
  5
2756
102
{ACAD_REACTORS
330
1DF8
102
}
330
1DF8
100
AcDbXrecord
102
MATERIAL
148
0.0
149
0.0
149
0.0
 93
        0
 94
      127
282
     0
 72
     0
 77
     0
171
     0
175
     0
179
     0
273
     0
  0
XRECORD
  5
1DFA
102
{ACAD_REACTORS
330
1DF8
102
}
330
1DF8
100
AcDbXrecord
270
     1
271
     1
  0
XRECORD
  5
1DF9
102
{ACAD_REACTORS
330
1DF8
102
}
330
1DF8
100
AcDbXrecord
270
     1
271
     1
  0
XRECORD
  5
1DFD
102
{ACAD_REACTORS
330
1DF8
102
}
330
1DF8
100
AcDbXrecord
270
     1
271
     1
  0
XRECORD
  5
1DFC
102
{ACAD_REACTORS
330
1DF8
102
}
330
1DF8
100
AcDbXrecord
270
     1
271
     1
  0
XRECORD
  5
1DFE
102
{ACAD_REACTORS
330
1DF8
102
}
330
1DF8
100
AcDbXrecord
270
     1
271
     1
  0
XRECORD
  5
1DFB
102
{ACAD_REACTORS
330
1DF8
102
}
330
1DF8
100
AcDbXrecord
270
     1
271
     1
  0
XRECORD
  5
2758
102
{ACAD_REACTORS
330
1E08
102
}
330
1E08
100
AcDbXrecord
102
MATERIAL
148
0.0
149
0.0
149
0.0
 93
        0
 94
      127
282
     0
 72
     0
 77
     0
171
     0
175
     0
179
     0
273
     0
  0
XRECORD
  5
1E0A
102
{ACAD_REACTORS
330
1E08
102
}
330
1E08
100
AcDbXrecord
270
     1
271
     1
  0
XRECORD
  5
1E09
102
{ACAD_REACTORS
330
1E08
102
}
330
1E08
100
AcDbXrecord
270
     1
271
     1
  0
XRECORD
  5
1E0D
102
{ACAD_REACTORS
330
1E08
102
}
330
1E08
100
AcDbXrecord
270
     1
271
     1
  0
XRECORD
  5
1E0C
102
{ACAD_REACTORS
330
1E08
102
}
330
1E08
100
AcDbXrecord
270
     1
271
     1
  0
XRECORD
  5
1E0E
102
{ACAD_REACTORS
330
1E08
102
}
330
1E08
100
AcDbXrecord
270
     1
271
     1
  0
XRECORD
  5
1E0B
102
{ACAD_REACTORS
330
1E08
102
}
330
1E08
100
AcDbXrecord
270
     1
271
     1
  0
ACAD_PROXY_OBJECT
  5
2742
102
{ACAD_REACTORS
330
1E81
102
}
330
1E81
100
AcDbProxyObject
 90
      499
 91
      511
 93
     5304
310
40D054060020000020000003200101A000080002A5058000000C100000000000000340FD012E07A17AD46E2B8FCB81E85EB51B8AE3F2E07A17AD46E2B8FCB81E85EB51B8AE3F02B5E8DC0F42B1CFC0AD7A3703D0AC73F419019018000000C1003FBFFFFFE02B5E8DC0F42A9CFD029018000000C1003FBFFFFFE02B5E8DC0F4
310
2A9CFD049018000000C1003FBFFFFFE02B5E8DC0F42A9CFD089018000000C1003FBFFFFFE02B5E8DC0F42A9CFD109018000000C1003FBFFFFFE02B5E8DC0F42A9CFD209018000000C1003FBFFFFFE02B5E8DC0F42A9CFD01405075F5449544C450041501A8000000C800406800020000A9416000000304000AD7A3703D0AC7
310
3F404B81E85EB51B8AE3F2E07A17AD46E2B8FCB81E85EB51B8AE3F2E07A17AD46E2B8FC0AD7A3703D0AC73F02B5E8DC0F42B1CFD0640640600000030400FEFFFFFF80AD7A3703D0AA73F40A40600000030400FEFFFFFF80AD7A3703D0AA73F41240600000030400FEFFFFFF80AD7A3703D0AA73F42240600000030400FEFFF
310
FFF80AD7A3703D0AA73F44240600000030400FEFFFFFF80AD7A3703D0AA73F48240600000030400FEFFFFFF80AD7A3703D0AA73F409014217D2115051115480105406A0000003200101A000080002A5028000000C10002B5E8DC0F42B1CFD012E07A17AD46E2B8FCB81E85EB51B8AE3F2E07A17AD46E2B8FCB81E85EB51B8A
310
E3F02B5E8DC0F42B1CFC0AD7A3703D0AC73F419019018000000C1003FBFFFFFE02B5E8DC0F42A9CFD029018000000C1003FBFFFFFE02B5E8DC0F42A9CFD049018000000C1003FBFFFFFE02B5E8DC0F42A9CFD089018000000C1003FBFFFFFE02B5E8DC0F42A9CFD109018000000C1003FBFFFFFE02B5E8DC0F42A9CFD20901
310
8000000C1003FBFFFFFE02B5E8DC0F42A9CFD03409065F444154410000
340
16
340
0
340
0
340
0
340
0
340
0
340
0
340
16
340
0
340
0
340
0
340
0
340
0
340
0
340
16
340
0
340
0
340
0
340
0
340
0
340
0
 94
        0
1001
ACAD
1000
AcadProxyRoundTripData
1071
      509
1071
   655383
1070
     0
  0
XRECORD
  5
2759
102
{ACAD_REACTORS
330
1E81
102
}
330
1E81
100
AcDbXrecord
102
ACAD_ROUNDTRIP_PRE2007_TABLESTYLE
 90
      512
 91
        0
  1

 92
      512
 93
        0
  2

 94
      512
 95
        0
  3

  0
ENDSEC
  0
EOF
