  0
SECTION
  2
HEADER
  9
$ACADVER
  1
AC1014
  9
$ACADMAINTVER
 70
     9
  9
$DWGCODEPAGE
  3
ANSI_932
  9
$INSBASE
 10
0.0
 20
0.0
 30
0.0
  9
$EXTMIN
 10
-75.04374009984053
 20
272.5651052800127
 30
0.0
  9
$EXTMAX
 10
999.8909890898415
 20
705.9689384596159
 30
0.0
  9
$LIMMIN
 10
0.0
 20
0.0
  9
$LIMMAX
 10
297.0
 20
210.0
  9
$ORTHOMODE
 70
     0
  9
$REGENMODE
 70
     1
  9
$FILLMODE
 70
     1
  9
$QTEXTMODE
 70
     0
  9
$MIRRTEXT
 70
     0
  9
$DRAGMODE
 70
     2
  9
$LTSCALE
 40
3.0
  9
$OSMODE
 70
    37
  9
$ATTMODE
 70
     1
  9
$TEXTSIZE
 40
2.0
  9
$TRACEWID
 40
1.0
  9
$TEXTSTYLE
  7
STANDARD
  9
$CLAYER
  8
0
  9
$CELTYPE
  6
BYLAYER
  9
$CECOLOR
 62
   256
  9
$CELTSCALE
 40
1.0
  9
$DELOBJ
 70
     1
  9
$DISPSILH
 70
     0
  9
$DIMSCALE
 40
3.0
  9
$DIMASZ
 40
1.8
  9
$DIMEXO
 40
0.625
  9
$DIMDLI
 40
3.75
  9
$DIMRND
 40
0.0
  9
$DIMDLE
 40
0.0
  9
$DIMEXE
 40
0.8
  9
$DIMTP
 40
0.0
  9
$DIMTM
 40
0.0
  9
$DIMTXT
 40
1.8
  9
$DIMCEN
 40
2.5
  9
$DIMTSZ
 40
0.0
  9
$DIMTOL
 70
     0
  9
$DIMLIM
 70
     0
  9
$DIMTIH
 70
     0
  9
$DIMTOH
 70
     0
  9
$DIMSE1
 70
     0
  9
$DIMSE2
 70
     0
  9
$DIMTAD
 70
     1
  9
$DIMZIN
 70
     8
  9
$DIMBLK
  1

  9
$DIMASO
 70
     1
  9
$DIMSHO
 70
     1
  9
$DIMPOST
  1

  9
$DIMAPOST
  1

  9
$DIMALT
 70
     0
  9
$DIMALTD
 70
     4
  9
$DIMALTF
 40
0.0394
  9
$DIMLFAC
 40
1.0
  9
$DIMTOFL
 70
     1
  9
$DIMTVP
 40
0.0
  9
$DIMTIX
 70
     0
  9
$DIMSOXD
 70
     0
  9
$DIMSAH
 70
     0
  9
$DIMBLK1
  1

  9
$DIMBLK2
  1

  9
$DIMSTYLE
  2
STANDARD
  9
$DIMCLRD
 70
     0
  9
$DIMCLRE
 70
     0
  9
$DIMCLRT
 70
     0
  9
$DIMTFAC
 40
1.0
  9
$DIMGAP
 40
0.75
  9
$DIMJUST
 70
     0
  9
$DIMSD1
 70
     0
  9
$DIMSD2
 70
     0
  9
$DIMTOLJ
 70
     1
  9
$DIMTZIN
 70
     0
  9
$DIMALTZ
 70
     0
  9
$DIMALTTZ
 70
     0
  9
$DIMFIT
 70
     3
  9
$DIMUPT
 70
     0
  9
$DIMUNIT
 70
     8
  9
$DIMDEC
 70
     2
  9
$DIMTDEC
 70
     2
  9
$DIMALTU
 70
     8
  9
$DIMALTTD
 70
     4
  9
$DIMTXSTY
  7
STANDARD
  9
$DIMAUNIT
 70
     0
  9
$LUNITS
 70
     2
  9
$LUPREC
 70
     3
  9
$SKETCHINC
 40
1.0
  9
$FILLETRAD
 40
10.0
  9
$AUNITS
 70
     0
  9
$AUPREC
 70
     2
  9
$MENU
  1
.
  9
$ELEVATION
 40
0.0
  9
$PELEVATION
 40
0.0
  9
$THICKNESS
 40
0.0
  9
$LIMCHECK
 70
     0
  9
$BLIPMODE
 70
     0
  9
$CHAMFERA
 40
0.0
  9
$CHAMFERB
 40
0.0
  9
$CHAMFERC
 40
20.0
  9
$CHAMFERD
 40
0.0
  9
$SKPOLY
 70
     0
  9
$TDCREATE
 40
2454888.679706122
  9
$TDUPDATE
 40
2454909.819630555
  9
$TDINDWG
 40
0.1169620139
  9
$TDUSRTIMER
 40
0.1169618287
  9
$USRTIMER
 70
     1
  9
$ANGBASE
 50
0.0
  9
$ANGDIR
 70
     0
  9
$PDMODE
 70
     0
  9
$PDSIZE
 40
-10.0
  9
$PLINEWID
 40
0.0
  9
$COORDS
 70
     1
  9
$SPLFRAME
 70
     0
  9
$SPLINETYPE
 70
     6
  9
$SPLINESEGS
 70
     8
  9
$ATTDIA
 70
     0
  9
$ATTREQ
 70
     1
  9
$HANDLING
 70
 22529
  9
$HANDSEED
  5
28C7
  9
$SURFTAB1
 70
     6
  9
$SURFTAB2
 70
     6
  9
$SURFTYPE
 70
     6
  9
$SURFU
 70
     6
  9
$SURFV
 70
     6
  9
$UCSNAME
  2

  9
$UCSORG
 10
0.0
 20
0.0
 30
0.0
  9
$UCSXDIR
 10
1.0
 20
0.0
 30
0.0
  9
$UCSYDIR
 10
0.0
 20
1.0
 30
0.0
  9
$PUCSNAME
  2

  9
$PUCSORG
 10
0.0
 20
0.0
 30
0.0
  9
$PUCSXDIR
 10
1.0
 20
0.0
 30
0.0
  9
$PUCSYDIR
 10
0.0
 20
1.0
 30
0.0
  9
$USERI1
 70
     0
  9
$USERI2
 70
     0
  9
$USERI3
 70
     0
  9
$USERI4
 70
     0
  9
$USERI5
 70
     0
  9
$USERR1
 40
0.0
  9
$USERR2
 40
0.0
  9
$USERR3
 40
0.0
  9
$USERR4
 40
0.0
  9
$USERR5
 40
0.0
  9
$WORLDVIEW
 70
     1
  9
$SHADEDGE
 70
     3
  9
$SHADEDIF
 70
    70
  9
$TILEMODE
 70
     1
  9
$MAXACTVP
 70
    48
  9
$PINSBASE
 10
0.0
 20
0.0
 30
0.0
  9
$PLIMCHECK
 70
     0
  9
$PEXTMIN
 10
0.0
 20
0.0
 30
0.0
  9
$PEXTMAX
 10
0.0
 20
0.0
 30
0.0
  9
$PLIMMIN
 10
0.0
 20
0.0
  9
$PLIMMAX
 10
12.0
 20
9.0
  9
$UNITMODE
 70
     0
  9
$VISRETAIN
 70
     1
  9
$PLINEGEN
 70
     0
  9
$PSLTSCALE
 70
     1
  9
$TREEDEPTH
 70
  3020
  9
$PICKSTYLE
 70
     1
  9
$CMLSTYLE
  2
STANDARD
  9
$CMLJUST
 70
     0
  9
$CMLSCALE
 40
1.0
  9
$PROXYGRAPHICS
 70
     1
  9
$MEASUREMENT
 70
     0
  0
ENDSEC
  0
SECTION
  2
CLASSES
  0
CLASS
  1
DICTIONARYVAR
  2
AcDbDictionaryVar
  3
AutoCAD 2000
 90
        0
280
     0
281
     0
  0
CLASS
  1
ACDBDICTIONARYWDFLT
  2
AcDbDictionaryWithDefault
  3
AutoCAD 2000
 90
        0
280
     0
281
     0
  0
CLASS
  1
ACDBPLACEHOLDER
  2
AcDbPlaceHolder
  3
AutoCAD 2000
 90
        0
280
     0
281
     0
  0
CLASS
  1
LAYOUT
  2
AcDbLayout
  3
AutoCAD 2000
 90
        0
280
     0
281
     0
  0
CLASS
  1
MATERIAL
  2
AcDbMaterial
  3
ObjectDBX Classes
 90
     1153
280
     0
281
     0
  0
CLASS
  1
VISUALSTYLE
  2
AcDbVisualStyle
  3
ObjectDBX Classes
 90
     4095
280
     0
281
     0
  0
CLASS
  1
TABLESTYLE
  2
AcDbTableStyle
  3
ObjectDBX Classes
 90
     4095
280
     0
281
     0
  0
CLASS
  1
SCALE
  2
AcDbScale
  3
ObjectDBX Classes
 90
     1153
280
     0
281
     0
  0
CLASS
  1
MLEADERSTYLE
  2
AcDbMLeaderStyle
  3
ACDB_MLEADERSTYLE_CLASS
 90
     4095
280
     0
281
     0
  0
CLASS
  1
PLOTSETTINGS
  2
AcDbPlotSettings
  3
AutoCAD 2000
 90
        0
280
     0
281
     0
  0
CLASS
  1
CELLSTYLEMAP
  2
AcDbCellStyleMap
  3
ObjectDBX Classes
 90
     1152
280
     0
281
     0
  0
CLASS
  1
SORTENTSTABLE
  2
AcDbSortentsTable
  3
AutoCAD 2000
 90
        0
280
     0
281
     0
  0
CLASS
  1
ACAD_PROXY_OBJECT_WRAPPER
  2
AcDbProxyObjectWrapper
  3
AutoCAD 2000
 90
        0
280
     0
281
     0
  0
CLASS
  1
LONG_TRANSACTION
  2
AcDbLongTransaction
  3
AutoCAD 2000
 90
        0
280
     0
281
     0
  0
CLASS
  1
LWPOLYLINE
  2
AcDbPolyline
  3
AutoCAD 2000
 90
        0
280
     0
281
     1
  0
CLASS
  1
HATCH
  2
AcDbHatch
  3
AutoCAD 2000
 90
        0
280
     0
281
     1
  0
CLASS
  1
XRECORD
  2
AcDbXrecord
  3
AutoCAD 2000
 90
        0
280
     0
281
     0
  0
ENDSEC
  0
SECTION
  2
TABLES
  0
TABLE
  2
VPORT
  5
6E
102
{ACAD_XDICTIONARY
360
1AA9
102
}
330
0
100
AcDbSymbolTable
 70
     2
  0
VPORT
  5
28A2
330
6E
100
AcDbSymbolTableRecord
100
AcDbViewportTableRecord
  2
*ACTIVE
 70
     0
 10
0.0
 20
0.0
 11
1.0
 21
1.0
 12
509.2890505139406
 22
490.390098055858
 13
0.0
 23
0.0
 14
10.0
 24
10.0
 15
10.0
 25
10.0
 16
0.0
 26
0.0
 36
1.0
 17
0.0
 27
0.0
 37
0.0
 40
736.2406462401383
 41
1.593429158110883
 42
50.0
 43
0.0
 44
0.0
 50
0.0
 51
0.0
 71
     0
 72
   100
 73
     1
 74
     3
 75
     0
 76
     0
 77
     0
 78
     0
  0
ENDTAB
  0
TABLE
  2
LTYPE
  5
69
330
0
100
AcDbSymbolTable
 70
     7
  0
LTYPE
  5
6A
330
69
100
AcDbSymbolTableRecord
100
AcDbLinetypeTableRecord
  2
BYBLOCK
 70
     0
  3

 72
    65
 73
     0
 40
0.0
  0
LTYPE
  5
6B
330
69
100
AcDbSymbolTableRecord
100
AcDbLinetypeTableRecord
  2
BYLAYER
 70
     0
  3

 72
    65
 73
     0
 40
0.0
  0
LTYPE
  5
8
330
69
100
AcDbSymbolTableRecord
100
AcDbLinetypeTableRecord
  2
CONTINUOUS
 70
     0
  3
Solid line
 72
    65
 73
     0
 40
0.0
  0
LTYPE
  5
27C
330
69
100
AcDbSymbolTableRecord
100
AcDbLinetypeTableRecord
  2
SEKKEI_A2_
 70
     0
  3
center(A2)  ____ _ ____ _ ____ _ ____ _ ____ _ 
 72
    65
 73
     4
 40
14.28749999999999
 49
9.525
 74
     0
 49
-1.587499999999999
 74
     0
 49
1.587499999999999
 74
     0
 49
-1.587499999999999
 74
     0
  0
LTYPE
  5
2B4
330
69
100
AcDbSymbolTableRecord
100
AcDbLinetypeTableRecord
  2
HIDDEN2
 70
     0
  3
Hidden (.5x) _ _ _ _ _ _ _ _ _ _ _ _ _ _ _ _ _
 72
    65
 73
     2
 40
4.762499999999999
 49
3.174999999999999
 74
     0
 49
-1.587499999999999
 74
     0
  0
LTYPE
  5
48F
330
69
100
AcDbSymbolTableRecord
100
AcDbLinetypeTableRecord
  2
SEKKEI_H
 70
     0
  3
Hidden-S _ _ _ _ _ _ _ _ _ _ _ _ _ _ _ _ _
 72
    65
 73
     2
 40
2.381249999999999
 49
1.587499999999999
 74
     0
 49
-0.79375
 74
     0
  0
LTYPE
  5
54A
330
69
100
AcDbSymbolTableRecord
100
AcDbLinetypeTableRecord
  2
CENTERX2
 70
     0
  3
Center (2x) ________  __  ________  __  _____
 72
    65
 73
     4
 40
4.0
 49
2.5
 74
     0
 49
-0.5
 74
     0
 49
0.5
 74
     0
 49
-0.5
 74
     0
  0
ENDTAB
  0
TABLE
  2
LAYER
  5
66
102
{ACAD_XDICTIONARY
360
86B
102
}
330
0
100
AcDbSymbolTable
 70
    10
  0
LAYER
  5
5E
102
{ACAD_XDICTIONARY
360
128D
102
}
330
66
100
AcDbSymbolTableRecord
100
AcDbLayerTableRecord
  2
0
 70
     0
 62
     7
  6
CONTINUOUS
  0
LAYER
  5
3E
102
{ACAD_XDICTIONARY
360
128F
102
}
330
66
100
AcDbSymbolTableRecord
100
AcDbLayerTableRecord
  2
CENTER
 70
     0
 62
     3
  6
SEKKEI_A2_
  0
LAYER
  5
2B5
102
{ACAD_XDICTIONARY
360
1295
102
}
330
66
100
AcDbSymbolTableRecord
100
AcDbLayerTableRecord
  2
HIDS
 70
     0
 62
     1
  6
HIDDEN2
  0
LAYER
  5
2BA
102
{ACAD_XDICTIONARY
360
1297
102
}
330
66
100
AcDbSymbolTableRecord
100
AcDbLayerTableRecord
  2
HOJO
 70
     0
 62
     4
  6
CONTINUOUS
  0
LAYER
  5
3FA
102
{ACAD_XDICTIONARY
360
129B
102
}
330
66
100
AcDbSymbolTableRecord
100
AcDbLayerTableRecord
  2
TITLE
 70
     0
 62
     4
  6
CONTINUOUS
  0
ENDTAB
  0
TABLE
  2
STYLE
  5
67
330
0
100
AcDbSymbolTable
 70
     3
  0
STYLE
  5
16
330
67
100
AcDbSymbolTableRecord
100
AcDbTextStyleTableRecord
  2
STANDARD
 70
     0
 40
0.0
 41
1.0
 50
0.0
 71
     0
 42
2.0
  3
simplex.shx
  4
extfont.shx
  0
ENDTAB
  0
TABLE
  2
VIEW
  5
6C
330
0
100
AcDbSymbolTable
 70
     0
  0
ENDTAB
  0
TABLE
  2
UCS
  5
6D
330
0
100
AcDbSymbolTable
 70
     0
  0
ENDTAB
  0
TABLE
  2
APPID
  5
70
330
0
100
AcDbSymbolTable
 70
     7
  0
APPID
  5
71
330
70
100
AcDbSymbolTableRecord
100
AcDbRegAppTableRecord
  2
ACAD
 70
     0
  0
APPID
  5
859
330
70
100
AcDbSymbolTableRecord
100
AcDbRegAppTableRecord
  2
ACAD_MLEADERVER
 70
     0
  0
APPID
  5
866
330
70
100
AcDbSymbolTableRecord
100
AcDbRegAppTableRecord
  2
ACAD_PSEXT
 70
     0
  0
APPID
  5
1239
330
70
100
AcDbSymbolTableRecord
100
AcDbRegAppTableRecord
  2
ACAD_EXEMPT_FROM_CAD_STANDARDS
 70
     0
  0
APPID
  5
12AE
330
70
100
AcDbSymbolTableRecord
100
AcDbRegAppTableRecord
  2
ACAD_DSTYLE_DIMJAG
 70
     0
  0
APPID
  5
12AF
330
70
100
AcDbSymbolTableRecord
100
AcDbRegAppTableRecord
  2
ACAD_DSTYLE_DIMTALN
 70
     0
  0
APPID
  5
1411
330
70
100
AcDbSymbolTableRecord
100
AcDbRegAppTableRecord
  2
ACAD_DSTYLE_DIMRADIAL_EXTENSION
 70
     0
  0
ENDTAB
  0
TABLE
  2
DIMSTYLE
  5
72
330
0
100
AcDbSymbolTable
 70
     1
  0
DIMSTYLE
105
73
102
{ACAD_REACTORS
330
142C
330
1434
330
1605
102
}
330
72
100
AcDbSymbolTableRecord
100
AcDbDimStyleTableRecord
  2
STANDARD
 70
     0
  3

  4

  5

  6

  7

 40
3.0
 41
1.8
 42
0.625
 43
3.75
 44
0.8
 45
0.0
 46
0.0
 47
0.0
 48
0.0
140
1.8
141
2.5
142
0.0
143
0.0394
144
1.0
145
0.0
146
1.0
147
0.75
 71
     0
 72
     0
 73
     0
 74
     0
 75
     0
 76
     0
 77
     1
 78
     8
170
     0
171
     4
172
     1
173
     0
174
     0
175
     0
176
     0
177
     0
178
     0
270
     8
271
     2
272
     2
273
     8
274
     4
340
16
275
     0
280
     0
281
     0
282
     0
283
     1
284
     0
285
     0
286
     0
287
     3
288
     0
1001
ACAD_DSTYLE_DIMJAG
1070
   388
1040
1.5
1001
ACAD_DSTYLE_DIMTALN
1070
   392
1070
     0
  0
ENDTAB
  0
TABLE
  2
BLOCK_RECORD
  5
1
330
0
100
AcDbSymbolTable
 70
    46
  0
BLOCK_RECORD
  5
2
102
{ACAD_XDICTIONARY
360
1236
102
}
330
1
100
AcDbSymbolTableRecord
100
AcDbBlockTableRecord
  2
*MODEL_SPACE
  0
BLOCK_RECORD
  5
289D
102
{ACAD_XDICTIONARY
360
28C5
102
}
330
1
100
AcDbSymbolTableRecord
100
AcDbBlockTableRecord
  2
*PAPER_SPACE
  0
ENDTAB
  0
ENDSEC
  0
SECTION
  2
BLOCKS
  0
BLOCK
  5
5D
330
2
100
AcDbEntity
  8
0
100
AcDbBlockBegin
  2
*MODEL_SPACE
 70
     0
 10
0.0
 20
0.0
 30
0.0
  3
*MODEL_SPACE
  1

  0
ENDBLK
  5
5F
330
2
100
AcDbEntity
  8
0
100
AcDbBlockEnd
  0
BLOCK
  5
289F
330
289D
100
AcDbEntity
 67
     1
  8
0
100
AcDbBlockBegin
  2
*PAPER_SPACE
 70
     0
 10
0.0
 20
0.0
 30
0.0
  3
*PAPER_SPACE
  1

  0
ENDBLK
  5
28A0
330
289D
100
AcDbEntity
 67
     1
  8
0
100
AcDbBlockEnd
  0
ENDSEC
  0
SECTION
  2
ENTITIES
  0
LINE
  5
BCC
330
2
100
AcDbEntity
  8
CENTER
100
AcDbLine
 10
491.6923507245899
 20
391.8936909025934
 30
0.0
 11
600.3495219697541
 21
283.2365196574283
 31
0.0
  0
LINE
  5
BCD
330
2
100
AcDbEntity
  8
CENTER
100
AcDbLine
 10
511.5945294759815
 20
379.9915121512057
 30
0.0
 11
495.5945294759815
 21
379.9915121512057
 31
0.0
  0
LINE
  5
BCE
330
2
100
AcDbEntity
  8
CENTER
100
AcDbLine
 10
503.5945294759774
 20
387.9915121512057
 30
0.0
 11
503.5945294759774
 21
371.9915121512057
 31
0.0
  0
LINE
  5
BCF
330
2
100
AcDbEntity
  8
CENTER
100
AcDbLine
 10
511.5945294759815
 20
295.1386984088218
 30
0.0
 11
495.5945294759815
 21
295.1386984088218
 31
0.0
  0
LINE
  5
BD0
330
2
100
AcDbEntity
  8
CENTER
100
AcDbLine
 10
503.5945294759811
 20
303.1386984088201
 30
0.0
 11
503.5945294759811
 21
287.1386984088201
 31
0.0
  0
LINE
  5
BD1
330
2
100
AcDbEntity
  8
CENTER
100
AcDbLine
 10
596.4473432183674
 20
295.1386984088201
 30
0.0
 11
580.4473432183674
 21
295.1386984088201
 31
0.0
  0
LINE
  5
BD2
330
2
100
AcDbEntity
  8
CENTER
100
AcDbLine
 10
588.4473432183642
 20
303.1386984088201
 30
0.0
 11
588.4473432183642
 21
287.1386984088201
 31
0.0
  0
LINE
  5
BD3
330
2
100
AcDbEntity
  8
CENTER
100
AcDbLine
 10
596.4473432183674
 20
379.9915121512057
 30
0.0
 11
580.4473432183674
 21
379.9915121512057
 31
0.0
  0
LINE
  5
BD4
330
2
100
AcDbEntity
  8
CENTER
100
AcDbLine
 10
588.4473432183674
 20
387.9915121512062
 30
0.0
 11
588.4473432183674
 21
371.9915121512062
 31
0.0
  0
CIRCLE
  5
BD5
330
2
100
AcDbEntity
  8
CENTER
100
AcDbCircle
 10
546.0209363471742
 20
337.5651052800131
 30
0.0
 40
60.0
  0
CIRCLE
  5
BD6
330
2
100
AcDbEntity
  8
0
100
AcDbCircle
 10
546.0209363471742
 20
337.5651052800131
 30
0.0
 40
34.0
  0
CIRCLE
  5
BD7
330
2
100
AcDbEntity
  8
0
100
AcDbCircle
 10
546.0209363471742
 20
337.5651052800131
 30
0.0
 40
45.0
  0
CIRCLE
  5
BD8
330
2
100
AcDbEntity
  8
HOJO
100
AcDbCircle
 10
503.5945294759815
 20
295.1386984088201
 30
0.0
 40
4.0
  0
CIRCLE
  5
BD9
330
2
100
AcDbEntity
  8
0
100
AcDbCircle
 10
503.5945294759815
 20
295.1386984088201
 30
0.0
 40
3.2
  0
CIRCLE
  5
BDA
330
2
100
AcDbEntity
  8
0
100
AcDbCircle
 10
546.0209363471742
 20
337.565105280013
 30
0.0
 40
26.0
  0
CIRCLE
  5
BDB
330
2
100
AcDbEntity
  8
HOJO
100
AcDbCircle
 10
503.5945294759815
 20
379.9915121512057
 30
0.0
 40
4.0
  0
CIRCLE
  5
BDC
330
2
100
AcDbEntity
  8
0
100
AcDbCircle
 10
503.5945294759815
 20
379.9915121512057
 30
0.0
 40
3.2
  0
LINE
  5
BDD
330
2
100
AcDbEntity
  8
0
100
AcDbLine
 10
626.5209583471726
 20
387.0651052800134
 30
0.0
 11
626.5209583471698
 21
288.0651052800129
 31
0.0
  0
LINE
  5
BDE
330
2
100
AcDbEntity
  8
0
100
AcDbLine
 10
642.0209583471731
 20
286.0651052800129
 30
0.0
 11
642.0209583471725
 21
389.065105280013
 31
0.0
  0
CIRCLE
  5
BDF
330
2
100
AcDbEntity
  8
0
100
AcDbCircle
 10
588.4473432183674
 20
295.1386984088201
 30
0.0
 40
3.2
  0
CIRCLE
  5
BE0
330
2
100
AcDbEntity
  8
HOJO
100
AcDbCircle
 10
588.4473432183674
 20
295.1386984088201
 30
0.0
 40
4.0
  0
ARC
  5
BE1
330
2
100
AcDbEntity
  8
0
100
AcDbCircle
 10
628.5209583471698
 20
288.5651052800128
 30
0.0
 40
2.0
100
AcDbArc
 50
179.9999999999869
 51
270.0
  0
LINE
  5
BE2
330
2
100
AcDbEntity
  8
0
100
AcDbLine
 10
642.0209583471731
 20
286.5651052800129
 30
0.0
 11
628.5209583471698
 21
286.5651052800128
 31
0.0
  0
CIRCLE
  5
BE3
330
2
100
AcDbEntity
  8
0
100
AcDbCircle
 10
588.4473432183674
 20
379.9915121512062
 30
0.0
 40
3.2
  0
CIRCLE
  5
BE4
330
2
100
AcDbEntity
  8
HOJO
100
AcDbCircle
 10
588.4473432183674
 20
379.9915121512062
 30
0.0
 40
4.0
  0
ARC
  5
BE5
330
2
100
AcDbEntity
  8
0
100
AcDbCircle
 10
628.5209583471726
 20
386.5651052800135
 30
0.0
 40
2.0
100
AcDbArc
 50
90.0
 51
179.9999999999869
  0
LINE
  5
BE6
330
2
100
AcDbEntity
  8
0
100
AcDbLine
 10
642.0209583471725
 20
388.565105280013
 30
0.0
 11
628.520958347173
 21
388.5651052800135
 31
0.0
  0
ARC
  5
BE7
330
2
100
AcDbEntity
  8
0
100
AcDbCircle
 10
546.0209363471724
 20
188.5651052800108
 30
0.0
 40
200.0
100
AcDbArc
 50
84.10530161359629
 51
95.89469838640374
  0
ARC
  5
BE8
330
2
100
AcDbEntity
  8
0
100
AcDbCircle
 10
572.7230652774976
 20
447.190309601995
 30
0.0
 40
60.0
100
AcDbArc
 50
264.1053016135962
 51
281.8050678104415
  0
LINE
  5
BE9
330
2
100
AcDbEntity
  8
0
100
AcDbLine
 10
589.0209363471747
 20
388.5651052800105
 30
0.0
 11
586.0209363471719
 21
388.5651052800103
 31
0.0
  0
ARC
  5
BEA
330
2
100
AcDbEntity
  8
0
100
AcDbCircle
 10
586.0209363471719
 20
383.5651052800102
 30
0.0
 40
5.0
100
AcDbArc
 50
90.0
 51
101.8050678104414
  0
LINE
  5
BEB
330
2
100
AcDbEntity
  8
0
100
AcDbLine
 10
503.0209363471719
 20
388.5651052800107
 30
0.0
 11
506.0209363471719
 21
388.5651052800107
 31
0.0
  0
ARC
  5
BEC
330
2
100
AcDbEntity
  8
0
100
AcDbCircle
 10
519.3188074168472
 20
447.1903096019954
 30
0.0
 40
60.0
100
AcDbArc
 50
258.1949321895585
 51
275.8946983864037
  0
ARC
  5
BED
330
2
100
AcDbEntity
  8
0
100
AcDbCircle
 10
506.0209363471719
 20
383.5651052800107
 30
0.0
 40
5.0
100
AcDbArc
 50
78.19493218955852
 51
90.0
  0
ARC
  5
BEE
330
2
100
AcDbEntity
  8
0
100
AcDbCircle
 10
500.0209363471729
 20
377.5651052800107
 30
0.0
 40
5.0
100
AcDbArc
 50
180.0
 51
191.8050678104706
  0
LINE
  5
BEF
330
2
100
AcDbEntity
  8
0
100
AcDbLine
 10
495.020936347172
 20
380.5651052800107
 30
0.0
 11
495.020936347172
 21
377.565105280013
 31
0.0
  0
ARC
  5
BF0
330
2
100
AcDbEntity
  8
0
100
AcDbCircle
 10
436.3957320251877
 20
364.2672342103364
 30
0.0
 40
60.0
100
AcDbArc
 50
354.1053016135986
 51
11.80506781047064
  0
ARC
  5
BF1
330
2
100
AcDbEntity
  8
0
100
AcDbCircle
 10
695.020936347172
 20
337.5651052800108
 30
0.0
 40
200.0
100
AcDbArc
 50
174.1053016135986
 51
185.8946983864013
  0
ARC
  5
BF2
330
2
100
AcDbEntity
  8
0
100
AcDbCircle
 10
436.3957320251877
 20
310.862976349686
 30
0.0
 40
60.0
100
AcDbArc
 50
348.1949321895285
 51
5.894698386401296
  0
ARC
  5
BF3
330
2
100
AcDbEntity
  8
0
100
AcDbCircle
 10
500.020936347172
 20
297.5651052800108
 30
0.0
 40
5.0
100
AcDbArc
 50
168.1949321895285
 51
180.0
  0
LINE
  5
BF4
330
2
100
AcDbEntity
  8
0
100
AcDbLine
 10
495.020936347172
 20
297.5651052800131
 30
0.0
 11
495.020936347172
 21
294.5651052800107
 31
0.0
  0
ARC
  5
BF5
330
2
100
AcDbEntity
  8
0
100
AcDbCircle
 10
519.3188074168467
 20
227.9399009580263
 30
0.0
 40
60.0
100
AcDbArc
 50
84.10530161359629
 51
101.8050678104414
  0
ARC
  5
BF6
330
2
100
AcDbEntity
  8
0
100
AcDbCircle
 10
506.0209363471719
 20
291.5651052800112
 30
0.0
 40
5.0
100
AcDbArc
 50
270.0
 51
281.8050678104415
  0
LINE
  5
BF7
330
2
100
AcDbEntity
  8
0
100
AcDbLine
 10
503.0209363471724
 20
286.5651052800107
 30
0.0
 11
506.0209363471719
 21
286.5651052800108
 31
0.0
  0
ARC
  5
BF8
330
2
100
AcDbEntity
  8
0
100
AcDbCircle
 10
546.020936347172
 20
486.5651052800108
 30
0.0
 40
200.0
100
AcDbArc
 50
264.1053016135962
 51
275.8946983864037
  0
ARC
  5
BF9
330
2
100
AcDbEntity
  8
0
100
AcDbCircle
 10
572.7230652774967
 20
227.9399009580261
 30
0.0
 40
60.0
100
AcDbArc
 50
78.19493218955852
 51
95.89469838640374
  0
ARC
  5
BFA
330
2
100
AcDbEntity
  8
0
100
AcDbCircle
 10
586.0209363471719
 20
291.5651052800107
 30
0.0
 40
5.0
100
AcDbArc
 50
258.1949321895585
 51
270.0
  0
LINE
  5
BFB
330
2
100
AcDbEntity
  8
0
100
AcDbLine
 10
586.0209363471719
 20
286.5651052800108
 30
0.0
 11
589.0209363471692
 21
286.5651052800108
 31
0.0
  0
ARC
  5
BFC
330
2
100
AcDbEntity
  8
0
100
AcDbCircle
 10
503.0209363471719
 20
380.5651052800046
 30
0.0
 40
8.0
100
AcDbArc
 50
90.0
 51
180.0
  0
ARC
  5
BFD
330
2
100
AcDbEntity
  8
0
100
AcDbCircle
 10
589.0209363471747
 20
380.5651052800044
 30
0.0
 40
8.0
100
AcDbArc
 50
359.9999999999869
 51
90.0
  0
ARC
  5
BFE
330
2
100
AcDbEntity
  8
0
100
AcDbCircle
 10
503.0209363471719
 20
294.5651052800047
 30
0.0
 40
8.0
100
AcDbArc
 50
180.0
 51
270.0
  0
ARC
  5
BFF
330
2
100
AcDbEntity
  8
0
100
AcDbCircle
 10
589.0209363471683
 20
294.5651052800048
 30
0.0
 40
8.0
100
AcDbArc
 50
270.0
 51
0.0
  0
LINE
  5
C00
330
2
100
AcDbEntity
  8
0
100
AcDbLine
 10
597.0209363471683
 20
380.5651052800048
 30
0.0
 11
597.0209363471711
 21
294.5651052800051
 31
0.0
  0
LINE
  5
C01
330
2
100
AcDbEntity
  8
0
 48
0.5
100
AcDbLine
 10
599.0209363471692
 20
340.0651052800109
 30
0.0
 11
615.5209583471708
 21
340.0651052800109
 31
0.0
  0
LINE
  5
C02
330
2
100
AcDbEntity
  8
0
 48
0.5
100
AcDbLine
 10
599.0209363471701
 20
335.065105280011
 30
0.0
 11
615.5209583471708
 21
335.065105280011
 31
0.0
  0
LINE
  5
C03
330
2
100
AcDbEntity
  8
0
100
AcDbLine
 10
540.6646082848481
 20
294.5651052799991
 30
0.0
 11
542.8246092158476
 21
294.5651052799987
 31
0.0
  0
LINE
  5
C04
330
2
100
AcDbEntity
  8
0
100
AcDbLine
 10
543.6646082848526
 20
300.5651052800075
 30
0.0
 11
540.6646082848481
 21
294.5651052799991
 31
0.0
  0
ARC
  5
C05
330
2
100
AcDbEntity
  8
0
100
AcDbCircle
 10
548.64455371486
 20
298.5251052800044
 30
0.0
 40
2.040000000002968
100
AcDbArc
 50
307.5189678668038
 51
90.0
  0
LINE
  5
C06
330
2
100
AcDbEntity
  8
0
100
AcDbLine
 10
549.8869627496048
 20
296.907075678793
 30
0.0
 11
551.3772644094959
 21
294.5651052799991
 31
0.0
  0
LINE
  5
C07
330
2
100
AcDbEntity
  8
0
100
AcDbLine
 10
549.2172634784972
 20
294.5651052799987
 30
0.0
 11
551.3772644094959
 21
294.5651052799991
 31
0.0
  0
LINE
  5
C08
330
2
100
AcDbEntity
  8
0
100
AcDbLine
 10
544.8046082848539
 20
294.5651052799987
 30
0.0
 11
546.6045537148564
 21
294.5651052799984
 31
0.0
  0
LINE
  5
C09
330
2
100
AcDbEntity
  8
0
100
AcDbLine
 10
543.2746092158474
 20
295.4651052800004
 30
0.0
 11
542.8246092158476
 21
294.5651052799987
 31
0.0
  0
LINE
  5
C0A
330
2
100
AcDbEntity
  8
0
100
AcDbLine
 10
543.2746092158474
 20
295.4651052800004
 30
0.0
 11
544.8046082848539
 21
295.4651052799999
 31
0.0
  0
LINE
  5
C0B
330
2
100
AcDbEntity
  8
0
100
AcDbLine
 10
544.8046082848539
 20
295.4651052799999
 30
0.0
 11
544.8046082848539
 21
294.5651052799987
 31
0.0
  0
LINE
  5
C0C
330
2
100
AcDbEntity
  8
0
100
AcDbLine
 10
544.2346092158493
 20
297.3851052800022
 30
0.0
 11
544.8046082848539
 21
297.3851052800027
 31
0.0
  0
LINE
  5
C0D
330
2
100
AcDbEntity
  8
0
100
AcDbLine
 10
544.8046082848539
 20
298.525103418012
 30
0.0
 11
544.8046082848539
 21
297.3851052800027
 31
0.0
  0
LINE
  5
C0E
330
2
100
AcDbEntity
  8
0
100
AcDbLine
 10
544.8046082848539
 20
298.525103418012
 30
0.0
 11
544.2346092158493
 21
297.3851052800022
 31
0.0
  0
LINE
  5
C0F
330
2
100
AcDbEntity
  8
0
100
AcDbLine
 10
546.8596082848569
 20
298.2701052800038
 30
0.0
 11
549.2172634784972
 21
294.5651052799987
 31
0.0
  0
LINE
  5
C10
330
2
100
AcDbEntity
  8
0
100
AcDbLine
 10
546.6045537148564
 20
298.5251052800046
 30
0.0
 11
546.6045537148564
 21
294.5651052799984
 31
0.0
  0
LINE
  5
C11
330
2
100
AcDbEntity
  8
0
100
AcDbLine
 10
546.6045537148564
 20
298.5251052800046
 30
0.0
 11
548.5171082848589
 21
298.5251052800046
 31
0.0
  0
LINE
  5
C12
330
2
100
AcDbEntity
  8
0
100
AcDbLine
 10
546.8596082848569
 20
298.2701052800038
 30
0.0
 11
548.5171082848599
 21
298.2701052800038
 31
0.0
  0
ARC
  5
C13
330
2
100
AcDbEntity
  8
0
100
AcDbCircle
 10
548.5171082848599
 20
298.3976052800043
 30
0.0
 40
0.1275000000001855
100
AcDbArc
 50
270.0
 51
90.0
  0
LINE
  5
C14
330
2
100
AcDbEntity
  8
0
100
AcDbLine
 10
543.6646082848526
 20
300.5651052800075
 30
0.0
 11
548.64455371486
 21
300.5651052800075
 31
0.0
  0
ARC
  5
C15
330
2
100
AcDbEntity
  8
0
 48
0.5
100
AcDbCircle
 10
599.0209363471692
 20
342.0651052800109
 30
0.0
 40
2.0
100
AcDbArc
 50
180.0
 51
270.0
  0
ARC
  5
C16
330
2
100
AcDbEntity
  8
0
100
AcDbCircle
 10
615.5209583471708
 20
342.0651052800109
 30
0.0
 40
2.0
100
AcDbArc
 50
270.0
 51
0.0
  0
ARC
  5
C17
330
2
100
AcDbEntity
  8
0
100
AcDbCircle
 10
615.5209583471708
 20
333.065105280011
 30
0.0
 40
2.0
100
AcDbArc
 50
0.0
 51
90.0
  0
ARC
  5
C18
330
2
100
AcDbEntity
  8
0
100
AcDbCircle
 10
599.0209363471701
 20
333.065105280011
 30
0.0
 40
2.0
100
AcDbArc
 50
90.0
 51
180.0
  0
ARC
  5
C19
330
2
100
AcDbEntity
  8
0
100
AcDbCircle
 10
599.020936347172
 20
300.5651052800109
 30
0.0
 40
2.0
100
AcDbArc
 50
90.0
 51
180.0
  0
ARC
  5
C1A
330
2
100
AcDbEntity
  8
0
100
AcDbCircle
 10
621.5209363471601
 20
294.5651052800112
 30
0.0
 40
5.0
100
AcDbArc
 50
359.9999999999869
 51
90.0
  0
LINE
  5
C1B
330
2
100
AcDbEntity
  8
0
100
AcDbLine
 10
615.6479530009626
 20
372.5651052800112
 30
0.0
 11
599.0209363471729
 21
372.5651052800112
 31
0.0
  0
ARC
  5
C1C
330
2
100
AcDbEntity
  8
0
100
AcDbCircle
 10
599.0209363471729
 20
374.5651052800112
 30
0.0
 40
2.0
100
AcDbArc
 50
180.0
 51
270.0
  0
LINE
  5
C1D
330
2
100
AcDbEntity
  8
0
100
AcDbLine
 10
615.6479530009607
 20
302.5651052800109
 30
0.0
 11
599.020936347172
 21
302.5651052800109
 31
0.0
  0
LINE
  5
C1E
330
2
100
AcDbEntity
  8
0
100
AcDbLine
 10
621.5209363471711
 20
375.5651052800109
 30
0.0
 11
619.5209363471701
 21
375.5651052800112
 31
0.0
  0
ARC
  5
C1F
330
2
100
AcDbEntity
  8
0
100
AcDbCircle
 10
621.5209363471711
 20
380.5651052800109
 30
0.0
 40
5.0
100
AcDbArc
 50
270.0
 51
0.0
  0
LINE
  5
C20
330
2
100
AcDbEntity
  8
0
100
AcDbLine
 10
621.5209363471601
 20
299.5651052800112
 30
0.0
 11
619.5209363471683
 21
299.5651052800112
 31
0.0
  0
ARC
  5
C21
330
2
100
AcDbEntity
  8
0
100
AcDbCircle
 10
619.5209363471683
 20
301.5651052800112
 30
0.0
 40
2.0
100
AcDbArc
 50
180.0
 51
270.0
  0
ARC
  5
C22
330
2
100
AcDbEntity
  8
0
100
AcDbCircle
 10
615.6479530009607
 20
300.5651052800109
 30
0.0
 40
2.0
100
AcDbArc
 50
14.47751218594082
 51
90.0
  0
LINE
  5
C23
330
2
100
AcDbEntity
  8
0
100
AcDbLine
 10
617.5209363471692
 20
373.5651052800112
 30
0.0
 11
617.5209363471683
 21
301.5651052800112
 31
0.0
  0
ARC
  5
C24
330
2
100
AcDbEntity
  8
0
100
AcDbCircle
 10
619.5209363471701
 20
373.5651052800112
 30
0.0
 40
2.0
100
AcDbArc
 50
90.0
 51
180.0
  0
ARC
  5
C25
330
2
100
AcDbEntity
  8
0
100
AcDbCircle
 10
615.6479530009626
 20
374.5651052800109
 30
0.0
 40
2.0
100
AcDbArc
 50
270.0
 51
345.5224878140709
  0
ARC
  5
C26
330
2
100
AcDbEntity
  8
0
100
AcDbCircle
 10
612.5209583471717
 20
372.5651052800132
 30
0.0
 40
5.0
100
AcDbArc
 50
270.0
 51
359.9999999999869
  0
ARC
  5
C27
330
2
100
AcDbEntity
  8
0
100
AcDbCircle
 10
602.0209363471697
 20
372.5651052800137
 30
0.0
 40
5.0
100
AcDbArc
 50
179.9999999999869
 51
270.0
  0
LINE
  5
C28
330
2
100
AcDbEntity
  8
0
100
AcDbLine
 10
602.0209363471693
 20
367.5651052800137
 30
0.0
 11
612.5209583471712
 21
367.565105280013
 31
0.0
  0
ARC
  5
C29
330
2
100
AcDbEntity
  8
0
100
AcDbCircle
 10
612.5209583471703
 20
302.5651052800131
 30
0.0
 40
5.0
100
AcDbArc
 50
0.0
 51
90.0
  0
ARC
  5
C2A
330
2
100
AcDbEntity
  8
0
100
AcDbCircle
 10
602.0209363471683
 20
302.5651052800132
 30
0.0
 40
5.0
100
AcDbArc
 50
90.0
 51
180.0
  0
LINE
  5
C2B
330
2
100
AcDbEntity
  8
0
100
AcDbLine
 10
602.0209363471683
 20
307.5651052800132
 30
0.0
 11
612.5209583471703
 21
307.5651052800132
 31
0.0
  0
LINE
  5
C2C
330
2
100
AcDbEntity
  8
0
100
AcDbLine
 10
642.0209583471725
 20
389.065105280013
 30
0.0
 11
628.520958347173
 21
389.0651052800135
 31
0.0
  0
ARC
  5
C2D
330
2
100
AcDbEntity
  8
0
100
AcDbCircle
 10
628.5209583471726
 20
387.0651052800134
 30
0.0
 40
2.0
100
AcDbArc
 50
90.0
 51
179.9999999999869
  0
LINE
  5
C2E
330
2
100
AcDbEntity
  8
0
100
AcDbLine
 10
642.0209583471731
 20
286.0651052800129
 30
0.0
 11
628.5209583471698
 21
286.0651052800128
 31
0.0
  0
ARC
  5
C2F
330
2
100
AcDbEntity
  8
0
100
AcDbCircle
 10
628.5209583471698
 20
288.0651052800128
 30
0.0
 40
2.0
100
AcDbArc
 50
179.9999999999869
 51
270.0
  0
LINE
  5
C30
330
2
100
AcDbEntity
  8
CENTER
100
AcDbLine
 10
491.6923507245894
 20
283.2365196574289
 30
0.0
 11
600.3495219697549
 21
391.893690902593
 31
0.0
  0
CIRCLE
  5
C31
330
2
100
AcDbEntity
  8
0
100
AcDbCircle
 10
546.020936347172
 20
337.565105280011
 30
0.0
 40
26.57735026918976
  0
LINE
  5
C32
330
2
100
AcDbEntity
  8
CENTER
100
AcDbLine
 10
546.020936347172
 20
705.9689384596159
 30
0.0
 11
546.020936347172
 21
520.9689384596095
 31
0.0
  0
LINE
  5
C33
330
2
100
AcDbEntity
  8
CENTER
100
AcDbLine
 10
485.2779981631435
 20
644.9689384596088
 30
0.0
 11
736.5209583471751
 21
644.968938459609
 31
0.0
  0
LINE
  5
C34
330
2
100
AcDbEntity
  8
0
100
AcDbLine
 10
495.0209363471738
 20
674.4689384596088
 30
0.0
 11
596.5023802803614
 21
674.4689384596131
 31
0.0
  0
LINE
  5
C35
330
2
100
AcDbEntity
  8
0
100
AcDbLine
 10
495.0209363471738
 20
674.4689384596088
 30
0.0
 11
495.7409029399111
 21
591.968938459609
 31
0.0
  0
LINE
  5
C36
330
2
100
AcDbEntity
  8
0
100
AcDbLine
 10
501.0209363471737
 20
586.9689384596088
 30
0.0
 11
591.0209363471738
 21
586.9689384596088
 31
0.0
  0
LINE
  5
C37
330
2
100
AcDbEntity
  8
0
100
AcDbLine
 10
501.0209363471737
 20
591.968938459609
 30
0.0
 11
501.0209363471737
 21
586.968938459609
 31
0.0
  0
LINE
  5
C38
330
2
100
AcDbEntity
  8
0
100
AcDbLine
 10
495.7409029399111
 20
591.968938459609
 30
0.0
 11
596.2984123542639
 21
591.9689384596088
 31
0.0
  0
LINE
  5
C39
330
2
100
AcDbEntity
  8
0
100
AcDbLine
 10
591.0209363471738
 20
591.968938459609
 30
0.0
 11
591.0209363471738
 21
586.968938459609
 31
0.0
  0
LINE
  5
C3A
330
2
100
AcDbEntity
  8
0
100
AcDbLine
 10
596.5023802803614
 20
674.4689384596131
 30
0.0
 11
596.7598130775647
 21
644.9700617292157
 31
0.0
  0
LINE
  5
C3B
330
2
100
AcDbEntity
  8
0
100
AcDbLine
 10
596.7609363471717
 20
644.9689384596088
 30
0.0
 11
596.2984123542644
 21
591.9689384596088
 31
0.0
  0
ARC
  5
C3C
330
2
100
AcDbEntity
  8
0
100
AcDbCircle
 10
601.4556863664254
 20
609.968938459609
 30
0.0
 40
5.0
100
AcDbArc
 50
90.0
 51
179.5000000000019
  0
LINE
  5
C3D
330
2
100
AcDbEntity
  8
0
100
AcDbLine
 10
619.4692500890176
 20
606.968938459609
 30
0.0
 11
621.309735012165
 21
606.968938459609
 31
0.0
  0
LINE
  5
C3E
330
2
100
AcDbEntity
  8
0
100
AcDbLine
 10
642.0209583471721
 20
695.9689384596088
 30
0.0
 11
642.0209583471721
 21
593.968938459609
 31
0.0
  0
LINE
  5
C3F
330
2
100
AcDbEntity
  8
0
100
AcDbLine
 10
619.4692500890176
 20
682.968938459609
 30
0.0
 11
621.3097350121641
 21
682.968938459609
 31
0.0
  0
LINE
  5
C40
330
2
100
AcDbEntity
  8
0
100
AcDbLine
 10
616.5258713275382
 20
644.968938459609
 30
0.0
 11
617.4699354390666
 21
681.0212923562244
 31
0.0
  0
ARC
  5
C41
330
2
100
AcDbEntity
  8
0
100
AcDbCircle
 10
619.4692500890176
 20
680.9689384596087
 30
0.0
 40
2.0
100
AcDbArc
 50
90.0
 51
178.5000000000103
  0
LINE
  5
C42
330
2
100
AcDbEntity
  8
0
100
AcDbLine
 10
612.4144786984427
 20
673.9689384596131
 30
0.0
 11
597.0023802803622
 21
673.9689384596129
 31
0.0
  0
LINE
  5
C43
330
2
100
AcDbEntity
  8
0
100
AcDbLine
 10
596.5023802803614
 20
674.4689384596131
 30
0.0
 11
597.0023802803622
 21
673.9689384596129
 31
0.0
  0
LINE
  5
C44
330
2
100
AcDbEntity
  8
0
100
AcDbLine
 10
616.5258713275432
 20
644.968938459609
 30
0.0
 11
617.4699354390666
 21
608.916584562993
 31
0.0
  0
ARC
  5
C45
330
2
100
AcDbEntity
  8
0
100
AcDbCircle
 10
619.4692500890176
 20
608.9689384596088
 30
0.0
 40
2.0
100
AcDbArc
 50
181.5000000000027
 51
270.0
  0
LINE
  5
C46
330
2
100
AcDbEntity
  8
0
100
AcDbLine
 10
601.4556863664254
 20
614.968938459609
 30
0.0
 11
612.440664620012
 21
614.968938459609
 31
0.0
  0
ARC
  5
C47
330
2
100
AcDbEntity
  8
0
100
AcDbCircle
 10
612.440664620012
 20
609.968938459609
 30
0.0
 40
5.0
100
AcDbArc
 50
1.500000000002719
 51
90.0
  0
ARC
  5
C48
330
2
100
AcDbEntity
  8
0
100
AcDbCircle
 10
612.4144786984427
 20
678.9689384596131
 30
0.0
 40
5.0
100
AcDbArc
 50
270.0
 51
358.4999999999972
  0
LINE
  5
C49
330
2
100
AcDbEntity
  8
0
100
AcDbLine
 10
513.9523138967859
 20
572.9689384596077
 30
0.0
 11
578.089558797559
 21
572.9689384596077
 31
0.0
  0
LINE
  5
C4A
330
2
100
AcDbEntity
  8
0
100
AcDbLine
 10
511.5994496787123
 20
585.0387374530123
 30
0.0
 11
511.953532242748
 21
574.899139466203
 31
0.0
  0
ARC
  5
C4B
330
2
100
AcDbEntity
  8
0
100
AcDbCircle
 10
509.6006680246744
 20
584.9689384596076
 30
0.0
 40
2.0
100
AcDbArc
 50
2.000000000004465
 51
90.0
  0
ARC
  5
C4C
330
2
100
AcDbEntity
  8
0
100
AcDbCircle
 10
513.9523138967859
 20
574.9689384596076
 30
0.0
 40
2.0
100
AcDbArc
 50
182.0000000000044
 51
270.0
  0
LINE
  5
C4D
330
2
100
AcDbEntity
  8
0
100
AcDbLine
 10
580.4424230156326
 20
585.0387374530128
 30
0.0
 11
580.0883404515968
 21
574.899139466203
 31
0.0
  0
ARC
  5
C4E
330
2
100
AcDbEntity
  8
0
100
AcDbCircle
 10
582.4412046696704
 20
584.9689384596076
 30
0.0
 40
2.0
100
AcDbArc
 50
90.0
 51
177.9999999999955
  0
ARC
  5
C4F
330
2
100
AcDbEntity
  8
0
100
AcDbCircle
 10
578.089558797559
 20
574.9689384596076
 30
0.0
 40
2.0
100
AcDbArc
 50
270.0
 51
357.9999999999955
  0
LINE
  5
C50
330
2
100
AcDbEntity
  8
0
100
AcDbLine
 10
586.0340293079559
 20
674.4689384596126
 30
0.0
 11
586.7810135401921
 21
645.9427615113011
 31
0.0
  0
ARC
  5
C51
330
2
100
AcDbEntity
  8
0
100
AcDbCircle
 10
587.7806708651676
 20
645.968938459609
 30
0.0
 40
1.0
100
AcDbArc
 50
181.5000000000027
 51
270.0
  0
LINE
  5
C52
330
2
100
AcDbEntity
  8
0
100
AcDbLine
 10
586.0209363471729
 20
644.968938459609
 30
0.0
 11
586.0209363471719
 21
593.4689384596087
 31
0.0
  0
LINE
  5
C53
330
2
100
AcDbEntity
  8
0
100
AcDbLine
 10
587.7806708651685
 20
644.968938459609
 30
0.0
 11
596.7609363471713
 21
644.968938459609
 31
0.0
  0
LINE
  5
C54
330
2
100
AcDbEntity
  8
0
100
AcDbLine
 10
587.7806708651685
 20
644.968938459609
 30
0.0
 11
587.7806708651676
 21
644.968938459609
 31
0.0
  0
LINE
  5
C55
330
2
100
AcDbEntity
  8
0
100
AcDbLine
 10
626.4699354390647
 20
694.0212923562246
 30
0.0
 11
625.1854543471379
 21
644.9689384596092
 31
0.0
  0
ARC
  5
C56
330
2
100
AcDbEntity
  8
0
100
AcDbCircle
 10
621.3097350121641
 20
687.9689384596092
 30
0.0
 40
5.0
100
AcDbArc
 50
270.0
 51
358.4999999999972
  0
LINE
  5
C57
330
2
100
AcDbEntity
  8
0
100
AcDbLine
 10
628.4692500890157
 20
593.968938459609
 30
0.0
 11
642.0209583471721
 21
593.9689384596092
 31
0.0
  0
ARC
  5
C58
330
2
100
AcDbEntity
  8
0
100
AcDbCircle
 10
628.4692500890157
 20
595.968938459609
 30
0.0
 40
2.0
100
AcDbArc
 50
181.4999999999896
 51
270.0
  0
LINE
  5
C59
330
2
100
AcDbEntity
  8
0
100
AcDbLine
 10
628.4692500890157
 20
695.9689384596088
 30
0.0
 11
642.0209583471721
 21
695.968938459609
 31
0.0
  0
ARC
  5
C5A
330
2
100
AcDbEntity
  8
0
100
AcDbCircle
 10
628.4692500890157
 20
693.968938459609
 30
0.0
 40
2.0
100
AcDbArc
 50
90.0
 51
178.5000000000103
  0
LINE
  5
C5B
330
2
100
AcDbEntity
  8
0
100
AcDbLine
 10
626.4699354390647
 20
595.9165845629936
 30
0.0
 11
625.1854543471442
 21
644.968938459609
 31
0.0
  0
ARC
  5
C5C
330
2
100
AcDbEntity
  8
0
100
AcDbCircle
 10
621.309735012165
 20
601.968938459609
 30
0.0
 40
5.0
100
AcDbArc
 50
1.499999999989688
 51
90.0
  0
LINE
  5
C5D
330
2
100
AcDbEntity
  8
0
100
AcDbLine
 10
625.1854543471442
 20
644.968938459609
 30
0.0
 11
642.0209583471721
 21
644.968938459609
 31
0.0
  0
ARC
  5
C5E
330
2
100
AcDbEntity
  8
0
100
AcDbCircle
 10
615.5962667428073
 20
607.9689384596094
 30
0.0
 40
2.0
100
AcDbArc
 50
14.4775121859173
 51
90.0
  0
LINE
  5
C5F
330
2
100
AcDbEntity
  8
0
100
AcDbLine
 10
598.4381183956868
 20
609.9689384596086
 30
0.0
 11
615.5962667428073
 21
609.9689384596095
 31
0.0
  0
ARC
  5
C60
330
2
100
AcDbEntity
  8
0
100
AcDbCircle
 10
598.4381183956872
 20
607.9689384596088
 30
0.0
 40
2.0
100
AcDbArc
 50
90.0
 51
179.5000000000019
  0
LINE
  5
C61
330
2
100
AcDbEntity
  8
CENTER
100
AcDbLine
 10
938.3914696395907
 20
399.065585852864
 30
0.0
 11
938.3914696395907
 21
276.0646247071786
 31
0.0
  0
LINE
  5
C72
330
2
100
AcDbEntity
  8
0
100
AcDbLine
 10
885.3914696395939
 20
387.8407752533817
 30
0.0
 11
885.3914696395939
 21
287.2894353066482
 31
0.0
  0
LINE
  5
C73
330
2
100
AcDbEntity
  8
0
100
AcDbLine
 10
880.3914696395938
 20
382.5651052800121
 30
0.0
 11
880.3914696395938
 21
292.5651052800123
 31
0.0
  0
LINE
  5
C74
330
2
100
AcDbEntity
  8
0
100
AcDbLine
 10
885.3914696395939
 20
382.5651052800121
 30
0.0
 11
880.3914696395938
 21
382.5651052800121
 31
0.0
  0
LINE
  5
C75
330
2
100
AcDbEntity
  8
0
100
AcDbLine
 10
885.3914696395939
 20
292.5651052800123
 30
0.0
 11
880.3914696395938
 21
292.5651052800123
 31
0.0
  0
LINE
  5
C76
330
2
100
AcDbEntity
  8
0
100
AcDbLine
 10
866.3914696395929
 20
369.6337277304002
 30
0.0
 11
866.3914696395929
 21
305.4964828296271
 31
0.0
  0
LINE
  5
C77
330
2
100
AcDbEntity
  8
0
100
AcDbLine
 10
878.4612686329971
 20
371.9865919484738
 30
0.0
 11
868.3216706461879
 21
371.6325093844381
 31
0.0
  0
ARC
  5
C78
330
2
100
AcDbEntity
  8
0
100
AcDbCircle
 10
878.391469639593
 20
373.9853736025116
 30
0.0
 40
2.0
100
AcDbArc
 50
272.0000000000036
 51
0.0
  0
ARC
  5
C79
330
2
100
AcDbEntity
  8
0
100
AcDbCircle
 10
868.3914696395929
 20
369.6337277304002
 30
0.0
 40
2.0
100
AcDbArc
 50
92.00000000000365
 51
180.0
  0
LINE
  5
C7A
330
2
100
AcDbEntity
  8
0
100
AcDbLine
 10
878.461268632998
 20
303.1436186115535
 30
0.0
 11
868.3216706461879
 21
303.4977011755892
 31
0.0
  0
ARC
  5
C7B
330
2
100
AcDbEntity
  8
0
100
AcDbCircle
 10
878.391469639593
 20
301.1448369575156
 30
0.0
 40
2.0
100
AcDbArc
 50
0.0
 51
87.99999999999636
  0
ARC
  5
C7C
330
2
100
AcDbEntity
  8
0
100
AcDbCircle
 10
868.3914696395929
 20
305.4964828296271
 30
0.0
 40
2.0
100
AcDbArc
 50
180.0
 51
267.9999999999963
  0
ARC
  5
C7F
330
2
100
AcDbEntity
  8
0
100
AcDbCircle
 10
895.391469639587
 20
294.4870583657461
 30
0.0
 40
8.0
100
AcDbArc
 50
224.6047454959607
 51
269.4382946674162
  0
LINE
  5
C80
330
2
100
AcDbEntity
  8
0
100
AcDbLine
 10
938.3914696395871
 20
389.0651052800208
 30
0.0
 11
981.4698972431186
 21
388.6427677544957
 31
0.0
  0
ARC
  5
C81
330
2
100
AcDbEntity
  8
0
100
AcDbCircle
 10
981.3914696395874
 20
380.6431521942954
 30
0.0
 40
8.0
100
AcDbArc
 50
44.60474549151507
 51
89.43829466744229
  0
LINE
  5
C82
330
2
100
AcDbEntity
  8
0
100
AcDbLine
 10
938.3914696395871
 20
389.0651052800208
 30
0.0
 11
927.1422955557305
 21
388.9548192595909
 31
0.0
  0
ARC
  5
C83
330
2
100
AcDbEntity
  8
0
100
AcDbCircle
 10
895.391469639587
 20
380.6431521942963
 30
0.0
 40
8.0
100
AcDbArc
 50
90.5617053325577
 51
135.3952545113082
  0
LINE
  5
C84
330
2
100
AcDbEntity
  8
0
100
AcDbLine
 10
938.3914696395871
 20
286.0651052800217
 30
0.0
 11
981.4698972431186
 21
286.4874428055468
 31
0.0
  0
ARC
  5
C85
330
2
100
AcDbEntity
  8
0
100
AcDbCircle
 10
981.3914696395874
 20
294.4870583657471
 30
0.0
 40
8.0
100
AcDbArc
 50
270.5617053325576
 51
315.3952545012159
  0
LINE
  5
C86
330
2
100
AcDbEntity
  8
0
100
AcDbLine
 10
938.3914696395871
 20
286.0651052800217
 30
0.0
 11
895.3130420360555
 21
286.4874428055459
 31
0.0
  0
LINE
  5
C87
330
2
100
AcDbEntity
  8
0
100
AcDbLine
 10
892.0213066171193
 20
387.8986329641597
 30
0.0
 11
885.3914696395939
 21
387.8407752533817
 31
0.0
  0
LINE
  5
C88
330
2
100
AcDbEntity
  8
0
100
AcDbLine
 10
892.0213066171193
 20
287.23157759587
 30
0.0
 11
885.3914696395939
 21
287.2894353066482
 31
0.0
  0
LINE
  5
C89
330
2
100
AcDbEntity
  8
CENTER
100
AcDbLine
 10
814.3914696395947
 20
337.565105280011
 30
0.0
 11
999.8909890898415
 21
337.5651052800109
 31
0.0
  0
LINE
  5
C8B
330
2
100
AcDbEntity
  8
CENTER
100
AcDbLine
 10
115.4562819001614
 20
276.5651052800111
 30
0.0
 11
115.4562819001614
 21
398.5651052800111
 31
0.0
  0
LINE
  5
C8C
330
2
100
AcDbEntity
  8
0
100
AcDbLine
 10
64.71628190016168
 20
294.5651052800143
 30
0.0
 11
64.71628190016168
 21
380.565105280014
 31
0.0
  0
ARC
  5
C8D
330
2
100
AcDbEntity
  8
0
100
AcDbCircle
 10
59.71628190016168
 20
302.5651052800136
 30
0.0
 40
5.0
100
AcDbArc
 50
0.0
 51
90.0
  0
ARC
  5
C8E
330
2
100
AcDbEntity
  8
0
100
AcDbCircle
 10
62.71628190016167
 20
300.5651052800111
 30
0.0
 40
2.0
100
AcDbArc
 50
0.0
 51
90.0
  0
ARC
  5
C8F
330
2
100
AcDbEntity
  8
0
100
AcDbCircle
 10
59.71628190016168
 20
372.5651052800141
 30
0.0
 40
5.0
100
AcDbArc
 50
270.0
 51
0.0
  0
ARC
  5
C90
330
2
100
AcDbEntity
  8
0
100
AcDbCircle
 10
62.71628190016167
 20
374.5651052800113
 30
0.0
 40
2.0
100
AcDbArc
 50
270.0
 51
0.0
  0
ARC
  5
C91
330
2
100
AcDbEntity
  8
0
100
AcDbCircle
 10
72.71628190016167
 20
380.565105280014
 30
0.0
 40
8.0
100
AcDbArc
 50
90.0
 51
180.0
  0
ARC
  5
C92
330
2
100
AcDbEntity
  8
0
100
AcDbCircle
 10
72.71628190016167
 20
294.5651052800143
 30
0.0
 40
8.0
100
AcDbArc
 50
180.0
 51
270.0
  0
ARC
  5
C94
330
2
100
AcDbEntity
  8
0
100
AcDbCircle
 10
39.9562599001631
 20
380.5651052800192
 30
0.0
 40
5.0
100
AcDbArc
 50
180.0
 51
270.0
  0
LINE
  5
C95
330
2
100
AcDbEntity
  8
0
100
AcDbLine
 10
34.9562599001631
 20
288.065105280019
 30
0.0
 11
34.95625990016583
 21
387.0651052800199
 31
0.0
  0
LINE
  5
C96
330
2
100
AcDbEntity
  8
0
100
AcDbLine
 10
19.45625990016265
 20
389.0651052800197
 30
0.0
 11
19.4562599001631
 21
337.5651052800197
 31
0.0
  0
ARC
  5
C97
330
2
100
AcDbEntity
  8
0
100
AcDbCircle
 10
32.95625990016583
 20
386.5651052800199
 30
0.0
 40
2.0
100
AcDbArc
 50
359.9999999999869
 51
90.0
  0
LINE
  5
C98
330
2
100
AcDbEntity
  8
0
100
AcDbLine
 10
19.45625990016265
 20
388.5651052800197
 30
0.0
 11
32.95625990016583
 21
388.5651052800199
 31
0.0
  0
LINE
  5
C99
330
2
100
AcDbEntity
  8
0
100
AcDbLine
 10
19.4562599001631
 20
286.0651052800195
 30
0.0
 11
19.4562599001631
 21
337.5651052800195
 31
0.0
  0
ARC
  5
C9A
330
2
100
AcDbEntity
  8
0
100
AcDbCircle
 10
32.9562599001631
 20
288.565105280019
 30
0.0
 40
2.0
100
AcDbArc
 50
270.0
 51
0.0
  0
ARC
  5
C9B
330
2
100
AcDbEntity
  8
0
100
AcDbCircle
 10
39.9562599001631
 20
294.5651052800197
 30
0.0
 40
5.0
100
AcDbArc
 50
90.0
 51
179.9999999999869
  0
LINE
  5
C9C
330
2
100
AcDbEntity
  8
0
100
AcDbLine
 10
19.4562599001631
 20
286.5651052800195
 30
0.0
 11
32.9562599001631
 21
286.565105280019
 31
0.0
  0
LINE
  5
C9D
330
2
100
AcDbEntity
  8
0
100
AcDbLine
 10
41.95625990016083
 20
299.5651052800143
 30
0.0
 11
39.95625990016355
 21
299.5651052800145
 31
0.0
  0
LINE
  5
C9E
330
2
100
AcDbEntity
  8
0
100
AcDbLine
 10
41.95625990016355
 20
375.5651052800199
 30
0.0
 11
39.95625990016174
 21
375.5651052800204
 31
0.0
  0
LINE
  5
C9F
330
2
100
AcDbEntity
  8
0
 48
0.5
100
AcDbLine
 10
63.956281900161
 20
329.8839595321545
 30
0.0
 11
63.95628190016236
 21
345.2462510278735
 31
0.0
  0
LINE
  5
CA0
330
2
100
AcDbEntity
  8
0
100
AcDbLine
 10
59.71628190016168
 20
367.5651052800141
 30
0.0
 11
48.95625990016265
 21
367.565105280014
 31
0.0
  0
LINE
  5
CA1
330
2
100
AcDbEntity
  8
0
100
AcDbLine
 10
43.95625990016265
 20
373.565105280019
 30
0.0
 11
43.95625990016265
 21
301.5651052800095
 31
0.0
  0
ARC
  5
CA2
330
2
100
AcDbEntity
  8
0
100
AcDbCircle
 10
48.95625990016265
 20
372.565105280014
 30
0.0
 40
5.0
100
AcDbArc
 50
180.0
 51
270.0
  0
ARC
  5
CA3
330
2
100
AcDbEntity
  8
0
100
AcDbCircle
 10
41.95625990016265
 20
373.565105280019
 30
0.0
 40
2.0
100
AcDbArc
 50
0.0
 51
89.99999999997395
  0
LINE
  5
CA4
330
2
100
AcDbEntity
  8
0
100
AcDbLine
 10
43.95625990016265
 20
329.8839595321545
 30
0.0
 11
64.45628190016782
 21
329.8839595321547
 31
0.0
  0
LINE
  5
CA5
330
2
100
AcDbEntity
  8
0
100
AcDbLine
 10
43.95625990016265
 20
345.2462510278738
 30
0.0
 11
64.45628190016782
 21
345.2462510278735
 31
0.0
  0
LINE
  5
CA6
330
2
100
AcDbEntity
  8
0
100
AcDbLine
 10
59.71628190016168
 20
307.5651052800135
 30
0.0
 11
48.95625990016128
 21
307.5651052800143
 31
0.0
  0
ARC
  5
CA7
330
2
100
AcDbEntity
  8
0
100
AcDbCircle
 10
48.95625990016083
 20
302.565105280014
 30
0.0
 40
5.0
100
AcDbArc
 50
90.0
 51
179.9999999999869
  0
ARC
  5
CA8
330
2
100
AcDbEntity
  8
0
100
AcDbCircle
 10
41.95625990016083
 20
301.5651052800095
 30
0.0
 40
2.0
100
AcDbArc
 50
270.0
 51
0.0
  0
LINE
  5
CA9
330
2
100
AcDbEntity
  8
0
100
AcDbLine
 10
45.82926524637082
 20
302.5651052800113
 30
0.0
 11
62.71628190016167
 21
302.565105280011
 31
0.0
  0
LINE
  5
CAA
330
2
100
AcDbEntity
  8
0
100
AcDbLine
 10
45.82926524636991
 20
372.565105280011
 30
0.0
 11
62.71628190016167
 21
372.5651052800113
 31
0.0
  0
ARC
  5
CAB
330
2
100
AcDbEntity
  8
0
100
AcDbCircle
 10
45.82926524636991
 20
374.5651052800111
 30
0.0
 40
2.0
100
AcDbArc
 50
194.477512185929
 51
270.0
  0
ARC
  5
CAC
330
2
100
AcDbEntity
  8
0
100
AcDbCircle
 10
45.82926524637082
 20
300.5651052800113
 30
0.0
 40
2.0
100
AcDbArc
 50
90.0
 51
165.5224878140709
  0
LINE
  5
CAD
330
2
100
AcDbEntity
  8
0
100
AcDbLine
 10
19.45625990016265
 20
389.0651052800197
 30
0.0
 11
32.95625990016583
 21
389.0651052800199
 31
0.0
  0
ARC
  5
CAE
330
2
100
AcDbEntity
  8
0
100
AcDbCircle
 10
32.95625990016583
 20
387.0651052800199
 30
0.0
 40
2.0
100
AcDbArc
 50
359.9999999999869
 51
90.0
  0
LINE
  5
CAF
330
2
100
AcDbEntity
  8
0
100
AcDbLine
 10
19.4562599001631
 20
286.0651052800195
 30
0.0
 11
32.9562599001631
 21
286.065105280019
 31
0.0
  0
ARC
  5
CB0
330
2
100
AcDbEntity
  8
0
100
AcDbCircle
 10
32.9562599001631
 20
288.065105280019
 30
0.0
 40
2.0
100
AcDbArc
 50
270.0
 51
0.0
  0
LINE
  5
CB2
330
2
100
AcDbEntity
  8
CENTER
100
AcDbLine
 10
213.3673393700238
 20
337.5651052800108
 30
0.0
 11
398.3673393700199
 21
337.5651052800112
 31
0.0
  0
LINE
  5
CB3
330
2
100
AcDbEntity
  8
CENTER
100
AcDbLine
 10
274.3673393700203
 20
276.064624707158
 30
0.0
 11
274.3673393700203
 21
399.0655858528432
 31
0.0
  0
LINE
  5
CB4
330
2
100
AcDbEntity
  8
0
100
AcDbLine
 10
244.8673393700203
 20
286.5651052800124
 30
0.0
 11
244.8673393700162
 21
388.5651052800108
 31
0.0
  0
LINE
  5
CB5
330
2
100
AcDbEntity
  8
0
100
AcDbLine
 10
244.8673393700203
 20
286.5651052800124
 30
0.0
 11
327.3673393700203
 21
287.28507187275
 31
0.0
  0
LINE
  5
CB6
330
2
100
AcDbEntity
  8
0
100
AcDbLine
 10
332.3673393700203
 20
292.5651052800126
 30
0.0
 11
332.3673393700203
 21
382.5651052800124
 31
0.0
  0
LINE
  5
CB7
330
2
100
AcDbEntity
  8
0
100
AcDbLine
 10
327.3673393700203
 20
292.5651052800126
 30
0.0
 11
332.3673393700203
 21
292.5651052800126
 31
0.0
  0
LINE
  5
CB8
330
2
100
AcDbEntity
  8
0
100
AcDbLine
 10
327.3673393700203
 20
287.2850718727501
 30
0.0
 11
327.3673393700203
 21
387.8425812871029
 31
0.0
  0
LINE
  5
CB9
330
2
100
AcDbEntity
  8
0
100
AcDbLine
 10
327.3673393700203
 20
382.5651052800124
 30
0.0
 11
332.3673393700203
 21
382.5651052800124
 31
0.0
  0
LINE
  5
CBA
330
2
100
AcDbEntity
  8
0
100
AcDbLine
 10
346.3673393700216
 20
305.4964828296249
 30
0.0
 11
346.3673393700216
 21
369.6337277303981
 31
0.0
  0
LINE
  5
CBB
330
2
100
AcDbEntity
  8
0
100
AcDbLine
 10
334.297540376617
 20
303.1436186115513
 30
0.0
 11
344.4371383634263
 21
303.497701175587
 31
0.0
  0
ARC
  5
CBC
330
2
100
AcDbEntity
  8
0
100
AcDbCircle
 10
334.3673393700216
 20
301.1448369575135
 30
0.0
 40
2.0
100
AcDbArc
 50
92.00000000000365
 51
180.0
  0
ARC
  5
CBD
330
2
100
AcDbEntity
  8
0
100
AcDbCircle
 10
344.3673393700216
 20
305.4964828296249
 30
0.0
 40
2.0
100
AcDbArc
 50
272.0000000000036
 51
0.0
  0
LINE
  5
CBE
330
2
100
AcDbEntity
  8
0
100
AcDbLine
 10
334.2975403766165
 20
371.9865919484717
 30
0.0
 11
344.4371383634263
 21
371.632509384436
 31
0.0
  0
ARC
  5
CBF
330
2
100
AcDbEntity
  8
0
100
AcDbCircle
 10
334.3673393700216
 20
373.9853736025096
 30
0.0
 40
2.0
100
AcDbArc
 50
180.0
 51
267.9999999999963
  0
ARC
  5
CC0
330
2
100
AcDbEntity
  8
0
100
AcDbCircle
 10
344.3673393700216
 20
369.6337277303981
 30
0.0
 40
2.0
100
AcDbArc
 50
0.0
 51
87.99999999999636
  0
LINE
  5
CC1
330
2
100
AcDbEntity
  8
0
100
AcDbLine
 10
244.8673393700162
 20
388.5651052800108
 30
0.0
 11
327.3673393700203
 21
387.8425812871029
 31
0.0
  0
LINE
  5
CC2
330
2
100
AcDbEntity
  8
0
100
AcDbLine
 10
223.3673393700235
 20
294.4870583657264
 30
0.0
 11
223.3673393700239
 21
380.6431521942748
 31
0.0
  0
ARC
  5
CC3
330
2
100
AcDbEntity
  8
0
100
AcDbCircle
 10
317.3673393700239
 20
380.6431521942757
 30
0.0
 40
8.0
100
AcDbArc
 50
65.12006096689425
 51
89.43829466741624
  0
LINE
  5
CC4
330
2
100
AcDbEntity
  8
0
100
AcDbLine
 10
274.3673393700239
 20
286.065105280001
 30
0.0
 11
231.2889117664924
 21
286.4874428055262
 31
0.0
  0
ARC
  5
CC5
330
2
100
AcDbEntity
  8
0
100
AcDbCircle
 10
231.3673393700235
 20
294.4870583657264
 30
0.0
 40
8.0
100
AcDbArc
 50
180.0
 51
269.4382946674422
  0
LINE
  5
CC6
330
2
100
AcDbEntity
  8
0
100
AcDbLine
 10
274.3673393700239
 20
286.065105280001
 30
0.0
 11
317.4457669735549
 21
286.4874428055252
 31
0.0
  0
ARC
  5
CC7
330
2
100
AcDbEntity
  8
0
100
AcDbCircle
 10
317.3673393700239
 20
294.4870583657255
 30
0.0
 40
8.0
100
AcDbArc
 50
270.5617053325576
 51
294.8391048618038
  0
LINE
  5
CC8
330
2
100
AcDbEntity
  8
0
100
AcDbLine
 10
274.3673393700239
 20
389.0651052800001
 30
0.0
 11
231.2889117664924
 21
388.642767754475
 31
0.0
  0
ARC
  5
CC9
330
2
100
AcDbEntity
  8
0
100
AcDbCircle
 10
231.3673393700239
 20
380.6431521942748
 30
0.0
 40
8.0
100
AcDbArc
 50
90.5617053325577
 51
180.0
  0
LINE
  5
CCA
330
2
100
AcDbEntity
  8
0
100
AcDbLine
 10
274.3673393700239
 20
389.0651052800001
 30
0.0
 11
317.4457669735549
 21
388.6427677544759
 31
0.0
  0
ARC
  5
CCB
330
2
100
AcDbEntity
  8
0
100
AcDbCircle
 10
-33.54371809983854
 20
337.5651052800109
 30
0.0
 40
200.0
100
AcDbArc
 50
354.1053016136052
 51
5.894698386394709
  0
LINE
  5
CCC
330
2
100
AcDbEntity
  8
0
 48
0.5
100
AcDbLine
 10
64.97628190015825
 20
294.5651052800117
 30
0.0
 11
64.97628190016508
 21
380.5651052800115
 31
0.0
  0
ARC
  5
CCD
330
2
100
AcDbEntity
  8
0
100
AcDbCircle
 10
142.1584108304871
 20
447.1903096019953
 30
0.0
 40
60.0
100
AcDbArc
 50
264.1053016135962
 51
281.8050678104682
  0
ARC
  5
CCE
330
2
100
AcDbEntity
  8
0
 48
0.5
100
AcDbCircle
 10
158.4562819001614
 20
380.5651052800111
 30
0.0
 40
8.0
100
AcDbArc
 50
0.0
 51
90.0
  0
LINE
  5
CCF
330
2
100
AcDbEntity
  8
CENTER
 48
12.0
100
AcDbLine
 10
158.4562819001646
 20
389.3151052800112
 30
0.0
 11
158.4562819001646
 21
371.8151052800112
 31
0.0
  0
LINE
  5
CD0
330
2
100
AcDbEntity
  8
0
 48
0.5
100
AcDbLine
 10
158.4562819001614
 20
388.5651052800111
 30
0.0
 11
155.4562819001614
 21
388.5651052800109
 31
0.0
  0
ARC
  5
CD1
330
2
100
AcDbEntity
  8
0
100
AcDbCircle
 10
155.4562819001614
 20
383.5651052800105
 30
0.0
 40
5.0
100
AcDbArc
 50
90.0
 51
101.8050678104681
  0
LINE
  5
CD2
330
2
100
AcDbEntity
  8
CENTER
 48
12.0
100
AcDbLine
 10
167.2062819001646
 20
380.5651052800111
 30
0.0
 11
149.7062819001646
 21
380.5651052800111
 31
0.0
  0
ARC
  5
CD3
330
2
100
AcDbEntity
  8
0
100
AcDbCircle
 10
225.0814862221461
 20
364.2672342103356
 30
0.0
 40
60.0
100
AcDbArc
 50
168.1949321895351
 51
185.8946983863947
  0
LINE
  5
CD4
330
2
100
AcDbEntity
  8
0
 48
0.5
100
AcDbLine
 10
166.4562819001614
 20
377.5651052800085
 30
0.0
 11
166.4562819001614
 21
380.5651052800109
 31
0.0
  0
ARC
  5
CD5
330
2
100
AcDbEntity
  8
0
100
AcDbCircle
 10
161.4562819001614
 20
377.5651052800109
 30
0.0
 40
5.0
100
AcDbArc
 50
348.194932189535
 51
0.0
  0
ARC
  5
CD6
330
2
100
AcDbEntity
  8
0
 48
0.5
100
AcDbCircle
 10
72.97628190016462
 20
380.5651052800108
 30
0.0
 40
8.0
100
AcDbArc
 50
90.0
 51
179.9999999999934
  0
ARC
  5
CD7
330
2
100
AcDbEntity
  8
0
100
AcDbCircle
 10
88.75415296983669
 20
447.1903096019956
 30
0.0
 40
60.0
100
AcDbArc
 50
258.1949321895318
 51
275.8946983864037
  0
ARC
  5
CD8
330
2
100
AcDbEntity
  8
0
100
AcDbCircle
 10
115.4562819001614
 20
188.565105280011
 30
0.0
 40
200.0
100
AcDbArc
 50
84.10530161359627
 51
95.89469838640374
  0
LINE
  5
CD9
330
2
100
AcDbEntity
  8
0
 48
0.5
100
AcDbLine
 10
75.45628190016145
 20
388.5651052800108
 30
0.0
 11
72.97628190016462
 21
388.5651052800108
 31
0.0
  0
ARC
  5
CDA
330
2
100
AcDbEntity
  8
0
100
AcDbCircle
 10
75.45628190016145
 20
383.565105280011
 30
0.0
 40
5.0
100
AcDbArc
 50
78.19493218953183
 51
90.0
  0
LINE
  5
CDB
330
2
100
AcDbEntity
  8
CENTER
 48
12.0
100
AcDbLine
 10
64.78307681940782
 20
372.0651052800111
 30
0.0
 11
75.12948698092191
 21
372.0651052800111
 31
0.0
  0
LINE
  5
CDC
330
2
100
AcDbEntity
  8
CENTER
 48
12.0
100
AcDbLine
 10
63.70628190016145
 20
380.5651052800143
 30
0.0
 11
81.20628190016146
 21
380.5651052800143
 31
0.0
  0
CIRCLE
  5
CDD
330
2
100
AcDbEntity
  8
0
100
AcDbCircle
 10
69.9562819001651
 20
372.0651052800113
 30
0.0
 40
1.6
  0
CIRCLE
  5
CDE
330
2
100
AcDbEntity
  8
HOJO
100
AcDbCircle
 10
69.9562819001651
 20
372.0651052800113
 30
0.0
 40
2.0
  0
LINE
  5
CDF
330
2
100
AcDbEntity
  8
CENTER
 48
12.0
100
AcDbLine
 10
69.95628190016464
 20
377.2383103607682
 30
0.0
 11
69.95628190016464
 21
366.8919001992541
 31
0.0
  0
ARC
  5
CE0
330
2
100
AcDbEntity
  8
0
100
AcDbCircle
 10
142.1584108304862
 20
227.9399009580265
 30
0.0
 40
60.0
100
AcDbArc
 50
78.19493218953183
 51
95.89469838640374
  0
ARC
  5
CE1
330
2
100
AcDbEntity
  8
0
 48
0.5
100
AcDbCircle
 10
158.4562819001614
 20
294.5651052800111
 30
0.0
 40
8.0
100
AcDbArc
 50
270.0
 51
0.0
  0
LINE
  5
CE2
330
2
100
AcDbEntity
  8
CENTER
 48
12.0
100
AcDbLine
 10
158.4562819001614
 20
285.8151052800078
 30
0.0
 11
158.4562819001614
 21
303.3151052800078
 31
0.0
  0
LINE
  5
CE3
330
2
100
AcDbEntity
  8
CENTER
 48
12.0
100
AcDbLine
 10
167.2062819001614
 20
294.5651052800077
 30
0.0
 11
149.7062819001614
 21
294.5651052800077
 31
0.0
  0
LINE
  5
CE4
330
2
100
AcDbEntity
  8
CENTER
 48
12.0
100
AcDbLine
 10
166.1294869809128
 20
303.0651052800108
 30
0.0
 11
155.7830768193987
 21
303.0651052800108
 31
0.0
  0
CIRCLE
  5
CE5
330
2
100
AcDbEntity
  8
HOJO
100
AcDbCircle
 10
160.9562819001555
 20
303.0651052800108
 30
0.0
 40
2.0
  0
LINE
  5
CE6
330
2
100
AcDbEntity
  8
CENTER
 48
12.0
100
AcDbLine
 10
160.956281900156
 20
297.8919001992538
 30
0.0
 11
160.956281900156
 21
308.2383103607678
 31
0.0
  0
ARC
  5
CE7
330
2
100
AcDbEntity
  8
0
100
AcDbCircle
 10
225.0814862221456
 20
310.8629763496855
 30
0.0
 40
60.0
100
AcDbArc
 50
174.1053016136052
 51
191.8050678104647
  0
LINE
  5
CE8
330
2
100
AcDbEntity
  8
0
 48
0.5
100
AcDbLine
 10
166.4562819001614
 20
294.5651052800111
 30
0.0
 11
166.4562819001614
 21
297.5651052800086
 31
0.0
  0
ARC
  5
CE9
330
2
100
AcDbEntity
  8
0
100
AcDbCircle
 10
161.456281900161
 20
297.5651052800109
 30
0.0
 40
5.0
100
AcDbArc
 50
0.0
 51
11.80506781046483
  0
CIRCLE
  5
CEA
330
2
100
AcDbEntity
  8
0
100
AcDbCircle
 10
160.9562819001555
 20
303.0651052800108
 30
0.0
 40
1.6
  0
LINE
  5
CEB
330
2
100
AcDbEntity
  8
0
 48
0.5
100
AcDbLine
 10
158.4562819001614
 20
286.5651052800111
 30
0.0
 11
155.4562819001614
 21
286.5651052800111
 31
0.0
  0
ARC
  5
CEC
330
2
100
AcDbEntity
  8
0
100
AcDbCircle
 10
155.4562819001614
 20
291.5651052800111
 30
0.0
 40
5.0
100
AcDbArc
 50
258.1949321895318
 51
270.0
  0
ARC
  5
CED
330
2
100
AcDbEntity
  8
0
100
AcDbCircle
 10
88.75415296983623
 20
227.9399009580267
 30
0.0
 40
60.0
100
AcDbArc
 50
84.10530161359627
 51
101.8050678104681
  0
ARC
  5
CEE
330
2
100
AcDbEntity
  8
0
100
AcDbCircle
 10
115.4562819001614
 20
486.565105280011
 30
0.0
 40
200.0
100
AcDbArc
 50
264.1053016135962
 51
275.8946983864037
  0
ARC
  5
CEF
330
2
100
AcDbEntity
  8
0
100
AcDbCircle
 10
72.97628190015825
 20
294.5651052800112
 30
0.0
 40
8.0
100
AcDbArc
 50
179.9999999999934
 51
270.0
  0
LINE
  5
CF0
330
2
100
AcDbEntity
  8
CENTER
 48
12.0
100
AcDbLine
 10
63.70628190015827
 20
294.5651052800108
 30
0.0
 11
81.20628190015827
 21
294.5651052800108
 31
0.0
  0
ARC
  5
CF1
330
2
100
AcDbEntity
  8
0
100
AcDbCircle
 10
75.45628190016145
 20
291.5651052800115
 30
0.0
 40
5.0
100
AcDbArc
 50
270.0
 51
281.8050678104682
  0
LINE
  5
CF2
330
2
100
AcDbEntity
  8
0
100
AcDbLine
 10
72.97628190015917
 20
286.5651052800112
 30
0.0
 11
75.45628190016145
 21
286.5651052800115
 31
0.0
  0
ARC
  5
CF3
330
2
100
AcDbEntity
  8
0
100
AcDbCircle
 10
90.64509871811265
 20
301.565105280017
 30
0.0
 40
10.5
100
AcDbArc
 50
224.9999999999926
 51
270.0
  0
LINE
  5
CF4
330
2
100
AcDbEntity
  8
0
100
AcDbLine
 10
87.10956481217976
 20
298.0295713740843
 30
0.0
 11
75.92074799423449
 21
309.2183881920292
 31
0.0
  0
CIRCLE
  5
CF5
330
2
100
AcDbEntity
  8
0
100
AcDbCircle
 10
115.4562819001614
 20
337.565105280011
 30
0.0
 40
33.00000000000153
  0
CIRCLE
  5
CF6
330
2
100
AcDbEntity
  8
0
100
AcDbCircle
 10
115.4562819001614
 20
337.565105280011
 30
0.0
 40
35.00000000000153
  0
CIRCLE
  5
CF7
330
2
100
AcDbEntity
  8
0
100
AcDbCircle
 10
115.4562819001614
 20
337.565105280011
 30
0.0
 40
35.50000000000153
  0
CIRCLE
  5
CF8
330
2
100
AcDbEntity
  8
0
100
AcDbCircle
 10
115.4562819001614
 20
337.565105280011
 30
0.0
 40
32.42260000000154
  0
CIRCLE
  5
CF9
330
2
100
AcDbEntity
  8
0
100
AcDbCircle
 10
115.4562819001614
 20
337.565105280011
 30
0.0
 40
26.0
  0
CIRCLE
  5
CFA
330
2
100
AcDbEntity
  8
0
100
AcDbCircle
 10
115.4562819001614
 20
337.565105280011
 30
0.0
 40
26.57735026918937
  0
LINE
  5
CFB
330
2
100
AcDbEntity
  8
0
100
AcDbLine
 10
90.64509871811219
 20
296.565105280017
 30
0.0
 11
140.2674650822102
 21
296.5651052800168
 31
0.0
  0
LINE
  5
CFC
330
2
100
AcDbEntity
  8
0
100
AcDbLine
 10
90.64509871811265
 20
291.065105280017
 30
0.0
 11
140.2674650822102
 21
291.0651052800168
 31
0.0
  0
LINE
  5
CFD
330
2
100
AcDbEntity
  8
0
100
AcDbLine
 10
86.62692267827901
 20
291.8643701886484
 30
0.0
 11
88.73168155628695
 21
296.9457076174604
 31
0.0
  0
ARC
  5
CFE
330
2
100
AcDbEntity
  8
0
100
AcDbCircle
 10
90.64509871811219
 20
301.565105280017
 30
0.0
 40
5.0
100
AcDbArc
 50
224.9999999999926
 51
270.0
  0
LINE
  5
CFF
330
2
100
AcDbEntity
  8
0
100
AcDbLine
 10
154.9918158060884
 20
309.2183881920291
 30
0.0
 11
143.8029989881431
 21
298.0295713740841
 31
0.0
  0
LINE
  5
D00
330
2
100
AcDbEntity
  8
0
100
AcDbLine
 10
158.8809031026141
 20
305.3293008955031
 30
0.0
 11
147.6920862846693
 21
294.1404840775581
 31
0.0
  0
LINE
  5
D01
330
2
100
AcDbEntity
  8
0
100
AcDbLine
 10
144.2856411220438
 20
291.8643701886484
 30
0.0
 11
142.1808822440359
 21
296.9457076174604
 31
0.0
  0
ARC
  5
D02
330
2
100
AcDbEntity
  8
0
100
AcDbCircle
 10
140.2674650822102
 20
301.5651052800169
 30
0.0
 40
10.5
100
AcDbArc
 50
270.0
 51
315.0000000000074
  0
ARC
  5
D03
330
2
100
AcDbEntity
  8
0
100
AcDbCircle
 10
140.2674650822102
 20
301.5651052800169
 30
0.0
 40
5.0
100
AcDbArc
 50
270.0
 51
315.0000000000074
  0
LINE
  5
D04
330
2
100
AcDbEntity
  8
0
100
AcDbLine
 10
156.4562819001555
 20
312.7539220979619
 30
0.0
 11
156.4562819001555
 21
362.3762884620603
 31
0.0
  0
LINE
  5
D05
330
2
100
AcDbEntity
  8
0
100
AcDbLine
 10
161.9562819001555
 20
312.7539220979619
 30
0.0
 11
161.9562819001555
 21
362.3762884620601
 31
0.0
  0
LINE
  5
D06
330
2
100
AcDbEntity
  8
0
100
AcDbLine
 10
161.1570169915241
 20
308.7357460581286
 30
0.0
 11
156.0756795627123
 21
310.8405049361365
 31
0.0
  0
ARC
  5
D07
330
2
100
AcDbEntity
  8
0
100
AcDbCircle
 10
151.4562819001555
 20
312.7539220979619
 30
0.0
 40
10.5
100
AcDbArc
 50
315.0000000000074
 51
0.0
  0
ARC
  5
D08
330
2
100
AcDbEntity
  8
0
100
AcDbCircle
 10
151.4562819001555
 20
312.7539220979619
 30
0.0
 40
5.0
100
AcDbArc
 50
315.0000000000074
 51
0.0
  0
LINE
  5
D09
330
2
100
AcDbEntity
  8
0
100
AcDbLine
 10
143.8029989881435
 20
377.1006391859379
 30
0.0
 11
154.9918158060884
 21
365.911822367993
 31
0.0
  0
LINE
  5
D0A
330
2
100
AcDbEntity
  8
0
100
AcDbLine
 10
161.1570169915241
 20
366.3944645018934
 30
0.0
 11
156.0756795627123
 21
364.2897056238855
 31
0.0
  0
ARC
  5
D0B
330
2
100
AcDbEntity
  8
0
100
AcDbCircle
 10
151.4562819001555
 20
362.3762884620601
 30
0.0
 40
10.5
100
AcDbArc
 50
0.0
 51
44.99999999999262
  0
ARC
  5
D0C
330
2
100
AcDbEntity
  8
0
100
AcDbCircle
 10
151.4562819001555
 20
362.3762884620603
 30
0.0
 40
5.0
100
AcDbArc
 50
0.0
 51
44.99999999999262
  0
LINE
  5
D0D
330
2
100
AcDbEntity
  8
0
100
AcDbLine
 10
147.6920862846693
 20
380.9897264824638
 30
0.0
 11
158.8809031026141
 21
369.8009096645189
 31
0.0
  0
LINE
  5
D0E
330
2
100
AcDbEntity
  8
0
100
AcDbLine
 10
140.2674650822107
 20
378.5651052800051
 30
0.0
 11
90.64509871811265
 21
378.565105280005
 31
0.0
  0
LINE
  5
D0F
330
2
100
AcDbEntity
  8
0
100
AcDbLine
 10
140.2674650822107
 20
384.0651052800052
 30
0.0
 11
90.64509871811219
 21
384.065105280005
 31
0.0
  0
LINE
  5
D10
330
2
100
AcDbEntity
  8
0
100
AcDbLine
 10
144.2856411220438
 20
383.2658403713738
 30
0.0
 11
142.1808822440359
 21
378.1845029425617
 31
0.0
  0
ARC
  5
D11
330
2
100
AcDbEntity
  8
0
100
AcDbCircle
 10
140.2674650822107
 20
373.5651052800051
 30
0.0
 40
10.5
100
AcDbArc
 50
44.99999999999262
 51
90.0
  0
ARC
  5
D12
330
2
100
AcDbEntity
  8
0
100
AcDbCircle
 10
140.2674650822107
 20
373.5651052800051
 30
0.0
 40
5.0
100
AcDbArc
 50
44.99999999999262
 51
90.0
  0
ARC
  5
D13
330
2
100
AcDbEntity
  8
0
100
AcDbCircle
 10
90.64509871811219
 20
373.565105280005
 30
0.0
 40
10.5
100
AcDbArc
 50
90.0
 51
135.0000000000074
  0
LINE
  5
D14
330
2
100
AcDbEntity
  8
0
100
AcDbLine
 10
75.92074799423494
 20
365.9118223679929
 30
0.0
 11
87.10956481217976
 21
377.1006391859378
 31
0.0
  0
LINE
  5
D15
330
2
100
AcDbEntity
  8
0
100
AcDbLine
 10
86.62692267827901
 20
383.2658403713738
 30
0.0
 11
88.73168155628695
 21
378.1845029425618
 31
0.0
  0
ARC
  5
D16
330
2
100
AcDbEntity
  8
0
100
AcDbCircle
 10
90.64509871811265
 20
373.565105280005
 30
0.0
 40
5.0
100
AcDbArc
 50
90.0
 51
135.0000000000074
  0
LINE
  5
D17
330
2
100
AcDbEntity
  8
0
100
AcDbLine
 10
72.03166069770873
 20
369.8009096645191
 30
0.0
 11
83.22047751565355
 21
380.9897264824638
 31
0.0
  0
LINE
  5
D18
330
2
100
AcDbEntity
  8
0
100
AcDbLine
 10
74.45628190016737
 20
362.3762884620601
 30
0.0
 11
74.45628190016737
 21
312.753922097962
 31
0.0
  0
LINE
  5
D19
330
2
100
AcDbEntity
  8
0
100
AcDbLine
 10
68.95628190016736
 20
362.3762884620603
 30
0.0
 11
68.95628190016736
 21
312.7539220979619
 31
0.0
  0
ARC
  5
D1A
330
2
100
AcDbEntity
  8
0
100
AcDbCircle
 10
79.45628190016737
 20
362.3762884620603
 30
0.0
 40
10.5
100
AcDbArc
 50
135.0000000000074
 51
180.0
  0
LINE
  5
D1B
330
2
100
AcDbEntity
  8
0
100
AcDbLine
 10
69.75554680879873
 20
366.3944645018935
 30
0.0
 11
74.836884237611
 21
364.2897056238855
 31
0.0
  0
ARC
  5
D1C
330
2
100
AcDbEntity
  8
0
100
AcDbCircle
 10
79.45628190016737
 20
362.3762884620601
 30
0.0
 40
5.0
100
AcDbArc
 50
135.0000000000074
 51
180.0
  0
LINE
  5
D1D
330
2
100
AcDbEntity
  8
0
100
AcDbLine
 10
83.22047751565355
 20
294.1404840775583
 30
0.0
 11
72.03166069770873
 21
305.3293008955031
 31
0.0
  0
ARC
  5
D1E
330
2
100
AcDbEntity
  8
0
100
AcDbCircle
 10
79.45628190016737
 20
312.7539220979619
 30
0.0
 40
10.5
100
AcDbArc
 50
180.0
 51
224.9999999999926
  0
LINE
  5
D1F
330
2
100
AcDbEntity
  8
0
100
AcDbLine
 10
69.75554680879873
 20
308.7357460581287
 30
0.0
 11
74.836884237611
 21
310.8405049361366
 31
0.0
  0
ARC
  5
D20
330
2
100
AcDbEntity
  8
0
100
AcDbCircle
 10
79.45628190016737
 20
312.753922097962
 30
0.0
 40
5.0
100
AcDbArc
 50
180.0
 51
224.9999999999926
  0
LINE
  5
D21
330
2
100
AcDbEntity
  8
CENTER
 48
12.0
100
AcDbLine
 10
72.45628190016145
 20
285.8151052800078
 30
0.0
 11
72.45628190016145
 21
303.3151052800078
 31
0.0
  0
LINE
  5
D22
330
2
100
AcDbEntity
  8
CENTER
 48
12.0
100
AcDbLine
 10
72.45628190016145
 20
389.315105280014
 30
0.0
 11
72.45628190016145
 21
371.815105280014
 31
0.0
  0
LINE
  5
D23
330
2
100
AcDbEntity
  8
0
100
AcDbLine
 10
223.3673393700039
 20
369.9877550108098
 30
0.0
 11
223.367339370013
 21
337.5651052800107
 31
0.0
  0
LINE
  5
D24
330
2
100
AcDbEntity
  8
0
 48
0.5
100
AcDbLine
 10
228.0673393700269
 20
370.5651052800117
 30
0.0
 11
231.3673393700271
 21
370.5651052800108
 31
0.0
  0
LINE
  5
D25
330
2
100
AcDbEntity
  8
HIDS
  6
SEKKEI_H
 48
0.5
100
AcDbLine
 10
236.78155293239
 20
383.4793188423736
 30
0.0
 11
232.4531258076569
 21
379.1508917176449
 31
0.0
  0
LINE
  5
D26
330
2
100
AcDbEntity
  8
0
100
AcDbLine
 10
231.3673393700221
 20
370.5651052800108
 30
0.0
 11
231.3673393700225
 21
372.5651052800054
 31
0.0
  0
LINE
  5
D27
330
2
100
AcDbEntity
  8
0
100
AcDbLine
 10
231.3673393700276
 20
372.5651052800106
 30
0.0
 11
231.867339370028
 21
373.0651052800104
 31
0.0
  0
LINE
  5
D28
330
2
100
AcDbEntity
  8
0
100
AcDbLine
 10
231.3673393700276
 20
372.5651052800106
 30
0.0
 11
231.3673393700271
 21
370.5651052800108
 31
0.0
  0
LINE
  5
D29
330
2
100
AcDbEntity
  8
0
100
AcDbLine
 10
239.3498862990211
 20
388.5169551965167
 30
0.0
 11
244.8673393700175
 21
388.565105280009
 31
0.0
  0
ARC
  5
D2A
330
2
100
AcDbEntity
  8
0
100
AcDbCircle
 10
239.3673393700175
 20
386.5170313503883
 30
0.0
 40
2.0
100
AcDbArc
 50
90.49999999999155
 51
180.0
  0
LINE
  5
D2B
330
2
100
AcDbEntity
  8
0
 48
0.5
100
AcDbLine
 10
226.0673393700269
 20
369.8651052800122
 30
0.0
 11
227.6673393700268
 21
369.8651052800117
 31
0.0
  0
LINE
  5
D2C
330
2
100
AcDbEntity
  8
0
 48
0.5
100
AcDbLine
 10
227.8673393700271
 20
370.3651052800115
 30
0.0
 11
228.0673393700269
 21
370.5651052800117
 31
0.0
  0
LINE
  5
D2D
330
2
100
AcDbEntity
  8
0
100
AcDbLine
 10
225.8673393700271
 20
370.3651052800121
 30
0.0
 11
225.8673393700275
 21
304.7651052800093
 31
0.0
  0
LINE
  5
D2E
330
2
100
AcDbEntity
  8
0
100
AcDbLine
 10
224.3673393700271
 20
370.5651052800126
 30
0.0
 11
223.3673393700267
 21
369.9877550108231
 31
0.0
  0
LINE
  5
D2F
330
2
100
AcDbEntity
  8
0
 48
0.5
100
AcDbLine
 10
224.3673393700271
 20
370.5651052800126
 30
0.0
 11
225.6673393700273
 21
370.5651052800121
 31
0.0
  0
ARC
  5
D30
330
2
100
AcDbEntity
  8
HIDS
  6
SEKKEI_H
 48
0.3
100
AcDbCircle
 10
235.3673393700176
 20
384.8935324047474
 30
0.0
 40
2.0
100
AcDbArc
 50
314.9999999999728
 51
0.0
  0
ARC
  5
D31
330
2
100
AcDbEntity
  8
HIDS
  6
SEKKEI_H
 48
0.5
100
AcDbCircle
 10
233.8673393700294
 20
377.7366781552711
 30
0.0
 40
2.0
100
AcDbArc
 50
134.9999999999728
 51
179.9999999999804
  0
ARC
  5
D32
330
2
100
AcDbEntity
  8
0
100
AcDbCircle
 10
225.6673393700268
 20
370.3651052800121
 30
0.0
 40
0.2
100
AcDbArc
 50
0.0
 51
89.99999999997395
  0
ARC
  5
D33
330
2
100
AcDbEntity
  8
0
 48
0.5
100
AcDbCircle
 10
226.0673393700269
 20
370.0651052800122
 30
0.0
 40
0.2
100
AcDbArc
 50
180.0
 51
269.9999999999739
  0
ARC
  5
D34
330
2
100
AcDbEntity
  8
0
100
AcDbCircle
 10
227.6673393700273
 20
370.0651052800117
 30
0.0
 40
0.2
100
AcDbArc
 50
269.9999999999739
 51
0.0
  0
LINE
  5
D35
330
2
100
AcDbEntity
  8
0
100
AcDbLine
 10
223.3673393700044
 20
305.1424555492116
 30
0.0
 11
223.367339370013
 21
337.5651052800107
 31
0.0
  0
LINE
  5
D36
330
2
100
AcDbEntity
  8
0
 48
0.5
100
AcDbLine
 10
228.0673393700274
 20
304.5651052800097
 30
0.0
 11
231.3673393700276
 21
304.5651052800107
 31
0.0
  0
LINE
  5
D37
330
2
100
AcDbEntity
  8
HIDS
  6
SEKKEI_H
 48
0.5
100
AcDbLine
 10
236.7815529323909
 20
291.6508917176481
 30
0.0
 11
232.4531258076579
 21
295.9793188423767
 31
0.0
  0
LINE
  5
D38
330
2
100
AcDbEntity
  8
0
100
AcDbLine
 10
231.8673393700303
 20
299.5651052800109
 30
0.0
 11
231.8673393700294
 21
375.5651052800109
 31
0.0
  0
LINE
  5
D39
330
2
100
AcDbEntity
  8
0
100
AcDbLine
 10
231.3673393700225
 20
304.5651052800107
 30
0.0
 11
231.367339370023
 21
302.5651052800162
 31
0.0
  0
LINE
  5
D3A
330
2
100
AcDbEntity
  8
0
100
AcDbLine
 10
231.3673393700284
 20
302.5651052800109
 30
0.0
 11
231.8673393700285
 21
302.0651052800112
 31
0.0
  0
LINE
  5
D3B
330
2
100
AcDbEntity
  8
0
100
AcDbLine
 10
231.3673393700284
 20
302.5651052800109
 30
0.0
 11
231.3673393700276
 21
304.5651052800107
 31
0.0
  0
LINE
  5
D3C
330
2
100
AcDbEntity
  8
0
100
AcDbLine
 10
239.349886299022
 20
286.6132553635034
 30
0.0
 11
244.8673393700185
 21
286.5651052800113
 31
0.0
  0
ARC
  5
D3D
330
2
100
AcDbEntity
  8
0
100
AcDbCircle
 10
239.3673393700185
 20
288.6131792096318
 30
0.0
 40
2.0
100
AcDbArc
 50
180.0
 51
269.5000000000084
  0
LINE
  5
D3E
330
2
100
AcDbEntity
  8
0
100
AcDbLine
 10
244.8673393700189
 20
286.5651052800112
 30
0.0
 11
244.8673393700175
 21
388.5651052800099
 31
0.0
  0
LINE
  5
D3F
330
2
100
AcDbEntity
  8
0
 48
0.3
100
AcDbLine
 10
237.3673393700185
 20
288.6131792096318
 30
0.0
 11
237.3673393700176
 21
386.5170313503883
 31
0.0
  0
LINE
  5
D40
330
2
100
AcDbEntity
  8
0
 48
0.5
100
AcDbLine
 10
226.0673393700274
 20
305.2651052800093
 30
0.0
 11
227.6673393700277
 21
305.2651052800097
 31
0.0
  0
LINE
  5
D41
330
2
100
AcDbEntity
  8
0
100
AcDbLine
 10
227.8673393700275
 20
304.76510528001
 30
0.0
 11
227.8673393700271
 21
370.3651052800115
 31
0.0
  0
LINE
  5
D42
330
2
100
AcDbEntity
  8
0
 48
0.5
100
AcDbLine
 10
227.8673393700275
 20
304.76510528001
 30
0.0
 11
228.0673393700274
 21
304.5651052800097
 31
0.0
  0
LINE
  5
D43
330
2
100
AcDbEntity
  8
0
100
AcDbLine
 10
224.3673393700276
 20
304.5651052800088
 30
0.0
 11
223.3673393700275
 21
305.1424555491983
 31
0.0
  0
LINE
  5
D44
330
2
100
AcDbEntity
  8
0
 48
0.5
100
AcDbLine
 10
224.3673393700276
 20
304.5651052800088
 30
0.0
 11
225.6673393700277
 21
304.5651052800093
 31
0.0
  0
ARC
  5
D45
330
2
100
AcDbEntity
  8
HIDS
  6
SEKKEI_H
 48
0.3
100
AcDbCircle
 10
235.3673393700185
 20
290.2366781552743
 30
0.0
 40
2.0
100
AcDbArc
 50
0.0
 51
45.00000000002716
  0
ARC
  5
D46
330
2
100
AcDbEntity
  8
HIDS
  6
SEKKEI_H
 48
0.5
100
AcDbCircle
 10
233.8673393700303
 20
297.3935324047506
 30
0.0
 40
2.0
100
AcDbArc
 50
180.0000000000195
 51
225.0000000000271
  0
ARC
  5
D47
330
2
100
AcDbEntity
  8
0
100
AcDbCircle
 10
225.6673393700277
 20
304.7651052800093
 30
0.0
 40
0.2
100
AcDbArc
 50
270.000000000026
 51
0.0
  0
ARC
  5
D48
330
2
100
AcDbEntity
  8
0
 48
0.5
100
AcDbCircle
 10
226.0673393700274
 20
305.0651052800093
 30
0.0
 40
0.2
100
AcDbArc
 50
90.00000000002605
 51
180.0
  0
ARC
  5
D49
330
2
100
AcDbEntity
  8
0
100
AcDbCircle
 10
227.6673393700277
 20
305.0651052800097
 30
0.0
 40
0.2
100
AcDbArc
 50
0.0
 51
90.00000000002605
  0
LINE
  5
D4A
330
2
100
AcDbEntity
  8
0
 48
12.0
100
AcDbLine
 10
224.3673393700271
 20
370.5651052800126
 30
0.0
 11
224.3673393700276
 21
304.5651052800088
 31
0.0
  0
LINE
  5
D4B
330
2
100
AcDbEntity
  8
0
 48
12.0
100
AcDbLine
 10
228.0673393700269
 20
370.5651052800117
 30
0.0
 11
228.0673393700274
 21
304.5651052800097
 31
0.0
  0
LINE
  5
D4C
330
2
100
AcDbEntity
  8
0
 48
12.0
100
AcDbLine
 10
231.3673393700271
 20
370.5651052800108
 30
0.0
 11
231.3673393700276
 21
304.5651052800107
 31
0.0
  0
LINE
  5
D4D
330
2
100
AcDbEntity
  8
0
100
AcDbLine
 10
578.4435860779706
 20
695.9689384596256
 30
0.0
 11
546.0209363471715
 21
695.9689384596158
 31
0.0
  0
LINE
  5
D4E
330
2
100
AcDbEntity
  8
0
 48
0.5
100
AcDbLine
 10
579.0209363471729
 20
691.2689384596023
 30
0.0
 11
579.020936347172
 21
687.9689384596024
 31
0.0
  0
LINE
  5
D4F
330
2
100
AcDbEntity
  8
HIDS
  6
SEKKEI_H
 48
0.5
100
AcDbLine
 10
591.9351499095344
 20
682.5547248972393
 30
0.0
 11
587.6067227848059
 21
686.8831520219726
 31
0.0
  0
LINE
  5
D50
330
2
100
AcDbEntity
  8
0
100
AcDbLine
 10
579.020936347172
 20
687.9689384596074
 30
0.0
 11
581.0209363471665
 21
687.9689384596069
 31
0.0
  0
LINE
  5
D51
330
2
100
AcDbEntity
  8
0
100
AcDbLine
 10
581.0209363471715
 20
687.9689384596018
 30
0.0
 11
581.520936347171
 21
687.4689384596015
 31
0.0
  0
LINE
  5
D52
330
2
100
AcDbEntity
  8
0
100
AcDbLine
 10
581.0209363471715
 20
687.9689384596018
 30
0.0
 11
579.020936347172
 21
687.9689384596024
 31
0.0
  0
LINE
  5
D53
330
2
100
AcDbEntity
  8
0
 48
0.5
100
AcDbLine
 10
578.3209363471731
 20
693.2689384596024
 30
0.0
 11
578.3209363471725
 21
691.6689384596025
 31
0.0
  0
LINE
  5
D54
330
2
100
AcDbEntity
  8
0
 48
0.5
100
AcDbLine
 10
578.8209363471721
 20
691.4689384596024
 30
0.0
 11
579.0209363471729
 21
691.2689384596023
 31
0.0
  0
LINE
  5
D55
330
2
100
AcDbEntity
  8
0
100
AcDbLine
 10
578.8209363471731
 20
693.4689384596024
 30
0.0
 11
513.22093634717
 21
693.468938459601
 31
0.0
  0
LINE
  5
D56
330
2
100
AcDbEntity
  8
0
100
AcDbLine
 10
579.0209363471733
 20
694.9689384596024
 30
0.0
 11
578.4435860779837
 21
695.9689384596027
 31
0.0
  0
LINE
  5
D57
330
2
100
AcDbEntity
  8
0
 48
0.5
100
AcDbLine
 10
579.0209363471733
 20
694.9689384596024
 30
0.0
 11
579.0209363471729
 21
693.6689384596022
 31
0.0
  0
LINE
  5
D58
330
2
100
AcDbEntity
  8
0
 48
12.0
100
AcDbLine
 10
596.4527862086968
 20
679.9863915306087
 30
0.0
 11
596.5009364021523
 21
674.4689258590776
 31
0.0
  0
ARC
  5
D59
330
2
100
AcDbEntity
  8
HIDS
  6
SEKKEI_H
 48
0.3
100
AcDbCircle
 10
593.3493634719082
 20
683.9689384596117
 30
0.0
 40
2.0
100
AcDbArc
 50
224.9999999999855
 51
270.0
  0
ARC
  5
D5A
330
2
100
AcDbEntity
  8
HIDS
  6
SEKKEI_H
 48
0.5
100
AcDbCircle
 10
586.1925092224317
 20
685.4689384596001
 30
0.0
 40
2.0
100
AcDbArc
 50
44.99999999998551
 51
89.99999999997395
  0
ARC
  5
D5B
330
2
100
AcDbEntity
  8
0
100
AcDbCircle
 10
578.8209363471731
 20
693.6689384596024
 30
0.0
 40
0.2
100
AcDbArc
 50
270.0
 51
359.9999999999739
  0
ARC
  5
D5C
330
2
100
AcDbEntity
  8
0
 48
0.5
100
AcDbCircle
 10
578.5209363471729
 20
693.2689384596024
 30
0.0
 40
0.2
100
AcDbArc
 50
90.0
 51
179.9999999999804
  0
ARC
  5
D5D
330
2
100
AcDbEntity
  8
0
100
AcDbCircle
 10
578.5209363471729
 20
691.6689384596022
 30
0.0
 40
0.2
100
AcDbArc
 50
179.9999999999804
 51
270.0
  0
LINE
  5
D5E
330
2
100
AcDbEntity
  8
0
100
AcDbLine
 10
513.5982866163724
 20
695.9689384596242
 30
0.0
 11
546.0209363471715
 21
695.9689384596158
 31
0.0
  0
LINE
  5
D5F
330
2
100
AcDbEntity
  8
0
 48
0.5
100
AcDbLine
 10
513.0209363471705
 20
691.268938459601
 30
0.0
 11
513.0209363471715
 21
687.968938459601
 31
0.0
  0
LINE
  5
D60
330
2
100
AcDbEntity
  8
HIDS
  6
SEKKEI_H
 48
0.5
100
AcDbLine
 10
500.1067227848091
 20
682.5547248972377
 30
0.0
 11
504.4351499095376
 21
686.8831520219707
 31
0.0
  0
LINE
  5
D61
330
2
100
AcDbEntity
  8
0
100
AcDbLine
 10
508.020936347172
 20
687.4689384595986
 30
0.0
 11
584.020936347172
 21
687.4689384595999
 31
0.0
  0
LINE
  5
D62
330
2
100
AcDbEntity
  8
0
100
AcDbLine
 10
513.0209363471715
 20
687.968938459606
 30
0.0
 11
511.020936347177
 21
687.9689384596056
 31
0.0
  0
LINE
  5
D63
330
2
100
AcDbEntity
  8
0
100
AcDbLine
 10
511.0209363471719
 20
687.9689384596003
 30
0.0
 11
510.5209363471719
 21
687.4689384596002
 31
0.0
  0
LINE
  5
D64
330
2
100
AcDbEntity
  8
0
100
AcDbLine
 10
511.0209363471719
 20
687.9689384596003
 30
0.0
 11
513.0209363471715
 21
687.968938459601
 31
0.0
  0
LINE
  5
D65
330
2
100
AcDbEntity
  8
0
100
AcDbLine
 10
495.0690864306641
 20
679.9863915306068
 30
0.0
 11
495.020936347172
 21
674.46893845961
 31
0.0
  0
LINE
  5
D66
330
2
100
AcDbEntity
  8
0
100
AcDbLine
 10
495.020936347172
 20
674.4689384596097
 30
0.0
 11
596.500936347172
 21
674.468938459612
 31
0.0
  0
LINE
  5
D67
330
2
100
AcDbEntity
  8
0
 48
0.3
100
AcDbLine
 10
497.0690102767928
 20
681.9689384596101
 30
0.0
 11
594.452862362568
 21
681.9689384596117
 31
0.0
  0
ARC
  5
D68
330
2
100
AcDbEntity
  8
0
 48
0.3
100
AcDbCircle
 10
594.452862362568
 20
679.9689384596117
 30
0.0
 40
2.0
100
AcDbArc
 50
0.5000000000045769
 51
90.0
  0
ARC
  5
D69
330
2
100
AcDbEntity
  8
0
 48
0.3
100
AcDbCircle
 10
497.0690102767928
 20
679.9689384596101
 30
0.0
 40
2.0
100
AcDbArc
 50
90.0
 51
179.5000000000019
  0
LINE
  5
D6A
330
2
100
AcDbEntity
  8
0
 48
0.5
100
AcDbLine
 10
513.72093634717
 20
693.2689384596012
 30
0.0
 11
513.7209363471709
 21
691.6689384596011
 31
0.0
  0
LINE
  5
D6B
330
2
100
AcDbEntity
  8
0
100
AcDbLine
 10
513.2209363471709
 20
691.4689384596011
 30
0.0
 11
578.8209363471721
 21
691.4689384596024
 31
0.0
  0
LINE
  5
D6C
330
2
100
AcDbEntity
  8
0
 48
0.5
100
AcDbLine
 10
513.2209363471709
 20
691.4689384596011
 30
0.0
 11
513.0209363471705
 21
691.268938459601
 31
0.0
  0
LINE
  5
D6D
330
2
100
AcDbEntity
  8
0
100
AcDbLine
 10
513.0209363471696
 20
694.9689384596011
 30
0.0
 11
513.5982866163592
 21
695.9689384596012
 31
0.0
  0
LINE
  5
D6E
330
2
100
AcDbEntity
  8
0
 48
0.5
100
AcDbLine
 10
513.0209363471696
 20
694.9689384596011
 30
0.0
 11
513.0209363471701
 21
693.6689384596011
 31
0.0
  0
ARC
  5
D6F
330
2
100
AcDbEntity
  8
HIDS
  6
SEKKEI_H
 48
0.3
100
AcDbCircle
 10
498.6925092224352
 20
683.9689384596101
 30
0.0
 40
2.0
100
AcDbArc
 50
270.0
 51
315.0000000000144
  0
ARC
  5
D70
330
2
100
AcDbEntity
  8
HIDS
  6
SEKKEI_H
 48
0.5
100
AcDbCircle
 10
505.8493634719114
 20
685.4689384595985
 30
0.0
 40
2.0
100
AcDbArc
 50
90.00000000002605
 51
135.0000000000144
  0
ARC
  5
D71
330
2
100
AcDbEntity
  8
0
100
AcDbCircle
 10
513.22093634717
 20
693.6689384596011
 30
0.0
 40
0.2
100
AcDbArc
 50
180.0000000000195
 51
270.0
  0
ARC
  5
D72
330
2
100
AcDbEntity
  8
0
 48
0.5
100
AcDbCircle
 10
513.5209363471701
 20
693.2689384596012
 30
0.0
 40
0.2
100
AcDbArc
 50
0.0000000000195413
 51
90.0
  0
ARC
  5
D73
330
2
100
AcDbEntity
  8
0
100
AcDbCircle
 10
513.5209363471706
 20
691.6689384596011
 30
0.0
 40
0.2
100
AcDbArc
 50
270.0
 51
0.0000000000195413
  0
LINE
  5
D74
330
2
100
AcDbEntity
  8
0
 48
12.0
100
AcDbLine
 10
579.0209363471733
 20
694.9689384596024
 30
0.0
 11
513.0209363471696
 21
694.9689384596011
 31
0.0
  0
LINE
  5
D75
330
2
100
AcDbEntity
  8
0
 48
12.0
100
AcDbLine
 10
579.0209363471729
 20
691.2689384596023
 30
0.0
 11
513.0209363471705
 21
691.268938459601
 31
0.0
  0
LINE
  5
D76
330
2
100
AcDbEntity
  8
0
 48
12.0
100
AcDbLine
 10
579.020936347172
 20
687.9689384596024
 30
0.0
 11
513.0209363471715
 21
687.968938459601
 31
0.0
  0
LINE
  5
D77
330
2
100
AcDbEntity
  8
CENTER
  6
CENTERX2
100
AcDbLine
 10
240.367339370018
 20
380.5651052800109
 30
0.0
 11
226.8673393700166
 21
380.5651052800109
 31
0.0
  0
LINE
  5
D78
330
2
100
AcDbEntity
  8
0
 48
12.0
100
AcDbLine
 10
237.3673393700176
 20
375.5651052800109
 30
0.0
 11
237.3673393700176
 21
385.5651052800109
 31
0.0
  0
LINE
  5
D79
330
2
100
AcDbEntity
  8
CENTER
  6
CENTERX2
100
AcDbLine
 10
240.3673393700184
 20
294.5651052800109
 30
0.0
 11
226.8673393700175
 21
294.5651052800109
 31
0.0
  0
LINE
  5
D7A
330
2
100
AcDbEntity
  8
0
 48
12.0
100
AcDbLine
 10
237.3673393700185
 20
289.5651052800109
 30
0.0
 11
237.3673393700185
 21
299.5651052800109
 31
0.0
  0
LINE
  5
D7B
330
2
100
AcDbEntity
  8
CENTER
  6
CENTERX2
100
AcDbLine
 10
503.0209363471719
 20
678.9689384596101
 30
0.0
 11
503.0209363471719
 21
692.4689384596111
 31
0.0
  0
LINE
  5
D7C
330
2
100
AcDbEntity
  8
0
 48
12.0
100
AcDbLine
 10
498.0209363471719
 20
681.9689384596101
 30
0.0
 11
508.020936347172
 21
681.9689384596101
 31
0.0
  0
LINE
  5
D7D
330
2
100
AcDbEntity
  8
CENTER
  6
CENTERX2
100
AcDbLine
 10
589.0209363471719
 20
678.9689384596115
 30
0.0
 11
589.0209363471719
 21
692.4689384596127
 31
0.0
  0
LINE
  5
D7E
330
2
100
AcDbEntity
  8
0
 48
12.0
100
AcDbLine
 10
584.020936347172
 20
681.9689384596117
 30
0.0
 11
594.0209363471719
 21
681.9689384596117
 31
0.0
  0
LINE
  5
D7F
330
2
100
AcDbEntity
  8
HIDS
  6
SEKKEI_H
100
AcDbLine
 10
231.8673393700294
 20
377.7366781552718
 30
0.0
 11
231.8673393700294
 21
375.5651052800109
 31
0.0
  0
LINE
  5
D80
330
2
100
AcDbEntity
  8
HIDS
  6
SEKKEI_H
100
AcDbLine
 10
231.8673393700303
 20
299.5651052800109
 30
0.0
 11
231.8673393700303
 21
297.3935324047498
 31
0.0
  0
LINE
  5
D81
330
2
100
AcDbEntity
  8
HIDS
  6
SEKKEI_H
100
AcDbLine
 10
508.020936347172
 20
687.4689384595986
 30
0.0
 11
505.8493634719105
 21
687.4689384595986
 31
0.0
  0
LINE
  5
D82
330
2
100
AcDbEntity
  8
HIDS
  6
SEKKEI_H
100
AcDbLine
 10
584.020936347172
 20
687.4689384595999
 30
0.0
 11
586.1925092224326
 21
687.4689384596002
 31
0.0
  0
LINE
  5
D84
330
2
100
AcDbEntity
  8
0
100
AcDbLine
 10
508.020936347172
 20
689.0689384596105
 30
0.0
 11
507.3281160241447
 21
689.4689384596102
 31
0.0
  0
LINE
  5
D85
330
2
100
AcDbEntity
  8
0
100
AcDbLine
 10
508.020936347172
 20
689.0689384596105
 30
0.0
 11
498.0209363471719
 21
689.0689384596105
 31
0.0
  0
LINE
  5
D86
330
2
100
AcDbEntity
  8
0
100
AcDbLine
 10
508.020936347172
 20
683.4689384596106
 30
0.0
 11
508.020936347172
 21
689.0689384596105
 31
0.0
  0
LINE
  5
D87
330
2
100
AcDbEntity
  8
0
100
AcDbLine
 10
498.0209363471719
 20
683.4689384596108
 30
0.0
 11
498.0209363471719
 21
689.0689384596105
 31
0.0
  0
LINE
  5
D88
330
2
100
AcDbEntity
  8
0
100
AcDbLine
 10
498.0209363471719
 20
689.0689384596105
 30
0.0
 11
498.7137566701992
 21
689.4689384596102
 31
0.0
  0
LINE
  5
D89
330
2
100
AcDbEntity
  8
0
100
AcDbLine
 10
507.3281160241447
 20
689.4689384596102
 30
0.0
 11
498.7137566701992
 21
689.4689384596102
 31
0.0
  0
LINE
  5
D8A
330
2
100
AcDbEntity
  8
0
100
AcDbLine
 10
594.0209363471719
 20
689.0689384596121
 30
0.0
 11
593.3281160241447
 21
689.4689384596118
 31
0.0
  0
LINE
  5
D8B
330
2
100
AcDbEntity
  8
0
100
AcDbLine
 10
594.0209363471719
 20
689.0689384596121
 30
0.0
 11
584.020936347172
 21
689.0689384596121
 31
0.0
  0
LINE
  5
D8C
330
2
100
AcDbEntity
  8
0
100
AcDbLine
 10
594.0209363471719
 20
683.4689384596124
 30
0.0
 11
594.0209363471719
 21
689.0689384596121
 31
0.0
  0
LINE
  5
D8D
330
2
100
AcDbEntity
  8
0
100
AcDbLine
 10
584.020936347172
 20
683.4689384596126
 30
0.0
 11
584.020936347172
 21
689.0689384596121
 31
0.0
  0
LINE
  5
D8E
330
2
100
AcDbEntity
  8
0
100
AcDbLine
 10
584.020936347172
 20
689.0689384596121
 30
0.0
 11
584.7137566701992
 21
689.4689384596118
 31
0.0
  0
LINE
  5
D8F
330
2
100
AcDbEntity
  8
0
100
AcDbLine
 10
593.3281160241447
 20
689.4689384596118
 30
0.0
 11
584.7137566701992
 21
689.4689384596118
 31
0.0
  0
LINE
  5
D90
330
2
100
AcDbEntity
  8
0
100
AcDbLine
 10
230.2673393700172
 20
385.5651052800109
 30
0.0
 11
229.8673393700175
 21
384.8722849569836
 31
0.0
  0
LINE
  5
D91
330
2
100
AcDbEntity
  8
0
100
AcDbLine
 10
230.2673393700172
 20
385.5651052800109
 30
0.0
 11
230.2673393700172
 21
375.5651052800109
 31
0.0
  0
LINE
  5
D92
330
2
100
AcDbEntity
  8
0
100
AcDbLine
 10
235.8673393700171
 20
385.5651052800108
 30
0.0
 11
230.2673393700172
 21
385.5651052800109
 31
0.0
  0
LINE
  5
D93
330
2
100
AcDbEntity
  8
0
100
AcDbLine
 10
235.8673393700171
 20
375.5651052800108
 30
0.0
 11
230.2673393700172
 21
375.5651052800109
 31
0.0
  0
LINE
  5
D94
330
2
100
AcDbEntity
  8
0
100
AcDbLine
 10
230.2673393700172
 20
375.5651052800109
 30
0.0
 11
229.8673393700175
 21
376.2579256030381
 31
0.0
  0
LINE
  5
D95
330
2
100
AcDbEntity
  8
0
100
AcDbLine
 10
229.8673393700175
 20
384.8722849569836
 30
0.0
 11
229.8673393700175
 21
376.2579256030381
 31
0.0
  0
LINE
  5
D96
330
2
100
AcDbEntity
  8
0
100
AcDbLine
 10
230.2673393700181
 20
299.5651052800109
 30
0.0
 11
229.8673393700184
 21
298.8722849569836
 31
0.0
  0
LINE
  5
D97
330
2
100
AcDbEntity
  8
0
100
AcDbLine
 10
230.2673393700181
 20
299.5651052800109
 30
0.0
 11
230.2673393700181
 21
289.5651052800109
 31
0.0
  0
LINE
  5
D98
330
2
100
AcDbEntity
  8
0
100
AcDbLine
 10
235.867339370018
 20
299.5651052800108
 30
0.0
 11
230.2673393700181
 21
299.5651052800109
 31
0.0
  0
LINE
  5
D99
330
2
100
AcDbEntity
  8
0
100
AcDbLine
 10
235.8673393700176
 20
289.5651052800108
 30
0.0
 11
230.2673393700181
 21
289.5651052800109
 31
0.0
  0
LINE
  5
D9A
330
2
100
AcDbEntity
  8
0
100
AcDbLine
 10
230.2673393700181
 20
289.5651052800109
 30
0.0
 11
229.8673393700184
 21
290.2579256030382
 31
0.0
  0
LINE
  5
D9B
330
2
100
AcDbEntity
  8
0
100
AcDbLine
 10
229.8673393700184
 20
298.8722849569836
 30
0.0
 11
229.8673393700184
 21
290.2579256030382
 31
0.0
  0
CIRCLE
  5
D9C
330
2
100
AcDbEntity
  8
0
100
AcDbCircle
 10
158.4562819001605
 20
380.5651052800111
 30
0.0
 40
5.000000000000113
  0
CIRCLE
  5
D9D
330
2
100
AcDbEntity
  8
0
100
AcDbCircle
 10
158.4562819001605
 20
380.5651052800111
 30
0.0
 40
4.307179676972509
  0
LINE
  5
D9E
330
2
100
AcDbEntity
  8
0
100
AcDbLine
 10
160.9562819001605
 20
382.0084809529852
 30
0.0
 11
160.9562819001605
 21
379.1217296070371
 31
0.0
  0
LINE
  5
D9F
330
2
100
AcDbEntity
  8
0
100
AcDbLine
 10
158.4562819001605
 20
377.678353934063
 30
0.0
 11
160.9562819001605
 21
379.1217296070371
 31
0.0
  0
LINE
  5
DA0
330
2
100
AcDbEntity
  8
0
100
AcDbLine
 10
160.9562819001605
 20
382.0084809529852
 30
0.0
 11
158.4562819001605
 21
383.4518566259593
 31
0.0
  0
LINE
  5
DA1
330
2
100
AcDbEntity
  8
0
100
AcDbLine
 10
155.9562819001605
 20
382.0084809529852
 30
0.0
 11
155.9562819001605
 21
379.1217296070371
 31
0.0
  0
LINE
  5
DA2
330
2
100
AcDbEntity
  8
0
100
AcDbLine
 10
158.4562819001605
 20
377.678353934063
 30
0.0
 11
155.9562819001605
 21
379.1217296070371
 31
0.0
  0
LINE
  5
DA3
330
2
100
AcDbEntity
  8
0
100
AcDbLine
 10
155.9562819001605
 20
382.0084809529852
 30
0.0
 11
158.4562819001605
 21
383.4518566259593
 31
0.0
  0
CIRCLE
  5
DA4
330
2
100
AcDbEntity
  8
0
100
AcDbCircle
 10
72.45628190015691
 20
380.5651052800113
 30
0.0
 40
5.000000000000113
  0
CIRCLE
  5
DA5
330
2
100
AcDbEntity
  8
0
100
AcDbCircle
 10
72.45628190015691
 20
380.5651052800113
 30
0.0
 40
4.307179676972509
  0
LINE
  5
DA6
330
2
100
AcDbEntity
  8
0
100
AcDbLine
 10
74.95628190015691
 20
382.0084809529854
 30
0.0
 11
74.95628190015691
 21
379.1217296070373
 31
0.0
  0
LINE
  5
DA7
330
2
100
AcDbEntity
  8
0
100
AcDbLine
 10
72.45628190015691
 20
377.6783539340632
 30
0.0
 11
74.95628190015691
 21
379.1217296070373
 31
0.0
  0
LINE
  5
DA8
330
2
100
AcDbEntity
  8
0
100
AcDbLine
 10
74.95628190015691
 20
382.0084809529854
 30
0.0
 11
72.45628190015691
 21
383.4518566259595
 31
0.0
  0
LINE
  5
DA9
330
2
100
AcDbEntity
  8
0
100
AcDbLine
 10
69.95628190015691
 20
382.0084809529854
 30
0.0
 11
69.95628190015691
 21
379.1217296070373
 31
0.0
  0
LINE
  5
DAA
330
2
100
AcDbEntity
  8
0
100
AcDbLine
 10
72.45628190015691
 20
377.6783539340632
 30
0.0
 11
69.95628190015691
 21
379.1217296070373
 31
0.0
  0
LINE
  5
DAB
330
2
100
AcDbEntity
  8
0
100
AcDbLine
 10
69.95628190015691
 20
382.0084809529854
 30
0.0
 11
72.45628190015691
 21
383.4518566259595
 31
0.0
  0
CIRCLE
  5
DAC
330
2
100
AcDbEntity
  8
0
100
AcDbCircle
 10
72.45628190015691
 20
294.5651052800108
 30
0.0
 40
5.000000000000113
  0
CIRCLE
  5
DAD
330
2
100
AcDbEntity
  8
0
100
AcDbCircle
 10
72.45628190015691
 20
294.5651052800108
 30
0.0
 40
4.307179676972509
  0
LINE
  5
DAE
330
2
100
AcDbEntity
  8
0
100
AcDbLine
 10
74.95628190015691
 20
296.0084809529849
 30
0.0
 11
74.95628190015691
 21
293.1217296070368
 31
0.0
  0
LINE
  5
DAF
330
2
100
AcDbEntity
  8
0
100
AcDbLine
 10
72.45628190015691
 20
291.6783539340627
 30
0.0
 11
74.95628190015691
 21
293.1217296070368
 31
0.0
  0
LINE
  5
DB0
330
2
100
AcDbEntity
  8
0
100
AcDbLine
 10
74.95628190015691
 20
296.0084809529849
 30
0.0
 11
72.45628190015691
 21
297.451856625959
 31
0.0
  0
LINE
  5
DB1
330
2
100
AcDbEntity
  8
0
100
AcDbLine
 10
69.95628190015691
 20
296.0084809529849
 30
0.0
 11
69.95628190015691
 21
293.1217296070368
 31
0.0
  0
LINE
  5
DB2
330
2
100
AcDbEntity
  8
0
100
AcDbLine
 10
72.45628190015691
 20
291.6783539340627
 30
0.0
 11
69.95628190015691
 21
293.1217296070368
 31
0.0
  0
LINE
  5
DB3
330
2
100
AcDbEntity
  8
0
100
AcDbLine
 10
69.95628190015691
 20
296.0084809529849
 30
0.0
 11
72.45628190015691
 21
297.451856625959
 31
0.0
  0
CIRCLE
  5
DB4
330
2
100
AcDbEntity
  8
0
100
AcDbCircle
 10
158.4562819001573
 20
294.5651052800107
 30
0.0
 40
5.000000000000113
  0
CIRCLE
  5
DB5
330
2
100
AcDbEntity
  8
0
100
AcDbCircle
 10
158.4562819001573
 20
294.5651052800107
 30
0.0
 40
4.307179676972509
  0
LINE
  5
DB6
330
2
100
AcDbEntity
  8
0
100
AcDbLine
 10
160.9562819001573
 20
296.0084809529848
 30
0.0
 11
160.9562819001573
 21
293.1217296070366
 31
0.0
  0
LINE
  5
DB7
330
2
100
AcDbEntity
  8
0
100
AcDbLine
 10
158.4562819001573
 20
291.6783539340626
 30
0.0
 11
160.9562819001573
 21
293.1217296070366
 31
0.0
  0
LINE
  5
DB8
330
2
100
AcDbEntity
  8
0
100
AcDbLine
 10
160.9562819001573
 20
296.0084809529848
 30
0.0
 11
158.4562819001573
 21
297.4518566259589
 31
0.0
  0
LINE
  5
DB9
330
2
100
AcDbEntity
  8
0
100
AcDbLine
 10
155.9562819001573
 20
296.0084809529848
 30
0.0
 11
155.9562819001573
 21
293.1217296070366
 31
0.0
  0
LINE
  5
DBA
330
2
100
AcDbEntity
  8
0
100
AcDbLine
 10
158.4562819001573
 20
291.6783539340626
 30
0.0
 11
155.9562819001573
 21
293.1217296070366
 31
0.0
  0
LINE
  5
DBB
330
2
100
AcDbEntity
  8
0
100
AcDbLine
 10
155.9562819001573
 20
296.0084809529848
 30
0.0
 11
158.4562819001573
 21
297.4518566259589
 31
0.0
  0
LINE
  5
DBC
330
2
100
AcDbEntity
  8
0
100
AcDbLine
 10
244.8673393700162
 20
380.5651052800045
 30
0.0
 11
325.864255138216
 21
380.5651052800046
 31
0.0
  0
LINE
  5
DBD
330
2
100
AcDbEntity
  8
0
100
AcDbLine
 10
244.8673393700167
 20
377.565105280013
 30
0.0
 11
325.864255138216
 21
377.565105280013
 31
0.0
  0
LINE
  5
DBE
330
2
100
AcDbEntity
  8
0
100
AcDbLine
 10
244.8673393700175
 20
358.1052044572075
 30
0.0
 11
325.864255138216
 21
358.1052044572075
 31
0.0
  0
LINE
  5
DBF
330
2
100
AcDbEntity
  8
0
100
AcDbLine
 10
244.8673393700198
 20
294.5651052800046
 30
0.0
 11
325.864255138216
 21
294.5651052800174
 31
0.0
  0
LINE
  5
DC0
330
2
100
AcDbEntity
  8
0
100
AcDbLine
 10
244.8673393700198
 20
297.5651052800109
 30
0.0
 11
325.864255138216
 21
297.565105280009
 31
0.0
  0
LINE
  5
DC1
330
2
100
AcDbEntity
  8
0
100
AcDbLine
 10
244.8673393700189
 20
317.0250061028453
 30
0.0
 11
325.864255138216
 21
317.0250061028145
 31
0.0
  0
LINE
  5
DC2
330
2
100
AcDbEntity
  8
0
100
AcDbLine
 10
525.4808371700208
 20
674.4689384596104
 30
0.0
 11
525.4808371700208
 21
593.4689384596087
 31
0.0
  0
LINE
  5
DC3
330
2
100
AcDbEntity
  8
0
100
AcDbLine
 10
503.0209363471719
 20
674.46893845961
 30
0.0
 11
503.0209363471719
 21
593.468938459609
 31
0.0
  0
LINE
  5
DC4
330
2
100
AcDbEntity
  8
0
100
AcDbLine
 10
244.8673393700167
 20
377.565105280013
 30
0.0
 11
238.867339370018
 21
377.565105280013
 31
0.0
  0
LINE
  5
DC5
330
2
100
AcDbEntity
  8
0
100
AcDbLine
 10
244.8673393700162
 20
380.5651052800045
 30
0.0
 11
238.867339370018
 21
380.5651052800109
 31
0.0
  0
LINE
  5
DC6
330
2
100
AcDbEntity
  8
0
100
AcDbLine
 10
244.8673393700175
 20
358.1052044572074
 30
0.0
 11
238.867339370018
 21
358.1052044572075
 31
0.0
  0
LINE
  5
DC7
330
2
100
AcDbEntity
  8
0
100
AcDbLine
 10
244.8673393700189
 20
317.025006102845
 30
0.0
 11
238.8673393700185
 21
317.025006102845
 31
0.0
  0
LINE
  5
DC8
330
2
100
AcDbEntity
  8
0
100
AcDbLine
 10
244.8673393700185
 20
294.5651052800046
 30
0.0
 11
238.8673393700185
 21
294.5651052800047
 31
0.0
  0
LINE
  5
DC9
330
2
100
AcDbEntity
  8
0
100
AcDbLine
 10
244.8673393700198
 20
297.5651052800108
 30
0.0
 11
238.8673393700185
 21
297.5651052800108
 31
0.0
  0
LINE
  5
DCA
330
2
100
AcDbEntity
  8
0
100
AcDbLine
 10
506.0209363471719
 20
674.46893845961
 30
0.0
 11
506.0209363471719
 21
593.4689384596087
 31
0.0
  0
LINE
  5
DCB
330
2
100
AcDbEntity
  8
0
100
AcDbLine
 10
566.5610355243232
 20
674.4689384596113
 30
0.0
 11
566.5610355243232
 21
593.4689384596087
 31
0.0
  0
LINE
  5
DCC
330
2
100
AcDbEntity
  8
0
100
AcDbLine
 10
588.7591303134284
 20
593.4689384596087
 30
0.0
 11
588.7591303134284
 21
674.4689384596117
 31
0.0
  0
LINE
  5
DCD
330
2
100
AcDbEntity
  8
0
100
AcDbLine
 10
506.0209363471719
 20
674.4689384596092
 30
0.0
 11
506.0209363471719
 21
680.4689384596104
 31
0.0
  0
LINE
  5
DCE
330
2
100
AcDbEntity
  8
0
100
AcDbLine
 10
525.4808371700208
 20
674.4689384596101
 30
0.0
 11
525.4808371700208
 21
680.4689384596106
 31
0.0
  0
LINE
  5
DCF
330
2
100
AcDbEntity
  8
0
100
AcDbLine
 10
503.0209363471719
 20
674.46893845961
 30
0.0
 11
503.0209363471719
 21
680.4689384596102
 31
0.0
  0
LINE
  5
DD0
330
2
100
AcDbEntity
  8
0
100
AcDbLine
 10
566.5610355243232
 20
674.4689384596117
 30
0.0
 11
566.5610355243232
 21
680.4689384596112
 31
0.0
  0
LINE
  5
DD1
330
2
100
AcDbEntity
  8
0
100
AcDbLine
 10
586.0209363471729
 20
674.4689384596124
 30
0.0
 11
586.0209363471729
 21
680.4689384596117
 31
0.0
  0
LINE
  5
DD2
330
2
100
AcDbEntity
  8
0
100
AcDbLine
 10
588.7591303134284
 20
674.4689384596126
 30
0.0
 11
588.7591303134284
 21
680.4689384596117
 31
0.0
  0
CIRCLE
  5
DD3
330
2
100
AcDbEntity
  8
0
 48
12.0
100
AcDbCircle
 10
158.4562819001646
 20
294.5651052800077
 30
0.0
 40
5.749999999999829
  0
CIRCLE
  5
DD4
330
2
100
AcDbEntity
  8
0
 48
12.0
100
AcDbCircle
 10
72.45628190016145
 20
294.5651052800108
 30
0.0
 40
5.749999999999829
  0
CIRCLE
  5
DD5
330
2
100
AcDbEntity
  8
0
 48
12.0
100
AcDbCircle
 10
72.45628190015827
 20
380.5651052800143
 30
0.0
 40
5.749999999999829
  0
CIRCLE
  5
DD6
330
2
100
AcDbEntity
  8
0
 48
12.0
100
AcDbCircle
 10
158.4562819001646
 20
380.5651052800141
 30
0.0
 40
5.749999999999829
  0
LINE
  5
DD7
330
2
100
AcDbEntity
  8
0
100
AcDbLine
 10
237.3673393700185
 20
300.3151052800109
 30
0.0
 11
235.867339370018
 21
300.3151052800109
 31
0.0
  0
LINE
  5
DD8
330
2
100
AcDbEntity
  8
0
100
AcDbLine
 10
237.3673393700185
 20
288.8151052800109
 30
0.0
 11
235.8673393700176
 21
288.8151052800109
 31
0.0
  0
LINE
  5
DD9
330
2
100
AcDbEntity
  8
0
100
AcDbLine
 10
235.867339370018
 20
300.3151052800109
 30
0.0
 11
235.8673393700176
 21
288.8151052800109
 31
0.0
  0
LINE
  5
DDA
330
2
100
AcDbEntity
  8
0
 48
12.0
100
AcDbLine
 10
237.3673393700185
 20
288.8151052800109
 30
0.0
 11
237.3673393700185
 21
300.3151052800109
 31
0.0
  0
LINE
  5
DDB
330
2
100
AcDbEntity
  8
0
100
AcDbLine
 10
237.367339370018
 20
386.3151052800109
 30
0.0
 11
235.8673393700176
 21
386.3151052800109
 31
0.0
  0
LINE
  5
DDC
330
2
100
AcDbEntity
  8
0
100
AcDbLine
 10
237.3673393700176
 20
374.815105280011
 30
0.0
 11
235.8673393700166
 21
374.8151052800109
 31
0.0
  0
LINE
  5
DDD
330
2
100
AcDbEntity
  8
0
100
AcDbLine
 10
235.8673393700176
 20
386.3151052800109
 30
0.0
 11
235.8673393700166
 21
374.8151052800109
 31
0.0
  0
LINE
  5
DDE
330
2
100
AcDbEntity
  8
0
 48
12.0
100
AcDbLine
 10
237.3673393700176
 20
374.815105280011
 30
0.0
 11
237.367339370018
 21
386.3151052800109
 31
0.0
  0
LINE
  5
DDF
330
2
100
AcDbEntity
  8
0
100
AcDbLine
 10
508.7709363471719
 20
681.9689384596101
 30
0.0
 11
508.7709363471719
 21
683.4689384596106
 31
0.0
  0
LINE
  5
DE0
330
2
100
AcDbEntity
  8
0
100
AcDbLine
 10
497.270936347172
 20
681.9689384596101
 30
0.0
 11
497.270936347172
 21
683.468938459611
 31
0.0
  0
LINE
  5
DE1
330
2
100
AcDbEntity
  8
0
100
AcDbLine
 10
508.7709363471719
 20
683.4689384596106
 30
0.0
 11
497.270936347172
 21
683.468938459611
 31
0.0
  0
LINE
  5
DE2
330
2
100
AcDbEntity
  8
0
 48
12.0
100
AcDbLine
 10
497.270936347172
 20
681.9689384596101
 30
0.0
 11
508.7709363471719
 21
681.9689384596101
 31
0.0
  0
LINE
  5
DE3
330
2
100
AcDbEntity
  8
0
100
AcDbLine
 10
594.7709363471719
 20
681.9689384596117
 30
0.0
 11
594.7709363471719
 21
683.4689384596122
 31
0.0
  0
LINE
  5
DE4
330
2
100
AcDbEntity
  8
0
100
AcDbLine
 10
583.2709363471719
 20
681.9689384596119
 30
0.0
 11
583.2709363471719
 21
683.4689384596126
 31
0.0
  0
LINE
  5
DE5
330
2
100
AcDbEntity
  8
0
100
AcDbLine
 10
594.7709363471719
 20
683.4689384596124
 30
0.0
 11
583.2709363471719
 21
683.4689384596126
 31
0.0
  0
LINE
  5
DE6
330
2
100
AcDbEntity
  8
0
 48
12.0
100
AcDbLine
 10
583.2709363471719
 20
681.9689384596119
 30
0.0
 11
594.7709363471719
 21
681.9689384596117
 31
0.0
  0
LINE
  5
DE7
330
2
100
AcDbEntity
  8
CENTER
100
AcDbLine
 10
63.39554513530242
 20
285.5043685151524
 30
0.0
 11
167.5170186650236
 21
389.6258420448697
 31
0.0
  0
LINE
  5
DE8
330
2
100
AcDbEntity
  8
CENTER
100
AcDbLine
 10
63.39554513530152
 20
389.6258420448745
 30
0.0
 11
167.5170186650186
 21
285.5043685151535
 31
0.0
  0
ARC
  5
ED5
330
2
100
AcDbEntity
  8
0
100
AcDbCircle
 10
614.6430223896179
 20
649.4689384596089
 30
0.0
 40
2.0
100
AcDbArc
 50
270.0
 51
358.4999999999842
  0
ARC
  5
ED6
330
2
100
AcDbEntity
  8
0
100
AcDbCircle
 10
614.6430223896234
 20
640.4689384596091
 30
0.0
 40
2.0
100
AcDbArc
 50
1.500000000015752
 51
90.0
  0
ARC
  5
ED7
330
2
100
AcDbEntity
  8
0
100
AcDbCircle
 10
598.8028408091715
 20
649.4689384596089
 30
0.0
 40
2.0
100
AcDbArc
 50
179.5000000000084
 51
270.0
  0
LINE
  5
ED8
330
2
100
AcDbEntity
  8
0
100
AcDbLine
 10
598.7217415988855
 20
642.4689384596091
 30
0.0
 11
614.6430223896234
 21
642.4689384596091
 31
0.0
  0
LINE
  5
ED9
330
2
100
AcDbEntity
  8
0
100
AcDbLine
 10
598.8028408091715
 20
647.4689384596089
 30
0.0
 11
614.6430223896179
 21
647.4689384596089
 31
0.0
  0
ARC
  5
EDA
330
2
100
AcDbEntity
  8
0
100
AcDbCircle
 10
598.7217415988855
 20
640.4689384596091
 30
0.0
 40
2.0
100
AcDbArc
 50
90.0
 51
179.5000000000084
  0
LINE
  5
108C
330
2
100
AcDbEntity
  8
0
100
AcDbLine
 10
642.0209583471723
 20
593.4689384596099
 30
0.0
 11
642.0209583471724
 21
696.468938459609
 31
0.0
  0
LINE
  5
108D
330
2
100
AcDbEntity
  8
0
100
AcDbLine
 10
726.520958347175
 20
594.968938459609
 30
0.0
 11
726.5209583471751
 21
694.968938459609
 31
0.0
  0
LINE
  5
108E
330
2
100
AcDbEntity
  8
0
100
AcDbLine
 10
642.0209583471723
 20
593.968938459609
 30
0.0
 11
653.5209583471704
 21
593.968938459609
 31
0.0
  0
LINE
  5
108F
330
2
100
AcDbEntity
  8
0
100
AcDbLine
 10
655.4574500202724
 20
593.968938459609
 30
0.0
 11
689.5209583471731
 21
593.968938459609
 31
0.0
  0
LINE
  5
1090
330
2
100
AcDbEntity
  8
0
100
AcDbLine
 10
655.45745002027
 20
695.968938459609
 30
0.0
 11
689.5209583471751
 21
695.9689384596126
 31
0.0
  0
LINE
  5
1091
330
2
100
AcDbEntity
  8
0
100
AcDbLine
 10
692.1667096582405
 20
694.968938459609
 30
0.0
 11
726.5209583471751
 21
694.968938459609
 31
0.0
  0
ARC
  5
1092
330
2
100
AcDbEntity
  8
0
100
AcDbCircle
 10
713.5209583471751
 20
692.968938459609
 30
0.0
 40
2.0
100
AcDbArc
 50
90.0
 51
180.0
  0
LINE
  5
1093
330
2
100
AcDbEntity
  8
0
100
AcDbLine
 10
692.1667096582403
 20
594.9689384596094
 30
0.0
 11
726.520958347175
 21
594.968938459609
 31
0.0
  0
LINE
  5
1094
330
2
100
AcDbEntity
  8
CENTER
 48
0.5
100
AcDbLine
 10
695.5209583471768
 20
624.968938459609
 30
0.0
 11
720.5209583471769
 21
624.968938459609
 31
0.0
  0
LINE
  5
1095
330
2
100
AcDbEntity
  8
0
100
AcDbLine
 10
699.5209583471768
 20
614.468938459609
 30
0.0
 11
709.5209583471769
 21
614.468938459609
 31
0.0
  0
ARC
  5
1096
330
2
100
AcDbEntity
  8
0
100
AcDbCircle
 10
699.5209583471768
 20
616.468938459609
 30
0.0
 40
2.0
100
AcDbArc
 50
180.0
 51
270.0
  0
LINE
  5
1097
330
2
100
AcDbEntity
  8
0
100
AcDbLine
 10
711.5209583471769
 20
612.468938459609
 30
0.0
 11
711.520958347175
 21
596.968938459609
 31
0.0
  0
ARC
  5
1098
330
2
100
AcDbEntity
  8
0
100
AcDbCircle
 10
713.5209583471749
 20
596.968938459609
 30
0.0
 40
2.0
100
AcDbArc
 50
180.0
 51
270.0
  0
LINE
  5
1099
330
2
100
AcDbEntity
  8
CENTER
 48
0.5
100
AcDbLine
 10
708.0209583471769
 20
637.468938459609
 30
0.0
 11
708.0209583471769
 21
612.468938459609
 31
0.0
  0
LINE
  5
109A
330
2
100
AcDbEntity
  8
0
100
AcDbLine
 10
697.5209583471768
 20
642.968938459609
 30
0.0
 11
697.5209583471768
 21
616.468938459609
 31
0.0
  0
ARC
  5
109B
330
2
100
AcDbEntity
  8
0
100
AcDbCircle
 10
709.5209583471769
 20
612.468938459609
 30
0.0
 40
2.0
100
AcDbArc
 50
0.0
 51
90.0
  0
LINE
  5
109C
330
2
100
AcDbEntity
  8
0
100
AcDbLine
 10
711.5209583471806
 20
646.9689384596095
 30
0.0
 11
711.5209583471751
 21
692.968938459609
 31
0.0
  0
LINE
  5
109D
330
2
100
AcDbEntity
  8
0
100
AcDbLine
 10
699.5209583471768
 20
644.968938459609
 30
0.0
 11
709.5209583471769
 21
644.968938459609
 31
0.0
  0
ARC
  5
109E
330
2
100
AcDbEntity
  8
0
100
AcDbCircle
 10
699.5209583471768
 20
642.968938459609
 30
0.0
 40
2.0
100
AcDbArc
 50
90.0
 51
180.0
  0
ARC
  5
109F
330
2
100
AcDbEntity
  8
0
100
AcDbCircle
 10
709.5209583471769
 20
646.968938459609
 30
0.0
 40
2.0
100
AcDbArc
 50
270.0
 51
0.0
  0
LINE
  5
10A0
330
2
100
AcDbEntity
  8
0
100
AcDbLine
 10
691.520958347175
 20
693.9689384596126
 30
0.0
 11
691.5209583471749
 21
595.9689384596063
 31
0.0
  0
ARC
  5
10A1
330
2
100
AcDbEntity
  8
0
100
AcDbCircle
 10
689.5209583471732
 20
693.9689384596126
 30
0.0
 40
2.0
100
AcDbArc
 50
48.59037789064481
 51
89.99999999994789
  0
ARC
  5
10A2
330
2
100
AcDbEntity
  8
0
100
AcDbCircle
 10
692.1667096582405
 20
696.9689384596099
 30
0.0
 40
2.0
100
AcDbArc
 50
228.5903778907129
 51
270.0
  0
ARC
  5
10A3
330
2
100
AcDbEntity
  8
0
100
AcDbCircle
 10
689.5209583471732
 20
693.9689384596126
 30
0.0
 40
2.0
100
AcDbArc
 50
0.0
 51
89.99999999994789
  0
ARC
  5
10A4
330
2
100
AcDbEntity
  8
0
100
AcDbCircle
 10
692.1667096582403
 20
592.968938459609
 30
0.0
 40
2.0
100
AcDbArc
 50
90.0
 51
131.4096221092869
  0
ARC
  5
10A5
330
2
100
AcDbEntity
  8
0
100
AcDbCircle
 10
689.5209583471731
 20
595.9689384596063
 30
0.0
 40
2.0
100
AcDbArc
 50
270.0000000000521
 51
0.0
  0
LINE
  5
10A6
330
2
100
AcDbEntity
  8
0
100
AcDbLine
 10
653.5209583471696
 20
696.4689384596081
 30
0.0
 11
642.0209583471715
 21
696.4689384596081
 31
0.0
  0
LINE
  5
10A7
330
2
100
AcDbEntity
  8
0
100
AcDbLine
 10
653.5209583471695
 20
593.4689384596099
 30
0.0
 11
642.0209583471713
 21
593.4689384596099
 31
0.0
  0
LINE
  5
10A8
330
2
100
AcDbEntity
  8
0
100
AcDbLine
 10
655.5209583471704
 20
595.4689384596099
 30
0.0
 11
655.5209583471732
 21
694.4689384596081
 31
0.0
  0
ARC
  5
10A9
330
2
100
AcDbEntity
  8
0
100
AcDbCircle
 10
653.5209583471695
 20
595.4689384596099
 30
0.0
 40
2.0
100
AcDbArc
 50
270.0
 51
0.0
  0
ARC
  5
10AA
330
2
100
AcDbEntity
  8
0
100
AcDbCircle
 10
653.5209583471704
 20
595.9689384596095
 30
0.0
 40
2.0
100
AcDbArc
 50
270.0
 51
0.0
  0
ARC
  5
10AB
330
2
100
AcDbEntity
  8
0
100
AcDbCircle
 10
653.5209583471696
 20
694.4689384596081
 30
0.0
 40
2.0
100
AcDbArc
 50
359.9999999999869
 51
90.0
  0
ARC
  5
10AC
330
2
100
AcDbEntity
  8
0
100
AcDbCircle
 10
653.5209583471705
 20
693.9689384596086
 30
0.0
 40
2.0
100
AcDbArc
 50
0.0
 51
90.0
  0
LINE
  5
10AD
330
2
100
AcDbEntity
  8
0
100
AcDbLine
 10
653.5209583471705
 20
695.9689384596085
 30
0.0
 11
642.0209583471724
 21
695.9689384596085
 31
0.0
  0
LINE
  5
10AE
330
2
100
AcDbEntity
  8
0
100
AcDbLine
 10
663.0209583471707
 20
685.8389384596094
 30
0.0
 11
689.5209583471742
 21
685.8389384596094
 31
0.0
  0
LINE
  5
10AF
330
2
100
AcDbEntity
  8
0
100
AcDbLine
 10
658.5209583471713
 20
614.468938459609
 30
0.0
 11
688.520958347174
 21
614.4689384596095
 31
0.0
  0
ARC
  5
10B0
330
2
100
AcDbEntity
  8
0
100
AcDbCircle
 10
688.520958347174
 20
617.468938459609
 30
0.0
 40
3.0
100
AcDbArc
 50
270.0
 51
0.0
  0
ARC
  5
10B1
330
2
100
AcDbEntity
  8
0
100
AcDbCircle
 10
658.5209583471713
 20
611.468938459609
 30
0.0
 40
3.0
100
AcDbArc
 50
90.0
 51
179.9999999999869
  0
ARC
  5
10B2
330
2
100
AcDbEntity
  8
0
100
AcDbCircle
 10
688.5209583471751
 20
672.468938459609
 30
0.0
 40
3.0
100
AcDbArc
 50
0.0
 51
90.0
  0
LINE
  5
10B3
330
2
100
AcDbEntity
  8
0
100
AcDbLine
 10
658.5209583471724
 20
675.468938459609
 30
0.0
 11
688.5209583471751
 21
675.468938459609
 31
0.0
  0
ARC
  5
10B4
330
2
100
AcDbEntity
  8
0
100
AcDbCircle
 10
658.5209583471724
 20
678.468938459609
 30
0.0
 40
3.0
100
AcDbArc
 50
179.9999999999869
 51
270.0
  0
LINE
  5
10B5
330
2
100
AcDbEntity
  8
0
100
AcDbLine
 10
663.0209583471707
 20
604.0989384596087
 30
0.0
 11
689.520958347174
 21
604.0989384596087
 31
0.0
  0
LINE
  5
10B6
330
2
100
AcDbEntity
  8
0
100
AcDbLine
 10
658.5209583471732
 20
634.9190628381215
 30
0.0
 11
689.520958347175
 21
634.9190628381215
 31
0.0
  0
LINE
  5
10B7
330
2
100
AcDbEntity
  8
0
100
AcDbLine
 10
658.5209583471713
 20
655.0188140803743
 30
0.0
 11
689.520958347175
 21
655.0188140803743
 31
0.0
  0
ARC
  5
10B8
330
2
100
AcDbEntity
  8
0
100
AcDbCircle
 10
655.4574500202724
 20
591.9689384596095
 30
0.0
 40
2.0
100
AcDbArc
 50
89.99999999994789
 51
118.9550243718445
  0
ARC
  5
10B9
330
2
100
AcDbEntity
  8
0
100
AcDbCircle
 10
655.4574500202697
 20
697.9689384596103
 30
0.0
 40
2.0
100
AcDbArc
 50
241.0449756282135
 51
270.0
  0
LINE
  5
10BA
330
2
100
AcDbEntity
  8
0
100
AcDbLine
 10
642.0209583471727
 20
388.5651052800108
 30
0.0
 11
689.5726446053325
 21
388.5651052800113
 31
0.0
  0
LINE
  5
10BC
330
2
100
AcDbEntity
  8
0
100
AcDbLine
 10
692.1667096582417
 20
287.5651052800108
 30
0.0
 11
726.5209583471763
 21
287.5651052800108
 31
0.0
  0
ARC
  5
10BD
330
2
100
AcDbEntity
  8
0
100
AcDbCircle
 10
713.4863528733989
 20
289.5651052800108
 30
0.0
 40
2.0
100
AcDbArc
 50
180.9999999999887
 51
270.0
  0
LINE
  5
10BE
330
2
100
AcDbEntity
  8
0
100
AcDbLine
 10
726.5209583471764
 20
387.565105280011
 30
0.0
 11
726.5209583471763
 21
287.5651052800108
 31
0.0
  0
LINE
  5
10BF
330
2
100
AcDbEntity
  8
0
100
AcDbLine
 10
642.0209583471727
 20
388.5651052800108
 30
0.0
 11
642.0209583471727
 21
286.5651052800108
 31
0.0
  0
LINE
  5
10C0
330
2
100
AcDbEntity
  8
0
100
AcDbLine
 10
642.0209583471727
 20
337.5651052800108
 30
0.0
 11
726.5209583471763
 21
337.5651052800108
 31
0.0
  0
LINE
  5
10C1
330
2
100
AcDbEntity
  8
0
100
AcDbLine
 10
710.64820510076
 20
337.5651052800104
 30
0.0
 11
711.4866574830861
 21
289.5302004671366
 31
0.0
  0
LINE
  5
10C2
330
2
100
AcDbEntity
  8
CENTER
100
AcDbLine
 10
708.0209583471763
 20
395.0651052800108
 30
0.0
 11
708.0209583471763
 21
380.1797252565161
 31
0.0
  0
LINE
  5
10C3
330
2
100
AcDbEntity
  8
0
100
AcDbLine
 10
692.1667096582417
 20
387.5651052800104
 30
0.0
 11
726.5209583471765
 21
387.5651052800106
 31
0.0
  0
LINE
  5
10C4
330
2
100
AcDbEntity
  8
0
100
AcDbLine
 10
642.0209583471727
 20
286.5651052800099
 30
0.0
 11
689.5726446053325
 21
286.5651052800099
 31
0.0
  0
ARC
  5
10C5
330
2
100
AcDbEntity
  8
0
100
AcDbCircle
 10
713.4863528733989
 20
385.5651052800104
 30
0.0
 40
2.0
100
AcDbArc
 50
90.0
 51
178.9999999999982
  0
LINE
  5
10C6
330
2
100
AcDbEntity
  8
0
100
AcDbLine
 10
711.3260638755154
 20
376.3996084769821
 30
0.0
 11
711.4866574830861
 21
385.600010092885
 31
0.0
  0
LINE
  5
10C7
330
2
100
AcDbEntity
  8
0
100
AcDbLine
 10
656.4111666585126
 20
337.5651052800104
 30
0.0
 11
655.5552592112547
 21
288.5302004671353
 31
0.0
  0
ARC
  5
10C8
330
2
100
AcDbEntity
  8
0
100
AcDbCircle
 10
653.5555638209411
 20
288.5651052800099
 30
0.0
 40
2.0
100
AcDbArc
 50
270.0
 51
358.9999999999982
  0
LINE
  5
10C9
330
2
100
AcDbEntity
  8
0
100
AcDbLine
 10
656.0676532074843
 20
357.2449777090649
 30
0.0
 11
655.5552592112547
 21
386.6000100928859
 31
0.0
  0
ARC
  5
10CA
330
2
100
AcDbEntity
  8
0
100
AcDbCircle
 10
653.5555638209411
 20
386.5651052800113
 30
0.0
 40
2.0
100
AcDbArc
 50
1.000000000001761
 51
90.0
  0
ARC
  5
10CB
330
2
100
AcDbEntity
  8
0
100
AcDbCircle
 10
692.218395916397
 20
389.5651052800104
 30
0.0
 40
2.0
100
AcDbArc
 50
228.5903778907307
 51
270.0
  0
ARC
  5
10CC
330
2
100
AcDbEntity
  8
0
100
AcDbCircle
 10
692.218395916397
 20
285.5651052800113
 30
0.0
 40
2.0
100
AcDbArc
 50
90.0
 51
131.4096221092719
  0
LINE
  5
10CD
330
2
100
AcDbEntity
  8
0
100
AcDbLine
 10
656.2013151320065
 20
387.5651052800108
 30
0.0
 11
689.5988305269014
 21
387.5651052800113
 31
0.0
  0
ARC
  5
10CE
330
2
100
AcDbEntity
  8
0
100
AcDbCircle
 10
689.5988305269014
 20
385.5651052800113
 30
0.0
 40
2.0
100
AcDbArc
 50
1.4999999999898
 51
90.0
  0
ARC
  5
10CF
330
2
100
AcDbEntity
  8
0
100
AcDbCircle
 10
693.7376777851035
 20
380.3151052800108
 30
0.0
 40
2.0
100
AcDbArc
 50
181.4999999999767
 51
270.0
  0
LINE
  5
10D0
330
2
100
AcDbEntity
  8
0
100
AcDbLine
 10
689.1352991265788
 20
368.0651052800108
 30
0.0
 11
658.8268789675497
 21
368.0651052800108
 31
0.0
  0
ARC
  5
10D1
330
2
100
AcDbEntity
  8
0
100
AcDbCircle
 10
689.1352991265788
 20
365.0651052800108
 30
0.0
 40
3.0
100
AcDbArc
 50
1.500000000002823
 51
90.0
  0
ARC
  5
10D2
330
2
100
AcDbEntity
  8
0
100
AcDbCircle
 10
658.8268789675506
 20
304.0651052800113
 30
0.0
 40
3.0
100
AcDbArc
 50
90.0
 51
178.9999999999851
  0
LINE
  5
10D3
330
2
100
AcDbEntity
  8
0
100
AcDbLine
 10
695.3719365379032
 20
377.0451052800104
 30
0.0
 11
707.2093226703158
 21
377.0451052800104
 31
0.0
  0
ARC
  5
10D4
330
2
100
AcDbEntity
  8
0
100
AcDbCircle
 10
699.4863528734125
 20
385.5651052800108
 30
0.0
 40
2.0
100
AcDbArc
 50
90.0
 51
178.9999999999982
  0
LINE
  5
10D5
330
2
100
AcDbEntity
  8
0
100
AcDbLine
 10
697.4866574830997
 20
385.6000100928854
 30
0.0
 11
697.3716319282161
 21
379.0102004671362
 31
0.0
  0
ARC
  5
10D6
330
2
100
AcDbEntity
  8
0
100
AcDbCircle
 10
658.8268789675497
 20
371.0651052800108
 30
0.0
 40
3.0
100
AcDbArc
 50
181.0000000000148
 51
270.0
  0
ARC
  5
10D7
330
2
100
AcDbEntity
  8
0
100
AcDbCircle
 10
656.2013151320065
 20
389.5651052800104
 30
0.0
 40
2.0
100
AcDbArc
 50
228.5903778907129
 51
270.0
  0
LINE
  5
10D8
330
2
100
AcDbEntity
  8
0
100
AcDbLine
 10
691.5719592552862
 20
386.6174591766253
 30
0.0
 11
691.7386249943687
 21
380.2527513833948
 31
0.0
  0
LINE
  5
10D9
330
2
100
AcDbEntity
  8
0
100
AcDbLine
 10
692.1342711015062
 20
365.1436361249344
 30
0.0
 11
692.2769637840215
 21
359.6944224267185
 31
0.0
  0
ARC
  5
10DA
330
2
100
AcDbEntity
  8
0
100
AcDbCircle
 10
689.5726446053325
 20
386.5651052800103
 30
0.0
 40
2.0
100
AcDbArc
 50
1.500000000015846
 51
90.0
  0
LINE
  5
10DB
330
2
100
AcDbEntity
  8
0
100
AcDbLine
 10
691.5719592552845
 20
288.5127513833954
 30
0.0
 11
691.7386249943696
 21
294.8774591766264
 31
0.0
  0
ARC
  5
10DC
330
2
100
AcDbEntity
  8
0
100
AcDbCircle
 10
693.7376777851053
 20
294.8151052800104
 30
0.0
 40
2.0
100
AcDbArc
 50
90.0
 51
178.4999999999841
  0
LINE
  5
10DD
330
2
100
AcDbEntity
  8
0
100
AcDbLine
 10
692.1342711015071
 20
309.9865744350878
 30
0.0
 11
692.856440347205
 21
337.5651052800108
 31
0.0
  0
ARC
  5
10DE
330
2
100
AcDbEntity
  8
0
100
AcDbCircle
 10
689.1352991265806
 20
310.0651052800113
 30
0.0
 40
3.0
100
AcDbArc
 50
270.0
 51
358.4999999999972
  0
ARC
  5
10DF
330
2
100
AcDbEntity
  8
0
100
AcDbCircle
 10
689.5726446053325
 20
288.5651052800113
 30
0.0
 40
2.0
100
AcDbArc
 50
270.0
 51
358.4999999999841
  0
LINE
  5
10E0
330
2
100
AcDbEntity
  8
0
100
AcDbLine
 10
689.1352991265806
 20
307.0651052800108
 30
0.0
 11
658.8268789675506
 21
307.0651052800113
 31
0.0
  0
LINE
  5
10E1
330
2
100
AcDbEntity
  8
0
100
AcDbLine
 10
663.2709775952399
 20
296.8151052800131
 30
0.0
 11
693.7376777851053
 21
296.8151052800108
 31
0.0
  0
LINE
  5
10E2
330
2
100
AcDbEntity
  8
0
100
AcDbLine
 10
690.6573999967035
 20
329.9640609564194
 30
0.0
 11
659.2784899363254
 21
329.9640609564194
 31
0.0
  0
LINE
  5
10E3
330
2
100
AcDbEntity
  8
0
100
AcDbLine
 10
656.2013151320065
 20
287.5651052800108
 30
0.0
 11
689.5988305269014
 21
287.5651052800104
 31
0.0
  0
ARC
  5
10E4
330
2
100
AcDbEntity
  8
0
100
AcDbCircle
 10
689.5988305269014
 20
289.5651052800104
 30
0.0
 40
2.0
100
AcDbArc
 50
270.0
 51
358.5000000000102
  0
ARC
  5
10E5
330
2
100
AcDbEntity
  8
0
100
AcDbCircle
 10
656.2013151320065
 20
285.5651052800108
 30
0.0
 40
2.0
100
AcDbArc
 50
90.0
 51
131.409622109287
  0
ARC
  5
10E6
330
2
100
AcDbEntity
  8
0
100
AcDbCircle
 10
695.3719365379032
 20
379.0451052800108
 30
0.0
 40
2.0
100
AcDbArc
 50
270.0
 51
358.9999999999982
  0
LINE
  5
10E7
330
2
100
AcDbEntity
  8
0
100
AcDbLine
 10
19.4562599001631
 20
388.565105280014
 30
0.0
 11
-28.09542635799676
 21
388.5651052800145
 31
0.0
  0
LINE
  5
10E8
330
2
100
AcDbEntity
  8
CENTER
100
AcDbLine
 10
-75.04374009984053
 20
337.565105280014
 30
0.0
 11
176.4562819001614
 21
337.565105280014
 31
0.0
  0
LINE
  5
10E9
330
2
100
AcDbEntity
  8
0
100
AcDbLine
 10
-30.68949141090593
 20
287.565105280014
 30
0.0
 11
-65.04374009984053
 21
287.565105280014
 31
0.0
  0
ARC
  5
10EA
330
2
100
AcDbEntity
  8
0
100
AcDbCircle
 10
-52.00913462606308
 20
289.565105280014
 30
0.0
 40
2.0
100
AcDbArc
 50
270.0
 51
358.9999999999982
  0
LINE
  5
10EB
330
2
100
AcDbEntity
  8
0
100
AcDbLine
 10
-65.04374009984053
 20
387.5651052800138
 30
0.0
 11
-65.04374009984053
 21
287.5651052800142
 31
0.0
  0
LINE
  5
10EC
330
2
100
AcDbEntity
  8
0
100
AcDbLine
 10
19.4562599001631
 20
388.565105280014
 30
0.0
 11
19.4562599001631
 21
286.565105280014
 31
0.0
  0
LINE
  5
10ED
330
2
100
AcDbEntity
  8
0
100
AcDbLine
 10
19.4562599001631
 20
337.565105280014
 30
0.0
 11
-65.04374009984053
 21
337.565105280014
 31
0.0
  0
LINE
  5
10EE
330
2
100
AcDbEntity
  8
0
100
AcDbLine
 10
-49.17098685342421
 20
337.5651052800136
 30
0.0
 11
-50.00943923575028
 21
289.5302004671398
 31
0.0
  0
LINE
  5
10EF
330
2
100
AcDbEntity
  8
CENTER
100
AcDbLine
 10
-46.54374009984053
 20
395.065105280014
 30
0.0
 11
-46.54374009984053
 21
380.2812542210722
 31
0.0
  0
LINE
  5
10F0
330
2
100
AcDbEntity
  8
0
100
AcDbLine
 10
-30.68949141090593
 20
387.5651052800136
 30
0.0
 11
-65.04374009984053
 21
387.5651052800138
 31
0.0
  0
LINE
  5
10F1
330
2
100
AcDbEntity
  8
0
100
AcDbLine
 10
19.4562599001631
 20
286.5651052800131
 30
0.0
 11
-28.09542635799676
 21
286.5651052800131
 31
0.0
  0
ARC
  5
10F2
330
2
100
AcDbEntity
  8
0
100
AcDbCircle
 10
-52.00913462606308
 20
385.5651052800136
 30
0.0
 40
2.0
100
AcDbArc
 50
1.000000000001766
 51
90.0
  0
LINE
  5
10F3
330
2
100
AcDbEntity
  8
0
100
AcDbLine
 10
-49.17098685342421
 20
337.5651052800145
 30
0.0
 11
-50.00943923575028
 21
385.6000100928882
 31
0.0
  0
LINE
  5
10F4
330
2
100
AcDbEntity
  8
0
100
AcDbLine
 10
5.066051588823256
 20
337.5651052800136
 30
0.0
 11
5.921959036081034
 21
288.5302004671385
 31
0.0
  0
ARC
  5
10F5
330
2
100
AcDbEntity
  8
0
100
AcDbCircle
 10
7.921654426394752
 20
288.5651052800131
 30
0.0
 40
2.0
100
AcDbArc
 50
181.0000000000017
 51
270.0
  0
LINE
  5
10F6
330
2
100
AcDbEntity
  8
0
100
AcDbLine
 10
5.066051588823256
 20
337.565105280014
 30
0.0
 11
5.921959036081034
 21
386.6000100928891
 31
0.0
  0
ARC
  5
10F7
330
2
100
AcDbEntity
  8
0
100
AcDbCircle
 10
7.921654426394752
 20
386.5651052800145
 30
0.0
 40
2.0
100
AcDbArc
 50
90.0
 51
178.9999999999982
  0
ARC
  5
10F8
330
2
100
AcDbEntity
  8
0
100
AcDbCircle
 10
-30.74117766906124
 20
389.5651052800136
 30
0.0
 40
2.0
100
AcDbArc
 50
270.0
 51
311.4096221092689
  0
ARC
  5
10F9
330
2
100
AcDbEntity
  8
0
100
AcDbCircle
 10
-30.74117766906124
 20
285.5651052800144
 30
0.0
 40
2.0
100
AcDbArc
 50
48.59037789072297
 51
90.0
  0
LINE
  5
10FA
330
2
100
AcDbEntity
  8
0
100
AcDbLine
 10
5.275903115329356
 20
387.565105280014
 30
0.0
 11
-28.12161227956562
 21
387.5651052800145
 31
0.0
  0
ARC
  5
10FB
330
2
100
AcDbEntity
  8
0
100
AcDbCircle
 10
-28.12161227956562
 20
385.5651052800144
 30
0.0
 40
2.0
100
AcDbArc
 50
90.0
 51
178.4999999999973
  0
LINE
  5
10FC
330
2
100
AcDbEntity
  8
0
100
AcDbLine
 10
-1.793759347908462
 20
378.3151052800117
 30
0.0
 11
-32.2604595377677
 21
378.3151052800135
 31
0.0
  0
ARC
  5
10FD
330
2
100
AcDbEntity
  8
0
100
AcDbCircle
 10
-32.2604595377677
 20
380.315105280014
 30
0.0
 40
2.0
100
AcDbArc
 50
270.0
 51
358.5000000000103
  0
LINE
  5
10FE
330
2
100
AcDbEntity
  8
0
100
AcDbLine
 10
-27.65808087924301
 20
368.065105280014
 30
0.0
 11
2.650339279786066
 21
368.065105280014
 31
0.0
  0
ARC
  5
10FF
330
2
100
AcDbEntity
  8
0
100
AcDbCircle
 10
-27.65808087924301
 20
365.065105280014
 30
0.0
 40
3.0
100
AcDbArc
 50
90.0
 51
178.4999999999973
  0
ARC
  5
1100
330
2
100
AcDbEntity
  8
0
100
AcDbCircle
 10
-38.00913462607672
 20
289.565105280014
 30
0.0
 40
2.0
100
AcDbArc
 50
270.0
 51
358.9999999999852
  0
LINE
  5
1101
330
2
100
AcDbEntity
  8
0
100
AcDbLine
 10
-33.89471829056742
 20
298.0851052800135
 30
0.0
 11
-45.73210442299
 21
298.0851052800135
 31
0.0
  0
ARC
  5
1102
330
2
100
AcDbEntity
  8
0
100
AcDbCircle
 10
-33.89471829056742
 20
296.0851052800135
 30
0.0
 40
2.0
100
AcDbArc
 50
90.0
 51
178.9999999999851
  0
ARC
  5
1103
330
2
100
AcDbEntity
  8
0
100
AcDbCircle
 10
2.650339279785157
 20
304.0651052800145
 30
0.0
 40
3.0
100
AcDbArc
 50
1.000000000001766
 51
90.0
  0
LINE
  5
1104
330
2
100
AcDbEntity
  8
0
100
AcDbLine
 10
-36.00943923576392
 20
289.5302004671389
 30
0.0
 11
-35.89441368088023
 21
296.1200100928886
 31
0.0
  0
ARC
  5
1105
330
2
100
AcDbEntity
  8
0
100
AcDbCircle
 10
2.650339279786066
 20
371.065105280014
 30
0.0
 40
3.0
100
AcDbArc
 50
270.0
 51
358.9999999999852
  0
ARC
  5
1106
330
2
100
AcDbEntity
  8
0
100
AcDbCircle
 10
5.275903115329356
 20
389.5651052800136
 30
0.0
 40
2.0
100
AcDbArc
 50
270.0
 51
311.4096221092868
  0
LINE
  5
1107
330
2
100
AcDbEntity
  8
0
100
AcDbLine
 10
-30.09474100795046
 20
386.6174591766285
 30
0.0
 11
-30.26140674703288
 21
380.2527513833979
 31
0.0
  0
LINE
  5
1108
330
2
100
AcDbEntity
  8
0
100
AcDbLine
 10
-30.65705285417038
 20
365.1436361249376
 30
0.0
 11
-31.37922209986914
 21
337.565105280014
 31
0.0
  0
ARC
  5
1109
330
2
100
AcDbEntity
  8
0
100
AcDbCircle
 10
-28.09542635799676
 20
386.5651052800135
 30
0.0
 40
2.0
100
AcDbArc
 50
90.0
 51
178.4999999999843
  0
LINE
  5
110A
330
2
100
AcDbEntity
  8
0
100
AcDbLine
 10
-30.09474100794864
 20
288.5127513833986
 30
0.0
 11
-30.26140674703379
 21
294.8774591766296
 31
0.0
  0
ARC
  5
110B
330
2
100
AcDbEntity
  8
0
100
AcDbCircle
 10
-32.26045953776952
 20
294.8151052800136
 30
0.0
 40
2.0
100
AcDbArc
 50
1.50000000000265
 51
90.0
  0
LINE
  5
110C
330
2
100
AcDbEntity
  8
0
100
AcDbLine
 10
-30.65705285417129
 20
309.9865744350909
 30
0.0
 11
-31.37922209986914
 21
337.565105280014
 31
0.0
  0
ARC
  5
110D
330
2
100
AcDbEntity
  8
0
100
AcDbCircle
 10
-27.65808087924483
 20
310.0651052800145
 30
0.0
 40
3.0
100
AcDbArc
 50
181.5000000000026
 51
270.0
  0
ARC
  5
110E
330
2
100
AcDbEntity
  8
0
100
AcDbCircle
 10
-28.09542635799676
 20
288.5651052800145
 30
0.0
 40
2.0
100
AcDbArc
 50
181.5000000000156
 51
270.0
  0
LINE
  5
110F
330
2
100
AcDbEntity
  8
0
100
AcDbLine
 10
-27.65808087924483
 20
307.065105280014
 30
0.0
 11
2.650339279785157
 21
307.0651052800144
 31
0.0
  0
LINE
  5
1110
330
2
100
AcDbEntity
  8
0
100
AcDbLine
 10
-1.793759347904142
 20
296.8151052800158
 30
0.0
 11
-32.26045953776952
 21
296.815105280014
 31
0.0
  0
LINE
  5
1111
330
2
100
AcDbEntity
  8
0
100
AcDbLine
 10
-29.18018174936765
 20
345.1661496036054
 30
0.0
 11
2.198728311010427
 21
345.1661496036054
 31
0.0
  0
LINE
  5
1112
330
2
100
AcDbEntity
  8
0
100
AcDbLine
 10
-29.18018174936765
 20
329.9640609564226
 30
0.0
 11
2.198728311010427
 21
329.9640609564226
 31
0.0
  0
LINE
  5
1113
330
2
100
AcDbEntity
  8
0
100
AcDbLine
 10
5.275903115329356
 20
287.565105280014
 30
0.0
 11
-28.12161227956562
 21
287.5651052800136
 31
0.0
  0
ARC
  5
1114
330
2
100
AcDbEntity
  8
0
100
AcDbCircle
 10
-28.12161227956562
 20
289.5651052800136
 30
0.0
 40
2.0
100
AcDbArc
 50
181.4999999999896
 51
270.0
  0
ARC
  5
1115
330
2
100
AcDbEntity
  8
0
100
AcDbCircle
 10
5.275903115329356
 20
285.565105280014
 30
0.0
 40
2.0
100
AcDbArc
 50
48.59037789071322
 51
90.0
  0
ARC
  5
1119
330
2
100
AcDbEntity
  8
0
100
AcDbCircle
 10
231.2892924557447
 20
380.565105280009
 30
0.0
 40
8.0
100
AcDbArc
 50
134.6047454893962
 51
179.4382946674161
  0
LINE
  5
111B
330
2
100
AcDbEntity
  8
CENTER
100
AcDbLine
 10
294.3673393702585
 20
396.5651052799936
 30
0.0
 11
294.3673393702585
 21
379.8891433043896
 31
0.0
  0
LINE
  5
111C
330
2
100
AcDbEntity
  8
0
100
AcDbLine
 10
223.2896768955435
 20
380.643532883541
 30
0.0
 11
222.8673393700203
 21
337.5651052800107
 31
0.0
  0
ARC
  5
111F
330
2
100
AcDbEntity
  8
0
100
AcDbCircle
 10
231.2892924557447
 20
294.5651052800136
 30
0.0
 40
8.0
100
AcDbArc
 50
180.5617053325577
 51
225.3952545026029
  0
LINE
  5
1120
330
2
100
AcDbEntity
  8
0
100
AcDbLine
 10
223.2896768955435
 20
294.4866776764817
 30
0.0
 11
222.8673393700204
 21
337.5651052800108
 31
0.0
  0
LINE
  5
1133
330
2
100
AcDbEntity
  8
0
100
AcDbLine
 10
896.5136768778368
 20
387.5651052800118
 30
0.0
 11
980.2692624013463
 21
387.5651052800118
 31
0.0
  0
ARC
  5
1134
330
2
100
AcDbEntity
  8
0
100
AcDbCircle
 10
980.2692624013463
 20
379.5651052800118
 30
0.0
 40
8.0
100
AcDbArc
 50
0.1666666660107272
 51
90.0
  0
LINE
  5
1136
330
2
100
AcDbEntity
  8
0
100
AcDbLine
 10
896.5136768778368
 20
287.565105280011
 30
0.0
 11
980.2692624013463
 21
287.5651052800118
 31
0.0
  0
LINE
  5
1137
330
2
100
AcDbEntity
  8
0
100
AcDbLine
 10
895.3134227253151
 20
388.5651052800119
 30
0.0
 11
909.5184862931469
 21
388.5651052800119
 31
0.0
  0
LINE
  5
1138
330
2
100
AcDbEntity
  8
0
100
AcDbLine
 10
927.2644529855615
 20
388.5651052800119
 30
0.0
 11
981.4695165538662
 21
388.5651052800114
 31
0.0
  0
LINE
  5
1139
330
2
100
AcDbEntity
  8
0
100
AcDbLine
 10
895.3134227253151
 20
286.5651052800109
 30
0.0
 11
981.4695165538662
 21
286.5651052800114
 31
0.0
  0
LINE
  5
113C
330
2
100
AcDbEntity
  8
0
100
AcDbLine
 10
988.2692285549921
 20
379.5883763037934
 30
0.0
 11
988.3914696395924
 21
337.565105280011
 31
0.0
  0
ARC
  5
113D
330
2
100
AcDbEntity
  8
0
100
AcDbCircle
 10
981.4695165538662
 20
380.5651052800091
 30
0.0
 40
7.999999999999998
100
AcDbArc
 50
0.5617053325837905
 51
90.0
  0
LINE
  5
113E
330
2
100
AcDbEntity
  8
0
100
AcDbLine
 10
989.4691321140683
 20
380.6435328835402
 30
0.0
 11
989.8914696395907
 21
337.565105280011
 31
0.0
  0
ARC
  5
113F
330
2
100
AcDbEntity
  8
0
100
AcDbCircle
 10
895.3134227253151
 20
380.5651052800091
 30
0.0
 40
7.999999999999998
100
AcDbArc
 50
90.0
 51
179.4382946674161
  0
LINE
  5
1140
330
2
100
AcDbEntity
  8
0
100
AcDbLine
 10
887.3138071651149
 20
380.6435328835402
 30
0.0
 11
886.8914696395906
 21
337.565105280011
 31
0.0
  0
ARC
  5
1141
330
2
100
AcDbEntity
  8
0
100
AcDbCircle
 10
981.4695165538662
 20
294.5651052800137
 30
0.0
 40
7.999999999999998
100
AcDbArc
 50
270.0
 51
359.4382946674422
  0
ARC
  5
1142
330
2
100
AcDbEntity
  8
0
100
AcDbCircle
 10
896.5136768778368
 20
295.5651052800091
 30
0.0
 40
7.999999999999998
100
AcDbArc
 50
180.1666666660107
 51
270.0
  0
LINE
  5
1143
330
2
100
AcDbEntity
  8
0
100
AcDbLine
 10
989.4691321140701
 20
294.4866776764826
 30
0.0
 11
989.8914696395907
 21
337.5651052800118
 31
0.0
  0
ARC
  5
1144
330
2
100
AcDbEntity
  8
0
100
AcDbCircle
 10
895.3134227253151
 20
294.5651052800137
 30
0.0
 40
7.999999999999998
100
AcDbArc
 50
180.5617053325577
 51
270.0
  0
LINE
  5
1145
330
2
100
AcDbEntity
  8
0
100
AcDbLine
 10
887.3138071651121
 20
294.4866776764826
 30
0.0
 11
886.8914696395906
 21
337.5651052800118
 31
0.0
  0
ARC
  5
1146
330
2
100
AcDbEntity
  8
0
100
AcDbCircle
 10
896.5136768778368
 20
379.5651052800118
 30
0.0
 40
7.999999999999998
100
AcDbArc
 50
90.0
 51
179.8333333339892
  0
LINE
  5
1147
330
2
100
AcDbEntity
  8
0
100
AcDbLine
 10
888.5137107241909
 20
379.5883763037934
 30
0.0
 11
888.3914696395907
 21
337.565105280011
 31
0.0
  0
ARC
  5
1148
330
2
100
AcDbEntity
  8
0
100
AcDbCircle
 10
980.2692624013463
 20
295.5651052800091
 30
0.0
 40
8.0
100
AcDbArc
 50
270.0
 51
359.8333333339892
  0
LINE
  5
1149
330
2
100
AcDbEntity
  8
0
100
AcDbLine
 10
988.2692285549921
 20
295.5418342562276
 30
0.0
 11
988.3914696395924
 21
337.56510528001
 31
0.0
  0
LINE
  5
114A
330
2
100
AcDbEntity
  8
0
100
AcDbLine
 10
888.5137107241909
 20
295.5418342562276
 30
0.0
 11
888.3914696395907
 21
337.56510528001
 31
0.0
  0
LINE
  5
114B
330
2
100
AcDbEntity
  8
0
100
AcDbLine
 10
886.8914696395906
 20
337.565105280011
 30
0.0
 11
888.3914696395907
 21
337.56510528001
 31
0.0
  0
LINE
  5
114C
330
2
100
AcDbEntity
  8
0
100
AcDbLine
 10
988.3914696395915
 20
337.5651052795835
 30
0.0
 11
989.8914696395907
 21
337.565105280011
 31
0.0
  0
CIRCLE
  5
114D
330
2
100
AcDbEntity
  8
HOJO
100
AcDbCircle
 10
979.0501095579413
 20
296.9064653617849
 30
0.0
 40
3.0
  0
CIRCLE
  5
114E
330
2
100
AcDbEntity
  8
0
100
AcDbCircle
 10
979.0501095579413
 20
296.9064653617849
 30
0.0
 40
2.5
  0
CIRCLE
  5
114F
330
2
100
AcDbEntity
  8
HOJO
100
AcDbCircle
 10
979.0501095579413
 20
378.2237451982379
 30
0.0
 40
3.0
  0
CIRCLE
  5
1150
330
2
100
AcDbEntity
  8
0
100
AcDbCircle
 10
979.0501095579413
 20
378.2237451982379
 30
0.0
 40
2.5
  0
CIRCLE
  5
1151
330
2
100
AcDbEntity
  8
HOJO
100
AcDbCircle
 10
897.7328297214892
 20
378.2237451982388
 30
0.0
 40
3.0
  0
CIRCLE
  5
1152
330
2
100
AcDbEntity
  8
0
100
AcDbCircle
 10
897.7328297214892
 20
378.2237451982388
 30
0.0
 40
2.5
  0
CIRCLE
  5
1153
330
2
100
AcDbEntity
  8
HOJO
100
AcDbCircle
 10
897.7328297214892
 20
296.9064653617849
 30
0.0
 40
3.0
  0
CIRCLE
  5
1154
330
2
100
AcDbEntity
  8
0
100
AcDbCircle
 10
897.7328297214892
 20
296.9064653617849
 30
0.0
 40
2.5
  0
LINE
  5
1155
330
2
100
AcDbEntity
  8
CENTER
100
AcDbLine
 10
979.0501095579413
 20
385.4438655515443
 30
0.0
 11
979.0501095579413
 21
371.0036248449311
 31
0.0
  0
LINE
  5
1156
330
2
100
AcDbEntity
  8
CENTER
100
AcDbLine
 10
971.8299892046347
 20
378.2237451982379
 30
0.0
 11
986.2702299112479
 21
378.2237451982379
 31
0.0
  0
LINE
  5
1157
330
2
100
AcDbEntity
  8
CENTER
100
AcDbLine
 10
979.0501095579413
 20
304.1265857150912
 30
0.0
 11
979.0501095579413
 21
289.6863450084781
 31
0.0
  0
LINE
  5
1158
330
2
100
AcDbEntity
  8
CENTER
100
AcDbLine
 10
971.8299892046347
 20
296.9064653617849
 30
0.0
 11
986.2702299112479
 21
296.9064653617849
 31
0.0
  0
LINE
  5
1159
330
2
100
AcDbEntity
  8
CENTER
100
AcDbLine
 10
897.7328297214892
 20
304.1265857150912
 30
0.0
 11
897.7328297214892
 21
289.6863450084781
 31
0.0
  0
LINE
  5
115A
330
2
100
AcDbEntity
  8
CENTER
100
AcDbLine
 10
890.5127093681826
 20
296.9064653617849
 30
0.0
 11
904.9529500747958
 21
296.9064653617849
 31
0.0
  0
LINE
  5
115B
330
2
100
AcDbEntity
  8
CENTER
100
AcDbLine
 10
897.7328297214892
 20
385.4438655515452
 30
0.0
 11
897.7328297214892
 21
371.003624844932
 31
0.0
  0
LINE
  5
115C
330
2
100
AcDbEntity
  8
CENTER
100
AcDbLine
 10
890.5127093681826
 20
378.2237451982388
 30
0.0
 11
904.9529500747958
 21
378.2237451982388
 31
0.0
  0
CIRCLE
  5
115D
330
2
100
AcDbEntity
  8
CENTER
100
AcDbCircle
 10
938.3914696392251
 20
337.5651052800118
 30
0.0
 40
57.50000000034606
  0
CIRCLE
  5
115E
330
2
100
AcDbEntity
  8
0
100
AcDbCircle
 10
938.3914696395907
 20
337.565105280011
 30
0.0
 40
45.24999999999969
  0
CIRCLE
  5
115F
330
2
100
AcDbEntity
  8
0
100
AcDbCircle
 10
938.3914696395907
 20
337.565105280011
 30
0.0
 40
46.25000000000483
  0
ARC
  5
1160
330
2
100
AcDbEntity
  8
0
100
AcDbCircle
 10
938.3914696395907
 20
337.565105280011
 30
0.0
 40
51.00000000000182
100
AcDbArc
 50
351.5815174228204
 51
8.418482577154131
  0
ARC
  5
1161
330
2
100
AcDbEntity
  8
0
100
AcDbCircle
 10
938.3914696395907
 20
337.565105280011
 30
0.0
 40
51.00000000000182
100
AcDbArc
 50
78.8523089815563
 51
101.1476910177001
  0
ARC
  5
1162
330
2
100
AcDbEntity
  8
0
100
AcDbCircle
 10
938.3914696405692
 20
337.565105280011
 30
0.0
 40
51.00000000000182
100
AcDbArc
 50
171.5815174267058
 51
188.4184825733086
  0
ARC
  5
1163
330
2
100
AcDbEntity
  8
0
100
AcDbCircle
 10
885.9625362786403
 20
329.8057917452685
 30
0.0
 40
2.0
100
AcDbArc
 50
0.5617053325707601
 51
8.41848257330869
  0
ARC
  5
1164
330
2
100
AcDbEntity
  8
0
100
AcDbCircle
 10
885.9625362786385
 20
345.3244188147375
 30
0.0
 40
2.0
100
AcDbArc
 50
351.5815174267194
 51
359.4382946674292
  0
ARC
  5
1165
330
2
100
AcDbEntity
  8
0
100
AcDbCircle
 10
938.3914696395907
 20
337.565105280011
 30
0.0
 40
51.00000000000182
100
AcDbArc
 50
258.8523089815563
 51
281.1476910184436
  0
LINE
  5
1166
330
2
100
AcDbEntity
  8
0
100
AcDbLine
 10
988.6458980264899
 20
363.1141225322163
 30
0.0
 11
988.8204991109471
 21
345.3048119173947
 31
0.0
  0
ARC
  5
1167
330
2
100
AcDbEntity
  8
0
100
AcDbCircle
 10
983.646138301364
 20
363.0651052800096
 30
0.0
 40
5.0
100
AcDbArc
 50
0.5617053325707601
 51
21.06305256739147
  0
LINE
  5
1168
330
2
100
AcDbEntity
  8
0
100
AcDbLine
 10
988.645898026489
 20
312.0160880280493
 30
0.0
 11
988.8204991109434
 21
329.8253986426113
 31
0.0
  0
ARC
  5
1169
330
2
100
AcDbEntity
  8
0
100
AcDbCircle
 10
983.6461383013631
 20
312.0651052802561
 30
0.0
 40
5.0
100
AcDbArc
 50
338.936947432704
 51
359.4382946674422
  0
ARC
  5
116A
330
2
100
AcDbEntity
  8
0
100
AcDbCircle
 10
893.1368009783074
 20
363.0651052800096
 30
0.0
 40
5.0
100
AcDbArc
 50
158.9369474248196
 51
179.4382946674292
  0
LINE
  5
116B
330
2
100
AcDbEntity
  8
0
100
AcDbLine
 10
888.1370412531817
 20
363.1141225322163
 30
0.0
 11
887.9624401687236
 21
345.3048119173951
 31
0.0
  0
LINE
  5
116C
330
2
100
AcDbEntity
  8
0
100
AcDbLine
 10
888.1370412531826
 20
312.0160880280493
 30
0.0
 11
887.9624401686918
 21
329.8253986461515
 31
0.0
  0
ARC
  5
116D
330
2
100
AcDbEntity
  8
0
100
AcDbCircle
 10
893.1368009783083
 20
312.0651052802561
 30
0.0
 40
5.0
100
AcDbArc
 50
180.5617053325707
 51
201.0630525751271
  0
ARC
  5
116E
330
2
100
AcDbEntity
  8
HIDS
  6
SEKKEI_H
100
AcDbCircle
 10
963.9779833241112
 20
382.5651052800118
 30
0.0
 40
5.0
100
AcDbArc
 50
0.9999999999757138
 51
90.0
  0
ARC
  5
116F
330
2
100
AcDbEntity
  8
HIDS
  6
SEKKEI_H
100
AcDbCircle
 10
912.8049559550738
 20
382.5651052800118
 30
0.0
 40
5.0
100
AcDbArc
 50
90.0
 51
179.0000000000242
  0
ARC
  5
1170
330
2
100
AcDbEntity
  8
HIDS
  6
SEKKEI_H
100
AcDbCircle
 10
963.9779833241112
 20
292.5651052800119
 30
0.0
 40
5.0
100
AcDbArc
 50
270.0
 51
359.0000000000112
  0
ARC
  5
1171
330
2
100
AcDbEntity
  8
HIDS
  6
SEKKEI_H
100
AcDbCircle
 10
938.3914696392251
 20
337.5651052800118
 30
0.0
 40
51.00000000000182
100
AcDbArc
 50
39.34056383566639
 51
50.50150115181025
  0
ARC
  5
1172
330
2
100
AcDbEntity
  8
HIDS
  6
SEKKEI_H
100
AcDbCircle
 10
938.3914696392251
 20
337.5651052800118
 30
0.0
 40
51.00000000000182
100
AcDbArc
 50
129.4984988475956
 51
140.6594361640163
  0
ARC
  5
1173
330
2
100
AcDbEntity
  8
HIDS
  6
SEKKEI_H
100
AcDbCircle
 10
938.3914696392251
 20
337.5651052800118
 30
0.0
 40
51.00000000000182
100
AcDbArc
 50
219.3405638357986
 51
230.5015011524038
  0
ARC
  5
1174
330
2
100
AcDbEntity
  8
HIDS
  6
SEKKEI_H
100
AcDbCircle
 10
938.3914696392251
 20
337.5651052800118
 30
0.0
 40
51.00000000000182
100
AcDbArc
 50
309.4984988481865
 51
320.6594361645185
  0
LINE
  5
1175
330
2
100
AcDbEntity
  8
HIDS
  6
SEKKEI_H
100
AcDbLine
 10
923.965958208104
 20
377.0100621176699
 30
0.0
 11
924.1501971718184
 21
387.5651052800091
 31
0.0
  0
ARC
  5
1176
330
2
100
AcDbEntity
  8
HIDS
  6
SEKKEI_H
100
AcDbCircle
 10
909.8568641657122
 20
385.5651052799937
 30
0.0
 40
2.0
100
AcDbArc
 50
90.0
 51
178.99999999992
  0
LINE
  5
1177
330
2
100
AcDbEntity
  8
HIDS
  6
SEKKEI_H
100
AcDbLine
 10
907.7483547602543
 20
379.3660593394067
 30
0.0
 11
907.8571687754131
 21
385.6000100928683
 31
0.0
  0
ARC
  5
1178
330
2
100
AcDbEntity
  8
HIDS
  6
SEKKEI_H
100
AcDbCircle
 10
974.0338229944766
 20
295.6768891888547
 30
0.0
 40
5.0
100
AcDbArc
 50
130.3941985232507
 51
178.9999999999982
  0
ARC
  5
1179
330
2
100
AcDbEntity
  8
HIDS
  6
SEKKEI_H
100
AcDbCircle
 10
902.749116284472
 20
379.4533213715919
 30
0.0
 40
5.0
100
AcDbArc
 50
310.3941985225017
 51
358.9999999999982
  0
ARC
  5
117A
330
2
100
AcDbEntity
  8
HIDS
  6
SEKKEI_H
100
AcDbCircle
 10
966.926075113229
 20
289.5651052800118
 30
0.0
 40
2.0
100
AcDbArc
 50
270.0
 51
358.99999999992
  0
LINE
  5
117B
330
2
100
AcDbEntity
  8
HIDS
  6
SEKKEI_H
100
AcDbLine
 10
969.0345845186941
 20
295.7641512210381
 30
0.0
 11
968.9257705035281
 21
289.5302004671372
 31
0.0
  0
LINE
  5
117C
330
2
100
AcDbEntity
  8
HIDS
  6
SEKKEI_H
100
AcDbLine
 10
909.8568641657122
 20
387.5651052800118
 30
0.0
 11
938.3914696392251
 21
387.5651052800118
 31
0.0
  0
LINE
  5
117D
330
2
100
AcDbEntity
  8
HIDS
  6
SEKKEI_H
100
AcDbLine
 10
938.3914696392251
 20
287.5651052800118
 30
0.0
 11
966.926075113229
 21
287.5651052800118
 31
0.0
  0
LINE
  5
117E
330
2
100
AcDbEntity
  8
HIDS
  6
SEKKEI_H
100
AcDbLine
 10
912.9225551392407
 20
370.9617277762842
 30
0.0
 11
912.6327421068879
 21
387.5651052800091
 31
0.0
  0
LINE
  5
117F
330
2
100
AcDbEntity
  8
HIDS
  6
SEKKEI_H
100
AcDbLine
 10
966.9260751134727
 20
387.5651052800118
 30
0.0
 11
938.3914696399591
 21
387.5651052800118
 31
0.0
  0
LINE
  5
1180
330
2
100
AcDbEntity
  8
HIDS
  6
SEKKEI_H
100
AcDbLine
 10
964.9606805872265
 20
387.5651052800091
 30
0.0
 11
948.6384204051958
 21
387.5651052800091
 31
0.0
  0
ARC
  5
1181
330
2
100
AcDbEntity
  8
HIDS
  6
SEKKEI_H
100
AcDbCircle
 10
974.0107178331621
 20
380.7770151903443
 30
0.0
 40
5.000000000000001
100
AcDbArc
 50
180.9999999999887
 51
230.5015011518102
  0
ARC
  5
1182
330
2
100
AcDbEntity
  8
HIDS
  6
SEKKEI_H
100
AcDbCircle
 10
981.7013992166323
 20
373.065105280011
 30
0.0
 40
5.000000000000001
100
AcDbArc
 50
219.3405638357132
 51
270.0
  0
LINE
  5
1183
330
2
100
AcDbEntity
  8
HIDS
  6
SEKKEI_H
100
AcDbLine
 10
981.7013992166323
 20
368.0651052800105
 30
0.0
 11
983.6461383009984
 21
368.0651052800105
 31
0.0
  0
LINE
  5
1184
330
2
100
AcDbEntity
  8
HIDS
  6
SEKKEI_H
100
AcDbLine
 10
969.0114793573796
 20
380.6897531581591
 30
0.0
 11
968.9772217998935
 21
382.6523673121966
 31
0.0
  0
ARC
  5
1185
330
2
100
AcDbEntity
  8
HIDS
  6
SEKKEI_H
100
AcDbCircle
 10
983.6461383009984
 20
363.0651052800105
 30
0.0
 40
5.0
100
AcDbArc
 50
21.06305256739147
 51
90.0
  0
LINE
  5
1186
330
2
100
AcDbEntity
  8
HIDS
  6
SEKKEI_H
100
AcDbLine
 10
911.8222586919566
 20
387.5651052800091
 30
0.0
 11
928.1445188739875
 21
387.5651052800091
 31
0.0
  0
ARC
  5
1187
330
2
100
AcDbEntity
  8
HIDS
  6
SEKKEI_H
100
AcDbCircle
 10
902.7722214460212
 20
380.7770151903443
 30
0.0
 40
5.000000000000001
100
AcDbArc
 50
309.4984988482067
 51
359.0000000000112
  0
LINE
  5
1188
330
2
100
AcDbEntity
  8
HIDS
  6
SEKKEI_H
100
AcDbLine
 10
907.7714599218037
 20
380.6897531581591
 30
0.0
 11
907.8057174792895
 21
382.6523673121966
 31
0.0
  0
ARC
  5
1189
330
2
100
AcDbEntity
  8
HIDS
  6
SEKKEI_H
100
AcDbCircle
 10
981.7013992166323
 20
302.0651052802565
 30
0.0
 40
5.000000000000001
100
AcDbArc
 50
90.0
 51
140.6594361642867
  0
LINE
  5
118A
330
2
100
AcDbEntity
  8
HIDS
  6
SEKKEI_H
100
AcDbLine
 10
981.7013992166323
 20
307.0651052802565
 30
0.0
 11
983.6461383009975
 21
307.065105280257
 31
0.0
  0
ARC
  5
118B
330
2
100
AcDbEntity
  8
HIDS
  6
SEKKEI_H
100
AcDbCircle
 10
983.6461383009975
 20
312.0651052802569
 30
0.0
 40
5.0
100
AcDbArc
 50
270.0
 51
338.936947432704
  0
ARC
  5
118C
330
2
100
AcDbEntity
  8
HIDS
  6
SEKKEI_H
100
AcDbCircle
 10
895.0815400623071
 20
373.065105280011
 30
0.0
 40
5.000000000000001
100
AcDbArc
 50
270.0
 51
320.6594361642867
  0
LINE
  5
118D
330
2
100
AcDbEntity
  8
HIDS
  6
SEKKEI_H
100
AcDbLine
 10
895.0815400623071
 20
368.0651052800105
 30
0.0
 11
893.1368009779419
 21
368.0651052800105
 31
0.0
  0
ARC
  5
118E
330
2
100
AcDbEntity
  8
HIDS
  6
SEKKEI_H
100
AcDbCircle
 10
893.1368009779419
 20
363.0651052800105
 30
0.0
 40
5.0
100
AcDbArc
 50
90.0
 51
158.9369474248196
  0
ARC
  5
118F
330
2
100
AcDbEntity
  8
HIDS
  6
SEKKEI_H
100
AcDbCircle
 10
895.0815400623071
 20
302.0651052802565
 30
0.0
 40
5.000000000000001
100
AcDbArc
 50
39.34056383571327
 51
90.0
  0
LINE
  5
1190
330
2
100
AcDbEntity
  8
HIDS
  6
SEKKEI_H
100
AcDbLine
 10
895.0815400623071
 20
307.0651052802565
 30
0.0
 11
893.1368009779427
 21
307.065105280257
 31
0.0
  0
ARC
  5
1191
330
2
100
AcDbEntity
  8
HIDS
  6
SEKKEI_H
100
AcDbCircle
 10
893.1368009779427
 20
312.0651052802569
 30
0.0
 40
5.0
100
AcDbArc
 50
201.0630525751271
 51
270.0
  0
LINE
  5
1192
330
2
100
AcDbEntity
  8
HIDS
  6
SEKKEI_H
100
AcDbLine
 10
964.9606805872265
 20
287.5651052799959
 30
0.0
 11
948.6384204051958
 21
287.5651052799959
 31
0.0
  0
ARC
  5
1193
330
2
100
AcDbEntity
  8
HIDS
  6
SEKKEI_H
100
AcDbCircle
 10
974.0107178331621
 20
294.3531953696608
 30
0.0
 40
5.000000000000001
100
AcDbArc
 50
129.4984988481897
 51
179.0000000000242
  0
LINE
  5
1194
330
2
100
AcDbEntity
  8
HIDS
  6
SEKKEI_H
100
AcDbLine
 10
969.0114793573796
 20
294.4404574018459
 30
0.0
 11
968.9772217998926
 21
292.4778432478271
 31
0.0
  0
LINE
  5
1195
330
2
100
AcDbEntity
  8
HIDS
  6
SEKKEI_H
100
AcDbLine
 10
911.8222586919575
 20
287.5651052799959
 30
0.0
 11
928.1445188739875
 21
287.5651052799959
 31
0.0
  0
ARC
  5
1196
330
2
100
AcDbEntity
  8
HIDS
  6
SEKKEI_H
100
AcDbCircle
 10
902.7722214460212
 20
294.3531953696608
 30
0.0
 40
5.000000000000001
100
AcDbArc
 50
0.9999999999757138
 51
50.50150115179331
  0
LINE
  5
1197
330
2
100
AcDbEntity
  8
HIDS
  6
SEKKEI_H
100
AcDbLine
 10
907.7714599218037
 20
294.4404574018459
 30
0.0
 11
907.8057174792913
 21
292.4778432478248
 31
0.0
  0
ARC
  5
1198
330
2
100
AcDbEntity
  8
HIDS
  6
SEKKEI_H
100
AcDbCircle
 10
912.8049559550738
 20
292.5651052800109
 30
0.0
 40
5.0
100
AcDbArc
 50
181.0000000000017
 51
270.0
  0
ARC
  5
1199
330
2
100
AcDbEntity
  8
0
100
AcDbCircle
 10
990.8204030002647
 20
345.3244188182781
 30
0.0
 40
2.0
100
AcDbArc
 50
180.5617053325707
 51
188.4184825771541
  0
ARC
  5
119A
330
2
100
AcDbEntity
  8
0
100
AcDbCircle
 10
990.8204030002627
 20
329.8057917417297
 30
0.0
 40
2.0
100
AcDbArc
 50
171.5815174228204
 51
179.4382946674292
  0
ARC
  5
119B
330
2
100
AcDbEntity
  8
0
100
AcDbCircle
 10
948.6384204051821
 20
285.5651052801937
 30
0.0
 40
2.0
100
AcDbArc
 50
90.0
 51
101.1476910184436
  0
ARC
  5
119C
330
2
100
AcDbEntity
  8
0
100
AcDbCircle
 10
928.1445188732689
 20
285.5651052801933
 30
0.0
 40
2.0
100
AcDbArc
 50
78.8523089815563
 51
90.0
  0
ARC
  5
119D
330
2
100
AcDbEntity
  8
0
100
AcDbCircle
 10
948.6384204051958
 20
389.5651052801919
 30
0.0
 40
2.0
100
AcDbArc
 50
258.8523089815032
 51
270.0
  0
ARC
  5
119E
330
2
100
AcDbEntity
  8
0
100
AcDbCircle
 10
928.1445188739875
 20
389.5651052801919
 30
0.0
 40
2.0
100
AcDbArc
 50
270.0
 51
281.1476910184968
  0
LINE
  5
119F
330
2
100
AcDbEntity
  8
0
100
AcDbLine
 10
663.2709775952442
 20
378.3151052800086
 30
0.0
 11
693.7376777851035
 21
378.3151052800108
 31
0.0
  0
LINE
  5
11A0
330
2
100
AcDbEntity
  8
CENTER
  6
CENTERX2
100
AcDbLine
 10
652.520958347173
 20
687.3953453308022
 30
0.0
 11
666.020958347174
 21
687.3953453308017
 31
0.0
  0
LINE
  5
11A1
330
2
100
AcDbEntity
  8
CENTER
  6
CENTERX2
100
AcDbLine
 10
8.706240652091537
 20
379.991512151086
 30
0.0
 11
-4.799868620634242
 21
379.9915121510858
 31
0.0
  0
LINE
  5
11A2
330
2
100
AcDbEntity
  8
CENTER
  6
CENTERX2
100
AcDbLine
 10
8.706240652095971
 20
295.1386984086978
 30
0.0
 11
-4.799868620629922
 21
295.1386984086976
 31
0.0
  0
LINE
  5
11A4
330
2
100
AcDbEntity
  8
0
100
AcDbLine
 10
713.0209583471764
 20
391.5651052800104
 30
0.0
 11
703.0209583471763
 21
391.5651052800104
 31
0.0
  0
ARC
  5
11A5
330
2
100
AcDbEntity
  8
0
100
AcDbCircle
 10
703.0209583471763
 20
387.5651052800104
 30
0.0
 40
4.0
100
AcDbArc
 50
90.0
 51
180.0
  0
ARC
  5
11A6
330
2
100
AcDbEntity
  8
0
100
AcDbCircle
 10
713.0209583471764
 20
387.5651052800104
 30
0.0
 40
4.0
100
AcDbArc
 50
0.0
 51
90.0
  0
LINE
  5
11A7
330
2
100
AcDbEntity
  8
0
100
AcDbLine
 10
-41.54374009984053
 20
391.5651052800136
 30
0.0
 11
-51.54374009984053
 21
391.5651052800136
 31
0.0
  0
ARC
  5
11A8
330
2
100
AcDbEntity
  8
0
100
AcDbCircle
 10
-51.54374009984053
 20
387.5651052800136
 30
0.0
 40
4.0
100
AcDbArc
 50
90.0
 51
180.0
  0
ARC
  5
11A9
330
2
100
AcDbEntity
  8
0
100
AcDbCircle
 10
-41.54374009984053
 20
387.5651052800136
 30
0.0
 40
4.0
100
AcDbArc
 50
0.0
 51
90.0
  0
CIRCLE
  5
11AA
330
2
100
AcDbEntity
  8
0
100
AcDbCircle
 10
708.0209583471769
 20
624.968938459609
 30
0.0
 40
9.0
  0
LINE
  5
11AB
330
2
100
AcDbEntity
  8
0
100
AcDbLine
 10
913.3914696393542
 20
391.5651052800109
 30
0.0
 11
923.3914696393542
 21
391.5651052800109
 31
0.0
  0
ARC
  5
11AC
330
2
100
AcDbEntity
  8
0
100
AcDbCircle
 10
923.3914696393542
 20
387.565105280011
 30
0.0
 40
4.0
100
AcDbArc
 50
0.0
 51
90.0
  0
ARC
  5
11AD
330
2
100
AcDbEntity
  8
0
100
AcDbCircle
 10
913.3914696393542
 20
387.565105280011
 30
0.0
 40
4.0
100
AcDbArc
 50
90.0
 51
180.0
  0
LINE
  5
11AE
330
2
100
AcDbEntity
  8
0
100
AcDbLine
 10
696.5209583471761
 20
360.8594488723996
 30
0.0
 11
696.5209583471763
 21
337.5651052800104
 31
0.0
  0
LINE
  5
11AF
330
2
100
AcDbEntity
  8
0
100
AcDbLine
 10
718.5209583471764
 20
337.5651052800108
 30
0.0
 11
718.5209583471759
 21
364.5651052800131
 31
0.0
  0
LINE
  5
11B0
330
2
100
AcDbEntity
  8
0
100
AcDbLine
 10
716.5209583471765
 20
337.5651052800108
 30
0.0
 11
716.5209583471762
 21
349.5651052800131
 31
0.0
  0
LINE
  5
11B1
330
2
100
AcDbEntity
  8
0
100
AcDbLine
 10
698.5209583471761
 20
361.5882290864044
 30
0.0
 11
698.5209583471764
 21
337.5651052800104
 31
0.0
  0
LINE
  5
11B2
330
2
100
AcDbEntity
  8
0
100
AcDbLine
 10
655.0209583471765
 20
337.5651052800104
 30
0.0
 11
655.0209583471764
 21
350.0651052800118
 31
0.0
  0
LINE
  5
11B3
330
2
100
AcDbEntity
  8
0
 48
0.3
100
AcDbLine
 10
675.0209583471769
 20
350.0651052800122
 30
0.0
 11
655.0209583471764
 21
350.0651052800118
 31
0.0
  0
LINE
  5
11B4
330
2
100
AcDbEntity
  8
0
 48
0.3
100
AcDbLine
 10
675.0209583471769
 20
349.5651052800122
 30
0.0
 11
696.5209583471762
 21
349.5651052800127
 31
0.0
  0
LINE
  5
11B5
330
2
100
AcDbEntity
  8
0
100
AcDbLine
 10
675.020958347177
 20
337.5651052800104
 30
0.0
 11
675.0209583471769
 21
350.0651052800122
 31
0.0
  0
LINE
  5
11B6
330
2
100
AcDbEntity
  8
0
100
AcDbLine
 10
702.8661709598142
 20
364.5651052800126
 30
0.0
 11
718.5209583471759
 21
364.5651052800131
 31
0.0
  0
LINE
  5
11B7
330
2
100
AcDbEntity
  8
0
 48
0.3
100
AcDbLine
 10
698.5209583471762
 20
349.5651052800131
 30
0.0
 11
716.5209583471762
 21
349.5651052800131
 31
0.0
  0
LINE
  5
11B8
330
2
100
AcDbEntity
  8
0
 48
0.3
100
AcDbLine
 10
648.3814302514956
 20
337.5651052800118
 30
0.0
 11
655.0209583471764
 21
349.0651052800117
 31
0.0
  0
LINE
  5
11B9
330
2
100
AcDbEntity
  8
0
100
AcDbLine
 10
716.5209583471765
 20
349.565105280009
 30
0.0
 11
718.5209583471766
 21
350.7198058183881
 31
0.0
  0
LINE
  5
11BA
330
2
100
AcDbEntity
  8
0
100
AcDbLine
 10
719.5209583471775
 20
385.0651052800108
 30
0.0
 11
726.5209583471764
 21
385.0651052800108
 31
0.0
  0
LINE
  5
11BB
330
2
100
AcDbEntity
  8
0
100
AcDbLine
 10
718.5209583471794
 20
382.8151052800113
 30
0.0
 11
719.5209583471815
 21
383.8151052800144
 31
0.0
  0
ARC
  5
11BC
330
2
100
AcDbEntity
  8
0
100
AcDbCircle
 10
717.5209583471821
 20
382.2749540563118
 30
0.0
 40
1.0
100
AcDbArc
 50
274.9999999999997
 51
0.0
  0
LINE
  5
11BD
330
2
100
AcDbEntity
  8
0
100
AcDbLine
 10
719.5209583471775
 20
385.0651052800108
 30
0.0
 11
719.5209583471775
 21
337.5651052800108
 31
0.0
  0
LINE
  5
11BE
330
2
100
AcDbEntity
  8
0
100
AcDbLine
 10
718.5209583471794
 20
382.8151052800113
 30
0.0
 11
718.5209583471794
 21
364.5651052800131
 31
0.0
  0
LINE
  5
11BF
330
2
100
AcDbEntity
  8
0
100
AcDbLine
 10
713.6227865352911
 20
380.9300883767513
 30
0.0
 11
717.6081140899298
 21
381.2787593582198
 31
0.0
  0
LINE
  5
11C1
330
2
100
AcDbEntity
  8
CENTER
100
AcDbLine
 10
918.3914696396055
 20
314.6905191918382
 30
0.0
 11
918.3914696393541
 21
395.4524386052623
 31
0.0
  0
LINE
  5
11C2
330
2
100
AcDbEntity
  8
HIDS
  6
SEKKEI_H
100
AcDbLine
 10
913.3115972316309
 20
347.5651052800255
 30
0.0
 11
926.1414696395984
 21
347.5651052800255
 31
0.0
  0
LINE
  5
11C3
330
2
100
AcDbEntity
  8
HIDS
  6
SEKKEI_H
100
AcDbLine
 10
926.1414696395986
 20
347.5651052800255
 30
0.0
 11
926.1414696395984
 21
361.6262253703259
 31
0.0
  0
LINE
  5
11C4
330
2
100
AcDbEntity
  8
HIDS
  6
SEKKEI_H
100
AcDbLine
 10
922.8914696395984
 20
338.3151052800223
 30
0.0
 11
922.8914696395984
 21
347.5651052800255
 31
0.0
  0
LINE
  5
11C5
330
2
100
AcDbEntity
  8
HIDS
  6
SEKKEI_H
100
AcDbLine
 10
913.8914696395985
 20
338.3151052800223
 30
0.0
 11
913.8914696395985
 21
347.5651052800255
 31
0.0
  0
LINE
  5
11C6
330
2
100
AcDbEntity
  8
HIDS
  6
SEKKEI_H
100
AcDbLine
 10
914.9914696395985
 20
324.0951386876365
 30
0.0
 11
914.9914696395985
 21
336.8151052800228
 31
0.0
  0
LINE
  5
11C7
330
2
100
AcDbEntity
  8
HIDS
  6
SEKKEI_H
100
AcDbLine
 10
914.3914696395984
 20
324.5651052800255
 30
0.0
 11
914.3914696395984
 21
336.8151052800228
 31
0.0
  0
LINE
  5
11C8
330
2
100
AcDbEntity
  8
HIDS
  6
SEKKEI_H
100
AcDbLine
 10
922.3914696395988
 20
315.8165421090909
 30
0.0
 11
922.3914696395986
 21
336.8151052800228
 31
0.0
  0
LINE
  5
11C9
330
2
100
AcDbEntity
  8
HIDS
  6
SEKKEI_H
100
AcDbLine
 10
921.7914696395984
 20
316.2709746332927
 30
0.0
 11
921.7914696395984
 21
336.8151052800228
 31
0.0
  0
LINE
  5
11CA
330
2
100
AcDbEntity
  8
0
100
AcDbLine
 10
911.4018883164286
 20
336.8151052800228
 30
0.0
 11
926.414930072595
 21
336.8151052800228
 31
0.0
  0
LINE
  5
11CB
330
2
100
AcDbEntity
  8
0
100
AcDbLine
 10
950.3680092066019
 20
336.8151052800228
 30
0.0
 11
964.4001896856465
 21
336.8151052800228
 31
0.0
  0
LINE
  5
11CC
330
2
100
AcDbEntity
  8
0
100
AcDbLine
 10
911.4018883164286
 20
338.3151052800223
 30
0.0
 11
926.414930072595
 21
338.3151052800227
 31
0.0
  0
LINE
  5
11CD
330
2
100
AcDbEntity
  8
0
100
AcDbLine
 10
950.3680092066019
 20
338.3151052800227
 30
0.0
 11
964.4001896856465
 21
338.3151052800227
 31
0.0
  0
LINE
  5
11CE
330
2
100
AcDbEntity
  8
0
100
AcDbLine
 10
964.4001896856465
 20
338.3151052800227
 30
0.0
 11
964.4001896856465
 21
336.8151052800228
 31
0.0
  0
LINE
  5
11CF
330
2
100
AcDbEntity
  8
HIDS
  6
SEKKEI_H
100
AcDbLine
 10
924.8914696396054
 20
357.0651052800259
 30
0.0
 11
919.7166202426187
 21
357.0651052800255
 31
0.0
  0
LINE
  5
11D0
330
2
100
AcDbEntity
  8
HIDS
  6
SEKKEI_H
100
AcDbLine
 10
924.0254442358196
 20
357.5651052800259
 30
0.0
 11
920.2531124923849
 21
357.5651052800255
 31
0.0
  0
LINE
  5
11D1
330
2
100
AcDbEntity
  8
HIDS
  6
SEKKEI_H
100
AcDbLine
 10
925.6414696396054
 20
349.5651052800259
 30
0.0
 11
914.2046963947043
 21
349.5651052800255
 31
0.0
  0
LINE
  5
11D2
330
2
100
AcDbEntity
  8
HIDS
  6
SEKKEI_H
100
AcDbLine
 10
921.1914696396124
 20
324.5651052800255
 30
0.0
 11
915.5914696395985
 21
324.5651052800255
 31
0.0
  0
LINE
  5
11D3
330
2
100
AcDbEntity
  8
HIDS
  6
SEKKEI_H
100
AcDbLine
 10
922.3914696395988
 20
325.7651052800258
 30
0.0
 11
914.3914696395984
 21
325.7651052800258
 31
0.0
  0
LINE
  5
11D4
330
2
100
AcDbEntity
  8
0
 48
0.3
100
AcDbLine
 10
911.1414696396055
 20
349.5651052800255
 30
0.0
 11
911.1414696396055
 21
347.5651052800255
 31
0.0
  0
LINE
  5
11D5
330
2
100
AcDbEntity
  8
0
 48
0.3
100
AcDbLine
 10
911.8914696396055
 20
357.0651052800255
 30
0.0
 11
912.7574950433899
 21
357.5651052800255
 31
0.0
  0
LINE
  5
11D6
330
2
100
AcDbEntity
  8
0
 48
0.3
100
AcDbLine
 10
911.8914696396055
 20
357.0651052800255
 30
0.0
 11
911.8914696396055
 21
349.5651052800255
 31
0.0
  0
LINE
  5
11D7
330
2
100
AcDbEntity
  8
HIDS
  6
SEKKEI_H
100
AcDbLine
 10
925.6414696396054
 20
349.5651052800259
 30
0.0
 11
925.6414696396054
 21
347.5651052800259
 31
0.0
  0
LINE
  5
11D8
330
2
100
AcDbEntity
  8
HIDS
  6
SEKKEI_H
100
AcDbLine
 10
924.8914696396051
 20
357.0651052800251
 30
0.0
 11
924.0254442358207
 21
357.565105280025
 31
0.0
  0
LINE
  5
11D9
330
2
100
AcDbEntity
  8
HIDS
  6
SEKKEI_H
100
AcDbLine
 10
924.8914696396054
 20
357.0651052800251
 30
0.0
 11
924.8914696396054
 21
349.5651052800259
 31
0.0
  0
LINE
  5
11DA
330
2
100
AcDbEntity
  8
HIDS
  6
SEKKEI_H
100
AcDbLine
 10
926.0914696396055
 20
347.5651052800259
 30
0.0
 11
913.3115972316309
 21
347.5651052800255
 31
0.0
  0
LINE
  5
11DB
330
2
100
AcDbEntity
  8
HOJO
100
AcDbLine
 10
914.9914696395985
 20
336.8151052800228
 30
0.0
 11
914.9914696395985
 21
338.3151052800227
 31
0.0
  0
LINE
  5
11DC
330
2
100
AcDbEntity
  8
0
100
AcDbLine
 10
914.3914696395984
 20
336.8151052800228
 30
0.0
 11
914.3914696395984
 21
338.3151052800227
 31
0.0
  0
LINE
  5
11DD
330
2
100
AcDbEntity
  8
HOJO
100
AcDbLine
 10
921.7914696395984
 20
336.8151052800228
 30
0.0
 11
921.7914696395984
 21
338.3151052800227
 31
0.0
  0
LINE
  5
11DE
330
2
100
AcDbEntity
  8
0
100
AcDbLine
 10
922.3914696395986
 20
336.8151052800228
 30
0.0
 11
922.3914696395986
 21
338.3151052800227
 31
0.0
  0
LINE
  5
11DF
330
2
100
AcDbEntity
  8
HIDS
  6
SEKKEI_H
100
AcDbLine
 10
922.3914696395986
 20
338.3151052800227
 30
0.0
 11
922.3914696395986
 21
347.5651052800255
 31
0.0
  0
LINE
  5
11E0
330
2
100
AcDbEntity
  8
HIDS
  6
SEKKEI_H
100
AcDbLine
 10
921.7914696395984
 20
338.3151052800227
 30
0.0
 11
921.7914696395984
 21
347.5651052800255
 31
0.0
  0
LINE
  5
11E1
330
2
100
AcDbEntity
  8
HIDS
  6
SEKKEI_H
100
AcDbLine
 10
914.9914696395985
 20
338.3151052800227
 30
0.0
 11
914.9914696395985
 21
347.5651052800255
 31
0.0
  0
LINE
  5
11E2
330
2
100
AcDbEntity
  8
HIDS
  6
SEKKEI_H
100
AcDbLine
 10
914.3914696395984
 20
338.3151052800227
 30
0.0
 11
914.3914696395984
 21
347.5651052800255
 31
0.0
  0
LINE
  5
11E3
330
2
100
AcDbEntity
  8
0
100
AcDbLine
 10
920.2531124923849
 20
357.5651052800255
 30
0.0
 11
912.7574950433899
 21
357.5651052800255
 31
0.0
  0
LINE
  5
11E4
330
2
100
AcDbEntity
  8
0
100
AcDbLine
 10
919.7166202426187
 20
357.0651052800255
 30
0.0
 11
911.8914696396055
 21
357.0651052800255
 31
0.0
  0
LINE
  5
11E5
330
2
100
AcDbEntity
  8
0
100
AcDbLine
 10
914.2046963947043
 20
349.5651052800255
 30
0.0
 11
911.1414696396055
 21
349.5651052800255
 31
0.0
  0
LINE
  5
11E6
330
2
100
AcDbEntity
  8
0
100
AcDbLine
 10
913.3115972316309
 20
347.5651052800255
 30
0.0
 11
911.1414696396055
 21
347.5651052800255
 31
0.0
  0
LINE
  5
11E7
330
2
100
AcDbEntity
  8
HIDS
  6
SEKKEI_H
100
AcDbLine
 10
914.3914696395984
 20
325.7651052800258
 30
0.0
 11
915.5914696395985
 21
324.5651052800255
 31
0.0
  0
LINE
  5
11E8
330
2
100
AcDbEntity
  8
HIDS
  6
SEKKEI_H
100
AcDbLine
 10
922.3914696396123
 20
325.7651052800258
 30
0.0
 11
921.1914696396124
 21
324.5651052800255
 31
0.0
  0
ARC
  5
11E9
330
2
100
AcDbEntity
  8
0
100
AcDbCircle
 10
938.3914696395907
 20
337.565105280011
 30
0.0
 40
13.15470053837729
100
AcDbArc
 50
183.2684247869235
 51
356.7315752130764
  0
ARC
  5
11EA
330
2
100
AcDbEntity
  8
0
100
AcDbCircle
 10
938.3914696395907
 20
337.565105280011
 30
0.0
 40
13.15470053837729
100
AcDbArc
 50
3.268424787028542
 51
176.7315752129714
  0
CIRCLE
  5
11EB
330
2
100
AcDbEntity
  8
0
100
AcDbCircle
 10
938.3914696395907
 20
337.565105280011
 30
0.0
 40
12.00000000001165
  0
LINE
  5
11ED
330
2
100
AcDbEntity
  8
0
100
AcDbLine
 10
299.3673393702586
 20
391.5651052801332
 30
0.0
 11
289.3673393702586
 21
391.5651052801332
 31
0.0
  0
ARC
  5
11EE
330
2
100
AcDbEntity
  8
0
100
AcDbCircle
 10
289.3673393702586
 20
387.5651052801332
 30
0.0
 40
4.0
100
AcDbArc
 50
90.0
 51
159.6698891995559
  0
ARC
  5
11EF
330
2
100
AcDbEntity
  8
0
100
AcDbCircle
 10
299.3673393702586
 20
387.5651052801332
 30
0.0
 40
4.0
100
AcDbArc
 50
17.7212748844128
 51
90.0
  0
CIRCLE
  5
11F0
330
2
100
AcDbEntity
  8
0
100
AcDbCircle
 10
938.3914696395907
 20
337.565105280011
 30
0.0
 40
26.99999999999249
  0
LINE
  5
11F1
330
2
100
AcDbEntity
  8
0
100
AcDbLine
 10
655.77097759524
 20
289.3886984086944
 30
0.0
 11
657.2709775952405
 21
289.3886984086944
 31
0.0
  0
LINE
  5
11F2
330
2
100
AcDbEntity
  8
0
100
AcDbLine
 10
655.77097759524
 20
300.8886984086944
 30
0.0
 11
657.2709775952407
 21
300.8886984086944
 31
0.0
  0
LINE
  5
11F3
330
2
100
AcDbEntity
  8
0
100
AcDbLine
 10
662.8709775952403
 20
290.1386984086944
 30
0.0
 11
663.2709775952399
 21
290.8315187317217
 31
0.0
  0
LINE
  5
11F4
330
2
100
AcDbEntity
  8
0
100
AcDbLine
 10
657.2709775952405
 20
289.3886984086944
 30
0.0
 11
657.2709775952407
 21
300.8886984086944
 31
0.0
  0
LINE
  5
11F5
330
2
100
AcDbEntity
  8
0
100
AcDbLine
 10
662.8709775952403
 20
290.1386984086944
 30
0.0
 11
662.8709775952403
 21
300.1386984086944
 31
0.0
  0
LINE
  5
11F6
330
2
100
AcDbEntity
  8
0
100
AcDbLine
 10
657.2709775952405
 20
290.1386984086944
 30
0.0
 11
662.8709775952403
 21
290.1386984086944
 31
0.0
  0
LINE
  5
11F7
330
2
100
AcDbEntity
  8
0
100
AcDbLine
 10
657.2709775952407
 20
300.1386984086944
 30
0.0
 11
662.8709775952403
 21
300.1386984086944
 31
0.0
  0
LINE
  5
11F8
330
2
100
AcDbEntity
  8
0
100
AcDbLine
 10
662.8709775952403
 20
300.1386984086944
 30
0.0
 11
663.2709775952399
 21
299.4458780856671
 31
0.0
  0
LINE
  5
11F9
330
2
100
AcDbEntity
  8
0
100
AcDbLine
 10
663.2709775952399
 20
290.8315187317217
 30
0.0
 11
663.2709775952399
 21
299.4458780856671
 31
0.0
  0
LINE
  5
11FA
330
2
100
AcDbEntity
  8
0
 48
12.0
100
AcDbLine
 10
655.77097759524
 20
300.8886984086944
 30
0.0
 11
655.77097759524
 21
289.3886984086944
 31
0.0
  0
LINE
  5
11FB
330
2
100
AcDbEntity
  8
0
100
AcDbLine
 10
5.706240652091537
 20
385.7415121510858
 30
0.0
 11
4.206240652091082
 21
385.7415121510858
 31
0.0
  0
LINE
  5
11FC
330
2
100
AcDbEntity
  8
0
100
AcDbLine
 10
5.706240652091537
 20
374.2415121510858
 30
0.0
 11
4.206240652090855
 21
374.2415121510858
 31
0.0
  0
LINE
  5
11FD
330
2
100
AcDbEntity
  8
0
100
AcDbLine
 10
-1.393759347908826
 20
384.9915121510858
 30
0.0
 11
-1.793759347908462
 21
384.2986918280585
 31
0.0
  0
LINE
  5
11FE
330
2
100
AcDbEntity
  8
0
100
AcDbLine
 10
4.206240652091082
 20
385.7415121510858
 30
0.0
 11
4.206240652090855
 21
374.2415121510858
 31
0.0
  0
LINE
  5
11FF
330
2
100
AcDbEntity
  8
0
100
AcDbLine
 10
-1.393759347908826
 20
384.9915121510858
 30
0.0
 11
-1.393759347908826
 21
374.9915121510858
 31
0.0
  0
LINE
  5
1200
330
2
100
AcDbEntity
  8
0
100
AcDbLine
 10
4.206240652091082
 20
384.9915121510858
 30
0.0
 11
-1.393759347908826
 21
384.9915121510858
 31
0.0
  0
LINE
  5
1201
330
2
100
AcDbEntity
  8
0
100
AcDbLine
 10
4.206240652090855
 20
374.9915121510858
 30
0.0
 11
-1.393759347908826
 21
374.9915121510858
 31
0.0
  0
LINE
  5
1202
330
2
100
AcDbEntity
  8
0
100
AcDbLine
 10
-1.393759347908826
 20
374.9915121510858
 30
0.0
 11
-1.793759347908462
 21
375.684332474113
 31
0.0
  0
LINE
  5
1203
330
2
100
AcDbEntity
  8
0
100
AcDbLine
 10
-1.793759347908462
 20
384.2986918280585
 30
0.0
 11
-1.793759347908462
 21
375.684332474113
 31
0.0
  0
LINE
  5
1204
330
2
100
AcDbEntity
  8
0
 48
12.0
100
AcDbLine
 10
5.706240652091537
 20
374.2415121510858
 30
0.0
 11
5.706240652091537
 21
385.7415121510858
 31
0.0
  0
LINE
  5
1205
330
2
100
AcDbEntity
  8
0
100
AcDbLine
 10
5.706240652095857
 20
300.8886984086976
 30
0.0
 11
4.206240652095402
 21
300.8886984086976
 31
0.0
  0
LINE
  5
1206
330
2
100
AcDbEntity
  8
0
100
AcDbLine
 10
5.706240652095857
 20
289.3886984086975
 30
0.0
 11
4.206240652095175
 21
289.3886984086975
 31
0.0
  0
LINE
  5
1207
330
2
100
AcDbEntity
  8
0
100
AcDbLine
 10
-1.393759347904506
 20
300.1386984086976
 30
0.0
 11
-1.793759347904142
 21
299.4458780856703
 31
0.0
  0
LINE
  5
1208
330
2
100
AcDbEntity
  8
0
100
AcDbLine
 10
4.206240652095402
 20
300.8886984086976
 30
0.0
 11
4.206240652095175
 21
289.3886984086975
 31
0.0
  0
LINE
  5
1209
330
2
100
AcDbEntity
  8
0
100
AcDbLine
 10
-1.393759347904506
 20
300.1386984086976
 30
0.0
 11
-1.393759347904506
 21
290.1386984086976
 31
0.0
  0
LINE
  5
120A
330
2
100
AcDbEntity
  8
0
100
AcDbLine
 10
4.206240652095402
 20
300.1386984086976
 30
0.0
 11
-1.393759347904506
 21
300.1386984086976
 31
0.0
  0
LINE
  5
120B
330
2
100
AcDbEntity
  8
0
100
AcDbLine
 10
4.206240652095175
 20
290.1386984086976
 30
0.0
 11
-1.393759347904506
 21
290.1386984086976
 31
0.0
  0
LINE
  5
120C
330
2
100
AcDbEntity
  8
0
100
AcDbLine
 10
-1.393759347904506
 20
290.1386984086976
 30
0.0
 11
-1.793759347904142
 21
290.8315187317248
 31
0.0
  0
LINE
  5
120D
330
2
100
AcDbEntity
  8
0
100
AcDbLine
 10
-1.793759347904142
 20
299.4458780856703
 30
0.0
 11
-1.793759347904142
 21
290.8315187317248
 31
0.0
  0
LINE
  5
120E
330
2
100
AcDbEntity
  8
0
 48
12.0
100
AcDbLine
 10
5.706240652095857
 20
289.3886984086975
 30
0.0
 11
5.706240652095857
 21
300.8886984086976
 31
0.0
  0
LINE
  5
120F
330
2
100
AcDbEntity
  8
0
100
AcDbLine
 10
655.5209583471728
 20
681.6453453308017
 30
0.0
 11
657.0209583471734
 21
681.6453453308017
 31
0.0
  0
LINE
  5
1210
330
2
100
AcDbEntity
  8
0
100
AcDbLine
 10
655.5209583471729
 20
693.1453453308018
 30
0.0
 11
657.0209583471737
 21
693.1453453308018
 31
0.0
  0
LINE
  5
1211
330
2
100
AcDbEntity
  8
0
100
AcDbLine
 10
662.6209583471732
 20
682.3953453308018
 30
0.0
 11
663.0209583471728
 21
683.088165653829
 31
0.0
  0
LINE
  5
1212
330
2
100
AcDbEntity
  8
0
100
AcDbLine
 10
657.0209583471734
 20
681.6453453308017
 30
0.0
 11
657.0209583471737
 21
693.1453453308018
 31
0.0
  0
LINE
  5
1213
330
2
100
AcDbEntity
  8
0
100
AcDbLine
 10
662.6209583471732
 20
682.3953453308018
 30
0.0
 11
662.6209583471733
 21
692.3953453308017
 31
0.0
  0
LINE
  5
1214
330
2
100
AcDbEntity
  8
0
100
AcDbLine
 10
657.0209583471734
 20
682.3953453308018
 30
0.0
 11
662.6209583471732
 21
682.3953453308018
 31
0.0
  0
LINE
  5
1215
330
2
100
AcDbEntity
  8
0
100
AcDbLine
 10
657.0209583471737
 20
692.3953453308017
 30
0.0
 11
662.6209583471733
 21
692.3953453308017
 31
0.0
  0
LINE
  5
1216
330
2
100
AcDbEntity
  8
0
100
AcDbLine
 10
662.6209583471733
 20
692.3953453308017
 30
0.0
 11
663.0209583471729
 21
691.7025250077744
 31
0.0
  0
LINE
  5
1217
330
2
100
AcDbEntity
  8
0
100
AcDbLine
 10
663.0209583471728
 20
683.088165653829
 30
0.0
 11
663.0209583471729
 21
691.7025250077744
 31
0.0
  0
LINE
  5
1218
330
2
100
AcDbEntity
  8
0
 48
12.0
100
AcDbLine
 10
655.5209583471729
 20
693.1453453308018
 30
0.0
 11
655.5209583471728
 21
681.6453453308017
 31
0.0
  0
LINE
  5
1219
330
2
100
AcDbEntity
  8
0
100
AcDbLine
 10
655.7709775952442
 20
374.2415121510826
 30
0.0
 11
657.2709775952447
 21
374.2415121510826
 31
0.0
  0
LINE
  5
121A
330
2
100
AcDbEntity
  8
0
100
AcDbLine
 10
655.7709775952442
 20
385.7415121510826
 30
0.0
 11
657.2709775952451
 21
385.7415121510826
 31
0.0
  0
LINE
  5
121B
330
2
100
AcDbEntity
  8
0
100
AcDbLine
 10
662.8709775952446
 20
374.9915121510826
 30
0.0
 11
663.2709775952442
 21
375.6843324741099
 31
0.0
  0
LINE
  5
121C
330
2
100
AcDbEntity
  8
0
100
AcDbLine
 10
657.2709775952448
 20
374.2415121510826
 30
0.0
 11
657.2709775952451
 21
385.7415121510826
 31
0.0
  0
LINE
  5
121D
330
2
100
AcDbEntity
  8
0
100
AcDbLine
 10
662.8709775952446
 20
374.9915121510826
 30
0.0
 11
662.8709775952446
 21
384.9915121510826
 31
0.0
  0
LINE
  5
121E
330
2
100
AcDbEntity
  8
0
100
AcDbLine
 10
657.2709775952447
 20
374.9915121510826
 30
0.0
 11
662.8709775952446
 21
374.9915121510826
 31
0.0
  0
LINE
  5
121F
330
2
100
AcDbEntity
  8
0
100
AcDbLine
 10
657.2709775952451
 20
384.9915121510826
 30
0.0
 11
662.8709775952446
 21
384.9915121510826
 31
0.0
  0
LINE
  5
1220
330
2
100
AcDbEntity
  8
0
100
AcDbLine
 10
662.8709775952446
 20
384.9915121510826
 30
0.0
 11
663.2709775952442
 21
384.2986918280553
 31
0.0
  0
LINE
  5
1221
330
2
100
AcDbEntity
  8
0
100
AcDbLine
 10
663.2709775952442
 20
375.6843324741099
 30
0.0
 11
663.2709775952442
 21
384.2986918280553
 31
0.0
  0
LINE
  5
1222
330
2
100
AcDbEntity
  8
0
 48
12.0
100
AcDbLine
 10
655.7709775952442
 20
385.7415121510826
 30
0.0
 11
655.7709775952442
 21
374.2415121510826
 31
0.0
  0
CIRCLE
  5
1223
330
2
100
AcDbEntity
  8
0
100
AcDbCircle
 10
938.3914696395907
 20
337.565105280011
 30
0.0
 40
40.49999999999999
  0
CIRCLE
  5
1224
330
2
100
AcDbEntity
  8
0
100
AcDbCircle
 10
938.3914696395907
 20
337.565105280011
 30
0.0
 40
47.5
  0
CIRCLE
  5
1225
330
2
100
AcDbEntity
  8
HIDS
  6
SEKKEI_H
100
AcDbCircle
 10
938.3914696395907
 20
337.565105280011
 30
0.0
 40
50.0
  0
LINE
  5
1226
330
2
100
AcDbEntity
  8
CENTER
  6
CENTERX2
100
AcDbLine
 10
652.5209583471705
 20
602.5425315884163
 30
0.0
 11
666.020958347174
 21
602.5425315884163
 31
0.0
  0
LINE
  5
1227
330
2
100
AcDbEntity
  8
0
100
AcDbLine
 10
655.5209583471728
 20
608.2925315884162
 30
0.0
 11
657.0209583471734
 21
608.2925315884162
 31
0.0
  0
LINE
  5
1228
330
2
100
AcDbEntity
  8
0
100
AcDbLine
 10
655.5209583471729
 20
596.7925315884163
 30
0.0
 11
657.0209583471737
 21
596.7925315884163
 31
0.0
  0
LINE
  5
1229
330
2
100
AcDbEntity
  8
0
100
AcDbLine
 10
662.6209583471732
 20
607.5425315884163
 30
0.0
 11
663.0209583471728
 21
606.849711265389
 31
0.0
  0
LINE
  5
122A
330
2
100
AcDbEntity
  8
0
100
AcDbLine
 10
657.0209583471734
 20
608.2925315884162
 30
0.0
 11
657.0209583471737
 21
596.7925315884163
 31
0.0
  0
LINE
  5
122B
330
2
100
AcDbEntity
  8
0
100
AcDbLine
 10
662.6209583471732
 20
607.5425315884163
 30
0.0
 11
662.6209583471733
 21
597.5425315884162
 31
0.0
  0
LINE
  5
122C
330
2
100
AcDbEntity
  8
0
100
AcDbLine
 10
657.0209583471734
 20
607.5425315884163
 30
0.0
 11
662.6209583471732
 21
607.5425315884163
 31
0.0
  0
LINE
  5
122D
330
2
100
AcDbEntity
  8
0
100
AcDbLine
 10
657.0209583471737
 20
597.5425315884162
 30
0.0
 11
662.6209583471733
 21
597.5425315884162
 31
0.0
  0
LINE
  5
122E
330
2
100
AcDbEntity
  8
0
100
AcDbLine
 10
662.6209583471733
 20
597.5425315884162
 30
0.0
 11
663.0209583471729
 21
598.2353519114435
 31
0.0
  0
LINE
  5
122F
330
2
100
AcDbEntity
  8
0
100
AcDbLine
 10
663.0209583471728
 20
606.849711265389
 30
0.0
 11
663.0209583471729
 21
598.2353519114435
 31
0.0
  0
LINE
  5
1230
330
2
100
AcDbEntity
  8
0
 48
12.0
100
AcDbLine
 10
655.5209583471729
 20
596.7925315884163
 30
0.0
 11
655.5209583471728
 21
608.2925315884162
 31
0.0
  0
LINE
  5
1231
330
2
100
AcDbEntity
  8
CENTER
  6
CENTERX2
100
AcDbLine
 10
652.7709775952444
 20
379.9915121510831
 30
0.0
 11
666.2709775952452
 21
379.9915121510826
 31
0.0
  0
LINE
  5
1232
330
2
100
AcDbEntity
  8
CENTER
  6
CENTERX2
100
AcDbLine
 10
652.77097759524
 20
295.1386984086949
 30
0.0
 11
666.270977595241
 21
295.1386984086944
 31
0.0
  0
CIRCLE
  5
1233
330
2
100
AcDbEntity
  8
0
100
AcDbCircle
 10
938.3914696395907
 20
337.565105280011
 30
0.0
 40
41.99999999981815
  0
CIRCLE
  5
1234
330
2
100
AcDbEntity
  8
0
100
AcDbCircle
 10
938.3914696395907
 20
337.565105280011
 30
0.0
 40
43.79351760210176
  0
LINE
  5
1235
330
2
100
AcDbEntity
  8
0
100
AcDbLine
 10
909.581275547384
 20
388.7826523967643
 30
0.0
 11
895.3130420360555
 21
388.6427677544966
 31
0.0
  0
TEXT
  5
19D1
330
2
100
AcDbEntity
  8
TITLE
100
AcDbText
 10
298.9321402359228
 20
663.9758145682094
 30
0.0
 40
7.5
  1
AFCZ22L-3~5M1000K13
100
AcDbText
  0
TEXT
  5
19D2
330
2
100
AcDbEntity
  8
TITLE
100
AcDbText
 10
298.9321402359228
 20
652.9964961860469
 30
0.0
 40
7.5
  1
AFCZ22L-3~5L1000K13
100
AcDbText
  0
LINE
  5
21E5
330
2
100
AcDbEntity
  8
0
100
AcDbLine
 10
356.3674448809349
 20
340.565105280011
 30
0.0
 11
388.3674448809349
 21
340.565105280011
 31
0.0
  0
LINE
  5
21E6
330
2
100
AcDbEntity
  8
0
100
AcDbLine
 10
388.3673393700196
 20
348.5651628667628
 30
0.0
 11
348.3673393700198
 21
348.5651504426754
 31
0.0
  0
LINE
  5
21E7
330
2
100
AcDbEntity
  8
0
100
AcDbLine
 10
356.3674448809349
 20
334.565105280011
 30
0.0
 11
388.3674448809349
 21
334.565105280011
 31
0.0
  0
LINE
  5
21E8
330
2
100
AcDbEntity
  8
0
100
AcDbLine
 10
348.3673393700198
 20
326.5651504426737
 30
0.0
 11
388.36733937002
 21
326.5651647374551
 31
0.0
  0
LINE
  5
21E9
330
2
100
AcDbEntity
  8
0
100
AcDbLine
 10
347.3673393700198
 20
353.7764301454163
 30
0.0
 11
347.3673393700198
 21
321.3537804146059
 31
0.0
  0
ARC
  5
21EA
330
2
100
AcDbEntity
  8
0
100
AcDbCircle
 10
356.3674448809349
 20
337.565105280011
 30
0.0
 40
3.0
100
AcDbArc
 50
90.0
 51
270.0
  0
LINE
  5
21EB
330
2
100
AcDbEntity
  8
0
100
AcDbLine
 10
348.3673393700198
 20
349.5651504426755
 30
0.0
 11
348.367903903312
 21
325.5651504554215
 31
0.0
  0
LINE
  5
21EC
330
2
100
AcDbEntity
  8
0
100
AcDbLine
 10
347.1173393700198
 20
320.9207677127137
 30
0.0
 11
346.9655008402467
 21
320.8331036966761
 31
0.0
  0
ARC
  5
21ED
330
2
100
AcDbEntity
  8
0
100
AcDbCircle
 10
345.9655008402467
 20
322.565154504245
 30
0.0
 40
2.0
100
AcDbArc
 50
281.5907202811201
 51
300.0000000000004
  0
ARC
  5
21EE
330
2
100
AcDbEntity
  8
0
100
AcDbCircle
 10
346.8673393700198
 20
321.3537804146059
 30
0.0
 40
0.5
100
AcDbArc
 50
300.0000000000004
 51
0.0
  0
LINE
  5
21EF
330
2
100
AcDbEntity
  8
0
100
AcDbLine
 10
348.3673393700198
 20
325.5650601173467
 30
0.0
 11
347.3673393700198
 21
324.9877098481571
 31
0.0
  0
LINE
  5
21F0
330
2
100
AcDbEntity
  8
0
100
AcDbLine
 10
348.3673393700198
 20
349.5651504426755
 30
0.0
 11
347.3673393700198
 21
350.1425007118651
 31
0.0
  0
LINE
  5
21F1
330
2
100
AcDbEntity
  8
0
100
AcDbLine
 10
347.1173393700198
 20
354.2094428473085
 30
0.0
 11
346.9655008402467
 21
354.2971068633461
 31
0.0
  0
ARC
  5
21F2
330
2
100
AcDbEntity
  8
0
100
AcDbCircle
 10
345.9655008402467
 20
352.5650560557772
 30
0.0
 40
2.0
100
AcDbArc
 50
59.99999999999952
 51
78.40927971887976
  0
ARC
  5
21F3
330
2
100
AcDbEntity
  8
0
100
AcDbCircle
 10
346.8673393700198
 20
353.7764301454163
 30
0.0
 40
0.5
100
AcDbArc
 50
0.0
 51
59.99999999999952
  0
LINE
  5
21F4
330
2
100
AcDbEntity
  8
0
100
AcDbLine
 10
388.36733937002
 20
326.5651647374551
 30
0.0
 11
388.3673393700196
 21
348.5651628667628
 31
0.0
  0
LINE
  5
220D
330
2
100
AcDbEntity
  8
0
100
AcDbLine
 10
535.0209815098339
 20
570.9689384596095
 30
0.0
 11
535.0209834791355
 21
565.9688329486944
 31
0.0
  0
LINE
  5
220E
330
2
100
AcDbEntity
  8
0
100
AcDbLine
 10
557.0209959581986
 20
530.9689384596095
 30
0.0
 11
557.0209815098357
 21
570.9689384596095
 31
0.0
  0
LINE
  5
220F
330
2
100
AcDbEntity
  8
0
100
AcDbLine
 10
535.4378679906046
 20
562.9688329486944
 30
0.0
 11
535.4378679906046
 21
530.9689384596095
 31
0.0
  0
LINE
  5
2210
330
2
100
AcDbEntity
  8
0
100
AcDbLine
 10
532.5209970670019
 20
565.9688329486944
 30
0.0
 11
532.5209970670019
 21
530.9689384596095
 31
0.0
  0
LINE
  5
2211
330
2
100
AcDbEntity
  8
0
100
AcDbLine
 10
532.5209970670019
 20
530.9689384596095
 30
0.0
 11
557.0209959581986
 21
530.9689384596095
 31
0.0
  0
LINE
  5
2212
330
2
100
AcDbEntity
  8
0
100
AcDbLine
 10
535.0209834791374
 20
565.9688329486944
 30
0.0
 11
535.4378679906046
 21
562.9688329486944
 31
0.0
  0
LINE
  5
2213
330
2
100
AcDbEntity
  8
0
100
AcDbLine
 10
535.0209834791383
 20
565.9688329486944
 30
0.0
 11
532.5209970670019
 21
565.9688329486944
 31
0.0
  0
LINE
  5
2214
330
2
100
AcDbEntity
  8
0
100
AcDbLine
 10
558.0209815098357
 20
570.9689384596095
 30
0.0
 11
534.0209815225823
 21
570.9683739263173
 31
0.0
  0
LINE
  5
2215
330
2
100
AcDbEntity
  8
0
100
AcDbLine
 10
562.232261212577
 20
571.9689384596095
 30
0.0
 11
529.809611481766
 21
571.9689384596095
 31
0.0
  0
ARC
  5
2216
330
2
100
AcDbEntity
  8
0
100
AcDbCircle
 10
531.0209855714053
 20
573.3707769893826
 30
0.0
 40
2.0
100
AcDbArc
 50
191.5907202811264
 51
210.0000000000207
  0
LINE
  5
2217
330
2
100
AcDbEntity
  8
0
100
AcDbLine
 10
529.376598779874
 20
572.2189384596094
 30
0.0
 11
529.2889347638363
 21
572.3707769893827
 31
0.0
  0
ARC
  5
2218
330
2
100
AcDbEntity
  8
0
100
AcDbCircle
 10
529.809611481766
 20
572.4689384596095
 30
0.0
 40
0.5
100
AcDbArc
 50
210.0000000000207
 51
270.0
  0
LINE
  5
2219
330
2
100
AcDbEntity
  8
0
100
AcDbLine
 10
534.0208911845072
 20
570.9689384596095
 30
0.0
 11
533.4435409153181
 21
571.9689384596095
 31
0.0
  0
ARC
  5
221A
330
2
100
AcDbEntity
  8
0
100
AcDbCircle
 10
561.0208871229376
 20
573.3707769893826
 30
0.0
 40
2.0
100
AcDbArc
 50
329.9999999999792
 51
348.4092797188734
  0
LINE
  5
221B
330
2
100
AcDbEntity
  8
0
100
AcDbLine
 10
562.665273914469
 20
572.2189384596094
 30
0.0
 11
562.7529379305067
 21
572.3707769893827
 31
0.0
  0
ARC
  5
221C
330
2
100
AcDbEntity
  8
0
100
AcDbCircle
 10
562.232261212577
 20
572.4689384596095
 30
0.0
 40
0.5
100
AcDbArc
 50
270.0
 51
329.9999999999792
  0
LINE
  5
221D
330
2
100
AcDbEntity
  8
0
100
AcDbLine
 10
558.0209815098357
 20
570.9689384596095
 30
0.0
 11
558.5983317790257
 21
571.9689384596095
 31
0.0
  0
CIRCLE
  5
222D
330
2
100
AcDbEntity
  8
0
100
AcDbCircle
 10
546.0209363471721
 20
337.5651052800108
 30
0.0
 40
16.99995399999989
  0
ARC
  5
222E
330
2
100
AcDbEntity
  8
0
100
AcDbCircle
 10
546.0209363471721
 20
337.5651052800086
 30
0.0
 40
12.57739543185027
100
AcDbArc
 50
193.7993919727374
 51
166.2006080272625
  0
LINE
  5
222F
330
2
100
AcDbEntity
  8
0
100
AcDbLine
 10
532.5209970669983
 20
340.5651052800085
 30
0.0
 11
532.5209970669983
 21
334.5651052800086
 31
0.0
  0
LINE
  5
2230
330
2
100
AcDbEntity
  8
0
100
AcDbLine
 10
538.5209970669983
 20
340.5651052800085
 30
0.0
 11
538.5209970669983
 21
334.5651052800086
 31
0.0
  0
ARC
  5
2231
330
2
100
AcDbEntity
  8
0
100
AcDbCircle
 10
546.0209363471721
 20
337.5651052800086
 30
0.0
 40
12.00004516266062
100
AcDbArc
 50
194.4774565092227
 51
165.5225434907773
  0
ARC
  5
2232
330
2
100
AcDbEntity
  8
0
100
AcDbCircle
 10
546.0209363471721
 20
337.5651052800086
 30
0.0
 40
11.00006071982613
100
AcDbArc
 50
195.8265304777605
 51
164.1734695222363
  0
LINE
  5
2233
330
2
100
AcDbEntity
  8
0
100
AcDbLine
 10
532.5209970669983
 20
334.5651052800086
 30
0.0
 11
538.5209970669983
 21
334.5651052800086
 31
0.0
  0
LINE
  5
2234
330
2
100
AcDbEntity
  8
0
100
AcDbLine
 10
532.5209970669983
 20
340.5651052800085
 30
0.0
 11
538.5209970669983
 21
340.5651052800085
 31
0.0
  0
LINE
  5
2248
330
2
100
AcDbEntity
  8
0
100
AcDbLine
 10
865.3914696395947
 20
321.353780414606
 30
0.0
 11
865.3914696395947
 21
353.7764301454169
 31
0.0
  0
LINE
  5
2249
330
2
100
AcDbEntity
  8
0
100
AcDbLine
 10
824.3914696395945
 20
348.565046965795
 30
0.0
 11
824.3914696395947
 21
326.5650465171692
 31
0.0
  0
LINE
  5
224A
330
2
100
AcDbEntity
  8
0
100
AcDbLine
 10
864.3914696395947
 20
325.5650601173472
 30
0.0
 11
864.3909051063026
 21
349.5650601046006
 31
0.0
  0
LINE
  5
224B
330
2
100
AcDbEntity
  8
0
100
AcDbLine
 10
824.3914696395947
 20
326.5650465171692
 30
0.0
 11
864.3914696395947
 21
326.5650601173472
 31
0.0
  0
LINE
  5
224C
330
2
100
AcDbEntity
  8
0
100
AcDbLine
 10
865.6414696395948
 20
320.9207677127139
 30
0.0
 11
865.7933081693679
 21
320.8331036966762
 31
0.0
  0
LINE
  5
224D
330
2
100
AcDbEntity
  8
0
100
AcDbLine
 10
864.3914696395947
 20
325.5650601173472
 30
0.0
 11
865.3914696395947
 21
324.9877098481572
 31
0.0
  0
ARC
  5
224E
330
2
100
AcDbEntity
  8
0
100
AcDbCircle
 10
866.7933081693679
 20
322.5651545042453
 30
0.0
 40
2.0
100
AcDbArc
 50
239.9999999999995
 51
258.4092797188797
  0
ARC
  5
224F
330
2
100
AcDbEntity
  8
0
100
AcDbCircle
 10
865.8914696395948
 20
321.353780414606
 30
0.0
 40
0.5
100
AcDbArc
 50
180.0
 51
239.9999999999995
  0
LINE
  5
2250
330
2
100
AcDbEntity
  8
0
100
AcDbLine
 10
864.3914696395947
 20
348.565060117349
 30
0.0
 11
824.3914696395947
 21
348.5650469657952
 31
0.0
  0
LINE
  5
2251
330
2
100
AcDbEntity
  8
0
100
AcDbLine
 10
864.3914696395947
 20
349.5651504426757
 30
0.0
 11
865.3914696395947
 21
350.1425007118648
 31
0.0
  0
LINE
  5
2252
330
2
100
AcDbEntity
  8
0
100
AcDbLine
 10
865.6414696395948
 20
354.2094428473089
 30
0.0
 11
865.7933081693679
 21
354.2971068633467
 31
0.0
  0
ARC
  5
2253
330
2
100
AcDbEntity
  8
0
100
AcDbCircle
 10
866.7933081693679
 20
352.5650560557776
 30
0.0
 40
2.0
100
AcDbArc
 50
101.5907202811202
 51
120.0000000000004
  0
ARC
  5
2254
330
2
100
AcDbEntity
  8
0
100
AcDbCircle
 10
865.8914696395948
 20
353.7764301454169
 30
0.0
 40
0.5
100
AcDbArc
 50
120.0000000000004
 51
180.0
  0
LINE
  5
2744
330
2
100
AcDbEntity
  8
CENTER
100
AcDbLine
 10
481.0209363471742
 20
337.5651052800127
 30
0.0
 11
736.5209583471775
 21
337.5651052800141
 31
0.0
  0
LINE
  5
2745
330
2
100
AcDbEntity
  8
CENTER
100
AcDbLine
 10
546.0209363471742
 20
402.5651052800127
 30
0.0
 11
546.0209363471742
 21
272.5651052800127
 31
0.0
  0
SPLINE
  5
285B
330
2
100
AcDbEntity
  8
HOJO
100
AcDbSpline
210
0.0
220
0.0
230
1.0
 70
     8
 71
     3
 72
    20
 73
    16
 74
    14
 42
0.0000000001
 43
0.0000000001
 44
0.0000000001
 40
0.0
 40
0.0
 40
0.0
 40
0.0
 40
12.6066694627875
 40
21.21710065051704
 40
28.14660674719452
 40
38.09455120581106
 40
45.34110947040871
 40
53.4062342926975
 40
62.20656397004098
 40
65.50352423204589
 40
70.32254946004798
 40
79.31905796783023
 40
84.79177534519088
 40
89.876857802869
 40
100.8430561431865
 40
100.8430561431865
 40
100.8430561431865
 40
100.8430561431865
 10
643.0748553230159
 20
337.5651052800109
 30
0.0
 10
644.2570458692869
 20
341.6208072043821
 30
0.0
 10
646.2466796803708
 20
348.4465779753127
 30
0.0
 10
652.4252659306864
 20
356.0492395226443
 30
0.0
 10
660.6664293568135
 20
359.0484734165312
 30
0.0
 10
668.7622018630171
 20
358.9333947221299
 30
0.0
 10
677.1902933449612
 20
358.7324255565757
 30
0.0
 10
685.1441960834774
 20
359.7879990177198
 30
0.0
 10
692.0486313764746
 20
359.1875326953398
 30
0.0
 10
697.3219416845831
 20
361.1741237511422
 30
0.0
 10
702.9681119272013
 20
363.0630739690385
 30
0.0
 10
705.4717998021931
 20
369.6716048661982
 30
0.0
 10
710.5430011344425
 20
373.9546819197972
 30
0.0
 10
712.9124363204944
 20
380.9391327170335
 30
0.0
 10
716.6401295285558
 20
384.8756711936134
 30
0.0
 10
719.1868810050212
 20
387.5651052800109
 30
0.0
 11
643.0748553230159
 21
337.5651052800109
 31
0.0
 11
647.5632864998642
 21
349.3456867815615
 31
0.0
 11
653.2895784020211
 21
355.7760138564402
 31
0.0
 11
659.7253198639468
 21
358.3449215190742
 31
0.0
 11
669.657644383888
 21
358.902172434098
 31
0.0
 11
676.9041887519347
 21
358.9163641267203
 31
0.0
 11
684.9501432217071
 21
359.4721114339102
 31
0.0
 11
693.7365968619064
 21
359.9661102786043
 31
0.0
 11
696.8718654156029
 21
360.9859328442701
 31
0.0
 11
701.2533519355286
 21
362.9923176587638
 31
0.0
 11
706.6537901281852
 21
370.1876239523065
 31
0.0
 11
710.2201171149133
 21
374.3387620271239
 31
0.0
 11
712.461807442802
 21
378.903067897159
 31
0.0
 11
719.1868810050212
 21
387.5651052800109
 31
0.0
  0
ENDSEC
  0
SECTION
  2
OBJECTS
  0
DICTIONARY
  5
7
330
0
100
AcDbDictionary
  3
ACAD_COLOR
350
832
  3
ACAD_GROUP
350
75
  3
ACAD_LAYOUT
350
61
  3
ACAD_MATERIAL
350
808
  3
ACAD_MLEADERSTYLE
350
857
  3
ACAD_MLINESTYLE
350
76
  3
ACAD_PLOTSETTINGS
350
77
  3
ACAD_PLOTSTYLENAME
350
6
  3
ACAD_SCALELIST
350
835
  3
ACAD_TABLESTYLE
350
833
  3
ACAD_VISUALSTYLE
350
821
  3
ACADDIM
350
480
  3
ACDB_RECOMPOSE_DATA
350
88E
  3
ACDBHEADERROUNDTRIPXREC
350
28A3
  3
ACDBVARIABLEDICTIONARY
350
102
  3
DWGPROPS
350
2879
  0
DICTIONARY
  5
1AA9
330
6E
100
AcDbDictionary
280
     1
  3
ACAD_XREC_ROUNDTRIP
360
287D
  0
DICTIONARY
  5
86B
330
66
100
AcDbDictionary
280
     1
  3
ACAD_LAYERSTATES
360
86C
  0
DICTIONARY
  5
128D
330
5E
100
AcDbDictionary
280
     1
  3
ADSK_XREC_LAYER_RECONCILED
360
128E
  0
DICTIONARY
  5
128F
330
3E
100
AcDbDictionary
280
     1
  3
ADSK_XREC_LAYER_RECONCILED
360
1290
  0
DICTIONARY
  5
1295
330
2B5
100
AcDbDictionary
280
     1
  3
ADSK_XREC_LAYER_RECONCILED
360
1296
  0
DICTIONARY
  5
1297
330
2BA
100
AcDbDictionary
280
     1
  3
ADSK_XREC_LAYER_RECONCILED
360
1298
  0
DICTIONARY
  5
129B
330
3FA
100
AcDbDictionary
280
     1
  3
ADSK_XREC_LAYER_RECONCILED
360
129C
  0
DICTIONARY
  5
1236
330
2
100
AcDbDictionary
280
     1
  3
ACAD_LAYOUTSELFREF
360
28C4
  3
ACAD_SORTENTS
360
1237
  0
DICTIONARY
  5
28C5
330
289D
100
AcDbDictionary
280
     1
  3
ACAD_LAYOUTSELFREF
360
28C6
  0
DICTIONARY
  5
832
102
{ACAD_REACTORS
330
7
102
}
330
7
100
AcDbDictionary
  0
DICTIONARY
  5
75
102
{ACAD_REACTORS
330
7
102
}
330
7
100
AcDbDictionary
  0
DICTIONARY
  5
61
102
{ACAD_REACTORS
330
7
102
}
330
7
100
AcDbDictionary
  0
DICTIONARY
  5
808
102
{ACAD_REACTORS
330
7
102
}
330
7
100
AcDbDictionary
  3
BYBLOCK
350
811
  3
BYLAYER
350
809
  3
GLOBAL
350
819
  0
DICTIONARY
  5
857
102
{ACAD_REACTORS
330
7
102
}
330
7
100
AcDbDictionary
  3
STANDARD
350
858
  0
DICTIONARY
  5
76
102
{ACAD_REACTORS
330
7
102
}
330
7
100
AcDbDictionary
  3
STANDARD
350
78
  0
DICTIONARY
  5
77
102
{ACAD_REACTORS
330
7
102
}
330
7
100
AcDbDictionary
  0
ACDBDICTIONARYWDFLT
  5
6
102
{ACAD_REACTORS
330
7
102
}
330
7
100
AcDbDictionary
281
     1
  3
Normal
350
5
100
AcDbDictionaryWithDefault
340
5
  0
DICTIONARY
  5
835
102
{ACAD_REACTORS
330
7
102
}
330
7
100
AcDbDictionary
  3
A0
350
836
  3
A1
350
837
  3
A2
350
838
  3
A3
350
839
  3
A4
350
83A
  3
A5
350
83B
  3
A6
350
83C
  3
A7
350
83D
  3
A8
350
83E
  3
A9
350
83F
  3
B0
350
840
  3
B1
350
841
  3
B2
350
842
  3
B3
350
843
  3
B4
350
844
  3
B5
350
845
  3
B6
350
846
  3
B7
350
847
  3
B8
350
848
  3
B9
350
849
  3
C0
350
84A
  3
C1
350
84B
  3
C2
350
84C
  3
C3
350
84D
  3
C4
350
84E
  3
C5
350
84F
  3
C6
350
850
  3
C7
350
851
  3
C8
350
852
  3
C9
350
853
  3
D0
350
854
  3
D1
350
855
  3
D2
350
856
  0
DICTIONARY
  5
833
102
{ACAD_REACTORS
330
7
102
}
330
7
100
AcDbDictionary
  3
STANDARD
350
834
  0
DICTIONARY
  5
821
102
{ACAD_REACTORS
330
7
102
}
330
7
100
AcDbDictionary
  3
2DWIREFRAME
350
827
  3
3D_HIDDEN
350
829
  3
3DWIREFRAME
350
828
  3
BASIC
350
826
  3
BRIGHTEN
350
82D
  3
COLORCHANGE
350
831
  3
CONCEPTUAL
350
82A
  3
DIM
350
82C
  3
FACEPATTERN
350
830
  3
FLAT
350
822
  3
FLATWITHEDGES
350
823
  3
GOURAUD
350
824
  3
GOURAUDWITHEDGES
350
825
  3
LINEPATTERN
350
82F
  3
REALISTIC
350
82B
  3
THICKEN
350
82E
  0
XRECORD
  5
480
102
{ACAD_REACTORS
330
7
102
}
330
7
100
AcDbXrecord
 90
   990106
  3

 60
     0
 61
     0
 62
     1
 63
     3
 64
     1
 65
     0
 66
     0
 67
     3
 68
     1
 69
     0
 70
     0
 71
     0
 72
     0
 40
0.0
170
     2
340
0
  0
XRECORD
  5
88E
102
{ACAD_REACTORS
330
7
102
}
330
7
100
AcDbXrecord
 90
        1
330
834
  0
DICTIONARY
  5
28A3
102
{ACAD_REACTORS
330
7
102
}
330
7
100
AcDbDictionary
  3
CEPSNTYPE
350
28AD
  3
DIMSTYLEDATA
350
28B1
  3
FINGERPRINTGUID
350
28AE
  3
HYPERLINKBASE
350
28A6
  3
INSUNITS
350
28AC
  3
LAYOUTDICT
350
28A8
  3
LWETCUNION
350
28AB
  3
PLOTSETDICT
350
28A9
  3
PLOTSTYLNAMDICT
350
28AA
  3
PSVPSCALE
350
28B0
  3
PUCSBASE
350
28B4
  3
PUCSORGBACK
350
28BA
  3
PUCSORGBOTTOM
350
28B6
  3
PUCSORGFRONT
350
28B9
  3
PUCSORGLEFT
350
28B7
  3
PUCSORGRIGHT
350
28B8
  3
PUCSORGTOP
350
28B5
  3
PUCSORTHOREF
350
28B2
  3
PUCSORTHOVIEW
350
28B3
  3
STYLESHEET
350
28A7
  3
TSTACKALIGN
350
28A4
  3
TSTACKSIZE
350
28A5
  3
UCSBASE
350
28BD
  3
UCSORGBACK
350
28C3
  3
UCSORGBOTTOM
350
28BF
  3
UCSORGFRONT
350
28C2
  3
UCSORGLEFT
350
28C0
  3
UCSORGRIGHT
350
28C1
  3
UCSORGTOP
350
28BE
  3
UCSORTHOREF
350
28BB
  3
UCSORTHOVIEW
350
28BC
  3
VERSIONGUID
350
28AF
  0
DICTIONARY
  5
102
102
{ACAD_REACTORS
330
7
102
}
330
7
100
AcDbDictionary
  3
CANNOSCALE
350
892
  3
CMLEADERSTYLE
350
890
  3
CTABLESTYLE
350
88F
  3
DIMASSOC
350
103
  3
INDEXCTL
350
1AB6
  3
LIGHTINGUNITS
350
893
  3
MSLTSCALE
350
891
  3
SORTENTS
350
549
  0
XRECORD
  5
2879
102
{ACAD_REACTORS
330
7
102
}
330
7
100
AcDbXrecord
  1
DWGPROPS COOKIE
  2

  3

  4

  6

  7

  8
knsuzuki
  9

300
=
301
=
302
=
303
=
304
=
305
=
306
=
307
=
308
=
309
=
 40
0.1165229166666667
 41
2454888.679706122
 42
2454904.404528357
  1

 90
        0
  0
XRECORD
  5
287D
102
{ACAD_REACTORS
330
1AA9
102
}
330
1AA9
100
AcDbXrecord
102
VTR_0.000_0.000_1.000_1.000_VISUALSTYLE
340
827
102
VTR_0.000_0.000_1.000_1.000_GRIDDISPLAY
 70
     3
102
VTR_0.000_0.000_1.000_1.000_GRIDMAJOR
 70
     5
102
VTR_0.000_0.000_1.000_1.000_DEFAULTLIGHTING
280
     1
102
VTR_0.000_0.000_1.000_1.000_DEFAULTLIGHTINGTYPE
 70
     1
102
VTR_0.000_0.000_1.000_1.000_BRIGHTNESS
141
0.0
102
VTR_0.000_0.000_1.000_1.000_CONTRAST
142
0.0
  0
DICTIONARY
  5
86C
102
{ACAD_REACTORS
330
86B
102
}
330
86B
100
AcDbDictionary
  0
XRECORD
  5
128E
102
{ACAD_REACTORS
330
128D
102
}
330
128D
100
AcDbXrecord
290
     1
  0
XRECORD
  5
1290
102
{ACAD_REACTORS
330
128F
102
}
330
128F
100
AcDbXrecord
290
     1
  0
XRECORD
  5
1296
102
{ACAD_REACTORS
330
1295
102
}
330
1295
100
AcDbXrecord
290
     1
  0
XRECORD
  5
1298
102
{ACAD_REACTORS
330
1297
102
}
330
1297
100
AcDbXrecord
290
     1
  0
XRECORD
  5
129C
102
{ACAD_REACTORS
330
129B
102
}
330
129B
100
AcDbXrecord
290
     1
  0
XRECORD
  5
28C4
102
{ACAD_REACTORS
330
1236
102
}
330
1236
100
AcDbXrecord
340
2
  0
SORTENTSTABLE
  5
1237
102
{ACAD_REACTORS
330
1236
102
}
330
1236
100
AcDbSortentsTable
330
2
331
1349
  5
139F
331
224A
  5
224B
331
2252
  5
2253
331
1389
  5
13CF
331
21EB
  5
21EB
331
21F3
  5
21F3
331
C1C
  5
C1C
331
BDD
  5
BDD
331
C24
  5
C24
331
BE5
  5
BE5
331
BED
  5
BED
331
C2C
  5
C2C
331
BF5
  5
BF5
331
10C3
  5
10C6
331
1102
  5
1105
331
1141
  5
1144
331
1180
  5
1184
331
DC1
  5
DC4
331
D8A
  5
D8D
331
D14
  5
D16
331
D4B
  5
D4D
331
CD5
  5
CD7
331
C9E
  5
C9F
331
C57
  5
C57
331
10CB
  5
10CE
331
110A
  5
110D
331
1149
  5
114D
331
1188
  5
118C
331
11BF
  5
11C3
331
11FE
  5
1202
331
1235
  5
C83
331
DC9
  5
DCC
331
D92
  5
D95
331
D53
  5
D56
331
CDD
  5
CDF
331
D1C
  5
D1E
331
1090
  5
1093
331
CA6
  5
CA7
331
1190
  5
1194
331
C5F
  5
C5F
331
1112
  5
1115
331
10D3
  5
10D6
331
1151
  5
1155
331
11C7
  5
11CB
331
1206
  5
120A
331
D9A
  5
D9D
331
DD1
  5
DD4
331
D24
  5
D26
331
CAE
  5
CAF
331
120E
  5
1212
331
CE5
  5
CE7
331
D5B
  5
D5E
331
10DB
  5
10DE
331
1159
  5
115D
331
11CF
  5
11D3
331
1098
  5
109B
331
DD9
  5
DDC
331
CED
  5
CEF
331
D63
  5
D66
331
C77
  5
C77
331
11D7
  5
11DB
331
2213
  5
2214
331
221B
  5
221C
331
2233
  5
2233
331
BFD
  5
BFD
331
C05
  5
C05
331
C0D
  5
C0D
331
BCE
  5
BCE
331
C15
  5
C15
331
BD6
  5
BD6
331
C30
  5
C30
331
10A4
  5
10A7
331
10E3
  5
10E6
331
1161
  5
1165
331
1198
  5
119C
331
DE1
  5
DE4
331
DA2
  5
DA5
331
CF5
  5
CF7
331
D2C
  5
D2E
331
D6B
  5
D6E
331
CB6
  5
CB7
331
C7F
  5
C7F
331
C38
  5
C38
331
10AC
  5
10AF
331
10EB
  5
10EE
331
1169
  5
116D
331
11A0
  5
11A5
331
11DF
  5
11E3
331
1216
  5
121A
331
DAA
  5
DAD
331
D34
  5
D36
331
CFD
  5
CFF
331
D73
  5
D76
331
CBE
  5
CBF
331
C87
  5
C88
331
C40
  5
C40
331
10B4
  5
10B7
331
10F3
  5
10F6
331
1171
  5
1175
331
11A8
  5
11AC
331
11E7
  5
11EB
331
121E
  5
1222
331
DB2
  5
DB5
331
D7B
  5
D7E
331
D05
  5
D07
331
D3C
  5
D3E
331
CC6
  5
CC8
331
C48
  5
C48
331
11B0
  5
11B4
331
10BC
  5
10BF
331
10FB
  5
10FE
331
1179
  5
117D
331
C8F
  5
C90
331
11EF
  5
11F3
331
1226
  5
122A
331
D0D
  5
D0F
331
D44
  5
D46
331
DBA
  5
DBD
331
ED9
  5
108D
331
CCE
  5
CD0
331
122E
  5
1232
331
C97
  5
C98
331
11F7
  5
11FB
331
224B
  5
224C
331
21EC
  5
21EC
331
2253
  5
2254
331
21F4
  5
21F4
331
C1D
  5
C1D
331
BDE
  5
BDE
331
C25
  5
C25
331
BE6
  5
BE6
331
BEE
  5
BEE
331
C2D
  5
C2D
331
BF6
  5
BF6
331
C50
  5
C50
331
11B8
  5
11BC
331
10C4
  5
10C7
331
1103
  5
1106
331
1142
  5
1145
331
1181
  5
1185
331
CD6
  5
CD8
331
D15
  5
D17
331
D4C
  5
D4E
331
D8B
  5
D8E
331
DC2
  5
DC5
331
C58
  5
C58
331
C9F
  5
CA0
331
11FF
  5
1203
331
10CC
  5
10CF
331
110B
  5
110E
331
114A
  5
114E
331
1189
  5
118D
331
D1D
  5
D1F
331
CDE
  5
CE0
331
D54
  5
D57
331
D93
  5
D96
331
DCA
  5
DCD
331
1091
  5
1094
331
CA7
  5
CA8
331
1207
  5
120B
331
1191
  5
1195
331
C60
  5
C60
331
11C8
  5
11CC
331
1113
  5
1116
331
10D4
  5
10D7
331
1152
  5
1156
331
D9B
  5
D9E
331
D25
  5
D27
331
CAF
  5
CB0
331
120F
  5
1213
331
10DC
  5
10DF
331
115A
  5
115E
331
11D0
  5
11D4
331
CE6
  5
CE8
331
D5C
  5
D5F
331
DD2
  5
DD5
331
1099
  5
109C
331
CEE
  5
CF0
331
D64
  5
D67
331
DDA
  5
DDD
331
2214
  5
2215
331
221C
  5
221D
331
1333
  5
1389
331
2234
  5
2234
331
BFE
  5
BFE
331
C06
  5
C06
331
C0E
  5
C0E
331
BCF
  5
BCF
331
C16
  5
C16
331
BD7
  5
BD7
331
C78
  5
C78
331
11D8
  5
11DC
331
C31
  5
C31
331
1199
  5
119D
331
10A5
  5
10A8
331
10E4
  5
10E7
331
111B
  5
1120
331
1162
  5
1166
331
CF6
  5
CF8
331
D2D
  5
D2F
331
D6C
  5
D6F
331
DA3
  5
DA6
331
DE2
  5
DE5
331
CB7
  5
CB8
331
1217
  5
121B
331
C80
  5
C80
331
11E0
  5
11E4
331
C39
  5
C39
331
11A1
  5
11A6
331
10AD
  5
10B0
331
10EC
  5
10EF
331
116A
  5
116E
331
CFE
  5
D00
331
D35
  5
D37
331
D74
  5
D77
331
DAB
  5
DAE
331
CBF
  5
CC0
331
121F
  5
1223
331
C88
  5
C89
331
11E8
  5
11EC
331
C41
  5
C41
331
11A9
  5
11AD
331
10B5
  5
10B8
331
10F4
  5
10F7
331
1133
  5
1137
331
1172
  5
1176
331
D06
  5
D08
331
D3D
  5
D3F
331
D7C
  5
D7F
331
DB3
  5
DB6
331
C90
  5
C91
331
11F0
  5
11F4
331
C49
  5
C49
331
11B1
  5
11B5
331
10BD
  5
10C0
331
10FC
  5
10FF
331
117A
  5
117E
331
CC7
  5
CC9
331
1227
  5
122B
331
D0E
  5
D10
331
D45
  5
D47
331
D84
  5
D87
331
DBB
  5
DBE
331
EDA
  5
108E
331
CCF
  5
CD1
331
122F
  5
1233
331
1412
  5
1434
331
1373
  5
13B5
331
1720
  5
177F
331
21E5
  5
21E5
331
224C
  5
224D
331
1559
  5
1605
331
21ED
  5
21ED
331
2254
  5
2255
331
220D
  5
220D
331
C1E
  5
C1E
331
BDF
  5
BDF
331
C26
  5
C26
331
BE7
  5
BE7
331
BEF
  5
BEF
331
C2E
  5
C2E
331
BF7
  5
BF7
331
C98
  5
C99
331
11F8
  5
11FC
331
C51
  5
C51
331
11B9
  5
11BD
331
10C5
  5
10C8
331
1104
  5
1107
331
1143
  5
1146
331
1182
  5
1186
331
CD7
  5
CD9
331
D16
  5
D18
331
D4D
  5
D50
331
D8C
  5
D8F
331
DC3
  5
DC6
331
CA0
  5
CA1
331
1200
  5
1204
331
C59
  5
C59
331
11C1
  5
11C5
331
10CD
  5
10D0
331
110C
  5
110F
331
114B
  5
114F
331
118A
  5
118E
331
CA8
  5
CA9
331
1208
  5
120C
331
CDF
  5
CE1
331
D1E
  5
D20
331
D55
  5
D58
331
D94
  5
D97
331
DCB
  5
DCE
331
1092
  5
1095
331
1192
  5
1196
331
C61
  5
C61
331
11C9
  5
11CD
331
1114
  5
111A
331
10D5
  5
10D8
331
1153
  5
1157
331
D9C
  5
D9F
331
D26
  5
D28
331
10DD
  5
10E0
331
115B
  5
115F
331
11D1
  5
11D5
331
CE7
  5
CE9
331
D5D
  5
D60
331
DD3
  5
DD6
331
109A
  5
109D
331
CEF
  5
CF1
331
D65
  5
D68
331
DDB
  5
DDE
331
2215
  5
2216
331
221D
  5
221E
331
13FB
  5
142D
331
222D
  5
222D
331
BFF
  5
BFF
331
C07
  5
C07
331
BD0
  5
BD0
331
C0F
  5
C0F
331
C17
  5
C17
331
CB0
  5
CB1
331
1210
  5
1214
331
C79
  5
C79
331
11D9
  5
11DD
331
C32
  5
C32
331
119A
  5
119E
331
10A6
  5
10A9
331
10E5
  5
10E8
331
111C
  5
1121
331
1163
  5
1167
331
CF7
  5
CF9
331
D2E
  5
D30
331
D6D
  5
D70
331
DA4
  5
DA7
331
DE3
  5
DE6
331
CB8
  5
CB9
331
1218
  5
121C
331
C81
  5
C81
331
11E1
  5
11E5
331
C3A
  5
C3A
331
11A2
  5
11A7
331
10AE
  5
10B1
331
10ED
  5
10F0
331
116B
  5
116F
331
CFF
  5
D01
331
D36
  5
D38
331
D75
  5
D78
331
DAC
  5
DAF
331
CC0
  5
CC1
331
1220
  5
1224
331
C89
  5
C8A
331
11E9
  5
11EE
331
C42
  5
C42
331
11AA
  5
11AE
331
10B6
  5
10B9
331
10F5
  5
10F8
331
1134
  5
1138
331
1173
  5
1177
331
CC8
  5
CCA
331
1228
  5
122C
331
C91
  5
C92
331
11F1
  5
11F5
331
C4A
  5
C4A
331
11B2
  5
11B6
331
10BE
  5
10C1
331
10FD
  5
1100
331
113C
  5
113F
331
117B
  5
117F
331
D07
  5
D09
331
D3E
  5
D40
331
D7D
  5
D80
331
DB4
  5
DB7
331
D0F
  5
D11
331
D46
  5
D48
331
D85
  5
D88
331
DBC
  5
DBF
331
21E6
  5
21E6
331
224D
  5
224E
331
19B1
  5
1ABB
331
21EE
  5
21EE
331
220E
  5
220E
331
BD8
  5
BD8
331
C1F
  5
C1F
331
BE0
  5
BE0
331
C27
  5
C27
331
BE8
  5
BE8
331
BF0
  5
BF0
331
C2F
  5
C2F
331
CD0
  5
CD2
331
1230
  5
1234
331
C99
  5
C9A
331
11F9
  5
11FD
331
C52
  5
C52
331
11BA
  5
11BE
331
10C6
  5
10C9
331
1105
  5
1108
331
1144
  5
1148
331
1183
  5
1187
331
CD8
  5
CDA
331
D17
  5
D19
331
D4E
  5
D51
331
D8D
  5
D90
331
DC4
  5
DC7
331
CA1
  5
CA2
331
1201
  5
1205
331
C5A
  5
C5A
331
11C2
  5
11C6
331
10CE
  5
10D1
331
110D
  5
1110
331
114C
  5
1150
331
118B
  5
118F
331
CA9
  5
CAA
331
1209
  5
120D
331
CE0
  5
CE2
331
D1F
  5
D21
331
D56
  5
D59
331
D95
  5
D98
331
DCC
  5
DCF
331
1093
  5
1096
331
1193
  5
1197
331
1115
  5
111C
331
10D6
  5
10D9
331
1154
  5
1158
331
11CA
  5
11CE
331
D9D
  5
DA0
331
D5E
  5
D61
331
DD4
  5
DD7
331
109B
  5
109E
331
D27
  5
D29
331
CE8
  5
CEA
331
C72
  5
C72
331
11D2
  5
11D6
331
10DE
  5
10E1
331
115C
  5
1160
331
1307
  5
1349
331
D66
  5
D69
331
DDC
  5
DDF
331
19D1
  5
21CB
331
131D
  5
1373
331
2216
  5
2217
331
162A
  5
170A
331
222E
  5
222E
331
BF8
  5
BF8
331
C00
  5
C00
331
C08
  5
C08
331
C10
  5
C10
331
BD1
  5
BD1
331
CF0
  5
CF2
331
C7A
  5
C7A
331
11DA
  5
11DE
331
C33
  5
C33
331
119B
  5
119F
331
10A7
  5
10AA
331
10E6
  5
10E9
331
1164
  5
1168
331
1211
  5
1215
331
CF8
  5
CFA
331
D2F
  5
D31
331
D6E
  5
D71
331
DA5
  5
DA8
331
DE4
  5
DE7
331
CB9
  5
CBA
331
1219
  5
121D
331
C3B
  5
C3B
331
C82
  5
C82
331
11E2
  5
11E6
331
10AF
  5
10B2
331
10EE
  5
10F1
331
116C
  5
1170
331
D00
  5
D02
331
D37
  5
D39
331
D76
  5
D79
331
DAD
  5
DB0
331
CC1
  5
CC2
331
1221
  5
1225
331
C43
  5
C43
331
11AB
  5
11AF
331
10B7
  5
10BA
331
10F6
  5
10F9
331
1174
  5
1178
331
11EA
  5
11EF
331
D3F
  5
D41
331
D7E
  5
D81
331
DB5
  5
DB8
331
D08
  5
D0A
331
12B0
  5
1307
331
CC9
  5
CCB
331
1229
  5
122D
331
C92
  5
C93
331
11F2
  5
11F6
331
C4B
  5
C4B
331
11B3
  5
11B7
331
10BF
  5
10C2
331
10FE
  5
1101
331
113D
  5
1140
331
117C
  5
1180
331
D47
  5
D49
331
D86
  5
D89
331
DBD
  5
DC0
331
1543
  5
15E9
331
142C
  5
1435
331
21E7
  5
21E7
331
224E
  5
224F
331
1434
  5
14BF
331
21EF
  5
21EF
331
220F
  5
220F
331
C18
  5
C18
331
BD9
  5
BD9
331
C20
  5
C20
331
BE1
  5
BE1
331
BE9
  5
BE9
331
C28
  5
C28
331
BF1
  5
BF1
331
D10
  5
D12
331
CD1
  5
CD3
331
1231
  5
1235
331
C9A
  5
C9B
331
11FA
  5
11FE
331
C53
  5
C53
331
11BB
  5
11BF
331
10C7
  5
10CA
331
1106
  5
1109
331
1145
  5
1149
331
1184
  5
1188
331
D4F
  5
D52
331
D8E
  5
D91
331
DC5
  5
DC8
331
108C
  5
108F
331
CD9
  5
CDB
331
D18
  5
D1A
331
12F0
  5
1333
331
CA2
  5
CA3
331
1202
  5
1206
331
C5B
  5
C5B
331
11C3
  5
11C7
331
10CF
  5
10D2
331
110E
  5
1111
331
114D
  5
1151
331
118C
  5
1190
331
D20
  5
D22
331
CAA
  5
CAB
331
120A
  5
120E
331
CE1
  5
CE3
331
D57
  5
D5A
331
D96
  5
D99
331
DCD
  5
DD0
331
1094
  5
1097
331
1194
  5
1198
331
10D7
  5
10DA
331
1155
  5
1159
331
11CB
  5
11CF
331
109C
  5
109F
331
D9E
  5
DA1
331
CE9
  5
CEB
331
C73
  5
C73
331
11D3
  5
11D7
331
10DF
  5
10E2
331
115D
  5
1161
331
D5F
  5
D62
331
DD5
  5
DD8
331
D67
  5
D6A
331
DDD
  5
DE0
331
19D2
  5
21CC
331
13E5
  5
142C
331
2217
  5
2218
331
222F
  5
222F
331
BF9
  5
BF9
331
C01
  5
C01
331
C09
  5
C09
331
BD2
  5
BD2
331
C11
  5
C11
331
10A0
  5
10A3
331
CF1
  5
CF3
331
D28
  5
D2A
331
CB2
  5
CB3
331
1212
  5
1216
331
C7B
  5
C7B
331
11DB
  5
11DF
331
C34
  5
C34
331
119C
  5
11A0
331
10A8
  5
10AB
331
10E7
  5
10EA
331
1165
  5
1169
331
CF9
  5
CFB
331
D30
  5
D32
331
D6F
  5
D72
331
DA6
  5
DA9
331
DE5
  5
DE8
331
CBA
  5
CBB
331
121A
  5
121E
331
C83
  5
C84
331
11E3
  5
11E7
331
C3C
  5
C3C
331
11A4
  5
11A8
331
10B0
  5
10B3
331
10EF
  5
10F2
331
116D
  5
1171
331
D01
  5
D03
331
D38
  5
D3A
331
D77
  5
D7A
331
DAE
  5
DB1
331
CC2
  5
CC3
331
1222
  5
1226
331
C8B
  5
C8C
331
11EB
  5
11F0
331
C44
  5
C44
331
11AC
  5
11B0
331
10B8
  5
10BB
331
10F7
  5
10FA
331
1136
  5
1139
331
1175
  5
1179
331
D09
  5
D0B
331
D40
  5
D42
331
CCA
  5
CCC
331
C4C
  5
C4C
331
10FF
  5
1102
331
113E
  5
1141
331
117D
  5
1181
331
11B4
  5
11B8
331
11F3
  5
11F7
331
122A
  5
122E
331
D7F
  5
D82
331
DB6
  5
DB9
331
ED5
  5
ED8
331
D87
  5
D8A
331
DBE
  5
DC1
331
224F
  5
2250
331
142D
  5
1436
331
21E8
  5
21E8
331
1435
  5
1505
331
21F0
  5
21F0
331
BDA
  5
BDA
331
C19
  5
C19
331
BE2
  5
BE2
331
C21
  5
C21
331
BEA
  5
BEA
331
C29
  5
C29
331
BF2
  5
BF2
331
10C0
  5
10C3
331
D11
  5
D13
331
D48
  5
D4A
331
CD2
  5
CD4
331
C9B
  5
C9C
331
C54
  5
C54
331
10C8
  5
10CB
331
1107
  5
110A
331
1146
  5
114A
331
1185
  5
1189
331
11BC
  5
11C0
331
11FB
  5
11FF
331
1232
  5
12B0
331
108D
  5
1090
331
CDA
  5
CDC
331
D19
  5
D1B
331
D50
  5
D53
331
D8F
  5
D92
331
DC6
  5
DC9
331
CA3
  5
CA4
331
C5C
  5
C5C
331
10D0
  5
10D3
331
110F
  5
1112
331
114E
  5
1152
331
118D
  5
1191
331
11C4
  5
11C8
331
1203
  5
1207
331
D21
  5
D23
331
CAB
  5
CAC
331
120B
  5
120F
331
CE2
  5
CE4
331
D58
  5
D5B
331
D97
  5
D9A
331
DCE
  5
DD1
331
1095
  5
1098
331
1195
  5
1199
331
10D8
  5
10DB
331
1156
  5
115A
331
11CC
  5
11D0
331
109D
  5
10A0
331
D9F
  5
DA2
331
CEA
  5
CEC
331
D60
  5
D63
331
C74
  5
C74
331
115E
  5
1162
331
11D4
  5
11D8
331
DD6
  5
DD9
331
DDE
  5
DE1
331
2210
  5
2210
331
2218
  5
2219
331
2230
  5
2230
331
1ABB
  5
21CD
331
1505
  5
1596
331
1644
  5
1720
331
BFA
  5
BFA
331
C02
  5
C02
331
C0A
  5
C0A
331
BD3
  5
BD3
331
C12
  5
C12
331
10A1
  5
10A4
331
10E0
  5
10E3
331
CF2
  5
CF4
331
D29
  5
D2B
331
D68
  5
D6B
331
CB3
  5
CB4
331
C7C
  5
C7C
331
C35
  5
C35
331
10A9
  5
10AC
331
10E8
  5
10EB
331
111F
  5
1134
331
1166
  5
116A
331
119D
  5
11A1
331
11DC
  5
11E0
331
1213
  5
1217
331
DE6
  5
DE9
331
CFA
  5
CFC
331
D31
  5
D33
331
D70
  5
D73
331
DA7
  5
DAA
331
CBB
  5
CBC
331
C84
  5
C85
331
C3D
  5
C3D
331
10B1
  5
10B4
331
10F0
  5
10F3
331
116E
  5
1172
331
11A5
  5
11A9
331
11E4
  5
11E8
331
121B
  5
121F
331
D02
  5
D04
331
D39
  5
D3B
331
D78
  5
D7B
331
DAF
  5
DB2
331
C8C
  5
C8D
331
CC3
  5
CC5
331
C45
  5
C45
331
10B9
  5
10BD
331
10F8
  5
10FB
331
1137
  5
113A
331
1176
  5
117A
331
11AD
  5
11B1
331
1223
  5
1227
331
D0A
  5
D0C
331
D41
  5
D43
331
D80
  5
D83
331
CCB
  5
CCD
331
C94
  5
C95
331
C4D
  5
C4D
331
113F
  5
1142
331
117E
  5
1182
331
11B5
  5
11B9
331
11F4
  5
11F8
331
122B
  5
122F
331
DB7
  5
DBA
331
ED6
  5
ED9
331
DBF
  5
DC2
331
2248
  5
2248
331
16F4
  5
173A
331
2250
  5
2251
331
21E9
  5
21E9
331
1436
  5
1543
331
21F1
  5
21F1
331
139F
  5
13E5
331
BDB
  5
BDB
331
C1A
  5
C1A
331
BE3
  5
BE3
331
C22
  5
C22
331
C2A
  5
C2A
331
BEB
  5
BEB
331
BF3
  5
BF3
331
10C1
  5
10C4
331
1100
  5
1103
331
D49
  5
D4B
331
D88
  5
D8B
331
D12
  5
D14
331
CD3
  5
CD5
331
C9C
  5
C9D
331
C55
  5
C55
331
10C9
  5
10CC
331
1108
  5
110B
331
1147
  5
114B
331
1186
  5
118A
331
11BD
  5
11C1
331
11FC
  5
1200
331
1233
  5
12CA
331
12CA
  5
131D
331
DC7
  5
DCA
331
CDB
  5
CDD
331
D1A
  5
D1C
331
D51
  5
D54
331
D90
  5
D93
331
108E
  5
1091
331
CA4
  5
CA5
331
C5D
  5
C5D
331
1110
  5
1113
331
10D1
  5
10D4
331
114F
  5
1153
331
118E
  5
1192
331
11C5
  5
11C9
331
1204
  5
1208
331
D98
  5
D9B
331
D22
  5
D24
331
CAC
  5
CAD
331
120C
  5
1210
331
CE3
  5
CE5
331
D59
  5
D5C
331
DCF
  5
DD2
331
1096
  5
1099
331
1196
  5
119A
331
10D9
  5
10DC
331
1157
  5
115B
331
11CD
  5
11D1
331
109E
  5
10A1
331
CEB
  5
CED
331
D61
  5
D64
331
C75
  5
C75
331
115F
  5
1163
331
11D5
  5
11D9
331
DD7
  5
DDA
331
DDF
  5
DE2
331
2211
  5
2211
331
1605
  5
162A
331
2219
  5
221A
331
2231
  5
2231
331
BFB
  5
BFB
331
C03
  5
C03
331
BCC
  5
BCC
331
C0B
  5
C0B
331
BD4
  5
BD4
331
C13
  5
C13
331
10A2
  5
10A5
331
10E1
  5
10E4
331
CF3
  5
CF5
331
D2A
  5
D2C
331
D69
  5
D6C
331
DA0
  5
DA3
331
CB4
  5
CB5
331
C36
  5
C36
331
10AA
  5
10AD
331
10E9
  5
10EC
331
1120
  5
1135
331
1167
  5
116B
331
119E
  5
11A2
331
11DD
  5
11E1
331
1214
  5
1218
331
DA8
  5
DAB
331
CFB
  5
CFD
331
D32
  5
D34
331
D71
  5
D74
331
DE7
  5
ED6
331
CBC
  5
CBD
331
C85
  5
C86
331
C3E
  5
C3E
331
10B2
  5
10B5
331
10F1
  5
10F4
331
116F
  5
1173
331
11A6
  5
11AA
331
11E5
  5
11E9
331
121C
  5
1220
331
D03
  5
D05
331
D3A
  5
D3C
331
D79
  5
D7C
331
DB0
  5
DB3
331
CC4
  5
CC6
331
C8D
  5
C8E
331
C46
  5
C46
331
10BA
  5
10BE
331
10F9
  5
10FC
331
1138
  5
113D
331
1177
  5
117B
331
11AE
  5
11B2
331
11ED
  5
11F1
331
1224
  5
1228
331
DB8
  5
DBB
331
D81
  5
D85
331
D0B
  5
D0D
331
D42
  5
D44
331
CCC
  5
CCE
331
C95
  5
C96
331
C4E
  5
C4E
331
117F
  5
1183
331
11B6
  5
11BA
331
11F5
  5
11F9
331
122C
  5
1230
331
ED7
  5
EDA
331
2249
  5
2249
331
2251
  5
2252
331
21EA
  5
21EA
331
21F2
  5
21F2
331
1596
  5
1606
331
C1B
  5
C1B
331
BDC
  5
BDC
331
C23
  5
C23
331
BE4
  5
BE4
331
C2B
  5
C2B
331
BEC
  5
BEC
331
BF4
  5
BF4
331
10C2
  5
10C5
331
1101
  5
1104
331
1140
  5
1143
331
DC0
  5
DC3
331
D89
  5
D8C
331
D13
  5
D15
331
D4A
  5
D4C
331
CD4
  5
CD6
331
C9D
  5
C9E
331
C56
  5
C56
331
10CA
  5
10CD
331
1109
  5
110C
331
1148
  5
114C
331
1187
  5
118B
331
11BE
  5
11C2
331
11FD
  5
1201
331
1234
  5
12F0
331
DC8
  5
DCB
331
D91
  5
D94
331
CDC
  5
CDE
331
D1B
  5
D1D
331
D52
  5
D55
331
108F
  5
1092
331
CA5
  5
CA6
331
C5E
  5
C5E
331
1111
  5
1114
331
10D2
  5
10D5
331
1150
  5
1154
331
118F
  5
1193
331
11C6
  5
11CA
331
1205
  5
1209
331
D99
  5
D9C
331
DD0
  5
DD3
331
D23
  5
D25
331
CAD
  5
CAE
331
120D
  5
1211
331
CE4
  5
CE6
331
D5A
  5
D5D
331
1097
  5
109A
331
1197
  5
119B
331
10DA
  5
10DD
331
1158
  5
115C
331
11CE
  5
11D2
331
109F
  5
10A2
331
DD8
  5
DDB
331
CEC
  5
CEE
331
D62
  5
D65
331
C76
  5
C76
331
11D6
  5
11DA
331
2212
  5
2213
331
14BF
  5
1559
331
1606
  5
1644
331
221A
  5
221B
331
2232
  5
2232
331
BFC
  5
BFC
331
C04
  5
C04
331
C0C
  5
C0C
331
BCD
  5
BCD
331
C14
  5
C14
331
BD5
  5
BD5
331
10A3
  5
10A6
331
10E2
  5
10E5
331
1119
  5
111D
331
1160
  5
1164
331
DE0
  5
DE3
331
DA1
  5
DA4
331
CF4
  5
CF6
331
D2B
  5
D2D
331
D6A
  5
D6D
331
CB5
  5
CB6
331
C37
  5
C37
331
10AB
  5
10AE
331
10EA
  5
10ED
331
1168
  5
116C
331
119F
  5
11A3
331
11DE
  5
11E2
331
1215
  5
1219
331
DE8
  5
ED7
331
DA9
  5
DAC
331
D72
  5
D75
331
CFC
  5
CFE
331
D33
  5
D35
331
CBD
  5
CBE
331
C86
  5
C87
331
C3F
  5
C3F
331
10B3
  5
10B6
331
10F2
  5
10F5
331
1170
  5
1174
331
11A7
  5
11AB
331
11E6
  5
11EA
331
121D
  5
1221
331
DB1
  5
DB4
331
D04
  5
D06
331
D3B
  5
D3D
331
D7A
  5
D7D
331
CC5
  5
CC7
331
C8E
  5
C8F
331
10FA
  5
10FD
331
1139
  5
113E
331
1178
  5
117C
331
C47
  5
C47
331
11AF
  5
11B3
331
11EE
  5
11F2
331
1225
  5
1229
331
DB9
  5
DBC
331
D82
  5
D86
331
D0C
  5
D0E
331
D43
  5
D45
331
ED8
  5
108B
331
CCD
  5
CCF
331
C96
  5
C97
331
C4F
  5
C4F
331
11B7
  5
11BB
331
11F6
  5
11FA
331
122D
  5
1231
  0
XRECORD
  5
28C6
102
{ACAD_REACTORS
330
28C5
102
}
330
28C5
100
AcDbXrecord
340
289D
  0
ACAD_PROXY_OBJECT
  5
811
102
{ACAD_XDICTIONARY
360
812
102
}
102
{ACAD_REACTORS
330
808
102
}
330
808
100
AcDbProxyObject
 90
      499
 91
      512
 93
     1340
310
42109E509B1BD8DAC02004014080404555555555555953FAA155555555555654FEA9AA400014080404555555555555953FAA155555555555654FEA9AA400000000000000E03F4080404555555555555953FAA155555555555654FEA9AA4014080404555555555555953FAA155555555555654FEA9AA4010201011555555555
310
55654FEA8555555555555953FAA6A9005020101155555555555654FEA8555555555555953FAA6A9002
 94
        0
1001
ACAD
1000
AcadProxyRoundTripData
1071
      504
1071
   851991
1070
     0
  0
ACAD_PROXY_OBJECT
  5
809
102
{ACAD_XDICTIONARY
360
80A
102
}
102
{ACAD_REACTORS
330
808
102
}
330
808
100
AcDbProxyObject
 90
      499
 91
      512
 93
     1340
310
42109E53185E595C802004014080404555555555555953FAA155555555555654FEA9AA400014080404555555555555953FAA155555555555654FEA9AA400000000000000E03F4080404555555555555953FAA155555555555654FEA9AA4014080404555555555555953FAA155555555555654FEA9AA4010201011555555555
310
55654FEA8555555555555953FAA6A9005020101155555555555654FEA8555555555555953FAA6A9002
 94
        0
1001
ACAD
1000
AcadProxyRoundTripData
1071
      504
1071
   851991
1070
     0
  0
ACAD_PROXY_OBJECT
  5
819
102
{ACAD_XDICTIONARY
360
81A
102
}
102
{ACAD_REACTORS
330
808
102
}
330
808
100
AcDbProxyObject
 90
      499
 91
      512
 93
     1332
310
41D1DB1BD8985B002004014080404555555555555953FAA155555555555654FEA9AA400014080404555555555555953FAA155555555555654FEA9AA400000000000000E03F4080404555555555555953FAA155555555555654FEA9AA4014080404555555555555953FAA155555555555654FEA9AA401020101155555555555
310
654FEA8555555555555953FAA6A9005020101155555555555654FEA8555555555555953FAA6A9000
 94
        0
1001
ACAD
1000
AcadProxyRoundTripData
1071
      504
1071
   851991
1070
     0
  0
ACAD_PROXY_OBJECT
  5
858
102
{ACAD_REACTORS
330
857
102
}
330
857
100
AcDbProxyObject
 90
      499
 91
      512
 93
      618
310
40901902A4063FBFFFFFE056BD1B81E855B9FC0AD7A3703D0AD73F4254DD185B99185C990000AD7A3703D0AC73F90141901A02B5E8DC0F42B1CFC02B5E8DC0F42B1CFE5764000000000000300FC6
340
6A
340
0
340
16
340
0
 94
        0
1001
ACAD_MLEADERVER
1070
     2
1001
ACAD
1000
AcadProxyRoundTripData
1071
      508
1071
   851991
1070
     0
  0
MLINESTYLE
  5
78
102
{ACAD_REACTORS
330
76
102
}
330
76
100
AcDbMlineStyle
  2
STANDARD
 70
     0
  3

 62
     0
 51
90.0
 52
90.0
 71
     2
 49
0.5
 62
   256
  6
BYLAYER
 49
-0.5
 62
   256
  6
BYLAYER
  0
ACDBPLACEHOLDER
  5
5
102
{ACAD_REACTORS
330
6
102
}
330
6
100
AcDbPlaceHolder
280
     0
  0
ACAD_PROXY_OBJECT
  5
836
102
{ACAD_REACTORS
330
835
102
}
330
835
100
AcDbProxyObject
 90
      499
 91
      512
 93
       49
310
904313A3100598
 94
        0
1001
ACAD
1000
AcadProxyRoundTripData
1071
      507
1071
   851991
1070
     0
  0
ACAD_PROXY_OBJECT
  5
837
102
{ACAD_REACTORS
330
835
102
}
330
835
100
AcDbProxyObject
 90
      499
 91
      512
 93
      113
310
904313A3200400000000000000406B
 94
        0
1001
ACAD
1000
AcadProxyRoundTripData
1071
      507
1071
   851991
1070
     0
  0
ACAD_PROXY_OBJECT
  5
838
102
{ACAD_REACTORS
330
835
102
}
330
835
100
AcDbProxyObject
 90
      499
 91
      512
 93
      113
310
904313A3400400000000000010406B
 94
        0
1001
ACAD
1000
AcadProxyRoundTripData
1071
      507
1071
   851991
1070
     0
  0
ACAD_PROXY_OBJECT
  5
839
102
{ACAD_REACTORS
330
835
102
}
330
835
100
AcDbProxyObject
 90
      499
 91
      512
 93
      113
310
904313A3500400000000000014406B
 94
        0
1001
ACAD
1000
AcadProxyRoundTripData
1071
      507
1071
   851991
1070
     0
  0
ACAD_PROXY_OBJECT
  5
83A
102
{ACAD_REACTORS
330
835
102
}
330
835
100
AcDbProxyObject
 90
      499
 91
      512
 93
      113
310
904313A3800400000000000020406B
 94
        0
1001
ACAD
1000
AcadProxyRoundTripData
1071
      507
1071
   851991
1070
     0
  0
ACAD_PROXY_OBJECT
  5
83B
102
{ACAD_REACTORS
330
835
102
}
330
835
100
AcDbProxyObject
 90
      499
 91
      512
 93
      121
310
905313A3130004000000000000244051
 94
        0
1001
ACAD
1000
AcadProxyRoundTripData
1071
      507
1071
   851991
1070
     0
  0
ACAD_PROXY_OBJECT
  5
83C
102
{ACAD_REACTORS
330
835
102
}
330
835
100
AcDbProxyObject
 90
      499
 91
      512
 93
      121
310
905313A3136004000000000000304051
 94
        0
1001
ACAD
1000
AcadProxyRoundTripData
1071
      507
1071
   851991
1070
     0
  0
ACAD_PROXY_OBJECT
  5
83D
102
{ACAD_REACTORS
330
835
102
}
330
835
100
AcDbProxyObject
 90
      499
 91
      512
 93
      121
310
905313A3230004000000000000344051
 94
        0
1001
ACAD
1000
AcadProxyRoundTripData
1071
      507
1071
   851991
1070
     0
  0
ACAD_PROXY_OBJECT
  5
83E
102
{ACAD_REACTORS
330
835
102
}
330
835
100
AcDbProxyObject
 90
      499
 91
      512
 93
      121
310
905313A33300040000000000003E4051
 94
        0
1001
ACAD
1000
AcadProxyRoundTripData
1071
      507
1071
   851991
1070
     0
  0
ACAD_PROXY_OBJECT
  5
83F
102
{ACAD_REACTORS
330
835
102
}
330
835
100
AcDbProxyObject
 90
      499
 91
      512
 93
      121
310
905313A3430004000000000000444051
 94
        0
1001
ACAD
1000
AcadProxyRoundTripData
1071
      507
1071
   851991
1070
     0
  0
ACAD_PROXY_OBJECT
  5
840
102
{ACAD_REACTORS
330
835
102
}
330
835
100
AcDbProxyObject
 90
      499
 91
      512
 93
      121
310
905313A3530004000000000000494051
 94
        0
1001
ACAD
1000
AcadProxyRoundTripData
1071
      507
1071
   851991
1070
     0
  0
ACAD_PROXY_OBJECT
  5
841
102
{ACAD_REACTORS
330
835
102
}
330
835
100
AcDbProxyObject
 90
      499
 91
      512
 93
      129
310
906313A313030004000000000000594038
 94
        0
1001
ACAD
1000
AcadProxyRoundTripData
1071
      507
1071
   851991
1070
     0
  0
ACAD_PROXY_OBJECT
  5
842
102
{ACAD_REACTORS
330
835
102
}
330
835
100
AcDbProxyObject
 90
      499
 91
      512
 93
      113
310
904323A31000000000000000010159
 94
        0
1001
ACAD
1000
AcadProxyRoundTripData
1071
      507
1071
   851991
1070
     0
  0
ACAD_PROXY_OBJECT
  5
843
102
{ACAD_REACTORS
330
835
102
}
330
835
100
AcDbProxyObject
 90
      499
 91
      512
 93
      113
310
904343A31000000000000000410159
 94
        0
1001
ACAD
1000
AcadProxyRoundTripData
1071
      507
1071
   851991
1070
     0
  0
ACAD_PROXY_OBJECT
  5
844
102
{ACAD_REACTORS
330
835
102
}
330
835
100
AcDbProxyObject
 90
      499
 91
      512
 93
      113
310
904383A31000000000000000810159
 94
        0
1001
ACAD
1000
AcadProxyRoundTripData
1071
      507
1071
   851991
1070
     0
  0
ACAD_PROXY_OBJECT
  5
845
102
{ACAD_REACTORS
330
835
102
}
330
835
100
AcDbProxyObject
 90
      499
 91
      512
 93
      121
310
90531303A31000000000000000910140
 94
        0
1001
ACAD
1000
AcadProxyRoundTripData
1071
      507
1071
   851991
1070
     0
  0
ACAD_PROXY_OBJECT
  5
846
102
{ACAD_REACTORS
330
835
102
}
330
835
100
AcDbProxyObject
 90
      499
 91
      512
 93
      129
310
9063130303A31000000000000001650138
 94
        0
1001
ACAD
1000
AcadProxyRoundTripData
1071
      507
1071
   851991
1070
     0
  0
ACAD_PROXY_OBJECT
  5
847
102
{ACAD_REACTORS
330
835
102
}
330
835
100
AcDbProxyObject
 90
      499
 91
      512
 93
      265
310
90F312F31323822203D2031272D302200000000000000200FC00000000000028402B
 94
        0
1001
ACAD
1000
AcadProxyRoundTripData
1071
      507
1071
   851991
1070
     0
  0
ACAD_PROXY_OBJECT
  5
848
102
{ACAD_REACTORS
330
835
102
}
330
835
100
AcDbProxyObject
 90
      499
 91
      512
 93
      257
310
90E312F363422203D2031272D302200000000000000240FC000000000000284040
 94
        0
1001
ACAD
1000
AcadProxyRoundTripData
1071
      507
1071
   851991
1070
     0
  0
ACAD_PROXY_OBJECT
  5
849
102
{ACAD_REACTORS
330
835
102
}
330
835
100
AcDbProxyObject
 90
      499
 91
      512
 93
      257
310
90E312F333222203D2031272D302200000000000000280FC000000000000284040
 94
        0
1001
ACAD
1000
AcadProxyRoundTripData
1071
      507
1071
   851991
1070
     0
  0
ACAD_PROXY_OBJECT
  5
84A
102
{ACAD_REACTORS
330
835
102
}
330
835
100
AcDbProxyObject
 90
      499
 91
      512
 93
      257
310
90E312F313622203D2031272D3022000000000000002C0FC000000000000284040
 94
        0
1001
ACAD
1000
AcadProxyRoundTripData
1071
      507
1071
   851991
1070
     0
  0
ACAD_PROXY_OBJECT
  5
84B
102
{ACAD_REACTORS
330
835
102
}
330
835
100
AcDbProxyObject
 90
      499
 91
      512
 93
      257
310
90E332F333222203D2031272D3022000000000000002E0FC000000000000284040
 94
        0
1001
ACAD
1000
AcadProxyRoundTripData
1071
      507
1071
   851991
1070
     0
  0
ACAD_PROXY_OBJECT
  5
84C
102
{ACAD_REACTORS
330
835
102
}
330
835
100
AcDbProxyObject
 90
      499
 91
      512
 93
      249
310
90D312F3822203D2031272D302200000000000000300FC000000000000284040
 94
        0
1001
ACAD
1000
AcadProxyRoundTripData
1071
      507
1071
   851991
1070
     0
  0
ACAD_PROXY_OBJECT
  5
84D
102
{ACAD_REACTORS
330
835
102
}
330
835
100
AcDbProxyObject
 90
      499
 91
      512
 93
      257
310
90E332F313622203D2031272D302200000000000000320FC000000000000284040
 94
        0
1001
ACAD
1000
AcadProxyRoundTripData
1071
      507
1071
   851991
1070
     0
  0
ACAD_PROXY_OBJECT
  5
84E
102
{ACAD_REACTORS
330
835
102
}
330
835
100
AcDbProxyObject
 90
      499
 91
      512
 93
      249
310
90D312F3422203D2031272D302200000000000000340FC000000000000284040
 94
        0
1001
ACAD
1000
AcadProxyRoundTripData
1071
      507
1071
   851991
1070
     0
  0
ACAD_PROXY_OBJECT
  5
84F
102
{ACAD_REACTORS
330
835
102
}
330
835
100
AcDbProxyObject
 90
      499
 91
      512
 93
      249
310
90D332F3822203D2031272D302200000000000000360FC000000000000284040
 94
        0
1001
ACAD
1000
AcadProxyRoundTripData
1071
      507
1071
   851991
1070
     0
  0
ACAD_PROXY_OBJECT
  5
850
102
{ACAD_REACTORS
330
835
102
}
330
835
100
AcDbProxyObject
 90
      499
 91
      512
 93
      249
310
90D312F3222203D2031272D302200000000000000380FC000000000000284040
 94
        0
1001
ACAD
1000
AcadProxyRoundTripData
1071
      507
1071
   851991
1070
     0
  0
ACAD_PROXY_OBJECT
  5
851
102
{ACAD_REACTORS
330
835
102
}
330
835
100
AcDbProxyObject
 90
      499
 91
      512
 93
      249
310
90D332F3422203D2031272D3022000000000000003A0FC000000000000284040
 94
        0
1001
ACAD
1000
AcadProxyRoundTripData
1071
      507
1071
   851991
1070
     0
  0
ACAD_PROXY_OBJECT
  5
852
102
{ACAD_REACTORS
330
835
102
}
330
835
100
AcDbProxyObject
 90
      499
 91
      512
 93
      169
310
90B3122203D2031272D3022004000000000000284020
 94
        0
1001
ACAD
1000
AcadProxyRoundTripData
1071
      507
1071
   851991
1070
     0
  0
ACAD_PROXY_OBJECT
  5
853
102
{ACAD_REACTORS
330
835
102
}
330
835
100
AcDbProxyObject
 90
      499
 91
      512
 93
      265
310
90F312D312F3222203D2031272D3022000000000000003E0FC00000000000028402B
 94
        0
1001
ACAD
1000
AcadProxyRoundTripData
1071
      507
1071
   851991
1070
     0
  0
ACAD_PROXY_OBJECT
  5
854
102
{ACAD_REACTORS
330
835
102
}
330
835
100
AcDbProxyObject
 90
      499
 91
      512
 93
      233
310
90B3322203D2031272D30220000000000000002100000000000000284000
 94
        0
1001
ACAD
1000
AcadProxyRoundTripData
1071
      507
1071
   851991
1070
     0
  0
ACAD_PROXY_OBJECT
  5
855
102
{ACAD_REACTORS
330
835
102
}
330
835
100
AcDbProxyObject
 90
      499
 91
      512
 93
      233
310
90B3622203D2031272D30220000000000000006100000000000000284000
 94
        0
1001
ACAD
1000
AcadProxyRoundTripData
1071
      507
1071
   851991
1070
     0
  0
ACAD_PROXY_OBJECT
  5
856
102
{ACAD_REACTORS
330
835
102
}
330
835
100
AcDbProxyObject
 90
      499
 91
      512
 93
      257
310
90E31272D3022203D2031272D3022000000000000000A100000000000000284040
 94
        0
1001
ACAD
1000
AcadProxyRoundTripData
1071
      507
1071
   851991
1070
     0
  0
ACAD_PROXY_OBJECT
  5
834
102
{ACAD_XDICTIONARY
360
88C
102
}
102
{ACAD_REACTORS
330
833
102
}
330
833
100
AcDbProxyObject
 90
      499
 91
      512
 93
     1849
310
4254DD185B99185C990028B81E85EB51B8AE3F2E07A17AD46E2B8FC02B5E8DC0F42B1CFD028000000C1008070000C3001FDFF8000000C1003FBFF000000182007F7FE00000030400FEFFC00000060801FDFF8000000C1003FBFF00000018200000000000000681FA0B0000001820100E000186003FBFF000000182007F7FE0
310
0000030400FEFFC00000060801FDFF8000000C1003FBFF000000182007F7FE000000304000AD7A3703D0AC73F4160000003040201C00030C007F7FE00000030400FEFFC00000060801FDFF8000000C1003FBFF000000182007F7FE00000030400FEFFC00000060804E
340
16
340
16
340
16
 94
        0
1001
ACAD
1000
AcadProxyRoundTripData
1071
      506
1071
   851991
1070
     0
  0
ACAD_PROXY_OBJECT
  5
827
102
{ACAD_REACTORS
330
821
102
}
330
821
100
AcDbProxyObject
 90
      499
 91
      512
 93
      444
310
430C9915DA5C99599C985B59401049028333333333333E3BF0000000000000FB0107901411070040501600405405064090741402480A0340
 94
        0
1001
ACAD
1000
AcDbSavedByObjectVersion
1070
     0
1000
AcadProxyRoundTripData
1071
      505
1071
   851991
1070
     0
  0
ACAD_PROXY_OBJECT
  5
829
102
{ACAD_REACTORS
330
821
102
}
330
821
100
AcDbProxyObject
 90
      499
 91
      512
 93
      508
310
428CD108121A5919195B8010640502408333333333333E3BF0000000000000FB01079024090700405020000000000001110200405405064090740C02480A0340
 94
        0
1001
ACAD
1000
AcDbSavedByObjectVersion
1070
     0
1000
AcadProxyRoundTripData
1071
      505
1071
   851991
1070
     0
  0
ACAD_PROXY_OBJECT
  5
828
102
{ACAD_REACTORS
330
821
102
}
330
821
100
AcDbProxyObject
 90
      499
 91
      512
 93
      444
310
430CD915DA5C99599C985B59401059028333333333333E3BF0000000000000FB0107901411070040501600405405064090741402480A0340
 94
        0
1001
ACAD
1000
AcDbSavedByObjectVersion
1070
     0
1000
AcadProxyRoundTripData
1071
      505
1071
   851991
1070
     0
  0
ACAD_PROXY_OBJECT
  5
826
102
{ACAD_REACTORS
330
821
102
}
330
821
100
AcDbProxyObject
 90
      499
 91
      512
 93
      396
310
4190985CDA58C0107406404333333333333E3BF0000000000000FB0107A41107004050150841D405064090741402480A0356
 94
        0
1001
ACAD
1000
AcDbSavedByObjectVersion
1070
     0
1000
AcadProxyRoundTripData
1071
      505
1071
   851991
1070
     0
  0
ACAD_PROXY_OBJECT
  5
82D
102
{ACAD_REACTORS
330
821
102
}
330
821
100
AcDbProxyObject
 90
      499
 91
      512
 93
      436
310
42509C9A59DA1D195B8010C409028333333333333E3BF0000000000000FB010790141107004050150841D405064090741402480A029956
 94
        0
1001
ACAD
1000
AcDbSavedByObjectVersion
1070
     0
1000
AcadProxyRoundTripData
1071
      505
1071
   851991
1070
     0
  0
ACAD_PROXY_OBJECT
  5
831
102
{ACAD_REACTORS
330
821
102
}
330
821
100
AcDbProxyObject
 90
      499
 91
      512
 93
      460
310
4310DBDB1BDC90DA185B99D9401104090240C333333333333E3BF0000000000000FB0108901411070040501508421405064090741402480A0354
 94
        0
1001
ACAD
1000
AcDbSavedByObjectVersion
1070
     0
1000
AcadProxyRoundTripData
1071
      505
1071
   851991
1070
     0
  0
ACAD_PROXY_OBJECT
  5
82A
102
{ACAD_REACTORS
330
821
102
}
330
821
100
AcDbProxyObject
 90
      499
 91
      512
 93
      508
310
42D0DBDB98D95C1D1D585B0010940D028333333333333E3BF0000000000000FB0107902409070040501000000000000111010841D405064090740C02480A0340
 94
        0
1001
ACAD
1000
AcDbSavedByObjectVersion
1070
     0
1000
AcadProxyRoundTripData
1071
      505
1071
   851991
1070
     0
  0
ACAD_PROXY_OBJECT
  5
82C
102
{ACAD_REACTORS
330
821
102
}
330
821
100
AcDbProxyObject
 90
      499
 91
      512
 93
      420
310
41111A5B4010B409028333333333333E3BF0000000000000FB010790141107004050150841D405064090741402480A02677FFFFFDB
 94
        0
1001
ACAD
1000
AcDbSavedByObjectVersion
1070
     0
1000
AcadProxyRoundTripData
1071
      505
1071
   851991
1070
     0
  0
ACAD_PROXY_OBJECT
  5
830
102
{ACAD_REACTORS
330
821
102
}
330
821
100
AcDbProxyObject
 90
      499
 91
      512
 93
      452
310
43119858D95C185D1D195C9B8010F409028333333333333E3BF0000000000000FB010790141107004050150841D405064090741402480A0350
 94
        0
1001
ACAD
1000
AcDbSavedByObjectVersion
1070
     0
1000
AcadProxyRoundTripData
1071
      505
1071
   851991
1070
     0
  0
ACAD_PROXY_OBJECT
  5
822
102
{ACAD_REACTORS
330
821
102
}
330
821
100
AcDbProxyObject
 90
      499
 91
      512
 93
      396
310
41519B185D00240901404333333333333E3BF0000000000000F9010740A41107004050150841D405064090741402480A1B55
 94
        0
1001
ACAD
1000
AcDbSavedByObjectVersion
1070
     0
1000
AcadProxyRoundTripData
1071
      505
1071
   851991
1070
     0
  0
ACAD_PROXY_OBJECT
  5
823
102
{ACAD_REACTORS
330
821
102
}
330
821
100
AcDbProxyObject
 90
      499
 91
      512
 93
      484
310
43919B185D15DA5D1A115919D95CC010140901404333333333333E3BF0000000000000F9010740901411070040501600405405064090741402480A1B50
 94
        0
1001
ACAD
1000
AcDbSavedByObjectVersion
1070
     0
1000
AcadProxyRoundTripData
1071
      505
1071
   851991
1070
     0
  0
ACAD_PROXY_OBJECT
  5
824
102
{ACAD_REACTORS
330
821
102
}
330
821
100
AcDbProxyObject
 90
      499
 91
      512
 93
      420
310
4211DBDD5C985D590010240902404333333333333E3BF0000000000000F9010740A411070040501641D405064090741402480A1B50
 94
        0
1001
ACAD
1000
AcDbSavedByObjectVersion
1070
     0
1000
AcadProxyRoundTripData
1071
      505
1071
   851991
1070
     0
  0
ACAD_PROXY_OBJECT
  5
825
102
{ACAD_REACTORS
330
821
102
}
330
821
100
AcDbProxyObject
 90
      499
 91
      512
 93
      508
310
4451DBDD5C985D5915DA5D1A115919D95CC010340902404333333333333E3BF0000000000000F9010740901411070040501600405405064090741402480A1B50
 94
        0
1001
ACAD
1000
AcDbSavedByObjectVersion
1070
     0
1000
AcadProxyRoundTripData
1071
      505
1071
   851991
1070
     0
  0
ACAD_PROXY_OBJECT
  5
82F
102
{ACAD_REACTORS
330
821
102
}
330
821
100
AcDbProxyObject
 90
      499
 91
      512
 93
      452
310
43131A5B995C185D1D195C9B8010E409028333333333333E3BF0000000000000FB010790141107004050750841D405064090741402483A0350
 94
        0
1001
ACAD
1000
AcDbSavedByObjectVersion
1070
     0
1000
AcadProxyRoundTripData
1071
      505
1071
   851991
1070
     0
  0
ACAD_PROXY_OBJECT
  5
82B
102
{ACAD_REACTORS
330
821
102
}
330
821
100
AcDbProxyObject
 90
      499
 91
      512
 93
      428
310
429499585B1A5CDD1A58C0108409028333333333333E3BF0000000000000FB01079019070040501508421405064090741402480A1B45
 94
        0
1001
ACAD
1000
AcDbSavedByObjectVersion
1070
     0
1000
AcadProxyRoundTripData
1071
      505
1071
   851991
1070
     0
  0
ACAD_PROXY_OBJECT
  5
82E
102
{ACAD_REACTORS
330
821
102
}
330
821
100
AcDbProxyObject
 90
      499
 91
      512
 93
      420
310
42151A1A58DAD95B8010D409028333333333333E3BF0000000000000FB010790141107004050150C41D405064090741402480A0352
 94
        0
1001
ACAD
1000
AcDbSavedByObjectVersion
1070
     0
1000
AcadProxyRoundTripData
1071
      505
1071
   851991
1070
     0
  0
XRECORD
  5
28AD
102
{ACAD_REACTORS
330
28A3
102
}
330
28A3
100
AcDbXrecord
 90
        0
  0
XRECORD
  5
28B1
102
{ACAD_REACTORS
330
28A3
102
}
330
28A3
100
AcDbXrecord
1000
DSTYLE
1002
{
1070
   179
 70
     2
1070
   277
 70
     6
1002
}
  0
XRECORD
  5
28AE
102
{ACAD_REACTORS
330
28A3
102
}
330
28A3
100
AcDbXrecord
  1
{2B619D65-6486-4694-9735-88ECB2045D11}
  0
XRECORD
  5
28A6
102
{ACAD_REACTORS
330
28A3
102
}
330
28A3
100
AcDbXrecord
  1

  0
XRECORD
  5
28AC
102
{ACAD_REACTORS
330
28A3
102
}
330
28A3
100
AcDbXrecord
 90
        0
  0
XRECORD
  5
28A8
102
{ACAD_REACTORS
330
28A3
102
}
330
28A3
100
AcDbXrecord
340
61
  0
XRECORD
  5
28AB
102
{ACAD_REACTORS
330
28A3
102
}
330
28A3
100
AcDbXrecord
 90
    10781
  0
XRECORD
  5
28A9
102
{ACAD_REACTORS
330
28A3
102
}
330
28A3
100
AcDbXrecord
340
77
  0
XRECORD
  5
28AA
102
{ACAD_REACTORS
330
28A3
102
}
330
28A3
100
AcDbXrecord
340
6
  0
XRECORD
  5
28B0
102
{ACAD_REACTORS
330
28A3
102
}
330
28A3
100
AcDbXrecord
 40
0.0
  0
XRECORD
  5
28B4
102
{ACAD_REACTORS
330
28A3
102
}
330
28A3
100
AcDbXrecord
340
0
  0
XRECORD
  5
28BA
102
{ACAD_REACTORS
330
28A3
102
}
330
28A3
100
AcDbXrecord
 10
0.0
 20
0.0
 30
0.0
  0
XRECORD
  5
28B6
102
{ACAD_REACTORS
330
28A3
102
}
330
28A3
100
AcDbXrecord
 10
0.0
 20
0.0
 30
0.0
  0
XRECORD
  5
28B9
102
{ACAD_REACTORS
330
28A3
102
}
330
28A3
100
AcDbXrecord
 10
0.0
 20
0.0
 30
0.0
  0
XRECORD
  5
28B7
102
{ACAD_REACTORS
330
28A3
102
}
330
28A3
100
AcDbXrecord
 10
0.0
 20
0.0
 30
0.0
  0
XRECORD
  5
28B8
102
{ACAD_REACTORS
330
28A3
102
}
330
28A3
100
AcDbXrecord
 10
0.0
 20
0.0
 30
0.0
  0
XRECORD
  5
28B5
102
{ACAD_REACTORS
330
28A3
102
}
330
28A3
100
AcDbXrecord
 10
0.0
 20
0.0
 30
0.0
  0
XRECORD
  5
28B2
102
{ACAD_REACTORS
330
28A3
102
}
330
28A3
100
AcDbXrecord
340
0
  0
XRECORD
  5
28B3
102
{ACAD_REACTORS
330
28A3
102
}
330
28A3
100
AcDbXrecord
 70
     0
  0
XRECORD
  5
28A7
102
{ACAD_REACTORS
330
28A3
102
}
330
28A3
100
AcDbXrecord
  1
Sekkei.ctb
  0
XRECORD
  5
28A4
102
{ACAD_REACTORS
330
28A3
102
}
330
28A3
100
AcDbXrecord
 90
        1
  0
XRECORD
  5
28A5
102
{ACAD_REACTORS
330
28A3
102
}
330
28A3
100
AcDbXrecord
 90
       70
  0
XRECORD
  5
28BD
102
{ACAD_REACTORS
330
28A3
102
}
330
28A3
100
AcDbXrecord
340
0
  0
XRECORD
  5
28C3
102
{ACAD_REACTORS
330
28A3
102
}
330
28A3
100
AcDbXrecord
 10
0.0
 20
0.0
 30
0.0
  0
XRECORD
  5
28BF
102
{ACAD_REACTORS
330
28A3
102
}
330
28A3
100
AcDbXrecord
 10
0.0
 20
0.0
 30
0.0
  0
XRECORD
  5
28C2
102
{ACAD_REACTORS
330
28A3
102
}
330
28A3
100
AcDbXrecord
 10
0.0
 20
0.0
 30
0.0
  0
XRECORD
  5
28C0
102
{ACAD_REACTORS
330
28A3
102
}
330
28A3
100
AcDbXrecord
 10
0.0
 20
0.0
 30
0.0
  0
XRECORD
  5
28C1
102
{ACAD_REACTORS
330
28A3
102
}
330
28A3
100
AcDbXrecord
 10
0.0
 20
0.0
 30
0.0
  0
XRECORD
  5
28BE
102
{ACAD_REACTORS
330
28A3
102
}
330
28A3
100
AcDbXrecord
 10
0.0
 20
0.0
 30
0.0
  0
XRECORD
  5
28BB
102
{ACAD_REACTORS
330
28A3
102
}
330
28A3
100
AcDbXrecord
340
0
  0
XRECORD
  5
28BC
102
{ACAD_REACTORS
330
28A3
102
}
330
28A3
100
AcDbXrecord
 70
     0
  0
XRECORD
  5
28AF
102
{ACAD_REACTORS
330
28A3
102
}
330
28A3
100
AcDbXrecord
  1
{3E195479-14BC-4A94-B0FA-6DFE05D3A698}
  0
DICTIONARYVAR
  5
892
102
{ACAD_REACTORS
330
102
102
}
330
102
100
DictionaryVariables
280
     0
  1
1:1
  0
DICTIONARYVAR
  5
890
102
{ACAD_REACTORS
330
102
102
}
330
102
100
DictionaryVariables
280
     0
  1
STANDARD
  0
DICTIONARYVAR
  5
88F
102
{ACAD_REACTORS
330
102
102
}
330
102
100
DictionaryVariables
280
     0
  1
STANDARD
  0
DICTIONARYVAR
  5
103
102
{ACAD_REACTORS
330
102
102
}
330
102
100
DictionaryVariables
280
     0
  1
1
  0
DICTIONARYVAR
  5
1AB6
102
{ACAD_REACTORS
330
102
102
}
330
102
100
DictionaryVariables
280
     0
  1
0
  0
DICTIONARYVAR
  5
893
102
{ACAD_REACTORS
330
102
102
}
330
102
100
DictionaryVariables
280
     0
  1
0
  0
DICTIONARYVAR
  5
891
102
{ACAD_REACTORS
330
102
102
}
330
102
100
DictionaryVariables
280
     0
  1
0
  0
DICTIONARYVAR
  5
549
102
{ACAD_REACTORS
330
102
102
}
330
102
100
DictionaryVariables
280
     0
  1
96
  0
DICTIONARY
  5
812
330
811
100
AcDbDictionary
280
     1
  3
ACAD_XREC_ROUNDTRIP
360
2881
  3
BUMPTILE
360
814
  3
DIFFUSETILE
360
813
  3
OPACITYTILE
360
817
  3
REFLECTIONTILE
360
816
  3
REFRACTIONTILE
360
818
  3
SPECULARTILE
360
815
  0
DICTIONARY
  5
80A
330
809
100
AcDbDictionary
280
     1
  3
ACAD_XREC_ROUNDTRIP
360
2880
  3
BUMPTILE
360
80C
  3
DIFFUSETILE
360
80B
  3
OPACITYTILE
360
80F
  3
REFLECTIONTILE
360
80E
  3
REFRACTIONTILE
360
810
  3
SPECULARTILE
360
80D
  0
DICTIONARY
  5
81A
330
819
100
AcDbDictionary
280
     1
  3
ACAD_XREC_ROUNDTRIP
360
2882
  3
BUMPTILE
360
81C
  3
DIFFUSETILE
360
81B
  3
OPACITYTILE
360
81F
  3
REFLECTIONTILE
360
81E
  3
REFRACTIONTILE
360
820
  3
SPECULARTILE
360
81D
  0
DICTIONARY
  5
88C
330
834
100
AcDbDictionary
280
     1
  3
ACAD_ROUNDTRIP_2008_TABLES
360
2878
  3
ACAD_XREC_ROUNDTRIP
360
2883
  0
XRECORD
  5
2881
102
{ACAD_REACTORS
330
812
102
}
330
812
100
AcDbXrecord
102
MATERIAL
148
0.0
149
0.0
149
0.0
 93
        0
 94
      127
282
     0
 72
     0
 77
     0
171
     0
175
     0
179
     0
273
     0
  0
XRECORD
  5
814
102
{ACAD_REACTORS
330
812
102
}
330
812
100
AcDbXrecord
270
     1
271
     1
  0
XRECORD
  5
813
102
{ACAD_REACTORS
330
812
102
}
330
812
100
AcDbXrecord
270
     1
271
     1
  0
XRECORD
  5
817
102
{ACAD_REACTORS
330
812
102
}
330
812
100
AcDbXrecord
270
     1
271
     1
  0
XRECORD
  5
816
102
{ACAD_REACTORS
330
812
102
}
330
812
100
AcDbXrecord
270
     1
271
     1
  0
XRECORD
  5
818
102
{ACAD_REACTORS
330
812
102
}
330
812
100
AcDbXrecord
270
     1
271
     1
  0
XRECORD
  5
815
102
{ACAD_REACTORS
330
812
102
}
330
812
100
AcDbXrecord
270
     1
271
     1
  0
XRECORD
  5
2880
102
{ACAD_REACTORS
330
80A
102
}
330
80A
100
AcDbXrecord
102
MATERIAL
148
0.0
149
0.0
149
0.0
 93
        0
 94
      127
282
     0
 72
     0
 77
     0
171
     0
175
     0
179
     0
273
     0
  0
XRECORD
  5
80C
102
{ACAD_REACTORS
330
80A
102
}
330
80A
100
AcDbXrecord
270
     1
271
     1
  0
XRECORD
  5
80B
102
{ACAD_REACTORS
330
80A
102
}
330
80A
100
AcDbXrecord
270
     1
271
     1
  0
XRECORD
  5
80F
102
{ACAD_REACTORS
330
80A
102
}
330
80A
100
AcDbXrecord
270
     1
271
     1
  0
XRECORD
  5
80E
102
{ACAD_REACTORS
330
80A
102
}
330
80A
100
AcDbXrecord
270
     1
271
     1
  0
XRECORD
  5
810
102
{ACAD_REACTORS
330
80A
102
}
330
80A
100
AcDbXrecord
270
     1
271
     1
  0
XRECORD
  5
80D
102
{ACAD_REACTORS
330
80A
102
}
330
80A
100
AcDbXrecord
270
     1
271
     1
  0
XRECORD
  5
2882
102
{ACAD_REACTORS
330
81A
102
}
330
81A
100
AcDbXrecord
102
MATERIAL
148
0.0
149
0.0
149
0.0
 93
        0
 94
      127
282
     0
 72
     0
 77
     0
171
     0
175
     0
179
     0
273
     0
  0
XRECORD
  5
81C
102
{ACAD_REACTORS
330
81A
102
}
330
81A
100
AcDbXrecord
270
     1
271
     1
  0
XRECORD
  5
81B
102
{ACAD_REACTORS
330
81A
102
}
330
81A
100
AcDbXrecord
270
     1
271
     1
  0
XRECORD
  5
81F
102
{ACAD_REACTORS
330
81A
102
}
330
81A
100
AcDbXrecord
270
     1
271
     1
  0
XRECORD
  5
81E
102
{ACAD_REACTORS
330
81A
102
}
330
81A
100
AcDbXrecord
270
     1
271
     1
  0
XRECORD
  5
820
102
{ACAD_REACTORS
330
81A
102
}
330
81A
100
AcDbXrecord
270
     1
271
     1
  0
XRECORD
  5
81D
102
{ACAD_REACTORS
330
81A
102
}
330
81A
100
AcDbXrecord
270
     1
271
     1
  0
ACAD_PROXY_OBJECT
  5
2878
102
{ACAD_REACTORS
330
88C
102
}
330
88C
100
AcDbProxyObject
 90
      499
 91
      512
 93
     1044
310
40D054060020000020000003200101A000080002A5058000000C100000000000000340FE901405075F5449544C450041501A8000000C800406800020000A9416000000304000AD7A3703D0AC73FA409014217D2115051115480105406A0000003200101A000080002A5028000000C10002B5E8DC0F42B1CFE903409065F444
310
15441003
340
16
340
16
340
16
 94
        0
1001
ACAD
1000
AcadProxyRoundTripData
1071
      510
1071
   851991
1070
     0
  0
XRECORD
  5
2883
102
{ACAD_REACTORS
330
88C
102
}
330
88C
100
AcDbXrecord
102
ACAD_ROUNDTRIP_PRE2007_TABLESTYLE
 90
      512
 91
        0
  1

 92
      512
 93
        0
  2

 94
      512
 95
        0
  3

  0
ENDSEC
  0
EOF
