  0
SECTION
  2
HEADER
  9
$ACADVER
  1
AC1014
  9
$ACADMAINTVER
 70
     9
  9
$DWGCODEPAGE
  3
ANSI_932
  9
$INSBASE
 10
0.0
 20
0.0
 30
0.0
  9
$EXTMIN
 10
-79.27178402125787
 20
272.5651052800127
 30
0.0
  9
$EXTMAX
 10
1002.705019813444
 20
716.253855903235
 30
0.0
  9
$LIMMIN
 10
0.0
 20
0.0
  9
$LIMMAX
 10
297.0
 20
210.0
  9
$ORTHOMODE
 70
     0
  9
$REGENMODE
 70
     1
  9
$FILLMODE
 70
     1
  9
$QTEXTMODE
 70
     0
  9
$MIRRTEXT
 70
     0
  9
$DRAGMODE
 70
     2
  9
$LTSCALE
 40
3.0
  9
$OSMODE
 70
    37
  9
$ATTMODE
 70
     1
  9
$TEXTSIZE
 40
2.0
  9
$TRACEWID
 40
1.0
  9
$TEXTSTYLE
  7
STANDARD
  9
$CLAYER
  8
0
  9
$CELTYPE
  6
BYLAYER
  9
$CECOLOR
 62
   256
  9
$CELTSCALE
 40
1.0
  9
$DELOBJ
 70
     1
  9
$DISPSILH
 70
     0
  9
$DIMSCALE
 40
3.0
  9
$DIMASZ
 40
1.8
  9
$DIMEXO
 40
0.625
  9
$DIMDLI
 40
3.75
  9
$DIMRND
 40
0.0
  9
$DIMDLE
 40
0.0
  9
$DIMEXE
 40
0.8
  9
$DIMTP
 40
0.0
  9
$DIMTM
 40
0.0
  9
$DIMTXT
 40
1.8
  9
$DIMCEN
 40
2.5
  9
$DIMTSZ
 40
0.0
  9
$DIMTOL
 70
     0
  9
$DIMLIM
 70
     0
  9
$DIMTIH
 70
     0
  9
$DIMTOH
 70
     0
  9
$DIMSE1
 70
     0
  9
$DIMSE2
 70
     0
  9
$DIMTAD
 70
     1
  9
$DIMZIN
 70
     8
  9
$DIMBLK
  1

  9
$DIMASO
 70
     1
  9
$DIMSHO
 70
     1
  9
$DIMPOST
  1

  9
$DIMAPOST
  1

  9
$DIMALT
 70
     0
  9
$DIMALTD
 70
     4
  9
$DIMALTF
 40
0.0394
  9
$DIMLFAC
 40
1.0
  9
$DIMTOFL
 70
     1
  9
$DIMTVP
 40
0.0
  9
$DIMTIX
 70
     0
  9
$DIMSOXD
 70
     0
  9
$DIMSAH
 70
     0
  9
$DIMBLK1
  1

  9
$DIMBLK2
  1

  9
$DIMSTYLE
  2
STANDARD
  9
$DIMCLRD
 70
     0
  9
$DIMCLRE
 70
     0
  9
$DIMCLRT
 70
     0
  9
$DIMTFAC
 40
1.0
  9
$DIMGAP
 40
0.75
  9
$DIMJUST
 70
     0
  9
$DIMSD1
 70
     0
  9
$DIMSD2
 70
     0
  9
$DIMTOLJ
 70
     1
  9
$DIMTZIN
 70
     0
  9
$DIMALTZ
 70
     0
  9
$DIMALTTZ
 70
     0
  9
$DIMFIT
 70
     3
  9
$DIMUPT
 70
     0
  9
$DIMUNIT
 70
     8
  9
$DIMDEC
 70
     2
  9
$DIMTDEC
 70
     2
  9
$DIMALTU
 70
     8
  9
$DIMALTTD
 70
     4
  9
$DIMTXSTY
  7
STANDARD
  9
$DIMAUNIT
 70
     0
  9
$LUNITS
 70
     2
  9
$LUPREC
 70
     3
  9
$SKETCHINC
 40
1.0
  9
$FILLETRAD
 40
10.0
  9
$AUNITS
 70
     0
  9
$AUPREC
 70
     2
  9
$MENU
  1
.
  9
$ELEVATION
 40
0.0
  9
$PELEVATION
 40
0.0
  9
$THICKNESS
 40
0.0
  9
$LIMCHECK
 70
     0
  9
$BLIPMODE
 70
     0
  9
$CHAMFERA
 40
0.0
  9
$CHAMFERB
 40
0.0
  9
$CHAMFERC
 40
20.0
  9
$CHAMFERD
 40
0.0
  9
$SKPOLY
 70
     0
  9
$TDCREATE
 40
2454888.679706122
  9
$TDUPDATE
 40
2454909.819823159
  9
$TDINDWG
 40
0.1061445718
  9
$TDUSRTIMER
 40
0.1061443866
  9
$USRTIMER
 70
     1
  9
$ANGBASE
 50
0.0
  9
$ANGDIR
 70
     0
  9
$PDMODE
 70
     0
  9
$PDSIZE
 40
-10.0
  9
$PLINEWID
 40
0.0
  9
$COORDS
 70
     1
  9
$SPLFRAME
 70
     0
  9
$SPLINETYPE
 70
     6
  9
$SPLINESEGS
 70
     8
  9
$ATTDIA
 70
     0
  9
$ATTREQ
 70
     1
  9
$HANDLING
 70
 22529
  9
$HANDSEED
  5
2C0F
  9
$SURFTAB1
 70
     6
  9
$SURFTAB2
 70
     6
  9
$SURFTYPE
 70
     6
  9
$SURFU
 70
     6
  9
$SURFV
 70
     6
  9
$UCSNAME
  2

  9
$UCSORG
 10
0.0
 20
0.0
 30
0.0
  9
$UCSXDIR
 10
1.0
 20
0.0
 30
0.0
  9
$UCSYDIR
 10
0.0
 20
1.0
 30
0.0
  9
$PUCSNAME
  2

  9
$PUCSORG
 10
0.0
 20
0.0
 30
0.0
  9
$PUCSXDIR
 10
1.0
 20
0.0
 30
0.0
  9
$PUCSYDIR
 10
0.0
 20
1.0
 30
0.0
  9
$USERI1
 70
     0
  9
$USERI2
 70
     0
  9
$USERI3
 70
     0
  9
$USERI4
 70
     0
  9
$USERI5
 70
     0
  9
$USERR1
 40
0.0
  9
$USERR2
 40
0.0
  9
$USERR3
 40
0.0
  9
$USERR4
 40
0.0
  9
$USERR5
 40
0.0
  9
$WORLDVIEW
 70
     1
  9
$SHADEDGE
 70
     3
  9
$SHADEDIF
 70
    70
  9
$TILEMODE
 70
     1
  9
$MAXACTVP
 70
    48
  9
$PINSBASE
 10
0.0
 20
0.0
 30
0.0
  9
$PLIMCHECK
 70
     0
  9
$PEXTMIN
 10
0.0
 20
0.0
 30
0.0
  9
$PEXTMAX
 10
0.0
 20
0.0
 30
0.0
  9
$PLIMMIN
 10
0.0
 20
0.0
  9
$PLIMMAX
 10
12.0
 20
9.0
  9
$UNITMODE
 70
     0
  9
$VISRETAIN
 70
     1
  9
$PLINEGEN
 70
     0
  9
$PSLTSCALE
 70
     1
  9
$TREEDEPTH
 70
  3020
  9
$PICKSTYLE
 70
     1
  9
$CMLSTYLE
  2
STANDARD
  9
$CMLJUST
 70
     0
  9
$CMLSCALE
 40
1.0
  9
$PROXYGRAPHICS
 70
     1
  9
$MEASUREMENT
 70
     0
  0
ENDSEC
  0
SECTION
  2
CLASSES
  0
CLASS
  1
DICTIONARYVAR
  2
AcDbDictionaryVar
  3
AutoCAD 2000
 90
        0
280
     0
281
     0
  0
CLASS
  1
ACDBDICTIONARYWDFLT
  2
AcDbDictionaryWithDefault
  3
AutoCAD 2000
 90
        0
280
     0
281
     0
  0
CLASS
  1
ACDBPLACEHOLDER
  2
AcDbPlaceHolder
  3
AutoCAD 2000
 90
        0
280
     0
281
     0
  0
CLASS
  1
LAYOUT
  2
AcDbLayout
  3
AutoCAD 2000
 90
        0
280
     0
281
     0
  0
CLASS
  1
MATERIAL
  2
AcDbMaterial
  3
ObjectDBX Classes
 90
     1153
280
     0
281
     0
  0
CLASS
  1
VISUALSTYLE
  2
AcDbVisualStyle
  3
ObjectDBX Classes
 90
     4095
280
     0
281
     0
  0
CLASS
  1
TABLESTYLE
  2
AcDbTableStyle
  3
ObjectDBX Classes
 90
     4095
280
     0
281
     0
  0
CLASS
  1
SCALE
  2
AcDbScale
  3
ObjectDBX Classes
 90
     1153
280
     0
281
     0
  0
CLASS
  1
MLEADERSTYLE
  2
AcDbMLeaderStyle
  3
ACDB_MLEADERSTYLE_CLASS
 90
     4095
280
     0
281
     0
  0
CLASS
  1
PLOTSETTINGS
  2
AcDbPlotSettings
  3
AutoCAD 2000
 90
        0
280
     0
281
     0
  0
CLASS
  1
CELLSTYLEMAP
  2
AcDbCellStyleMap
  3
ObjectDBX Classes
 90
     1152
280
     0
281
     0
  0
CLASS
  1
SORTENTSTABLE
  2
AcDbSortentsTable
  3
AutoCAD 2000
 90
        0
280
     0
281
     0
  0
CLASS
  1
ACAD_PROXY_OBJECT_WRAPPER
  2
AcDbProxyObjectWrapper
  3
AutoCAD 2000
 90
        0
280
     0
281
     0
  0
CLASS
  1
LONG_TRANSACTION
  2
AcDbLongTransaction
  3
AutoCAD 2000
 90
        0
280
     0
281
     0
  0
CLASS
  1
LWPOLYLINE
  2
AcDbPolyline
  3
AutoCAD 2000
 90
        0
280
     0
281
     1
  0
CLASS
  1
HATCH
  2
AcDbHatch
  3
AutoCAD 2000
 90
        0
280
     0
281
     1
  0
CLASS
  1
XRECORD
  2
AcDbXrecord
  3
AutoCAD 2000
 90
        0
280
     0
281
     0
  0
ENDSEC
  0
SECTION
  2
TABLES
  0
TABLE
  2
VPORT
  5
6E
102
{ACAD_XDICTIONARY
360
1AA9
102
}
330
0
100
AcDbSymbolTable
 70
     2
  0
VPORT
  5
2BEA
330
6E
100
AcDbSymbolTableRecord
100
AcDbViewportTableRecord
  2
*ACTIVE
 70
     0
 10
0.0
 20
0.0
 11
1.0
 21
1.0
 12
508.8890670480054
 22
495.6359562694076
 13
0.0
 23
0.0
 14
10.0
 24
10.0
 15
10.0
 25
10.0
 16
0.0
 26
0.0
 36
1.0
 17
0.0
 27
0.0
 37
0.0
 40
741.0638801042352
 41
1.593429158110883
 42
50.0
 43
0.0
 44
0.0
 50
0.0
 51
0.0
 71
     0
 72
   100
 73
     1
 74
     3
 75
     0
 76
     0
 77
     0
 78
     0
  0
ENDTAB
  0
TABLE
  2
LTYPE
  5
69
330
0
100
AcDbSymbolTable
 70
     7
  0
LTYPE
  5
6A
330
69
100
AcDbSymbolTableRecord
100
AcDbLinetypeTableRecord
  2
BYBLOCK
 70
     0
  3

 72
    65
 73
     0
 40
0.0
  0
LTYPE
  5
6B
330
69
100
AcDbSymbolTableRecord
100
AcDbLinetypeTableRecord
  2
BYLAYER
 70
     0
  3

 72
    65
 73
     0
 40
0.0
  0
LTYPE
  5
8
330
69
100
AcDbSymbolTableRecord
100
AcDbLinetypeTableRecord
  2
CONTINUOUS
 70
     0
  3
Solid line
 72
    65
 73
     0
 40
0.0
  0
LTYPE
  5
27C
330
69
100
AcDbSymbolTableRecord
100
AcDbLinetypeTableRecord
  2
SEKKEI_A2_
 70
     0
  3
center(A2)  ____ _ ____ _ ____ _ ____ _ ____ _ 
 72
    65
 73
     4
 40
14.28749999999999
 49
9.525
 74
     0
 49
-1.587499999999999
 74
     0
 49
1.587499999999999
 74
     0
 49
-1.587499999999999
 74
     0
  0
LTYPE
  5
2B4
330
69
100
AcDbSymbolTableRecord
100
AcDbLinetypeTableRecord
  2
HIDDEN2
 70
     0
  3
Hidden (.5x) _ _ _ _ _ _ _ _ _ _ _ _ _ _ _ _ _
 72
    65
 73
     2
 40
4.762499999999999
 49
3.174999999999999
 74
     0
 49
-1.587499999999999
 74
     0
  0
LTYPE
  5
48F
330
69
100
AcDbSymbolTableRecord
100
AcDbLinetypeTableRecord
  2
SEKKEI_H
 70
     0
  3
Hidden-S _ _ _ _ _ _ _ _ _ _ _ _ _ _ _ _ _
 72
    65
 73
     2
 40
2.381249999999999
 49
1.587499999999999
 74
     0
 49
-0.79375
 74
     0
  0
LTYPE
  5
54A
330
69
100
AcDbSymbolTableRecord
100
AcDbLinetypeTableRecord
  2
CENTERX2
 70
     0
  3
Center (2x) ________  __  ________  __  _____
 72
    65
 73
     4
 40
4.0
 49
2.5
 74
     0
 49
-0.5
 74
     0
 49
0.5
 74
     0
 49
-0.5
 74
     0
  0
ENDTAB
  0
TABLE
  2
LAYER
  5
66
102
{ACAD_XDICTIONARY
360
86B
102
}
330
0
100
AcDbSymbolTable
 70
    10
  0
LAYER
  5
5E
102
{ACAD_XDICTIONARY
360
128D
102
}
330
66
100
AcDbSymbolTableRecord
100
AcDbLayerTableRecord
  2
0
 70
     0
 62
     7
  6
CONTINUOUS
  0
LAYER
  5
3E
102
{ACAD_XDICTIONARY
360
128F
102
}
330
66
100
AcDbSymbolTableRecord
100
AcDbLayerTableRecord
  2
CENTER
 70
     0
 62
     3
  6
SEKKEI_A2_
  0
LAYER
  5
2B5
102
{ACAD_XDICTIONARY
360
1295
102
}
330
66
100
AcDbSymbolTableRecord
100
AcDbLayerTableRecord
  2
HIDS
 70
     0
 62
     1
  6
HIDDEN2
  0
LAYER
  5
2BA
102
{ACAD_XDICTIONARY
360
1297
102
}
330
66
100
AcDbSymbolTableRecord
100
AcDbLayerTableRecord
  2
HOJO
 70
     0
 62
     4
  6
CONTINUOUS
  0
LAYER
  5
3FA
102
{ACAD_XDICTIONARY
360
129B
102
}
330
66
100
AcDbSymbolTableRecord
100
AcDbLayerTableRecord
  2
TITLE
 70
     0
 62
     4
  6
CONTINUOUS
  0
ENDTAB
  0
TABLE
  2
STYLE
  5
67
330
0
100
AcDbSymbolTable
 70
     3
  0
STYLE
  5
16
330
67
100
AcDbSymbolTableRecord
100
AcDbTextStyleTableRecord
  2
STANDARD
 70
     0
 40
0.0
 41
1.0
 50
0.0
 71
     0
 42
2.0
  3
simplex.shx
  4
extfont.shx
  0
ENDTAB
  0
TABLE
  2
VIEW
  5
6C
330
0
100
AcDbSymbolTable
 70
     0
  0
ENDTAB
  0
TABLE
  2
UCS
  5
6D
330
0
100
AcDbSymbolTable
 70
     0
  0
ENDTAB
  0
TABLE
  2
APPID
  5
70
330
0
100
AcDbSymbolTable
 70
     7
  0
APPID
  5
71
330
70
100
AcDbSymbolTableRecord
100
AcDbRegAppTableRecord
  2
ACAD
 70
     0
  0
APPID
  5
859
330
70
100
AcDbSymbolTableRecord
100
AcDbRegAppTableRecord
  2
ACAD_MLEADERVER
 70
     0
  0
APPID
  5
866
330
70
100
AcDbSymbolTableRecord
100
AcDbRegAppTableRecord
  2
ACAD_PSEXT
 70
     0
  0
APPID
  5
1239
330
70
100
AcDbSymbolTableRecord
100
AcDbRegAppTableRecord
  2
ACAD_EXEMPT_FROM_CAD_STANDARDS
 70
     0
  0
APPID
  5
12AE
330
70
100
AcDbSymbolTableRecord
100
AcDbRegAppTableRecord
  2
ACAD_DSTYLE_DIMJAG
 70
     0
  0
APPID
  5
12AF
330
70
100
AcDbSymbolTableRecord
100
AcDbRegAppTableRecord
  2
ACAD_DSTYLE_DIMTALN
 70
     0
  0
APPID
  5
1411
330
70
100
AcDbSymbolTableRecord
100
AcDbRegAppTableRecord
  2
ACAD_DSTYLE_DIMRADIAL_EXTENSION
 70
     0
  0
ENDTAB
  0
TABLE
  2
DIMSTYLE
  5
72
330
0
100
AcDbSymbolTable
 70
     1
  0
DIMSTYLE
105
73
102
{ACAD_REACTORS
330
142C
330
1434
330
1605
102
}
330
72
100
AcDbSymbolTableRecord
100
AcDbDimStyleTableRecord
  2
STANDARD
 70
     0
  3

  4

  5

  6

  7

 40
3.0
 41
1.8
 42
0.625
 43
3.75
 44
0.8
 45
0.0
 46
0.0
 47
0.0
 48
0.0
140
1.8
141
2.5
142
0.0
143
0.0394
144
1.0
145
0.0
146
1.0
147
0.75
 71
     0
 72
     0
 73
     0
 74
     0
 75
     0
 76
     0
 77
     1
 78
     8
170
     0
171
     4
172
     1
173
     0
174
     0
175
     0
176
     0
177
     0
178
     0
270
     8
271
     2
272
     2
273
     8
274
     4
340
16
275
     0
280
     0
281
     0
282
     0
283
     1
284
     0
285
     0
286
     0
287
     3
288
     0
1001
ACAD_DSTYLE_DIMJAG
1070
   388
1040
1.5
1001
ACAD_DSTYLE_DIMTALN
1070
   392
1070
     0
  0
ENDTAB
  0
TABLE
  2
BLOCK_RECORD
  5
1
330
0
100
AcDbSymbolTable
 70
    62
  0
BLOCK_RECORD
  5
2
102
{ACAD_XDICTIONARY
360
1236
102
}
330
1
100
AcDbSymbolTableRecord
100
AcDbBlockTableRecord
  2
*MODEL_SPACE
  0
BLOCK_RECORD
  5
2BE5
102
{ACAD_XDICTIONARY
360
2C0D
102
}
330
1
100
AcDbSymbolTableRecord
100
AcDbBlockTableRecord
  2
*PAPER_SPACE
  0
ENDTAB
  0
ENDSEC
  0
SECTION
  2
BLOCKS
  0
BLOCK
  5
5D
330
2
100
AcDbEntity
  8
0
100
AcDbBlockBegin
  2
*MODEL_SPACE
 70
     0
 10
0.0
 20
0.0
 30
0.0
  3
*MODEL_SPACE
  1

  0
ENDBLK
  5
5F
330
2
100
AcDbEntity
  8
0
100
AcDbBlockEnd
  0
BLOCK
  5
2BE7
330
2BE5
100
AcDbEntity
 67
     1
  8
0
100
AcDbBlockBegin
  2
*PAPER_SPACE
 70
     0
 10
0.0
 20
0.0
 30
0.0
  3
*PAPER_SPACE
  1

  0
ENDBLK
  5
2BE8
330
2BE5
100
AcDbEntity
 67
     1
  8
0
100
AcDbBlockEnd
  0
ENDSEC
  0
SECTION
  2
ENTITIES
  0
LINE
  5
BCC
330
2
100
AcDbEntity
  8
CENTER
100
AcDbLine
 10
491.6923507245899
 20
391.8936909025934
 30
0.0
 11
600.3495219697541
 21
283.2365196574283
 31
0.0
  0
LINE
  5
BCD
330
2
100
AcDbEntity
  8
CENTER
100
AcDbLine
 10
511.5945294759815
 20
379.9915121512057
 30
0.0
 11
495.5945294759815
 21
379.9915121512057
 31
0.0
  0
LINE
  5
BCE
330
2
100
AcDbEntity
  8
CENTER
100
AcDbLine
 10
503.5945294759774
 20
387.9915121512057
 30
0.0
 11
503.5945294759774
 21
371.9915121512057
 31
0.0
  0
LINE
  5
BCF
330
2
100
AcDbEntity
  8
CENTER
100
AcDbLine
 10
511.5945294759815
 20
295.1386984088218
 30
0.0
 11
495.5945294759815
 21
295.1386984088218
 31
0.0
  0
LINE
  5
BD0
330
2
100
AcDbEntity
  8
CENTER
100
AcDbLine
 10
503.5945294759811
 20
303.1386984088201
 30
0.0
 11
503.5945294759811
 21
287.1386984088201
 31
0.0
  0
LINE
  5
BD1
330
2
100
AcDbEntity
  8
CENTER
100
AcDbLine
 10
596.4473432183674
 20
295.1386984088201
 30
0.0
 11
580.4473432183674
 21
295.1386984088201
 31
0.0
  0
LINE
  5
BD2
330
2
100
AcDbEntity
  8
CENTER
100
AcDbLine
 10
588.4473432183642
 20
303.1386984088201
 30
0.0
 11
588.4473432183642
 21
287.1386984088201
 31
0.0
  0
LINE
  5
BD3
330
2
100
AcDbEntity
  8
CENTER
100
AcDbLine
 10
596.4473432183674
 20
379.9915121512057
 30
0.0
 11
580.4473432183674
 21
379.9915121512057
 31
0.0
  0
LINE
  5
BD4
330
2
100
AcDbEntity
  8
CENTER
100
AcDbLine
 10
588.4473432183674
 20
387.9915121512062
 30
0.0
 11
588.4473432183674
 21
371.9915121512062
 31
0.0
  0
CIRCLE
  5
BD5
330
2
100
AcDbEntity
  8
CENTER
100
AcDbCircle
 10
546.0209363471742
 20
337.5651052800131
 30
0.0
 40
60.0
  0
CIRCLE
  5
BD6
330
2
100
AcDbEntity
  8
0
100
AcDbCircle
 10
546.0209363471742
 20
337.5651052800131
 30
0.0
 40
34.0
  0
CIRCLE
  5
BD7
330
2
100
AcDbEntity
  8
0
100
AcDbCircle
 10
546.0209363471742
 20
337.5651052800131
 30
0.0
 40
45.0
  0
CIRCLE
  5
BD8
330
2
100
AcDbEntity
  8
HOJO
100
AcDbCircle
 10
503.5945294759815
 20
295.1386984088201
 30
0.0
 40
4.0
  0
CIRCLE
  5
BD9
330
2
100
AcDbEntity
  8
0
100
AcDbCircle
 10
503.5945294759815
 20
295.1386984088201
 30
0.0
 40
3.2
  0
CIRCLE
  5
BDA
330
2
100
AcDbEntity
  8
0
100
AcDbCircle
 10
546.0209363471742
 20
337.565105280013
 30
0.0
 40
26.0
  0
CIRCLE
  5
BDB
330
2
100
AcDbEntity
  8
HOJO
100
AcDbCircle
 10
503.5945294759815
 20
379.9915121512057
 30
0.0
 40
4.0
  0
CIRCLE
  5
BDC
330
2
100
AcDbEntity
  8
0
100
AcDbCircle
 10
503.5945294759815
 20
379.9915121512057
 30
0.0
 40
3.2
  0
LINE
  5
BDD
330
2
100
AcDbEntity
  8
0
100
AcDbLine
 10
626.5209583471726
 20
387.0651052800134
 30
0.0
 11
626.5209583471698
 21
288.0651052800129
 31
0.0
  0
LINE
  5
BDE
330
2
100
AcDbEntity
  8
0
100
AcDbLine
 10
642.0209583471731
 20
286.0651052800129
 30
0.0
 11
642.0209583471725
 21
389.065105280013
 31
0.0
  0
CIRCLE
  5
BDF
330
2
100
AcDbEntity
  8
0
100
AcDbCircle
 10
588.4473432183674
 20
295.1386984088201
 30
0.0
 40
3.2
  0
CIRCLE
  5
BE0
330
2
100
AcDbEntity
  8
HOJO
100
AcDbCircle
 10
588.4473432183674
 20
295.1386984088201
 30
0.0
 40
4.0
  0
ARC
  5
BE1
330
2
100
AcDbEntity
  8
0
100
AcDbCircle
 10
628.5209583471698
 20
288.5651052800128
 30
0.0
 40
2.0
100
AcDbArc
 50
179.9999999999869
 51
270.0
  0
LINE
  5
BE2
330
2
100
AcDbEntity
  8
0
100
AcDbLine
 10
642.0209583471731
 20
286.5651052800129
 30
0.0
 11
628.5209583471698
 21
286.5651052800128
 31
0.0
  0
CIRCLE
  5
BE3
330
2
100
AcDbEntity
  8
0
100
AcDbCircle
 10
588.4473432183674
 20
379.9915121512062
 30
0.0
 40
3.2
  0
CIRCLE
  5
BE4
330
2
100
AcDbEntity
  8
HOJO
100
AcDbCircle
 10
588.4473432183674
 20
379.9915121512062
 30
0.0
 40
4.0
  0
ARC
  5
BE5
330
2
100
AcDbEntity
  8
0
100
AcDbCircle
 10
628.5209583471726
 20
386.5651052800135
 30
0.0
 40
2.0
100
AcDbArc
 50
90.0
 51
179.9999999999869
  0
LINE
  5
BE6
330
2
100
AcDbEntity
  8
0
100
AcDbLine
 10
642.0209583471725
 20
388.565105280013
 30
0.0
 11
628.520958347173
 21
388.5651052800135
 31
0.0
  0
ARC
  5
BE7
330
2
100
AcDbEntity
  8
0
100
AcDbCircle
 10
546.0209363471724
 20
188.5651052800108
 30
0.0
 40
200.0
100
AcDbArc
 50
84.10530161359629
 51
95.89469838640374
  0
ARC
  5
BE8
330
2
100
AcDbEntity
  8
0
100
AcDbCircle
 10
572.7230652774976
 20
447.190309601995
 30
0.0
 40
60.0
100
AcDbArc
 50
264.1053016135962
 51
281.8050678104415
  0
LINE
  5
BE9
330
2
100
AcDbEntity
  8
0
100
AcDbLine
 10
589.0209363471747
 20
388.5651052800105
 30
0.0
 11
586.0209363471719
 21
388.5651052800103
 31
0.0
  0
ARC
  5
BEA
330
2
100
AcDbEntity
  8
0
100
AcDbCircle
 10
586.0209363471719
 20
383.5651052800102
 30
0.0
 40
5.0
100
AcDbArc
 50
90.0
 51
101.8050678104414
  0
LINE
  5
BEB
330
2
100
AcDbEntity
  8
0
100
AcDbLine
 10
503.0209363471719
 20
388.5651052800107
 30
0.0
 11
506.0209363471719
 21
388.5651052800107
 31
0.0
  0
ARC
  5
BEC
330
2
100
AcDbEntity
  8
0
100
AcDbCircle
 10
519.3188074168472
 20
447.1903096019954
 30
0.0
 40
60.0
100
AcDbArc
 50
258.1949321895585
 51
275.8946983864037
  0
ARC
  5
BED
330
2
100
AcDbEntity
  8
0
100
AcDbCircle
 10
506.0209363471719
 20
383.5651052800107
 30
0.0
 40
5.0
100
AcDbArc
 50
78.19493218955852
 51
90.0
  0
ARC
  5
BEE
330
2
100
AcDbEntity
  8
0
100
AcDbCircle
 10
500.0209363471729
 20
377.5651052800107
 30
0.0
 40
5.0
100
AcDbArc
 50
180.0
 51
191.8050678104706
  0
LINE
  5
BEF
330
2
100
AcDbEntity
  8
0
100
AcDbLine
 10
495.020936347172
 20
380.5651052800107
 30
0.0
 11
495.020936347172
 21
377.565105280013
 31
0.0
  0
ARC
  5
BF0
330
2
100
AcDbEntity
  8
0
100
AcDbCircle
 10
436.3957320251877
 20
364.2672342103364
 30
0.0
 40
60.0
100
AcDbArc
 50
354.1053016135986
 51
11.80506781047064
  0
ARC
  5
BF1
330
2
100
AcDbEntity
  8
0
100
AcDbCircle
 10
695.020936347172
 20
337.5651052800108
 30
0.0
 40
200.0
100
AcDbArc
 50
174.1053016135986
 51
185.8946983864013
  0
ARC
  5
BF2
330
2
100
AcDbEntity
  8
0
100
AcDbCircle
 10
436.3957320251877
 20
310.862976349686
 30
0.0
 40
60.0
100
AcDbArc
 50
348.1949321895285
 51
5.894698386401296
  0
ARC
  5
BF3
330
2
100
AcDbEntity
  8
0
100
AcDbCircle
 10
500.020936347172
 20
297.5651052800108
 30
0.0
 40
5.0
100
AcDbArc
 50
168.1949321895285
 51
180.0
  0
LINE
  5
BF4
330
2
100
AcDbEntity
  8
0
100
AcDbLine
 10
495.020936347172
 20
297.5651052800131
 30
0.0
 11
495.020936347172
 21
294.5651052800107
 31
0.0
  0
ARC
  5
BF5
330
2
100
AcDbEntity
  8
0
100
AcDbCircle
 10
519.3188074168467
 20
227.9399009580263
 30
0.0
 40
60.0
100
AcDbArc
 50
84.10530161359629
 51
101.8050678104414
  0
ARC
  5
BF6
330
2
100
AcDbEntity
  8
0
100
AcDbCircle
 10
506.0209363471719
 20
291.5651052800112
 30
0.0
 40
5.0
100
AcDbArc
 50
270.0
 51
281.8050678104415
  0
LINE
  5
BF7
330
2
100
AcDbEntity
  8
0
100
AcDbLine
 10
503.0209363471724
 20
286.5651052800107
 30
0.0
 11
506.0209363471719
 21
286.5651052800108
 31
0.0
  0
ARC
  5
BF8
330
2
100
AcDbEntity
  8
0
100
AcDbCircle
 10
546.020936347172
 20
486.5651052800108
 30
0.0
 40
200.0
100
AcDbArc
 50
264.1053016135962
 51
275.8946983864037
  0
ARC
  5
BF9
330
2
100
AcDbEntity
  8
0
100
AcDbCircle
 10
572.7230652774967
 20
227.9399009580261
 30
0.0
 40
60.0
100
AcDbArc
 50
78.19493218955852
 51
95.89469838640374
  0
ARC
  5
BFA
330
2
100
AcDbEntity
  8
0
100
AcDbCircle
 10
586.0209363471719
 20
291.5651052800107
 30
0.0
 40
5.0
100
AcDbArc
 50
258.1949321895585
 51
270.0
  0
LINE
  5
BFB
330
2
100
AcDbEntity
  8
0
100
AcDbLine
 10
586.0209363471719
 20
286.5651052800108
 30
0.0
 11
589.0209363471692
 21
286.5651052800108
 31
0.0
  0
ARC
  5
BFC
330
2
100
AcDbEntity
  8
0
100
AcDbCircle
 10
503.0209363471719
 20
380.5651052800046
 30
0.0
 40
8.0
100
AcDbArc
 50
90.0
 51
180.0
  0
ARC
  5
BFD
330
2
100
AcDbEntity
  8
0
100
AcDbCircle
 10
589.0209363471747
 20
380.5651052800044
 30
0.0
 40
8.0
100
AcDbArc
 50
359.9999999999869
 51
90.0
  0
ARC
  5
BFE
330
2
100
AcDbEntity
  8
0
100
AcDbCircle
 10
503.0209363471719
 20
294.5651052800047
 30
0.0
 40
8.0
100
AcDbArc
 50
180.0
 51
270.0
  0
ARC
  5
BFF
330
2
100
AcDbEntity
  8
0
100
AcDbCircle
 10
589.0209363471683
 20
294.5651052800048
 30
0.0
 40
8.0
100
AcDbArc
 50
270.0
 51
0.0
  0
LINE
  5
C00
330
2
100
AcDbEntity
  8
0
100
AcDbLine
 10
597.0209363471683
 20
380.5651052800048
 30
0.0
 11
597.0209363471711
 21
294.5651052800051
 31
0.0
  0
LINE
  5
C01
330
2
100
AcDbEntity
  8
0
 48
0.5
100
AcDbLine
 10
599.0209363471692
 20
340.0651052800109
 30
0.0
 11
615.5209583471708
 21
340.0651052800109
 31
0.0
  0
LINE
  5
C02
330
2
100
AcDbEntity
  8
0
 48
0.5
100
AcDbLine
 10
599.0209363471701
 20
335.065105280011
 30
0.0
 11
615.5209583471708
 21
335.065105280011
 31
0.0
  0
LINE
  5
C03
330
2
100
AcDbEntity
  8
0
100
AcDbLine
 10
540.6646082848481
 20
294.5651052799991
 30
0.0
 11
542.8246092158476
 21
294.5651052799987
 31
0.0
  0
LINE
  5
C04
330
2
100
AcDbEntity
  8
0
100
AcDbLine
 10
543.6646082848526
 20
300.5651052800075
 30
0.0
 11
540.6646082848481
 21
294.5651052799991
 31
0.0
  0
ARC
  5
C05
330
2
100
AcDbEntity
  8
0
100
AcDbCircle
 10
548.64455371486
 20
298.5251052800044
 30
0.0
 40
2.040000000002968
100
AcDbArc
 50
307.5189678668038
 51
90.0
  0
LINE
  5
C06
330
2
100
AcDbEntity
  8
0
100
AcDbLine
 10
549.8869627496048
 20
296.907075678793
 30
0.0
 11
551.3772644094959
 21
294.5651052799991
 31
0.0
  0
LINE
  5
C07
330
2
100
AcDbEntity
  8
0
100
AcDbLine
 10
549.2172634784972
 20
294.5651052799987
 30
0.0
 11
551.3772644094959
 21
294.5651052799991
 31
0.0
  0
LINE
  5
C08
330
2
100
AcDbEntity
  8
0
100
AcDbLine
 10
544.8046082848539
 20
294.5651052799987
 30
0.0
 11
546.6045537148564
 21
294.5651052799984
 31
0.0
  0
LINE
  5
C09
330
2
100
AcDbEntity
  8
0
100
AcDbLine
 10
543.2746092158474
 20
295.4651052800004
 30
0.0
 11
542.8246092158476
 21
294.5651052799987
 31
0.0
  0
LINE
  5
C0A
330
2
100
AcDbEntity
  8
0
100
AcDbLine
 10
543.2746092158474
 20
295.4651052800004
 30
0.0
 11
544.8046082848539
 21
295.4651052799999
 31
0.0
  0
LINE
  5
C0B
330
2
100
AcDbEntity
  8
0
100
AcDbLine
 10
544.8046082848539
 20
295.4651052799999
 30
0.0
 11
544.8046082848539
 21
294.5651052799987
 31
0.0
  0
LINE
  5
C0C
330
2
100
AcDbEntity
  8
0
100
AcDbLine
 10
544.2346092158493
 20
297.3851052800022
 30
0.0
 11
544.8046082848539
 21
297.3851052800027
 31
0.0
  0
LINE
  5
C0D
330
2
100
AcDbEntity
  8
0
100
AcDbLine
 10
544.8046082848539
 20
298.525103418012
 30
0.0
 11
544.8046082848539
 21
297.3851052800027
 31
0.0
  0
LINE
  5
C0E
330
2
100
AcDbEntity
  8
0
100
AcDbLine
 10
544.8046082848539
 20
298.525103418012
 30
0.0
 11
544.2346092158493
 21
297.3851052800022
 31
0.0
  0
LINE
  5
C0F
330
2
100
AcDbEntity
  8
0
100
AcDbLine
 10
546.8596082848569
 20
298.2701052800038
 30
0.0
 11
549.2172634784972
 21
294.5651052799987
 31
0.0
  0
LINE
  5
C10
330
2
100
AcDbEntity
  8
0
100
AcDbLine
 10
546.6045537148564
 20
298.5251052800046
 30
0.0
 11
546.6045537148564
 21
294.5651052799984
 31
0.0
  0
LINE
  5
C11
330
2
100
AcDbEntity
  8
0
100
AcDbLine
 10
546.6045537148564
 20
298.5251052800046
 30
0.0
 11
548.5171082848589
 21
298.5251052800046
 31
0.0
  0
LINE
  5
C12
330
2
100
AcDbEntity
  8
0
100
AcDbLine
 10
546.8596082848569
 20
298.2701052800038
 30
0.0
 11
548.5171082848599
 21
298.2701052800038
 31
0.0
  0
ARC
  5
C13
330
2
100
AcDbEntity
  8
0
100
AcDbCircle
 10
548.5171082848599
 20
298.3976052800043
 30
0.0
 40
0.1275000000001855
100
AcDbArc
 50
270.0
 51
90.0
  0
LINE
  5
C14
330
2
100
AcDbEntity
  8
0
100
AcDbLine
 10
543.6646082848526
 20
300.5651052800075
 30
0.0
 11
548.64455371486
 21
300.5651052800075
 31
0.0
  0
ARC
  5
C15
330
2
100
AcDbEntity
  8
0
 48
0.5
100
AcDbCircle
 10
599.0209363471692
 20
342.0651052800109
 30
0.0
 40
2.0
100
AcDbArc
 50
180.0
 51
270.0
  0
ARC
  5
C16
330
2
100
AcDbEntity
  8
0
100
AcDbCircle
 10
615.5209583471708
 20
342.0651052800109
 30
0.0
 40
2.0
100
AcDbArc
 50
270.0
 51
0.0
  0
ARC
  5
C17
330
2
100
AcDbEntity
  8
0
100
AcDbCircle
 10
615.5209583471708
 20
333.065105280011
 30
0.0
 40
2.0
100
AcDbArc
 50
0.0
 51
90.0
  0
ARC
  5
C18
330
2
100
AcDbEntity
  8
0
100
AcDbCircle
 10
599.0209363471701
 20
333.065105280011
 30
0.0
 40
2.0
100
AcDbArc
 50
90.0
 51
180.0
  0
ARC
  5
C19
330
2
100
AcDbEntity
  8
0
100
AcDbCircle
 10
599.020936347172
 20
300.5651052800109
 30
0.0
 40
2.0
100
AcDbArc
 50
90.0
 51
180.0
  0
ARC
  5
C1A
330
2
100
AcDbEntity
  8
0
100
AcDbCircle
 10
621.5209363471601
 20
294.5651052800112
 30
0.0
 40
5.0
100
AcDbArc
 50
359.9999999999869
 51
90.0
  0
LINE
  5
C1B
330
2
100
AcDbEntity
  8
0
100
AcDbLine
 10
615.6479530009626
 20
372.5651052800112
 30
0.0
 11
599.0209363471729
 21
372.5651052800112
 31
0.0
  0
ARC
  5
C1C
330
2
100
AcDbEntity
  8
0
100
AcDbCircle
 10
599.0209363471729
 20
374.5651052800112
 30
0.0
 40
2.0
100
AcDbArc
 50
180.0
 51
270.0
  0
LINE
  5
C1D
330
2
100
AcDbEntity
  8
0
100
AcDbLine
 10
615.6479530009607
 20
302.5651052800109
 30
0.0
 11
599.020936347172
 21
302.5651052800109
 31
0.0
  0
LINE
  5
C1E
330
2
100
AcDbEntity
  8
0
100
AcDbLine
 10
621.5209363471711
 20
375.5651052800109
 30
0.0
 11
619.5209363471701
 21
375.5651052800112
 31
0.0
  0
ARC
  5
C1F
330
2
100
AcDbEntity
  8
0
100
AcDbCircle
 10
621.5209363471711
 20
380.5651052800109
 30
0.0
 40
5.0
100
AcDbArc
 50
270.0
 51
0.0
  0
LINE
  5
C20
330
2
100
AcDbEntity
  8
0
100
AcDbLine
 10
621.5209363471601
 20
299.5651052800112
 30
0.0
 11
619.5209363471683
 21
299.5651052800112
 31
0.0
  0
ARC
  5
C21
330
2
100
AcDbEntity
  8
0
100
AcDbCircle
 10
619.5209363471683
 20
301.5651052800112
 30
0.0
 40
2.0
100
AcDbArc
 50
180.0
 51
270.0
  0
ARC
  5
C22
330
2
100
AcDbEntity
  8
0
100
AcDbCircle
 10
615.6479530009607
 20
300.5651052800109
 30
0.0
 40
2.0
100
AcDbArc
 50
14.47751218594082
 51
90.0
  0
LINE
  5
C23
330
2
100
AcDbEntity
  8
0
100
AcDbLine
 10
617.5209363471692
 20
373.5651052800112
 30
0.0
 11
617.5209363471683
 21
301.5651052800112
 31
0.0
  0
ARC
  5
C24
330
2
100
AcDbEntity
  8
0
100
AcDbCircle
 10
619.5209363471701
 20
373.5651052800112
 30
0.0
 40
2.0
100
AcDbArc
 50
90.0
 51
180.0
  0
ARC
  5
C25
330
2
100
AcDbEntity
  8
0
100
AcDbCircle
 10
615.6479530009626
 20
374.5651052800109
 30
0.0
 40
2.0
100
AcDbArc
 50
270.0
 51
345.5224878140709
  0
ARC
  5
C26
330
2
100
AcDbEntity
  8
0
100
AcDbCircle
 10
612.5209583471717
 20
372.5651052800132
 30
0.0
 40
5.0
100
AcDbArc
 50
270.0
 51
359.9999999999869
  0
ARC
  5
C27
330
2
100
AcDbEntity
  8
0
100
AcDbCircle
 10
602.0209363471697
 20
372.5651052800137
 30
0.0
 40
5.0
100
AcDbArc
 50
179.9999999999869
 51
270.0
  0
LINE
  5
C28
330
2
100
AcDbEntity
  8
0
100
AcDbLine
 10
602.0209363471693
 20
367.5651052800137
 30
0.0
 11
612.5209583471712
 21
367.565105280013
 31
0.0
  0
ARC
  5
C29
330
2
100
AcDbEntity
  8
0
100
AcDbCircle
 10
612.5209583471703
 20
302.5651052800131
 30
0.0
 40
5.0
100
AcDbArc
 50
0.0
 51
90.0
  0
ARC
  5
C2A
330
2
100
AcDbEntity
  8
0
100
AcDbCircle
 10
602.0209363471683
 20
302.5651052800132
 30
0.0
 40
5.0
100
AcDbArc
 50
90.0
 51
180.0
  0
LINE
  5
C2B
330
2
100
AcDbEntity
  8
0
100
AcDbLine
 10
602.0209363471683
 20
307.5651052800132
 30
0.0
 11
612.5209583471703
 21
307.5651052800132
 31
0.0
  0
LINE
  5
C2C
330
2
100
AcDbEntity
  8
0
100
AcDbLine
 10
642.0209583471725
 20
389.065105280013
 30
0.0
 11
628.520958347173
 21
389.0651052800135
 31
0.0
  0
ARC
  5
C2D
330
2
100
AcDbEntity
  8
0
100
AcDbCircle
 10
628.5209583471726
 20
387.0651052800134
 30
0.0
 40
2.0
100
AcDbArc
 50
90.0
 51
179.9999999999869
  0
LINE
  5
C2E
330
2
100
AcDbEntity
  8
0
100
AcDbLine
 10
642.0209583471731
 20
286.0651052800129
 30
0.0
 11
628.5209583471698
 21
286.0651052800128
 31
0.0
  0
ARC
  5
C2F
330
2
100
AcDbEntity
  8
0
100
AcDbCircle
 10
628.5209583471698
 20
288.0651052800128
 30
0.0
 40
2.0
100
AcDbArc
 50
179.9999999999869
 51
270.0
  0
LINE
  5
C30
330
2
100
AcDbEntity
  8
CENTER
100
AcDbLine
 10
491.6923507245894
 20
283.2365196574289
 30
0.0
 11
600.3495219697549
 21
391.893690902593
 31
0.0
  0
CIRCLE
  5
C31
330
2
100
AcDbEntity
  8
0
100
AcDbCircle
 10
546.020936347172
 20
337.565105280011
 30
0.0
 40
26.57735026918976
  0
LINE
  5
C32
330
2
100
AcDbEntity
  8
CENTER
100
AcDbLine
 10
546.0209363471721
 20
716.253855903235
 30
0.0
 11
546.0209363471718
 21
531.2538559032287
 31
0.0
  0
LINE
  5
C33
330
2
100
AcDbEntity
  8
CENTER
100
AcDbLine
 10
485.2779981631435
 20
655.253855903228
 30
0.0
 11
736.5209583471751
 21
655.2538559032281
 31
0.0
  0
LINE
  5
C34
330
2
100
AcDbEntity
  8
0
100
AcDbLine
 10
495.0209363471738
 20
684.753855903228
 30
0.0
 11
596.5023802803614
 21
684.7538559032322
 31
0.0
  0
LINE
  5
C35
330
2
100
AcDbEntity
  8
0
100
AcDbLine
 10
495.0209363471738
 20
684.753855903228
 30
0.0
 11
495.7409029399111
 21
602.2538559032282
 31
0.0
  0
LINE
  5
C36
330
2
100
AcDbEntity
  8
0
100
AcDbLine
 10
501.0209363471737
 20
597.253855903228
 30
0.0
 11
591.0209363471738
 21
597.253855903228
 31
0.0
  0
LINE
  5
C37
330
2
100
AcDbEntity
  8
0
100
AcDbLine
 10
501.0209363471737
 20
602.2538559032282
 30
0.0
 11
501.0209363471737
 21
597.2538559032281
 31
0.0
  0
LINE
  5
C38
330
2
100
AcDbEntity
  8
0
100
AcDbLine
 10
495.7409029399111
 20
602.2538559032282
 30
0.0
 11
596.2984123542639
 21
602.2538559032279
 31
0.0
  0
LINE
  5
C39
330
2
100
AcDbEntity
  8
0
100
AcDbLine
 10
591.0209363471738
 20
602.2538559032282
 30
0.0
 11
591.0209363471738
 21
597.2538559032281
 31
0.0
  0
LINE
  5
C3A
330
2
100
AcDbEntity
  8
0
100
AcDbLine
 10
596.5023802803614
 20
684.7538559032322
 30
0.0
 11
596.7598130775647
 21
655.2549791728349
 31
0.0
  0
LINE
  5
C3B
330
2
100
AcDbEntity
  8
0
100
AcDbLine
 10
596.7609363471717
 20
655.253855903228
 30
0.0
 11
596.2984123542644
 21
602.2538559032279
 31
0.0
  0
ARC
  5
C3C
330
2
100
AcDbEntity
  8
0
100
AcDbCircle
 10
601.4556863664254
 20
620.2538559032282
 30
0.0
 40
5.0
100
AcDbArc
 50
90.0
 51
179.5000000000019
  0
LINE
  5
C3D
330
2
100
AcDbEntity
  8
0
100
AcDbLine
 10
619.4692500890176
 20
617.2538559032282
 30
0.0
 11
621.309735012165
 21
617.2538559032282
 31
0.0
  0
LINE
  5
C3E
330
2
100
AcDbEntity
  8
0
100
AcDbLine
 10
642.0209583471721
 20
706.253855903228
 30
0.0
 11
642.0209583471721
 21
604.2538559032282
 31
0.0
  0
LINE
  5
C3F
330
2
100
AcDbEntity
  8
0
100
AcDbLine
 10
619.4692500890176
 20
693.2538559032281
 30
0.0
 11
621.3097350121641
 21
693.2538559032281
 31
0.0
  0
LINE
  5
C40
330
2
100
AcDbEntity
  8
0
100
AcDbLine
 10
616.5258713275382
 20
655.2538559032281
 30
0.0
 11
617.4699354390666
 21
691.3062097998436
 31
0.0
  0
ARC
  5
C41
330
2
100
AcDbEntity
  8
0
100
AcDbCircle
 10
619.4692500890176
 20
691.2538559032279
 30
0.0
 40
2.0
100
AcDbArc
 50
90.0
 51
178.5000000000103
  0
LINE
  5
C42
330
2
100
AcDbEntity
  8
0
100
AcDbLine
 10
612.4144786984427
 20
684.2538559032322
 30
0.0
 11
597.0023802803622
 21
684.2538559032321
 31
0.0
  0
LINE
  5
C43
330
2
100
AcDbEntity
  8
0
100
AcDbLine
 10
596.5023802803614
 20
684.7538559032322
 30
0.0
 11
597.0023802803622
 21
684.2538559032321
 31
0.0
  0
LINE
  5
C44
330
2
100
AcDbEntity
  8
0
100
AcDbLine
 10
616.5258713275432
 20
655.2538559032281
 30
0.0
 11
617.4699354390666
 21
619.2015020066121
 31
0.0
  0
ARC
  5
C45
330
2
100
AcDbEntity
  8
0
100
AcDbCircle
 10
619.4692500890176
 20
619.2538559032279
 30
0.0
 40
2.0
100
AcDbArc
 50
181.5000000000027
 51
270.0
  0
LINE
  5
C46
330
2
100
AcDbEntity
  8
0
100
AcDbLine
 10
601.4556863664254
 20
625.2538559032282
 30
0.0
 11
612.440664620012
 21
625.2538559032282
 31
0.0
  0
ARC
  5
C47
330
2
100
AcDbEntity
  8
0
100
AcDbCircle
 10
612.440664620012
 20
620.2538559032282
 30
0.0
 40
5.0
100
AcDbArc
 50
1.500000000002719
 51
90.0
  0
ARC
  5
C48
330
2
100
AcDbEntity
  8
0
100
AcDbCircle
 10
612.4144786984427
 20
689.2538559032323
 30
0.0
 40
5.0
100
AcDbArc
 50
270.0
 51
358.4999999999972
  0
LINE
  5
C49
330
2
100
AcDbEntity
  8
0
100
AcDbLine
 10
513.9523138967859
 20
583.2538559032268
 30
0.0
 11
578.089558797559
 21
583.2538559032268
 31
0.0
  0
LINE
  5
C4A
330
2
100
AcDbEntity
  8
0
100
AcDbLine
 10
511.5994496787123
 20
595.3236548966315
 30
0.0
 11
511.953532242748
 21
585.1840569098222
 31
0.0
  0
ARC
  5
C4B
330
2
100
AcDbEntity
  8
0
100
AcDbCircle
 10
509.6006680246744
 20
595.2538559032269
 30
0.0
 40
2.0
100
AcDbArc
 50
2.000000000004465
 51
90.0
  0
ARC
  5
C4C
330
2
100
AcDbEntity
  8
0
100
AcDbCircle
 10
513.9523138967859
 20
585.2538559032268
 30
0.0
 40
2.0
100
AcDbArc
 50
182.0000000000044
 51
270.0
  0
LINE
  5
C4D
330
2
100
AcDbEntity
  8
0
100
AcDbLine
 10
580.4424230156326
 20
595.3236548966319
 30
0.0
 11
580.0883404515968
 21
585.1840569098222
 31
0.0
  0
ARC
  5
C4E
330
2
100
AcDbEntity
  8
0
100
AcDbCircle
 10
582.4412046696704
 20
595.2538559032269
 30
0.0
 40
2.0
100
AcDbArc
 50
90.0
 51
177.9999999999955
  0
ARC
  5
C4F
330
2
100
AcDbEntity
  8
0
100
AcDbCircle
 10
578.089558797559
 20
585.2538559032268
 30
0.0
 40
2.0
100
AcDbArc
 50
270.0
 51
357.9999999999955
  0
LINE
  5
C50
330
2
100
AcDbEntity
  8
0
100
AcDbLine
 10
586.0340293079559
 20
684.7538559032318
 30
0.0
 11
586.7810135401921
 21
656.2276789549202
 31
0.0
  0
ARC
  5
C51
330
2
100
AcDbEntity
  8
0
100
AcDbCircle
 10
587.7806708651676
 20
656.2538559032282
 30
0.0
 40
1.0
100
AcDbArc
 50
181.5000000000027
 51
270.0
  0
LINE
  5
C52
330
2
100
AcDbEntity
  8
0
100
AcDbLine
 10
586.0209363471729
 20
655.2538559032281
 30
0.0
 11
586.0209363471719
 21
603.7538559032279
 31
0.0
  0
LINE
  5
C53
330
2
100
AcDbEntity
  8
0
100
AcDbLine
 10
587.7806708651685
 20
655.2538559032281
 30
0.0
 11
596.7609363471713
 21
655.2538559032281
 31
0.0
  0
LINE
  5
C54
330
2
100
AcDbEntity
  8
0
100
AcDbLine
 10
587.7806708651685
 20
655.2538559032281
 30
0.0
 11
587.7806708651676
 21
655.2538559032281
 31
0.0
  0
LINE
  5
C55
330
2
100
AcDbEntity
  8
0
100
AcDbLine
 10
626.4699354390647
 20
704.3062097998438
 30
0.0
 11
625.1854543471379
 21
655.2538559032284
 31
0.0
  0
ARC
  5
C56
330
2
100
AcDbEntity
  8
0
100
AcDbCircle
 10
621.3097350121641
 20
698.2538559032284
 30
0.0
 40
5.0
100
AcDbArc
 50
270.0
 51
358.4999999999972
  0
LINE
  5
C57
330
2
100
AcDbEntity
  8
0
100
AcDbLine
 10
628.4692500890157
 20
604.2538559032282
 30
0.0
 11
642.0209583471721
 21
604.2538559032284
 31
0.0
  0
ARC
  5
C58
330
2
100
AcDbEntity
  8
0
100
AcDbCircle
 10
628.4692500890157
 20
606.2538559032282
 30
0.0
 40
2.0
100
AcDbArc
 50
181.4999999999896
 51
270.0
  0
LINE
  5
C59
330
2
100
AcDbEntity
  8
0
100
AcDbLine
 10
628.4692500890157
 20
706.253855903228
 30
0.0
 11
642.0209583471721
 21
706.2538559032282
 31
0.0
  0
ARC
  5
C5A
330
2
100
AcDbEntity
  8
0
100
AcDbCircle
 10
628.4692500890157
 20
704.2538559032282
 30
0.0
 40
2.0
100
AcDbArc
 50
90.0
 51
178.5000000000103
  0
LINE
  5
C5B
330
2
100
AcDbEntity
  8
0
100
AcDbLine
 10
626.4699354390647
 20
606.2015020066128
 30
0.0
 11
625.1854543471442
 21
655.2538559032281
 31
0.0
  0
ARC
  5
C5C
330
2
100
AcDbEntity
  8
0
100
AcDbCircle
 10
621.309735012165
 20
612.2538559032282
 30
0.0
 40
5.0
100
AcDbArc
 50
1.499999999989688
 51
90.0
  0
LINE
  5
C5D
330
2
100
AcDbEntity
  8
0
100
AcDbLine
 10
625.1854543471442
 20
655.2538559032281
 30
0.0
 11
642.0209583471721
 21
655.2538559032281
 31
0.0
  0
ARC
  5
C5E
330
2
100
AcDbEntity
  8
0
100
AcDbCircle
 10
615.5962667428073
 20
618.2538559032287
 30
0.0
 40
2.0
100
AcDbArc
 50
14.4775121859173
 51
90.0
  0
LINE
  5
C5F
330
2
100
AcDbEntity
  8
0
100
AcDbLine
 10
598.4381183956868
 20
620.2538559032277
 30
0.0
 11
615.5962667428073
 21
620.2538559032286
 31
0.0
  0
ARC
  5
C60
330
2
100
AcDbEntity
  8
0
100
AcDbCircle
 10
598.4381183956872
 20
618.253855903228
 30
0.0
 40
2.0
100
AcDbArc
 50
90.0
 51
179.5000000000019
  0
LINE
  5
C8B
330
2
100
AcDbEntity
  8
CENTER
100
AcDbLine
 10
111.2282379787441
 20
276.5651052800111
 30
0.0
 11
111.2282379787441
 21
398.5651052800111
 31
0.0
  0
LINE
  5
C8C
330
2
100
AcDbEntity
  8
0
100
AcDbLine
 10
60.48823797874433
 20
294.5651052800143
 30
0.0
 11
60.48823797874433
 21
380.565105280014
 31
0.0
  0
ARC
  5
C8D
330
2
100
AcDbEntity
  8
0
100
AcDbCircle
 10
55.48823797874433
 20
302.5651052800136
 30
0.0
 40
5.0
100
AcDbArc
 50
0.0
 51
90.0
  0
ARC
  5
C8E
330
2
100
AcDbEntity
  8
0
100
AcDbCircle
 10
58.48823797874434
 20
300.5651052800111
 30
0.0
 40
2.0
100
AcDbArc
 50
0.0
 51
90.0
  0
ARC
  5
C8F
330
2
100
AcDbEntity
  8
0
100
AcDbCircle
 10
55.48823797874433
 20
372.5651052800141
 30
0.0
 40
5.0
100
AcDbArc
 50
270.0
 51
0.0
  0
ARC
  5
C90
330
2
100
AcDbEntity
  8
0
100
AcDbCircle
 10
58.48823797874434
 20
374.5651052800113
 30
0.0
 40
2.0
100
AcDbArc
 50
270.0
 51
0.0
  0
ARC
  5
C91
330
2
100
AcDbEntity
  8
0
100
AcDbCircle
 10
68.48823797874434
 20
380.565105280014
 30
0.0
 40
8.0
100
AcDbArc
 50
90.0
 51
180.0
  0
ARC
  5
C92
330
2
100
AcDbEntity
  8
0
100
AcDbCircle
 10
68.48823797874434
 20
294.5651052800143
 30
0.0
 40
8.0
100
AcDbArc
 50
180.0
 51
270.0
  0
ARC
  5
C94
330
2
100
AcDbEntity
  8
0
100
AcDbCircle
 10
35.72821597874576
 20
380.5651052800192
 30
0.0
 40
5.0
100
AcDbArc
 50
180.0
 51
270.0
  0
LINE
  5
C95
330
2
100
AcDbEntity
  8
0
100
AcDbLine
 10
30.72821597874576
 20
288.065105280019
 30
0.0
 11
30.72821597874849
 21
387.0651052800199
 31
0.0
  0
LINE
  5
C96
330
2
100
AcDbEntity
  8
0
100
AcDbLine
 10
15.22821597874531
 20
389.0651052800197
 30
0.0
 11
15.22821597874576
 21
337.5651052800197
 31
0.0
  0
ARC
  5
C97
330
2
100
AcDbEntity
  8
0
100
AcDbCircle
 10
28.72821597874849
 20
386.5651052800199
 30
0.0
 40
2.0
100
AcDbArc
 50
359.9999999999869
 51
90.0
  0
LINE
  5
C98
330
2
100
AcDbEntity
  8
0
100
AcDbLine
 10
15.22821597874531
 20
388.5651052800197
 30
0.0
 11
28.72821597874849
 21
388.5651052800199
 31
0.0
  0
LINE
  5
C99
330
2
100
AcDbEntity
  8
0
100
AcDbLine
 10
15.22821597874576
 20
286.0651052800195
 30
0.0
 11
15.22821597874576
 21
337.5651052800195
 31
0.0
  0
ARC
  5
C9A
330
2
100
AcDbEntity
  8
0
100
AcDbCircle
 10
28.72821597874576
 20
288.565105280019
 30
0.0
 40
2.0
100
AcDbArc
 50
270.0
 51
0.0
  0
ARC
  5
C9B
330
2
100
AcDbEntity
  8
0
100
AcDbCircle
 10
35.72821597874576
 20
294.5651052800197
 30
0.0
 40
5.0
100
AcDbArc
 50
90.0
 51
179.9999999999869
  0
LINE
  5
C9C
330
2
100
AcDbEntity
  8
0
100
AcDbLine
 10
15.22821597874576
 20
286.5651052800195
 30
0.0
 11
28.72821597874576
 21
286.565105280019
 31
0.0
  0
LINE
  5
C9D
330
2
100
AcDbEntity
  8
0
100
AcDbLine
 10
37.72821597874349
 20
299.5651052800143
 30
0.0
 11
35.72821597874622
 21
299.5651052800145
 31
0.0
  0
LINE
  5
C9E
330
2
100
AcDbEntity
  8
0
100
AcDbLine
 10
37.72821597874622
 20
375.5651052800199
 30
0.0
 11
35.7282159787444
 21
375.5651052800204
 31
0.0
  0
LINE
  5
C9F
330
2
100
AcDbEntity
  8
0
 48
0.5
100
AcDbLine
 10
59.72823797874366
 20
329.8839595321545
 30
0.0
 11
59.72823797874503
 21
345.2462510278735
 31
0.0
  0
LINE
  5
CA0
330
2
100
AcDbEntity
  8
0
100
AcDbLine
 10
55.48823797874433
 20
367.5651052800141
 30
0.0
 11
44.7282159787453
 21
367.565105280014
 31
0.0
  0
LINE
  5
CA1
330
2
100
AcDbEntity
  8
0
100
AcDbLine
 10
39.72821597874531
 20
373.565105280019
 30
0.0
 11
39.72821597874531
 21
301.5651052800095
 31
0.0
  0
ARC
  5
CA2
330
2
100
AcDbEntity
  8
0
100
AcDbCircle
 10
44.7282159787453
 20
372.565105280014
 30
0.0
 40
5.0
100
AcDbArc
 50
180.0
 51
270.0
  0
ARC
  5
CA3
330
2
100
AcDbEntity
  8
0
100
AcDbCircle
 10
37.72821597874531
 20
373.565105280019
 30
0.0
 40
2.0
100
AcDbArc
 50
0.0
 51
89.99999999997395
  0
LINE
  5
CA4
330
2
100
AcDbEntity
  8
0
100
AcDbLine
 10
39.72821597874531
 20
329.8839595321545
 30
0.0
 11
60.22823797875048
 21
329.8839595321547
 31
0.0
  0
LINE
  5
CA5
330
2
100
AcDbEntity
  8
0
100
AcDbLine
 10
39.72821597874531
 20
345.2462510278738
 30
0.0
 11
60.22823797875048
 21
345.2462510278735
 31
0.0
  0
LINE
  5
CA6
330
2
100
AcDbEntity
  8
0
100
AcDbLine
 10
55.48823797874433
 20
307.5651052800135
 30
0.0
 11
44.72821597874395
 21
307.5651052800143
 31
0.0
  0
ARC
  5
CA7
330
2
100
AcDbEntity
  8
0
100
AcDbCircle
 10
44.72821597874349
 20
302.565105280014
 30
0.0
 40
5.0
100
AcDbArc
 50
90.0
 51
179.9999999999869
  0
ARC
  5
CA8
330
2
100
AcDbEntity
  8
0
100
AcDbCircle
 10
37.72821597874349
 20
301.5651052800095
 30
0.0
 40
2.0
100
AcDbArc
 50
270.0
 51
0.0
  0
LINE
  5
CA9
330
2
100
AcDbEntity
  8
0
100
AcDbLine
 10
41.60122132495348
 20
302.5651052800113
 30
0.0
 11
58.48823797874434
 21
302.565105280011
 31
0.0
  0
LINE
  5
CAA
330
2
100
AcDbEntity
  8
0
100
AcDbLine
 10
41.60122132495257
 20
372.565105280011
 30
0.0
 11
58.48823797874434
 21
372.5651052800113
 31
0.0
  0
ARC
  5
CAB
330
2
100
AcDbEntity
  8
0
100
AcDbCircle
 10
41.60122132495257
 20
374.5651052800111
 30
0.0
 40
2.0
100
AcDbArc
 50
194.477512185929
 51
270.0
  0
ARC
  5
CAC
330
2
100
AcDbEntity
  8
0
100
AcDbCircle
 10
41.60122132495348
 20
300.5651052800113
 30
0.0
 40
2.0
100
AcDbArc
 50
90.0
 51
165.5224878140709
  0
LINE
  5
CAD
330
2
100
AcDbEntity
  8
0
100
AcDbLine
 10
15.22821597874531
 20
389.0651052800197
 30
0.0
 11
28.72821597874849
 21
389.0651052800199
 31
0.0
  0
ARC
  5
CAE
330
2
100
AcDbEntity
  8
0
100
AcDbCircle
 10
28.72821597874849
 20
387.0651052800199
 30
0.0
 40
2.0
100
AcDbArc
 50
359.9999999999869
 51
90.0
  0
LINE
  5
CAF
330
2
100
AcDbEntity
  8
0
100
AcDbLine
 10
15.22821597874576
 20
286.0651052800195
 30
0.0
 11
28.72821597874576
 21
286.065105280019
 31
0.0
  0
ARC
  5
CB0
330
2
100
AcDbEntity
  8
0
100
AcDbCircle
 10
28.72821597874576
 20
288.065105280019
 30
0.0
 40
2.0
100
AcDbArc
 50
270.0
 51
0.0
  0
ARC
  5
CCB
330
2
100
AcDbEntity
  8
0
100
AcDbCircle
 10
-37.77176202125588
 20
337.5651052800109
 30
0.0
 40
200.0
100
AcDbArc
 50
354.1053016136052
 51
5.894698386394714
  0
LINE
  5
CCC
330
2
100
AcDbEntity
  8
0
 48
0.5
100
AcDbLine
 10
60.74823797874092
 20
294.5651052800117
 30
0.0
 11
60.74823797874774
 21
380.5651052800115
 31
0.0
  0
ARC
  5
CCD
330
2
100
AcDbEntity
  8
0
100
AcDbCircle
 10
137.9303669090697
 20
447.1903096019953
 30
0.0
 40
60.0
100
AcDbArc
 50
264.1053016135962
 51
281.8050678104682
  0
ARC
  5
CCE
330
2
100
AcDbEntity
  8
0
 48
0.5
100
AcDbCircle
 10
154.2282379787441
 20
380.5651052800111
 30
0.0
 40
8.0
100
AcDbArc
 50
0.0
 51
90.0
  0
LINE
  5
CCF
330
2
100
AcDbEntity
  8
CENTER
 48
12.0
100
AcDbLine
 10
154.2282379787472
 20
389.3151052800112
 30
0.0
 11
154.2282379787472
 21
371.8151052800112
 31
0.0
  0
LINE
  5
CD0
330
2
100
AcDbEntity
  8
0
 48
0.5
100
AcDbLine
 10
154.2282379787441
 20
388.5651052800111
 30
0.0
 11
151.2282379787441
 21
388.5651052800109
 31
0.0
  0
ARC
  5
CD1
330
2
100
AcDbEntity
  8
0
100
AcDbCircle
 10
151.2282379787441
 20
383.5651052800105
 30
0.0
 40
5.0
100
AcDbArc
 50
90.0
 51
101.8050678104681
  0
LINE
  5
CD2
330
2
100
AcDbEntity
  8
CENTER
 48
12.0
100
AcDbLine
 10
162.9782379787473
 20
380.5651052800111
 30
0.0
 11
145.4782379787473
 21
380.5651052800111
 31
0.0
  0
ARC
  5
CD3
330
2
100
AcDbEntity
  8
0
100
AcDbCircle
 10
220.8534423007288
 20
364.2672342103356
 30
0.0
 40
60.0
100
AcDbArc
 50
168.1949321895352
 51
185.8946983863947
  0
LINE
  5
CD4
330
2
100
AcDbEntity
  8
0
 48
0.5
100
AcDbLine
 10
162.2282379787441
 20
377.5651052800085
 30
0.0
 11
162.2282379787441
 21
380.5651052800109
 31
0.0
  0
ARC
  5
CD5
330
2
100
AcDbEntity
  8
0
100
AcDbCircle
 10
157.2282379787441
 20
377.5651052800109
 30
0.0
 40
5.0
100
AcDbArc
 50
348.1949321895351
 51
0.0
  0
ARC
  5
CD6
330
2
100
AcDbEntity
  8
0
 48
0.5
100
AcDbCircle
 10
68.74823797874729
 20
380.5651052800108
 30
0.0
 40
8.0
100
AcDbArc
 50
90.0
 51
179.9999999999934
  0
ARC
  5
CD7
330
2
100
AcDbEntity
  8
0
100
AcDbCircle
 10
84.52610904841936
 20
447.1903096019956
 30
0.0
 40
60.0
100
AcDbArc
 50
258.1949321895318
 51
275.8946983864037
  0
ARC
  5
CD8
330
2
100
AcDbEntity
  8
0
100
AcDbCircle
 10
111.2282379787441
 20
188.565105280011
 30
0.0
 40
200.0
100
AcDbArc
 50
84.10530161359627
 51
95.89469838640374
  0
LINE
  5
CD9
330
2
100
AcDbEntity
  8
0
 48
0.5
100
AcDbLine
 10
71.22823797874412
 20
388.5651052800108
 30
0.0
 11
68.74823797874729
 21
388.5651052800108
 31
0.0
  0
ARC
  5
CDA
330
2
100
AcDbEntity
  8
0
100
AcDbCircle
 10
71.22823797874412
 20
383.565105280011
 30
0.0
 40
5.0
100
AcDbArc
 50
78.19493218953183
 51
90.0
  0
LINE
  5
CDB
330
2
100
AcDbEntity
  8
CENTER
 48
12.0
100
AcDbLine
 10
60.55503289799048
 20
372.0651052800111
 30
0.0
 11
70.90144305950457
 21
372.0651052800111
 31
0.0
  0
LINE
  5
CDC
330
2
100
AcDbEntity
  8
CENTER
 48
12.0
100
AcDbLine
 10
59.47823797874412
 20
380.5651052800143
 30
0.0
 11
76.97823797874412
 21
380.5651052800143
 31
0.0
  0
CIRCLE
  5
CDD
330
2
100
AcDbEntity
  8
0
100
AcDbCircle
 10
65.72823797874775
 20
372.0651052800113
 30
0.0
 40
1.6
  0
CIRCLE
  5
CDE
330
2
100
AcDbEntity
  8
HOJO
100
AcDbCircle
 10
65.72823797874775
 20
372.0651052800113
 30
0.0
 40
2.0
  0
LINE
  5
CDF
330
2
100
AcDbEntity
  8
CENTER
 48
12.0
100
AcDbLine
 10
65.7282379787473
 20
377.2383103607682
 30
0.0
 11
65.7282379787473
 21
366.8919001992541
 31
0.0
  0
ARC
  5
CE0
330
2
100
AcDbEntity
  8
0
100
AcDbCircle
 10
137.9303669090688
 20
227.9399009580265
 30
0.0
 40
60.0
100
AcDbArc
 50
78.19493218953183
 51
95.89469838640374
  0
ARC
  5
CE1
330
2
100
AcDbEntity
  8
0
 48
0.5
100
AcDbCircle
 10
154.2282379787441
 20
294.5651052800111
 30
0.0
 40
8.0
100
AcDbArc
 50
270.0
 51
0.0
  0
LINE
  5
CE2
330
2
100
AcDbEntity
  8
CENTER
 48
12.0
100
AcDbLine
 10
154.2282379787441
 20
285.8151052800078
 30
0.0
 11
154.2282379787441
 21
303.3151052800078
 31
0.0
  0
LINE
  5
CE3
330
2
100
AcDbEntity
  8
CENTER
 48
12.0
100
AcDbLine
 10
162.9782379787441
 20
294.5651052800077
 30
0.0
 11
145.4782379787441
 21
294.5651052800077
 31
0.0
  0
LINE
  5
CE4
330
2
100
AcDbEntity
  8
CENTER
 48
12.0
100
AcDbLine
 10
161.9014430594954
 20
303.0651052800108
 30
0.0
 11
151.5550328979814
 21
303.0651052800108
 31
0.0
  0
CIRCLE
  5
CE5
330
2
100
AcDbEntity
  8
HOJO
100
AcDbCircle
 10
156.7282379787382
 20
303.0651052800108
 30
0.0
 40
2.0
  0
LINE
  5
CE6
330
2
100
AcDbEntity
  8
CENTER
 48
12.0
100
AcDbLine
 10
156.7282379787386
 20
297.8919001992538
 30
0.0
 11
156.7282379787386
 21
308.2383103607678
 31
0.0
  0
ARC
  5
CE7
330
2
100
AcDbEntity
  8
0
100
AcDbCircle
 10
220.8534423007283
 20
310.8629763496855
 30
0.0
 40
60.0
100
AcDbArc
 50
174.1053016136052
 51
191.8050678104647
  0
LINE
  5
CE8
330
2
100
AcDbEntity
  8
0
 48
0.5
100
AcDbLine
 10
162.2282379787441
 20
294.5651052800111
 30
0.0
 11
162.2282379787441
 21
297.5651052800086
 31
0.0
  0
ARC
  5
CE9
330
2
100
AcDbEntity
  8
0
100
AcDbCircle
 10
157.2282379787436
 20
297.5651052800109
 30
0.0
 40
5.0
100
AcDbArc
 50
0.0
 51
11.80506781046479
  0
CIRCLE
  5
CEA
330
2
100
AcDbEntity
  8
0
100
AcDbCircle
 10
156.7282379787382
 20
303.0651052800108
 30
0.0
 40
1.6
  0
LINE
  5
CEB
330
2
100
AcDbEntity
  8
0
 48
0.5
100
AcDbLine
 10
154.2282379787441
 20
286.5651052800111
 30
0.0
 11
151.2282379787441
 21
286.5651052800111
 31
0.0
  0
ARC
  5
CEC
330
2
100
AcDbEntity
  8
0
100
AcDbCircle
 10
151.2282379787441
 20
291.5651052800111
 30
0.0
 40
5.0
100
AcDbArc
 50
258.1949321895318
 51
270.0
  0
ARC
  5
CED
330
2
100
AcDbEntity
  8
0
100
AcDbCircle
 10
84.5261090484189
 20
227.9399009580267
 30
0.0
 40
60.0
100
AcDbArc
 50
84.10530161359627
 51
101.8050678104681
  0
ARC
  5
CEE
330
2
100
AcDbEntity
  8
0
100
AcDbCircle
 10
111.2282379787441
 20
486.565105280011
 30
0.0
 40
200.0
100
AcDbArc
 50
264.1053016135962
 51
275.8946983864037
  0
ARC
  5
CEF
330
2
100
AcDbEntity
  8
0
100
AcDbCircle
 10
68.74823797874092
 20
294.5651052800112
 30
0.0
 40
8.0
100
AcDbArc
 50
179.9999999999934
 51
270.0
  0
LINE
  5
CF0
330
2
100
AcDbEntity
  8
CENTER
 48
12.0
100
AcDbLine
 10
59.47823797874093
 20
294.5651052800108
 30
0.0
 11
76.97823797874093
 21
294.5651052800108
 31
0.0
  0
ARC
  5
CF1
330
2
100
AcDbEntity
  8
0
100
AcDbCircle
 10
71.22823797874412
 20
291.5651052800115
 30
0.0
 40
5.0
100
AcDbArc
 50
270.0
 51
281.8050678104682
  0
LINE
  5
CF2
330
2
100
AcDbEntity
  8
0
100
AcDbLine
 10
68.74823797874182
 20
286.5651052800112
 30
0.0
 11
71.22823797874412
 21
286.5651052800115
 31
0.0
  0
ARC
  5
CF3
330
2
100
AcDbEntity
  8
0
100
AcDbCircle
 10
86.4170547966953
 20
301.565105280017
 30
0.0
 40
10.5
100
AcDbArc
 50
224.9999999999926
 51
270.0
  0
LINE
  5
CF4
330
2
100
AcDbEntity
  8
0
100
AcDbLine
 10
82.88152089076243
 20
298.0295713740843
 30
0.0
 11
71.69270407281715
 21
309.2183881920292
 31
0.0
  0
CIRCLE
  5
CF5
330
2
100
AcDbEntity
  8
0
100
AcDbCircle
 10
111.2282379787441
 20
337.565105280011
 30
0.0
 40
33.00000000000153
  0
CIRCLE
  5
CF6
330
2
100
AcDbEntity
  8
0
100
AcDbCircle
 10
111.2282379787441
 20
337.565105280011
 30
0.0
 40
35.00000000000153
  0
CIRCLE
  5
CF7
330
2
100
AcDbEntity
  8
0
100
AcDbCircle
 10
111.2282379787441
 20
337.565105280011
 30
0.0
 40
35.50000000000153
  0
CIRCLE
  5
CF8
330
2
100
AcDbEntity
  8
0
100
AcDbCircle
 10
111.2282379787441
 20
337.565105280011
 30
0.0
 40
32.42260000000154
  0
CIRCLE
  5
CF9
330
2
100
AcDbEntity
  8
0
100
AcDbCircle
 10
111.2282379787441
 20
337.565105280011
 30
0.0
 40
26.0
  0
CIRCLE
  5
CFA
330
2
100
AcDbEntity
  8
0
100
AcDbCircle
 10
111.2282379787441
 20
337.565105280011
 30
0.0
 40
26.57735026918937
  0
LINE
  5
CFB
330
2
100
AcDbEntity
  8
0
100
AcDbLine
 10
86.41705479669486
 20
296.565105280017
 30
0.0
 11
136.0394211607929
 21
296.5651052800168
 31
0.0
  0
LINE
  5
CFC
330
2
100
AcDbEntity
  8
0
100
AcDbLine
 10
86.4170547966953
 20
291.065105280017
 30
0.0
 11
136.0394211607929
 21
291.0651052800168
 31
0.0
  0
LINE
  5
CFD
330
2
100
AcDbEntity
  8
0
100
AcDbLine
 10
82.39887875686168
 20
291.8643701886484
 30
0.0
 11
84.50363763486961
 21
296.9457076174604
 31
0.0
  0
ARC
  5
CFE
330
2
100
AcDbEntity
  8
0
100
AcDbCircle
 10
86.41705479669486
 20
301.565105280017
 30
0.0
 40
5.0
100
AcDbArc
 50
224.9999999999926
 51
270.0
  0
LINE
  5
CFF
330
2
100
AcDbEntity
  8
0
100
AcDbLine
 10
150.763771884671
 20
309.2183881920291
 30
0.0
 11
139.5749550667258
 21
298.0295713740841
 31
0.0
  0
LINE
  5
D00
330
2
100
AcDbEntity
  8
0
100
AcDbLine
 10
154.6528591811968
 20
305.3293008955031
 30
0.0
 11
143.464042363252
 21
294.1404840775581
 31
0.0
  0
LINE
  5
D01
330
2
100
AcDbEntity
  8
0
100
AcDbLine
 10
140.0575972006265
 20
291.8643701886484
 30
0.0
 11
137.9528383226186
 21
296.9457076174604
 31
0.0
  0
ARC
  5
D02
330
2
100
AcDbEntity
  8
0
100
AcDbCircle
 10
136.0394211607929
 20
301.5651052800169
 30
0.0
 40
10.5
100
AcDbArc
 50
270.0
 51
315.0000000000074
  0
ARC
  5
D03
330
2
100
AcDbEntity
  8
0
100
AcDbCircle
 10
136.0394211607929
 20
301.5651052800169
 30
0.0
 40
5.0
100
AcDbArc
 50
270.0
 51
315.0000000000074
  0
LINE
  5
D04
330
2
100
AcDbEntity
  8
0
100
AcDbLine
 10
152.2282379787382
 20
312.7539220979619
 30
0.0
 11
152.2282379787382
 21
362.3762884620603
 31
0.0
  0
LINE
  5
D05
330
2
100
AcDbEntity
  8
0
100
AcDbLine
 10
157.7282379787382
 20
312.7539220979619
 30
0.0
 11
157.7282379787382
 21
362.3762884620601
 31
0.0
  0
LINE
  5
D06
330
2
100
AcDbEntity
  8
0
100
AcDbLine
 10
156.9289730701068
 20
308.7357460581286
 30
0.0
 11
151.847635641295
 21
310.8405049361365
 31
0.0
  0
ARC
  5
D07
330
2
100
AcDbEntity
  8
0
100
AcDbCircle
 10
147.2282379787382
 20
312.7539220979619
 30
0.0
 40
10.5
100
AcDbArc
 50
315.0000000000074
 51
0.0
  0
ARC
  5
D08
330
2
100
AcDbEntity
  8
0
100
AcDbCircle
 10
147.2282379787382
 20
312.7539220979619
 30
0.0
 40
5.0
100
AcDbArc
 50
315.0000000000074
 51
0.0
  0
LINE
  5
D09
330
2
100
AcDbEntity
  8
0
100
AcDbLine
 10
139.5749550667262
 20
377.1006391859379
 30
0.0
 11
150.763771884671
 21
365.911822367993
 31
0.0
  0
LINE
  5
D0A
330
2
100
AcDbEntity
  8
0
100
AcDbLine
 10
156.9289730701068
 20
366.3944645018934
 30
0.0
 11
151.847635641295
 21
364.2897056238855
 31
0.0
  0
ARC
  5
D0B
330
2
100
AcDbEntity
  8
0
100
AcDbCircle
 10
147.2282379787382
 20
362.3762884620601
 30
0.0
 40
10.5
100
AcDbArc
 50
0.0
 51
44.99999999999262
  0
ARC
  5
D0C
330
2
100
AcDbEntity
  8
0
100
AcDbCircle
 10
147.2282379787382
 20
362.3762884620603
 30
0.0
 40
5.0
100
AcDbArc
 50
0.0
 51
44.99999999999262
  0
LINE
  5
D0D
330
2
100
AcDbEntity
  8
0
100
AcDbLine
 10
143.464042363252
 20
380.9897264824638
 30
0.0
 11
154.6528591811968
 21
369.8009096645189
 31
0.0
  0
LINE
  5
D0E
330
2
100
AcDbEntity
  8
0
100
AcDbLine
 10
136.0394211607933
 20
378.5651052800051
 30
0.0
 11
86.4170547966953
 21
378.565105280005
 31
0.0
  0
LINE
  5
D0F
330
2
100
AcDbEntity
  8
0
100
AcDbLine
 10
136.0394211607933
 20
384.0651052800052
 30
0.0
 11
86.41705479669486
 21
384.065105280005
 31
0.0
  0
LINE
  5
D10
330
2
100
AcDbEntity
  8
0
100
AcDbLine
 10
140.0575972006265
 20
383.2658403713738
 30
0.0
 11
137.9528383226186
 21
378.1845029425617
 31
0.0
  0
ARC
  5
D11
330
2
100
AcDbEntity
  8
0
100
AcDbCircle
 10
136.0394211607933
 20
373.5651052800051
 30
0.0
 40
10.5
100
AcDbArc
 50
44.99999999999262
 51
90.0
  0
ARC
  5
D12
330
2
100
AcDbEntity
  8
0
100
AcDbCircle
 10
136.0394211607933
 20
373.5651052800051
 30
0.0
 40
5.0
100
AcDbArc
 50
44.99999999999262
 51
90.0
  0
ARC
  5
D13
330
2
100
AcDbEntity
  8
0
100
AcDbCircle
 10
86.41705479669486
 20
373.565105280005
 30
0.0
 40
10.5
100
AcDbArc
 50
90.0
 51
135.0000000000074
  0
LINE
  5
D14
330
2
100
AcDbEntity
  8
0
100
AcDbLine
 10
71.69270407281761
 20
365.9118223679929
 30
0.0
 11
82.88152089076243
 21
377.1006391859378
 31
0.0
  0
LINE
  5
D15
330
2
100
AcDbEntity
  8
0
100
AcDbLine
 10
82.39887875686168
 20
383.2658403713738
 30
0.0
 11
84.50363763486961
 21
378.1845029425618
 31
0.0
  0
ARC
  5
D16
330
2
100
AcDbEntity
  8
0
100
AcDbCircle
 10
86.4170547966953
 20
373.565105280005
 30
0.0
 40
5.0
100
AcDbArc
 50
90.0
 51
135.0000000000074
  0
LINE
  5
D17
330
2
100
AcDbEntity
  8
0
100
AcDbLine
 10
67.80361677629139
 20
369.8009096645191
 30
0.0
 11
78.99243359423621
 21
380.9897264824638
 31
0.0
  0
LINE
  5
D18
330
2
100
AcDbEntity
  8
0
100
AcDbLine
 10
70.22823797875003
 20
362.3762884620601
 30
0.0
 11
70.22823797875003
 21
312.753922097962
 31
0.0
  0
LINE
  5
D19
330
2
100
AcDbEntity
  8
0
100
AcDbLine
 10
64.72823797875003
 20
362.3762884620603
 30
0.0
 11
64.72823797875003
 21
312.7539220979619
 31
0.0
  0
ARC
  5
D1A
330
2
100
AcDbEntity
  8
0
100
AcDbCircle
 10
75.22823797875003
 20
362.3762884620603
 30
0.0
 40
10.5
100
AcDbArc
 50
135.0000000000074
 51
180.0
  0
LINE
  5
D1B
330
2
100
AcDbEntity
  8
0
100
AcDbLine
 10
65.52750288738138
 20
366.3944645018935
 30
0.0
 11
70.60884031619366
 21
364.2897056238855
 31
0.0
  0
ARC
  5
D1C
330
2
100
AcDbEntity
  8
0
100
AcDbCircle
 10
75.22823797875003
 20
362.3762884620601
 30
0.0
 40
5.0
100
AcDbArc
 50
135.0000000000074
 51
180.0
  0
LINE
  5
D1D
330
2
100
AcDbEntity
  8
0
100
AcDbLine
 10
78.99243359423621
 20
294.1404840775583
 30
0.0
 11
67.80361677629139
 21
305.3293008955031
 31
0.0
  0
ARC
  5
D1E
330
2
100
AcDbEntity
  8
0
100
AcDbCircle
 10
75.22823797875003
 20
312.7539220979619
 30
0.0
 40
10.5
100
AcDbArc
 50
180.0
 51
224.9999999999926
  0
LINE
  5
D1F
330
2
100
AcDbEntity
  8
0
100
AcDbLine
 10
65.52750288738138
 20
308.7357460581287
 30
0.0
 11
70.60884031619366
 21
310.8405049361366
 31
0.0
  0
ARC
  5
D20
330
2
100
AcDbEntity
  8
0
100
AcDbCircle
 10
75.22823797875003
 20
312.753922097962
 30
0.0
 40
5.0
100
AcDbArc
 50
180.0
 51
224.9999999999926
  0
LINE
  5
D21
330
2
100
AcDbEntity
  8
CENTER
 48
12.0
100
AcDbLine
 10
68.22823797874412
 20
285.8151052800078
 30
0.0
 11
68.22823797874412
 21
303.3151052800078
 31
0.0
  0
LINE
  5
D22
330
2
100
AcDbEntity
  8
CENTER
 48
12.0
100
AcDbLine
 10
68.22823797874412
 20
389.315105280014
 30
0.0
 11
68.22823797874412
 21
371.815105280014
 31
0.0
  0
LINE
  5
D4D
330
2
100
AcDbEntity
  8
0
100
AcDbLine
 10
578.4435860779706
 20
706.2538559032447
 30
0.0
 11
546.0209363471715
 21
706.253855903235
 31
0.0
  0
LINE
  5
D4E
330
2
100
AcDbEntity
  8
0
 48
0.5
100
AcDbLine
 10
579.0209363471729
 20
701.5538559032215
 30
0.0
 11
579.020936347172
 21
698.2538559032215
 31
0.0
  0
LINE
  5
D4F
330
2
100
AcDbEntity
  8
HIDS
  6
SEKKEI_H
 48
0.5
100
AcDbLine
 10
591.9351499095344
 20
692.8396423408585
 30
0.0
 11
587.6067227848059
 21
697.1680694655917
 31
0.0
  0
LINE
  5
D50
330
2
100
AcDbEntity
  8
0
100
AcDbLine
 10
579.020936347172
 20
698.2538559032266
 30
0.0
 11
581.0209363471665
 21
698.2538559032262
 31
0.0
  0
LINE
  5
D51
330
2
100
AcDbEntity
  8
0
100
AcDbLine
 10
581.0209363471715
 20
698.2538559032209
 30
0.0
 11
581.520936347171
 21
697.7538559032207
 31
0.0
  0
LINE
  5
D52
330
2
100
AcDbEntity
  8
0
100
AcDbLine
 10
581.0209363471715
 20
698.2538559032209
 30
0.0
 11
579.020936347172
 21
698.2538559032215
 31
0.0
  0
LINE
  5
D53
330
2
100
AcDbEntity
  8
0
 48
0.5
100
AcDbLine
 10
578.3209363471731
 20
703.5538559032215
 30
0.0
 11
578.3209363471725
 21
701.9538559032216
 31
0.0
  0
LINE
  5
D54
330
2
100
AcDbEntity
  8
0
 48
0.5
100
AcDbLine
 10
578.8209363471721
 20
701.7538559032216
 30
0.0
 11
579.0209363471729
 21
701.5538559032215
 31
0.0
  0
LINE
  5
D55
330
2
100
AcDbEntity
  8
0
100
AcDbLine
 10
578.8209363471731
 20
703.7538559032216
 30
0.0
 11
513.22093634717
 21
703.7538559032202
 31
0.0
  0
LINE
  5
D56
330
2
100
AcDbEntity
  8
0
100
AcDbLine
 10
579.0209363471733
 20
705.2538559032216
 30
0.0
 11
578.4435860779837
 21
706.2538559032218
 31
0.0
  0
LINE
  5
D57
330
2
100
AcDbEntity
  8
0
 48
0.5
100
AcDbLine
 10
579.0209363471733
 20
705.2538559032216
 30
0.0
 11
579.0209363471729
 21
703.9538559032214
 31
0.0
  0
LINE
  5
D58
330
2
100
AcDbEntity
  8
0
 48
12.0
100
AcDbLine
 10
596.4527862086968
 20
690.2713089742278
 30
0.0
 11
596.5009364021523
 21
684.7538433026969
 31
0.0
  0
ARC
  5
D59
330
2
100
AcDbEntity
  8
HIDS
  6
SEKKEI_H
 48
0.3
100
AcDbCircle
 10
593.3493634719082
 20
694.2538559032309
 30
0.0
 40
2.0
100
AcDbArc
 50
224.9999999999855
 51
270.0
  0
ARC
  5
D5A
330
2
100
AcDbEntity
  8
HIDS
  6
SEKKEI_H
 48
0.5
100
AcDbCircle
 10
586.1925092224317
 20
695.7538559032193
 30
0.0
 40
2.0
100
AcDbArc
 50
44.99999999998551
 51
89.99999999997395
  0
ARC
  5
D5B
330
2
100
AcDbEntity
  8
0
100
AcDbCircle
 10
578.8209363471731
 20
703.9538559032216
 30
0.0
 40
0.2
100
AcDbArc
 50
270.0
 51
359.9999999999739
  0
ARC
  5
D5C
330
2
100
AcDbEntity
  8
0
 48
0.5
100
AcDbCircle
 10
578.5209363471729
 20
703.5538559032215
 30
0.0
 40
0.2
100
AcDbArc
 50
90.0
 51
179.9999999999804
  0
ARC
  5
D5D
330
2
100
AcDbEntity
  8
0
100
AcDbCircle
 10
578.5209363471729
 20
701.9538559032214
 30
0.0
 40
0.2
100
AcDbArc
 50
179.9999999999804
 51
270.0
  0
LINE
  5
D5E
330
2
100
AcDbEntity
  8
0
100
AcDbLine
 10
513.5982866163724
 20
706.2538559032434
 30
0.0
 11
546.0209363471715
 21
706.253855903235
 31
0.0
  0
LINE
  5
D5F
330
2
100
AcDbEntity
  8
0
 48
0.5
100
AcDbLine
 10
513.0209363471705
 20
701.5538559032202
 30
0.0
 11
513.0209363471715
 21
698.2538559032202
 31
0.0
  0
LINE
  5
D60
330
2
100
AcDbEntity
  8
HIDS
  6
SEKKEI_H
 48
0.5
100
AcDbLine
 10
500.1067227848091
 20
692.8396423408569
 30
0.0
 11
504.4351499095376
 21
697.16806946559
 31
0.0
  0
LINE
  5
D61
330
2
100
AcDbEntity
  8
0
100
AcDbLine
 10
508.020936347172
 20
697.7538559032177
 30
0.0
 11
584.020936347172
 21
697.7538559032191
 31
0.0
  0
LINE
  5
D62
330
2
100
AcDbEntity
  8
0
100
AcDbLine
 10
513.0209363471715
 20
698.2538559032252
 30
0.0
 11
511.020936347177
 21
698.2538559032247
 31
0.0
  0
LINE
  5
D63
330
2
100
AcDbEntity
  8
0
100
AcDbLine
 10
511.0209363471719
 20
698.2538559032195
 30
0.0
 11
510.5209363471719
 21
697.7538559032193
 31
0.0
  0
LINE
  5
D64
330
2
100
AcDbEntity
  8
0
100
AcDbLine
 10
511.0209363471719
 20
698.2538559032195
 30
0.0
 11
513.0209363471715
 21
698.2538559032202
 31
0.0
  0
LINE
  5
D65
330
2
100
AcDbEntity
  8
0
100
AcDbLine
 10
495.0690864306641
 20
690.271308974226
 30
0.0
 11
495.020936347172
 21
684.7538559032291
 31
0.0
  0
LINE
  5
D66
330
2
100
AcDbEntity
  8
0
100
AcDbLine
 10
495.020936347172
 20
684.7538559032289
 30
0.0
 11
596.500936347172
 21
684.7538559032312
 31
0.0
  0
LINE
  5
D67
330
2
100
AcDbEntity
  8
0
 48
0.3
100
AcDbLine
 10
497.0690102767928
 20
692.2538559032293
 30
0.0
 11
594.452862362568
 21
692.2538559032309
 31
0.0
  0
ARC
  5
D68
330
2
100
AcDbEntity
  8
0
 48
0.3
100
AcDbCircle
 10
594.452862362568
 20
690.2538559032309
 30
0.0
 40
2.0
100
AcDbArc
 50
0.5000000000045769
 51
90.0
  0
ARC
  5
D69
330
2
100
AcDbEntity
  8
0
 48
0.3
100
AcDbCircle
 10
497.0690102767928
 20
690.2538559032294
 30
0.0
 40
2.0
100
AcDbArc
 50
90.0
 51
179.5000000000019
  0
LINE
  5
D6A
330
2
100
AcDbEntity
  8
0
 48
0.5
100
AcDbLine
 10
513.72093634717
 20
703.5538559032204
 30
0.0
 11
513.7209363471709
 21
701.9538559032203
 31
0.0
  0
LINE
  5
D6B
330
2
100
AcDbEntity
  8
0
100
AcDbLine
 10
513.2209363471709
 20
701.7538559032202
 30
0.0
 11
578.8209363471721
 21
701.7538559032216
 31
0.0
  0
LINE
  5
D6C
330
2
100
AcDbEntity
  8
0
 48
0.5
100
AcDbLine
 10
513.2209363471709
 20
701.7538559032202
 30
0.0
 11
513.0209363471705
 21
701.5538559032202
 31
0.0
  0
LINE
  5
D6D
330
2
100
AcDbEntity
  8
0
100
AcDbLine
 10
513.0209363471696
 20
705.2538559032202
 30
0.0
 11
513.5982866163592
 21
706.2538559032205
 31
0.0
  0
LINE
  5
D6E
330
2
100
AcDbEntity
  8
0
 48
0.5
100
AcDbLine
 10
513.0209363471696
 20
705.2538559032202
 30
0.0
 11
513.0209363471701
 21
703.9538559032203
 31
0.0
  0
ARC
  5
D6F
330
2
100
AcDbEntity
  8
HIDS
  6
SEKKEI_H
 48
0.3
100
AcDbCircle
 10
498.6925092224352
 20
694.2538559032293
 30
0.0
 40
2.0
100
AcDbArc
 50
270.0
 51
315.0000000000144
  0
ARC
  5
D70
330
2
100
AcDbEntity
  8
HIDS
  6
SEKKEI_H
 48
0.5
100
AcDbCircle
 10
505.8493634719114
 20
695.7538559032177
 30
0.0
 40
2.0
100
AcDbArc
 50
90.00000000002605
 51
135.0000000000144
  0
ARC
  5
D71
330
2
100
AcDbEntity
  8
0
100
AcDbCircle
 10
513.22093634717
 20
703.9538559032203
 30
0.0
 40
0.2
100
AcDbArc
 50
180.0000000000195
 51
270.0
  0
ARC
  5
D72
330
2
100
AcDbEntity
  8
0
 48
0.5
100
AcDbCircle
 10
513.5209363471701
 20
703.5538559032204
 30
0.0
 40
0.2
100
AcDbArc
 50
0.0000000000195413
 51
90.0
  0
ARC
  5
D73
330
2
100
AcDbEntity
  8
0
100
AcDbCircle
 10
513.5209363471706
 20
701.9538559032203
 30
0.0
 40
0.2
100
AcDbArc
 50
270.0
 51
0.0000000000195413
  0
LINE
  5
D74
330
2
100
AcDbEntity
  8
0
 48
12.0
100
AcDbLine
 10
579.0209363471733
 20
705.2538559032216
 30
0.0
 11
513.0209363471696
 21
705.2538559032202
 31
0.0
  0
LINE
  5
D75
330
2
100
AcDbEntity
  8
0
 48
12.0
100
AcDbLine
 10
579.0209363471729
 20
701.5538559032215
 30
0.0
 11
513.0209363471705
 21
701.5538559032202
 31
0.0
  0
LINE
  5
D76
330
2
100
AcDbEntity
  8
0
 48
12.0
100
AcDbLine
 10
579.020936347172
 20
698.2538559032215
 30
0.0
 11
513.0209363471715
 21
698.2538559032202
 31
0.0
  0
LINE
  5
D7B
330
2
100
AcDbEntity
  8
CENTER
  6
CENTERX2
100
AcDbLine
 10
503.0209363471719
 20
689.2538559032293
 30
0.0
 11
503.0209363471719
 21
702.7538559032302
 31
0.0
  0
LINE
  5
D7C
330
2
100
AcDbEntity
  8
0
 48
12.0
100
AcDbLine
 10
498.0209363471719
 20
692.2538559032293
 30
0.0
 11
508.020936347172
 21
692.2538559032293
 31
0.0
  0
LINE
  5
D7D
330
2
100
AcDbEntity
  8
CENTER
  6
CENTERX2
100
AcDbLine
 10
589.0209363471719
 20
689.2538559032307
 30
0.0
 11
589.0209363471719
 21
702.7538559032318
 31
0.0
  0
LINE
  5
D7E
330
2
100
AcDbEntity
  8
0
 48
12.0
100
AcDbLine
 10
584.020936347172
 20
692.2538559032309
 30
0.0
 11
594.0209363471719
 21
692.2538559032309
 31
0.0
  0
LINE
  5
D81
330
2
100
AcDbEntity
  8
HIDS
  6
SEKKEI_H
100
AcDbLine
 10
508.020936347172
 20
697.7538559032177
 30
0.0
 11
505.8493634719105
 21
697.7538559032177
 31
0.0
  0
LINE
  5
D82
330
2
100
AcDbEntity
  8
HIDS
  6
SEKKEI_H
100
AcDbLine
 10
584.020936347172
 20
697.7538559032191
 30
0.0
 11
586.1925092224326
 21
697.7538559032193
 31
0.0
  0
LINE
  5
D84
330
2
100
AcDbEntity
  8
0
100
AcDbLine
 10
508.020936347172
 20
699.3538559032296
 30
0.0
 11
507.3281160241447
 21
699.7538559032293
 31
0.0
  0
LINE
  5
D85
330
2
100
AcDbEntity
  8
0
100
AcDbLine
 10
508.020936347172
 20
699.3538559032296
 30
0.0
 11
498.0209363471719
 21
699.3538559032296
 31
0.0
  0
LINE
  5
D86
330
2
100
AcDbEntity
  8
0
100
AcDbLine
 10
508.020936347172
 20
693.7538559032297
 30
0.0
 11
508.020936347172
 21
699.3538559032296
 31
0.0
  0
LINE
  5
D87
330
2
100
AcDbEntity
  8
0
100
AcDbLine
 10
498.0209363471719
 20
693.75385590323
 30
0.0
 11
498.0209363471719
 21
699.3538559032296
 31
0.0
  0
LINE
  5
D88
330
2
100
AcDbEntity
  8
0
100
AcDbLine
 10
498.0209363471719
 20
699.3538559032296
 30
0.0
 11
498.7137566701992
 21
699.7538559032293
 31
0.0
  0
LINE
  5
D89
330
2
100
AcDbEntity
  8
0
100
AcDbLine
 10
507.3281160241447
 20
699.7538559032293
 30
0.0
 11
498.7137566701992
 21
699.7538559032293
 31
0.0
  0
LINE
  5
D8A
330
2
100
AcDbEntity
  8
0
100
AcDbLine
 10
594.0209363471719
 20
699.3538559032312
 30
0.0
 11
593.3281160241447
 21
699.7538559032309
 31
0.0
  0
LINE
  5
D8B
330
2
100
AcDbEntity
  8
0
100
AcDbLine
 10
594.0209363471719
 20
699.3538559032312
 30
0.0
 11
584.020936347172
 21
699.3538559032312
 31
0.0
  0
LINE
  5
D8C
330
2
100
AcDbEntity
  8
0
100
AcDbLine
 10
594.0209363471719
 20
693.7538559032316
 30
0.0
 11
594.0209363471719
 21
699.3538559032312
 31
0.0
  0
LINE
  5
D8D
330
2
100
AcDbEntity
  8
0
100
AcDbLine
 10
584.020936347172
 20
693.7538559032319
 30
0.0
 11
584.020936347172
 21
699.3538559032312
 31
0.0
  0
LINE
  5
D8E
330
2
100
AcDbEntity
  8
0
100
AcDbLine
 10
584.020936347172
 20
699.3538559032312
 30
0.0
 11
584.7137566701992
 21
699.7538559032309
 31
0.0
  0
LINE
  5
D8F
330
2
100
AcDbEntity
  8
0
100
AcDbLine
 10
593.3281160241447
 20
699.7538559032309
 30
0.0
 11
584.7137566701992
 21
699.7538559032309
 31
0.0
  0
CIRCLE
  5
D9C
330
2
100
AcDbEntity
  8
0
100
AcDbCircle
 10
154.2282379787432
 20
380.5651052800111
 30
0.0
 40
5.000000000000113
  0
CIRCLE
  5
D9D
330
2
100
AcDbEntity
  8
0
100
AcDbCircle
 10
154.2282379787432
 20
380.5651052800111
 30
0.0
 40
4.307179676972509
  0
LINE
  5
D9E
330
2
100
AcDbEntity
  8
0
100
AcDbLine
 10
156.7282379787432
 20
382.0084809529852
 30
0.0
 11
156.7282379787432
 21
379.1217296070371
 31
0.0
  0
LINE
  5
D9F
330
2
100
AcDbEntity
  8
0
100
AcDbLine
 10
154.2282379787432
 20
377.678353934063
 30
0.0
 11
156.7282379787432
 21
379.1217296070371
 31
0.0
  0
LINE
  5
DA0
330
2
100
AcDbEntity
  8
0
100
AcDbLine
 10
156.7282379787432
 20
382.0084809529852
 30
0.0
 11
154.2282379787432
 21
383.4518566259593
 31
0.0
  0
LINE
  5
DA1
330
2
100
AcDbEntity
  8
0
100
AcDbLine
 10
151.7282379787432
 20
382.0084809529852
 30
0.0
 11
151.7282379787432
 21
379.1217296070371
 31
0.0
  0
LINE
  5
DA2
330
2
100
AcDbEntity
  8
0
100
AcDbLine
 10
154.2282379787432
 20
377.678353934063
 30
0.0
 11
151.7282379787432
 21
379.1217296070371
 31
0.0
  0
LINE
  5
DA3
330
2
100
AcDbEntity
  8
0
100
AcDbLine
 10
151.7282379787432
 20
382.0084809529852
 30
0.0
 11
154.2282379787432
 21
383.4518566259593
 31
0.0
  0
CIRCLE
  5
DA4
330
2
100
AcDbEntity
  8
0
100
AcDbCircle
 10
68.22823797873957
 20
380.5651052800113
 30
0.0
 40
5.000000000000113
  0
CIRCLE
  5
DA5
330
2
100
AcDbEntity
  8
0
100
AcDbCircle
 10
68.22823797873957
 20
380.5651052800113
 30
0.0
 40
4.307179676972509
  0
LINE
  5
DA6
330
2
100
AcDbEntity
  8
0
100
AcDbLine
 10
70.72823797873957
 20
382.0084809529854
 30
0.0
 11
70.72823797873957
 21
379.1217296070373
 31
0.0
  0
LINE
  5
DA7
330
2
100
AcDbEntity
  8
0
100
AcDbLine
 10
68.22823797873957
 20
377.6783539340632
 30
0.0
 11
70.72823797873957
 21
379.1217296070373
 31
0.0
  0
LINE
  5
DA8
330
2
100
AcDbEntity
  8
0
100
AcDbLine
 10
70.72823797873957
 20
382.0084809529854
 30
0.0
 11
68.22823797873957
 21
383.4518566259595
 31
0.0
  0
LINE
  5
DA9
330
2
100
AcDbEntity
  8
0
100
AcDbLine
 10
65.72823797873957
 20
382.0084809529854
 30
0.0
 11
65.72823797873957
 21
379.1217296070373
 31
0.0
  0
LINE
  5
DAA
330
2
100
AcDbEntity
  8
0
100
AcDbLine
 10
68.22823797873957
 20
377.6783539340632
 30
0.0
 11
65.72823797873957
 21
379.1217296070373
 31
0.0
  0
LINE
  5
DAB
330
2
100
AcDbEntity
  8
0
100
AcDbLine
 10
65.72823797873957
 20
382.0084809529854
 30
0.0
 11
68.22823797873957
 21
383.4518566259595
 31
0.0
  0
CIRCLE
  5
DAC
330
2
100
AcDbEntity
  8
0
100
AcDbCircle
 10
68.22823797873957
 20
294.5651052800108
 30
0.0
 40
5.000000000000113
  0
CIRCLE
  5
DAD
330
2
100
AcDbEntity
  8
0
100
AcDbCircle
 10
68.22823797873957
 20
294.5651052800108
 30
0.0
 40
4.307179676972509
  0
LINE
  5
DAE
330
2
100
AcDbEntity
  8
0
100
AcDbLine
 10
70.72823797873957
 20
296.0084809529849
 30
0.0
 11
70.72823797873957
 21
293.1217296070368
 31
0.0
  0
LINE
  5
DAF
330
2
100
AcDbEntity
  8
0
100
AcDbLine
 10
68.22823797873957
 20
291.6783539340627
 30
0.0
 11
70.72823797873957
 21
293.1217296070368
 31
0.0
  0
LINE
  5
DB0
330
2
100
AcDbEntity
  8
0
100
AcDbLine
 10
70.72823797873957
 20
296.0084809529849
 30
0.0
 11
68.22823797873957
 21
297.451856625959
 31
0.0
  0
LINE
  5
DB1
330
2
100
AcDbEntity
  8
0
100
AcDbLine
 10
65.72823797873957
 20
296.0084809529849
 30
0.0
 11
65.72823797873957
 21
293.1217296070368
 31
0.0
  0
LINE
  5
DB2
330
2
100
AcDbEntity
  8
0
100
AcDbLine
 10
68.22823797873957
 20
291.6783539340627
 30
0.0
 11
65.72823797873957
 21
293.1217296070368
 31
0.0
  0
LINE
  5
DB3
330
2
100
AcDbEntity
  8
0
100
AcDbLine
 10
65.72823797873957
 20
296.0084809529849
 30
0.0
 11
68.22823797873957
 21
297.451856625959
 31
0.0
  0
CIRCLE
  5
DB4
330
2
100
AcDbEntity
  8
0
100
AcDbCircle
 10
154.22823797874
 20
294.5651052800107
 30
0.0
 40
5.000000000000113
  0
CIRCLE
  5
DB5
330
2
100
AcDbEntity
  8
0
100
AcDbCircle
 10
154.22823797874
 20
294.5651052800107
 30
0.0
 40
4.307179676972509
  0
LINE
  5
DB6
330
2
100
AcDbEntity
  8
0
100
AcDbLine
 10
156.72823797874
 20
296.0084809529848
 30
0.0
 11
156.72823797874
 21
293.1217296070366
 31
0.0
  0
LINE
  5
DB7
330
2
100
AcDbEntity
  8
0
100
AcDbLine
 10
154.22823797874
 20
291.6783539340626
 30
0.0
 11
156.72823797874
 21
293.1217296070366
 31
0.0
  0
LINE
  5
DB8
330
2
100
AcDbEntity
  8
0
100
AcDbLine
 10
156.72823797874
 20
296.0084809529848
 30
0.0
 11
154.22823797874
 21
297.4518566259589
 31
0.0
  0
LINE
  5
DB9
330
2
100
AcDbEntity
  8
0
100
AcDbLine
 10
151.72823797874
 20
296.0084809529848
 30
0.0
 11
151.72823797874
 21
293.1217296070366
 31
0.0
  0
LINE
  5
DBA
330
2
100
AcDbEntity
  8
0
100
AcDbLine
 10
154.22823797874
 20
291.6783539340626
 30
0.0
 11
151.72823797874
 21
293.1217296070366
 31
0.0
  0
LINE
  5
DBB
330
2
100
AcDbEntity
  8
0
100
AcDbLine
 10
151.72823797874
 20
296.0084809529848
 30
0.0
 11
154.22823797874
 21
297.4518566259589
 31
0.0
  0
LINE
  5
DC2
330
2
100
AcDbEntity
  8
0
100
AcDbLine
 10
525.4808371700208
 20
684.7538559032296
 30
0.0
 11
525.4808371700208
 21
603.7538559032279
 31
0.0
  0
LINE
  5
DC3
330
2
100
AcDbEntity
  8
0
100
AcDbLine
 10
503.0209363471719
 20
684.7538559032291
 30
0.0
 11
503.0209363471719
 21
603.7538559032282
 31
0.0
  0
LINE
  5
DCA
330
2
100
AcDbEntity
  8
0
100
AcDbLine
 10
506.0209363471719
 20
684.7538559032291
 30
0.0
 11
506.0209363471719
 21
603.7538559032279
 31
0.0
  0
LINE
  5
DCB
330
2
100
AcDbEntity
  8
0
100
AcDbLine
 10
566.5610355243232
 20
684.7538559032305
 30
0.0
 11
566.5610355243232
 21
603.7538559032279
 31
0.0
  0
LINE
  5
DCC
330
2
100
AcDbEntity
  8
0
100
AcDbLine
 10
588.7591303134284
 20
603.7538559032279
 30
0.0
 11
588.7591303134284
 21
684.7538559032309
 31
0.0
  0
LINE
  5
DCD
330
2
100
AcDbEntity
  8
0
100
AcDbLine
 10
506.0209363471719
 20
684.7538559032284
 30
0.0
 11
506.0209363471719
 21
690.7538559032295
 31
0.0
  0
LINE
  5
DCE
330
2
100
AcDbEntity
  8
0
100
AcDbLine
 10
525.4808371700208
 20
684.7538559032293
 30
0.0
 11
525.4808371700208
 21
690.7538559032298
 31
0.0
  0
LINE
  5
DCF
330
2
100
AcDbEntity
  8
0
100
AcDbLine
 10
503.0209363471719
 20
684.7538559032291
 30
0.0
 11
503.0209363471719
 21
690.7538559032293
 31
0.0
  0
LINE
  5
DD0
330
2
100
AcDbEntity
  8
0
100
AcDbLine
 10
566.5610355243232
 20
684.7538559032309
 30
0.0
 11
566.5610355243232
 21
690.7538559032304
 31
0.0
  0
LINE
  5
DD1
330
2
100
AcDbEntity
  8
0
100
AcDbLine
 10
586.0209363471729
 20
684.7538559032316
 30
0.0
 11
586.0209363471729
 21
690.7538559032309
 31
0.0
  0
LINE
  5
DD2
330
2
100
AcDbEntity
  8
0
100
AcDbLine
 10
588.7591303134284
 20
684.7538559032318
 30
0.0
 11
588.7591303134284
 21
690.7538559032309
 31
0.0
  0
CIRCLE
  5
DD3
330
2
100
AcDbEntity
  8
0
 48
12.0
100
AcDbCircle
 10
154.2282379787472
 20
294.5651052800077
 30
0.0
 40
5.749999999999829
  0
CIRCLE
  5
DD4
330
2
100
AcDbEntity
  8
0
 48
12.0
100
AcDbCircle
 10
68.22823797874412
 20
294.5651052800108
 30
0.0
 40
5.749999999999829
  0
CIRCLE
  5
DD5
330
2
100
AcDbEntity
  8
0
 48
12.0
100
AcDbCircle
 10
68.22823797874093
 20
380.5651052800143
 30
0.0
 40
5.749999999999829
  0
CIRCLE
  5
DD6
330
2
100
AcDbEntity
  8
0
 48
12.0
100
AcDbCircle
 10
154.2282379787472
 20
380.5651052800141
 30
0.0
 40
5.749999999999829
  0
LINE
  5
DDF
330
2
100
AcDbEntity
  8
0
100
AcDbLine
 10
508.7709363471719
 20
692.2538559032293
 30
0.0
 11
508.7709363471719
 21
693.7538559032297
 31
0.0
  0
LINE
  5
DE0
330
2
100
AcDbEntity
  8
0
100
AcDbLine
 10
497.270936347172
 20
692.2538559032293
 30
0.0
 11
497.270936347172
 21
693.7538559032303
 31
0.0
  0
LINE
  5
DE1
330
2
100
AcDbEntity
  8
0
100
AcDbLine
 10
508.7709363471719
 20
693.7538559032297
 30
0.0
 11
497.270936347172
 21
693.7538559032303
 31
0.0
  0
LINE
  5
DE2
330
2
100
AcDbEntity
  8
0
 48
12.0
100
AcDbLine
 10
497.270936347172
 20
692.2538559032293
 30
0.0
 11
508.7709363471719
 21
692.2538559032293
 31
0.0
  0
LINE
  5
DE3
330
2
100
AcDbEntity
  8
0
100
AcDbLine
 10
594.7709363471719
 20
692.2538559032309
 30
0.0
 11
594.7709363471719
 21
693.7538559032313
 31
0.0
  0
LINE
  5
DE4
330
2
100
AcDbEntity
  8
0
100
AcDbLine
 10
583.2709363471719
 20
692.2538559032311
 30
0.0
 11
583.2709363471719
 21
693.7538559032319
 31
0.0
  0
LINE
  5
DE5
330
2
100
AcDbEntity
  8
0
100
AcDbLine
 10
594.7709363471719
 20
693.7538559032316
 30
0.0
 11
583.2709363471719
 21
693.7538559032319
 31
0.0
  0
LINE
  5
DE6
330
2
100
AcDbEntity
  8
0
 48
12.0
100
AcDbLine
 10
583.2709363471719
 20
692.2538559032311
 30
0.0
 11
594.7709363471719
 21
692.2538559032309
 31
0.0
  0
LINE
  5
DE7
330
2
100
AcDbEntity
  8
CENTER
100
AcDbLine
 10
59.16750121388509
 20
285.5043685151524
 30
0.0
 11
163.2889747436063
 21
389.6258420448697
 31
0.0
  0
LINE
  5
DE8
330
2
100
AcDbEntity
  8
CENTER
100
AcDbLine
 10
59.16750121388417
 20
389.6258420448745
 30
0.0
 11
163.2889747436013
 21
285.5043685151535
 31
0.0
  0
ARC
  5
ED5
330
2
100
AcDbEntity
  8
0
100
AcDbCircle
 10
614.6430223896179
 20
659.7538559032281
 30
0.0
 40
2.0
100
AcDbArc
 50
270.0
 51
358.4999999999842
  0
ARC
  5
ED6
330
2
100
AcDbEntity
  8
0
100
AcDbCircle
 10
614.6430223896234
 20
650.7538559032283
 30
0.0
 40
2.0
100
AcDbArc
 50
1.500000000015752
 51
90.0
  0
ARC
  5
ED7
330
2
100
AcDbEntity
  8
0
100
AcDbCircle
 10
598.8028408091715
 20
659.7538559032281
 30
0.0
 40
2.0
100
AcDbArc
 50
179.5000000000084
 51
270.0
  0
LINE
  5
ED8
330
2
100
AcDbEntity
  8
0
100
AcDbLine
 10
598.7217415988855
 20
652.7538559032283
 30
0.0
 11
614.6430223896234
 21
652.7538559032283
 31
0.0
  0
LINE
  5
ED9
330
2
100
AcDbEntity
  8
0
100
AcDbLine
 10
598.8028408091715
 20
657.7538559032281
 30
0.0
 11
614.6430223896179
 21
657.7538559032281
 31
0.0
  0
ARC
  5
EDA
330
2
100
AcDbEntity
  8
0
100
AcDbCircle
 10
598.7217415988855
 20
650.7538559032283
 30
0.0
 40
2.0
100
AcDbArc
 50
90.0
 51
179.5000000000084
  0
LINE
  5
108C
330
2
100
AcDbEntity
  8
0
100
AcDbLine
 10
642.0209583471723
 20
603.7538559032291
 30
0.0
 11
642.0209583471724
 21
706.7538559032282
 31
0.0
  0
LINE
  5
108D
330
2
100
AcDbEntity
  8
0
100
AcDbLine
 10
726.520958347175
 20
605.2538559032281
 30
0.0
 11
726.5209583471751
 21
705.2538559032281
 31
0.0
  0
LINE
  5
108E
330
2
100
AcDbEntity
  8
0
100
AcDbLine
 10
642.0209583471723
 20
604.2538559032282
 30
0.0
 11
653.5209583471704
 21
604.2538559032282
 31
0.0
  0
LINE
  5
108F
330
2
100
AcDbEntity
  8
0
100
AcDbLine
 10
655.4574500202724
 20
604.2538559032282
 30
0.0
 11
689.5209583471731
 21
604.2538559032282
 31
0.0
  0
LINE
  5
1090
330
2
100
AcDbEntity
  8
0
100
AcDbLine
 10
655.45745002027
 20
706.2538559032282
 30
0.0
 11
689.5209583471751
 21
706.2538559032319
 31
0.0
  0
LINE
  5
1091
330
2
100
AcDbEntity
  8
0
100
AcDbLine
 10
692.1667096582405
 20
705.2538559032281
 30
0.0
 11
726.5209583471751
 21
705.2538559032281
 31
0.0
  0
ARC
  5
1092
330
2
100
AcDbEntity
  8
0
100
AcDbCircle
 10
713.5209583471751
 20
703.2538559032282
 30
0.0
 40
2.0
100
AcDbArc
 50
90.0
 51
180.0
  0
LINE
  5
1093
330
2
100
AcDbEntity
  8
0
100
AcDbLine
 10
692.1667096582403
 20
605.2538559032286
 30
0.0
 11
726.520958347175
 21
605.2538559032281
 31
0.0
  0
LINE
  5
1094
330
2
100
AcDbEntity
  8
CENTER
 48
0.5
100
AcDbLine
 10
695.5209583471768
 20
635.2538559032282
 30
0.0
 11
720.5209583471769
 21
635.2538559032282
 31
0.0
  0
LINE
  5
1095
330
2
100
AcDbEntity
  8
0
100
AcDbLine
 10
699.5209583471768
 20
624.7538559032282
 30
0.0
 11
709.5209583471769
 21
624.7538559032282
 31
0.0
  0
ARC
  5
1096
330
2
100
AcDbEntity
  8
0
100
AcDbCircle
 10
699.5209583471768
 20
626.7538559032281
 30
0.0
 40
2.0
100
AcDbArc
 50
180.0
 51
270.0
  0
LINE
  5
1097
330
2
100
AcDbEntity
  8
0
100
AcDbLine
 10
711.5209583471769
 20
622.7538559032282
 30
0.0
 11
711.520958347175
 21
607.2538559032282
 31
0.0
  0
ARC
  5
1098
330
2
100
AcDbEntity
  8
0
100
AcDbCircle
 10
713.5209583471749
 20
607.2538559032282
 30
0.0
 40
2.0
100
AcDbArc
 50
180.0
 51
270.0
  0
LINE
  5
1099
330
2
100
AcDbEntity
  8
CENTER
 48
0.5
100
AcDbLine
 10
708.0209583471769
 20
647.7538559032282
 30
0.0
 11
708.0209583471769
 21
622.7538559032282
 31
0.0
  0
LINE
  5
109A
330
2
100
AcDbEntity
  8
0
100
AcDbLine
 10
697.5209583471768
 20
653.2538559032282
 30
0.0
 11
697.5209583471768
 21
626.7538559032281
 31
0.0
  0
ARC
  5
109B
330
2
100
AcDbEntity
  8
0
100
AcDbCircle
 10
709.5209583471769
 20
622.7538559032282
 30
0.0
 40
2.0
100
AcDbArc
 50
0.0
 51
90.0
  0
LINE
  5
109C
330
2
100
AcDbEntity
  8
0
100
AcDbLine
 10
711.5209583471806
 20
657.2538559032286
 30
0.0
 11
711.5209583471751
 21
703.2538559032282
 31
0.0
  0
LINE
  5
109D
330
2
100
AcDbEntity
  8
0
100
AcDbLine
 10
699.5209583471768
 20
655.2538559032281
 30
0.0
 11
709.5209583471769
 21
655.2538559032281
 31
0.0
  0
ARC
  5
109E
330
2
100
AcDbEntity
  8
0
100
AcDbCircle
 10
699.5209583471768
 20
653.2538559032282
 30
0.0
 40
2.0
100
AcDbArc
 50
90.0
 51
180.0
  0
ARC
  5
109F
330
2
100
AcDbEntity
  8
0
100
AcDbCircle
 10
709.5209583471769
 20
657.2538559032282
 30
0.0
 40
2.0
100
AcDbArc
 50
270.0
 51
0.0
  0
LINE
  5
10A0
330
2
100
AcDbEntity
  8
0
100
AcDbLine
 10
691.520958347175
 20
704.2538559032318
 30
0.0
 11
691.5209583471749
 21
606.2538559032255
 31
0.0
  0
ARC
  5
10A1
330
2
100
AcDbEntity
  8
0
100
AcDbCircle
 10
689.5209583471732
 20
704.2538559032318
 30
0.0
 40
2.0
100
AcDbArc
 50
48.59037789064481
 51
89.99999999994789
  0
ARC
  5
10A2
330
2
100
AcDbEntity
  8
0
100
AcDbCircle
 10
692.1667096582405
 20
707.2538559032291
 30
0.0
 40
2.0
100
AcDbArc
 50
228.590377890713
 51
270.0
  0
ARC
  5
10A3
330
2
100
AcDbEntity
  8
0
100
AcDbCircle
 10
689.5209583471732
 20
704.2538559032318
 30
0.0
 40
2.0
100
AcDbArc
 50
0.0
 51
89.99999999994789
  0
ARC
  5
10A4
330
2
100
AcDbEntity
  8
0
100
AcDbCircle
 10
692.1667096582403
 20
603.2538559032282
 30
0.0
 40
2.0
100
AcDbArc
 50
90.0
 51
131.4096221092869
  0
ARC
  5
10A5
330
2
100
AcDbEntity
  8
0
100
AcDbCircle
 10
689.5209583471731
 20
606.2538559032255
 30
0.0
 40
2.0
100
AcDbArc
 50
270.0000000000521
 51
0.0
  0
LINE
  5
10A6
330
2
100
AcDbEntity
  8
0
100
AcDbLine
 10
653.5209583471696
 20
706.7538559032272
 30
0.0
 11
642.0209583471715
 21
706.7538559032272
 31
0.0
  0
LINE
  5
10A7
330
2
100
AcDbEntity
  8
0
100
AcDbLine
 10
653.5209583471695
 20
603.7538559032291
 30
0.0
 11
642.0209583471713
 21
603.7538559032291
 31
0.0
  0
LINE
  5
10A8
330
2
100
AcDbEntity
  8
0
100
AcDbLine
 10
655.5209583471704
 20
605.7538559032291
 30
0.0
 11
655.5209583471732
 21
704.7538559032273
 31
0.0
  0
ARC
  5
10A9
330
2
100
AcDbEntity
  8
0
100
AcDbCircle
 10
653.5209583471695
 20
605.7538559032291
 30
0.0
 40
2.0
100
AcDbArc
 50
270.0
 51
0.0
  0
ARC
  5
10AA
330
2
100
AcDbEntity
  8
0
100
AcDbCircle
 10
653.5209583471704
 20
606.2538559032287
 30
0.0
 40
2.0
100
AcDbArc
 50
270.0
 51
0.0
  0
ARC
  5
10AB
330
2
100
AcDbEntity
  8
0
100
AcDbCircle
 10
653.5209583471696
 20
704.7538559032273
 30
0.0
 40
2.0
100
AcDbArc
 50
359.9999999999869
 51
90.0
  0
ARC
  5
10AC
330
2
100
AcDbEntity
  8
0
100
AcDbCircle
 10
653.5209583471705
 20
704.2538559032277
 30
0.0
 40
2.0
100
AcDbArc
 50
0.0
 51
90.0
  0
LINE
  5
10AD
330
2
100
AcDbEntity
  8
0
100
AcDbLine
 10
653.5209583471705
 20
706.2538559032277
 30
0.0
 11
642.0209583471724
 21
706.2538559032277
 31
0.0
  0
LINE
  5
10AE
330
2
100
AcDbEntity
  8
0
100
AcDbLine
 10
663.0209583471707
 20
696.1238559032286
 30
0.0
 11
689.5209583471742
 21
696.1238559032286
 31
0.0
  0
LINE
  5
10AF
330
2
100
AcDbEntity
  8
0
100
AcDbLine
 10
658.5209583471713
 20
624.7538559032282
 30
0.0
 11
688.520958347174
 21
624.7538559032286
 31
0.0
  0
ARC
  5
10B0
330
2
100
AcDbEntity
  8
0
100
AcDbCircle
 10
688.520958347174
 20
627.7538559032282
 30
0.0
 40
3.0
100
AcDbArc
 50
270.0
 51
0.0
  0
ARC
  5
10B1
330
2
100
AcDbEntity
  8
0
100
AcDbCircle
 10
658.5209583471713
 20
621.7538559032282
 30
0.0
 40
3.0
100
AcDbArc
 50
90.0
 51
179.9999999999869
  0
ARC
  5
10B2
330
2
100
AcDbEntity
  8
0
100
AcDbCircle
 10
688.5209583471751
 20
682.7538559032282
 30
0.0
 40
3.0
100
AcDbArc
 50
0.0
 51
90.0
  0
LINE
  5
10B3
330
2
100
AcDbEntity
  8
0
100
AcDbLine
 10
658.5209583471724
 20
685.7538559032282
 30
0.0
 11
688.5209583471751
 21
685.7538559032282
 31
0.0
  0
ARC
  5
10B4
330
2
100
AcDbEntity
  8
0
100
AcDbCircle
 10
658.5209583471724
 20
688.7538559032281
 30
0.0
 40
3.0
100
AcDbArc
 50
179.9999999999869
 51
270.0
  0
LINE
  5
10B5
330
2
100
AcDbEntity
  8
0
100
AcDbLine
 10
663.0209583471707
 20
614.3838559032278
 30
0.0
 11
689.520958347174
 21
614.3838559032278
 31
0.0
  0
LINE
  5
10B6
330
2
100
AcDbEntity
  8
0
100
AcDbLine
 10
658.5209583471732
 20
645.2039802817408
 30
0.0
 11
689.520958347175
 21
645.2039802817408
 31
0.0
  0
LINE
  5
10B7
330
2
100
AcDbEntity
  8
0
100
AcDbLine
 10
658.5209583471713
 20
665.3037315239934
 30
0.0
 11
689.520958347175
 21
665.3037315239934
 31
0.0
  0
ARC
  5
10B8
330
2
100
AcDbEntity
  8
0
100
AcDbCircle
 10
655.4574500202724
 20
602.2538559032287
 30
0.0
 40
2.0
100
AcDbArc
 50
89.99999999994789
 51
118.9550243718446
  0
ARC
  5
10B9
330
2
100
AcDbEntity
  8
0
100
AcDbCircle
 10
655.4574500202697
 20
708.2538559032295
 30
0.0
 40
2.0
100
AcDbArc
 50
241.0449756282136
 51
270.0
  0
LINE
  5
10BF
330
2
100
AcDbEntity
  8
0
100
AcDbLine
 10
642.0209583471727
 20
388.5651052800108
 30
0.0
 11
642.0209583471727
 21
286.5651052800108
 31
0.0
  0
LINE
  5
10E7
330
2
100
AcDbEntity
  8
0
100
AcDbLine
 10
15.22821597874576
 20
388.565105280014
 30
0.0
 11
-32.32347027941409
 21
388.5651052800145
 31
0.0
  0
LINE
  5
10E8
330
2
100
AcDbEntity
  8
CENTER
100
AcDbLine
 10
-79.27178402125787
 20
337.565105280014
 30
0.0
 11
172.2282379787441
 21
337.565105280014
 31
0.0
  0
LINE
  5
10E9
330
2
100
AcDbEntity
  8
0
100
AcDbLine
 10
-34.91753533232326
 20
287.565105280014
 30
0.0
 11
-69.27178402125787
 21
287.565105280014
 31
0.0
  0
ARC
  5
10EA
330
2
100
AcDbEntity
  8
0
100
AcDbCircle
 10
-56.23717854748043
 20
289.565105280014
 30
0.0
 40
2.0
100
AcDbArc
 50
270.0
 51
358.9999999999982
  0
LINE
  5
10EB
330
2
100
AcDbEntity
  8
0
100
AcDbLine
 10
-69.27178402125787
 20
387.5651052800138
 30
0.0
 11
-69.27178402125787
 21
287.5651052800142
 31
0.0
  0
LINE
  5
10EC
330
2
100
AcDbEntity
  8
0
100
AcDbLine
 10
15.22821597874576
 20
388.565105280014
 30
0.0
 11
15.22821597874576
 21
286.565105280014
 31
0.0
  0
LINE
  5
10ED
330
2
100
AcDbEntity
  8
0
100
AcDbLine
 10
15.22821597874576
 20
337.565105280014
 30
0.0
 11
-69.27178402125787
 21
337.565105280014
 31
0.0
  0
LINE
  5
10EE
330
2
100
AcDbEntity
  8
0
100
AcDbLine
 10
-53.39903077484155
 20
337.5651052800136
 30
0.0
 11
-54.23748315716761
 21
289.5302004671398
 31
0.0
  0
LINE
  5
10EF
330
2
100
AcDbEntity
  8
CENTER
100
AcDbLine
 10
-50.77178402125787
 20
395.065105280014
 30
0.0
 11
-50.77178402125787
 21
380.2812542210722
 31
0.0
  0
LINE
  5
10F0
330
2
100
AcDbEntity
  8
0
100
AcDbLine
 10
-34.91753533232326
 20
387.5651052800136
 30
0.0
 11
-69.27178402125787
 21
387.5651052800138
 31
0.0
  0
LINE
  5
10F1
330
2
100
AcDbEntity
  8
0
100
AcDbLine
 10
15.22821597874576
 20
286.5651052800131
 30
0.0
 11
-32.32347027941409
 21
286.5651052800131
 31
0.0
  0
ARC
  5
10F2
330
2
100
AcDbEntity
  8
0
100
AcDbCircle
 10
-56.23717854748043
 20
385.5651052800136
 30
0.0
 40
2.0
100
AcDbArc
 50
1.000000000001765
 51
90.0
  0
LINE
  5
10F3
330
2
100
AcDbEntity
  8
0
100
AcDbLine
 10
-53.39903077484155
 20
337.5651052800145
 30
0.0
 11
-54.23748315716761
 21
385.6000100928882
 31
0.0
  0
LINE
  5
10F4
330
2
100
AcDbEntity
  8
0
100
AcDbLine
 10
0.8380076674059182
 20
337.5651052800136
 30
0.0
 11
1.693915114663695
 21
288.5302004671385
 31
0.0
  0
ARC
  5
10F5
330
2
100
AcDbEntity
  8
0
100
AcDbCircle
 10
3.693610504977414
 20
288.5651052800131
 30
0.0
 40
2.0
100
AcDbArc
 50
181.0000000000017
 51
270.0
  0
LINE
  5
10F6
330
2
100
AcDbEntity
  8
0
100
AcDbLine
 10
0.8380076674059182
 20
337.565105280014
 30
0.0
 11
1.693915114663695
 21
386.6000100928891
 31
0.0
  0
ARC
  5
10F7
330
2
100
AcDbEntity
  8
0
100
AcDbCircle
 10
3.693610504977414
 20
386.5651052800145
 30
0.0
 40
2.0
100
AcDbArc
 50
90.0
 51
178.9999999999982
  0
ARC
  5
10F8
330
2
100
AcDbEntity
  8
0
100
AcDbCircle
 10
-34.96922159047858
 20
389.5651052800136
 30
0.0
 40
2.0
100
AcDbArc
 50
270.0
 51
311.4096221092689
  0
ARC
  5
10F9
330
2
100
AcDbEntity
  8
0
100
AcDbCircle
 10
-34.96922159047858
 20
285.5651052800144
 30
0.0
 40
2.0
100
AcDbArc
 50
48.59037789072346
 51
90.0
  0
LINE
  5
10FA
330
2
100
AcDbEntity
  8
0
100
AcDbLine
 10
1.047859193912017
 20
387.565105280014
 30
0.0
 11
-32.34965620098296
 21
387.5651052800145
 31
0.0
  0
ARC
  5
10FB
330
2
100
AcDbEntity
  8
0
100
AcDbCircle
 10
-32.34965620098296
 20
385.5651052800144
 30
0.0
 40
2.0
100
AcDbArc
 50
90.0
 51
178.4999999999973
  0
LINE
  5
10FC
330
2
100
AcDbEntity
  8
0
100
AcDbLine
 10
-6.021803269325801
 20
378.3151052800117
 30
0.0
 11
-36.48850345918503
 21
378.3151052800135
 31
0.0
  0
ARC
  5
10FD
330
2
100
AcDbEntity
  8
0
100
AcDbCircle
 10
-36.48850345918503
 20
380.315105280014
 30
0.0
 40
2.0
100
AcDbArc
 50
270.0
 51
358.5000000000103
  0
LINE
  5
10FE
330
2
100
AcDbEntity
  8
0
100
AcDbLine
 10
-31.88612480066035
 20
368.065105280014
 30
0.0
 11
-1.577704641631271
 21
368.065105280014
 31
0.0
  0
ARC
  5
10FF
330
2
100
AcDbEntity
  8
0
100
AcDbCircle
 10
-31.88612480066035
 20
365.065105280014
 30
0.0
 40
3.0
100
AcDbArc
 50
90.0
 51
178.4999999999973
  0
ARC
  5
1100
330
2
100
AcDbEntity
  8
0
100
AcDbCircle
 10
-42.23717854749406
 20
289.565105280014
 30
0.0
 40
2.0
100
AcDbArc
 50
270.0
 51
358.9999999999852
  0
LINE
  5
1101
330
2
100
AcDbEntity
  8
0
100
AcDbLine
 10
-38.12276221198476
 20
298.0851052800135
 30
0.0
 11
-49.96014834440734
 21
298.0851052800135
 31
0.0
  0
ARC
  5
1102
330
2
100
AcDbEntity
  8
0
100
AcDbCircle
 10
-38.12276221198476
 20
296.0851052800135
 30
0.0
 40
2.0
100
AcDbArc
 50
90.0
 51
178.9999999999851
  0
ARC
  5
1103
330
2
100
AcDbEntity
  8
0
100
AcDbCircle
 10
-1.57770464163218
 20
304.0651052800145
 30
0.0
 40
3.0
100
AcDbArc
 50
1.000000000001765
 51
90.0
  0
LINE
  5
1104
330
2
100
AcDbEntity
  8
0
100
AcDbLine
 10
-40.23748315718125
 20
289.5302004671389
 30
0.0
 11
-40.12245760229757
 21
296.1200100928886
 31
0.0
  0
ARC
  5
1105
330
2
100
AcDbEntity
  8
0
100
AcDbCircle
 10
-1.577704641631271
 20
371.065105280014
 30
0.0
 40
3.0
100
AcDbArc
 50
270.0
 51
358.9999999999852
  0
ARC
  5
1106
330
2
100
AcDbEntity
  8
0
100
AcDbCircle
 10
1.047859193912017
 20
389.5651052800136
 30
0.0
 40
2.0
100
AcDbArc
 50
270.0
 51
311.4096221092872
  0
LINE
  5
1107
330
2
100
AcDbEntity
  8
0
100
AcDbLine
 10
-34.3227849293678
 20
386.6174591766285
 30
0.0
 11
-34.48945066845022
 21
380.2527513833979
 31
0.0
  0
LINE
  5
1108
330
2
100
AcDbEntity
  8
0
100
AcDbLine
 10
-34.88509677558772
 20
365.1436361249376
 30
0.0
 11
-35.60726602128648
 21
337.565105280014
 31
0.0
  0
ARC
  5
1109
330
2
100
AcDbEntity
  8
0
100
AcDbCircle
 10
-32.32347027941409
 20
386.5651052800135
 30
0.0
 40
2.0
100
AcDbArc
 50
90.0
 51
178.4999999999842
  0
LINE
  5
110A
330
2
100
AcDbEntity
  8
0
100
AcDbLine
 10
-34.32278492936598
 20
288.5127513833986
 30
0.0
 11
-34.48945066845112
 21
294.8774591766296
 31
0.0
  0
ARC
  5
110B
330
2
100
AcDbEntity
  8
0
100
AcDbCircle
 10
-36.48850345918686
 20
294.8151052800136
 30
0.0
 40
2.0
100
AcDbArc
 50
1.500000000002647
 51
90.0
  0
LINE
  5
110C
330
2
100
AcDbEntity
  8
0
100
AcDbLine
 10
-34.88509677558863
 20
309.9865744350909
 30
0.0
 11
-35.60726602128648
 21
337.565105280014
 31
0.0
  0
ARC
  5
110D
330
2
100
AcDbEntity
  8
0
100
AcDbCircle
 10
-31.88612480066217
 20
310.0651052800145
 30
0.0
 40
3.0
100
AcDbArc
 50
181.5000000000026
 51
270.0
  0
ARC
  5
110E
330
2
100
AcDbEntity
  8
0
100
AcDbCircle
 10
-32.32347027941409
 20
288.5651052800145
 30
0.0
 40
2.0
100
AcDbArc
 50
181.5000000000156
 51
270.0
  0
LINE
  5
110F
330
2
100
AcDbEntity
  8
0
100
AcDbLine
 10
-31.88612480066217
 20
307.065105280014
 30
0.0
 11
-1.57770464163218
 21
307.0651052800144
 31
0.0
  0
LINE
  5
1110
330
2
100
AcDbEntity
  8
0
100
AcDbLine
 10
-6.02180326932148
 20
296.8151052800158
 30
0.0
 11
-36.48850345918686
 21
296.815105280014
 31
0.0
  0
LINE
  5
1111
330
2
100
AcDbEntity
  8
0
100
AcDbLine
 10
-33.40822567078499
 20
345.1661496036054
 30
0.0
 11
-2.029315610406911
 21
345.1661496036054
 31
0.0
  0
LINE
  5
1112
330
2
100
AcDbEntity
  8
0
100
AcDbLine
 10
-33.40822567078499
 20
329.9640609564226
 30
0.0
 11
-2.029315610406911
 21
329.9640609564226
 31
0.0
  0
LINE
  5
1113
330
2
100
AcDbEntity
  8
0
100
AcDbLine
 10
1.047859193912017
 20
287.565105280014
 30
0.0
 11
-32.34965620098296
 21
287.5651052800136
 31
0.0
  0
ARC
  5
1114
330
2
100
AcDbEntity
  8
0
100
AcDbCircle
 10
-32.34965620098296
 20
289.5651052800136
 30
0.0
 40
2.0
100
AcDbArc
 50
181.4999999999896
 51
270.0
  0
ARC
  5
1115
330
2
100
AcDbEntity
  8
0
100
AcDbCircle
 10
1.047859193912017
 20
285.565105280014
 30
0.0
 40
2.0
100
AcDbArc
 50
48.59037789071369
 51
90.0
  0
LINE
  5
11A0
330
2
100
AcDbEntity
  8
CENTER
  6
CENTERX2
100
AcDbLine
 10
652.520958347173
 20
697.6802627744214
 30
0.0
 11
666.020958347174
 21
697.6802627744209
 31
0.0
  0
LINE
  5
11A1
330
2
100
AcDbEntity
  8
CENTER
  6
CENTERX2
100
AcDbLine
 10
4.478196730674198
 20
379.991512151086
 30
0.0
 11
-9.027912542051581
 21
379.9915121510858
 31
0.0
  0
LINE
  5
11A2
330
2
100
AcDbEntity
  8
CENTER
  6
CENTERX2
100
AcDbLine
 10
4.478196730678632
 20
295.1386984086978
 30
0.0
 11
-9.027912542047261
 21
295.1386984086976
 31
0.0
  0
LINE
  5
11A7
330
2
100
AcDbEntity
  8
0
100
AcDbLine
 10
-45.77178402125787
 20
391.5651052800136
 30
0.0
 11
-55.77178402125787
 21
391.5651052800136
 31
0.0
  0
ARC
  5
11A8
330
2
100
AcDbEntity
  8
0
100
AcDbCircle
 10
-55.77178402125787
 20
387.5651052800136
 30
0.0
 40
4.0
100
AcDbArc
 50
90.0
 51
180.0
  0
ARC
  5
11A9
330
2
100
AcDbEntity
  8
0
100
AcDbCircle
 10
-45.77178402125787
 20
387.5651052800136
 30
0.0
 40
4.0
100
AcDbArc
 50
0.0
 51
90.0
  0
CIRCLE
  5
11AA
330
2
100
AcDbEntity
  8
0
100
AcDbCircle
 10
708.0209583471769
 20
635.2538559032282
 30
0.0
 40
9.0
  0
LINE
  5
11FB
330
2
100
AcDbEntity
  8
0
100
AcDbLine
 10
1.478196730674198
 20
385.7415121510858
 30
0.0
 11
-0.0218032693262558
 21
385.7415121510858
 31
0.0
  0
LINE
  5
11FC
330
2
100
AcDbEntity
  8
0
100
AcDbLine
 10
1.478196730674198
 20
374.2415121510858
 30
0.0
 11
-0.0218032693264831
 21
374.2415121510858
 31
0.0
  0
LINE
  5
11FD
330
2
100
AcDbEntity
  8
0
100
AcDbLine
 10
-5.621803269326164
 20
384.9915121510858
 30
0.0
 11
-6.021803269325801
 21
384.2986918280585
 31
0.0
  0
LINE
  5
11FE
330
2
100
AcDbEntity
  8
0
100
AcDbLine
 10
-0.0218032693262558
 20
385.7415121510858
 30
0.0
 11
-0.0218032693264831
 21
374.2415121510858
 31
0.0
  0
LINE
  5
11FF
330
2
100
AcDbEntity
  8
0
100
AcDbLine
 10
-5.621803269326164
 20
384.9915121510858
 30
0.0
 11
-5.621803269326164
 21
374.9915121510858
 31
0.0
  0
LINE
  5
1200
330
2
100
AcDbEntity
  8
0
100
AcDbLine
 10
-0.0218032693262558
 20
384.9915121510858
 30
0.0
 11
-5.621803269326164
 21
384.9915121510858
 31
0.0
  0
LINE
  5
1201
330
2
100
AcDbEntity
  8
0
100
AcDbLine
 10
-0.0218032693264831
 20
374.9915121510858
 30
0.0
 11
-5.621803269326164
 21
374.9915121510858
 31
0.0
  0
LINE
  5
1202
330
2
100
AcDbEntity
  8
0
100
AcDbLine
 10
-5.621803269326164
 20
374.9915121510858
 30
0.0
 11
-6.021803269325801
 21
375.684332474113
 31
0.0
  0
LINE
  5
1203
330
2
100
AcDbEntity
  8
0
100
AcDbLine
 10
-6.021803269325801
 20
384.2986918280585
 30
0.0
 11
-6.021803269325801
 21
375.684332474113
 31
0.0
  0
LINE
  5
1204
330
2
100
AcDbEntity
  8
0
 48
12.0
100
AcDbLine
 10
1.478196730674198
 20
374.2415121510858
 30
0.0
 11
1.478196730674198
 21
385.7415121510858
 31
0.0
  0
LINE
  5
1205
330
2
100
AcDbEntity
  8
0
100
AcDbLine
 10
1.478196730678519
 20
300.8886984086976
 30
0.0
 11
-0.0218032693219357
 21
300.8886984086976
 31
0.0
  0
LINE
  5
1206
330
2
100
AcDbEntity
  8
0
100
AcDbLine
 10
1.478196730678519
 20
289.3886984086975
 30
0.0
 11
-0.021803269322163
 21
289.3886984086975
 31
0.0
  0
LINE
  5
1207
330
2
100
AcDbEntity
  8
0
100
AcDbLine
 10
-5.621803269321844
 20
300.1386984086976
 30
0.0
 11
-6.02180326932148
 21
299.4458780856703
 31
0.0
  0
LINE
  5
1208
330
2
100
AcDbEntity
  8
0
100
AcDbLine
 10
-0.0218032693219357
 20
300.8886984086976
 30
0.0
 11
-0.021803269322163
 21
289.3886984086975
 31
0.0
  0
LINE
  5
1209
330
2
100
AcDbEntity
  8
0
100
AcDbLine
 10
-5.621803269321844
 20
300.1386984086976
 30
0.0
 11
-5.621803269321844
 21
290.1386984086976
 31
0.0
  0
LINE
  5
120A
330
2
100
AcDbEntity
  8
0
100
AcDbLine
 10
-0.0218032693219357
 20
300.1386984086976
 30
0.0
 11
-5.621803269321844
 21
300.1386984086976
 31
0.0
  0
LINE
  5
120B
330
2
100
AcDbEntity
  8
0
100
AcDbLine
 10
-0.021803269322163
 20
290.1386984086976
 30
0.0
 11
-5.621803269321844
 21
290.1386984086976
 31
0.0
  0
LINE
  5
120C
330
2
100
AcDbEntity
  8
0
100
AcDbLine
 10
-5.621803269321844
 20
290.1386984086976
 30
0.0
 11
-6.02180326932148
 21
290.8315187317248
 31
0.0
  0
LINE
  5
120D
330
2
100
AcDbEntity
  8
0
100
AcDbLine
 10
-6.02180326932148
 20
299.4458780856703
 30
0.0
 11
-6.02180326932148
 21
290.8315187317248
 31
0.0
  0
LINE
  5
120E
330
2
100
AcDbEntity
  8
0
 48
12.0
100
AcDbLine
 10
1.478196730678519
 20
289.3886984086975
 30
0.0
 11
1.478196730678519
 21
300.8886984086976
 31
0.0
  0
LINE
  5
120F
330
2
100
AcDbEntity
  8
0
100
AcDbLine
 10
655.5209583471728
 20
691.9302627744209
 30
0.0
 11
657.0209583471734
 21
691.9302627744209
 31
0.0
  0
LINE
  5
1210
330
2
100
AcDbEntity
  8
0
100
AcDbLine
 10
655.5209583471729
 20
703.4302627744209
 30
0.0
 11
657.0209583471737
 21
703.4302627744209
 31
0.0
  0
LINE
  5
1211
330
2
100
AcDbEntity
  8
0
100
AcDbLine
 10
662.6209583471732
 20
692.6802627744209
 30
0.0
 11
663.0209583471728
 21
693.3730830974482
 31
0.0
  0
LINE
  5
1212
330
2
100
AcDbEntity
  8
0
100
AcDbLine
 10
657.0209583471734
 20
691.9302627744209
 30
0.0
 11
657.0209583471737
 21
703.4302627744209
 31
0.0
  0
LINE
  5
1213
330
2
100
AcDbEntity
  8
0
100
AcDbLine
 10
662.6209583471732
 20
692.6802627744209
 30
0.0
 11
662.6209583471733
 21
702.6802627744209
 31
0.0
  0
LINE
  5
1214
330
2
100
AcDbEntity
  8
0
100
AcDbLine
 10
657.0209583471734
 20
692.6802627744209
 30
0.0
 11
662.6209583471732
 21
692.6802627744209
 31
0.0
  0
LINE
  5
1215
330
2
100
AcDbEntity
  8
0
100
AcDbLine
 10
657.0209583471737
 20
702.6802627744209
 30
0.0
 11
662.6209583471733
 21
702.6802627744209
 31
0.0
  0
LINE
  5
1216
330
2
100
AcDbEntity
  8
0
100
AcDbLine
 10
662.6209583471733
 20
702.6802627744209
 30
0.0
 11
663.0209583471729
 21
701.9874424513936
 31
0.0
  0
LINE
  5
1217
330
2
100
AcDbEntity
  8
0
100
AcDbLine
 10
663.0209583471728
 20
693.3730830974482
 30
0.0
 11
663.0209583471729
 21
701.9874424513936
 31
0.0
  0
LINE
  5
1218
330
2
100
AcDbEntity
  8
0
 48
12.0
100
AcDbLine
 10
655.5209583471729
 20
703.4302627744209
 30
0.0
 11
655.5209583471728
 21
691.9302627744209
 31
0.0
  0
LINE
  5
1226
330
2
100
AcDbEntity
  8
CENTER
  6
CENTERX2
100
AcDbLine
 10
652.5209583471705
 20
612.8274490320355
 30
0.0
 11
666.020958347174
 21
612.8274490320355
 31
0.0
  0
LINE
  5
1227
330
2
100
AcDbEntity
  8
0
100
AcDbLine
 10
655.5209583471728
 20
618.5774490320355
 30
0.0
 11
657.0209583471734
 21
618.5774490320355
 31
0.0
  0
LINE
  5
1228
330
2
100
AcDbEntity
  8
0
100
AcDbLine
 10
655.5209583471729
 20
607.0774490320355
 30
0.0
 11
657.0209583471737
 21
607.0774490320355
 31
0.0
  0
LINE
  5
1229
330
2
100
AcDbEntity
  8
0
100
AcDbLine
 10
662.6209583471732
 20
617.8274490320355
 30
0.0
 11
663.0209583471728
 21
617.1346287090082
 31
0.0
  0
LINE
  5
122A
330
2
100
AcDbEntity
  8
0
100
AcDbLine
 10
657.0209583471734
 20
618.5774490320355
 30
0.0
 11
657.0209583471737
 21
607.0774490320355
 31
0.0
  0
LINE
  5
122B
330
2
100
AcDbEntity
  8
0
100
AcDbLine
 10
662.6209583471732
 20
617.8274490320355
 30
0.0
 11
662.6209583471733
 21
607.8274490320354
 31
0.0
  0
LINE
  5
122C
330
2
100
AcDbEntity
  8
0
100
AcDbLine
 10
657.0209583471734
 20
617.8274490320355
 30
0.0
 11
662.6209583471732
 21
617.8274490320355
 31
0.0
  0
LINE
  5
122D
330
2
100
AcDbEntity
  8
0
100
AcDbLine
 10
657.0209583471737
 20
607.8274490320354
 30
0.0
 11
662.6209583471733
 21
607.8274490320354
 31
0.0
  0
LINE
  5
122E
330
2
100
AcDbEntity
  8
0
100
AcDbLine
 10
662.6209583471733
 20
607.8274490320354
 30
0.0
 11
663.0209583471729
 21
608.5202693550627
 31
0.0
  0
LINE
  5
122F
330
2
100
AcDbEntity
  8
0
100
AcDbLine
 10
663.0209583471728
 20
617.1346287090082
 30
0.0
 11
663.0209583471729
 21
608.5202693550627
 31
0.0
  0
LINE
  5
1230
330
2
100
AcDbEntity
  8
0
 48
12.0
100
AcDbLine
 10
655.5209583471729
 20
607.0774490320355
 30
0.0
 11
655.5209583471728
 21
618.5774490320355
 31
0.0
  0
TEXT
  5
19D1
330
2
100
AcDbEntity
  8
TITLE
100
AcDbText
 10
298.9321402359228
 20
674.2607320118286
 30
0.0
 40
7.5
  1
AFCZ22L-3~5M1000K22
100
AcDbText
  0
TEXT
  5
19D2
330
2
100
AcDbEntity
  8
TITLE
100
AcDbText
 10
298.9321402359228
 20
663.281413629666
 30
0.0
 40
7.5
  1
AFCZ22L-3~5L1000K22
100
AcDbText
  0
LINE
  5
2152
330
2
100
AcDbEntity
  8
CENTER
100
AcDbLine
 10
939.7051268134566
 20
399.065585852864
 30
0.0
 11
939.7051268134566
 21
276.0646247071786
 31
0.0
  0
LINE
  5
2163
330
2
100
AcDbEntity
  8
0
100
AcDbLine
 10
886.7051268134598
 20
387.8407752533817
 30
0.0
 11
886.7051268134598
 21
287.2894353066482
 31
0.0
  0
LINE
  5
2164
330
2
100
AcDbEntity
  8
0
100
AcDbLine
 10
881.7051268134598
 20
382.5651052800121
 30
0.0
 11
881.7051268134598
 21
292.5651052800123
 31
0.0
  0
LINE
  5
2165
330
2
100
AcDbEntity
  8
0
100
AcDbLine
 10
886.7051268134598
 20
382.5651052800121
 30
0.0
 11
881.7051268134598
 21
382.5651052800121
 31
0.0
  0
LINE
  5
2166
330
2
100
AcDbEntity
  8
0
100
AcDbLine
 10
886.7051268134598
 20
292.5651052800123
 30
0.0
 11
881.7051268134598
 21
292.5651052800123
 31
0.0
  0
LINE
  5
2167
330
2
100
AcDbEntity
  8
0
100
AcDbLine
 10
867.7051268134588
 20
369.6337277304002
 30
0.0
 11
867.7051268134588
 21
305.4964828296271
 31
0.0
  0
LINE
  5
2168
330
2
100
AcDbEntity
  8
0
100
AcDbLine
 10
879.7749258068632
 20
371.9865919484738
 30
0.0
 11
869.6353278200538
 21
371.6325093844381
 31
0.0
  0
ARC
  5
2169
330
2
100
AcDbEntity
  8
0
100
AcDbCircle
 10
879.7051268134589
 20
373.9853736025116
 30
0.0
 40
2.0
100
AcDbArc
 50
272.0000000000036
 51
0.0
  0
ARC
  5
216A
330
2
100
AcDbEntity
  8
0
100
AcDbCircle
 10
869.705126813459
 20
369.6337277304002
 30
0.0
 40
2.0
100
AcDbArc
 50
92.00000000000365
 51
180.0
  0
LINE
  5
216B
330
2
100
AcDbEntity
  8
0
100
AcDbLine
 10
879.7749258068641
 20
303.1436186115535
 30
0.0
 11
869.6353278200538
 21
303.4977011755892
 31
0.0
  0
ARC
  5
216C
330
2
100
AcDbEntity
  8
0
100
AcDbCircle
 10
879.7051268134589
 20
301.1448369575156
 30
0.0
 40
2.0
100
AcDbArc
 50
0.0
 51
87.99999999999636
  0
ARC
  5
216D
330
2
100
AcDbEntity
  8
0
100
AcDbCircle
 10
869.705126813459
 20
305.4964828296271
 30
0.0
 40
2.0
100
AcDbArc
 50
180.0
 51
267.9999999999963
  0
ARC
  5
2170
330
2
100
AcDbEntity
  8
0
100
AcDbCircle
 10
896.7051268134531
 20
294.4870583657461
 30
0.0
 40
8.0
100
AcDbArc
 50
224.6047454959607
 51
269.4382946674162
  0
LINE
  5
2171
330
2
100
AcDbEntity
  8
0
100
AcDbLine
 10
939.705126813453
 20
389.0651052800208
 30
0.0
 11
982.7835544169845
 21
388.6427677544957
 31
0.0
  0
ARC
  5
2172
330
2
100
AcDbEntity
  8
0
100
AcDbCircle
 10
982.7051268134535
 20
380.6431521942954
 30
0.0
 40
8.0
100
AcDbArc
 50
44.60474549151512
 51
89.43829466744229
  0
LINE
  5
2173
330
2
100
AcDbEntity
  8
0
100
AcDbLine
 10
939.705126813453
 20
389.0651052800208
 30
0.0
 11
928.4559527295964
 21
388.9548192595909
 31
0.0
  0
ARC
  5
2174
330
2
100
AcDbEntity
  8
0
100
AcDbCircle
 10
896.7051268134531
 20
380.6431521942963
 30
0.0
 40
8.0
100
AcDbArc
 50
90.5617053325577
 51
135.3952545113082
  0
LINE
  5
2175
330
2
100
AcDbEntity
  8
0
100
AcDbLine
 10
939.705126813453
 20
286.0651052800217
 30
0.0
 11
982.7835544169845
 21
286.4874428055468
 31
0.0
  0
ARC
  5
2176
330
2
100
AcDbEntity
  8
0
100
AcDbCircle
 10
982.7051268134535
 20
294.4870583657471
 30
0.0
 40
8.0
100
AcDbArc
 50
270.5617053325576
 51
315.3952545012159
  0
LINE
  5
2177
330
2
100
AcDbEntity
  8
0
100
AcDbLine
 10
939.705126813453
 20
286.0651052800217
 30
0.0
 11
896.6266992099216
 21
286.4874428055459
 31
0.0
  0
LINE
  5
2178
330
2
100
AcDbEntity
  8
0
100
AcDbLine
 10
893.3349637909852
 20
387.8986329641597
 30
0.0
 11
886.7051268134598
 21
387.8407752533817
 31
0.0
  0
LINE
  5
2179
330
2
100
AcDbEntity
  8
0
100
AcDbLine
 10
893.3349637909852
 20
287.23157759587
 30
0.0
 11
886.7051268134598
 21
287.2894353066482
 31
0.0
  0
LINE
  5
217A
330
2
100
AcDbEntity
  8
CENTER
100
AcDbLine
 10
815.7051268134605
 20
337.565105280011
 30
0.0
 11
1002.705019813444
 21
337.5651052800109
 31
0.0
  0
LINE
  5
2282
330
2
100
AcDbEntity
  8
0
100
AcDbLine
 10
642.0209583471728
 20
388.5651052800108
 30
0.0
 11
689.5726446053327
 21
388.5651052800113
 31
0.0
  0
ARC
  5
2284
330
2
100
AcDbEntity
  8
0
100
AcDbCircle
 10
713.486352873399
 20
289.5651052800108
 30
0.0
 40
2.0
100
AcDbArc
 50
180.9999999999887
 51
270.0
  0
LINE
  5
2285
330
2
100
AcDbEntity
  8
0
100
AcDbLine
 10
642.0209583471728
 20
388.5651052800108
 30
0.0
 11
642.0209583471728
 21
286.5651052800108
 31
0.0
  0
LINE
  5
2286
330
2
100
AcDbEntity
  8
0
100
AcDbLine
 10
642.0209583471728
 20
337.5651052800108
 30
0.0
 11
726.5209583471764
 21
337.5651052800108
 31
0.0
  0
LINE
  5
2287
330
2
100
AcDbEntity
  8
0
100
AcDbLine
 10
710.6482051007601
 20
337.5651052800104
 30
0.0
 11
711.4866574830862
 21
289.5302004671366
 31
0.0
  0
LINE
  5
2288
330
2
100
AcDbEntity
  8
CENTER
100
AcDbLine
 10
708.0209583471765
 20
395.0651052800108
 30
0.0
 11
708.0209583471765
 21
380.2812542210691
 31
0.0
  0
LINE
  5
2289
330
2
100
AcDbEntity
  8
0
100
AcDbLine
 10
642.0209583471728
 20
286.5651052800099
 30
0.0
 11
689.5726446053327
 21
286.5651052800099
 31
0.0
  0
ARC
  5
228A
330
2
100
AcDbEntity
  8
0
100
AcDbCircle
 10
713.486352873399
 20
385.5651052800104
 30
0.0
 40
2.0
100
AcDbArc
 50
90.0
 51
178.9999999999982
  0
LINE
  5
228B
330
2
100
AcDbEntity
  8
0
100
AcDbLine
 10
711.3260638755159
 20
376.3996084769856
 30
0.0
 11
711.4866574830862
 21
385.600010092885
 31
0.0
  0
LINE
  5
228C
330
2
100
AcDbEntity
  8
0
100
AcDbLine
 10
656.4111666585127
 20
337.5651052800104
 30
0.0
 11
655.5552592112548
 21
288.5302004671353
 31
0.0
  0
ARC
  5
228D
330
2
100
AcDbEntity
  8
0
100
AcDbCircle
 10
653.5555638209411
 20
288.5651052800099
 30
0.0
 40
2.0
100
AcDbArc
 50
270.0
 51
358.9999999999982
  0
LINE
  5
228E
330
2
100
AcDbEntity
  8
0
100
AcDbLine
 10
656.0784408395847
 20
356.6269546799621
 30
0.0
 11
655.5552592112548
 21
386.6000100928859
 31
0.0
  0
ARC
  5
228F
330
2
100
AcDbEntity
  8
0
100
AcDbCircle
 10
653.5555638209411
 20
386.5651052800113
 30
0.0
 40
2.0
100
AcDbArc
 50
1.000000000001775
 51
90.0
  0
ARC
  5
2290
330
2
100
AcDbEntity
  8
0
100
AcDbCircle
 10
692.2183959163971
 20
389.5651052800104
 30
0.0
 40
2.0
100
AcDbArc
 50
228.5903778907302
 51
270.0
  0
ARC
  5
2291
330
2
100
AcDbEntity
  8
0
100
AcDbCircle
 10
692.2183959163971
 20
285.5651052800113
 30
0.0
 40
2.0
100
AcDbArc
 50
90.0
 51
131.4096221092697
  0
LINE
  5
2292
330
2
100
AcDbEntity
  8
0
100
AcDbLine
 10
656.2013151320066
 20
387.5651052800108
 30
0.0
 11
689.5988305269015
 21
387.5651052800113
 31
0.0
  0
ARC
  5
2293
330
2
100
AcDbEntity
  8
0
100
AcDbCircle
 10
689.5988305269015
 20
385.5651052800113
 30
0.0
 40
2.0
100
AcDbArc
 50
1.499999999989693
 51
90.0
  0
ARC
  5
2294
330
2
100
AcDbEntity
  8
0
100
AcDbCircle
 10
693.7376777851036
 20
380.3151052800108
 30
0.0
 40
2.0
100
AcDbArc
 50
181.4999999999766
 51
270.0
  0
LINE
  5
2295
330
2
100
AcDbEntity
  8
0
100
AcDbLine
 10
689.1352991265789
 20
368.0651052800108
 30
0.0
 11
658.8268789675498
 21
368.0651052800108
 31
0.0
  0
ARC
  5
2296
330
2
100
AcDbEntity
  8
0
100
AcDbCircle
 10
689.1352991265789
 20
365.0651052800108
 30
0.0
 40
3.0
100
AcDbArc
 50
1.500000000002716
 51
90.0
  0
ARC
  5
2297
330
2
100
AcDbEntity
  8
0
100
AcDbCircle
 10
658.8268789675508
 20
304.0651052800113
 30
0.0
 40
3.0
100
AcDbArc
 50
90.0
 51
178.9999999999851
  0
LINE
  5
2298
330
2
100
AcDbEntity
  8
0
100
AcDbLine
 10
695.3719365379034
 20
377.0451052800104
 30
0.0
 11
707.2093226703159
 21
377.0451052800104
 31
0.0
  0
ARC
  5
2299
330
2
100
AcDbEntity
  8
0
100
AcDbCircle
 10
699.4863528734127
 20
385.5651052800108
 30
0.0
 40
2.0
100
AcDbArc
 50
90.0
 51
178.9999999999982
  0
LINE
  5
229A
330
2
100
AcDbEntity
  8
0
100
AcDbLine
 10
697.4866574830998
 20
385.6000100928854
 30
0.0
 11
697.3716319282162
 21
379.0102004671362
 31
0.0
  0
ARC
  5
229B
330
2
100
AcDbEntity
  8
0
100
AcDbCircle
 10
658.8268789675498
 20
371.0651052800108
 30
0.0
 40
3.0
100
AcDbArc
 50
181.0000000000017
 51
270.0
  0
ARC
  5
229C
330
2
100
AcDbEntity
  8
0
100
AcDbCircle
 10
656.2013151320066
 20
389.5651052800104
 30
0.0
 40
2.0
100
AcDbArc
 50
228.590377890714
 51
270.0
  0
LINE
  5
229D
330
2
100
AcDbEntity
  8
0
100
AcDbLine
 10
691.5719592552863
 20
386.6174591766253
 30
0.0
 11
691.7386249943688
 21
380.2527513833948
 31
0.0
  0
LINE
  5
229E
330
2
100
AcDbEntity
  8
0
100
AcDbLine
 10
692.1342711015063
 20
365.1436361249344
 30
0.0
 11
692.2769637840216
 21
359.6944224267218
 31
0.0
  0
ARC
  5
229F
330
2
100
AcDbEntity
  8
0
100
AcDbCircle
 10
689.5726446053327
 20
386.5651052800103
 30
0.0
 40
2.0
100
AcDbArc
 50
1.500000000015761
 51
90.0
  0
LINE
  5
22A0
330
2
100
AcDbEntity
  8
0
100
AcDbLine
 10
691.5719592552846
 20
288.5127513833954
 30
0.0
 11
691.7386249943697
 21
294.8774591766264
 31
0.0
  0
ARC
  5
22A1
330
2
100
AcDbEntity
  8
0
100
AcDbCircle
 10
693.7376777851055
 20
294.8151052800104
 30
0.0
 40
2.0
100
AcDbArc
 50
90.0
 51
178.4999999999972
  0
LINE
  5
22A2
330
2
100
AcDbEntity
  8
0
100
AcDbLine
 10
692.1342711015072
 20
309.9865744350878
 30
0.0
 11
692.8564403472051
 21
337.5651052800108
 31
0.0
  0
ARC
  5
22A3
330
2
100
AcDbEntity
  8
0
100
AcDbCircle
 10
689.1352991265807
 20
310.0651052800113
 30
0.0
 40
3.0
100
AcDbArc
 50
270.0
 51
358.4999999999972
  0
ARC
  5
22A4
330
2
100
AcDbEntity
  8
0
100
AcDbCircle
 10
689.5726446053327
 20
288.5651052800113
 30
0.0
 40
2.0
100
AcDbArc
 50
270.0
 51
358.4999999999841
  0
LINE
  5
22A5
330
2
100
AcDbEntity
  8
0
100
AcDbLine
 10
689.1352991265807
 20
307.0651052800108
 30
0.0
 11
658.8268789675508
 21
307.0651052800113
 31
0.0
  0
LINE
  5
22A6
330
2
100
AcDbEntity
  8
0
100
AcDbLine
 10
663.2709775952402
 20
296.8151052800131
 30
0.0
 11
693.7376777851055
 21
296.8151052800108
 31
0.0
  0
LINE
  5
22A7
330
2
100
AcDbEntity
  8
0
100
AcDbLine
 10
690.6573999967036
 20
329.9640609564194
 30
0.0
 11
659.2784899363254
 21
329.9640609564194
 31
0.0
  0
LINE
  5
22A8
330
2
100
AcDbEntity
  8
0
100
AcDbLine
 10
656.2013151320066
 20
287.5651052800108
 30
0.0
 11
689.5988305269015
 21
287.5651052800104
 31
0.0
  0
ARC
  5
22A9
330
2
100
AcDbEntity
  8
0
100
AcDbCircle
 10
689.5988305269015
 20
289.5651052800104
 30
0.0
 40
2.0
100
AcDbArc
 50
270.0
 51
358.5000000000103
  0
ARC
  5
22AA
330
2
100
AcDbEntity
  8
0
100
AcDbCircle
 10
656.2013151320066
 20
285.5651052800108
 30
0.0
 40
2.0
100
AcDbArc
 50
90.0
 51
131.4096221092859
  0
ARC
  5
22AB
330
2
100
AcDbEntity
  8
0
100
AcDbCircle
 10
695.3719365379034
 20
379.0451052800108
 30
0.0
 40
2.0
100
AcDbArc
 50
270.0
 51
358.9999999999982
  0
LINE
  5
22AC
330
2
100
AcDbEntity
  8
0
100
AcDbLine
 10
897.8273340517027
 20
387.5651052800118
 30
0.0
 11
981.5829195752124
 21
387.5651052800118
 31
0.0
  0
ARC
  5
22AD
330
2
100
AcDbEntity
  8
0
100
AcDbCircle
 10
981.5829195752124
 20
379.5651052800118
 30
0.0
 40
8.0
100
AcDbArc
 50
0.1666666660107226
 51
90.0
  0
LINE
  5
22AF
330
2
100
AcDbEntity
  8
0
100
AcDbLine
 10
897.8273340517027
 20
287.565105280011
 30
0.0
 11
981.5829195752124
 21
287.5651052800118
 31
0.0
  0
LINE
  5
22B0
330
2
100
AcDbEntity
  8
0
100
AcDbLine
 10
896.6270798991811
 20
388.5651052800119
 30
0.0
 11
910.8321434670131
 21
388.5651052800119
 31
0.0
  0
LINE
  5
22B1
330
2
100
AcDbEntity
  8
0
100
AcDbLine
 10
928.5781101594272
 20
388.5651052800119
 30
0.0
 11
982.7831737277321
 21
388.5651052800114
 31
0.0
  0
LINE
  5
22B2
330
2
100
AcDbEntity
  8
0
100
AcDbLine
 10
896.6270798991811
 20
286.5651052800109
 30
0.0
 11
982.7831737277321
 21
286.5651052800114
 31
0.0
  0
LINE
  5
22B5
330
2
100
AcDbEntity
  8
0
100
AcDbLine
 10
989.5828857288581
 20
379.5883763037934
 30
0.0
 11
989.7051268134585
 21
337.565105280011
 31
0.0
  0
ARC
  5
22B6
330
2
100
AcDbEntity
  8
0
100
AcDbCircle
 10
982.7831737277321
 20
380.5651052800091
 30
0.0
 40
7.999999999999998
100
AcDbArc
 50
0.5617053325837666
 51
90.0
  0
LINE
  5
22B7
330
2
100
AcDbEntity
  8
0
100
AcDbLine
 10
990.7827892879343
 20
380.6435328835402
 30
0.0
 11
991.2051268134566
 21
337.565105280011
 31
0.0
  0
ARC
  5
22B8
330
2
100
AcDbEntity
  8
0
100
AcDbCircle
 10
896.6270798991811
 20
380.5651052800091
 30
0.0
 40
7.999999999999998
100
AcDbArc
 50
90.0
 51
179.4382946674162
  0
LINE
  5
22B9
330
2
100
AcDbEntity
  8
0
100
AcDbLine
 10
888.6274643389809
 20
380.6435328835402
 30
0.0
 11
888.2051268134567
 21
337.565105280011
 31
0.0
  0
ARC
  5
22BA
330
2
100
AcDbEntity
  8
0
100
AcDbCircle
 10
982.7831737277321
 20
294.5651052800137
 30
0.0
 40
7.999999999999998
100
AcDbArc
 50
270.0
 51
359.4382946674422
  0
ARC
  5
22BB
330
2
100
AcDbEntity
  8
0
100
AcDbCircle
 10
897.8273340517027
 20
295.5651052800091
 30
0.0
 40
7.999999999999998
100
AcDbArc
 50
180.1666666660107
 51
270.0
  0
LINE
  5
22BC
330
2
100
AcDbEntity
  8
0
100
AcDbLine
 10
990.782789287936
 20
294.4866776764826
 30
0.0
 11
991.2051268134566
 21
337.5651052800118
 31
0.0
  0
ARC
  5
22BD
330
2
100
AcDbEntity
  8
0
100
AcDbCircle
 10
896.6270798991811
 20
294.5651052800137
 30
0.0
 40
7.999999999999998
100
AcDbArc
 50
180.5617053325577
 51
270.0
  0
LINE
  5
22BE
330
2
100
AcDbEntity
  8
0
100
AcDbLine
 10
888.627464338978
 20
294.4866776764826
 30
0.0
 11
888.2051268134567
 21
337.5651052800118
 31
0.0
  0
ARC
  5
22BF
330
2
100
AcDbEntity
  8
0
100
AcDbCircle
 10
897.8273340517027
 20
379.5651052800118
 30
0.0
 40
7.999999999999998
100
AcDbArc
 50
90.0
 51
179.8333333339892
  0
LINE
  5
22C0
330
2
100
AcDbEntity
  8
0
100
AcDbLine
 10
889.827367898057
 20
379.5883763037934
 30
0.0
 11
889.7051268134566
 21
337.565105280011
 31
0.0
  0
ARC
  5
22C1
330
2
100
AcDbEntity
  8
0
100
AcDbCircle
 10
981.5829195752124
 20
295.5651052800091
 30
0.0
 40
8.0
100
AcDbArc
 50
270.0
 51
359.8333333339892
  0
LINE
  5
22C2
330
2
100
AcDbEntity
  8
0
100
AcDbLine
 10
989.5828857288581
 20
295.5418342562276
 30
0.0
 11
989.7051268134585
 21
337.56510528001
 31
0.0
  0
LINE
  5
22C3
330
2
100
AcDbEntity
  8
0
100
AcDbLine
 10
889.827367898057
 20
295.5418342562276
 30
0.0
 11
889.7051268134566
 21
337.56510528001
 31
0.0
  0
LINE
  5
22C4
330
2
100
AcDbEntity
  8
0
100
AcDbLine
 10
888.2051268134567
 20
337.565105280011
 30
0.0
 11
889.7051268134566
 21
337.56510528001
 31
0.0
  0
LINE
  5
22C5
330
2
100
AcDbEntity
  8
0
100
AcDbLine
 10
989.7051268134575
 20
337.5651052795835
 30
0.0
 11
991.2051268134566
 21
337.565105280011
 31
0.0
  0
CIRCLE
  5
22C6
330
2
100
AcDbEntity
  8
0
100
AcDbCircle
 10
939.7051268134566
 20
337.565105280011
 30
0.0
 40
45.24999999999969
  0
CIRCLE
  5
22C7
330
2
100
AcDbEntity
  8
0
100
AcDbCircle
 10
939.7051268134566
 20
337.565105280011
 30
0.0
 40
46.25000000000483
  0
ARC
  5
22C8
330
2
100
AcDbEntity
  8
0
100
AcDbCircle
 10
939.7051268134566
 20
337.565105280011
 30
0.0
 40
51.00000000000182
100
AcDbArc
 50
351.5815174228202
 51
8.418482577153275
  0
ARC
  5
22C9
330
2
100
AcDbEntity
  8
0
100
AcDbCircle
 10
939.7051268134566
 20
337.565105280011
 30
0.0
 40
51.00000000000182
100
AcDbArc
 50
78.8523089815563
 51
101.1476910177001
  0
ARC
  5
22CA
330
2
100
AcDbEntity
  8
0
100
AcDbCircle
 10
939.7051268144352
 20
337.565105280011
 30
0.0
 40
51.00000000000182
100
AcDbArc
 50
171.5815174267054
 51
188.4184825733078
  0
ARC
  5
22CB
330
2
100
AcDbEntity
  8
0
100
AcDbCircle
 10
887.2761934525062
 20
329.8057917452685
 30
0.0
 40
2.0
100
AcDbArc
 50
0.5617053325707366
 51
8.418482573307839
  0
ARC
  5
22CC
330
2
100
AcDbEntity
  8
0
100
AcDbCircle
 10
887.2761934525044
 20
345.3244188147375
 30
0.0
 40
2.0
100
AcDbArc
 50
351.5815174267184
 51
359.4382946674292
  0
ARC
  5
22CD
330
2
100
AcDbEntity
  8
0
100
AcDbCircle
 10
939.7051268134566
 20
337.565105280011
 30
0.0
 40
51.00000000000182
100
AcDbArc
 50
258.8523089815563
 51
281.1476910184436
  0
LINE
  5
22CE
330
2
100
AcDbEntity
  8
0
100
AcDbLine
 10
989.9595552003559
 20
363.1141225322163
 30
0.0
 11
990.1341562848131
 21
345.3048119173947
 31
0.0
  0
ARC
  5
22CF
330
2
100
AcDbEntity
  8
0
100
AcDbCircle
 10
984.9597954752301
 20
363.0651052800096
 30
0.0
 40
5.0
100
AcDbArc
 50
0.5617053325707366
 51
21.06305256739224
  0
LINE
  5
22D0
330
2
100
AcDbEntity
  8
0
100
AcDbLine
 10
989.959555200355
 20
312.0160880280493
 30
0.0
 11
990.1341562848095
 21
329.8253986426113
 31
0.0
  0
ARC
  5
22D1
330
2
100
AcDbEntity
  8
0
100
AcDbCircle
 10
984.9597954752292
 20
312.0651052802561
 30
0.0
 40
5.0
100
AcDbArc
 50
338.9369474327052
 51
359.4382946674422
  0
ARC
  5
22D2
330
2
100
AcDbEntity
  8
0
100
AcDbCircle
 10
894.4504581521735
 20
363.0651052800096
 30
0.0
 40
5.0
100
AcDbArc
 50
158.9369474248211
 51
179.4382946674292
  0
LINE
  5
22D3
330
2
100
AcDbEntity
  8
0
100
AcDbLine
 10
889.4506984270476
 20
363.1141225322163
 30
0.0
 11
889.2760973425895
 21
345.3048119173951
 31
0.0
  0
LINE
  5
22D4
330
2
100
AcDbEntity
  8
0
100
AcDbLine
 10
889.4506984270485
 20
312.0160880280493
 30
0.0
 11
889.2760973425577
 21
329.8253986461515
 31
0.0
  0
ARC
  5
22D5
330
2
100
AcDbEntity
  8
0
100
AcDbCircle
 10
894.4504581521744
 20
312.0651052802561
 30
0.0
 40
5.0
100
AcDbArc
 50
180.5617053325707
 51
201.0630525751262
  0
ARC
  5
22D6
330
2
100
AcDbEntity
  8
HIDS
  6
SEKKEI_H
100
AcDbCircle
 10
965.2916404979771
 20
382.5651052800118
 30
0.0
 40
5.0
100
AcDbArc
 50
0.9999999999757129
 51
90.0
  0
ARC
  5
22D7
330
2
100
AcDbEntity
  8
HIDS
  6
SEKKEI_H
100
AcDbCircle
 10
914.1186131289398
 20
382.5651052800118
 30
0.0
 40
5.0
100
AcDbArc
 50
90.0
 51
179.0000000000242
  0
ARC
  5
22D8
330
2
100
AcDbEntity
  8
HIDS
  6
SEKKEI_H
100
AcDbCircle
 10
965.2916404979771
 20
292.5651052800119
 30
0.0
 40
5.0
100
AcDbArc
 50
270.0
 51
359.0000000000112
  0
ARC
  5
22D9
330
2
100
AcDbEntity
  8
HIDS
  6
SEKKEI_H
100
AcDbCircle
 10
939.705126813091
 20
337.5651052800118
 30
0.0
 40
51.00000000000182
100
AcDbArc
 50
39.34056383566946
 51
50.50150115181341
  0
ARC
  5
22DA
330
2
100
AcDbEntity
  8
HIDS
  6
SEKKEI_H
100
AcDbCircle
 10
939.705126813091
 20
337.5651052800118
 30
0.0
 40
51.00000000000182
100
AcDbArc
 50
129.4984988475967
 51
140.6594361640184
  0
ARC
  5
22DB
330
2
100
AcDbEntity
  8
HIDS
  6
SEKKEI_H
100
AcDbCircle
 10
939.705126813091
 20
337.5651052800118
 30
0.0
 40
51.00000000000182
100
AcDbArc
 50
219.3405638357956
 51
230.5015011524033
  0
ARC
  5
22DC
330
2
100
AcDbEntity
  8
HIDS
  6
SEKKEI_H
100
AcDbCircle
 10
939.705126813091
 20
337.5651052800118
 30
0.0
 40
51.00000000000182
100
AcDbArc
 50
309.4984988481865
 51
320.6594361645161
  0
LINE
  5
22DD
330
2
100
AcDbEntity
  8
HIDS
  6
SEKKEI_H
100
AcDbLine
 10
925.2796153819703
 20
377.0100621176697
 30
0.0
 11
925.4638543456842
 21
387.5651052800091
 31
0.0
  0
ARC
  5
22DE
330
2
100
AcDbEntity
  8
HIDS
  6
SEKKEI_H
100
AcDbCircle
 10
911.1705213395783
 20
385.5651052799937
 30
0.0
 40
2.0
100
AcDbArc
 50
90.0
 51
178.99999999992
  0
LINE
  5
22DF
330
2
100
AcDbEntity
  8
HIDS
  6
SEKKEI_H
100
AcDbLine
 10
909.0620119341204
 20
379.3660593394067
 30
0.0
 11
909.170825949279
 21
385.6000100928683
 31
0.0
  0
ARC
  5
22E0
330
2
100
AcDbEntity
  8
HIDS
  6
SEKKEI_H
100
AcDbCircle
 10
975.3474801683426
 20
295.6768891888547
 30
0.0
 40
5.0
100
AcDbArc
 50
130.3941985232528
 51
178.9999999999982
  0
ARC
  5
22E1
330
2
100
AcDbEntity
  8
HIDS
  6
SEKKEI_H
100
AcDbCircle
 10
904.0627734583379
 20
379.4533213715919
 30
0.0
 40
5.0
100
AcDbArc
 50
310.3941985225024
 51
358.9999999999982
  0
ARC
  5
22E2
330
2
100
AcDbEntity
  8
HIDS
  6
SEKKEI_H
100
AcDbCircle
 10
968.2397322870949
 20
289.5651052800118
 30
0.0
 40
2.0
100
AcDbArc
 50
270.0
 51
358.99999999992
  0
LINE
  5
22E3
330
2
100
AcDbEntity
  8
HIDS
  6
SEKKEI_H
100
AcDbLine
 10
970.34824169256
 20
295.7641512210381
 30
0.0
 11
970.2394276773942
 21
289.5302004671372
 31
0.0
  0
LINE
  5
22E4
330
2
100
AcDbEntity
  8
HIDS
  6
SEKKEI_H
100
AcDbLine
 10
911.1705213395783
 20
387.5651052800118
 30
0.0
 11
939.705126813091
 21
387.5651052800118
 31
0.0
  0
LINE
  5
22E5
330
2
100
AcDbEntity
  8
HIDS
  6
SEKKEI_H
100
AcDbLine
 10
939.705126813091
 20
287.5651052800118
 30
0.0
 11
968.2397322870949
 21
287.5651052800118
 31
0.0
  0
LINE
  5
22E6
330
2
100
AcDbEntity
  8
HIDS
  6
SEKKEI_H
100
AcDbLine
 10
914.236212313107
 20
370.961727776284
 30
0.0
 11
913.9463992807542
 21
387.5651052800091
 31
0.0
  0
LINE
  5
22E7
330
2
100
AcDbEntity
  8
HIDS
  6
SEKKEI_H
100
AcDbLine
 10
968.2397322873386
 20
387.5651052800118
 30
0.0
 11
939.705126813825
 21
387.5651052800118
 31
0.0
  0
LINE
  5
22E8
330
2
100
AcDbEntity
  8
HIDS
  6
SEKKEI_H
100
AcDbLine
 10
966.2743377610924
 20
387.5651052800091
 30
0.0
 11
949.9520775790617
 21
387.5651052800091
 31
0.0
  0
ARC
  5
22E9
330
2
100
AcDbEntity
  8
HIDS
  6
SEKKEI_H
100
AcDbCircle
 10
975.324375007028
 20
380.7770151903443
 30
0.0
 40
5.000000000000001
100
AcDbArc
 50
180.9999999999887
 51
230.5015011518134
  0
ARC
  5
22EA
330
2
100
AcDbEntity
  8
HIDS
  6
SEKKEI_H
100
AcDbCircle
 10
983.0150563904982
 20
373.065105280011
 30
0.0
 40
5.000000000000001
100
AcDbArc
 50
219.340563835712
 51
270.0
  0
LINE
  5
22EB
330
2
100
AcDbEntity
  8
HIDS
  6
SEKKEI_H
100
AcDbLine
 10
983.0150563904982
 20
368.0651052800105
 30
0.0
 11
984.9597954748643
 21
368.0651052800105
 31
0.0
  0
LINE
  5
22EC
330
2
100
AcDbEntity
  8
HIDS
  6
SEKKEI_H
100
AcDbLine
 10
970.3251365312455
 20
380.6897531581591
 30
0.0
 11
970.2908789737596
 21
382.6523673121966
 31
0.0
  0
ARC
  5
22ED
330
2
100
AcDbEntity
  8
HIDS
  6
SEKKEI_H
100
AcDbCircle
 10
984.9597954748643
 20
363.0651052800105
 30
0.0
 40
5.0
100
AcDbArc
 50
21.06305256739224
 51
90.0
  0
LINE
  5
22EE
330
2
100
AcDbEntity
  8
HIDS
  6
SEKKEI_H
100
AcDbLine
 10
913.1359158658225
 20
387.5651052800091
 30
0.0
 11
929.4581760478534
 21
387.5651052800091
 31
0.0
  0
ARC
  5
22EF
330
2
100
AcDbEntity
  8
HIDS
  6
SEKKEI_H
100
AcDbCircle
 10
904.0858786198871
 20
380.7770151903443
 30
0.0
 40
5.000000000000001
100
AcDbArc
 50
309.4984988482055
 51
359.0000000000112
  0
LINE
  5
22F0
330
2
100
AcDbEntity
  8
HIDS
  6
SEKKEI_H
100
AcDbLine
 10
909.0851170956696
 20
380.6897531581591
 30
0.0
 11
909.1193746531555
 21
382.6523673121966
 31
0.0
  0
ARC
  5
22F1
330
2
100
AcDbEntity
  8
HIDS
  6
SEKKEI_H
100
AcDbCircle
 10
983.0150563904982
 20
302.0651052802565
 30
0.0
 40
5.000000000000001
100
AcDbArc
 50
90.0
 51
140.6594361642878
  0
LINE
  5
22F2
330
2
100
AcDbEntity
  8
HIDS
  6
SEKKEI_H
100
AcDbLine
 10
983.0150563904982
 20
307.0651052802565
 30
0.0
 11
984.9597954748634
 21
307.065105280257
 31
0.0
  0
ARC
  5
22F3
330
2
100
AcDbEntity
  8
HIDS
  6
SEKKEI_H
100
AcDbCircle
 10
984.9597954748634
 20
312.0651052802569
 30
0.0
 40
5.0
100
AcDbArc
 50
270.0
 51
338.9369474327052
  0
ARC
  5
22F4
330
2
100
AcDbEntity
  8
HIDS
  6
SEKKEI_H
100
AcDbCircle
 10
896.395197236173
 20
373.065105280011
 30
0.0
 40
5.000000000000001
100
AcDbArc
 50
270.0
 51
320.6594361642878
  0
LINE
  5
22F5
330
2
100
AcDbEntity
  8
HIDS
  6
SEKKEI_H
100
AcDbLine
 10
896.395197236173
 20
368.0651052800105
 30
0.0
 11
894.4504581518078
 21
368.0651052800105
 31
0.0
  0
ARC
  5
22F6
330
2
100
AcDbEntity
  8
HIDS
  6
SEKKEI_H
100
AcDbCircle
 10
894.4504581518078
 20
363.0651052800105
 30
0.0
 40
5.0
100
AcDbArc
 50
90.0
 51
158.9369474248211
  0
ARC
  5
22F7
330
2
100
AcDbEntity
  8
HIDS
  6
SEKKEI_H
100
AcDbCircle
 10
896.395197236173
 20
302.0651052802565
 30
0.0
 40
5.000000000000001
100
AcDbArc
 50
39.3405638357121
 51
90.0
  0
LINE
  5
22F8
330
2
100
AcDbEntity
  8
HIDS
  6
SEKKEI_H
100
AcDbLine
 10
896.395197236173
 20
307.0651052802565
 30
0.0
 11
894.4504581518087
 21
307.065105280257
 31
0.0
  0
ARC
  5
22F9
330
2
100
AcDbEntity
  8
HIDS
  6
SEKKEI_H
100
AcDbCircle
 10
894.4504581518087
 20
312.0651052802569
 30
0.0
 40
5.0
100
AcDbArc
 50
201.0630525751262
 51
270.0
  0
LINE
  5
22FA
330
2
100
AcDbEntity
  8
HIDS
  6
SEKKEI_H
100
AcDbLine
 10
966.2743377610924
 20
287.5651052799959
 30
0.0
 11
949.9520775790617
 21
287.5651052799959
 31
0.0
  0
ARC
  5
22FB
330
2
100
AcDbEntity
  8
HIDS
  6
SEKKEI_H
100
AcDbCircle
 10
975.324375007028
 20
294.3531953696608
 30
0.0
 40
5.000000000000001
100
AcDbArc
 50
129.4984988481865
 51
179.0000000000242
  0
LINE
  5
22FC
330
2
100
AcDbEntity
  8
HIDS
  6
SEKKEI_H
100
AcDbLine
 10
970.3251365312455
 20
294.4404574018459
 30
0.0
 11
970.2908789737588
 21
292.4778432478271
 31
0.0
  0
LINE
  5
22FD
330
2
100
AcDbEntity
  8
HIDS
  6
SEKKEI_H
100
AcDbLine
 10
913.1359158658236
 20
287.5651052799959
 30
0.0
 11
929.4581760478534
 21
287.5651052799959
 31
0.0
  0
ARC
  5
22FE
330
2
100
AcDbEntity
  8
HIDS
  6
SEKKEI_H
100
AcDbCircle
 10
904.0858786198871
 20
294.3531953696608
 30
0.0
 40
5.000000000000001
100
AcDbArc
 50
0.9999999999757129
 51
50.50150115179445
  0
LINE
  5
22FF
330
2
100
AcDbEntity
  8
HIDS
  6
SEKKEI_H
100
AcDbLine
 10
909.0851170956696
 20
294.4404574018459
 30
0.0
 11
909.1193746531573
 21
292.4778432478248
 31
0.0
  0
ARC
  5
2300
330
2
100
AcDbEntity
  8
HIDS
  6
SEKKEI_H
100
AcDbCircle
 10
914.1186131289398
 20
292.5651052800109
 30
0.0
 40
5.0
100
AcDbArc
 50
181.0000000000017
 51
270.0
  0
ARC
  5
2301
330
2
100
AcDbEntity
  8
0
100
AcDbCircle
 10
992.1340601741306
 20
345.3244188182781
 30
0.0
 40
2.0
100
AcDbArc
 50
180.5617053325707
 51
188.4184825771533
  0
ARC
  5
2302
330
2
100
AcDbEntity
  8
0
100
AcDbCircle
 10
992.1340601741288
 20
329.8057917417297
 30
0.0
 40
2.0
100
AcDbArc
 50
171.5815174228203
 51
179.4382946674292
  0
ARC
  5
2303
330
2
100
AcDbEntity
  8
0
100
AcDbCircle
 10
949.9520775790481
 20
285.5651052801937
 30
0.0
 40
2.0
100
AcDbArc
 50
90.0
 51
101.1476910184436
  0
ARC
  5
2304
330
2
100
AcDbEntity
  8
0
100
AcDbCircle
 10
929.4581760471348
 20
285.5651052801937
 30
0.0
 40
2.0
100
AcDbArc
 50
78.8523089815563
 51
90.0
  0
ARC
  5
2305
330
2
100
AcDbEntity
  8
0
100
AcDbCircle
 10
949.9520775790617
 20
389.5651052801919
 30
0.0
 40
2.0
100
AcDbArc
 50
258.8523089815032
 51
270.0
  0
ARC
  5
2306
330
2
100
AcDbEntity
  8
0
100
AcDbCircle
 10
929.4581760478534
 20
389.5651052801919
 30
0.0
 40
2.0
100
AcDbArc
 50
270.0
 51
281.1476910184968
  0
LINE
  5
2307
330
2
100
AcDbEntity
  8
0
100
AcDbLine
 10
663.2709775952443
 20
378.3151052800086
 30
0.0
 11
693.7376777851036
 21
378.3151052800108
 31
0.0
  0
LINE
  5
2308
330
2
100
AcDbEntity
  8
0
100
AcDbLine
 10
713.0209583471764
 20
391.5651052800104
 30
0.0
 11
703.0209583471765
 21
391.5651052800104
 31
0.0
  0
ARC
  5
2309
330
2
100
AcDbEntity
  8
0
100
AcDbCircle
 10
703.0209583471765
 20
387.5651052800104
 30
0.0
 40
4.0
100
AcDbArc
 50
90.0
 51
180.0
  0
ARC
  5
230A
330
2
100
AcDbEntity
  8
0
100
AcDbCircle
 10
713.0209583471764
 20
387.5651052800104
 30
0.0
 40
4.0
100
AcDbArc
 50
0.0
 51
90.0
  0
LINE
  5
230B
330
2
100
AcDbEntity
  8
0
100
AcDbLine
 10
914.7051268132202
 20
391.5651052800109
 30
0.0
 11
924.7051268132201
 21
391.5651052800109
 31
0.0
  0
ARC
  5
230C
330
2
100
AcDbEntity
  8
0
100
AcDbCircle
 10
924.7051268132201
 20
387.565105280011
 30
0.0
 40
4.0
100
AcDbArc
 50
0.0
 51
90.0
  0
ARC
  5
230D
330
2
100
AcDbEntity
  8
0
100
AcDbCircle
 10
914.7051268132202
 20
387.565105280011
 30
0.0
 40
4.0
100
AcDbArc
 50
90.0
 51
180.0
  0
LINE
  5
230E
330
2
100
AcDbEntity
  8
0
100
AcDbLine
 10
696.5209583471764
 20
360.8594488724028
 30
0.0
 11
696.5209583471764
 21
337.5651052800108
 31
0.0
  0
LINE
  5
230F
330
2
100
AcDbEntity
  8
0
100
AcDbLine
 10
718.5209583471767
 20
337.5651052800108
 30
0.0
 11
718.520958347176
 21
364.5651052800131
 31
0.0
  0
LINE
  5
2310
330
2
100
AcDbEntity
  8
0
100
AcDbLine
 10
716.5209583471766
 20
337.5651052800108
 30
0.0
 11
716.5209583471765
 21
348.5651052800131
 31
0.0
  0
LINE
  5
2311
330
2
100
AcDbEntity
  8
0
100
AcDbLine
 10
698.5209583471764
 20
361.5882290864076
 30
0.0
 11
698.5209583471767
 21
337.5651052800108
 31
0.0
  0
LINE
  5
2312
330
2
100
AcDbEntity
  8
0
100
AcDbLine
 10
655.0209583471769
 20
337.5651052800104
 30
0.0
 11
655.0209583471767
 21
349.0651052800117
 31
0.0
  0
LINE
  5
2313
330
2
100
AcDbEntity
  8
0
 48
0.3
100
AcDbLine
 10
675.0209583471693
 20
349.0651052800117
 30
0.0
 11
655.020958347169
 21
349.0651052800117
 31
0.0
  0
LINE
  5
2314
330
2
100
AcDbEntity
  8
0
 48
0.3
100
AcDbLine
 10
675.0209583471693
 20
348.5651052800122
 30
0.0
 11
696.5209583471687
 21
348.5651052800122
 31
0.0
  0
LINE
  5
2315
330
2
100
AcDbEntity
  8
0
100
AcDbLine
 10
675.0209583471773
 20
337.5651052800104
 30
0.0
 11
675.0209583471772
 21
349.0651052800117
 31
0.0
  0
LINE
  5
2316
330
2
100
AcDbEntity
  8
0
100
AcDbLine
 10
702.8661709598118
 20
364.5651052800126
 30
0.0
 11
718.520958347176
 21
364.5651052800131
 31
0.0
  0
LINE
  5
2317
330
2
100
AcDbEntity
  8
0
 48
0.3
100
AcDbLine
 10
698.5209583471687
 20
348.5651052800126
 30
0.0
 11
716.5209583471687
 21
348.5651052800131
 31
0.0
  0
LINE
  5
2318
330
2
100
AcDbEntity
  8
0
 48
0.3
100
AcDbLine
 10
648.9587805206774
 20
337.5651052800108
 30
0.0
 11
655.020958347169
 21
348.0651052800117
 31
0.0
  0
LINE
  5
2319
330
2
100
AcDbEntity
  8
0
100
AcDbLine
 10
716.5209583471689
 20
348.565105280009
 30
0.0
 11
718.5209583471691
 21
349.7198058183881
 31
0.0
  0
LINE
  5
231A
330
2
100
AcDbEntity
  8
0
100
AcDbLine
 10
718.5209583471796
 20
382.8151052800113
 30
0.0
 11
719.5209583471816
 21
383.8151052800144
 31
0.0
  0
ARC
  5
231B
330
2
100
AcDbEntity
  8
0
100
AcDbCircle
 10
717.5209583471824
 20
382.2749540563118
 30
0.0
 40
1.0
100
AcDbArc
 50
274.9999999999997
 51
0.0
  0
LINE
  5
231C
330
2
100
AcDbEntity
  8
0
100
AcDbLine
 10
719.5209583471778
 20
385.0651052800108
 30
0.0
 11
719.5209583471778
 21
337.5651052800108
 31
0.0
  0
LINE
  5
231D
330
2
100
AcDbEntity
  8
0
100
AcDbLine
 10
718.5209583471796
 20
382.8151052800113
 30
0.0
 11
718.5209583471796
 21
364.5651052800131
 31
0.0
  0
LINE
  5
231E
330
2
100
AcDbEntity
  8
0
100
AcDbLine
 10
713.622786535289
 20
380.9300883767511
 30
0.0
 11
717.60811408993
 21
381.2787593582198
 31
0.0
  0
LINE
  5
231F
330
2
100
AcDbEntity
  8
CENTER
100
AcDbLine
 10
919.7051268134714
 20
314.6905191918382
 30
0.0
 11
919.7051268132202
 21
396.5651052799937
 31
0.0
  0
LINE
  5
2320
330
2
100
AcDbEntity
  8
HIDS
  6
SEKKEI_H
100
AcDbLine
 10
914.6252544054968
 20
347.5651052800259
 30
0.0
 11
927.4551268134644
 21
347.5651052800255
 31
0.0
  0
LINE
  5
2321
330
2
100
AcDbEntity
  8
HIDS
  6
SEKKEI_H
100
AcDbLine
 10
927.4551268134645
 20
347.5651052800255
 30
0.0
 11
927.4551268134644
 21
361.6262253703259
 31
0.0
  0
LINE
  5
2322
330
2
100
AcDbEntity
  8
HIDS
  6
SEKKEI_H
100
AcDbLine
 10
924.2051268134643
 20
338.3151052800227
 30
0.0
 11
924.2051268134643
 21
347.5651052800255
 31
0.0
  0
LINE
  5
2323
330
2
100
AcDbEntity
  8
HIDS
  6
SEKKEI_H
100
AcDbLine
 10
915.2051268134647
 20
338.3151052800227
 30
0.0
 11
915.2051268134647
 21
347.5651052800259
 31
0.0
  0
LINE
  5
2324
330
2
100
AcDbEntity
  8
HIDS
  6
SEKKEI_H
100
AcDbLine
 10
916.3051268134642
 20
324.0951386876365
 30
0.0
 11
916.3051268134646
 21
336.8151052800228
 31
0.0
  0
LINE
  5
2325
330
2
100
AcDbEntity
  8
HIDS
  6
SEKKEI_H
100
AcDbLine
 10
915.7051268134644
 20
324.5651052800255
 30
0.0
 11
915.7051268134644
 21
336.8151052800232
 31
0.0
  0
LINE
  5
2326
330
2
100
AcDbEntity
  8
HIDS
  6
SEKKEI_H
100
AcDbLine
 10
923.7051268134647
 20
315.8165421090909
 30
0.0
 11
923.7051268134646
 21
336.8151052800232
 31
0.0
  0
LINE
  5
2327
330
2
100
AcDbEntity
  8
HIDS
  6
SEKKEI_H
100
AcDbLine
 10
923.1051268134645
 20
316.2709746332927
 30
0.0
 11
923.1051268134645
 21
336.8151052800232
 31
0.0
  0
LINE
  5
2328
330
2
100
AcDbEntity
  8
0
100
AcDbLine
 10
912.7155454902947
 20
336.8151052800228
 30
0.0
 11
928.7307247796338
 21
336.8151052800228
 31
0.0
  0
LINE
  5
2329
330
2
100
AcDbEntity
  8
0
100
AcDbLine
 10
950.6795288472794
 20
336.8151052800228
 30
0.0
 11
965.7138468595123
 21
336.8151052800228
 31
0.0
  0
LINE
  5
232A
330
2
100
AcDbEntity
  8
0
100
AcDbLine
 10
912.7155454902947
 20
338.3151052800227
 30
0.0
 11
928.7307247796354
 21
338.3151052800227
 31
0.0
  0
LINE
  5
232B
330
2
100
AcDbEntity
  8
0
100
AcDbLine
 10
950.6795288472778
 20
338.3151052800232
 30
0.0
 11
965.7138468595123
 21
338.3151052800227
 31
0.0
  0
LINE
  5
232C
330
2
100
AcDbEntity
  8
0
100
AcDbLine
 10
965.7138468595123
 20
338.3151052800227
 30
0.0
 11
965.7138468595123
 21
336.8151052800228
 31
0.0
  0
LINE
  5
232D
330
2
100
AcDbEntity
  8
HIDS
  6
SEKKEI_H
100
AcDbLine
 10
926.2051268134714
 20
357.0651052800259
 30
0.0
 11
921.0302774164848
 21
357.0651052800255
 31
0.0
  0
LINE
  5
232E
330
2
100
AcDbEntity
  8
HIDS
  6
SEKKEI_H
100
AcDbLine
 10
925.3391014096855
 20
357.5651052800259
 30
0.0
 11
921.566769666251
 21
357.5651052800255
 31
0.0
  0
LINE
  5
232F
330
2
100
AcDbEntity
  8
HIDS
  6
SEKKEI_H
100
AcDbLine
 10
926.9551268134714
 20
349.5651052800259
 30
0.0
 11
915.5183535685702
 21
349.5651052800255
 31
0.0
  0
LINE
  5
2330
330
2
100
AcDbEntity
  8
HIDS
  6
SEKKEI_H
100
AcDbLine
 10
922.5051268134784
 20
324.5651052800255
 30
0.0
 11
916.9051268134644
 21
324.5651052800255
 31
0.0
  0
LINE
  5
2331
330
2
100
AcDbEntity
  8
HIDS
  6
SEKKEI_H
100
AcDbLine
 10
923.7051268134647
 20
325.7651052800258
 30
0.0
 11
915.7051268134644
 21
325.7651052800258
 31
0.0
  0
LINE
  5
2332
330
2
100
AcDbEntity
  8
0
 48
0.3
100
AcDbLine
 10
912.4551268134714
 20
349.5651052800255
 30
0.0
 11
912.4551268134714
 21
347.5651052800255
 31
0.0
  0
LINE
  5
2333
330
2
100
AcDbEntity
  8
0
 48
0.3
100
AcDbLine
 10
913.2051268134715
 20
357.0651052800255
 30
0.0
 11
914.071152217256
 21
357.5651052800255
 31
0.0
  0
LINE
  5
2334
330
2
100
AcDbEntity
  8
0
 48
0.3
100
AcDbLine
 10
913.2051268134715
 20
357.0651052800255
 30
0.0
 11
913.2051268134715
 21
349.5651052800255
 31
0.0
  0
LINE
  5
2335
330
2
100
AcDbEntity
  8
HIDS
  6
SEKKEI_H
100
AcDbLine
 10
926.9551268134714
 20
349.5651052800259
 30
0.0
 11
926.9551268134714
 21
347.5651052800259
 31
0.0
  0
LINE
  5
2336
330
2
100
AcDbEntity
  8
HIDS
  6
SEKKEI_H
100
AcDbLine
 10
926.205126813471
 20
357.0651052800251
 30
0.0
 11
925.3391014096866
 21
357.565105280025
 31
0.0
  0
LINE
  5
2337
330
2
100
AcDbEntity
  8
HIDS
  6
SEKKEI_H
100
AcDbLine
 10
926.2051268134714
 20
357.0651052800251
 30
0.0
 11
926.2051268134714
 21
349.5651052800259
 31
0.0
  0
LINE
  5
2338
330
2
100
AcDbEntity
  8
HIDS
  6
SEKKEI_H
100
AcDbLine
 10
927.4051268134714
 20
347.5651052800259
 30
0.0
 11
914.6252544054968
 21
347.5651052800255
 31
0.0
  0
LINE
  5
2339
330
2
100
AcDbEntity
  8
HOJO
100
AcDbLine
 10
916.3051268134646
 20
336.8151052800228
 30
0.0
 11
916.3051268134646
 21
338.3151052800227
 31
0.0
  0
LINE
  5
233A
330
2
100
AcDbEntity
  8
0
100
AcDbLine
 10
915.7051268134644
 20
336.8151052800232
 30
0.0
 11
915.7051268134644
 21
338.3151052800227
 31
0.0
  0
LINE
  5
233B
330
2
100
AcDbEntity
  8
HOJO
100
AcDbLine
 10
923.1051268134645
 20
336.8151052800232
 30
0.0
 11
923.1051268134645
 21
338.3151052800227
 31
0.0
  0
LINE
  5
233C
330
2
100
AcDbEntity
  8
0
100
AcDbLine
 10
923.7051268134646
 20
336.8151052800232
 30
0.0
 11
923.7051268134646
 21
338.3151052800227
 31
0.0
  0
LINE
  5
233D
330
2
100
AcDbEntity
  8
HIDS
  6
SEKKEI_H
100
AcDbLine
 10
923.7051268134646
 20
338.3151052800227
 30
0.0
 11
923.7051268134646
 21
347.5651052800255
 31
0.0
  0
LINE
  5
233E
330
2
100
AcDbEntity
  8
HIDS
  6
SEKKEI_H
100
AcDbLine
 10
923.1051268134645
 20
338.3151052800227
 30
0.0
 11
923.1051268134645
 21
347.5651052800255
 31
0.0
  0
LINE
  5
233F
330
2
100
AcDbEntity
  8
HIDS
  6
SEKKEI_H
100
AcDbLine
 10
916.3051268134646
 20
338.3151052800227
 30
0.0
 11
916.3051268134646
 21
347.5651052800255
 31
0.0
  0
LINE
  5
2340
330
2
100
AcDbEntity
  8
HIDS
  6
SEKKEI_H
100
AcDbLine
 10
915.7051268134644
 20
338.3151052800227
 30
0.0
 11
915.7051268134644
 21
347.5651052800259
 31
0.0
  0
LINE
  5
2341
330
2
100
AcDbEntity
  8
0
100
AcDbLine
 10
921.566769666251
 20
357.5651052800255
 30
0.0
 11
914.071152217256
 21
357.5651052800255
 31
0.0
  0
LINE
  5
2342
330
2
100
AcDbEntity
  8
0
100
AcDbLine
 10
921.0302774164848
 20
357.0651052800255
 30
0.0
 11
913.2051268134715
 21
357.0651052800255
 31
0.0
  0
LINE
  5
2343
330
2
100
AcDbEntity
  8
0
100
AcDbLine
 10
915.5183535685702
 20
349.5651052800255
 30
0.0
 11
912.4551268134714
 21
349.5651052800255
 31
0.0
  0
LINE
  5
2344
330
2
100
AcDbEntity
  8
0
100
AcDbLine
 10
914.6252544054968
 20
347.5651052800255
 30
0.0
 11
912.4551268134714
 21
347.5651052800255
 31
0.0
  0
LINE
  5
2345
330
2
100
AcDbEntity
  8
HIDS
  6
SEKKEI_H
100
AcDbLine
 10
915.7051268134644
 20
325.7651052800258
 30
0.0
 11
916.9051268134644
 21
324.5651052800255
 31
0.0
  0
LINE
  5
2346
330
2
100
AcDbEntity
  8
HIDS
  6
SEKKEI_H
100
AcDbLine
 10
923.7051268134784
 20
325.7651052800258
 30
0.0
 11
922.5051268134784
 21
324.5651052800255
 31
0.0
  0
CIRCLE
  5
2348
330
2
100
AcDbEntity
  8
0
100
AcDbCircle
 10
939.7051268134566
 20
337.565105280011
 30
0.0
 40
26.99999999999249
  0
LINE
  5
2349
330
2
100
AcDbEntity
  8
0
100
AcDbLine
 10
655.7709775952403
 20
289.3886984086944
 30
0.0
 11
657.2709775952407
 21
289.3886984086944
 31
0.0
  0
LINE
  5
234A
330
2
100
AcDbEntity
  8
0
100
AcDbLine
 10
655.7709775952403
 20
300.8886984086944
 30
0.0
 11
657.270977595241
 21
300.8886984086944
 31
0.0
  0
LINE
  5
234B
330
2
100
AcDbEntity
  8
0
100
AcDbLine
 10
662.8709775952406
 20
290.1386984086944
 30
0.0
 11
663.2709775952402
 21
290.8315187317217
 31
0.0
  0
LINE
  5
234C
330
2
100
AcDbEntity
  8
0
100
AcDbLine
 10
657.2709775952407
 20
289.3886984086944
 30
0.0
 11
657.270977595241
 21
300.8886984086944
 31
0.0
  0
LINE
  5
234D
330
2
100
AcDbEntity
  8
0
100
AcDbLine
 10
662.8709775952406
 20
290.1386984086944
 30
0.0
 11
662.8709775952406
 21
300.1386984086944
 31
0.0
  0
LINE
  5
234E
330
2
100
AcDbEntity
  8
0
100
AcDbLine
 10
657.2709775952407
 20
290.1386984086944
 30
0.0
 11
662.8709775952406
 21
290.1386984086944
 31
0.0
  0
LINE
  5
234F
330
2
100
AcDbEntity
  8
0
100
AcDbLine
 10
657.270977595241
 20
300.1386984086944
 30
0.0
 11
662.8709775952406
 21
300.1386984086944
 31
0.0
  0
LINE
  5
2350
330
2
100
AcDbEntity
  8
0
100
AcDbLine
 10
662.8709775952406
 20
300.1386984086944
 30
0.0
 11
663.2709775952402
 21
299.4458780856671
 31
0.0
  0
LINE
  5
2351
330
2
100
AcDbEntity
  8
0
100
AcDbLine
 10
663.2709775952402
 20
290.8315187317217
 30
0.0
 11
663.2709775952402
 21
299.4458780856671
 31
0.0
  0
LINE
  5
2352
330
2
100
AcDbEntity
  8
0
 48
12.0
100
AcDbLine
 10
655.7709775952403
 20
300.8886984086944
 30
0.0
 11
655.7709775952403
 21
289.3886984086944
 31
0.0
  0
LINE
  5
2353
330
2
100
AcDbEntity
  8
0
100
AcDbLine
 10
655.7709775952444
 20
374.2415121510826
 30
0.0
 11
657.2709775952448
 21
374.2415121510826
 31
0.0
  0
LINE
  5
2354
330
2
100
AcDbEntity
  8
0
100
AcDbLine
 10
655.7709775952444
 20
385.7415121510826
 30
0.0
 11
657.2709775952453
 21
385.7415121510826
 31
0.0
  0
LINE
  5
2355
330
2
100
AcDbEntity
  8
0
100
AcDbLine
 10
662.8709775952447
 20
374.9915121510826
 30
0.0
 11
663.2709775952443
 21
375.6843324741099
 31
0.0
  0
LINE
  5
2356
330
2
100
AcDbEntity
  8
0
100
AcDbLine
 10
657.2709775952451
 20
374.2415121510826
 30
0.0
 11
657.2709775952453
 21
385.7415121510826
 31
0.0
  0
LINE
  5
2357
330
2
100
AcDbEntity
  8
0
100
AcDbLine
 10
662.8709775952447
 20
374.9915121510826
 30
0.0
 11
662.8709775952447
 21
384.9915121510826
 31
0.0
  0
LINE
  5
2358
330
2
100
AcDbEntity
  8
0
100
AcDbLine
 10
657.2709775952448
 20
374.9915121510826
 30
0.0
 11
662.8709775952447
 21
374.9915121510826
 31
0.0
  0
LINE
  5
2359
330
2
100
AcDbEntity
  8
0
100
AcDbLine
 10
657.2709775952453
 20
384.9915121510826
 30
0.0
 11
662.8709775952447
 21
384.9915121510826
 31
0.0
  0
LINE
  5
235A
330
2
100
AcDbEntity
  8
0
100
AcDbLine
 10
662.8709775952447
 20
384.9915121510826
 30
0.0
 11
663.2709775952443
 21
384.2986918280553
 31
0.0
  0
LINE
  5
235B
330
2
100
AcDbEntity
  8
0
100
AcDbLine
 10
663.2709775952443
 20
375.6843324741099
 30
0.0
 11
663.2709775952443
 21
384.2986918280553
 31
0.0
  0
LINE
  5
235C
330
2
100
AcDbEntity
  8
0
 48
12.0
100
AcDbLine
 10
655.7709775952444
 20
385.7415121510826
 30
0.0
 11
655.7709775952444
 21
374.2415121510826
 31
0.0
  0
CIRCLE
  5
235D
330
2
100
AcDbEntity
  8
0
100
AcDbCircle
 10
939.7051268134566
 20
337.565105280011
 30
0.0
 40
40.49999999999999
  0
CIRCLE
  5
235E
330
2
100
AcDbEntity
  8
0
100
AcDbCircle
 10
939.7051268134566
 20
337.565105280011
 30
0.0
 40
47.5
  0
LINE
  5
235F
330
2
100
AcDbEntity
  8
CENTER
100
AcDbLine
 10
980.3637667318072
 20
385.4438655515443
 30
0.0
 11
980.3637667318072
 21
371.0036248449311
 31
0.0
  0
LINE
  5
2360
330
2
100
AcDbEntity
  8
CENTER
100
AcDbLine
 10
973.1436463785007
 20
378.2237451982379
 30
0.0
 11
987.5838870851138
 21
378.2237451982379
 31
0.0
  0
LINE
  5
2361
330
2
100
AcDbEntity
  8
CENTER
100
AcDbLine
 10
980.3637667318072
 20
304.1265857150912
 30
0.0
 11
980.3637667318072
 21
289.6863450084781
 31
0.0
  0
LINE
  5
2362
330
2
100
AcDbEntity
  8
CENTER
100
AcDbLine
 10
973.1436463785007
 20
296.9064653617849
 30
0.0
 11
987.5838870851138
 21
296.9064653617849
 31
0.0
  0
LINE
  5
2363
330
2
100
AcDbEntity
  8
CENTER
100
AcDbLine
 10
899.0464868953552
 20
304.1265857150912
 30
0.0
 11
899.0464868953552
 21
289.6863450084781
 31
0.0
  0
LINE
  5
2364
330
2
100
AcDbEntity
  8
CENTER
100
AcDbLine
 10
891.8263665420486
 20
296.9064653617849
 30
0.0
 11
906.2666072486617
 21
296.9064653617849
 31
0.0
  0
LINE
  5
2365
330
2
100
AcDbEntity
  8
CENTER
100
AcDbLine
 10
899.0464868953552
 20
385.4438655515452
 30
0.0
 11
899.0464868953552
 21
371.003624844932
 31
0.0
  0
LINE
  5
2366
330
2
100
AcDbEntity
  8
CENTER
100
AcDbLine
 10
891.8263665420486
 20
378.2237451982388
 30
0.0
 11
906.2666072486617
 21
378.2237451982388
 31
0.0
  0
CIRCLE
  5
2367
330
2
100
AcDbEntity
  8
CENTER
100
AcDbCircle
 10
939.705126813091
 20
337.5651052800118
 30
0.0
 40
57.50000000034606
  0
CIRCLE
  5
2368
330
2
100
AcDbEntity
  8
HOJO
100
AcDbCircle
 10
899.0464868940081
 20
296.9064653617849
 30
0.0
 40
4.0
  0
CIRCLE
  5
2369
330
2
100
AcDbEntity
  8
0
100
AcDbCircle
 10
899.0464868940081
 20
296.9064653617849
 30
0.0
 40
3.399999999999999
  0
CIRCLE
  5
236A
330
2
100
AcDbEntity
  8
HOJO
100
AcDbCircle
 10
899.0464868940081
 20
378.2237451992183
 30
0.0
 40
4.0
  0
CIRCLE
  5
236B
330
2
100
AcDbEntity
  8
0
100
AcDbCircle
 10
899.0464868940081
 20
378.2237451992183
 30
0.0
 40
3.399999999999999
  0
CIRCLE
  5
236C
330
2
100
AcDbEntity
  8
HOJO
100
AcDbCircle
 10
980.3637667304604
 20
378.2237451982379
 30
0.0
 40
4.0
  0
CIRCLE
  5
236D
330
2
100
AcDbEntity
  8
0
100
AcDbCircle
 10
980.3637667304604
 20
378.2237451982379
 30
0.0
 40
3.399999999999999
  0
CIRCLE
  5
236E
330
2
100
AcDbEntity
  8
HOJO
100
AcDbCircle
 10
980.3637667304604
 20
296.9064653617858
 30
0.0
 40
4.0
  0
CIRCLE
  5
236F
330
2
100
AcDbEntity
  8
0
100
AcDbCircle
 10
980.3637667304604
 20
296.9064653617858
 30
0.0
 40
3.399999999999999
  0
CIRCLE
  5
2370
330
2
100
AcDbEntity
  8
0
100
AcDbCircle
 10
939.7051268134566
 20
337.565105280011
 30
0.0
 40
10.99999999999798
  0
ARC
  5
2371
330
2
100
AcDbEntity
  8
0
100
AcDbCircle
 10
939.7051268134566
 20
337.565105280011
 30
0.0
 40
12.15470053838154
100
AcDbArc
 50
3.53765608341634
 51
176.4623439165967
  0
ARC
  5
2372
330
2
100
AcDbEntity
  8
0
100
AcDbCircle
 10
939.7051268134566
 20
337.565105280011
 30
0.0
 40
12.15470053838154
100
AcDbArc
 50
183.5376560832988
 51
356.4623439167011
  0
CIRCLE
  5
2373
330
2
100
AcDbEntity
  8
HIDS
  6
SEKKEI_H
100
AcDbCircle
 10
939.7051268134566
 20
337.565105280011
 30
0.0
 40
50.0
  0
LINE
  5
2374
330
2
100
AcDbEntity
  8
0
100
AcDbLine
 10
692.1667096582418
 20
287.5651052800108
 30
0.0
 11
726.5209583471764
 21
287.5651052800108
 31
0.0
  0
LINE
  5
2375
330
2
100
AcDbEntity
  8
0
100
AcDbLine
 10
726.5209583471767
 20
387.565105280011
 30
0.0
 11
726.5209583471764
 21
287.5651052800108
 31
0.0
  0
LINE
  5
2376
330
2
100
AcDbEntity
  8
0
100
AcDbLine
 10
692.1667096582418
 20
387.5651052800104
 30
0.0
 11
726.5209583471767
 21
387.5651052800106
 31
0.0
  0
LINE
  5
2377
330
2
100
AcDbEntity
  8
0
100
AcDbLine
 10
719.5209583471775
 20
385.0651052800108
 30
0.0
 11
726.5209583471767
 21
385.0651052800108
 31
0.0
  0
LINE
  5
2378
330
2
100
AcDbEntity
  8
CENTER
  6
CENTERX2
100
AcDbLine
 10
652.7709775952446
 20
379.9915121510831
 30
0.0
 11
666.2709775952455
 21
379.9915121510826
 31
0.0
  0
LINE
  5
2379
330
2
100
AcDbEntity
  8
CENTER
  6
CENTERX2
100
AcDbLine
 10
652.7709775952405
 20
295.1386984086949
 30
0.0
 11
666.2709775952414
 21
295.1386984086944
 31
0.0
  0
CIRCLE
  5
237A
330
2
100
AcDbEntity
  8
0
100
AcDbCircle
 10
939.7051268134571
 20
337.565105280011
 30
0.0
 40
41.99999999981815
  0
CIRCLE
  5
237B
330
2
100
AcDbEntity
  8
0
100
AcDbCircle
 10
939.7051268134571
 20
337.565105280011
 30
0.0
 40
43.79351760210176
  0
LINE
  5
237D
330
2
100
AcDbEntity
  8
0
100
AcDbLine
 10
910.8949327212499
 20
388.7826523967643
 30
0.0
 11
896.6266992099216
 21
388.6427677544966
 31
0.0
  0
LINE
  5
24B7
330
2
100
AcDbEntity
  8
0
100
AcDbLine
 10
535.0209815098339
 20
581.2538559032287
 30
0.0
 11
535.0209834791355
 21
576.2537503923136
 31
0.0
  0
LINE
  5
24B8
330
2
100
AcDbEntity
  8
0
100
AcDbLine
 10
557.0209959581986
 20
541.2538559032287
 30
0.0
 11
557.0209815098357
 21
581.2538559032287
 31
0.0
  0
LINE
  5
24B9
330
2
100
AcDbEntity
  8
0
100
AcDbLine
 10
535.4378679906046
 20
573.2537503923135
 30
0.0
 11
535.4378679906046
 21
541.2538559032286
 31
0.0
  0
LINE
  5
24BA
330
2
100
AcDbEntity
  8
0
100
AcDbLine
 10
532.5209970670019
 20
576.2537503923136
 30
0.0
 11
532.5209970670019
 21
541.2538559032286
 31
0.0
  0
LINE
  5
24BB
330
2
100
AcDbEntity
  8
0
100
AcDbLine
 10
532.5209970670019
 20
541.2538559032286
 30
0.0
 11
557.0209959581986
 21
541.2538559032286
 31
0.0
  0
LINE
  5
24BC
330
2
100
AcDbEntity
  8
0
100
AcDbLine
 10
535.0209834791374
 20
576.2537503923136
 30
0.0
 11
535.4378679906046
 21
573.2537503923135
 31
0.0
  0
LINE
  5
24BD
330
2
100
AcDbEntity
  8
0
100
AcDbLine
 10
535.0209834791383
 20
576.2537503923136
 30
0.0
 11
532.5209970670019
 21
576.2537503923136
 31
0.0
  0
LINE
  5
24BE
330
2
100
AcDbEntity
  8
0
100
AcDbLine
 10
558.0209815098357
 20
581.2538559032287
 30
0.0
 11
534.0209815225823
 21
581.2532913699365
 31
0.0
  0
LINE
  5
24BF
330
2
100
AcDbEntity
  8
0
100
AcDbLine
 10
562.232261212577
 20
582.2538559032286
 30
0.0
 11
529.809611481766
 21
582.2538559032286
 31
0.0
  0
ARC
  5
24C0
330
2
100
AcDbEntity
  8
0
100
AcDbCircle
 10
531.0209855714053
 20
583.6556944330018
 30
0.0
 40
2.0
100
AcDbArc
 50
191.5907202811264
 51
210.0000000000207
  0
LINE
  5
24C1
330
2
100
AcDbEntity
  8
0
100
AcDbLine
 10
529.376598779874
 20
582.5038559032286
 30
0.0
 11
529.2889347638363
 21
582.6556944330018
 31
0.0
  0
ARC
  5
24C2
330
2
100
AcDbEntity
  8
0
100
AcDbCircle
 10
529.809611481766
 20
582.7538559032286
 30
0.0
 40
0.5
100
AcDbArc
 50
210.0000000000207
 51
270.0
  0
LINE
  5
24C3
330
2
100
AcDbEntity
  8
0
100
AcDbLine
 10
534.0208911845072
 20
581.2538559032287
 30
0.0
 11
533.4435409153181
 21
582.2538559032286
 31
0.0
  0
ARC
  5
24C4
330
2
100
AcDbEntity
  8
0
100
AcDbCircle
 10
561.0208871229376
 20
583.6556944330018
 30
0.0
 40
2.0
100
AcDbArc
 50
329.9999999999792
 51
348.4092797188734
  0
LINE
  5
24C5
330
2
100
AcDbEntity
  8
0
100
AcDbLine
 10
562.665273914469
 20
582.5038559032286
 30
0.0
 11
562.7529379305067
 21
582.6556944330018
 31
0.0
  0
ARC
  5
24C6
330
2
100
AcDbEntity
  8
0
100
AcDbCircle
 10
562.232261212577
 20
582.7538559032286
 30
0.0
 40
0.5
100
AcDbArc
 50
270.0
 51
329.9999999999792
  0
LINE
  5
24C7
330
2
100
AcDbEntity
  8
0
100
AcDbLine
 10
558.0209815098357
 20
581.2538559032287
 30
0.0
 11
558.5983317790257
 21
582.2538559032286
 31
0.0
  0
CIRCLE
  5
24D8
330
2
100
AcDbEntity
  8
0
100
AcDbCircle
 10
546.020936347172
 20
337.5651052800107
 30
0.0
 40
16.99995399999989
  0
ARC
  5
24D9
330
2
100
AcDbEntity
  8
0
100
AcDbCircle
 10
546.020936347172
 20
337.5651052800085
 30
0.0
 40
12.57739543185027
100
AcDbArc
 50
193.7993919727374
 51
166.2006080272625
  0
LINE
  5
24DA
330
2
100
AcDbEntity
  8
0
100
AcDbLine
 10
532.5209970669982
 20
340.5651052800085
 30
0.0
 11
532.5209970669982
 21
334.5651052800085
 31
0.0
  0
LINE
  5
24DB
330
2
100
AcDbEntity
  8
0
100
AcDbLine
 10
538.5209970669982
 20
340.5651052800085
 30
0.0
 11
538.5209970669982
 21
334.5651052800085
 31
0.0
  0
ARC
  5
24DC
330
2
100
AcDbEntity
  8
0
100
AcDbCircle
 10
546.020936347172
 20
337.5651052800085
 30
0.0
 40
12.00004516266062
100
AcDbArc
 50
194.4774565092227
 51
165.5225434907773
  0
ARC
  5
24DD
330
2
100
AcDbEntity
  8
0
100
AcDbCircle
 10
546.020936347172
 20
337.5651052800085
 30
0.0
 40
11.00006071982613
100
AcDbArc
 50
195.8265304777605
 51
164.1734695222363
  0
LINE
  5
24DE
330
2
100
AcDbEntity
  8
0
100
AcDbLine
 10
532.5209970669982
 20
334.5651052800085
 30
0.0
 11
538.5209970669982
 21
334.5651052800085
 31
0.0
  0
LINE
  5
24DF
330
2
100
AcDbEntity
  8
0
100
AcDbLine
 10
532.5209970669982
 20
340.5651052800085
 30
0.0
 11
538.5209970669982
 21
340.5651052800085
 31
0.0
  0
LINE
  5
24F3
330
2
100
AcDbEntity
  8
0
100
AcDbLine
 10
866.7051268134605
 20
321.353780414606
 30
0.0
 11
866.7051268134605
 21
353.7764301454169
 31
0.0
  0
LINE
  5
24F4
330
2
100
AcDbEntity
  8
0
100
AcDbLine
 10
825.7051268134603
 20
348.5650469657951
 30
0.0
 11
825.7051268134604
 21
326.5650465171692
 31
0.0
  0
LINE
  5
24F5
330
2
100
AcDbEntity
  8
0
100
AcDbLine
 10
865.7051268134605
 20
325.5650601173472
 30
0.0
 11
865.7045622801684
 21
349.5650601046006
 31
0.0
  0
LINE
  5
24F6
330
2
100
AcDbEntity
  8
0
100
AcDbLine
 10
825.7051268134604
 20
326.5650465171692
 30
0.0
 11
865.7051268134605
 21
326.5650601173472
 31
0.0
  0
LINE
  5
24F7
330
2
100
AcDbEntity
  8
0
100
AcDbLine
 10
866.9551268134606
 20
320.9207677127139
 30
0.0
 11
867.1069653432336
 21
320.8331036966762
 31
0.0
  0
LINE
  5
24F8
330
2
100
AcDbEntity
  8
0
100
AcDbLine
 10
865.7051268134605
 20
325.5650601173472
 30
0.0
 11
866.7051268134605
 21
324.9877098481572
 31
0.0
  0
ARC
  5
24F9
330
2
100
AcDbEntity
  8
0
100
AcDbCircle
 10
868.1069653432336
 20
322.5651545042453
 30
0.0
 40
2.0
100
AcDbArc
 50
239.999999999999
 51
258.4092797188797
  0
ARC
  5
24FA
330
2
100
AcDbEntity
  8
0
100
AcDbCircle
 10
867.2051268134605
 20
321.353780414606
 30
0.0
 40
0.5
100
AcDbArc
 50
180.0
 51
239.999999999999
  0
LINE
  5
24FB
330
2
100
AcDbEntity
  8
0
100
AcDbLine
 10
865.7051268134605
 20
348.565060117349
 30
0.0
 11
825.7051268134604
 21
348.5650469657952
 31
0.0
  0
LINE
  5
24FC
330
2
100
AcDbEntity
  8
0
100
AcDbLine
 10
865.7051268134605
 20
349.5651504426757
 30
0.0
 11
866.7051268134605
 21
350.1425007118648
 31
0.0
  0
LINE
  5
24FD
330
2
100
AcDbEntity
  8
0
100
AcDbLine
 10
866.9551268134606
 20
354.2094428473089
 30
0.0
 11
867.1069653432336
 21
354.2971068633467
 31
0.0
  0
ARC
  5
24FE
330
2
100
AcDbEntity
  8
0
100
AcDbCircle
 10
868.1069653432336
 20
352.5650560557776
 30
0.0
 40
2.0
100
AcDbArc
 50
101.5907202811202
 51
120.0000000000009
  0
ARC
  5
24FF
330
2
100
AcDbEntity
  8
0
100
AcDbCircle
 10
867.2051268134605
 20
353.7764301454169
 30
0.0
 40
0.5
100
AcDbArc
 50
120.0000000000009
 51
180.0
  0
LINE
  5
2652
330
2
100
AcDbEntity
  8
CENTER
100
AcDbLine
 10
210.3344328268322
 20
337.5651052800107
 30
0.0
 11
395.3344328268284
 21
337.5651052800112
 31
0.0
  0
LINE
  5
2653
330
2
100
AcDbEntity
  8
CENTER
100
AcDbLine
 10
271.3344328268287
 20
276.0646247071579
 30
0.0
 11
271.3344328268287
 21
399.0655858528432
 31
0.0
  0
LINE
  5
2654
330
2
100
AcDbEntity
  8
0
100
AcDbLine
 10
241.8344328268287
 20
286.5651052800123
 30
0.0
 11
241.8344328268247
 21
388.5651052800108
 31
0.0
  0
LINE
  5
2655
330
2
100
AcDbEntity
  8
0
100
AcDbLine
 10
241.8344328268287
 20
286.5651052800123
 30
0.0
 11
324.3344328268288
 21
287.2850718727499
 31
0.0
  0
LINE
  5
2656
330
2
100
AcDbEntity
  8
0
100
AcDbLine
 10
329.3344328268287
 20
292.5651052800126
 30
0.0
 11
329.3344328268287
 21
382.5651052800123
 31
0.0
  0
LINE
  5
2657
330
2
100
AcDbEntity
  8
0
100
AcDbLine
 10
324.3344328268288
 20
292.5651052800126
 30
0.0
 11
329.3344328268287
 21
292.5651052800126
 31
0.0
  0
LINE
  5
2658
330
2
100
AcDbEntity
  8
0
100
AcDbLine
 10
324.3344328268288
 20
287.2850718727501
 30
0.0
 11
324.3344328268288
 21
387.8425812871029
 31
0.0
  0
LINE
  5
2659
330
2
100
AcDbEntity
  8
0
100
AcDbLine
 10
324.3344328268288
 20
382.5651052800123
 30
0.0
 11
329.3344328268287
 21
382.5651052800123
 31
0.0
  0
LINE
  5
265A
330
2
100
AcDbEntity
  8
0
100
AcDbLine
 10
343.3344328268301
 20
305.4964828296249
 30
0.0
 11
343.3344328268301
 21
369.633727730398
 31
0.0
  0
LINE
  5
265B
330
2
100
AcDbEntity
  8
0
100
AcDbLine
 10
331.2646338334254
 20
303.1436186115513
 30
0.0
 11
341.4042318202348
 21
303.497701175587
 31
0.0
  0
ARC
  5
265C
330
2
100
AcDbEntity
  8
0
100
AcDbCircle
 10
331.3344328268301
 20
301.1448369575134
 30
0.0
 40
2.0
100
AcDbArc
 50
92.00000000000365
 51
180.0
  0
ARC
  5
265D
330
2
100
AcDbEntity
  8
0
100
AcDbCircle
 10
341.3344328268301
 20
305.4964828296249
 30
0.0
 40
2.0
100
AcDbArc
 50
272.0000000000036
 51
0.0
  0
LINE
  5
265E
330
2
100
AcDbEntity
  8
0
100
AcDbLine
 10
331.264633833425
 20
371.9865919484716
 30
0.0
 11
341.4042318202348
 21
371.6325093844359
 31
0.0
  0
ARC
  5
265F
330
2
100
AcDbEntity
  8
0
100
AcDbCircle
 10
331.3344328268301
 20
373.9853736025095
 30
0.0
 40
2.0
100
AcDbArc
 50
180.0
 51
267.9999999999963
  0
ARC
  5
2660
330
2
100
AcDbEntity
  8
0
100
AcDbCircle
 10
341.3344328268301
 20
369.633727730398
 30
0.0
 40
2.0
100
AcDbArc
 50
0.0
 51
87.99999999999636
  0
LINE
  5
2661
330
2
100
AcDbEntity
  8
0
100
AcDbLine
 10
241.8344328268247
 20
388.5651052800108
 30
0.0
 11
324.3344328268288
 21
387.8425812871029
 31
0.0
  0
LINE
  5
2662
330
2
100
AcDbEntity
  8
0
100
AcDbLine
 10
220.3344328268319
 20
294.4870583657264
 30
0.0
 11
220.3344328268324
 21
380.6431521942747
 31
0.0
  0
ARC
  5
2663
330
2
100
AcDbEntity
  8
0
100
AcDbCircle
 10
314.3344328268324
 20
380.6431521942757
 30
0.0
 40
8.0
100
AcDbArc
 50
65.12006096689472
 51
89.43829466741624
  0
LINE
  5
2664
330
2
100
AcDbEntity
  8
0
100
AcDbLine
 10
271.3344328268324
 20
286.065105280001
 30
0.0
 11
228.2560052233009
 21
286.4874428055261
 31
0.0
  0
ARC
  5
2665
330
2
100
AcDbEntity
  8
0
100
AcDbCircle
 10
228.3344328268319
 20
294.4870583657264
 30
0.0
 40
8.0
100
AcDbArc
 50
180.0
 51
269.4382946674422
  0
LINE
  5
2666
330
2
100
AcDbEntity
  8
0
100
AcDbLine
 10
271.3344328268324
 20
286.065105280001
 30
0.0
 11
314.4128604303634
 21
286.4874428055252
 31
0.0
  0
ARC
  5
2667
330
2
100
AcDbEntity
  8
0
100
AcDbCircle
 10
314.3344328268324
 20
294.4870583657254
 30
0.0
 40
8.0
100
AcDbArc
 50
270.5617053325576
 51
294.8391048618038
  0
LINE
  5
2668
330
2
100
AcDbEntity
  8
0
100
AcDbLine
 10
271.3344328268324
 20
389.0651052800001
 30
0.0
 11
228.2560052233009
 21
388.642767754475
 31
0.0
  0
ARC
  5
2669
330
2
100
AcDbEntity
  8
0
100
AcDbCircle
 10
228.3344328268324
 20
380.6431521942747
 30
0.0
 40
8.0
100
AcDbArc
 50
90.5617053325577
 51
180.0
  0
LINE
  5
266A
330
2
100
AcDbEntity
  8
0
100
AcDbLine
 10
271.3344328268324
 20
389.0651052800001
 30
0.0
 11
314.4128604303634
 21
388.6427677544759
 31
0.0
  0
LINE
  5
266B
330
2
100
AcDbEntity
  8
0
100
AcDbLine
 10
220.3344328268124
 20
369.9877550108098
 30
0.0
 11
220.3344328268215
 21
337.5651052800106
 31
0.0
  0
LINE
  5
266C
330
2
100
AcDbEntity
  8
0
 48
0.5
100
AcDbLine
 10
225.0344328268354
 20
370.5651052800117
 30
0.0
 11
228.3344328268356
 21
370.5651052800108
 31
0.0
  0
LINE
  5
266D
330
2
100
AcDbEntity
  8
HIDS
  6
SEKKEI_H
 48
0.5
100
AcDbLine
 10
233.7486463891985
 20
383.4793188423735
 30
0.0
 11
229.4202192644654
 21
379.1508917176448
 31
0.0
  0
LINE
  5
266E
330
2
100
AcDbEntity
  8
0
100
AcDbLine
 10
228.3344328268305
 20
370.5651052800108
 30
0.0
 11
228.334432826831
 21
372.5651052800053
 31
0.0
  0
LINE
  5
266F
330
2
100
AcDbEntity
  8
0
100
AcDbLine
 10
228.334432826836
 20
372.5651052800106
 30
0.0
 11
228.8344328268365
 21
373.0651052800103
 31
0.0
  0
LINE
  5
2670
330
2
100
AcDbEntity
  8
0
100
AcDbLine
 10
228.334432826836
 20
372.5651052800106
 30
0.0
 11
228.3344328268356
 21
370.5651052800108
 31
0.0
  0
LINE
  5
2671
330
2
100
AcDbEntity
  8
0
100
AcDbLine
 10
236.3169797558295
 20
388.5169551965166
 30
0.0
 11
241.834432826826
 21
388.5651052800089
 31
0.0
  0
ARC
  5
2672
330
2
100
AcDbEntity
  8
0
100
AcDbCircle
 10
236.334432826826
 20
386.5170313503883
 30
0.0
 40
2.0
100
AcDbArc
 50
90.49999999999155
 51
180.0
  0
LINE
  5
2673
330
2
100
AcDbEntity
  8
0
 48
0.5
100
AcDbLine
 10
223.0344328268354
 20
369.8651052800121
 30
0.0
 11
224.6344328268353
 21
369.8651052800117
 31
0.0
  0
LINE
  5
2674
330
2
100
AcDbEntity
  8
0
 48
0.5
100
AcDbLine
 10
224.8344328268355
 20
370.3651052800114
 30
0.0
 11
225.0344328268354
 21
370.5651052800117
 31
0.0
  0
LINE
  5
2675
330
2
100
AcDbEntity
  8
0
100
AcDbLine
 10
222.8344328268355
 20
370.3651052800121
 30
0.0
 11
222.834432826836
 21
304.7651052800093
 31
0.0
  0
LINE
  5
2676
330
2
100
AcDbEntity
  8
0
100
AcDbLine
 10
221.3344328268356
 20
370.5651052800126
 30
0.0
 11
220.3344328268351
 21
369.987755010823
 31
0.0
  0
LINE
  5
2677
330
2
100
AcDbEntity
  8
0
 48
0.5
100
AcDbLine
 10
221.3344328268356
 20
370.5651052800126
 30
0.0
 11
222.6344328268357
 21
370.5651052800121
 31
0.0
  0
ARC
  5
2678
330
2
100
AcDbEntity
  8
HIDS
  6
SEKKEI_H
 48
0.3
100
AcDbCircle
 10
232.334432826826
 20
384.8935324047473
 30
0.0
 40
2.0
100
AcDbArc
 50
314.9999999999722
 51
0.0
  0
ARC
  5
2679
330
2
100
AcDbEntity
  8
HIDS
  6
SEKKEI_H
 48
0.5
100
AcDbCircle
 10
230.8344328268379
 20
377.736678155271
 30
0.0
 40
2.0
100
AcDbArc
 50
134.9999999999722
 51
179.9999999999804
  0
ARC
  5
267A
330
2
100
AcDbEntity
  8
0
100
AcDbCircle
 10
222.6344328268353
 20
370.3651052800121
 30
0.0
 40
0.2
100
AcDbArc
 50
0.0
 51
89.99999999997395
  0
ARC
  5
267B
330
2
100
AcDbEntity
  8
0
 48
0.5
100
AcDbCircle
 10
223.0344328268354
 20
370.0651052800121
 30
0.0
 40
0.2
100
AcDbArc
 50
180.0
 51
269.9999999999739
  0
ARC
  5
267C
330
2
100
AcDbEntity
  8
0
100
AcDbCircle
 10
224.6344328268357
 20
370.0651052800117
 30
0.0
 40
0.2
100
AcDbArc
 50
269.9999999999739
 51
0.0
  0
LINE
  5
267D
330
2
100
AcDbEntity
  8
0
100
AcDbLine
 10
220.3344328268128
 20
305.1424555492116
 30
0.0
 11
220.3344328268215
 21
337.5651052800106
 31
0.0
  0
LINE
  5
267E
330
2
100
AcDbEntity
  8
0
 48
0.5
100
AcDbLine
 10
225.0344328268358
 20
304.5651052800097
 30
0.0
 11
228.334432826836
 21
304.5651052800106
 31
0.0
  0
LINE
  5
267F
330
2
100
AcDbEntity
  8
HIDS
  6
SEKKEI_H
 48
0.5
100
AcDbLine
 10
233.7486463891993
 20
291.650891717648
 30
0.0
 11
229.4202192644663
 21
295.9793188423767
 31
0.0
  0
LINE
  5
2680
330
2
100
AcDbEntity
  8
0
100
AcDbLine
 10
228.8344328268387
 20
299.5651052800108
 30
0.0
 11
228.8344328268379
 21
375.5651052800109
 31
0.0
  0
LINE
  5
2681
330
2
100
AcDbEntity
  8
0
100
AcDbLine
 10
228.334432826831
 20
304.5651052800106
 30
0.0
 11
228.3344328268315
 21
302.5651052800161
 31
0.0
  0
LINE
  5
2682
330
2
100
AcDbEntity
  8
0
100
AcDbLine
 10
228.3344328268369
 20
302.5651052800109
 30
0.0
 11
228.8344328268369
 21
302.0651052800111
 31
0.0
  0
LINE
  5
2683
330
2
100
AcDbEntity
  8
0
100
AcDbLine
 10
228.3344328268369
 20
302.5651052800109
 30
0.0
 11
228.334432826836
 21
304.5651052800106
 31
0.0
  0
LINE
  5
2684
330
2
100
AcDbEntity
  8
0
100
AcDbLine
 10
236.3169797558305
 20
286.6132553635034
 30
0.0
 11
241.8344328268269
 21
286.5651052800112
 31
0.0
  0
ARC
  5
2685
330
2
100
AcDbEntity
  8
0
100
AcDbCircle
 10
236.3344328268269
 20
288.6131792096317
 30
0.0
 40
2.0
100
AcDbArc
 50
180.0
 51
269.5000000000084
  0
LINE
  5
2686
330
2
100
AcDbEntity
  8
0
100
AcDbLine
 10
241.8344328268274
 20
286.5651052800111
 30
0.0
 11
241.834432826826
 21
388.5651052800099
 31
0.0
  0
LINE
  5
2687
330
2
100
AcDbEntity
  8
0
 48
0.3
100
AcDbLine
 10
234.3344328268269
 20
288.6131792096317
 30
0.0
 11
234.334432826826
 21
386.5170313503882
 31
0.0
  0
LINE
  5
2688
330
2
100
AcDbEntity
  8
0
 48
0.5
100
AcDbLine
 10
223.0344328268358
 20
305.2651052800092
 30
0.0
 11
224.6344328268362
 21
305.2651052800097
 31
0.0
  0
LINE
  5
2689
330
2
100
AcDbEntity
  8
0
100
AcDbLine
 10
224.834432826836
 20
304.7651052800099
 30
0.0
 11
224.8344328268355
 21
370.3651052800114
 31
0.0
  0
LINE
  5
268A
330
2
100
AcDbEntity
  8
0
 48
0.5
100
AcDbLine
 10
224.834432826836
 20
304.7651052800099
 30
0.0
 11
225.0344328268358
 21
304.5651052800097
 31
0.0
  0
LINE
  5
268B
330
2
100
AcDbEntity
  8
0
100
AcDbLine
 10
221.334432826836
 20
304.5651052800087
 30
0.0
 11
220.334432826836
 21
305.1424555491982
 31
0.0
  0
LINE
  5
268C
330
2
100
AcDbEntity
  8
0
 48
0.5
100
AcDbLine
 10
221.334432826836
 20
304.5651052800087
 30
0.0
 11
222.6344328268362
 21
304.5651052800093
 31
0.0
  0
ARC
  5
268D
330
2
100
AcDbEntity
  8
HIDS
  6
SEKKEI_H
 48
0.3
100
AcDbCircle
 10
232.3344328268269
 20
290.2366781552742
 30
0.0
 40
2.0
100
AcDbArc
 50
0.0
 51
45.00000000002772
  0
ARC
  5
268E
330
2
100
AcDbEntity
  8
HIDS
  6
SEKKEI_H
 48
0.5
100
AcDbCircle
 10
230.8344328268387
 20
297.3935324047505
 30
0.0
 40
2.0
100
AcDbArc
 50
180.0000000000195
 51
225.0000000000277
  0
ARC
  5
268F
330
2
100
AcDbEntity
  8
0
100
AcDbCircle
 10
222.6344328268362
 20
304.7651052800093
 30
0.0
 40
0.2
100
AcDbArc
 50
270.000000000026
 51
0.0
  0
ARC
  5
2690
330
2
100
AcDbEntity
  8
0
 48
0.5
100
AcDbCircle
 10
223.0344328268358
 20
305.0651052800092
 30
0.0
 40
0.2
100
AcDbArc
 50
90.00000000002605
 51
180.0
  0
ARC
  5
2691
330
2
100
AcDbEntity
  8
0
100
AcDbCircle
 10
224.6344328268362
 20
305.0651052800097
 30
0.0
 40
0.2
100
AcDbArc
 50
0.0
 51
90.00000000002605
  0
LINE
  5
2692
330
2
100
AcDbEntity
  8
0
 48
12.0
100
AcDbLine
 10
221.3344328268356
 20
370.5651052800126
 30
0.0
 11
221.334432826836
 21
304.5651052800087
 31
0.0
  0
LINE
  5
2693
330
2
100
AcDbEntity
  8
0
 48
12.0
100
AcDbLine
 10
225.0344328268354
 20
370.5651052800117
 30
0.0
 11
225.0344328268358
 21
304.5651052800097
 31
0.0
  0
LINE
  5
2694
330
2
100
AcDbEntity
  8
0
 48
12.0
100
AcDbLine
 10
228.3344328268356
 20
370.5651052800108
 30
0.0
 11
228.334432826836
 21
304.5651052800106
 31
0.0
  0
LINE
  5
2695
330
2
100
AcDbEntity
  8
CENTER
  6
CENTERX2
100
AcDbLine
 10
237.3344328268265
 20
380.5651052800108
 30
0.0
 11
223.8344328268251
 21
380.5651052800108
 31
0.0
  0
LINE
  5
2696
330
2
100
AcDbEntity
  8
0
 48
12.0
100
AcDbLine
 10
234.334432826826
 20
375.5651052800108
 30
0.0
 11
234.334432826826
 21
385.5651052800108
 31
0.0
  0
LINE
  5
2697
330
2
100
AcDbEntity
  8
CENTER
  6
CENTERX2
100
AcDbLine
 10
237.3344328268269
 20
294.5651052800108
 30
0.0
 11
223.834432826826
 21
294.5651052800108
 31
0.0
  0
LINE
  5
2698
330
2
100
AcDbEntity
  8
0
 48
12.0
100
AcDbLine
 10
234.3344328268269
 20
289.5651052800108
 30
0.0
 11
234.3344328268269
 21
299.5651052800108
 31
0.0
  0
LINE
  5
2699
330
2
100
AcDbEntity
  8
HIDS
  6
SEKKEI_H
100
AcDbLine
 10
228.8344328268379
 20
377.7366781552717
 30
0.0
 11
228.8344328268379
 21
375.5651052800109
 31
0.0
  0
LINE
  5
269A
330
2
100
AcDbEntity
  8
HIDS
  6
SEKKEI_H
100
AcDbLine
 10
228.8344328268387
 20
299.5651052800108
 30
0.0
 11
228.8344328268387
 21
297.3935324047498
 31
0.0
  0
LINE
  5
269B
330
2
100
AcDbEntity
  8
0
100
AcDbLine
 10
227.2344328268256
 20
385.5651052800108
 30
0.0
 11
226.834432826826
 21
384.8722849569836
 31
0.0
  0
LINE
  5
269C
330
2
100
AcDbEntity
  8
0
100
AcDbLine
 10
227.2344328268256
 20
385.5651052800108
 30
0.0
 11
227.2344328268256
 21
375.5651052800108
 31
0.0
  0
LINE
  5
269D
330
2
100
AcDbEntity
  8
0
100
AcDbLine
 10
232.8344328268256
 20
385.5651052800108
 30
0.0
 11
227.2344328268256
 21
385.5651052800108
 31
0.0
  0
LINE
  5
269E
330
2
100
AcDbEntity
  8
0
100
AcDbLine
 10
232.8344328268256
 20
375.5651052800108
 30
0.0
 11
227.2344328268256
 21
375.5651052800108
 31
0.0
  0
LINE
  5
269F
330
2
100
AcDbEntity
  8
0
100
AcDbLine
 10
227.2344328268256
 20
375.5651052800108
 30
0.0
 11
226.834432826826
 21
376.2579256030381
 31
0.0
  0
LINE
  5
26A0
330
2
100
AcDbEntity
  8
0
100
AcDbLine
 10
226.834432826826
 20
384.8722849569836
 30
0.0
 11
226.834432826826
 21
376.2579256030381
 31
0.0
  0
LINE
  5
26A1
330
2
100
AcDbEntity
  8
0
100
AcDbLine
 10
227.2344328268266
 20
299.5651052800108
 30
0.0
 11
226.8344328268269
 21
298.8722849569835
 31
0.0
  0
LINE
  5
26A2
330
2
100
AcDbEntity
  8
0
100
AcDbLine
 10
227.2344328268266
 20
299.5651052800108
 30
0.0
 11
227.2344328268266
 21
289.5651052800108
 31
0.0
  0
LINE
  5
26A3
330
2
100
AcDbEntity
  8
0
100
AcDbLine
 10
232.8344328268264
 20
299.5651052800108
 30
0.0
 11
227.2344328268266
 21
299.5651052800108
 31
0.0
  0
LINE
  5
26A4
330
2
100
AcDbEntity
  8
0
100
AcDbLine
 10
232.834432826826
 20
289.5651052800108
 30
0.0
 11
227.2344328268266
 21
289.5651052800108
 31
0.0
  0
LINE
  5
26A5
330
2
100
AcDbEntity
  8
0
100
AcDbLine
 10
227.2344328268266
 20
289.5651052800108
 30
0.0
 11
226.8344328268269
 21
290.2579256030381
 31
0.0
  0
LINE
  5
26A6
330
2
100
AcDbEntity
  8
0
100
AcDbLine
 10
226.8344328268269
 20
298.8722849569835
 30
0.0
 11
226.8344328268269
 21
290.2579256030381
 31
0.0
  0
LINE
  5
26A7
330
2
100
AcDbEntity
  8
0
100
AcDbLine
 10
241.8344328268247
 20
380.5651052800044
 30
0.0
 11
322.8313485950245
 21
380.5651052800045
 31
0.0
  0
LINE
  5
26A8
330
2
100
AcDbEntity
  8
0
100
AcDbLine
 10
241.8344328268251
 20
377.5651052800129
 30
0.0
 11
322.8313485950245
 21
377.5651052800129
 31
0.0
  0
LINE
  5
26A9
330
2
100
AcDbEntity
  8
0
100
AcDbLine
 10
241.834432826826
 20
358.1052044572075
 30
0.0
 11
322.8313485950245
 21
358.1052044572074
 31
0.0
  0
LINE
  5
26AA
330
2
100
AcDbEntity
  8
0
100
AcDbLine
 10
241.8344328268283
 20
294.5651052800046
 30
0.0
 11
322.8313485950245
 21
294.5651052800173
 31
0.0
  0
LINE
  5
26AB
330
2
100
AcDbEntity
  8
0
100
AcDbLine
 10
241.8344328268283
 20
297.5651052800108
 30
0.0
 11
322.8313485950245
 21
297.5651052800089
 31
0.0
  0
LINE
  5
26AC
330
2
100
AcDbEntity
  8
0
100
AcDbLine
 10
241.8344328268274
 20
317.0250061028452
 30
0.0
 11
322.8313485950245
 21
317.0250061028144
 31
0.0
  0
LINE
  5
26AD
330
2
100
AcDbEntity
  8
0
100
AcDbLine
 10
241.8344328268251
 20
377.5651052800129
 30
0.0
 11
235.8344328268265
 21
377.5651052800129
 31
0.0
  0
LINE
  5
26AE
330
2
100
AcDbEntity
  8
0
100
AcDbLine
 10
241.8344328268247
 20
380.5651052800044
 30
0.0
 11
235.8344328268265
 21
380.5651052800108
 31
0.0
  0
LINE
  5
26AF
330
2
100
AcDbEntity
  8
0
100
AcDbLine
 10
241.834432826826
 20
358.1052044572073
 30
0.0
 11
235.8344328268265
 21
358.1052044572075
 31
0.0
  0
LINE
  5
26B0
330
2
100
AcDbEntity
  8
0
100
AcDbLine
 10
241.8344328268274
 20
317.025006102845
 30
0.0
 11
235.8344328268269
 21
317.025006102845
 31
0.0
  0
LINE
  5
26B1
330
2
100
AcDbEntity
  8
0
100
AcDbLine
 10
241.8344328268269
 20
294.5651052800046
 30
0.0
 11
235.8344328268269
 21
294.5651052800046
 31
0.0
  0
LINE
  5
26B2
330
2
100
AcDbEntity
  8
0
100
AcDbLine
 10
241.8344328268283
 20
297.5651052800108
 30
0.0
 11
235.8344328268269
 21
297.5651052800108
 31
0.0
  0
LINE
  5
26B3
330
2
100
AcDbEntity
  8
0
100
AcDbLine
 10
234.3344328268269
 20
300.3151052800108
 30
0.0
 11
232.8344328268264
 21
300.3151052800108
 31
0.0
  0
LINE
  5
26B4
330
2
100
AcDbEntity
  8
0
100
AcDbLine
 10
234.3344328268269
 20
288.8151052800109
 30
0.0
 11
232.834432826826
 21
288.8151052800108
 31
0.0
  0
LINE
  5
26B5
330
2
100
AcDbEntity
  8
0
100
AcDbLine
 10
232.8344328268264
 20
300.3151052800108
 30
0.0
 11
232.834432826826
 21
288.8151052800108
 31
0.0
  0
LINE
  5
26B6
330
2
100
AcDbEntity
  8
0
 48
12.0
100
AcDbLine
 10
234.3344328268269
 20
288.8151052800109
 30
0.0
 11
234.3344328268269
 21
300.3151052800108
 31
0.0
  0
LINE
  5
26B7
330
2
100
AcDbEntity
  8
0
100
AcDbLine
 10
234.3344328268265
 20
386.3151052800109
 30
0.0
 11
232.834432826826
 21
386.3151052800109
 31
0.0
  0
LINE
  5
26B8
330
2
100
AcDbEntity
  8
0
100
AcDbLine
 10
234.334432826826
 20
374.8151052800109
 30
0.0
 11
232.8344328268251
 21
374.8151052800108
 31
0.0
  0
LINE
  5
26B9
330
2
100
AcDbEntity
  8
0
100
AcDbLine
 10
232.834432826826
 20
386.3151052800109
 30
0.0
 11
232.8344328268251
 21
374.8151052800108
 31
0.0
  0
LINE
  5
26BA
330
2
100
AcDbEntity
  8
0
 48
12.0
100
AcDbLine
 10
234.334432826826
 20
374.8151052800109
 30
0.0
 11
234.3344328268265
 21
386.3151052800109
 31
0.0
  0
ARC
  5
26BB
330
2
100
AcDbEntity
  8
0
100
AcDbCircle
 10
228.2563859125532
 20
380.565105280009
 30
0.0
 40
8.0
100
AcDbArc
 50
134.604745489395
 51
179.4382946674162
  0
LINE
  5
26BC
330
2
100
AcDbEntity
  8
CENTER
100
AcDbLine
 10
291.3344328270671
 20
396.5651052799935
 30
0.0
 11
291.3344328270671
 21
379.8891433043896
 31
0.0
  0
LINE
  5
26BD
330
2
100
AcDbEntity
  8
0
100
AcDbLine
 10
220.256770352352
 20
380.643532883541
 30
0.0
 11
219.8344328268288
 21
337.5651052800106
 31
0.0
  0
ARC
  5
26BE
330
2
100
AcDbEntity
  8
0
100
AcDbCircle
 10
228.2563859125532
 20
294.5651052800135
 30
0.0
 40
8.0
100
AcDbArc
 50
180.5617053325576
 51
225.3952545026041
  0
LINE
  5
26BF
330
2
100
AcDbEntity
  8
0
100
AcDbLine
 10
220.256770352352
 20
294.4866776764816
 30
0.0
 11
219.8344328268289
 21
337.5651052800107
 31
0.0
  0
LINE
  5
26C0
330
2
100
AcDbEntity
  8
0
100
AcDbLine
 10
296.334432827067
 20
391.5651052801332
 30
0.0
 11
286.334432827067
 21
391.5651052801332
 31
0.0
  0
ARC
  5
26C1
330
2
100
AcDbEntity
  8
0
100
AcDbCircle
 10
286.334432827067
 20
387.5651052801332
 30
0.0
 40
4.0
100
AcDbArc
 50
90.0
 51
159.6698891995563
  0
ARC
  5
26C2
330
2
100
AcDbEntity
  8
0
100
AcDbCircle
 10
296.334432827067
 20
387.5651052801332
 30
0.0
 40
4.0
100
AcDbArc
 50
17.72127488441218
 51
90.0
  0
LINE
  5
26C7
330
2
100
AcDbEntity
  8
0
100
AcDbLine
 10
353.3345383377434
 20
340.5651052800109
 30
0.0
 11
385.3345383377434
 21
340.5651052800109
 31
0.0
  0
LINE
  5
26C8
330
2
100
AcDbEntity
  8
0
100
AcDbLine
 10
385.3344328268281
 20
348.5651628667628
 30
0.0
 11
345.3344328268283
 21
348.5651504426753
 31
0.0
  0
LINE
  5
26C9
330
2
100
AcDbEntity
  8
0
100
AcDbLine
 10
353.3345383377434
 20
334.5651052800109
 30
0.0
 11
385.3345383377434
 21
334.5651052800109
 31
0.0
  0
LINE
  5
26CA
330
2
100
AcDbEntity
  8
0
100
AcDbLine
 10
345.3344328268283
 20
326.5651504426736
 30
0.0
 11
385.3344328268285
 21
326.565164737455
 31
0.0
  0
LINE
  5
26CB
330
2
100
AcDbEntity
  8
0
100
AcDbLine
 10
344.3344328268283
 20
353.7764301454163
 30
0.0
 11
344.3344328268283
 21
321.3537804146058
 31
0.0
  0
ARC
  5
26CC
330
2
100
AcDbEntity
  8
0
100
AcDbCircle
 10
353.3345383377434
 20
337.565105280011
 30
0.0
 40
3.0
100
AcDbArc
 50
90.0
 51
270.0
  0
LINE
  5
26CD
330
2
100
AcDbEntity
  8
0
100
AcDbLine
 10
345.3344328268283
 20
349.5651504426754
 30
0.0
 11
345.3349973601205
 21
325.5651504554214
 31
0.0
  0
LINE
  5
26CE
330
2
100
AcDbEntity
  8
0
100
AcDbLine
 10
344.0844328268283
 20
320.9207677127137
 30
0.0
 11
343.9325942970551
 21
320.8331036966761
 31
0.0
  0
ARC
  5
26CF
330
2
100
AcDbEntity
  8
0
100
AcDbCircle
 10
342.9325942970551
 20
322.5651545042449
 30
0.0
 40
2.0
100
AcDbArc
 50
281.5907202811201
 51
300.0000000000004
  0
ARC
  5
26D0
330
2
100
AcDbEntity
  8
0
100
AcDbCircle
 10
343.8344328268283
 20
321.3537804146058
 30
0.0
 40
0.5
100
AcDbArc
 50
300.0000000000004
 51
0.0
  0
LINE
  5
26D1
330
2
100
AcDbEntity
  8
0
100
AcDbLine
 10
345.3344328268283
 20
325.5650601173467
 30
0.0
 11
344.3344328268283
 21
324.987709848157
 31
0.0
  0
LINE
  5
26D2
330
2
100
AcDbEntity
  8
0
100
AcDbLine
 10
345.3344328268283
 20
349.5651504426754
 30
0.0
 11
344.3344328268283
 21
350.1425007118651
 31
0.0
  0
LINE
  5
26D3
330
2
100
AcDbEntity
  8
0
100
AcDbLine
 10
344.0844328268283
 20
354.2094428473085
 30
0.0
 11
343.9325942970551
 21
354.297106863346
 31
0.0
  0
ARC
  5
26D4
330
2
100
AcDbEntity
  8
0
100
AcDbCircle
 10
342.9325942970551
 20
352.5650560557772
 30
0.0
 40
2.0
100
AcDbArc
 50
59.99999999999952
 51
78.40927971887976
  0
ARC
  5
26D5
330
2
100
AcDbEntity
  8
0
100
AcDbCircle
 10
343.8344328268283
 20
353.7764301454163
 30
0.0
 40
0.5
100
AcDbArc
 50
0.0
 51
59.99999999999952
  0
LINE
  5
26D6
330
2
100
AcDbEntity
  8
0
100
AcDbLine
 10
385.3344328268285
 20
326.565164737455
 30
0.0
 11
385.3344328268281
 21
348.5651628667628
 31
0.0
  0
LINE
  5
2AB5
330
2
100
AcDbEntity
  8
CENTER
100
AcDbLine
 10
481.0209363471742
 20
337.5651052800127
 30
0.0
 11
736.5209583471775
 21
337.5651052800141
 31
0.0
  0
LINE
  5
2AB6
330
2
100
AcDbEntity
  8
CENTER
100
AcDbLine
 10
546.0209363471742
 20
402.5651052800127
 30
0.0
 11
546.0209363471742
 21
272.5651052800127
 31
0.0
  0
SPLINE
  5
2B5B
330
2
100
AcDbEntity
  8
HOJO
100
AcDbSpline
210
0.0
220
0.0
230
1.0
 70
     8
 71
     3
 72
    20
 73
    16
 74
    14
 42
0.0000000001
 43
0.0000000001
 44
0.0000000001
 40
0.0
 40
0.0
 40
0.0
 40
0.0
 40
12.6066694627875
 40
20.80402746654557
 40
27.73290508408854
 40
37.72858026477208
 40
44.97513852936973
 40
53.04026335165851
 40
61.84059302900199
 40
65.13755329100691
 40
69.956578519009
 40
78.95308702679125
 40
84.4258044041519
 40
89.51088686183004
 40
100.4770852021475
 40
100.4770852021475
 40
100.4770852021475
 40
100.4770852021475
 10
643.0748553230163
 20
337.5651052800173
 30
0.0
 10
644.192246074933
 20
341.6731320937846
 30
0.0
 10
646.0362087458317
 20
348.4523613675584
 30
0.0
 10
652.6192680701186
 20
355.5163822291808
 30
0.0
 10
660.6704245193798
 20
358.3633354973986
 30
0.0
 10
668.7385584037183
 20
359.0813222267241
 30
0.0
 10
677.1923024710515
 20
358.6940148568652
 30
0.0
 10
685.1435591535776
 20
359.8001759155643
 30
0.0
 10
692.0486897717645
 20
359.1864162876014
 30
0.0
 10
697.3219276576247
 20
361.1743919201286
 30
0.0
 10
702.9681206017268
 20
363.0629081284932
 30
0.0
 10
705.4717981181263
 20
369.6716370623943
 30
0.0
 10
710.5430014513955
 20
373.9546758602661
 30
0.0
 10
712.9124361342271
 20
380.939136278127
 30
0.0
 10
716.6401294529514
 20
384.8756726390393
 30
0.0
 10
719.1868810050215
 20
387.5651052800174
 30
0.0
 11
643.0748553230163
 21
337.5651052800173
 31
0.0
 11
647.5632864998646
 21
349.3456867815679
 31
0.0
 11
653.2895784020214
 21
355.2113716770485
 31
0.0
 11
659.7253198639472
 21
357.7785835643179
 31
0.0
 11
669.6576443838884
 21
358.9021724341045
 31
0.0
 11
676.904188751935
 21
358.9163641267268
 31
0.0
 11
684.9501432217074
 21
359.4721114339167
 31
0.0
 11
693.7365968619068
 21
359.9661102786107
 31
0.0
 11
696.8718654156033
 21
360.9859328442766
 31
0.0
 11
701.2533519355289
 21
362.9923176587703
 31
0.0
 11
706.6537901281854
 21
370.187623952313
 31
0.0
 11
710.2201171149137
 21
374.3387620271304
 31
0.0
 11
712.4618074428022
 21
378.9030678971655
 31
0.0
 11
719.1868810050215
 21
387.5651052800174
 31
0.0
  0
ENDSEC
  0
SECTION
  2
OBJECTS
  0
DICTIONARY
  5
7
330
0
100
AcDbDictionary
  3
ACAD_COLOR
350
832
  3
ACAD_GROUP
350
75
  3
ACAD_LAYOUT
350
61
  3
ACAD_MATERIAL
350
808
  3
ACAD_MLEADERSTYLE
350
857
  3
ACAD_MLINESTYLE
350
76
  3
ACAD_PLOTSETTINGS
350
77
  3
ACAD_PLOTSTYLENAME
350
6
  3
ACAD_SCALELIST
350
835
  3
ACAD_TABLESTYLE
350
833
  3
ACAD_VISUALSTYLE
350
821
  3
ACADDIM
350
480
  3
ACDB_RECOMPOSE_DATA
350
88E
  3
ACDBHEADERROUNDTRIPXREC
350
2BEB
  3
ACDBVARIABLEDICTIONARY
350
102
  3
DWGPROPS
350
2BC0
  0
DICTIONARY
  5
1AA9
330
6E
100
AcDbDictionary
280
     1
  3
ACAD_XREC_ROUNDTRIP
360
2BC4
  0
DICTIONARY
  5
86B
330
66
100
AcDbDictionary
280
     1
  3
ACAD_LAYERSTATES
360
86C
  0
DICTIONARY
  5
128D
330
5E
100
AcDbDictionary
280
     1
  3
ADSK_XREC_LAYER_RECONCILED
360
128E
  0
DICTIONARY
  5
128F
330
3E
100
AcDbDictionary
280
     1
  3
ADSK_XREC_LAYER_RECONCILED
360
1290
  0
DICTIONARY
  5
1295
330
2B5
100
AcDbDictionary
280
     1
  3
ADSK_XREC_LAYER_RECONCILED
360
1296
  0
DICTIONARY
  5
1297
330
2BA
100
AcDbDictionary
280
     1
  3
ADSK_XREC_LAYER_RECONCILED
360
1298
  0
DICTIONARY
  5
129B
330
3FA
100
AcDbDictionary
280
     1
  3
ADSK_XREC_LAYER_RECONCILED
360
129C
  0
DICTIONARY
  5
1236
330
2
100
AcDbDictionary
280
     1
  3
ACAD_LAYOUTSELFREF
360
2C0C
  3
ACAD_SORTENTS
360
1237
  0
DICTIONARY
  5
2C0D
330
2BE5
100
AcDbDictionary
280
     1
  3
ACAD_LAYOUTSELFREF
360
2C0E
  0
DICTIONARY
  5
832
102
{ACAD_REACTORS
330
7
102
}
330
7
100
AcDbDictionary
  0
DICTIONARY
  5
75
102
{ACAD_REACTORS
330
7
102
}
330
7
100
AcDbDictionary
  0
DICTIONARY
  5
61
102
{ACAD_REACTORS
330
7
102
}
330
7
100
AcDbDictionary
  0
DICTIONARY
  5
808
102
{ACAD_REACTORS
330
7
102
}
330
7
100
AcDbDictionary
  3
BYBLOCK
350
811
  3
BYLAYER
350
809
  3
GLOBAL
350
819
  0
DICTIONARY
  5
857
102
{ACAD_REACTORS
330
7
102
}
330
7
100
AcDbDictionary
  3
STANDARD
350
858
  0
DICTIONARY
  5
76
102
{ACAD_REACTORS
330
7
102
}
330
7
100
AcDbDictionary
  3
STANDARD
350
78
  0
DICTIONARY
  5
77
102
{ACAD_REACTORS
330
7
102
}
330
7
100
AcDbDictionary
  0
ACDBDICTIONARYWDFLT
  5
6
102
{ACAD_REACTORS
330
7
102
}
330
7
100
AcDbDictionary
281
     1
  3
Normal
350
5
100
AcDbDictionaryWithDefault
340
5
  0
DICTIONARY
  5
835
102
{ACAD_REACTORS
330
7
102
}
330
7
100
AcDbDictionary
  3
A0
350
836
  3
A1
350
837
  3
A2
350
838
  3
A3
350
839
  3
A4
350
83A
  3
A5
350
83B
  3
A6
350
83C
  3
A7
350
83D
  3
A8
350
83E
  3
A9
350
83F
  3
B0
350
840
  3
B1
350
841
  3
B2
350
842
  3
B3
350
843
  3
B4
350
844
  3
B5
350
845
  3
B6
350
846
  3
B7
350
847
  3
B8
350
848
  3
B9
350
849
  3
C0
350
84A
  3
C1
350
84B
  3
C2
350
84C
  3
C3
350
84D
  3
C4
350
84E
  3
C5
350
84F
  3
C6
350
850
  3
C7
350
851
  3
C8
350
852
  3
C9
350
853
  3
D0
350
854
  3
D1
350
855
  3
D2
350
856
  0
DICTIONARY
  5
833
102
{ACAD_REACTORS
330
7
102
}
330
7
100
AcDbDictionary
  3
STANDARD
350
834
  0
DICTIONARY
  5
821
102
{ACAD_REACTORS
330
7
102
}
330
7
100
AcDbDictionary
  3
2DWIREFRAME
350
827
  3
3D_HIDDEN
350
829
  3
3DWIREFRAME
350
828
  3
BASIC
350
826
  3
BRIGHTEN
350
82D
  3
COLORCHANGE
350
831
  3
CONCEPTUAL
350
82A
  3
DIM
350
82C
  3
FACEPATTERN
350
830
  3
FLAT
350
822
  3
FLATWITHEDGES
350
823
  3
GOURAUD
350
824
  3
GOURAUDWITHEDGES
350
825
  3
LINEPATTERN
350
82F
  3
REALISTIC
350
82B
  3
THICKEN
350
82E
  0
XRECORD
  5
480
102
{ACAD_REACTORS
330
7
102
}
330
7
100
AcDbXrecord
 90
   990106
  3

 60
     0
 61
     0
 62
     1
 63
     3
 64
     1
 65
     0
 66
     0
 67
     3
 68
     1
 69
     0
 70
     0
 71
     0
 72
     0
 40
0.0
170
     2
340
0
  0
XRECORD
  5
88E
102
{ACAD_REACTORS
330
7
102
}
330
7
100
AcDbXrecord
 90
        1
330
834
  0
DICTIONARY
  5
2BEB
102
{ACAD_REACTORS
330
7
102
}
330
7
100
AcDbDictionary
  3
CEPSNTYPE
350
2BF5
  3
DIMSTYLEDATA
350
2BF9
  3
FINGERPRINTGUID
350
2BF6
  3
HYPERLINKBASE
350
2BEE
  3
INSUNITS
350
2BF4
  3
LAYOUTDICT
350
2BF0
  3
LWETCUNION
350
2BF3
  3
PLOTSETDICT
350
2BF1
  3
PLOTSTYLNAMDICT
350
2BF2
  3
PSVPSCALE
350
2BF8
  3
PUCSBASE
350
2BFC
  3
PUCSORGBACK
350
2C02
  3
PUCSORGBOTTOM
350
2BFE
  3
PUCSORGFRONT
350
2C01
  3
PUCSORGLEFT
350
2BFF
  3
PUCSORGRIGHT
350
2C00
  3
PUCSORGTOP
350
2BFD
  3
PUCSORTHOREF
350
2BFA
  3
PUCSORTHOVIEW
350
2BFB
  3
STYLESHEET
350
2BEF
  3
TSTACKALIGN
350
2BEC
  3
TSTACKSIZE
350
2BED
  3
UCSBASE
350
2C05
  3
UCSORGBACK
350
2C0B
  3
UCSORGBOTTOM
350
2C07
  3
UCSORGFRONT
350
2C0A
  3
UCSORGLEFT
350
2C08
  3
UCSORGRIGHT
350
2C09
  3
UCSORGTOP
350
2C06
  3
UCSORTHOREF
350
2C03
  3
UCSORTHOVIEW
350
2C04
  3
VERSIONGUID
350
2BF7
  0
DICTIONARY
  5
102
102
{ACAD_REACTORS
330
7
102
}
330
7
100
AcDbDictionary
  3
CANNOSCALE
350
892
  3
CMLEADERSTYLE
350
890
  3
CTABLESTYLE
350
88F
  3
DIMASSOC
350
103
  3
INDEXCTL
350
1AB6
  3
LIGHTINGUNITS
350
893
  3
MSLTSCALE
350
891
  3
SORTENTS
350
549
  0
XRECORD
  5
2BC0
102
{ACAD_REACTORS
330
7
102
}
330
7
100
AcDbXrecord
  1
DWGPROPS COOKIE
  2

  3

  4

  6

  7

  8
knsuzuki
  9

300
=
301
=
302
=
303
=
304
=
305
=
306
=
307
=
308
=
309
=
 40
0.1049088541666667
 41
2454888.679706122
 42
2454904.406186516
  1

 90
        0
  0
XRECORD
  5
2BC4
102
{ACAD_REACTORS
330
1AA9
102
}
330
1AA9
100
AcDbXrecord
102
VTR_0.000_0.000_1.000_1.000_VISUALSTYLE
340
827
102
VTR_0.000_0.000_1.000_1.000_GRIDDISPLAY
 70
     3
102
VTR_0.000_0.000_1.000_1.000_GRIDMAJOR
 70
     5
102
VTR_0.000_0.000_1.000_1.000_DEFAULTLIGHTING
280
     1
102
VTR_0.000_0.000_1.000_1.000_DEFAULTLIGHTINGTYPE
 70
     1
102
VTR_0.000_0.000_1.000_1.000_BRIGHTNESS
141
0.0
102
VTR_0.000_0.000_1.000_1.000_CONTRAST
142
0.0
  0
DICTIONARY
  5
86C
102
{ACAD_REACTORS
330
86B
102
}
330
86B
100
AcDbDictionary
  0
XRECORD
  5
128E
102
{ACAD_REACTORS
330
128D
102
}
330
128D
100
AcDbXrecord
290
     1
  0
XRECORD
  5
1290
102
{ACAD_REACTORS
330
128F
102
}
330
128F
100
AcDbXrecord
290
     1
  0
XRECORD
  5
1296
102
{ACAD_REACTORS
330
1295
102
}
330
1295
100
AcDbXrecord
290
     1
  0
XRECORD
  5
1298
102
{ACAD_REACTORS
330
1297
102
}
330
1297
100
AcDbXrecord
290
     1
  0
XRECORD
  5
129C
102
{ACAD_REACTORS
330
129B
102
}
330
129B
100
AcDbXrecord
290
     1
  0
XRECORD
  5
2C0C
102
{ACAD_REACTORS
330
1236
102
}
330
1236
100
AcDbXrecord
340
2
  0
SORTENTSTABLE
  5
1237
102
{ACAD_REACTORS
330
1236
102
}
330
1236
100
AcDbSortentsTable
330
2
331
1201
  5
1203
331
1209
  5
120B
331
142D
  5
1434
331
1435
  5
1436
331
1211
  5
1213
331
1307
  5
131D
331
1ABB
  5
2152
331
22C1
  5
22C3
331
228A
  5
228C
331
2300
  5
2302
331
24DD
  5
24DD
331
233F
  5
2341
331
22C9
  5
22CB
331
2292
  5
2294
331
2308
  5
230A
331
2310
  5
2312
331
24F5
  5
24F6
331
229A
  5
229C
331
22D1
  5
22D3
331
24FD
  5
24FE
331
2163
  5
2164
331
22D9
  5
22DB
331
234F
  5
2351
331
2357
  5
2359
331
D58
  5
D5A
331
C53
  5
C53
331
CF9
  5
CFA
331
BD9
  5
BD9
331
C18
  5
C18
331
10FC
  5
10FE
331
D01
  5
D02
331
C5B
  5
C5B
331
D60
  5
D62
331
D9F
  5
DA1
331
109D
  5
109F
331
BE1
  5
BE1
331
C20
  5
C20
331
1104
  5
1106
331
D68
  5
D6A
331
CD2
  5
CD3
331
D09
  5
D0A
331
DA7
  5
DA9
331
DE6
  5
DE8
331
10A5
  5
10A7
331
C28
  5
C28
331
110C
  5
110E
331
BE9
  5
BE9
331
10AD
  5
10AF
331
C8B
  5
C8C
331
D11
  5
D12
331
DAF
  5
DB1
331
BF1
  5
BF1
331
DB7
  5
DB9
331
10B5
  5
10B7
331
1112
  5
1114
331
11A2
  5
11A8
331
1229
  5
122B
331
11AA
  5
11FC
331
12B0
  5
12CA
331
1505
  5
1543
331
22A2
  5
22A4
331
216B
  5
216C
331
22E1
  5
22E3
331
2318
  5
231A
331
22E9
  5
22EB
331
2173
  5
2174
331
22AA
  5
22AC
331
2320
  5
2322
331
235F
  5
2361
331
2367
  5
2369
331
22F1
  5
22F3
331
22B2
  5
22B6
331
2328
  5
232A
331
24BE
  5
24C0
331
2330
  5
2332
331
22BA
  5
22BC
331
22F9
  5
22FB
331
236F
  5
2371
331
24C6
  5
24C8
331
2377
  5
2379
331
C34
  5
C34
331
CDA
  5
CDB
331
D19
  5
D1A
331
D70
  5
D72
331
BF9
  5
BF9
331
CE2
  5
CE3
331
C3C
  5
C3C
331
C9B
  5
C9C
331
D21
  5
D22
331
ED6
  5
ED8
331
C01
  5
C01
331
CEA
  5
CEB
331
C44
  5
C44
331
CA3
  5
CA4
331
C09
  5
C09
331
108E
  5
1090
331
C4C
  5
C4C
331
CAB
  5
CAC
331
CF2
  5
CF3
331
D51
  5
D53
331
D88
  5
D8A
331
DCF
  5
DD1
331
10ED
  5
10EF
331
BD2
  5
BD2
331
C11
  5
C11
331
1096
  5
1098
331
10F5
  5
10F7
331
1202
  5
1204
331
12F0
  5
1307
331
120A
  5
120C
331
1436
  5
14BF
331
1212
  5
1214
331
139F
  5
13B5
331
2338
  5
233A
331
22C2
  5
22C4
331
228B
  5
228D
331
2301
  5
2303
331
24DE
  5
24DE
331
2340
  5
2342
331
22CA
  5
22CC
331
2293
  5
2295
331
2309
  5
230B
331
24F6
  5
24F7
331
2311
  5
2313
331
229B
  5
229D
331
22D2
  5
22D4
331
2348
  5
234A
331
2164
  5
2165
331
22DA
  5
22DC
331
2350
  5
2352
331
24FE
  5
24FF
331
D59
  5
D5B
331
C54
  5
C54
331
CFA
  5
CFB
331
BDA
  5
BDA
331
C19
  5
C19
331
10FD
  5
10FF
331
D02
  5
D03
331
CCB
  5
CCC
331
C5C
  5
C5C
331
D61
  5
D63
331
DA0
  5
DA2
331
DDF
  5
DE1
331
109E
  5
10A0
331
BE2
  5
BE2
331
C21
  5
C21
331
10A6
  5
10A8
331
D69
  5
D6B
331
CD3
  5
CD4
331
D0A
  5
D0B
331
DA8
  5
DAA
331
DE7
  5
DE9
331
1105
  5
1107
331
C29
  5
C29
331
110D
  5
110F
331
BEA
  5
BEA
331
C8C
  5
C8D
331
D12
  5
D13
331
DB0
  5
DB2
331
10AE
  5
10B0
331
BF2
  5
BF2
331
10B6
  5
10B8
331
1113
  5
1115
331
122A
  5
122C
331
1605
  5
1606
331
11FB
  5
11FD
331
22A3
  5
22A5
331
216C
  5
216D
331
22E2
  5
22E4
331
2319
  5
231B
331
2358
  5
235A
331
2360
  5
2362
331
22EA
  5
22EC
331
2174
  5
2176
331
22AB
  5
22AD
331
2321
  5
2323
331
24B7
  5
24B8
331
2368
  5
236A
331
22F2
  5
22F4
331
2329
  5
232B
331
24BF
  5
24C1
331
2331
  5
2333
331
22BB
  5
22BD
331
2284
  5
2286
331
22FA
  5
22FC
331
2370
  5
2372
331
24C7
  5
24C9
331
C35
  5
C35
331
C94
  5
C95
331
CDB
  5
CDC
331
D1A
  5
D1B
331
D71
  5
D73
331
DB8
  5
DBA
331
BFA
  5
BFA
331
CE3
  5
CE4
331
C3D
  5
C3D
331
C9C
  5
C9D
331
D22
  5
D23
331
ED7
  5
ED9
331
C02
  5
C02
331
CEB
  5
CEC
331
C45
  5
C45
331
CA4
  5
CA5
331
D81
  5
D83
331
C0A
  5
C0A
331
C4D
  5
C4D
331
CAC
  5
CAD
331
CF3
  5
CF4
331
D52
  5
D54
331
D89
  5
D8B
331
DD0
  5
DD2
331
108F
  5
1091
331
10EE
  5
10F0
331
BD3
  5
BD3
331
C12
  5
C12
331
1097
  5
1099
331
10F6
  5
10F8
331
1203
  5
1205
331
120B
  5
120D
331
1596
  5
15E9
331
1213
  5
1215
331
2339
  5
233B
331
22C3
  5
22C5
331
14BF
  5
1505
331
228C
  5
228E
331
2302
  5
2304
331
2378
  5
237A
331
24DF
  5
24DF
331
2341
  5
2343
331
22CB
  5
22CD
331
2294
  5
2296
331
230A
  5
230C
331
24F7
  5
24F8
331
2312
  5
2314
331
229C
  5
229E
331
22D3
  5
22D5
331
2349
  5
234B
331
2165
  5
2166
331
22DB
  5
22DD
331
2351
  5
2353
331
24FF
  5
2500
331
D5A
  5
D5C
331
C55
  5
C55
331
CFB
  5
CFC
331
BDB
  5
BDB
331
C1A
  5
C1A
331
10FE
  5
1100
331
D03
  5
D04
331
CCC
  5
CCD
331
C5D
  5
C5D
331
D62
  5
D64
331
DA1
  5
DA3
331
DE0
  5
DE2
331
109F
  5
10A1
331
BE3
  5
BE3
331
C22
  5
C22
331
DE8
  5
ED6
331
10A7
  5
10A9
331
D6A
  5
D6C
331
CD4
  5
CD5
331
D0B
  5
D0C
331
DA9
  5
DAB
331
1106
  5
1108
331
BEB
  5
BEB
331
C2A
  5
C2A
331
C8D
  5
C8E
331
D13
  5
D14
331
DB1
  5
DB3
331
10AF
  5
10B1
331
110E
  5
1110
331
BF3
  5
BF3
331
10B7
  5
10B9
331
1114
  5
1116
331
122B
  5
122D
331
1606
  5
1789
331
1349
  5
1373
331
11FC
  5
11FE
331
12CA
  5
12F0
331
22A4
  5
22A6
331
216D
  5
2170
331
22E3
  5
22E5
331
231A
  5
231C
331
2359
  5
235B
331
2361
  5
2363
331
22EB
  5
22ED
331
2175
  5
2177
331
22AC
  5
22AE
331
2322
  5
2324
331
24B8
  5
24B9
331
2369
  5
236B
331
22F3
  5
22F5
331
232A
  5
232C
331
24C0
  5
24C2
331
2332
  5
2334
331
22BC
  5
22BE
331
2285
  5
2287
331
22FB
  5
22FD
331
2371
  5
2373
331
C36
  5
C36
331
C95
  5
C96
331
CDC
  5
CDD
331
D1B
  5
D1C
331
D72
  5
D74
331
DB9
  5
DBB
331
BFB
  5
BFB
331
CE4
  5
CE5
331
C3E
  5
C3E
331
C9D
  5
C9E
331
ED8
  5
EDA
331
10BF
  5
10E8
331
C03
  5
C03
331
CEC
  5
CED
331
C46
  5
C46
331
CA5
  5
CA6
331
D82
  5
D85
331
10E7
  5
10E9
331
BCC
  5
BCC
331
C0B
  5
C0B
331
C4E
  5
C4E
331
CAD
  5
CAE
331
CF4
  5
CF5
331
D53
  5
D55
331
D8A
  5
D8C
331
DD1
  5
DD3
331
1090
  5
1092
331
10EF
  5
10F1
331
BD4
  5
BD4
331
C13
  5
C13
331
10F7
  5
10F9
331
1389
  5
139F
331
1204
  5
1206
331
120C
  5
120E
331
1214
  5
1216
331
24D8
  5
24D8
331
233A
  5
233C
331
22C4
  5
22C6
331
228D
  5
228F
331
2303
  5
2305
331
2379
  5
237B
331
2342
  5
2344
331
22CC
  5
22CE
331
2295
  5
2297
331
230B
  5
230D
331
24F8
  5
24F9
331
2313
  5
2315
331
229D
  5
229F
331
22D4
  5
22D6
331
234A
  5
234C
331
2166
  5
2167
331
22DC
  5
22DE
331
2352
  5
2354
331
D5B
  5
D5D
331
C56
  5
C56
331
CFC
  5
CFD
331
1098
  5
109A
331
BDC
  5
BDC
331
C1B
  5
C1B
331
10FF
  5
1101
331
D04
  5
D05
331
CCD
  5
CCE
331
C5E
  5
C5E
331
D63
  5
D65
331
DA2
  5
DA4
331
DE1
  5
DE3
331
10A0
  5
10A2
331
BE4
  5
BE4
331
C23
  5
C23
331
10A8
  5
10AA
331
D6B
  5
D6D
331
CD5
  5
CD6
331
D0C
  5
D0D
331
DAA
  5
DAC
331
1107
  5
1109
331
BEC
  5
BEC
331
C2B
  5
C2B
331
C8E
  5
C8F
331
D14
  5
D15
331
DB2
  5
DB4
331
10B0
  5
10B2
331
110F
  5
1111
331
BF4
  5
BF4
331
1115
  5
11A1
331
122C
  5
122E
331
11FD
  5
11FF
331
22A5
  5
22A7
331
22E4
  5
22E6
331
231B
  5
231D
331
235A
  5
235C
331
2362
  5
2364
331
22EC
  5
22EE
331
2176
  5
2178
331
22AD
  5
22B0
331
2323
  5
2325
331
24B9
  5
24BA
331
236A
  5
236C
331
22F4
  5
22F6
331
22B5
  5
22B7
331
232B
  5
232D
331
24C1
  5
24C3
331
2333
  5
2335
331
22BD
  5
22BF
331
2286
  5
2288
331
22FC
  5
22FE
331
2372
  5
2374
331
C37
  5
C37
331
C96
  5
C97
331
CDD
  5
CDE
331
D1C
  5
D1D
331
D73
  5
D75
331
DBA
  5
DBC
331
10B8
  5
10BA
331
BFC
  5
BFC
331
CE5
  5
CE6
331
C3F
  5
C3F
331
C9E
  5
C9F
331
D7B
  5
D7D
331
DC2
  5
DC4
331
ED9
  5
108B
331
C04
  5
C04
331
10E8
  5
10EA
331
CED
  5
CEE
331
C47
  5
C47
331
CA6
  5
CA7
331
DCA
  5
DCC
331
BCD
  5
BCD
331
C0C
  5
C0C
331
C4F
  5
C4F
331
CAE
  5
CAF
331
CF5
  5
CF6
331
D54
  5
D56
331
D8B
  5
D8D
331
DD2
  5
DD4
331
1091
  5
1093
331
10F0
  5
10F2
331
BD5
  5
BD5
331
C14
  5
C14
331
1205
  5
1207
331
120D
  5
120F
331
1215
  5
1217
331
24D9
  5
24D9
331
233B
  5
233D
331
22C5
  5
22C7
331
228E
  5
2290
331
2304
  5
2306
331
237A
  5
237C
331
2343
  5
2345
331
22CD
  5
22CF
331
2296
  5
2298
331
230C
  5
230E
331
24F9
  5
24FA
331
2314
  5
2316
331
229E
  5
22A0
331
22D5
  5
22D7
331
234B
  5
234D
331
2167
  5
2168
331
22DD
  5
22DF
331
2353
  5
2355
331
D5C
  5
D5E
331
C57
  5
C57
331
CFD
  5
CFE
331
1099
  5
109B
331
10F8
  5
10FA
331
1100
  5
1102
331
D05
  5
D06
331
CCE
  5
CCF
331
C5F
  5
C5F
331
D64
  5
D66
331
DA3
  5
DA5
331
DE2
  5
DE4
331
10A1
  5
10A3
331
BDD
  5
BDD
331
C1C
  5
C1C
331
10A9
  5
10AB
331
D6C
  5
D6E
331
CD6
  5
CD7
331
D0D
  5
D0E
331
DAB
  5
DAD
331
1108
  5
110A
331
BE5
  5
BE5
331
C24
  5
C24
331
C2C
  5
C2C
331
C8F
  5
C90
331
D15
  5
D16
331
DB3
  5
DB5
331
10B1
  5
10B3
331
BED
  5
BED
331
BF5
  5
BF5
331
122D
  5
122F
331
1333
  5
1349
331
1412
  5
142C
331
1373
  5
1389
331
11FE
  5
1200
331
22A6
  5
22A8
331
22E5
  5
22E7
331
231C
  5
231E
331
235B
  5
235D
331
2363
  5
2365
331
2177
  5
2179
331
22ED
  5
22EF
331
2324
  5
2326
331
24BA
  5
24BB
331
236B
  5
236D
331
22F5
  5
22F7
331
22B6
  5
22B8
331
232C
  5
232E
331
24C2
  5
24C4
331
2334
  5
2336
331
22BE
  5
22C0
331
2287
  5
2289
331
22FD
  5
22FF
331
2373
  5
2375
331
C30
  5
C30
331
C38
  5
C38
331
C97
  5
C98
331
CDE
  5
CDF
331
D1D
  5
D1E
331
D74
  5
D76
331
DBB
  5
DC3
331
10B9
  5
10C0
331
CE6
  5
CE7
331
C40
  5
C40
331
C9F
  5
CA0
331
D7C
  5
D7E
331
DC3
  5
DCB
331
EDA
  5
108D
331
BFD
  5
BFD
331
10E9
  5
10EB
331
D84
  5
D86
331
CEE
  5
CEF
331
C48
  5
C48
331
CA7
  5
CA8
331
D4D
  5
D4E
331
DCB
  5
DCD
331
C05
  5
C05
331
CAF
  5
CB0
331
CF6
  5
CF7
331
D55
  5
D57
331
D8C
  5
D8E
331
DD3
  5
DD5
331
1092
  5
1094
331
10F1
  5
10F3
331
BCE
  5
BCE
331
C0D
  5
C0D
331
BD6
  5
BD6
331
C15
  5
C15
331
1206
  5
1208
331
1559
  5
1596
331
120E
  5
1210
331
1216
  5
1218
331
24DA
  5
24DA
331
233C
  5
233E
331
22C6
  5
22C8
331
228F
  5
2291
331
2305
  5
2307
331
237B
  5
237D
331
2344
  5
2346
331
22CE
  5
22D0
331
2297
  5
2299
331
230D
  5
230F
331
24FA
  5
24FB
331
2315
  5
2317
331
229F
  5
22A1
331
22D6
  5
22D8
331
234C
  5
234E
331
22DE
  5
22E0
331
2354
  5
2356
331
C50
  5
C50
331
D5D
  5
D5F
331
C58
  5
C58
331
CFE
  5
CFF
331
D9C
  5
D9E
331
109A
  5
109C
331
10F9
  5
10FB
331
1101
  5
1103
331
D06
  5
D07
331
CCF
  5
CD0
331
C60
  5
C60
331
D65
  5
D67
331
DA4
  5
DA6
331
DE3
  5
DE5
331
10A2
  5
10A4
331
BDE
  5
BDE
331
C1D
  5
C1D
331
10AA
  5
10AC
331
D6D
  5
D6F
331
CD7
  5
CD8
331
D0E
  5
D0F
331
DAC
  5
DAE
331
1109
  5
110B
331
BE6
  5
BE6
331
C25
  5
C25
331
C2D
  5
C2D
331
D16
  5
D17
331
DB4
  5
DB6
331
10B2
  5
10B4
331
BEE
  5
BEE
331
BF6
  5
BF6
331
1226
  5
1228
331
122E
  5
1230
331
11A7
  5
11A9
331
19B1
  5
19D1
331
13FB
  5
1412
331
19D1
  5
19D2
331
2168
  5
2169
331
11FF
  5
1201
331
2170
  5
2171
331
22A7
  5
22A9
331
22E6
  5
22E8
331
231D
  5
231F
331
235C
  5
235E
331
2364
  5
2366
331
22EE
  5
22F0
331
2178
  5
217A
331
22AF
  5
22B1
331
2325
  5
2327
331
24BB
  5
24BD
331
236C
  5
236E
331
22F6
  5
22F8
331
22B7
  5
22B9
331
232D
  5
232F
331
24C3
  5
24C5
331
2335
  5
2337
331
22BF
  5
22C1
331
22FE
  5
2300
331
2374
  5
2376
331
C31
  5
C31
331
C90
  5
C91
331
C39
  5
C39
331
C98
  5
C99
331
CDF
  5
CE0
331
D1E
  5
D1F
331
D75
  5
D77
331
CE7
  5
CE8
331
C41
  5
C41
331
CA0
  5
CA1
331
D7D
  5
D7F
331
BFE
  5
BFE
331
10EA
  5
10EC
331
D85
  5
D87
331
CEF
  5
CF0
331
D4E
  5
D50
331
DCC
  5
DCE
331
C06
  5
C06
331
C49
  5
C49
331
CA8
  5
CA9
331
BCF
  5
BCF
331
C0E
  5
C0E
331
CF7
  5
CF8
331
D56
  5
D58
331
D8D
  5
D8F
331
DD4
  5
DD6
331
1093
  5
1095
331
10F2
  5
10F4
331
BD7
  5
BD7
331
C16
  5
C16
331
1207
  5
1209
331
120F
  5
1211
331
1217
  5
1219
331
2288
  5
228A
331
131D
  5
1333
331
24DB
  5
24DB
331
233D
  5
233F
331
22C7
  5
22C9
331
2290
  5
2292
331
2306
  5
2308
331
24F3
  5
24F3
331
2345
  5
2347
331
2298
  5
229A
331
22CF
  5
22D1
331
230E
  5
2310
331
24FB
  5
24FC
331
2316
  5
2318
331
22D7
  5
22D9
331
234D
  5
234F
331
22DF
  5
22E1
331
2355
  5
2357
331
C51
  5
C51
331
CB0
  5
CB1
331
D5E
  5
D60
331
C59
  5
C59
331
CFF
  5
D00
331
D9D
  5
D9F
331
109B
  5
109D
331
10FA
  5
10FC
331
BDF
  5
BDF
331
C1E
  5
C1E
331
1102
  5
1104
331
CD0
  5
CD1
331
D07
  5
D08
331
D66
  5
D68
331
DA5
  5
DA7
331
DE4
  5
DE6
331
10A3
  5
10A5
331
110A
  5
110C
331
BE7
  5
BE7
331
C26
  5
C26
331
10AB
  5
10AD
331
D6E
  5
D70
331
D0F
  5
D10
331
DAD
  5
DAF
331
C2E
  5
C2E
331
BEF
  5
BEF
331
D17
  5
D18
331
DB5
  5
DB7
331
10B3
  5
10B5
331
BF7
  5
BF7
331
1110
  5
1112
331
11A0
  5
11A2
331
1227
  5
1229
331
122F
  5
1231
331
11A8
  5
11AA
331
19D2
  5
1ABB
331
22A0
  5
22A2
331
2169
  5
216A
331
1543
  5
1559
331
2171
  5
2172
331
22A8
  5
22AA
331
22E7
  5
22E9
331
231E
  5
2320
331
235D
  5
235F
331
2365
  5
2367
331
22EF
  5
22F1
331
2179
  5
217B
331
22B0
  5
22B2
331
2326
  5
2328
331
24BC
  5
24BE
331
236D
  5
236F
331
22B8
  5
22BA
331
22F7
  5
22F9
331
232E
  5
2330
331
2375
  5
2377
331
22FF
  5
2301
331
2336
  5
2338
331
24C4
  5
24C6
331
C32
  5
C32
331
C91
  5
C92
331
CD8
  5
CD9
331
CE0
  5
CE1
331
C3A
  5
C3A
331
C99
  5
C9A
331
D1F
  5
D20
331
D76
  5
D7C
331
BFF
  5
BFF
331
CE8
  5
CE9
331
C42
  5
C42
331
CA1
  5
CA2
331
D7E
  5
D82
331
C07
  5
C07
331
108C
  5
108E
331
D86
  5
D88
331
C4A
  5
C4A
331
CA9
  5
CAA
331
CF0
  5
CF1
331
D4F
  5
D51
331
DCD
  5
DCF
331
10EB
  5
10ED
331
BD0
  5
BD0
331
C0F
  5
C0F
331
D57
  5
D59
331
D8E
  5
D90
331
DD5
  5
DD7
331
1094
  5
1096
331
10F3
  5
10F5
331
C17
  5
C17
331
1200
  5
1202
331
1208
  5
120A
331
142C
  5
142D
331
1210
  5
1212
331
1434
  5
1435
331
1218
  5
1227
331
22C0
  5
22C2
331
2289
  5
228B
331
24DC
  5
24DC
331
233E
  5
2340
331
22C8
  5
22CA
331
2291
  5
2293
331
2307
  5
2309
331
237D
  5
2175
331
24F4
  5
24F4
331
2346
  5
2349
331
2299
  5
229B
331
2152
  5
2163
331
22D0
  5
22D2
331
230F
  5
2311
331
24FC
  5
24FD
331
2317
  5
2319
331
22D8
  5
22DA
331
234E
  5
2350
331
2356
  5
2358
331
C52
  5
C52
331
CF8
  5
CF9
331
BD8
  5
BD8
331
D00
  5
D01
331
C5A
  5
C5A
331
D5F
  5
D61
331
D9E
  5
DA0
331
109C
  5
109E
331
10FB
  5
10FD
331
BE0
  5
BE0
331
C1F
  5
C1F
331
1103
  5
1105
331
CD1
  5
CD2
331
D08
  5
D09
331
D67
  5
D69
331
DA6
  5
DA8
331
DE5
  5
DE7
331
10A4
  5
10A6
331
110B
  5
110D
331
BE8
  5
BE8
331
C27
  5
C27
331
10AC
  5
10AE
331
D6F
  5
D71
331
D10
  5
D11
331
DAE
  5
DB0
331
C2F
  5
C2F
331
BF0
  5
BF0
331
DB6
  5
DB8
331
10B4
  5
10B6
331
1111
  5
1113
331
11A1
  5
11A3
331
1228
  5
122A
331
13E5
  5
13FB
331
11A9
  5
11AB
331
1230
  5
12B0
331
22A1
  5
22A3
331
216A
  5
216B
331
22E0
  5
22E2
331
22E8
  5
22EA
331
2172
  5
2173
331
22A9
  5
22AB
331
231F
  5
2321
331
235E
  5
2360
331
2366
  5
2368
331
22F0
  5
22F2
331
217A
  5
2284
331
22B1
  5
22B3
331
2327
  5
2329
331
24BD
  5
24BF
331
236E
  5
2370
331
22B9
  5
22BB
331
2282
  5
2285
331
22F8
  5
22FA
331
232F
  5
2331
331
24C5
  5
24C7
331
2337
  5
2339
331
2376
  5
2378
331
C33
  5
C33
331
C92
  5
C93
331
CD9
  5
CDA
331
D18
  5
D19
331
BF8
  5
BF8
331
CE1
  5
CE2
331
C3B
  5
C3B
331
C9A
  5
C9B
331
D20
  5
D21
331
ED5
  5
ED7
331
C00
  5
C00
331
CE9
  5
CEA
331
C43
  5
C43
331
CA2
  5
CA3
331
C08
  5
C08
331
108D
  5
108F
331
C4B
  5
C4B
331
CAA
  5
CAB
331
CF1
  5
CF2
331
D50
  5
D52
331
D87
  5
D89
331
DCE
  5
DD0
331
10EC
  5
10EE
331
BD1
  5
BD1
331
C10
  5
C10
331
D8F
  5
D9D
331
DD6
  5
DE0
331
1095
  5
1097
331
10F4
  5
10F6
  0
XRECORD
  5
2C0E
102
{ACAD_REACTORS
330
2C0D
102
}
330
2C0D
100
AcDbXrecord
340
2BE5
  0
ACAD_PROXY_OBJECT
  5
811
102
{ACAD_XDICTIONARY
360
812
102
}
102
{ACAD_REACTORS
330
808
102
}
330
808
100
AcDbProxyObject
 90
      499
 91
      512
 93
     1340
310
42109E509B1BD8DAC02004014080404555555555555953FAA155555555555654FEA9AA400014080404555555555555953FAA155555555555654FEA9AA400000000000000E03F4080404555555555555953FAA155555555555654FEA9AA4014080404555555555555953FAA155555555555654FEA9AA4010201011555555555
310
55654FEA8555555555555953FAA6A9005020101155555555555654FEA8555555555555953FAA6A9000
 94
        0
1001
ACAD
1000
AcadProxyRoundTripData
1071
      504
1071
   851991
1070
     0
  0
ACAD_PROXY_OBJECT
  5
809
102
{ACAD_XDICTIONARY
360
80A
102
}
102
{ACAD_REACTORS
330
808
102
}
330
808
100
AcDbProxyObject
 90
      499
 91
      512
 93
     1340
310
42109E53185E595C802004014080404555555555555953FAA155555555555654FEA9AA400014080404555555555555953FAA155555555555654FEA9AA400000000000000E03F4080404555555555555953FAA155555555555654FEA9AA4014080404555555555555953FAA155555555555654FEA9AA4010201011555555555
310
55654FEA8555555555555953FAA6A9005020101155555555555654FEA8555555555555953FAA6A9000
 94
        0
1001
ACAD
1000
AcadProxyRoundTripData
1071
      504
1071
   851991
1070
     0
  0
ACAD_PROXY_OBJECT
  5
819
102
{ACAD_XDICTIONARY
360
81A
102
}
102
{ACAD_REACTORS
330
808
102
}
330
808
100
AcDbProxyObject
 90
      499
 91
      512
 93
     1332
310
41D1DB1BD8985B002004014080404555555555555953FAA155555555555654FEA9AA400014080404555555555555953FAA155555555555654FEA9AA400000000000000E03F4080404555555555555953FAA155555555555654FEA9AA4014080404555555555555953FAA155555555555654FEA9AA401020101155555555555
310
654FEA8555555555555953FAA6A9005020101155555555555654FEA8555555555555953FAA6A9000
 94
        0
1001
ACAD
1000
AcadProxyRoundTripData
1071
      504
1071
   851991
1070
     0
  0
ACAD_PROXY_OBJECT
  5
858
102
{ACAD_REACTORS
330
857
102
}
330
857
100
AcDbProxyObject
 90
      499
 91
      512
 93
      618
310
40901902A4063FBFFFFFE056BD1B81E855B9FC0AD7A3703D0AD73F4254DD185B99185C990000AD7A3703D0AC73F90141901A02B5E8DC0F42B1CFC02B5E8DC0F42B1CFE5764000000000000300FC6
340
6A
340
0
340
16
340
0
 94
        0
1001
ACAD_MLEADERVER
1070
     2
1001
ACAD
1000
AcadProxyRoundTripData
1071
      508
1071
   851991
1070
     0
  0
MLINESTYLE
  5
78
102
{ACAD_REACTORS
330
76
102
}
330
76
100
AcDbMlineStyle
  2
STANDARD
 70
     0
  3

 62
     0
 51
90.0
 52
90.0
 71
     2
 49
0.5
 62
   256
  6
BYLAYER
 49
-0.5
 62
   256
  6
BYLAYER
  0
ACDBPLACEHOLDER
  5
5
102
{ACAD_REACTORS
330
6
102
}
330
6
100
AcDbPlaceHolder
280
     0
  0
ACAD_PROXY_OBJECT
  5
836
102
{ACAD_REACTORS
330
835
102
}
330
835
100
AcDbProxyObject
 90
      499
 91
      512
 93
       49
310
904313A3100598
 94
        0
1001
ACAD
1000
AcadProxyRoundTripData
1071
      507
1071
   851991
1070
     0
  0
ACAD_PROXY_OBJECT
  5
837
102
{ACAD_REACTORS
330
835
102
}
330
835
100
AcDbProxyObject
 90
      499
 91
      512
 93
      113
310
904313A3200400000000000000406B
 94
        0
1001
ACAD
1000
AcadProxyRoundTripData
1071
      507
1071
   851991
1070
     0
  0
ACAD_PROXY_OBJECT
  5
838
102
{ACAD_REACTORS
330
835
102
}
330
835
100
AcDbProxyObject
 90
      499
 91
      512
 93
      113
310
904313A3400400000000000010406B
 94
        0
1001
ACAD
1000
AcadProxyRoundTripData
1071
      507
1071
   851991
1070
     0
  0
ACAD_PROXY_OBJECT
  5
839
102
{ACAD_REACTORS
330
835
102
}
330
835
100
AcDbProxyObject
 90
      499
 91
      512
 93
      113
310
904313A3500400000000000014406B
 94
        0
1001
ACAD
1000
AcadProxyRoundTripData
1071
      507
1071
   851991
1070
     0
  0
ACAD_PROXY_OBJECT
  5
83A
102
{ACAD_REACTORS
330
835
102
}
330
835
100
AcDbProxyObject
 90
      499
 91
      512
 93
      113
310
904313A3800400000000000020406B
 94
        0
1001
ACAD
1000
AcadProxyRoundTripData
1071
      507
1071
   851991
1070
     0
  0
ACAD_PROXY_OBJECT
  5
83B
102
{ACAD_REACTORS
330
835
102
}
330
835
100
AcDbProxyObject
 90
      499
 91
      512
 93
      121
310
905313A3130004000000000000244051
 94
        0
1001
ACAD
1000
AcadProxyRoundTripData
1071
      507
1071
   851991
1070
     0
  0
ACAD_PROXY_OBJECT
  5
83C
102
{ACAD_REACTORS
330
835
102
}
330
835
100
AcDbProxyObject
 90
      499
 91
      512
 93
      121
310
905313A3136004000000000000304051
 94
        0
1001
ACAD
1000
AcadProxyRoundTripData
1071
      507
1071
   851991
1070
     0
  0
ACAD_PROXY_OBJECT
  5
83D
102
{ACAD_REACTORS
330
835
102
}
330
835
100
AcDbProxyObject
 90
      499
 91
      512
 93
      121
310
905313A3230004000000000000344051
 94
        0
1001
ACAD
1000
AcadProxyRoundTripData
1071
      507
1071
   851991
1070
     0
  0
ACAD_PROXY_OBJECT
  5
83E
102
{ACAD_REACTORS
330
835
102
}
330
835
100
AcDbProxyObject
 90
      499
 91
      512
 93
      121
310
905313A33300040000000000003E4051
 94
        0
1001
ACAD
1000
AcadProxyRoundTripData
1071
      507
1071
   851991
1070
     0
  0
ACAD_PROXY_OBJECT
  5
83F
102
{ACAD_REACTORS
330
835
102
}
330
835
100
AcDbProxyObject
 90
      499
 91
      512
 93
      121
310
905313A3430004000000000000444051
 94
        0
1001
ACAD
1000
AcadProxyRoundTripData
1071
      507
1071
   851991
1070
     0
  0
ACAD_PROXY_OBJECT
  5
840
102
{ACAD_REACTORS
330
835
102
}
330
835
100
AcDbProxyObject
 90
      499
 91
      512
 93
      121
310
905313A3530004000000000000494051
 94
        0
1001
ACAD
1000
AcadProxyRoundTripData
1071
      507
1071
   851991
1070
     0
  0
ACAD_PROXY_OBJECT
  5
841
102
{ACAD_REACTORS
330
835
102
}
330
835
100
AcDbProxyObject
 90
      499
 91
      512
 93
      129
310
906313A313030004000000000000594038
 94
        0
1001
ACAD
1000
AcadProxyRoundTripData
1071
      507
1071
   851991
1070
     0
  0
ACAD_PROXY_OBJECT
  5
842
102
{ACAD_REACTORS
330
835
102
}
330
835
100
AcDbProxyObject
 90
      499
 91
      512
 93
      113
310
904323A31000000000000000010159
 94
        0
1001
ACAD
1000
AcadProxyRoundTripData
1071
      507
1071
   851991
1070
     0
  0
ACAD_PROXY_OBJECT
  5
843
102
{ACAD_REACTORS
330
835
102
}
330
835
100
AcDbProxyObject
 90
      499
 91
      512
 93
      113
310
904343A31000000000000000410159
 94
        0
1001
ACAD
1000
AcadProxyRoundTripData
1071
      507
1071
   851991
1070
     0
  0
ACAD_PROXY_OBJECT
  5
844
102
{ACAD_REACTORS
330
835
102
}
330
835
100
AcDbProxyObject
 90
      499
 91
      512
 93
      113
310
904383A31000000000000000810159
 94
        0
1001
ACAD
1000
AcadProxyRoundTripData
1071
      507
1071
   851991
1070
     0
  0
ACAD_PROXY_OBJECT
  5
845
102
{ACAD_REACTORS
330
835
102
}
330
835
100
AcDbProxyObject
 90
      499
 91
      512
 93
      121
310
90531303A31000000000000000910140
 94
        0
1001
ACAD
1000
AcadProxyRoundTripData
1071
      507
1071
   851991
1070
     0
  0
ACAD_PROXY_OBJECT
  5
846
102
{ACAD_REACTORS
330
835
102
}
330
835
100
AcDbProxyObject
 90
      499
 91
      512
 93
      129
310
9063130303A31000000000000001650138
 94
        0
1001
ACAD
1000
AcadProxyRoundTripData
1071
      507
1071
   851991
1070
     0
  0
ACAD_PROXY_OBJECT
  5
847
102
{ACAD_REACTORS
330
835
102
}
330
835
100
AcDbProxyObject
 90
      499
 91
      512
 93
      265
310
90F312F31323822203D2031272D302200000000000000200FC00000000000028402B
 94
        0
1001
ACAD
1000
AcadProxyRoundTripData
1071
      507
1071
   851991
1070
     0
  0
ACAD_PROXY_OBJECT
  5
848
102
{ACAD_REACTORS
330
835
102
}
330
835
100
AcDbProxyObject
 90
      499
 91
      512
 93
      257
310
90E312F363422203D2031272D302200000000000000240FC000000000000284040
 94
        0
1001
ACAD
1000
AcadProxyRoundTripData
1071
      507
1071
   851991
1070
     0
  0
ACAD_PROXY_OBJECT
  5
849
102
{ACAD_REACTORS
330
835
102
}
330
835
100
AcDbProxyObject
 90
      499
 91
      512
 93
      257
310
90E312F333222203D2031272D302200000000000000280FC000000000000284040
 94
        0
1001
ACAD
1000
AcadProxyRoundTripData
1071
      507
1071
   851991
1070
     0
  0
ACAD_PROXY_OBJECT
  5
84A
102
{ACAD_REACTORS
330
835
102
}
330
835
100
AcDbProxyObject
 90
      499
 91
      512
 93
      257
310
90E312F313622203D2031272D3022000000000000002C0FC000000000000284040
 94
        0
1001
ACAD
1000
AcadProxyRoundTripData
1071
      507
1071
   851991
1070
     0
  0
ACAD_PROXY_OBJECT
  5
84B
102
{ACAD_REACTORS
330
835
102
}
330
835
100
AcDbProxyObject
 90
      499
 91
      512
 93
      257
310
90E332F333222203D2031272D3022000000000000002E0FC000000000000284040
 94
        0
1001
ACAD
1000
AcadProxyRoundTripData
1071
      507
1071
   851991
1070
     0
  0
ACAD_PROXY_OBJECT
  5
84C
102
{ACAD_REACTORS
330
835
102
}
330
835
100
AcDbProxyObject
 90
      499
 91
      512
 93
      249
310
90D312F3822203D2031272D302200000000000000300FC000000000000284040
 94
        0
1001
ACAD
1000
AcadProxyRoundTripData
1071
      507
1071
   851991
1070
     0
  0
ACAD_PROXY_OBJECT
  5
84D
102
{ACAD_REACTORS
330
835
102
}
330
835
100
AcDbProxyObject
 90
      499
 91
      512
 93
      257
310
90E332F313622203D2031272D302200000000000000320FC000000000000284040
 94
        0
1001
ACAD
1000
AcadProxyRoundTripData
1071
      507
1071
   851991
1070
     0
  0
ACAD_PROXY_OBJECT
  5
84E
102
{ACAD_REACTORS
330
835
102
}
330
835
100
AcDbProxyObject
 90
      499
 91
      512
 93
      249
310
90D312F3422203D2031272D302200000000000000340FC000000000000284040
 94
        0
1001
ACAD
1000
AcadProxyRoundTripData
1071
      507
1071
   851991
1070
     0
  0
ACAD_PROXY_OBJECT
  5
84F
102
{ACAD_REACTORS
330
835
102
}
330
835
100
AcDbProxyObject
 90
      499
 91
      512
 93
      249
310
90D332F3822203D2031272D302200000000000000360FC000000000000284040
 94
        0
1001
ACAD
1000
AcadProxyRoundTripData
1071
      507
1071
   851991
1070
     0
  0
ACAD_PROXY_OBJECT
  5
850
102
{ACAD_REACTORS
330
835
102
}
330
835
100
AcDbProxyObject
 90
      499
 91
      512
 93
      249
310
90D312F3222203D2031272D302200000000000000380FC000000000000284040
 94
        0
1001
ACAD
1000
AcadProxyRoundTripData
1071
      507
1071
   851991
1070
     0
  0
ACAD_PROXY_OBJECT
  5
851
102
{ACAD_REACTORS
330
835
102
}
330
835
100
AcDbProxyObject
 90
      499
 91
      512
 93
      249
310
90D332F3422203D2031272D3022000000000000003A0FC000000000000284040
 94
        0
1001
ACAD
1000
AcadProxyRoundTripData
1071
      507
1071
   851991
1070
     0
  0
ACAD_PROXY_OBJECT
  5
852
102
{ACAD_REACTORS
330
835
102
}
330
835
100
AcDbProxyObject
 90
      499
 91
      512
 93
      169
310
90B3122203D2031272D3022004000000000000284020
 94
        0
1001
ACAD
1000
AcadProxyRoundTripData
1071
      507
1071
   851991
1070
     0
  0
ACAD_PROXY_OBJECT
  5
853
102
{ACAD_REACTORS
330
835
102
}
330
835
100
AcDbProxyObject
 90
      499
 91
      512
 93
      265
310
90F312D312F3222203D2031272D3022000000000000003E0FC00000000000028402B
 94
        0
1001
ACAD
1000
AcadProxyRoundTripData
1071
      507
1071
   851991
1070
     0
  0
ACAD_PROXY_OBJECT
  5
854
102
{ACAD_REACTORS
330
835
102
}
330
835
100
AcDbProxyObject
 90
      499
 91
      512
 93
      233
310
90B3322203D2031272D30220000000000000002100000000000000284000
 94
        0
1001
ACAD
1000
AcadProxyRoundTripData
1071
      507
1071
   851991
1070
     0
  0
ACAD_PROXY_OBJECT
  5
855
102
{ACAD_REACTORS
330
835
102
}
330
835
100
AcDbProxyObject
 90
      499
 91
      512
 93
      233
310
90B3622203D2031272D30220000000000000006100000000000000284000
 94
        0
1001
ACAD
1000
AcadProxyRoundTripData
1071
      507
1071
   851991
1070
     0
  0
ACAD_PROXY_OBJECT
  5
856
102
{ACAD_REACTORS
330
835
102
}
330
835
100
AcDbProxyObject
 90
      499
 91
      512
 93
      257
310
90E31272D3022203D2031272D3022000000000000000A100000000000000284040
 94
        0
1001
ACAD
1000
AcadProxyRoundTripData
1071
      507
1071
   851991
1070
     0
  0
ACAD_PROXY_OBJECT
  5
834
102
{ACAD_XDICTIONARY
360
88C
102
}
102
{ACAD_REACTORS
330
833
102
}
330
833
100
AcDbProxyObject
 90
      499
 91
      512
 93
     1849
310
4254DD185B99185C990028B81E85EB51B8AE3F2E07A17AD46E2B8FC02B5E8DC0F42B1CFD028000000C1008070000C3001FDFF8000000C1003FBFF000000182007F7FE00000030400FEFFC00000060801FDFF8000000C1003FBFF00000018200000000000000681FA0B0000001820100E000186003FBFF000000182007F7FE0
310
0000030400FEFFC00000060801FDFF8000000C1003FBFF000000182007F7FE000000304000AD7A3703D0AC73F4160000003040201C00030C007F7FE00000030400FEFFC00000060801FDFF8000000C1003FBFF000000182007F7FE00000030400FEFFC000000608000
340
16
340
16
340
16
 94
        0
1001
ACAD
1000
AcadProxyRoundTripData
1071
      506
1071
   851991
1070
     0
  0
ACAD_PROXY_OBJECT
  5
827
102
{ACAD_REACTORS
330
821
102
}
330
821
100
AcDbProxyObject
 90
      499
 91
      512
 93
      444
310
430C9915DA5C99599C985B59401049028333333333333E3BF0000000000000FB0107901411070040501600405405064090741402480A0340
 94
        0
1001
ACAD
1000
AcDbSavedByObjectVersion
1070
     0
1000
AcadProxyRoundTripData
1071
      505
1071
   851991
1070
     0
  0
ACAD_PROXY_OBJECT
  5
829
102
{ACAD_REACTORS
330
821
102
}
330
821
100
AcDbProxyObject
 90
      499
 91
      512
 93
      508
310
428CD108121A5919195B8010640502408333333333333E3BF0000000000000FB01079024090700405020000000000001110200405405064090740C02480A0340
 94
        0
1001
ACAD
1000
AcDbSavedByObjectVersion
1070
     0
1000
AcadProxyRoundTripData
1071
      505
1071
   851991
1070
     0
  0
ACAD_PROXY_OBJECT
  5
828
102
{ACAD_REACTORS
330
821
102
}
330
821
100
AcDbProxyObject
 90
      499
 91
      512
 93
      444
310
430CD915DA5C99599C985B59401059028333333333333E3BF0000000000000FB0107901411070040501600405405064090741402480A0340
 94
        0
1001
ACAD
1000
AcDbSavedByObjectVersion
1070
     0
1000
AcadProxyRoundTripData
1071
      505
1071
   851991
1070
     0
  0
ACAD_PROXY_OBJECT
  5
826
102
{ACAD_REACTORS
330
821
102
}
330
821
100
AcDbProxyObject
 90
      499
 91
      512
 93
      396
310
4190985CDA58C0107406404333333333333E3BF0000000000000FB0107A41107004050150841D405064090741402480A0356
 94
        0
1001
ACAD
1000
AcDbSavedByObjectVersion
1070
     0
1000
AcadProxyRoundTripData
1071
      505
1071
   851991
1070
     0
  0
ACAD_PROXY_OBJECT
  5
82D
102
{ACAD_REACTORS
330
821
102
}
330
821
100
AcDbProxyObject
 90
      499
 91
      512
 93
      436
310
42509C9A59DA1D195B8010C409028333333333333E3BF0000000000000FB010790141107004050150841D405064090741402480A029956
 94
        0
1001
ACAD
1000
AcDbSavedByObjectVersion
1070
     0
1000
AcadProxyRoundTripData
1071
      505
1071
   851991
1070
     0
  0
ACAD_PROXY_OBJECT
  5
831
102
{ACAD_REACTORS
330
821
102
}
330
821
100
AcDbProxyObject
 90
      499
 91
      512
 93
      460
310
4310DBDB1BDC90DA185B99D9401104090240C333333333333E3BF0000000000000FB0108901411070040501508421405064090741402480A0354
 94
        0
1001
ACAD
1000
AcDbSavedByObjectVersion
1070
     0
1000
AcadProxyRoundTripData
1071
      505
1071
   851991
1070
     0
  0
ACAD_PROXY_OBJECT
  5
82A
102
{ACAD_REACTORS
330
821
102
}
330
821
100
AcDbProxyObject
 90
      499
 91
      512
 93
      508
310
42D0DBDB98D95C1D1D585B0010940D028333333333333E3BF0000000000000FB0107902409070040501000000000000111010841D405064090740C02480A0340
 94
        0
1001
ACAD
1000
AcDbSavedByObjectVersion
1070
     0
1000
AcadProxyRoundTripData
1071
      505
1071
   851991
1070
     0
  0
ACAD_PROXY_OBJECT
  5
82C
102
{ACAD_REACTORS
330
821
102
}
330
821
100
AcDbProxyObject
 90
      499
 91
      512
 93
      420
310
41111A5B4010B409028333333333333E3BF0000000000000FB010790141107004050150841D405064090741402480A02677FFFFFDB
 94
        0
1001
ACAD
1000
AcDbSavedByObjectVersion
1070
     0
1000
AcadProxyRoundTripData
1071
      505
1071
   851991
1070
     0
  0
ACAD_PROXY_OBJECT
  5
830
102
{ACAD_REACTORS
330
821
102
}
330
821
100
AcDbProxyObject
 90
      499
 91
      512
 93
      452
310
43119858D95C185D1D195C9B8010F409028333333333333E3BF0000000000000FB010790141107004050150841D405064090741402480A0350
 94
        0
1001
ACAD
1000
AcDbSavedByObjectVersion
1070
     0
1000
AcadProxyRoundTripData
1071
      505
1071
   851991
1070
     0
  0
ACAD_PROXY_OBJECT
  5
822
102
{ACAD_REACTORS
330
821
102
}
330
821
100
AcDbProxyObject
 90
      499
 91
      512
 93
      396
310
41519B185D00240901404333333333333E3BF0000000000000F9010740A41107004050150841D405064090741402480A1B55
 94
        0
1001
ACAD
1000
AcDbSavedByObjectVersion
1070
     0
1000
AcadProxyRoundTripData
1071
      505
1071
   851991
1070
     0
  0
ACAD_PROXY_OBJECT
  5
823
102
{ACAD_REACTORS
330
821
102
}
330
821
100
AcDbProxyObject
 90
      499
 91
      512
 93
      484
310
43919B185D15DA5D1A115919D95CC010140901404333333333333E3BF0000000000000F9010740901411070040501600405405064090741402480A1B50
 94
        0
1001
ACAD
1000
AcDbSavedByObjectVersion
1070
     0
1000
AcadProxyRoundTripData
1071
      505
1071
   851991
1070
     0
  0
ACAD_PROXY_OBJECT
  5
824
102
{ACAD_REACTORS
330
821
102
}
330
821
100
AcDbProxyObject
 90
      499
 91
      512
 93
      420
310
4211DBDD5C985D590010240902404333333333333E3BF0000000000000F9010740A411070040501641D405064090741402480A1B50
 94
        0
1001
ACAD
1000
AcDbSavedByObjectVersion
1070
     0
1000
AcadProxyRoundTripData
1071
      505
1071
   851991
1070
     0
  0
ACAD_PROXY_OBJECT
  5
825
102
{ACAD_REACTORS
330
821
102
}
330
821
100
AcDbProxyObject
 90
      499
 91
      512
 93
      508
310
4451DBDD5C985D5915DA5D1A115919D95CC010340902404333333333333E3BF0000000000000F9010740901411070040501600405405064090741402480A1B50
 94
        0
1001
ACAD
1000
AcDbSavedByObjectVersion
1070
     0
1000
AcadProxyRoundTripData
1071
      505
1071
   851991
1070
     0
  0
ACAD_PROXY_OBJECT
  5
82F
102
{ACAD_REACTORS
330
821
102
}
330
821
100
AcDbProxyObject
 90
      499
 91
      512
 93
      452
310
43131A5B995C185D1D195C9B8010E409028333333333333E3BF0000000000000FB010790141107004050750841D405064090741402483A0350
 94
        0
1001
ACAD
1000
AcDbSavedByObjectVersion
1070
     0
1000
AcadProxyRoundTripData
1071
      505
1071
   851991
1070
     0
  0
ACAD_PROXY_OBJECT
  5
82B
102
{ACAD_REACTORS
330
821
102
}
330
821
100
AcDbProxyObject
 90
      499
 91
      512
 93
      428
310
429499585B1A5CDD1A58C0108409028333333333333E3BF0000000000000FB01079019070040501508421405064090741402480A1B45
 94
        0
1001
ACAD
1000
AcDbSavedByObjectVersion
1070
     0
1000
AcadProxyRoundTripData
1071
      505
1071
   851991
1070
     0
  0
ACAD_PROXY_OBJECT
  5
82E
102
{ACAD_REACTORS
330
821
102
}
330
821
100
AcDbProxyObject
 90
      499
 91
      512
 93
      420
310
42151A1A58DAD95B8010D409028333333333333E3BF0000000000000FB010790141107004050150C41D405064090741402480A0352
 94
        0
1001
ACAD
1000
AcDbSavedByObjectVersion
1070
     0
1000
AcadProxyRoundTripData
1071
      505
1071
   851991
1070
     0
  0
XRECORD
  5
2BF5
102
{ACAD_REACTORS
330
2BEB
102
}
330
2BEB
100
AcDbXrecord
 90
        0
  0
XRECORD
  5
2BF9
102
{ACAD_REACTORS
330
2BEB
102
}
330
2BEB
100
AcDbXrecord
1000
DSTYLE
1002
{
1070
   179
 70
     2
1070
   277
 70
     6
1002
}
  0
XRECORD
  5
2BF6
102
{ACAD_REACTORS
330
2BEB
102
}
330
2BEB
100
AcDbXrecord
  1
{2B619D65-6486-4694-9735-88ECB2045D11}
  0
XRECORD
  5
2BEE
102
{ACAD_REACTORS
330
2BEB
102
}
330
2BEB
100
AcDbXrecord
  1

  0
XRECORD
  5
2BF4
102
{ACAD_REACTORS
330
2BEB
102
}
330
2BEB
100
AcDbXrecord
 90
        0
  0
XRECORD
  5
2BF0
102
{ACAD_REACTORS
330
2BEB
102
}
330
2BEB
100
AcDbXrecord
340
61
  0
XRECORD
  5
2BF3
102
{ACAD_REACTORS
330
2BEB
102
}
330
2BEB
100
AcDbXrecord
 90
    10781
  0
XRECORD
  5
2BF1
102
{ACAD_REACTORS
330
2BEB
102
}
330
2BEB
100
AcDbXrecord
340
77
  0
XRECORD
  5
2BF2
102
{ACAD_REACTORS
330
2BEB
102
}
330
2BEB
100
AcDbXrecord
340
6
  0
XRECORD
  5
2BF8
102
{ACAD_REACTORS
330
2BEB
102
}
330
2BEB
100
AcDbXrecord
 40
0.0
  0
XRECORD
  5
2BFC
102
{ACAD_REACTORS
330
2BEB
102
}
330
2BEB
100
AcDbXrecord
340
0
  0
XRECORD
  5
2C02
102
{ACAD_REACTORS
330
2BEB
102
}
330
2BEB
100
AcDbXrecord
 10
0.0
 20
0.0
 30
0.0
  0
XRECORD
  5
2BFE
102
{ACAD_REACTORS
330
2BEB
102
}
330
2BEB
100
AcDbXrecord
 10
0.0
 20
0.0
 30
0.0
  0
XRECORD
  5
2C01
102
{ACAD_REACTORS
330
2BEB
102
}
330
2BEB
100
AcDbXrecord
 10
0.0
 20
0.0
 30
0.0
  0
XRECORD
  5
2BFF
102
{ACAD_REACTORS
330
2BEB
102
}
330
2BEB
100
AcDbXrecord
 10
0.0
 20
0.0
 30
0.0
  0
XRECORD
  5
2C00
102
{ACAD_REACTORS
330
2BEB
102
}
330
2BEB
100
AcDbXrecord
 10
0.0
 20
0.0
 30
0.0
  0
XRECORD
  5
2BFD
102
{ACAD_REACTORS
330
2BEB
102
}
330
2BEB
100
AcDbXrecord
 10
0.0
 20
0.0
 30
0.0
  0
XRECORD
  5
2BFA
102
{ACAD_REACTORS
330
2BEB
102
}
330
2BEB
100
AcDbXrecord
340
0
  0
XRECORD
  5
2BFB
102
{ACAD_REACTORS
330
2BEB
102
}
330
2BEB
100
AcDbXrecord
 70
     0
  0
XRECORD
  5
2BEF
102
{ACAD_REACTORS
330
2BEB
102
}
330
2BEB
100
AcDbXrecord
  1
Sekkei.ctb
  0
XRECORD
  5
2BEC
102
{ACAD_REACTORS
330
2BEB
102
}
330
2BEB
100
AcDbXrecord
 90
        1
  0
XRECORD
  5
2BED
102
{ACAD_REACTORS
330
2BEB
102
}
330
2BEB
100
AcDbXrecord
 90
       70
  0
XRECORD
  5
2C05
102
{ACAD_REACTORS
330
2BEB
102
}
330
2BEB
100
AcDbXrecord
340
0
  0
XRECORD
  5
2C0B
102
{ACAD_REACTORS
330
2BEB
102
}
330
2BEB
100
AcDbXrecord
 10
0.0
 20
0.0
 30
0.0
  0
XRECORD
  5
2C07
102
{ACAD_REACTORS
330
2BEB
102
}
330
2BEB
100
AcDbXrecord
 10
0.0
 20
0.0
 30
0.0
  0
XRECORD
  5
2C0A
102
{ACAD_REACTORS
330
2BEB
102
}
330
2BEB
100
AcDbXrecord
 10
0.0
 20
0.0
 30
0.0
  0
XRECORD
  5
2C08
102
{ACAD_REACTORS
330
2BEB
102
}
330
2BEB
100
AcDbXrecord
 10
0.0
 20
0.0
 30
0.0
  0
XRECORD
  5
2C09
102
{ACAD_REACTORS
330
2BEB
102
}
330
2BEB
100
AcDbXrecord
 10
0.0
 20
0.0
 30
0.0
  0
XRECORD
  5
2C06
102
{ACAD_REACTORS
330
2BEB
102
}
330
2BEB
100
AcDbXrecord
 10
0.0
 20
0.0
 30
0.0
  0
XRECORD
  5
2C03
102
{ACAD_REACTORS
330
2BEB
102
}
330
2BEB
100
AcDbXrecord
340
0
  0
XRECORD
  5
2C04
102
{ACAD_REACTORS
330
2BEB
102
}
330
2BEB
100
AcDbXrecord
 70
     0
  0
XRECORD
  5
2BF7
102
{ACAD_REACTORS
330
2BEB
102
}
330
2BEB
100
AcDbXrecord
  1
{99B081B0-6DFC-4C7C-A62E-3587690F9BA4}
  0
DICTIONARYVAR
  5
892
102
{ACAD_REACTORS
330
102
102
}
330
102
100
DictionaryVariables
280
     0
  1
1:1
  0
DICTIONARYVAR
  5
890
102
{ACAD_REACTORS
330
102
102
}
330
102
100
DictionaryVariables
280
     0
  1
STANDARD
  0
DICTIONARYVAR
  5
88F
102
{ACAD_REACTORS
330
102
102
}
330
102
100
DictionaryVariables
280
     0
  1
STANDARD
  0
DICTIONARYVAR
  5
103
102
{ACAD_REACTORS
330
102
102
}
330
102
100
DictionaryVariables
280
     0
  1
1
  0
DICTIONARYVAR
  5
1AB6
102
{ACAD_REACTORS
330
102
102
}
330
102
100
DictionaryVariables
280
     0
  1
0
  0
DICTIONARYVAR
  5
893
102
{ACAD_REACTORS
330
102
102
}
330
102
100
DictionaryVariables
280
     0
  1
0
  0
DICTIONARYVAR
  5
891
102
{ACAD_REACTORS
330
102
102
}
330
102
100
DictionaryVariables
280
     0
  1
0
  0
DICTIONARYVAR
  5
549
102
{ACAD_REACTORS
330
102
102
}
330
102
100
DictionaryVariables
280
     0
  1
96
  0
DICTIONARY
  5
812
330
811
100
AcDbDictionary
280
     1
  3
ACAD_XREC_ROUNDTRIP
360
2BC8
  3
BUMPTILE
360
814
  3
DIFFUSETILE
360
813
  3
OPACITYTILE
360
817
  3
REFLECTIONTILE
360
816
  3
REFRACTIONTILE
360
818
  3
SPECULARTILE
360
815
  0
DICTIONARY
  5
80A
330
809
100
AcDbDictionary
280
     1
  3
ACAD_XREC_ROUNDTRIP
360
2BC7
  3
BUMPTILE
360
80C
  3
DIFFUSETILE
360
80B
  3
OPACITYTILE
360
80F
  3
REFLECTIONTILE
360
80E
  3
REFRACTIONTILE
360
810
  3
SPECULARTILE
360
80D
  0
DICTIONARY
  5
81A
330
819
100
AcDbDictionary
280
     1
  3
ACAD_XREC_ROUNDTRIP
360
2BC9
  3
BUMPTILE
360
81C
  3
DIFFUSETILE
360
81B
  3
OPACITYTILE
360
81F
  3
REFLECTIONTILE
360
81E
  3
REFRACTIONTILE
360
820
  3
SPECULARTILE
360
81D
  0
DICTIONARY
  5
88C
330
834
100
AcDbDictionary
280
     1
  3
ACAD_ROUNDTRIP_2008_TABLES
360
2BBF
  3
ACAD_XREC_ROUNDTRIP
360
2BCA
  0
XRECORD
  5
2BC8
102
{ACAD_REACTORS
330
812
102
}
330
812
100
AcDbXrecord
102
MATERIAL
148
0.0
149
0.0
149
0.0
 93
        0
 94
      127
282
     0
 72
     0
 77
     0
171
     0
175
     0
179
     0
273
     0
  0
XRECORD
  5
814
102
{ACAD_REACTORS
330
812
102
}
330
812
100
AcDbXrecord
270
     1
271
     1
  0
XRECORD
  5
813
102
{ACAD_REACTORS
330
812
102
}
330
812
100
AcDbXrecord
270
     1
271
     1
  0
XRECORD
  5
817
102
{ACAD_REACTORS
330
812
102
}
330
812
100
AcDbXrecord
270
     1
271
     1
  0
XRECORD
  5
816
102
{ACAD_REACTORS
330
812
102
}
330
812
100
AcDbXrecord
270
     1
271
     1
  0
XRECORD
  5
818
102
{ACAD_REACTORS
330
812
102
}
330
812
100
AcDbXrecord
270
     1
271
     1
  0
XRECORD
  5
815
102
{ACAD_REACTORS
330
812
102
}
330
812
100
AcDbXrecord
270
     1
271
     1
  0
XRECORD
  5
2BC7
102
{ACAD_REACTORS
330
80A
102
}
330
80A
100
AcDbXrecord
102
MATERIAL
148
0.0
149
0.0
149
0.0
 93
        0
 94
      127
282
     0
 72
     0
 77
     0
171
     0
175
     0
179
     0
273
     0
  0
XRECORD
  5
80C
102
{ACAD_REACTORS
330
80A
102
}
330
80A
100
AcDbXrecord
270
     1
271
     1
  0
XRECORD
  5
80B
102
{ACAD_REACTORS
330
80A
102
}
330
80A
100
AcDbXrecord
270
     1
271
     1
  0
XRECORD
  5
80F
102
{ACAD_REACTORS
330
80A
102
}
330
80A
100
AcDbXrecord
270
     1
271
     1
  0
XRECORD
  5
80E
102
{ACAD_REACTORS
330
80A
102
}
330
80A
100
AcDbXrecord
270
     1
271
     1
  0
XRECORD
  5
810
102
{ACAD_REACTORS
330
80A
102
}
330
80A
100
AcDbXrecord
270
     1
271
     1
  0
XRECORD
  5
80D
102
{ACAD_REACTORS
330
80A
102
}
330
80A
100
AcDbXrecord
270
     1
271
     1
  0
XRECORD
  5
2BC9
102
{ACAD_REACTORS
330
81A
102
}
330
81A
100
AcDbXrecord
102
MATERIAL
148
0.0
149
0.0
149
0.0
 93
        0
 94
      127
282
     0
 72
     0
 77
     0
171
     0
175
     0
179
     0
273
     0
  0
XRECORD
  5
81C
102
{ACAD_REACTORS
330
81A
102
}
330
81A
100
AcDbXrecord
270
     1
271
     1
  0
XRECORD
  5
81B
102
{ACAD_REACTORS
330
81A
102
}
330
81A
100
AcDbXrecord
270
     1
271
     1
  0
XRECORD
  5
81F
102
{ACAD_REACTORS
330
81A
102
}
330
81A
100
AcDbXrecord
270
     1
271
     1
  0
XRECORD
  5
81E
102
{ACAD_REACTORS
330
81A
102
}
330
81A
100
AcDbXrecord
270
     1
271
     1
  0
XRECORD
  5
820
102
{ACAD_REACTORS
330
81A
102
}
330
81A
100
AcDbXrecord
270
     1
271
     1
  0
XRECORD
  5
81D
102
{ACAD_REACTORS
330
81A
102
}
330
81A
100
AcDbXrecord
270
     1
271
     1
  0
ACAD_PROXY_OBJECT
  5
2BBF
102
{ACAD_REACTORS
330
88C
102
}
330
88C
100
AcDbProxyObject
 90
      499
 91
      512
 93
     1044
310
40D054060020000020000003200101A000080002A5058000000C100000000000000340FE901405075F5449544C450041501A8000000C800406800020000A9416000000304000AD7A3703D0AC73FA409014217D2115051115480105406A0000003200101A000080002A5028000000C10002B5E8DC0F42B1CFE903409065F444
310
15441003
340
16
340
16
340
16
 94
        0
1001
ACAD
1000
AcadProxyRoundTripData
1071
      510
1071
   851991
1070
     0
  0
XRECORD
  5
2BCA
102
{ACAD_REACTORS
330
88C
102
}
330
88C
100
AcDbXrecord
102
ACAD_ROUNDTRIP_PRE2007_TABLESTYLE
 90
      512
 91
        0
  1

 92
      512
 93
        0
  2

 94
      512
 95
        0
  3

  0
ENDSEC
  0
EOF
