  0
SECTION
  2
HEADER
  9
$ACADVER
  1
AC1014
  9
$ACADMAINTVER
 70
     9
  9
$DWGCODEPAGE
  3
ANSI_932
  9
$INSBASE
 10
0.0
 20
0.0
 30
0.0
  9
$EXTMIN
 10
-73.11177372680254
 20
272.5651052800075
 30
0.0
  9
$EXTMAX
 10
997.9335687488514
 20
708.5377674500546
 30
0.0
  9
$LIMMIN
 10
0.0
 20
0.0
  9
$LIMMAX
 10
297.0
 20
210.0
  9
$ORTHOMODE
 70
     0
  9
$REGENMODE
 70
     1
  9
$FILLMODE
 70
     1
  9
$QTEXTMODE
 70
     0
  9
$MIRRTEXT
 70
     0
  9
$DRAGMODE
 70
     2
  9
$LTSCALE
 40
3.0
  9
$OSMODE
 70
    37
  9
$ATTMODE
 70
     1
  9
$TEXTSIZE
 40
2.0
  9
$TRACEWID
 40
1.0
  9
$TEXTSTYLE
  7
STANDARD
  9
$CLAYER
  8
0
  9
$CELTYPE
  6
BYLAYER
  9
$CECOLOR
 62
   256
  9
$CELTSCALE
 40
1.0
  9
$DELOBJ
 70
     1
  9
$DISPSILH
 70
     0
  9
$DIMSCALE
 40
3.0
  9
$DIMASZ
 40
1.8
  9
$DIMEXO
 40
0.625
  9
$DIMDLI
 40
3.75
  9
$DIMRND
 40
0.0
  9
$DIMDLE
 40
0.0
  9
$DIMEXE
 40
0.8
  9
$DIMTP
 40
0.0
  9
$DIMTM
 40
0.0
  9
$DIMTXT
 40
1.8
  9
$DIMCEN
 40
2.5
  9
$DIMTSZ
 40
0.0
  9
$DIMTOL
 70
     0
  9
$DIMLIM
 70
     0
  9
$DIMTIH
 70
     0
  9
$DIMTOH
 70
     0
  9
$DIMSE1
 70
     0
  9
$DIMSE2
 70
     0
  9
$DIMTAD
 70
     1
  9
$DIMZIN
 70
     8
  9
$DIMBLK
  1

  9
$DIMASO
 70
     1
  9
$DIMSHO
 70
     1
  9
$DIMPOST
  1

  9
$DIMAPOST
  1

  9
$DIMALT
 70
     0
  9
$DIMALTD
 70
     4
  9
$DIMALTF
 40
0.0394
  9
$DIMLFAC
 40
1.0
  9
$DIMTOFL
 70
     1
  9
$DIMTVP
 40
0.0
  9
$DIMTIX
 70
     0
  9
$DIMSOXD
 70
     0
  9
$DIMSAH
 70
     0
  9
$DIMBLK1
  1

  9
$DIMBLK2
  1

  9
$DIMSTYLE
  2
STANDARD
  9
$DIMCLRD
 70
     0
  9
$DIMCLRE
 70
     0
  9
$DIMCLRT
 70
     0
  9
$DIMTFAC
 40
1.0
  9
$DIMGAP
 40
0.75
  9
$DIMJUST
 70
     0
  9
$DIMSD1
 70
     0
  9
$DIMSD2
 70
     0
  9
$DIMTOLJ
 70
     1
  9
$DIMTZIN
 70
     0
  9
$DIMALTZ
 70
     0
  9
$DIMALTTZ
 70
     0
  9
$DIMFIT
 70
     3
  9
$DIMUPT
 70
     0
  9
$DIMUNIT
 70
     8
  9
$DIMDEC
 70
     2
  9
$DIMTDEC
 70
     2
  9
$DIMALTU
 70
     8
  9
$DIMALTTD
 70
     4
  9
$DIMTXSTY
  7
STANDARD
  9
$DIMAUNIT
 70
     0
  9
$LUNITS
 70
     2
  9
$LUPREC
 70
     3
  9
$SKETCHINC
 40
1.0
  9
$FILLETRAD
 40
10.0
  9
$AUNITS
 70
     0
  9
$AUPREC
 70
     2
  9
$MENU
  1
.
  9
$ELEVATION
 40
0.0
  9
$PELEVATION
 40
0.0
  9
$THICKNESS
 40
0.0
  9
$LIMCHECK
 70
     0
  9
$BLIPMODE
 70
     0
  9
$CHAMFERA
 40
0.0
  9
$CHAMFERB
 40
0.0
  9
$CHAMFERC
 40
20.0
  9
$CHAMFERD
 40
0.0
  9
$SKPOLY
 70
     0
  9
$TDCREATE
 40
2454888.679706122
  9
$TDUPDATE
 40
2454909.820207280
  9
$TDINDWG
 40
0.1212847569
  9
$TDUSRTIMER
 40
0.1212845718
  9
$USRTIMER
 70
     1
  9
$ANGBASE
 50
0.0
  9
$ANGDIR
 70
     0
  9
$PDMODE
 70
     0
  9
$PDSIZE
 40
-10.0
  9
$PLINEWID
 40
0.0
  9
$COORDS
 70
     1
  9
$SPLFRAME
 70
     0
  9
$SPLINETYPE
 70
     6
  9
$SPLINESEGS
 70
     8
  9
$ATTDIA
 70
     0
  9
$ATTREQ
 70
     1
  9
$HANDLING
 70
 22529
  9
$HANDSEED
  5
3264
  9
$SURFTAB1
 70
     6
  9
$SURFTAB2
 70
     6
  9
$SURFTYPE
 70
     6
  9
$SURFU
 70
     6
  9
$SURFV
 70
     6
  9
$UCSNAME
  2

  9
$UCSORG
 10
0.0
 20
0.0
 30
0.0
  9
$UCSXDIR
 10
1.0
 20
0.0
 30
0.0
  9
$UCSYDIR
 10
0.0
 20
1.0
 30
0.0
  9
$PUCSNAME
  2

  9
$PUCSORG
 10
0.0
 20
0.0
 30
0.0
  9
$PUCSXDIR
 10
1.0
 20
0.0
 30
0.0
  9
$PUCSYDIR
 10
0.0
 20
1.0
 30
0.0
  9
$USERI1
 70
     0
  9
$USERI2
 70
     0
  9
$USERI3
 70
     0
  9
$USERI4
 70
     0
  9
$USERI5
 70
     0
  9
$USERR1
 40
0.0
  9
$USERR2
 40
0.0
  9
$USERR3
 40
0.0
  9
$USERR4
 40
0.0
  9
$USERR5
 40
0.0
  9
$WORLDVIEW
 70
     1
  9
$SHADEDGE
 70
     3
  9
$SHADEDIF
 70
    70
  9
$TILEMODE
 70
     1
  9
$MAXACTVP
 70
    48
  9
$PINSBASE
 10
0.0
 20
0.0
 30
0.0
  9
$PLIMCHECK
 70
     0
  9
$PEXTMIN
 10
0.0
 20
0.0
 30
0.0
  9
$PEXTMAX
 10
0.0
 20
0.0
 30
0.0
  9
$PLIMMIN
 10
0.0
 20
0.0
  9
$PLIMMAX
 10
12.0
 20
9.0
  9
$UNITMODE
 70
     0
  9
$VISRETAIN
 70
     1
  9
$PLINEGEN
 70
     0
  9
$PSLTSCALE
 70
     1
  9
$TREEDEPTH
 70
  3020
  9
$PICKSTYLE
 70
     1
  9
$CMLSTYLE
  2
STANDARD
  9
$CMLJUST
 70
     0
  9
$CMLSCALE
 40
1.0
  9
$PROXYGRAPHICS
 70
     1
  9
$MEASUREMENT
 70
     0
  0
ENDSEC
  0
SECTION
  2
CLASSES
  0
CLASS
  1
DICTIONARYVAR
  2
AcDbDictionaryVar
  3
AutoCAD 2000
 90
        0
280
     0
281
     0
  0
CLASS
  1
ACDBDICTIONARYWDFLT
  2
AcDbDictionaryWithDefault
  3
AutoCAD 2000
 90
        0
280
     0
281
     0
  0
CLASS
  1
ACDBPLACEHOLDER
  2
AcDbPlaceHolder
  3
AutoCAD 2000
 90
        0
280
     0
281
     0
  0
CLASS
  1
LAYOUT
  2
AcDbLayout
  3
AutoCAD 2000
 90
        0
280
     0
281
     0
  0
CLASS
  1
MATERIAL
  2
AcDbMaterial
  3
ObjectDBX Classes
 90
     1153
280
     0
281
     0
  0
CLASS
  1
VISUALSTYLE
  2
AcDbVisualStyle
  3
ObjectDBX Classes
 90
     4095
280
     0
281
     0
  0
CLASS
  1
TABLESTYLE
  2
AcDbTableStyle
  3
ObjectDBX Classes
 90
     4095
280
     0
281
     0
  0
CLASS
  1
SCALE
  2
AcDbScale
  3
ObjectDBX Classes
 90
     1153
280
     0
281
     0
  0
CLASS
  1
MLEADERSTYLE
  2
AcDbMLeaderStyle
  3
ACDB_MLEADERSTYLE_CLASS
 90
     4095
280
     0
281
     0
  0
CLASS
  1
PLOTSETTINGS
  2
AcDbPlotSettings
  3
AutoCAD 2000
 90
        0
280
     0
281
     0
  0
CLASS
  1
CELLSTYLEMAP
  2
AcDbCellStyleMap
  3
ObjectDBX Classes
 90
     1152
280
     0
281
     0
  0
CLASS
  1
SORTENTSTABLE
  2
AcDbSortentsTable
  3
AutoCAD 2000
 90
        0
280
     0
281
     0
  0
CLASS
  1
ACAD_PROXY_OBJECT_WRAPPER
  2
AcDbProxyObjectWrapper
  3
AutoCAD 2000
 90
        0
280
     0
281
     0
  0
CLASS
  1
LONG_TRANSACTION
  2
AcDbLongTransaction
  3
AutoCAD 2000
 90
        0
280
     0
281
     0
  0
CLASS
  1
LWPOLYLINE
  2
AcDbPolyline
  3
AutoCAD 2000
 90
        0
280
     0
281
     1
  0
CLASS
  1
HATCH
  2
AcDbHatch
  3
AutoCAD 2000
 90
        0
280
     0
281
     1
  0
CLASS
  1
XRECORD
  2
AcDbXrecord
  3
AutoCAD 2000
 90
        0
280
     0
281
     0
  0
ENDSEC
  0
SECTION
  2
TABLES
  0
TABLE
  2
VPORT
  5
6E
102
{ACAD_XDICTIONARY
360
1AA9
102
}
330
0
100
AcDbSymbolTable
 70
     2
  0
VPORT
  5
323F
330
6E
100
AcDbSymbolTableRecord
100
AcDbViewportTableRecord
  2
*ACTIVE
 70
     0
 10
0.0
 20
0.0
 11
1.0
 21
1.0
 12
509.1109048503573
 22
479.6273970804618
 13
0.0
 23
0.0
 14
10.0
 24
10.0
 15
10.0
 25
10.0
 16
0.0
 26
0.0
 36
1.0
 17
0.0
 27
0.0
 37
0.0
 40
733.6420116068568
 41
1.593429158110883
 42
50.0
 43
0.0
 44
0.0
 50
0.0
 51
0.0
 71
     0
 72
   100
 73
     1
 74
     3
 75
     0
 76
     0
 77
     0
 78
     0
  0
ENDTAB
  0
TABLE
  2
LTYPE
  5
69
330
0
100
AcDbSymbolTable
 70
     7
  0
LTYPE
  5
6A
330
69
100
AcDbSymbolTableRecord
100
AcDbLinetypeTableRecord
  2
BYBLOCK
 70
     0
  3

 72
    65
 73
     0
 40
0.0
  0
LTYPE
  5
6B
330
69
100
AcDbSymbolTableRecord
100
AcDbLinetypeTableRecord
  2
BYLAYER
 70
     0
  3

 72
    65
 73
     0
 40
0.0
  0
LTYPE
  5
8
330
69
100
AcDbSymbolTableRecord
100
AcDbLinetypeTableRecord
  2
CONTINUOUS
 70
     0
  3
Solid line
 72
    65
 73
     0
 40
0.0
  0
LTYPE
  5
27C
330
69
100
AcDbSymbolTableRecord
100
AcDbLinetypeTableRecord
  2
SEKKEI_A2_
 70
     0
  3
center(A2)  ____ _ ____ _ ____ _ ____ _ ____ _ 
 72
    65
 73
     4
 40
14.28749999999999
 49
9.525
 74
     0
 49
-1.587499999999999
 74
     0
 49
1.587499999999999
 74
     0
 49
-1.587499999999999
 74
     0
  0
LTYPE
  5
2B4
330
69
100
AcDbSymbolTableRecord
100
AcDbLinetypeTableRecord
  2
HIDDEN2
 70
     0
  3
Hidden (.5x) _ _ _ _ _ _ _ _ _ _ _ _ _ _ _ _ _
 72
    65
 73
     2
 40
4.762499999999999
 49
3.174999999999999
 74
     0
 49
-1.587499999999999
 74
     0
  0
LTYPE
  5
48F
330
69
100
AcDbSymbolTableRecord
100
AcDbLinetypeTableRecord
  2
SEKKEI_H
 70
     0
  3
Hidden-S _ _ _ _ _ _ _ _ _ _ _ _ _ _ _ _ _
 72
    65
 73
     2
 40
2.381249999999999
 49
1.587499999999999
 74
     0
 49
-0.79375
 74
     0
  0
LTYPE
  5
54A
330
69
100
AcDbSymbolTableRecord
100
AcDbLinetypeTableRecord
  2
CENTERX2
 70
     0
  3
Center (2x) ________  __  ________  __  _____
 72
    65
 73
     4
 40
4.0
 49
2.5
 74
     0
 49
-0.5
 74
     0
 49
0.5
 74
     0
 49
-0.5
 74
     0
  0
ENDTAB
  0
TABLE
  2
LAYER
  5
66
102
{ACAD_XDICTIONARY
360
86B
102
}
330
0
100
AcDbSymbolTable
 70
    10
  0
LAYER
  5
5E
102
{ACAD_XDICTIONARY
360
128D
102
}
330
66
100
AcDbSymbolTableRecord
100
AcDbLayerTableRecord
  2
0
 70
     0
 62
     7
  6
CONTINUOUS
  0
LAYER
  5
3E
102
{ACAD_XDICTIONARY
360
128F
102
}
330
66
100
AcDbSymbolTableRecord
100
AcDbLayerTableRecord
  2
CENTER
 70
     0
 62
     3
  6
SEKKEI_A2_
  0
LAYER
  5
2B5
102
{ACAD_XDICTIONARY
360
1295
102
}
330
66
100
AcDbSymbolTableRecord
100
AcDbLayerTableRecord
  2
HIDS
 70
     0
 62
     1
  6
HIDDEN2
  0
LAYER
  5
2BA
102
{ACAD_XDICTIONARY
360
1297
102
}
330
66
100
AcDbSymbolTableRecord
100
AcDbLayerTableRecord
  2
HOJO
 70
     0
 62
     4
  6
CONTINUOUS
  0
LAYER
  5
3FA
102
{ACAD_XDICTIONARY
360
129B
102
}
330
66
100
AcDbSymbolTableRecord
100
AcDbLayerTableRecord
  2
TITLE
 70
     0
 62
     4
  6
CONTINUOUS
  0
ENDTAB
  0
TABLE
  2
STYLE
  5
67
330
0
100
AcDbSymbolTable
 70
     3
  0
STYLE
  5
16
330
67
100
AcDbSymbolTableRecord
100
AcDbTextStyleTableRecord
  2
STANDARD
 70
     0
 40
0.0
 41
1.0
 50
0.0
 71
     0
 42
2.0
  3
simplex.shx
  4
extfont.shx
  0
ENDTAB
  0
TABLE
  2
VIEW
  5
6C
330
0
100
AcDbSymbolTable
 70
     0
  0
ENDTAB
  0
TABLE
  2
UCS
  5
6D
330
0
100
AcDbSymbolTable
 70
     0
  0
ENDTAB
  0
TABLE
  2
APPID
  5
70
330
0
100
AcDbSymbolTable
 70
     7
  0
APPID
  5
71
330
70
100
AcDbSymbolTableRecord
100
AcDbRegAppTableRecord
  2
ACAD
 70
     0
  0
APPID
  5
859
330
70
100
AcDbSymbolTableRecord
100
AcDbRegAppTableRecord
  2
ACAD_MLEADERVER
 70
     0
  0
APPID
  5
866
330
70
100
AcDbSymbolTableRecord
100
AcDbRegAppTableRecord
  2
ACAD_PSEXT
 70
     0
  0
APPID
  5
1239
330
70
100
AcDbSymbolTableRecord
100
AcDbRegAppTableRecord
  2
ACAD_EXEMPT_FROM_CAD_STANDARDS
 70
     0
  0
APPID
  5
12AE
330
70
100
AcDbSymbolTableRecord
100
AcDbRegAppTableRecord
  2
ACAD_DSTYLE_DIMJAG
 70
     0
  0
APPID
  5
12AF
330
70
100
AcDbSymbolTableRecord
100
AcDbRegAppTableRecord
  2
ACAD_DSTYLE_DIMTALN
 70
     0
  0
APPID
  5
1411
330
70
100
AcDbSymbolTableRecord
100
AcDbRegAppTableRecord
  2
ACAD_DSTYLE_DIMRADIAL_EXTENSION
 70
     0
  0
ENDTAB
  0
TABLE
  2
DIMSTYLE
  5
72
330
0
100
AcDbSymbolTable
 70
     1
  0
DIMSTYLE
105
73
102
{ACAD_REACTORS
330
142C
330
1434
330
1605
102
}
330
72
100
AcDbSymbolTableRecord
100
AcDbDimStyleTableRecord
  2
STANDARD
 70
     0
  3

  4

  5

  6

  7

 40
3.0
 41
1.8
 42
0.625
 43
3.75
 44
0.8
 45
0.0
 46
0.0
 47
0.0
 48
0.0
140
1.8
141
2.5
142
0.0
143
0.0394
144
1.0
145
0.0
146
1.0
147
0.75
 71
     0
 72
     0
 73
     0
 74
     0
 75
     0
 76
     0
 77
     1
 78
     8
170
     0
171
     4
172
     1
173
     0
174
     0
175
     0
176
     0
177
     0
178
     0
270
     8
271
     2
272
     2
273
     8
274
     4
340
16
275
     0
280
     0
281
     0
282
     0
283
     1
284
     0
285
     0
286
     0
287
     3
288
     0
1001
ACAD_DSTYLE_DIMJAG
1070
   388
1040
1.5
1001
ACAD_DSTYLE_DIMTALN
1070
   392
1070
     0
  0
ENDTAB
  0
TABLE
  2
BLOCK_RECORD
  5
1
330
0
100
AcDbSymbolTable
 70
    48
  0
BLOCK_RECORD
  5
2
102
{ACAD_XDICTIONARY
360
1236
102
}
330
1
100
AcDbSymbolTableRecord
100
AcDbBlockTableRecord
  2
*MODEL_SPACE
  0
BLOCK_RECORD
  5
323A
102
{ACAD_XDICTIONARY
360
3262
102
}
330
1
100
AcDbSymbolTableRecord
100
AcDbBlockTableRecord
  2
*PAPER_SPACE
  0
ENDTAB
  0
ENDSEC
  0
SECTION
  2
BLOCKS
  0
BLOCK
  5
5D
330
2
100
AcDbEntity
  8
0
100
AcDbBlockBegin
  2
*MODEL_SPACE
 70
     0
 10
0.0
 20
0.0
 30
0.0
  3
*MODEL_SPACE
  1

  0
ENDBLK
  5
5F
330
2
100
AcDbEntity
  8
0
100
AcDbBlockEnd
  0
BLOCK
  5
323C
330
323A
100
AcDbEntity
 67
     1
  8
0
100
AcDbBlockBegin
  2
*PAPER_SPACE
 70
     0
 10
0.0
 20
0.0
 30
0.0
  3
*PAPER_SPACE
  1

  0
ENDBLK
  5
323D
330
323A
100
AcDbEntity
 67
     1
  8
0
100
AcDbBlockEnd
  0
ENDSEC
  0
SECTION
  2
ENTITIES
  0
LINE
  5
BCC
330
2
100
AcDbEntity
  8
CENTER
100
AcDbLine
 10
491.6923507245899
 20
391.8936909025934
 30
0.0
 11
600.3495219697541
 21
283.2365196574283
 31
0.0
  0
LINE
  5
BCD
330
2
100
AcDbEntity
  8
CENTER
100
AcDbLine
 10
511.5945294759815
 20
379.9915121512057
 30
0.0
 11
495.5945294759815
 21
379.9915121512057
 31
0.0
  0
LINE
  5
BCE
330
2
100
AcDbEntity
  8
CENTER
100
AcDbLine
 10
503.5945294759774
 20
387.9915121512057
 30
0.0
 11
503.5945294759774
 21
371.9915121512057
 31
0.0
  0
LINE
  5
BCF
330
2
100
AcDbEntity
  8
CENTER
100
AcDbLine
 10
511.5945294759815
 20
295.1386984088218
 30
0.0
 11
495.5945294759815
 21
295.1386984088218
 31
0.0
  0
LINE
  5
BD0
330
2
100
AcDbEntity
  8
CENTER
100
AcDbLine
 10
503.5945294759811
 20
303.1386984088201
 30
0.0
 11
503.5945294759811
 21
287.1386984088201
 31
0.0
  0
LINE
  5
BD1
330
2
100
AcDbEntity
  8
CENTER
100
AcDbLine
 10
596.4473432183674
 20
295.1386984088201
 30
0.0
 11
580.4473432183674
 21
295.1386984088201
 31
0.0
  0
LINE
  5
BD2
330
2
100
AcDbEntity
  8
CENTER
100
AcDbLine
 10
588.4473432183642
 20
303.1386984088201
 30
0.0
 11
588.4473432183642
 21
287.1386984088201
 31
0.0
  0
LINE
  5
BD3
330
2
100
AcDbEntity
  8
CENTER
100
AcDbLine
 10
596.4473432183674
 20
379.9915121512057
 30
0.0
 11
580.4473432183674
 21
379.9915121512057
 31
0.0
  0
LINE
  5
BD4
330
2
100
AcDbEntity
  8
CENTER
100
AcDbLine
 10
588.4473432183674
 20
387.9915121512062
 30
0.0
 11
588.4473432183674
 21
371.9915121512062
 31
0.0
  0
CIRCLE
  5
BD5
330
2
100
AcDbEntity
  8
CENTER
100
AcDbCircle
 10
546.0209363471742
 20
337.5651052800131
 30
0.0
 40
60.0
  0
CIRCLE
  5
BD6
330
2
100
AcDbEntity
  8
0
100
AcDbCircle
 10
546.0209363471742
 20
337.5651052800131
 30
0.0
 40
34.0
  0
CIRCLE
  5
BD7
330
2
100
AcDbEntity
  8
0
100
AcDbCircle
 10
546.0209363471742
 20
337.5651052800131
 30
0.0
 40
45.0
  0
CIRCLE
  5
BD8
330
2
100
AcDbEntity
  8
HOJO
100
AcDbCircle
 10
503.5945294759815
 20
295.1386984088201
 30
0.0
 40
4.0
  0
CIRCLE
  5
BD9
330
2
100
AcDbEntity
  8
0
100
AcDbCircle
 10
503.5945294759815
 20
295.1386984088201
 30
0.0
 40
3.2
  0
CIRCLE
  5
BDA
330
2
100
AcDbEntity
  8
0
100
AcDbCircle
 10
546.0209363471742
 20
337.565105280013
 30
0.0
 40
26.0
  0
CIRCLE
  5
BDB
330
2
100
AcDbEntity
  8
HOJO
100
AcDbCircle
 10
503.5945294759815
 20
379.9915121512057
 30
0.0
 40
4.0
  0
CIRCLE
  5
BDC
330
2
100
AcDbEntity
  8
0
100
AcDbCircle
 10
503.5945294759815
 20
379.9915121512057
 30
0.0
 40
3.2
  0
LINE
  5
BDD
330
2
100
AcDbEntity
  8
0
100
AcDbLine
 10
626.5209583471726
 20
387.0651052800134
 30
0.0
 11
626.5209583471698
 21
288.0651052800129
 31
0.0
  0
LINE
  5
BDE
330
2
100
AcDbEntity
  8
0
100
AcDbLine
 10
642.0209583471731
 20
286.0651052800129
 30
0.0
 11
642.0209583471725
 21
389.065105280013
 31
0.0
  0
CIRCLE
  5
BDF
330
2
100
AcDbEntity
  8
0
100
AcDbCircle
 10
588.4473432183674
 20
295.1386984088201
 30
0.0
 40
3.2
  0
CIRCLE
  5
BE0
330
2
100
AcDbEntity
  8
HOJO
100
AcDbCircle
 10
588.4473432183674
 20
295.1386984088201
 30
0.0
 40
4.0
  0
ARC
  5
BE1
330
2
100
AcDbEntity
  8
0
100
AcDbCircle
 10
628.5209583471698
 20
288.5651052800128
 30
0.0
 40
2.0
100
AcDbArc
 50
179.9999999999869
 51
270.0
  0
LINE
  5
BE2
330
2
100
AcDbEntity
  8
0
100
AcDbLine
 10
642.0209583471731
 20
286.5651052800129
 30
0.0
 11
628.5209583471698
 21
286.5651052800128
 31
0.0
  0
CIRCLE
  5
BE3
330
2
100
AcDbEntity
  8
0
100
AcDbCircle
 10
588.4473432183674
 20
379.9915121512062
 30
0.0
 40
3.2
  0
CIRCLE
  5
BE4
330
2
100
AcDbEntity
  8
HOJO
100
AcDbCircle
 10
588.4473432183674
 20
379.9915121512062
 30
0.0
 40
4.0
  0
ARC
  5
BE5
330
2
100
AcDbEntity
  8
0
100
AcDbCircle
 10
628.5209583471726
 20
386.5651052800135
 30
0.0
 40
2.0
100
AcDbArc
 50
90.0
 51
179.9999999999869
  0
LINE
  5
BE6
330
2
100
AcDbEntity
  8
0
100
AcDbLine
 10
642.0209583471725
 20
388.565105280013
 30
0.0
 11
628.520958347173
 21
388.5651052800135
 31
0.0
  0
ARC
  5
BE7
330
2
100
AcDbEntity
  8
0
100
AcDbCircle
 10
546.0209363471724
 20
188.5651052800108
 30
0.0
 40
200.0
100
AcDbArc
 50
84.10530161359629
 51
95.89469838640374
  0
ARC
  5
BE8
330
2
100
AcDbEntity
  8
0
100
AcDbCircle
 10
572.7230652774976
 20
447.190309601995
 30
0.0
 40
60.0
100
AcDbArc
 50
264.1053016135962
 51
281.8050678104415
  0
LINE
  5
BE9
330
2
100
AcDbEntity
  8
0
100
AcDbLine
 10
589.0209363471747
 20
388.5651052800105
 30
0.0
 11
586.0209363471719
 21
388.5651052800103
 31
0.0
  0
ARC
  5
BEA
330
2
100
AcDbEntity
  8
0
100
AcDbCircle
 10
586.0209363471719
 20
383.5651052800102
 30
0.0
 40
5.0
100
AcDbArc
 50
90.0
 51
101.8050678104414
  0
LINE
  5
BEB
330
2
100
AcDbEntity
  8
0
100
AcDbLine
 10
503.0209363471719
 20
388.5651052800107
 30
0.0
 11
506.0209363471719
 21
388.5651052800107
 31
0.0
  0
ARC
  5
BEC
330
2
100
AcDbEntity
  8
0
100
AcDbCircle
 10
519.3188074168472
 20
447.1903096019954
 30
0.0
 40
60.0
100
AcDbArc
 50
258.1949321895585
 51
275.8946983864037
  0
ARC
  5
BED
330
2
100
AcDbEntity
  8
0
100
AcDbCircle
 10
506.0209363471719
 20
383.5651052800107
 30
0.0
 40
5.0
100
AcDbArc
 50
78.19493218955852
 51
90.0
  0
ARC
  5
BEE
330
2
100
AcDbEntity
  8
0
100
AcDbCircle
 10
500.0209363471729
 20
377.5651052800107
 30
0.0
 40
5.0
100
AcDbArc
 50
180.0
 51
191.8050678104706
  0
LINE
  5
BEF
330
2
100
AcDbEntity
  8
0
100
AcDbLine
 10
495.020936347172
 20
380.5651052800107
 30
0.0
 11
495.020936347172
 21
377.565105280013
 31
0.0
  0
ARC
  5
BF0
330
2
100
AcDbEntity
  8
0
100
AcDbCircle
 10
436.3957320251877
 20
364.2672342103364
 30
0.0
 40
60.0
100
AcDbArc
 50
354.1053016135986
 51
11.80506781047064
  0
ARC
  5
BF1
330
2
100
AcDbEntity
  8
0
100
AcDbCircle
 10
695.020936347172
 20
337.5651052800108
 30
0.0
 40
200.0
100
AcDbArc
 50
174.1053016135986
 51
185.8946983864013
  0
ARC
  5
BF2
330
2
100
AcDbEntity
  8
0
100
AcDbCircle
 10
436.3957320251877
 20
310.862976349686
 30
0.0
 40
60.0
100
AcDbArc
 50
348.1949321895285
 51
5.894698386401296
  0
ARC
  5
BF3
330
2
100
AcDbEntity
  8
0
100
AcDbCircle
 10
500.020936347172
 20
297.5651052800108
 30
0.0
 40
5.0
100
AcDbArc
 50
168.1949321895285
 51
180.0
  0
LINE
  5
BF4
330
2
100
AcDbEntity
  8
0
100
AcDbLine
 10
495.020936347172
 20
297.5651052800131
 30
0.0
 11
495.020936347172
 21
294.5651052800107
 31
0.0
  0
ARC
  5
BF5
330
2
100
AcDbEntity
  8
0
100
AcDbCircle
 10
519.3188074168467
 20
227.9399009580263
 30
0.0
 40
60.0
100
AcDbArc
 50
84.10530161359629
 51
101.8050678104414
  0
ARC
  5
BF6
330
2
100
AcDbEntity
  8
0
100
AcDbCircle
 10
506.0209363471719
 20
291.5651052800112
 30
0.0
 40
5.0
100
AcDbArc
 50
270.0
 51
281.8050678104415
  0
LINE
  5
BF7
330
2
100
AcDbEntity
  8
0
100
AcDbLine
 10
503.0209363471724
 20
286.5651052800107
 30
0.0
 11
506.0209363471719
 21
286.5651052800108
 31
0.0
  0
ARC
  5
BF8
330
2
100
AcDbEntity
  8
0
100
AcDbCircle
 10
546.020936347172
 20
486.5651052800108
 30
0.0
 40
200.0
100
AcDbArc
 50
264.1053016135962
 51
275.8946983864037
  0
ARC
  5
BF9
330
2
100
AcDbEntity
  8
0
100
AcDbCircle
 10
572.7230652774967
 20
227.9399009580261
 30
0.0
 40
60.0
100
AcDbArc
 50
78.19493218955852
 51
95.89469838640374
  0
ARC
  5
BFA
330
2
100
AcDbEntity
  8
0
100
AcDbCircle
 10
586.0209363471719
 20
291.5651052800107
 30
0.0
 40
5.0
100
AcDbArc
 50
258.1949321895585
 51
270.0
  0
LINE
  5
BFB
330
2
100
AcDbEntity
  8
0
100
AcDbLine
 10
586.0209363471719
 20
286.5651052800108
 30
0.0
 11
589.0209363471692
 21
286.5651052800108
 31
0.0
  0
ARC
  5
BFC
330
2
100
AcDbEntity
  8
0
100
AcDbCircle
 10
503.0209363471719
 20
380.5651052800046
 30
0.0
 40
8.0
100
AcDbArc
 50
90.0
 51
180.0
  0
ARC
  5
BFD
330
2
100
AcDbEntity
  8
0
100
AcDbCircle
 10
589.0209363471747
 20
380.5651052800044
 30
0.0
 40
8.0
100
AcDbArc
 50
359.9999999999869
 51
90.0
  0
ARC
  5
BFE
330
2
100
AcDbEntity
  8
0
100
AcDbCircle
 10
503.0209363471719
 20
294.5651052800047
 30
0.0
 40
8.0
100
AcDbArc
 50
180.0
 51
270.0
  0
ARC
  5
BFF
330
2
100
AcDbEntity
  8
0
100
AcDbCircle
 10
589.0209363471683
 20
294.5651052800048
 30
0.0
 40
8.0
100
AcDbArc
 50
270.0
 51
0.0
  0
LINE
  5
C00
330
2
100
AcDbEntity
  8
0
100
AcDbLine
 10
597.0209363471683
 20
380.5651052800048
 30
0.0
 11
597.0209363471711
 21
294.5651052800051
 31
0.0
  0
LINE
  5
C01
330
2
100
AcDbEntity
  8
0
 48
0.5
100
AcDbLine
 10
599.0209363471692
 20
340.0651052800109
 30
0.0
 11
615.5209583471708
 21
340.0651052800109
 31
0.0
  0
LINE
  5
C02
330
2
100
AcDbEntity
  8
0
 48
0.5
100
AcDbLine
 10
599.0209363471701
 20
335.065105280011
 30
0.0
 11
615.5209583471708
 21
335.065105280011
 31
0.0
  0
LINE
  5
C03
330
2
100
AcDbEntity
  8
0
100
AcDbLine
 10
540.6646082848481
 20
294.5651052799991
 30
0.0
 11
542.8246092158476
 21
294.5651052799987
 31
0.0
  0
LINE
  5
C04
330
2
100
AcDbEntity
  8
0
100
AcDbLine
 10
543.6646082848526
 20
300.5651052800075
 30
0.0
 11
540.6646082848481
 21
294.5651052799991
 31
0.0
  0
ARC
  5
C05
330
2
100
AcDbEntity
  8
0
100
AcDbCircle
 10
548.64455371486
 20
298.5251052800044
 30
0.0
 40
2.040000000002968
100
AcDbArc
 50
307.5189678668038
 51
90.0
  0
LINE
  5
C06
330
2
100
AcDbEntity
  8
0
100
AcDbLine
 10
549.8869627496048
 20
296.907075678793
 30
0.0
 11
551.3772644094959
 21
294.5651052799991
 31
0.0
  0
LINE
  5
C07
330
2
100
AcDbEntity
  8
0
100
AcDbLine
 10
549.2172634784972
 20
294.5651052799987
 30
0.0
 11
551.3772644094959
 21
294.5651052799991
 31
0.0
  0
LINE
  5
C08
330
2
100
AcDbEntity
  8
0
100
AcDbLine
 10
544.8046082848539
 20
294.5651052799987
 30
0.0
 11
546.6045537148564
 21
294.5651052799984
 31
0.0
  0
LINE
  5
C09
330
2
100
AcDbEntity
  8
0
100
AcDbLine
 10
543.2746092158474
 20
295.4651052800004
 30
0.0
 11
542.8246092158476
 21
294.5651052799987
 31
0.0
  0
LINE
  5
C0A
330
2
100
AcDbEntity
  8
0
100
AcDbLine
 10
543.2746092158474
 20
295.4651052800004
 30
0.0
 11
544.8046082848539
 21
295.4651052799999
 31
0.0
  0
LINE
  5
C0B
330
2
100
AcDbEntity
  8
0
100
AcDbLine
 10
544.8046082848539
 20
295.4651052799999
 30
0.0
 11
544.8046082848539
 21
294.5651052799987
 31
0.0
  0
LINE
  5
C0C
330
2
100
AcDbEntity
  8
0
100
AcDbLine
 10
544.2346092158493
 20
297.3851052800022
 30
0.0
 11
544.8046082848539
 21
297.3851052800027
 31
0.0
  0
LINE
  5
C0D
330
2
100
AcDbEntity
  8
0
100
AcDbLine
 10
544.8046082848539
 20
298.525103418012
 30
0.0
 11
544.8046082848539
 21
297.3851052800027
 31
0.0
  0
LINE
  5
C0E
330
2
100
AcDbEntity
  8
0
100
AcDbLine
 10
544.8046082848539
 20
298.525103418012
 30
0.0
 11
544.2346092158493
 21
297.3851052800022
 31
0.0
  0
LINE
  5
C0F
330
2
100
AcDbEntity
  8
0
100
AcDbLine
 10
546.8596082848569
 20
298.2701052800038
 30
0.0
 11
549.2172634784972
 21
294.5651052799987
 31
0.0
  0
LINE
  5
C10
330
2
100
AcDbEntity
  8
0
100
AcDbLine
 10
546.6045537148564
 20
298.5251052800046
 30
0.0
 11
546.6045537148564
 21
294.5651052799984
 31
0.0
  0
LINE
  5
C11
330
2
100
AcDbEntity
  8
0
100
AcDbLine
 10
546.6045537148564
 20
298.5251052800046
 30
0.0
 11
548.5171082848589
 21
298.5251052800046
 31
0.0
  0
LINE
  5
C12
330
2
100
AcDbEntity
  8
0
100
AcDbLine
 10
546.8596082848569
 20
298.2701052800038
 30
0.0
 11
548.5171082848599
 21
298.2701052800038
 31
0.0
  0
ARC
  5
C13
330
2
100
AcDbEntity
  8
0
100
AcDbCircle
 10
548.5171082848599
 20
298.3976052800043
 30
0.0
 40
0.1275000000001855
100
AcDbArc
 50
270.0
 51
90.0
  0
LINE
  5
C14
330
2
100
AcDbEntity
  8
0
100
AcDbLine
 10
543.6646082848526
 20
300.5651052800075
 30
0.0
 11
548.64455371486
 21
300.5651052800075
 31
0.0
  0
ARC
  5
C15
330
2
100
AcDbEntity
  8
0
 48
0.5
100
AcDbCircle
 10
599.0209363471692
 20
342.0651052800109
 30
0.0
 40
2.0
100
AcDbArc
 50
180.0
 51
270.0
  0
ARC
  5
C16
330
2
100
AcDbEntity
  8
0
100
AcDbCircle
 10
615.5209583471708
 20
342.0651052800109
 30
0.0
 40
2.0
100
AcDbArc
 50
270.0
 51
0.0
  0
ARC
  5
C17
330
2
100
AcDbEntity
  8
0
100
AcDbCircle
 10
615.5209583471708
 20
333.065105280011
 30
0.0
 40
2.0
100
AcDbArc
 50
0.0
 51
90.0
  0
ARC
  5
C18
330
2
100
AcDbEntity
  8
0
100
AcDbCircle
 10
599.0209363471701
 20
333.065105280011
 30
0.0
 40
2.0
100
AcDbArc
 50
90.0
 51
180.0
  0
ARC
  5
C19
330
2
100
AcDbEntity
  8
0
100
AcDbCircle
 10
599.020936347172
 20
300.5651052800109
 30
0.0
 40
2.0
100
AcDbArc
 50
90.0
 51
180.0
  0
ARC
  5
C1A
330
2
100
AcDbEntity
  8
0
100
AcDbCircle
 10
621.5209363471601
 20
294.5651052800112
 30
0.0
 40
5.0
100
AcDbArc
 50
359.9999999999869
 51
90.0
  0
LINE
  5
C1B
330
2
100
AcDbEntity
  8
0
100
AcDbLine
 10
615.6479530009626
 20
372.5651052800112
 30
0.0
 11
599.0209363471729
 21
372.5651052800112
 31
0.0
  0
ARC
  5
C1C
330
2
100
AcDbEntity
  8
0
100
AcDbCircle
 10
599.0209363471729
 20
374.5651052800112
 30
0.0
 40
2.0
100
AcDbArc
 50
180.0
 51
270.0
  0
LINE
  5
C1D
330
2
100
AcDbEntity
  8
0
100
AcDbLine
 10
615.6479530009607
 20
302.5651052800109
 30
0.0
 11
599.020936347172
 21
302.5651052800109
 31
0.0
  0
LINE
  5
C1E
330
2
100
AcDbEntity
  8
0
100
AcDbLine
 10
621.5209363471711
 20
375.5651052800109
 30
0.0
 11
619.5209363471701
 21
375.5651052800112
 31
0.0
  0
ARC
  5
C1F
330
2
100
AcDbEntity
  8
0
100
AcDbCircle
 10
621.5209363471711
 20
380.5651052800109
 30
0.0
 40
5.0
100
AcDbArc
 50
270.0
 51
0.0
  0
LINE
  5
C20
330
2
100
AcDbEntity
  8
0
100
AcDbLine
 10
621.5209363471601
 20
299.5651052800112
 30
0.0
 11
619.5209363471683
 21
299.5651052800112
 31
0.0
  0
ARC
  5
C21
330
2
100
AcDbEntity
  8
0
100
AcDbCircle
 10
619.5209363471683
 20
301.5651052800112
 30
0.0
 40
2.0
100
AcDbArc
 50
180.0
 51
270.0
  0
ARC
  5
C22
330
2
100
AcDbEntity
  8
0
100
AcDbCircle
 10
615.6479530009607
 20
300.5651052800109
 30
0.0
 40
2.0
100
AcDbArc
 50
14.47751218594082
 51
90.0
  0
LINE
  5
C23
330
2
100
AcDbEntity
  8
0
100
AcDbLine
 10
617.5209363471692
 20
373.5651052800112
 30
0.0
 11
617.5209363471683
 21
301.5651052800112
 31
0.0
  0
ARC
  5
C24
330
2
100
AcDbEntity
  8
0
100
AcDbCircle
 10
619.5209363471701
 20
373.5651052800112
 30
0.0
 40
2.0
100
AcDbArc
 50
90.0
 51
180.0
  0
ARC
  5
C25
330
2
100
AcDbEntity
  8
0
100
AcDbCircle
 10
615.6479530009626
 20
374.5651052800109
 30
0.0
 40
2.0
100
AcDbArc
 50
270.0
 51
345.5224878140709
  0
ARC
  5
C26
330
2
100
AcDbEntity
  8
0
100
AcDbCircle
 10
612.5209583471717
 20
372.5651052800132
 30
0.0
 40
5.0
100
AcDbArc
 50
270.0
 51
359.9999999999869
  0
ARC
  5
C27
330
2
100
AcDbEntity
  8
0
100
AcDbCircle
 10
602.0209363471697
 20
372.5651052800137
 30
0.0
 40
5.0
100
AcDbArc
 50
179.9999999999869
 51
270.0
  0
LINE
  5
C28
330
2
100
AcDbEntity
  8
0
100
AcDbLine
 10
602.0209363471693
 20
367.5651052800137
 30
0.0
 11
612.5209583471712
 21
367.565105280013
 31
0.0
  0
ARC
  5
C29
330
2
100
AcDbEntity
  8
0
100
AcDbCircle
 10
612.5209583471703
 20
302.5651052800131
 30
0.0
 40
5.0
100
AcDbArc
 50
0.0
 51
90.0
  0
ARC
  5
C2A
330
2
100
AcDbEntity
  8
0
100
AcDbCircle
 10
602.0209363471683
 20
302.5651052800132
 30
0.0
 40
5.0
100
AcDbArc
 50
90.0
 51
180.0
  0
LINE
  5
C2B
330
2
100
AcDbEntity
  8
0
100
AcDbLine
 10
602.0209363471683
 20
307.5651052800132
 30
0.0
 11
612.5209583471703
 21
307.5651052800132
 31
0.0
  0
LINE
  5
C2C
330
2
100
AcDbEntity
  8
0
100
AcDbLine
 10
642.0209583471725
 20
389.065105280013
 30
0.0
 11
628.520958347173
 21
389.0651052800135
 31
0.0
  0
ARC
  5
C2D
330
2
100
AcDbEntity
  8
0
100
AcDbCircle
 10
628.5209583471726
 20
387.0651052800134
 30
0.0
 40
2.0
100
AcDbArc
 50
90.0
 51
179.9999999999869
  0
LINE
  5
C2E
330
2
100
AcDbEntity
  8
0
100
AcDbLine
 10
642.0209583471731
 20
286.0651052800129
 30
0.0
 11
628.5209583471698
 21
286.0651052800128
 31
0.0
  0
ARC
  5
C2F
330
2
100
AcDbEntity
  8
0
100
AcDbCircle
 10
628.5209583471698
 20
288.0651052800128
 30
0.0
 40
2.0
100
AcDbArc
 50
179.9999999999869
 51
270.0
  0
LINE
  5
C30
330
2
100
AcDbEntity
  8
CENTER
100
AcDbLine
 10
491.6923507245894
 20
283.2365196574289
 30
0.0
 11
600.3495219697549
 21
391.893690902593
 31
0.0
  0
CIRCLE
  5
C31
330
2
100
AcDbEntity
  8
0
100
AcDbCircle
 10
546.020936347172
 20
337.565105280011
 30
0.0
 40
26.57735026918976
  0
LINE
  5
C32
330
2
100
AcDbEntity
  8
CENTER
100
AcDbLine
 10
546.0209363471721
 20
708.5377674500546
 30
0.0
 11
546.0209363471718
 21
523.5377674500482
 31
0.0
  0
LINE
  5
C33
330
2
100
AcDbEntity
  8
CENTER
100
AcDbLine
 10
485.2779981631435
 20
647.5377674500475
 30
0.0
 11
736.5209583471751
 21
647.5377674500478
 31
0.0
  0
LINE
  5
C34
330
2
100
AcDbEntity
  8
0
100
AcDbLine
 10
495.0209363471738
 20
677.0377674500475
 30
0.0
 11
596.5023802803614
 21
677.0377674500519
 31
0.0
  0
LINE
  5
C35
330
2
100
AcDbEntity
  8
0
100
AcDbLine
 10
495.0209363471738
 20
677.0377674500475
 30
0.0
 11
495.7409029399111
 21
594.5377674500478
 31
0.0
  0
LINE
  5
C36
330
2
100
AcDbEntity
  8
0
100
AcDbLine
 10
501.0209363471737
 20
589.5377674500475
 30
0.0
 11
591.0209363471738
 21
589.5377674500475
 31
0.0
  0
LINE
  5
C37
330
2
100
AcDbEntity
  8
0
100
AcDbLine
 10
501.0209363471737
 20
594.5377674500478
 30
0.0
 11
501.0209363471737
 21
589.5377674500478
 31
0.0
  0
LINE
  5
C38
330
2
100
AcDbEntity
  8
0
100
AcDbLine
 10
495.7409029399111
 20
594.5377674500478
 30
0.0
 11
596.2984123542639
 21
594.5377674500475
 31
0.0
  0
LINE
  5
C39
330
2
100
AcDbEntity
  8
0
100
AcDbLine
 10
591.0209363471738
 20
594.5377674500478
 30
0.0
 11
591.0209363471738
 21
589.5377674500478
 31
0.0
  0
LINE
  5
C3A
330
2
100
AcDbEntity
  8
0
100
AcDbLine
 10
596.5023802803614
 20
677.0377674500519
 30
0.0
 11
596.7598130775647
 21
647.5388907196546
 31
0.0
  0
LINE
  5
C3B
330
2
100
AcDbEntity
  8
0
100
AcDbLine
 10
596.7609363471717
 20
647.5377674500475
 30
0.0
 11
596.2984123542644
 21
594.5377674500475
 31
0.0
  0
ARC
  5
C3C
330
2
100
AcDbEntity
  8
0
100
AcDbCircle
 10
601.4556863664254
 20
612.5377674500477
 30
0.0
 40
5.0
100
AcDbArc
 50
90.0
 51
179.5000000000019
  0
LINE
  5
C3D
330
2
100
AcDbEntity
  8
0
100
AcDbLine
 10
619.4692500890176
 20
609.5377674500477
 30
0.0
 11
621.309735012165
 21
609.5377674500477
 31
0.0
  0
LINE
  5
C3E
330
2
100
AcDbEntity
  8
0
100
AcDbLine
 10
642.0209583471721
 20
698.5377674500475
 30
0.0
 11
642.0209583471721
 21
596.5377674500477
 31
0.0
  0
LINE
  5
C3F
330
2
100
AcDbEntity
  8
0
100
AcDbLine
 10
619.4692500890176
 20
685.5377674500478
 30
0.0
 11
621.3097350121641
 21
685.5377674500478
 31
0.0
  0
LINE
  5
C40
330
2
100
AcDbEntity
  8
0
100
AcDbLine
 10
616.5258713275382
 20
647.5377674500478
 30
0.0
 11
617.4699354390666
 21
683.5901213466631
 31
0.0
  0
ARC
  5
C41
330
2
100
AcDbEntity
  8
0
100
AcDbCircle
 10
619.4692500890176
 20
683.5377674500476
 30
0.0
 40
2.0
100
AcDbArc
 50
90.0
 51
178.5000000000103
  0
LINE
  5
C42
330
2
100
AcDbEntity
  8
0
100
AcDbLine
 10
612.4144786984427
 20
676.5377674500519
 30
0.0
 11
597.0023802803622
 21
676.5377674500516
 31
0.0
  0
LINE
  5
C43
330
2
100
AcDbEntity
  8
0
100
AcDbLine
 10
596.5023802803614
 20
677.0377674500519
 30
0.0
 11
597.0023802803622
 21
676.5377674500516
 31
0.0
  0
LINE
  5
C44
330
2
100
AcDbEntity
  8
0
100
AcDbLine
 10
616.5258713275432
 20
647.5377674500478
 30
0.0
 11
617.4699354390666
 21
611.4854135534317
 31
0.0
  0
ARC
  5
C45
330
2
100
AcDbEntity
  8
0
100
AcDbCircle
 10
619.4692500890176
 20
611.5377674500475
 30
0.0
 40
2.0
100
AcDbArc
 50
181.5000000000027
 51
270.0
  0
LINE
  5
C46
330
2
100
AcDbEntity
  8
0
100
AcDbLine
 10
601.4556863664254
 20
617.5377674500477
 30
0.0
 11
612.440664620012
 21
617.5377674500477
 31
0.0
  0
ARC
  5
C47
330
2
100
AcDbEntity
  8
0
100
AcDbCircle
 10
612.440664620012
 20
612.5377674500477
 30
0.0
 40
5.0
100
AcDbArc
 50
1.500000000002719
 51
90.0
  0
ARC
  5
C48
330
2
100
AcDbEntity
  8
0
100
AcDbCircle
 10
612.4144786984427
 20
681.5377674500519
 30
0.0
 40
5.0
100
AcDbArc
 50
270.0
 51
358.4999999999972
  0
LINE
  5
C49
330
2
100
AcDbEntity
  8
0
100
AcDbLine
 10
513.9523138967859
 20
575.5377674500464
 30
0.0
 11
578.089558797559
 21
575.5377674500464
 31
0.0
  0
LINE
  5
C4A
330
2
100
AcDbEntity
  8
0
100
AcDbLine
 10
511.5994496787123
 20
587.6075664434511
 30
0.0
 11
511.953532242748
 21
577.4679684566417
 31
0.0
  0
ARC
  5
C4B
330
2
100
AcDbEntity
  8
0
100
AcDbCircle
 10
509.6006680246744
 20
587.5377674500464
 30
0.0
 40
2.0
100
AcDbArc
 50
2.000000000004465
 51
90.0
  0
ARC
  5
C4C
330
2
100
AcDbEntity
  8
0
100
AcDbCircle
 10
513.9523138967859
 20
577.5377674500464
 30
0.0
 40
2.0
100
AcDbArc
 50
182.0000000000044
 51
270.0
  0
LINE
  5
C4D
330
2
100
AcDbEntity
  8
0
100
AcDbLine
 10
580.4424230156326
 20
587.6075664434515
 30
0.0
 11
580.0883404515968
 21
577.4679684566417
 31
0.0
  0
ARC
  5
C4E
330
2
100
AcDbEntity
  8
0
100
AcDbCircle
 10
582.4412046696704
 20
587.5377674500464
 30
0.0
 40
2.0
100
AcDbArc
 50
90.0
 51
177.9999999999955
  0
ARC
  5
C4F
330
2
100
AcDbEntity
  8
0
100
AcDbCircle
 10
578.089558797559
 20
577.5377674500464
 30
0.0
 40
2.0
100
AcDbArc
 50
270.0
 51
357.9999999999955
  0
LINE
  5
C50
330
2
100
AcDbEntity
  8
0
100
AcDbLine
 10
586.0340293079559
 20
677.0377674500514
 30
0.0
 11
586.7810135401921
 21
648.5115905017399
 31
0.0
  0
ARC
  5
C51
330
2
100
AcDbEntity
  8
0
100
AcDbCircle
 10
587.7806708651676
 20
648.5377674500478
 30
0.0
 40
1.0
100
AcDbArc
 50
181.5000000000027
 51
270.0
  0
LINE
  5
C52
330
2
100
AcDbEntity
  8
0
100
AcDbLine
 10
586.0209363471729
 20
647.5377674500478
 30
0.0
 11
586.0209363471719
 21
596.0377674500476
 31
0.0
  0
LINE
  5
C53
330
2
100
AcDbEntity
  8
0
100
AcDbLine
 10
587.7806708651685
 20
647.5377674500478
 30
0.0
 11
596.7609363471713
 21
647.5377674500478
 31
0.0
  0
LINE
  5
C54
330
2
100
AcDbEntity
  8
0
100
AcDbLine
 10
587.7806708651685
 20
647.5377674500478
 30
0.0
 11
587.7806708651676
 21
647.5377674500478
 31
0.0
  0
LINE
  5
C55
330
2
100
AcDbEntity
  8
0
100
AcDbLine
 10
626.4699354390647
 20
696.5901213466634
 30
0.0
 11
625.1854543471379
 21
647.537767450048
 31
0.0
  0
ARC
  5
C56
330
2
100
AcDbEntity
  8
0
100
AcDbCircle
 10
621.3097350121641
 20
690.537767450048
 30
0.0
 40
5.0
100
AcDbArc
 50
270.0
 51
358.4999999999972
  0
LINE
  5
C57
330
2
100
AcDbEntity
  8
0
100
AcDbLine
 10
628.4692500890157
 20
596.5377674500477
 30
0.0
 11
642.0209583471721
 21
596.537767450048
 31
0.0
  0
ARC
  5
C58
330
2
100
AcDbEntity
  8
0
100
AcDbCircle
 10
628.4692500890157
 20
598.5377674500478
 30
0.0
 40
2.0
100
AcDbArc
 50
181.4999999999896
 51
270.0
  0
LINE
  5
C59
330
2
100
AcDbEntity
  8
0
100
AcDbLine
 10
628.4692500890157
 20
698.5377674500475
 30
0.0
 11
642.0209583471721
 21
698.5377674500478
 31
0.0
  0
ARC
  5
C5A
330
2
100
AcDbEntity
  8
0
100
AcDbCircle
 10
628.4692500890157
 20
696.5377674500477
 30
0.0
 40
2.0
100
AcDbArc
 50
90.0
 51
178.5000000000103
  0
LINE
  5
C5B
330
2
100
AcDbEntity
  8
0
100
AcDbLine
 10
626.4699354390647
 20
598.4854135534324
 30
0.0
 11
625.1854543471442
 21
647.5377674500478
 31
0.0
  0
ARC
  5
C5C
330
2
100
AcDbEntity
  8
0
100
AcDbCircle
 10
621.309735012165
 20
604.5377674500477
 30
0.0
 40
5.0
100
AcDbArc
 50
1.499999999989688
 51
90.0
  0
LINE
  5
C5D
330
2
100
AcDbEntity
  8
0
100
AcDbLine
 10
625.1854543471442
 20
647.5377674500478
 30
0.0
 11
642.0209583471721
 21
647.5377674500478
 31
0.0
  0
ARC
  5
C5E
330
2
100
AcDbEntity
  8
0
100
AcDbCircle
 10
615.5962667428073
 20
610.5377674500482
 30
0.0
 40
2.0
100
AcDbArc
 50
14.4775121859173
 51
90.0
  0
LINE
  5
C5F
330
2
100
AcDbEntity
  8
0
100
AcDbLine
 10
598.4381183956868
 20
612.5377674500473
 30
0.0
 11
615.5962667428073
 21
612.5377674500482
 31
0.0
  0
ARC
  5
C60
330
2
100
AcDbEntity
  8
0
100
AcDbCircle
 10
598.4381183956872
 20
610.5377674500475
 30
0.0
 40
2.0
100
AcDbArc
 50
90.0
 51
179.5000000000019
  0
LINE
  5
C8B
330
2
100
AcDbEntity
  8
CENTER
100
AcDbLine
 10
117.3882482731994
 20
276.5651052800111
 30
0.0
 11
117.3882482731994
 21
398.5651052800111
 31
0.0
  0
LINE
  5
C8C
330
2
100
AcDbEntity
  8
0
100
AcDbLine
 10
66.64824827319967
 20
294.5651052800143
 30
0.0
 11
66.64824827319967
 21
380.565105280014
 31
0.0
  0
ARC
  5
C8D
330
2
100
AcDbEntity
  8
0
100
AcDbCircle
 10
61.64824827319967
 20
302.5651052800136
 30
0.0
 40
5.0
100
AcDbArc
 50
0.0
 51
90.0
  0
ARC
  5
C8E
330
2
100
AcDbEntity
  8
0
100
AcDbCircle
 10
64.64824827319967
 20
300.5651052800111
 30
0.0
 40
2.0
100
AcDbArc
 50
0.0
 51
90.0
  0
ARC
  5
C8F
330
2
100
AcDbEntity
  8
0
100
AcDbCircle
 10
61.64824827319967
 20
372.5651052800141
 30
0.0
 40
5.0
100
AcDbArc
 50
270.0
 51
0.0
  0
ARC
  5
C90
330
2
100
AcDbEntity
  8
0
100
AcDbCircle
 10
64.64824827319967
 20
374.5651052800113
 30
0.0
 40
2.0
100
AcDbArc
 50
270.0
 51
0.0
  0
ARC
  5
C91
330
2
100
AcDbEntity
  8
0
100
AcDbCircle
 10
74.64824827319967
 20
380.565105280014
 30
0.0
 40
8.0
100
AcDbArc
 50
90.0
 51
180.0
  0
ARC
  5
C92
330
2
100
AcDbEntity
  8
0
100
AcDbCircle
 10
74.64824827319967
 20
294.5651052800143
 30
0.0
 40
8.0
100
AcDbArc
 50
180.0
 51
270.0
  0
ARC
  5
C94
330
2
100
AcDbEntity
  8
0
100
AcDbCircle
 10
41.88822627320109
 20
380.5651052800192
 30
0.0
 40
5.0
100
AcDbArc
 50
180.0
 51
270.0
  0
LINE
  5
C95
330
2
100
AcDbEntity
  8
0
100
AcDbLine
 10
36.8882262732011
 20
288.065105280019
 30
0.0
 11
36.88822627320382
 21
387.0651052800199
 31
0.0
  0
LINE
  5
C96
330
2
100
AcDbEntity
  8
0
100
AcDbLine
 10
21.38822627320064
 20
389.0651052800197
 30
0.0
 11
21.38822627320109
 21
337.5651052800197
 31
0.0
  0
ARC
  5
C97
330
2
100
AcDbEntity
  8
0
100
AcDbCircle
 10
34.88822627320383
 20
386.5651052800199
 30
0.0
 40
2.0
100
AcDbArc
 50
359.9999999999869
 51
90.0
  0
LINE
  5
C98
330
2
100
AcDbEntity
  8
0
100
AcDbLine
 10
21.38822627320064
 20
388.5651052800197
 30
0.0
 11
34.88822627320383
 21
388.5651052800199
 31
0.0
  0
LINE
  5
C99
330
2
100
AcDbEntity
  8
0
100
AcDbLine
 10
21.38822627320109
 20
286.0651052800195
 30
0.0
 11
21.38822627320109
 21
337.5651052800195
 31
0.0
  0
ARC
  5
C9A
330
2
100
AcDbEntity
  8
0
100
AcDbCircle
 10
34.88822627320109
 20
288.565105280019
 30
0.0
 40
2.0
100
AcDbArc
 50
270.0
 51
0.0
  0
ARC
  5
C9B
330
2
100
AcDbEntity
  8
0
100
AcDbCircle
 10
41.88822627320109
 20
294.5651052800197
 30
0.0
 40
5.0
100
AcDbArc
 50
90.0
 51
179.9999999999869
  0
LINE
  5
C9C
330
2
100
AcDbEntity
  8
0
100
AcDbLine
 10
21.38822627320109
 20
286.5651052800195
 30
0.0
 11
34.88822627320109
 21
286.565105280019
 31
0.0
  0
LINE
  5
C9D
330
2
100
AcDbEntity
  8
0
100
AcDbLine
 10
43.88822627319882
 20
299.5651052800143
 30
0.0
 11
41.88822627320155
 21
299.5651052800145
 31
0.0
  0
LINE
  5
C9E
330
2
100
AcDbEntity
  8
0
100
AcDbLine
 10
43.88822627320155
 20
375.5651052800199
 30
0.0
 11
41.88822627319973
 21
375.5651052800204
 31
0.0
  0
LINE
  5
C9F
330
2
100
AcDbEntity
  8
0
 48
0.5
100
AcDbLine
 10
65.888248273199
 20
329.8839595321545
 30
0.0
 11
65.88824827320036
 21
345.2462510278735
 31
0.0
  0
LINE
  5
CA0
330
2
100
AcDbEntity
  8
0
100
AcDbLine
 10
61.64824827319967
 20
367.5651052800141
 30
0.0
 11
50.88822627320064
 21
367.565105280014
 31
0.0
  0
LINE
  5
CA1
330
2
100
AcDbEntity
  8
0
100
AcDbLine
 10
45.88822627320064
 20
373.565105280019
 30
0.0
 11
45.88822627320064
 21
301.5651052800095
 31
0.0
  0
ARC
  5
CA2
330
2
100
AcDbEntity
  8
0
100
AcDbCircle
 10
50.88822627320064
 20
372.565105280014
 30
0.0
 40
5.0
100
AcDbArc
 50
180.0
 51
270.0
  0
ARC
  5
CA3
330
2
100
AcDbEntity
  8
0
100
AcDbCircle
 10
43.88822627320064
 20
373.565105280019
 30
0.0
 40
2.0
100
AcDbArc
 50
0.0
 51
89.99999999997395
  0
LINE
  5
CA4
330
2
100
AcDbEntity
  8
0
100
AcDbLine
 10
45.88822627320064
 20
329.8839595321545
 30
0.0
 11
66.38824827320582
 21
329.8839595321547
 31
0.0
  0
LINE
  5
CA5
330
2
100
AcDbEntity
  8
0
100
AcDbLine
 10
45.88822627320064
 20
345.2462510278738
 30
0.0
 11
66.38824827320582
 21
345.2462510278735
 31
0.0
  0
LINE
  5
CA6
330
2
100
AcDbEntity
  8
0
100
AcDbLine
 10
61.64824827319967
 20
307.5651052800135
 30
0.0
 11
50.88822627319927
 21
307.5651052800143
 31
0.0
  0
ARC
  5
CA7
330
2
100
AcDbEntity
  8
0
100
AcDbCircle
 10
50.88822627319882
 20
302.565105280014
 30
0.0
 40
5.0
100
AcDbArc
 50
90.0
 51
179.9999999999869
  0
ARC
  5
CA8
330
2
100
AcDbEntity
  8
0
100
AcDbCircle
 10
43.88822627319882
 20
301.5651052800095
 30
0.0
 40
2.0
100
AcDbArc
 50
270.0
 51
0.0
  0
LINE
  5
CA9
330
2
100
AcDbEntity
  8
0
100
AcDbLine
 10
47.76123161940882
 20
302.5651052800113
 30
0.0
 11
64.64824827319967
 21
302.565105280011
 31
0.0
  0
LINE
  5
CAA
330
2
100
AcDbEntity
  8
0
100
AcDbLine
 10
47.7612316194079
 20
372.565105280011
 30
0.0
 11
64.64824827319967
 21
372.5651052800113
 31
0.0
  0
ARC
  5
CAB
330
2
100
AcDbEntity
  8
0
100
AcDbCircle
 10
47.7612316194079
 20
374.5651052800111
 30
0.0
 40
2.0
100
AcDbArc
 50
194.477512185929
 51
270.0
  0
ARC
  5
CAC
330
2
100
AcDbEntity
  8
0
100
AcDbCircle
 10
47.76123161940882
 20
300.5651052800113
 30
0.0
 40
2.0
100
AcDbArc
 50
90.0
 51
165.5224878140709
  0
LINE
  5
CAD
330
2
100
AcDbEntity
  8
0
100
AcDbLine
 10
21.38822627320064
 20
389.0651052800197
 30
0.0
 11
34.88822627320383
 21
389.0651052800199
 31
0.0
  0
ARC
  5
CAE
330
2
100
AcDbEntity
  8
0
100
AcDbCircle
 10
34.88822627320383
 20
387.0651052800199
 30
0.0
 40
2.0
100
AcDbArc
 50
359.9999999999869
 51
90.0
  0
LINE
  5
CAF
330
2
100
AcDbEntity
  8
0
100
AcDbLine
 10
21.38822627320109
 20
286.0651052800195
 30
0.0
 11
34.88822627320109
 21
286.065105280019
 31
0.0
  0
ARC
  5
CB0
330
2
100
AcDbEntity
  8
0
100
AcDbCircle
 10
34.88822627320109
 20
288.065105280019
 30
0.0
 40
2.0
100
AcDbArc
 50
270.0
 51
0.0
  0
ARC
  5
CCB
330
2
100
AcDbEntity
  8
0
100
AcDbCircle
 10
-31.61175172680055
 20
337.5651052800109
 30
0.0
 40
200.0
100
AcDbArc
 50
354.1053016136051
 51
5.894698386394796
  0
LINE
  5
CCC
330
2
100
AcDbEntity
  8
0
 48
0.5
100
AcDbLine
 10
66.90824827319625
 20
294.5651052800117
 30
0.0
 11
66.90824827320307
 21
380.5651052800115
 31
0.0
  0
ARC
  5
CCD
330
2
100
AcDbEntity
  8
0
100
AcDbCircle
 10
144.0903772035251
 20
447.1903096019953
 30
0.0
 40
60.0
100
AcDbArc
 50
264.1053016135962
 51
281.8050678104682
  0
ARC
  5
CCE
330
2
100
AcDbEntity
  8
0
 48
0.5
100
AcDbCircle
 10
160.3882482731994
 20
380.5651052800111
 30
0.0
 40
8.0
100
AcDbArc
 50
0.0
 51
90.0
  0
LINE
  5
CCF
330
2
100
AcDbEntity
  8
CENTER
 48
12.0
100
AcDbLine
 10
160.3882482732026
 20
389.3151052800112
 30
0.0
 11
160.3882482732026
 21
371.8151052800112
 31
0.0
  0
LINE
  5
CD0
330
2
100
AcDbEntity
  8
0
 48
0.5
100
AcDbLine
 10
160.3882482731994
 20
388.5651052800111
 30
0.0
 11
157.3882482731994
 21
388.5651052800109
 31
0.0
  0
ARC
  5
CD1
330
2
100
AcDbEntity
  8
0
100
AcDbCircle
 10
157.3882482731994
 20
383.5651052800105
 30
0.0
 40
5.0
100
AcDbArc
 50
90.0
 51
101.8050678104681
  0
LINE
  5
CD2
330
2
100
AcDbEntity
  8
CENTER
 48
12.0
100
AcDbLine
 10
169.1382482732026
 20
380.5651052800111
 30
0.0
 11
151.6382482732026
 21
380.5651052800111
 31
0.0
  0
ARC
  5
CD3
330
2
100
AcDbEntity
  8
0
100
AcDbCircle
 10
227.0134525951841
 20
364.2672342103356
 30
0.0
 40
60.0
100
AcDbArc
 50
168.1949321895351
 51
185.8946983863948
  0
LINE
  5
CD4
330
2
100
AcDbEntity
  8
0
 48
0.5
100
AcDbLine
 10
168.3882482731994
 20
377.5651052800085
 30
0.0
 11
168.3882482731994
 21
380.5651052800109
 31
0.0
  0
ARC
  5
CD5
330
2
100
AcDbEntity
  8
0
100
AcDbCircle
 10
163.3882482731994
 20
377.5651052800109
 30
0.0
 40
5.0
100
AcDbArc
 50
348.194932189535
 51
0.0
  0
ARC
  5
CD6
330
2
100
AcDbEntity
  8
0
 48
0.5
100
AcDbCircle
 10
74.90824827320262
 20
380.5651052800108
 30
0.0
 40
8.0
100
AcDbArc
 50
90.0
 51
179.9999999999934
  0
ARC
  5
CD7
330
2
100
AcDbEntity
  8
0
100
AcDbCircle
 10
90.68611934287469
 20
447.1903096019956
 30
0.0
 40
60.0
100
AcDbArc
 50
258.1949321895318
 51
275.8946983864037
  0
ARC
  5
CD8
330
2
100
AcDbEntity
  8
0
100
AcDbCircle
 10
117.3882482731994
 20
188.565105280011
 30
0.0
 40
200.0
100
AcDbArc
 50
84.10530161359627
 51
95.89469838640374
  0
LINE
  5
CD9
330
2
100
AcDbEntity
  8
0
 48
0.5
100
AcDbLine
 10
77.38824827319945
 20
388.5651052800108
 30
0.0
 11
74.90824827320262
 21
388.5651052800108
 31
0.0
  0
ARC
  5
CDA
330
2
100
AcDbEntity
  8
0
100
AcDbCircle
 10
77.38824827319945
 20
383.565105280011
 30
0.0
 40
5.0
100
AcDbArc
 50
78.19493218953183
 51
90.0
  0
LINE
  5
CDB
330
2
100
AcDbEntity
  8
CENTER
 48
12.0
100
AcDbLine
 10
66.71504319244582
 20
372.0651052800111
 30
0.0
 11
77.06145335395991
 21
372.0651052800111
 31
0.0
  0
LINE
  5
CDC
330
2
100
AcDbEntity
  8
CENTER
 48
12.0
100
AcDbLine
 10
65.63824827319945
 20
380.5651052800143
 30
0.0
 11
83.13824827319946
 21
380.5651052800143
 31
0.0
  0
CIRCLE
  5
CDD
330
2
100
AcDbEntity
  8
0
100
AcDbCircle
 10
71.88824827320309
 20
372.0651052800113
 30
0.0
 40
1.6
  0
CIRCLE
  5
CDE
330
2
100
AcDbEntity
  8
HOJO
100
AcDbCircle
 10
71.88824827320309
 20
372.0651052800113
 30
0.0
 40
2.0
  0
LINE
  5
CDF
330
2
100
AcDbEntity
  8
CENTER
 48
12.0
100
AcDbLine
 10
71.88824827320264
 20
377.2383103607682
 30
0.0
 11
71.88824827320264
 21
366.8919001992541
 31
0.0
  0
ARC
  5
CE0
330
2
100
AcDbEntity
  8
0
100
AcDbCircle
 10
144.0903772035242
 20
227.9399009580265
 30
0.0
 40
60.0
100
AcDbArc
 50
78.19493218953183
 51
95.89469838640374
  0
ARC
  5
CE1
330
2
100
AcDbEntity
  8
0
 48
0.5
100
AcDbCircle
 10
160.3882482731994
 20
294.5651052800111
 30
0.0
 40
8.0
100
AcDbArc
 50
270.0
 51
0.0
  0
LINE
  5
CE2
330
2
100
AcDbEntity
  8
CENTER
 48
12.0
100
AcDbLine
 10
160.3882482731994
 20
285.8151052800078
 30
0.0
 11
160.3882482731994
 21
303.3151052800078
 31
0.0
  0
LINE
  5
CE3
330
2
100
AcDbEntity
  8
CENTER
 48
12.0
100
AcDbLine
 10
169.1382482731994
 20
294.5651052800077
 30
0.0
 11
151.6382482731994
 21
294.5651052800077
 31
0.0
  0
LINE
  5
CE4
330
2
100
AcDbEntity
  8
CENTER
 48
12.0
100
AcDbLine
 10
168.0614533539508
 20
303.0651052800108
 30
0.0
 11
157.7150431924367
 21
303.0651052800108
 31
0.0
  0
CIRCLE
  5
CE5
330
2
100
AcDbEntity
  8
HOJO
100
AcDbCircle
 10
162.8882482731935
 20
303.0651052800108
 30
0.0
 40
2.0
  0
LINE
  5
CE6
330
2
100
AcDbEntity
  8
CENTER
 48
12.0
100
AcDbLine
 10
162.8882482731939
 20
297.8919001992538
 30
0.0
 11
162.8882482731939
 21
308.2383103607678
 31
0.0
  0
ARC
  5
CE7
330
2
100
AcDbEntity
  8
0
100
AcDbCircle
 10
227.0134525951837
 20
310.8629763496855
 30
0.0
 40
60.0
100
AcDbArc
 50
174.1053016136051
 51
191.8050678104647
  0
LINE
  5
CE8
330
2
100
AcDbEntity
  8
0
 48
0.5
100
AcDbLine
 10
168.3882482731994
 20
294.5651052800111
 30
0.0
 11
168.3882482731994
 21
297.5651052800086
 31
0.0
  0
ARC
  5
CE9
330
2
100
AcDbEntity
  8
0
100
AcDbCircle
 10
163.388248273199
 20
297.5651052800109
 30
0.0
 40
5.0
100
AcDbArc
 50
0.0
 51
11.80506781046483
  0
CIRCLE
  5
CEA
330
2
100
AcDbEntity
  8
0
100
AcDbCircle
 10
162.8882482731935
 20
303.0651052800108
 30
0.0
 40
1.6
  0
LINE
  5
CEB
330
2
100
AcDbEntity
  8
0
 48
0.5
100
AcDbLine
 10
160.3882482731994
 20
286.5651052800111
 30
0.0
 11
157.3882482731994
 21
286.5651052800111
 31
0.0
  0
ARC
  5
CEC
330
2
100
AcDbEntity
  8
0
100
AcDbCircle
 10
157.3882482731994
 20
291.5651052800111
 30
0.0
 40
5.0
100
AcDbArc
 50
258.1949321895318
 51
270.0
  0
ARC
  5
CED
330
2
100
AcDbEntity
  8
0
100
AcDbCircle
 10
90.68611934287423
 20
227.9399009580267
 30
0.0
 40
60.0
100
AcDbArc
 50
84.10530161359627
 51
101.8050678104681
  0
ARC
  5
CEE
330
2
100
AcDbEntity
  8
0
100
AcDbCircle
 10
117.3882482731994
 20
486.565105280011
 30
0.0
 40
200.0
100
AcDbArc
 50
264.1053016135962
 51
275.8946983864037
  0
ARC
  5
CEF
330
2
100
AcDbEntity
  8
0
100
AcDbCircle
 10
74.90824827319625
 20
294.5651052800112
 30
0.0
 40
8.0
100
AcDbArc
 50
179.9999999999934
 51
270.0
  0
LINE
  5
CF0
330
2
100
AcDbEntity
  8
CENTER
 48
12.0
100
AcDbLine
 10
65.63824827319627
 20
294.5651052800108
 30
0.0
 11
83.13824827319626
 21
294.5651052800108
 31
0.0
  0
ARC
  5
CF1
330
2
100
AcDbEntity
  8
0
100
AcDbCircle
 10
77.38824827319945
 20
291.5651052800115
 30
0.0
 40
5.0
100
AcDbArc
 50
270.0
 51
281.8050678104682
  0
LINE
  5
CF2
330
2
100
AcDbEntity
  8
0
100
AcDbLine
 10
74.90824827319716
 20
286.5651052800112
 30
0.0
 11
77.38824827319945
 21
286.5651052800115
 31
0.0
  0
ARC
  5
CF3
330
2
100
AcDbEntity
  8
0
100
AcDbCircle
 10
92.57706509115065
 20
301.565105280017
 30
0.0
 40
10.5
100
AcDbArc
 50
224.9999999999926
 51
270.0
  0
LINE
  5
CF4
330
2
100
AcDbEntity
  8
0
100
AcDbLine
 10
89.04153118521776
 20
298.0295713740843
 30
0.0
 11
77.85271436727248
 21
309.2183881920292
 31
0.0
  0
CIRCLE
  5
CF5
330
2
100
AcDbEntity
  8
0
100
AcDbCircle
 10
117.3882482731994
 20
337.565105280011
 30
0.0
 40
33.00000000000153
  0
CIRCLE
  5
CF6
330
2
100
AcDbEntity
  8
0
100
AcDbCircle
 10
117.3882482731994
 20
337.565105280011
 30
0.0
 40
35.00000000000153
  0
CIRCLE
  5
CF7
330
2
100
AcDbEntity
  8
0
100
AcDbCircle
 10
117.3882482731994
 20
337.565105280011
 30
0.0
 40
35.50000000000153
  0
CIRCLE
  5
CF8
330
2
100
AcDbEntity
  8
0
100
AcDbCircle
 10
117.3882482731994
 20
337.565105280011
 30
0.0
 40
32.42260000000154
  0
CIRCLE
  5
CF9
330
2
100
AcDbEntity
  8
0
100
AcDbCircle
 10
117.3882482731994
 20
337.565105280011
 30
0.0
 40
26.0
  0
CIRCLE
  5
CFA
330
2
100
AcDbEntity
  8
0
100
AcDbCircle
 10
117.3882482731994
 20
337.565105280011
 30
0.0
 40
26.57735026918937
  0
LINE
  5
CFB
330
2
100
AcDbEntity
  8
0
100
AcDbLine
 10
92.57706509115019
 20
296.565105280017
 30
0.0
 11
142.1994314552482
 21
296.5651052800168
 31
0.0
  0
LINE
  5
CFC
330
2
100
AcDbEntity
  8
0
100
AcDbLine
 10
92.57706509115065
 20
291.065105280017
 30
0.0
 11
142.1994314552482
 21
291.0651052800168
 31
0.0
  0
LINE
  5
CFD
330
2
100
AcDbEntity
  8
0
100
AcDbLine
 10
88.55888905131701
 20
291.8643701886484
 30
0.0
 11
90.66364792932494
 21
296.9457076174604
 31
0.0
  0
ARC
  5
CFE
330
2
100
AcDbEntity
  8
0
100
AcDbCircle
 10
92.57706509115019
 20
301.565105280017
 30
0.0
 40
5.0
100
AcDbArc
 50
224.9999999999926
 51
270.0
  0
LINE
  5
CFF
330
2
100
AcDbEntity
  8
0
100
AcDbLine
 10
156.9237821791264
 20
309.2183881920291
 30
0.0
 11
145.7349653611811
 21
298.0295713740841
 31
0.0
  0
LINE
  5
D00
330
2
100
AcDbEntity
  8
0
100
AcDbLine
 10
160.8128694756521
 20
305.3293008955031
 30
0.0
 11
149.6240526577073
 21
294.1404840775581
 31
0.0
  0
LINE
  5
D01
330
2
100
AcDbEntity
  8
0
100
AcDbLine
 10
146.2176074950819
 20
291.8643701886484
 30
0.0
 11
144.1128486170739
 21
296.9457076174604
 31
0.0
  0
ARC
  5
D02
330
2
100
AcDbEntity
  8
0
100
AcDbCircle
 10
142.1994314552482
 20
301.5651052800169
 30
0.0
 40
10.5
100
AcDbArc
 50
270.0
 51
315.0000000000074
  0
ARC
  5
D03
330
2
100
AcDbEntity
  8
0
100
AcDbCircle
 10
142.1994314552482
 20
301.5651052800169
 30
0.0
 40
5.0
100
AcDbArc
 50
270.0
 51
315.0000000000074
  0
LINE
  5
D04
330
2
100
AcDbEntity
  8
0
100
AcDbLine
 10
158.3882482731935
 20
312.7539220979619
 30
0.0
 11
158.3882482731935
 21
362.3762884620603
 31
0.0
  0
LINE
  5
D05
330
2
100
AcDbEntity
  8
0
100
AcDbLine
 10
163.8882482731935
 20
312.7539220979619
 30
0.0
 11
163.8882482731935
 21
362.3762884620601
 31
0.0
  0
LINE
  5
D06
330
2
100
AcDbEntity
  8
0
100
AcDbLine
 10
163.0889833645621
 20
308.7357460581286
 30
0.0
 11
158.0076459357503
 21
310.8405049361365
 31
0.0
  0
ARC
  5
D07
330
2
100
AcDbEntity
  8
0
100
AcDbCircle
 10
153.3882482731935
 20
312.7539220979619
 30
0.0
 40
10.5
100
AcDbArc
 50
315.0000000000074
 51
0.0
  0
ARC
  5
D08
330
2
100
AcDbEntity
  8
0
100
AcDbCircle
 10
153.3882482731935
 20
312.7539220979619
 30
0.0
 40
5.0
100
AcDbArc
 50
315.0000000000074
 51
0.0
  0
LINE
  5
D09
330
2
100
AcDbEntity
  8
0
100
AcDbLine
 10
145.7349653611816
 20
377.1006391859379
 30
0.0
 11
156.9237821791264
 21
365.911822367993
 31
0.0
  0
LINE
  5
D0A
330
2
100
AcDbEntity
  8
0
100
AcDbLine
 10
163.0889833645621
 20
366.3944645018934
 30
0.0
 11
158.0076459357503
 21
364.2897056238855
 31
0.0
  0
ARC
  5
D0B
330
2
100
AcDbEntity
  8
0
100
AcDbCircle
 10
153.3882482731935
 20
362.3762884620601
 30
0.0
 40
10.5
100
AcDbArc
 50
0.0
 51
44.99999999999262
  0
ARC
  5
D0C
330
2
100
AcDbEntity
  8
0
100
AcDbCircle
 10
153.3882482731935
 20
362.3762884620603
 30
0.0
 40
5.0
100
AcDbArc
 50
0.0
 51
44.99999999999262
  0
LINE
  5
D0D
330
2
100
AcDbEntity
  8
0
100
AcDbLine
 10
149.6240526577073
 20
380.9897264824638
 30
0.0
 11
160.8128694756521
 21
369.8009096645189
 31
0.0
  0
LINE
  5
D0E
330
2
100
AcDbEntity
  8
0
100
AcDbLine
 10
142.1994314552487
 20
378.5651052800051
 30
0.0
 11
92.57706509115065
 21
378.565105280005
 31
0.0
  0
LINE
  5
D0F
330
2
100
AcDbEntity
  8
0
100
AcDbLine
 10
142.1994314552487
 20
384.0651052800052
 30
0.0
 11
92.57706509115019
 21
384.065105280005
 31
0.0
  0
LINE
  5
D10
330
2
100
AcDbEntity
  8
0
100
AcDbLine
 10
146.2176074950819
 20
383.2658403713738
 30
0.0
 11
144.1128486170739
 21
378.1845029425617
 31
0.0
  0
ARC
  5
D11
330
2
100
AcDbEntity
  8
0
100
AcDbCircle
 10
142.1994314552487
 20
373.5651052800051
 30
0.0
 40
10.5
100
AcDbArc
 50
44.99999999999262
 51
90.0
  0
ARC
  5
D12
330
2
100
AcDbEntity
  8
0
100
AcDbCircle
 10
142.1994314552487
 20
373.5651052800051
 30
0.0
 40
5.0
100
AcDbArc
 50
44.99999999999262
 51
90.0
  0
ARC
  5
D13
330
2
100
AcDbEntity
  8
0
100
AcDbCircle
 10
92.57706509115019
 20
373.565105280005
 30
0.0
 40
10.5
100
AcDbArc
 50
90.0
 51
135.0000000000074
  0
LINE
  5
D14
330
2
100
AcDbEntity
  8
0
100
AcDbLine
 10
77.85271436727294
 20
365.9118223679929
 30
0.0
 11
89.04153118521776
 21
377.1006391859378
 31
0.0
  0
LINE
  5
D15
330
2
100
AcDbEntity
  8
0
100
AcDbLine
 10
88.55888905131701
 20
383.2658403713738
 30
0.0
 11
90.66364792932494
 21
378.1845029425618
 31
0.0
  0
ARC
  5
D16
330
2
100
AcDbEntity
  8
0
100
AcDbCircle
 10
92.57706509115065
 20
373.565105280005
 30
0.0
 40
5.0
100
AcDbArc
 50
90.0
 51
135.0000000000074
  0
LINE
  5
D17
330
2
100
AcDbEntity
  8
0
100
AcDbLine
 10
73.96362707074672
 20
369.8009096645191
 30
0.0
 11
85.15244388869154
 21
380.9897264824638
 31
0.0
  0
LINE
  5
D18
330
2
100
AcDbEntity
  8
0
100
AcDbLine
 10
76.38824827320537
 20
362.3762884620601
 30
0.0
 11
76.38824827320537
 21
312.753922097962
 31
0.0
  0
LINE
  5
D19
330
2
100
AcDbEntity
  8
0
100
AcDbLine
 10
70.88824827320536
 20
362.3762884620603
 30
0.0
 11
70.88824827320536
 21
312.7539220979619
 31
0.0
  0
ARC
  5
D1A
330
2
100
AcDbEntity
  8
0
100
AcDbCircle
 10
81.38824827320537
 20
362.3762884620603
 30
0.0
 40
10.5
100
AcDbArc
 50
135.0000000000074
 51
180.0
  0
LINE
  5
D1B
330
2
100
AcDbEntity
  8
0
100
AcDbLine
 10
71.68751318183672
 20
366.3944645018935
 30
0.0
 11
76.768850610649
 21
364.2897056238855
 31
0.0
  0
ARC
  5
D1C
330
2
100
AcDbEntity
  8
0
100
AcDbCircle
 10
81.38824827320537
 20
362.3762884620601
 30
0.0
 40
5.0
100
AcDbArc
 50
135.0000000000074
 51
180.0
  0
LINE
  5
D1D
330
2
100
AcDbEntity
  8
0
100
AcDbLine
 10
85.15244388869154
 20
294.1404840775583
 30
0.0
 11
73.96362707074672
 21
305.3293008955031
 31
0.0
  0
ARC
  5
D1E
330
2
100
AcDbEntity
  8
0
100
AcDbCircle
 10
81.38824827320537
 20
312.7539220979619
 30
0.0
 40
10.5
100
AcDbArc
 50
180.0
 51
224.9999999999926
  0
LINE
  5
D1F
330
2
100
AcDbEntity
  8
0
100
AcDbLine
 10
71.68751318183672
 20
308.7357460581287
 30
0.0
 11
76.768850610649
 21
310.8405049361366
 31
0.0
  0
ARC
  5
D20
330
2
100
AcDbEntity
  8
0
100
AcDbCircle
 10
81.38824827320537
 20
312.753922097962
 30
0.0
 40
5.0
100
AcDbArc
 50
180.0
 51
224.9999999999926
  0
LINE
  5
D21
330
2
100
AcDbEntity
  8
CENTER
 48
12.0
100
AcDbLine
 10
74.38824827319945
 20
285.8151052800078
 30
0.0
 11
74.38824827319945
 21
303.3151052800078
 31
0.0
  0
LINE
  5
D22
330
2
100
AcDbEntity
  8
CENTER
 48
12.0
100
AcDbLine
 10
74.38824827319945
 20
389.315105280014
 30
0.0
 11
74.38824827319945
 21
371.815105280014
 31
0.0
  0
LINE
  5
D4D
330
2
100
AcDbEntity
  8
0
100
AcDbLine
 10
578.4435860779706
 20
698.5377674500644
 30
0.0
 11
546.0209363471715
 21
698.5377674500546
 31
0.0
  0
LINE
  5
D4E
330
2
100
AcDbEntity
  8
0
 48
0.5
100
AcDbLine
 10
579.0209363471729
 20
693.8377674500411
 30
0.0
 11
579.020936347172
 21
690.5377674500412
 31
0.0
  0
LINE
  5
D4F
330
2
100
AcDbEntity
  8
HIDS
  6
SEKKEI_H
 48
0.5
100
AcDbLine
 10
591.9351499095344
 20
685.1235538876781
 30
0.0
 11
587.6067227848059
 21
689.4519810124113
 31
0.0
  0
LINE
  5
D50
330
2
100
AcDbEntity
  8
0
100
AcDbLine
 10
579.020936347172
 20
690.5377674500462
 30
0.0
 11
581.0209363471665
 21
690.5377674500457
 31
0.0
  0
LINE
  5
D51
330
2
100
AcDbEntity
  8
0
100
AcDbLine
 10
581.0209363471715
 20
690.5377674500405
 30
0.0
 11
581.520936347171
 21
690.0377674500402
 31
0.0
  0
LINE
  5
D52
330
2
100
AcDbEntity
  8
0
100
AcDbLine
 10
581.0209363471715
 20
690.5377674500405
 30
0.0
 11
579.020936347172
 21
690.5377674500412
 31
0.0
  0
LINE
  5
D53
330
2
100
AcDbEntity
  8
0
 48
0.5
100
AcDbLine
 10
578.3209363471731
 20
695.8377674500411
 30
0.0
 11
578.3209363471725
 21
694.2377674500412
 31
0.0
  0
LINE
  5
D54
330
2
100
AcDbEntity
  8
0
 48
0.5
100
AcDbLine
 10
578.8209363471721
 20
694.0377674500411
 30
0.0
 11
579.0209363471729
 21
693.8377674500411
 31
0.0
  0
LINE
  5
D55
330
2
100
AcDbEntity
  8
0
100
AcDbLine
 10
578.8209363471731
 20
696.0377674500412
 30
0.0
 11
513.22093634717
 21
696.0377674500398
 31
0.0
  0
LINE
  5
D56
330
2
100
AcDbEntity
  8
0
100
AcDbLine
 10
579.0209363471733
 20
697.5377674500411
 30
0.0
 11
578.4435860779837
 21
698.5377674500414
 31
0.0
  0
LINE
  5
D57
330
2
100
AcDbEntity
  8
0
 48
0.5
100
AcDbLine
 10
579.0209363471733
 20
697.5377674500411
 30
0.0
 11
579.0209363471729
 21
696.237767450041
 31
0.0
  0
LINE
  5
D58
330
2
100
AcDbEntity
  8
0
 48
12.0
100
AcDbLine
 10
596.4527862086968
 20
682.5552205210474
 30
0.0
 11
596.5009364021523
 21
677.0377548495164
 31
0.0
  0
ARC
  5
D59
330
2
100
AcDbEntity
  8
HIDS
  6
SEKKEI_H
 48
0.3
100
AcDbCircle
 10
593.3493634719082
 20
686.5377674500505
 30
0.0
 40
2.0
100
AcDbArc
 50
224.9999999999855
 51
270.0
  0
ARC
  5
D5A
330
2
100
AcDbEntity
  8
HIDS
  6
SEKKEI_H
 48
0.5
100
AcDbCircle
 10
586.1925092224317
 20
688.0377674500389
 30
0.0
 40
2.0
100
AcDbArc
 50
44.99999999998551
 51
89.99999999997395
  0
ARC
  5
D5B
330
2
100
AcDbEntity
  8
0
100
AcDbCircle
 10
578.8209363471731
 20
696.2377674500412
 30
0.0
 40
0.2
100
AcDbArc
 50
270.0
 51
359.9999999999739
  0
ARC
  5
D5C
330
2
100
AcDbEntity
  8
0
 48
0.5
100
AcDbCircle
 10
578.5209363471729
 20
695.8377674500411
 30
0.0
 40
0.2
100
AcDbArc
 50
90.0
 51
179.9999999999804
  0
ARC
  5
D5D
330
2
100
AcDbEntity
  8
0
100
AcDbCircle
 10
578.5209363471729
 20
694.237767450041
 30
0.0
 40
0.2
100
AcDbArc
 50
179.9999999999804
 51
270.0
  0
LINE
  5
D5E
330
2
100
AcDbEntity
  8
0
100
AcDbLine
 10
513.5982866163724
 20
698.537767450063
 30
0.0
 11
546.0209363471715
 21
698.5377674500546
 31
0.0
  0
LINE
  5
D5F
330
2
100
AcDbEntity
  8
0
 48
0.5
100
AcDbLine
 10
513.0209363471705
 20
693.8377674500397
 30
0.0
 11
513.0209363471715
 21
690.5377674500398
 31
0.0
  0
LINE
  5
D60
330
2
100
AcDbEntity
  8
HIDS
  6
SEKKEI_H
 48
0.5
100
AcDbLine
 10
500.1067227848091
 20
685.1235538876765
 30
0.0
 11
504.4351499095376
 21
689.4519810124095
 31
0.0
  0
LINE
  5
D61
330
2
100
AcDbEntity
  8
0
100
AcDbLine
 10
508.020936347172
 20
690.0377674500373
 30
0.0
 11
584.020936347172
 21
690.0377674500386
 31
0.0
  0
LINE
  5
D62
330
2
100
AcDbEntity
  8
0
100
AcDbLine
 10
513.0209363471715
 20
690.5377674500448
 30
0.0
 11
511.020936347177
 21
690.5377674500443
 31
0.0
  0
LINE
  5
D63
330
2
100
AcDbEntity
  8
0
100
AcDbLine
 10
511.0209363471719
 20
690.5377674500392
 30
0.0
 11
510.5209363471719
 21
690.0377674500389
 31
0.0
  0
LINE
  5
D64
330
2
100
AcDbEntity
  8
0
100
AcDbLine
 10
511.0209363471719
 20
690.5377674500392
 30
0.0
 11
513.0209363471715
 21
690.5377674500398
 31
0.0
  0
LINE
  5
D65
330
2
100
AcDbEntity
  8
0
100
AcDbLine
 10
495.0690864306641
 20
682.5552205210456
 30
0.0
 11
495.020936347172
 21
677.0377674500487
 31
0.0
  0
LINE
  5
D66
330
2
100
AcDbEntity
  8
0
100
AcDbLine
 10
495.020936347172
 20
677.0377674500484
 30
0.0
 11
596.500936347172
 21
677.0377674500507
 31
0.0
  0
LINE
  5
D67
330
2
100
AcDbEntity
  8
0
 48
0.3
100
AcDbLine
 10
497.0690102767928
 20
684.5377674500489
 30
0.0
 11
594.452862362568
 21
684.5377674500505
 31
0.0
  0
ARC
  5
D68
330
2
100
AcDbEntity
  8
0
 48
0.3
100
AcDbCircle
 10
594.452862362568
 20
682.5377674500505
 30
0.0
 40
2.0
100
AcDbArc
 50
0.5000000000045769
 51
90.0
  0
ARC
  5
D69
330
2
100
AcDbEntity
  8
0
 48
0.3
100
AcDbCircle
 10
497.0690102767928
 20
682.5377674500489
 30
0.0
 40
2.0
100
AcDbArc
 50
90.0
 51
179.5000000000019
  0
LINE
  5
D6A
330
2
100
AcDbEntity
  8
0
 48
0.5
100
AcDbLine
 10
513.72093634717
 20
695.83776745004
 30
0.0
 11
513.7209363471709
 21
694.2377674500399
 31
0.0
  0
LINE
  5
D6B
330
2
100
AcDbEntity
  8
0
100
AcDbLine
 10
513.2209363471709
 20
694.0377674500398
 30
0.0
 11
578.8209363471721
 21
694.0377674500411
 31
0.0
  0
LINE
  5
D6C
330
2
100
AcDbEntity
  8
0
 48
0.5
100
AcDbLine
 10
513.2209363471709
 20
694.0377674500398
 30
0.0
 11
513.0209363471705
 21
693.8377674500397
 31
0.0
  0
LINE
  5
D6D
330
2
100
AcDbEntity
  8
0
100
AcDbLine
 10
513.0209363471696
 20
697.5377674500398
 30
0.0
 11
513.5982866163592
 21
698.5377674500401
 31
0.0
  0
LINE
  5
D6E
330
2
100
AcDbEntity
  8
0
 48
0.5
100
AcDbLine
 10
513.0209363471696
 20
697.5377674500398
 30
0.0
 11
513.0209363471701
 21
696.2377674500398
 31
0.0
  0
ARC
  5
D6F
330
2
100
AcDbEntity
  8
HIDS
  6
SEKKEI_H
 48
0.3
100
AcDbCircle
 10
498.6925092224352
 20
686.5377674500489
 30
0.0
 40
2.0
100
AcDbArc
 50
270.0
 51
315.0000000000144
  0
ARC
  5
D70
330
2
100
AcDbEntity
  8
HIDS
  6
SEKKEI_H
 48
0.5
100
AcDbCircle
 10
505.8493634719114
 20
688.0377674500373
 30
0.0
 40
2.0
100
AcDbArc
 50
90.00000000002605
 51
135.0000000000144
  0
ARC
  5
D71
330
2
100
AcDbEntity
  8
0
100
AcDbCircle
 10
513.22093634717
 20
696.2377674500398
 30
0.0
 40
0.2
100
AcDbArc
 50
180.0000000000195
 51
270.0
  0
ARC
  5
D72
330
2
100
AcDbEntity
  8
0
 48
0.5
100
AcDbCircle
 10
513.5209363471701
 20
695.83776745004
 30
0.0
 40
0.2
100
AcDbArc
 50
0.0000000000195413
 51
90.0
  0
ARC
  5
D73
330
2
100
AcDbEntity
  8
0
100
AcDbCircle
 10
513.5209363471706
 20
694.2377674500399
 30
0.0
 40
0.2
100
AcDbArc
 50
270.0
 51
0.0000000000195413
  0
LINE
  5
D74
330
2
100
AcDbEntity
  8
0
 48
12.0
100
AcDbLine
 10
579.0209363471733
 20
697.5377674500411
 30
0.0
 11
513.0209363471696
 21
697.5377674500398
 31
0.0
  0
LINE
  5
D75
330
2
100
AcDbEntity
  8
0
 48
12.0
100
AcDbLine
 10
579.0209363471729
 20
693.8377674500411
 30
0.0
 11
513.0209363471705
 21
693.8377674500397
 31
0.0
  0
LINE
  5
D76
330
2
100
AcDbEntity
  8
0
 48
12.0
100
AcDbLine
 10
579.020936347172
 20
690.5377674500412
 30
0.0
 11
513.0209363471715
 21
690.5377674500398
 31
0.0
  0
LINE
  5
D7B
330
2
100
AcDbEntity
  8
CENTER
  6
CENTERX2
100
AcDbLine
 10
503.0209363471719
 20
681.5377674500489
 30
0.0
 11
503.0209363471719
 21
695.0377674500498
 31
0.0
  0
LINE
  5
D7C
330
2
100
AcDbEntity
  8
0
 48
12.0
100
AcDbLine
 10
498.0209363471719
 20
684.5377674500489
 30
0.0
 11
508.020936347172
 21
684.5377674500489
 31
0.0
  0
LINE
  5
D7D
330
2
100
AcDbEntity
  8
CENTER
  6
CENTERX2
100
AcDbLine
 10
589.0209363471719
 20
681.5377674500503
 30
0.0
 11
589.0209363471719
 21
695.0377674500514
 31
0.0
  0
LINE
  5
D7E
330
2
100
AcDbEntity
  8
0
 48
12.0
100
AcDbLine
 10
584.020936347172
 20
684.5377674500505
 30
0.0
 11
594.0209363471719
 21
684.5377674500505
 31
0.0
  0
LINE
  5
D81
330
2
100
AcDbEntity
  8
HIDS
  6
SEKKEI_H
100
AcDbLine
 10
508.020936347172
 20
690.0377674500373
 30
0.0
 11
505.8493634719105
 21
690.0377674500373
 31
0.0
  0
LINE
  5
D82
330
2
100
AcDbEntity
  8
HIDS
  6
SEKKEI_H
100
AcDbLine
 10
584.020936347172
 20
690.0377674500386
 30
0.0
 11
586.1925092224326
 21
690.0377674500389
 31
0.0
  0
LINE
  5
D84
330
2
100
AcDbEntity
  8
0
100
AcDbLine
 10
508.020936347172
 20
691.6377674500493
 30
0.0
 11
507.3281160241447
 21
692.0377674500489
 31
0.0
  0
LINE
  5
D85
330
2
100
AcDbEntity
  8
0
100
AcDbLine
 10
508.020936347172
 20
691.6377674500493
 30
0.0
 11
498.0209363471719
 21
691.6377674500493
 31
0.0
  0
LINE
  5
D86
330
2
100
AcDbEntity
  8
0
100
AcDbLine
 10
508.020936347172
 20
686.0377674500494
 30
0.0
 11
508.020936347172
 21
691.6377674500493
 31
0.0
  0
LINE
  5
D87
330
2
100
AcDbEntity
  8
0
100
AcDbLine
 10
498.0209363471719
 20
686.0377674500496
 30
0.0
 11
498.0209363471719
 21
691.6377674500493
 31
0.0
  0
LINE
  5
D88
330
2
100
AcDbEntity
  8
0
100
AcDbLine
 10
498.0209363471719
 20
691.6377674500493
 30
0.0
 11
498.7137566701992
 21
692.0377674500489
 31
0.0
  0
LINE
  5
D89
330
2
100
AcDbEntity
  8
0
100
AcDbLine
 10
507.3281160241447
 20
692.0377674500489
 30
0.0
 11
498.7137566701992
 21
692.0377674500489
 31
0.0
  0
LINE
  5
D8A
330
2
100
AcDbEntity
  8
0
100
AcDbLine
 10
594.0209363471719
 20
691.6377674500509
 30
0.0
 11
593.3281160241447
 21
692.0377674500505
 31
0.0
  0
LINE
  5
D8B
330
2
100
AcDbEntity
  8
0
100
AcDbLine
 10
594.0209363471719
 20
691.6377674500509
 30
0.0
 11
584.020936347172
 21
691.6377674500509
 31
0.0
  0
LINE
  5
D8C
330
2
100
AcDbEntity
  8
0
100
AcDbLine
 10
594.0209363471719
 20
686.0377674500512
 30
0.0
 11
594.0209363471719
 21
691.6377674500509
 31
0.0
  0
LINE
  5
D8D
330
2
100
AcDbEntity
  8
0
100
AcDbLine
 10
584.020936347172
 20
686.0377674500514
 30
0.0
 11
584.020936347172
 21
691.6377674500509
 31
0.0
  0
LINE
  5
D8E
330
2
100
AcDbEntity
  8
0
100
AcDbLine
 10
584.020936347172
 20
691.6377674500509
 30
0.0
 11
584.7137566701992
 21
692.0377674500505
 31
0.0
  0
LINE
  5
D8F
330
2
100
AcDbEntity
  8
0
100
AcDbLine
 10
593.3281160241447
 20
692.0377674500505
 30
0.0
 11
584.7137566701992
 21
692.0377674500505
 31
0.0
  0
CIRCLE
  5
D9C
330
2
100
AcDbEntity
  8
0
100
AcDbCircle
 10
160.3882482731985
 20
380.5651052800111
 30
0.0
 40
5.000000000000113
  0
CIRCLE
  5
D9D
330
2
100
AcDbEntity
  8
0
100
AcDbCircle
 10
160.3882482731985
 20
380.5651052800111
 30
0.0
 40
4.307179676972509
  0
LINE
  5
D9E
330
2
100
AcDbEntity
  8
0
100
AcDbLine
 10
162.8882482731985
 20
382.0084809529852
 30
0.0
 11
162.8882482731985
 21
379.1217296070371
 31
0.0
  0
LINE
  5
D9F
330
2
100
AcDbEntity
  8
0
100
AcDbLine
 10
160.3882482731985
 20
377.678353934063
 30
0.0
 11
162.8882482731985
 21
379.1217296070371
 31
0.0
  0
LINE
  5
DA0
330
2
100
AcDbEntity
  8
0
100
AcDbLine
 10
162.8882482731985
 20
382.0084809529852
 30
0.0
 11
160.3882482731985
 21
383.4518566259593
 31
0.0
  0
LINE
  5
DA1
330
2
100
AcDbEntity
  8
0
100
AcDbLine
 10
157.8882482731985
 20
382.0084809529852
 30
0.0
 11
157.8882482731985
 21
379.1217296070371
 31
0.0
  0
LINE
  5
DA2
330
2
100
AcDbEntity
  8
0
100
AcDbLine
 10
160.3882482731985
 20
377.678353934063
 30
0.0
 11
157.8882482731985
 21
379.1217296070371
 31
0.0
  0
LINE
  5
DA3
330
2
100
AcDbEntity
  8
0
100
AcDbLine
 10
157.8882482731985
 20
382.0084809529852
 30
0.0
 11
160.3882482731985
 21
383.4518566259593
 31
0.0
  0
CIRCLE
  5
DA4
330
2
100
AcDbEntity
  8
0
100
AcDbCircle
 10
74.3882482731949
 20
380.5651052800113
 30
0.0
 40
5.000000000000113
  0
CIRCLE
  5
DA5
330
2
100
AcDbEntity
  8
0
100
AcDbCircle
 10
74.3882482731949
 20
380.5651052800113
 30
0.0
 40
4.307179676972509
  0
LINE
  5
DA6
330
2
100
AcDbEntity
  8
0
100
AcDbLine
 10
76.8882482731949
 20
382.0084809529854
 30
0.0
 11
76.8882482731949
 21
379.1217296070373
 31
0.0
  0
LINE
  5
DA7
330
2
100
AcDbEntity
  8
0
100
AcDbLine
 10
74.3882482731949
 20
377.6783539340632
 30
0.0
 11
76.8882482731949
 21
379.1217296070373
 31
0.0
  0
LINE
  5
DA8
330
2
100
AcDbEntity
  8
0
100
AcDbLine
 10
76.8882482731949
 20
382.0084809529854
 30
0.0
 11
74.3882482731949
 21
383.4518566259595
 31
0.0
  0
LINE
  5
DA9
330
2
100
AcDbEntity
  8
0
100
AcDbLine
 10
71.8882482731949
 20
382.0084809529854
 30
0.0
 11
71.8882482731949
 21
379.1217296070373
 31
0.0
  0
LINE
  5
DAA
330
2
100
AcDbEntity
  8
0
100
AcDbLine
 10
74.3882482731949
 20
377.6783539340632
 30
0.0
 11
71.8882482731949
 21
379.1217296070373
 31
0.0
  0
LINE
  5
DAB
330
2
100
AcDbEntity
  8
0
100
AcDbLine
 10
71.8882482731949
 20
382.0084809529854
 30
0.0
 11
74.3882482731949
 21
383.4518566259595
 31
0.0
  0
CIRCLE
  5
DAC
330
2
100
AcDbEntity
  8
0
100
AcDbCircle
 10
74.3882482731949
 20
294.5651052800108
 30
0.0
 40
5.000000000000113
  0
CIRCLE
  5
DAD
330
2
100
AcDbEntity
  8
0
100
AcDbCircle
 10
74.3882482731949
 20
294.5651052800108
 30
0.0
 40
4.307179676972509
  0
LINE
  5
DAE
330
2
100
AcDbEntity
  8
0
100
AcDbLine
 10
76.8882482731949
 20
296.0084809529849
 30
0.0
 11
76.8882482731949
 21
293.1217296070368
 31
0.0
  0
LINE
  5
DAF
330
2
100
AcDbEntity
  8
0
100
AcDbLine
 10
74.3882482731949
 20
291.6783539340627
 30
0.0
 11
76.8882482731949
 21
293.1217296070368
 31
0.0
  0
LINE
  5
DB0
330
2
100
AcDbEntity
  8
0
100
AcDbLine
 10
76.8882482731949
 20
296.0084809529849
 30
0.0
 11
74.3882482731949
 21
297.451856625959
 31
0.0
  0
LINE
  5
DB1
330
2
100
AcDbEntity
  8
0
100
AcDbLine
 10
71.8882482731949
 20
296.0084809529849
 30
0.0
 11
71.8882482731949
 21
293.1217296070368
 31
0.0
  0
LINE
  5
DB2
330
2
100
AcDbEntity
  8
0
100
AcDbLine
 10
74.3882482731949
 20
291.6783539340627
 30
0.0
 11
71.8882482731949
 21
293.1217296070368
 31
0.0
  0
LINE
  5
DB3
330
2
100
AcDbEntity
  8
0
100
AcDbLine
 10
71.8882482731949
 20
296.0084809529849
 30
0.0
 11
74.3882482731949
 21
297.451856625959
 31
0.0
  0
CIRCLE
  5
DB4
330
2
100
AcDbEntity
  8
0
100
AcDbCircle
 10
160.3882482731953
 20
294.5651052800107
 30
0.0
 40
5.000000000000113
  0
CIRCLE
  5
DB5
330
2
100
AcDbEntity
  8
0
100
AcDbCircle
 10
160.3882482731953
 20
294.5651052800107
 30
0.0
 40
4.307179676972509
  0
LINE
  5
DB6
330
2
100
AcDbEntity
  8
0
100
AcDbLine
 10
162.8882482731953
 20
296.0084809529848
 30
0.0
 11
162.8882482731953
 21
293.1217296070366
 31
0.0
  0
LINE
  5
DB7
330
2
100
AcDbEntity
  8
0
100
AcDbLine
 10
160.3882482731953
 20
291.6783539340626
 30
0.0
 11
162.8882482731953
 21
293.1217296070366
 31
0.0
  0
LINE
  5
DB8
330
2
100
AcDbEntity
  8
0
100
AcDbLine
 10
162.8882482731953
 20
296.0084809529848
 30
0.0
 11
160.3882482731953
 21
297.4518566259589
 31
0.0
  0
LINE
  5
DB9
330
2
100
AcDbEntity
  8
0
100
AcDbLine
 10
157.8882482731953
 20
296.0084809529848
 30
0.0
 11
157.8882482731953
 21
293.1217296070366
 31
0.0
  0
LINE
  5
DBA
330
2
100
AcDbEntity
  8
0
100
AcDbLine
 10
160.3882482731953
 20
291.6783539340626
 30
0.0
 11
157.8882482731953
 21
293.1217296070366
 31
0.0
  0
LINE
  5
DBB
330
2
100
AcDbEntity
  8
0
100
AcDbLine
 10
157.8882482731953
 20
296.0084809529848
 30
0.0
 11
160.3882482731953
 21
297.4518566259589
 31
0.0
  0
LINE
  5
DC2
330
2
100
AcDbEntity
  8
0
100
AcDbLine
 10
525.4808371700208
 20
677.0377674500491
 30
0.0
 11
525.4808371700208
 21
596.0377674500476
 31
0.0
  0
LINE
  5
DC3
330
2
100
AcDbEntity
  8
0
100
AcDbLine
 10
503.0209363471719
 20
677.0377674500487
 30
0.0
 11
503.0209363471719
 21
596.0377674500477
 31
0.0
  0
LINE
  5
DCA
330
2
100
AcDbEntity
  8
0
100
AcDbLine
 10
506.0209363471719
 20
677.0377674500487
 30
0.0
 11
506.0209363471719
 21
596.0377674500476
 31
0.0
  0
LINE
  5
DCB
330
2
100
AcDbEntity
  8
0
100
AcDbLine
 10
566.5610355243232
 20
677.03776745005
 30
0.0
 11
566.5610355243232
 21
596.0377674500476
 31
0.0
  0
LINE
  5
DCC
330
2
100
AcDbEntity
  8
0
100
AcDbLine
 10
588.7591303134284
 20
596.0377674500476
 30
0.0
 11
588.7591303134284
 21
677.0377674500505
 31
0.0
  0
LINE
  5
DCD
330
2
100
AcDbEntity
  8
0
100
AcDbLine
 10
506.0209363471719
 20
677.037767450048
 30
0.0
 11
506.0209363471719
 21
683.0377674500491
 31
0.0
  0
LINE
  5
DCE
330
2
100
AcDbEntity
  8
0
100
AcDbLine
 10
525.4808371700208
 20
677.0377674500489
 30
0.0
 11
525.4808371700208
 21
683.0377674500494
 31
0.0
  0
LINE
  5
DCF
330
2
100
AcDbEntity
  8
0
100
AcDbLine
 10
503.0209363471719
 20
677.0377674500487
 30
0.0
 11
503.0209363471719
 21
683.0377674500489
 31
0.0
  0
LINE
  5
DD0
330
2
100
AcDbEntity
  8
0
100
AcDbLine
 10
566.5610355243232
 20
677.0377674500505
 30
0.0
 11
566.5610355243232
 21
683.0377674500501
 31
0.0
  0
LINE
  5
DD1
330
2
100
AcDbEntity
  8
0
100
AcDbLine
 10
586.0209363471729
 20
677.0377674500512
 30
0.0
 11
586.0209363471729
 21
683.0377674500505
 31
0.0
  0
LINE
  5
DD2
330
2
100
AcDbEntity
  8
0
100
AcDbLine
 10
588.7591303134284
 20
677.0377674500514
 30
0.0
 11
588.7591303134284
 21
683.0377674500505
 31
0.0
  0
CIRCLE
  5
DD3
330
2
100
AcDbEntity
  8
0
 48
12.0
100
AcDbCircle
 10
160.3882482732026
 20
294.5651052800077
 30
0.0
 40
5.749999999999829
  0
CIRCLE
  5
DD4
330
2
100
AcDbEntity
  8
0
 48
12.0
100
AcDbCircle
 10
74.38824827319945
 20
294.5651052800108
 30
0.0
 40
5.749999999999829
  0
CIRCLE
  5
DD5
330
2
100
AcDbEntity
  8
0
 48
12.0
100
AcDbCircle
 10
74.38824827319627
 20
380.5651052800143
 30
0.0
 40
5.749999999999829
  0
CIRCLE
  5
DD6
330
2
100
AcDbEntity
  8
0
 48
12.0
100
AcDbCircle
 10
160.3882482732026
 20
380.5651052800141
 30
0.0
 40
5.749999999999829
  0
LINE
  5
DDF
330
2
100
AcDbEntity
  8
0
100
AcDbLine
 10
508.7709363471719
 20
684.5377674500489
 30
0.0
 11
508.7709363471719
 21
686.0377674500494
 31
0.0
  0
LINE
  5
DE0
330
2
100
AcDbEntity
  8
0
100
AcDbLine
 10
497.270936347172
 20
684.5377674500489
 30
0.0
 11
497.270936347172
 21
686.0377674500498
 31
0.0
  0
LINE
  5
DE1
330
2
100
AcDbEntity
  8
0
100
AcDbLine
 10
508.7709363471719
 20
686.0377674500494
 30
0.0
 11
497.270936347172
 21
686.0377674500498
 31
0.0
  0
LINE
  5
DE2
330
2
100
AcDbEntity
  8
0
 48
12.0
100
AcDbLine
 10
497.270936347172
 20
684.5377674500489
 30
0.0
 11
508.7709363471719
 21
684.5377674500489
 31
0.0
  0
LINE
  5
DE3
330
2
100
AcDbEntity
  8
0
100
AcDbLine
 10
594.7709363471719
 20
684.5377674500505
 30
0.0
 11
594.7709363471719
 21
686.037767450051
 31
0.0
  0
LINE
  5
DE4
330
2
100
AcDbEntity
  8
0
100
AcDbLine
 10
583.2709363471719
 20
684.5377674500507
 30
0.0
 11
583.2709363471719
 21
686.0377674500514
 31
0.0
  0
LINE
  5
DE5
330
2
100
AcDbEntity
  8
0
100
AcDbLine
 10
594.7709363471719
 20
686.0377674500512
 30
0.0
 11
583.2709363471719
 21
686.0377674500514
 31
0.0
  0
LINE
  5
DE6
330
2
100
AcDbEntity
  8
0
 48
12.0
100
AcDbLine
 10
583.2709363471719
 20
684.5377674500507
 30
0.0
 11
594.7709363471719
 21
684.5377674500505
 31
0.0
  0
LINE
  5
DE7
330
2
100
AcDbEntity
  8
CENTER
100
AcDbLine
 10
65.32751150834042
 20
285.5043685151524
 30
0.0
 11
169.4489850380616
 21
389.6258420448697
 31
0.0
  0
LINE
  5
DE8
330
2
100
AcDbEntity
  8
CENTER
100
AcDbLine
 10
65.32751150833951
 20
389.6258420448745
 30
0.0
 11
169.4489850380566
 21
285.5043685151535
 31
0.0
  0
ARC
  5
ED5
330
2
100
AcDbEntity
  8
0
100
AcDbCircle
 10
614.6430223896179
 20
652.0377674500476
 30
0.0
 40
2.0
100
AcDbArc
 50
270.0
 51
358.4999999999842
  0
ARC
  5
ED6
330
2
100
AcDbEntity
  8
0
100
AcDbCircle
 10
614.6430223896234
 20
643.0377674500479
 30
0.0
 40
2.0
100
AcDbArc
 50
1.500000000015752
 51
90.0
  0
ARC
  5
ED7
330
2
100
AcDbEntity
  8
0
100
AcDbCircle
 10
598.8028408091715
 20
652.0377674500476
 30
0.0
 40
2.0
100
AcDbArc
 50
179.5000000000084
 51
270.0
  0
LINE
  5
ED8
330
2
100
AcDbEntity
  8
0
100
AcDbLine
 10
598.7217415988855
 20
645.0377674500479
 30
0.0
 11
614.6430223896234
 21
645.0377674500479
 31
0.0
  0
LINE
  5
ED9
330
2
100
AcDbEntity
  8
0
100
AcDbLine
 10
598.8028408091715
 20
650.0377674500477
 30
0.0
 11
614.6430223896179
 21
650.0377674500477
 31
0.0
  0
ARC
  5
EDA
330
2
100
AcDbEntity
  8
0
100
AcDbCircle
 10
598.7217415988855
 20
643.0377674500479
 30
0.0
 40
2.0
100
AcDbArc
 50
90.0
 51
179.5000000000084
  0
LINE
  5
10BF
330
2
100
AcDbEntity
  8
0
100
AcDbLine
 10
642.0209583471727
 20
388.5651052800108
 30
0.0
 11
642.0209583471727
 21
286.5651052800108
 31
0.0
  0
LINE
  5
10E8
330
2
100
AcDbEntity
  8
CENTER
100
AcDbLine
 10
-73.11177372680254
 20
337.565105280014
 30
0.0
 11
178.3882482731994
 21
337.565105280014
 31
0.0
  0
LINE
  5
10EC
330
2
100
AcDbEntity
  8
0
100
AcDbLine
 10
21.38822627320109
 20
388.565105280014
 30
0.0
 11
21.38822627320109
 21
286.565105280014
 31
0.0
  0
TEXT
  5
19D1
330
2
100
AcDbEntity
  8
TITLE
100
AcDbText
 10
298.9321402359228
 20
666.5446435586481
 30
0.0
 40
7.5
  1
AFCZ22L-3~5M1000K61
100
AcDbText
  0
TEXT
  5
19D2
330
2
100
AcDbEntity
  8
TITLE
100
AcDbText
 10
298.9321402359228
 20
655.5653251764856
 30
0.0
 40
7.5
  1
AFCZ22L-3~5L1000K61
100
AcDbText
  0
LINE
  5
2285
330
2
100
AcDbEntity
  8
0
100
AcDbLine
 10
642.0209583471728
 20
388.5651052800108
 30
0.0
 11
642.0209583471728
 21
286.5651052800108
 31
0.0
  0
LINE
  5
2524
330
2
100
AcDbEntity
  8
0
100
AcDbLine
 10
642.0209583471728
 20
388.5651052800108
 30
0.0
 11
642.0209583471728
 21
286.5651052800108
 31
0.0
  0
LINE
  5
2686
330
2
100
AcDbEntity
  8
CENTER
100
AcDbLine
 10
936.4340492986004
 20
399.065585852864
 30
0.0
 11
936.4340492986004
 21
276.0646247071786
 31
0.0
  0
LINE
  5
2687
330
2
100
AcDbEntity
  8
0
100
AcDbLine
 10
883.4340492986036
 20
387.8407752533817
 30
0.0
 11
883.4340492986036
 21
287.2894353066482
 31
0.0
  0
LINE
  5
2688
330
2
100
AcDbEntity
  8
0
100
AcDbLine
 10
878.4340492986036
 20
382.5651052800121
 30
0.0
 11
878.4340492986036
 21
292.5651052800123
 31
0.0
  0
LINE
  5
2689
330
2
100
AcDbEntity
  8
0
100
AcDbLine
 10
883.4340492986036
 20
382.5651052800121
 30
0.0
 11
878.4340492986036
 21
382.5651052800121
 31
0.0
  0
LINE
  5
268A
330
2
100
AcDbEntity
  8
0
100
AcDbLine
 10
883.4340492986036
 20
292.5651052800123
 30
0.0
 11
878.4340492986036
 21
292.5651052800123
 31
0.0
  0
LINE
  5
268B
330
2
100
AcDbEntity
  8
0
100
AcDbLine
 10
864.4340492986028
 20
369.6337277304002
 30
0.0
 11
864.4340492986028
 21
305.4964828296271
 31
0.0
  0
LINE
  5
268C
330
2
100
AcDbEntity
  8
0
100
AcDbLine
 10
876.503848292007
 20
371.9865919484738
 30
0.0
 11
866.3642503051976
 21
371.6325093844381
 31
0.0
  0
ARC
  5
268D
330
2
100
AcDbEntity
  8
0
100
AcDbCircle
 10
876.4340492986027
 20
373.9853736025116
 30
0.0
 40
2.0
100
AcDbArc
 50
272.0000000000036
 51
0.0
  0
ARC
  5
268E
330
2
100
AcDbEntity
  8
0
100
AcDbCircle
 10
866.4340492986028
 20
369.6337277304002
 30
0.0
 40
2.0
100
AcDbArc
 50
92.00000000000365
 51
180.0
  0
LINE
  5
268F
330
2
100
AcDbEntity
  8
0
100
AcDbLine
 10
876.5038482920079
 20
303.1436186115535
 30
0.0
 11
866.3642503051976
 21
303.4977011755892
 31
0.0
  0
ARC
  5
2690
330
2
100
AcDbEntity
  8
0
100
AcDbCircle
 10
876.4340492986027
 20
301.1448369575156
 30
0.0
 40
2.0
100
AcDbArc
 50
0.0
 51
87.99999999999636
  0
ARC
  5
2691
330
2
100
AcDbEntity
  8
0
100
AcDbCircle
 10
866.4340492986028
 20
305.4964828296271
 30
0.0
 40
2.0
100
AcDbArc
 50
180.0
 51
267.9999999999963
  0
LINE
  5
2692
330
2
100
AcDbEntity
  8
0
100
AcDbLine
 10
987.4340492985973
 20
380.6431521942953
 30
0.0
 11
987.4340492985973
 21
294.4870583657469
 31
0.0
  0
LINE
  5
2693
330
2
100
AcDbEntity
  8
0
100
AcDbLine
 10
885.4340492985969
 20
380.6431521942963
 30
0.0
 11
885.4340492985969
 21
294.4870583657461
 31
0.0
  0
ARC
  5
2694
330
2
100
AcDbEntity
  8
0
100
AcDbCircle
 10
893.4340492985969
 20
294.4870583657461
 30
0.0
 40
8.0
100
AcDbArc
 50
180.0
 51
269.4382946674162
  0
LINE
  5
2695
330
2
100
AcDbEntity
  8
0
100
AcDbLine
 10
936.4340492985968
 20
389.0651052800208
 30
0.0
 11
979.5124769021283
 21
388.6427677544957
 31
0.0
  0
ARC
  5
2696
330
2
100
AcDbEntity
  8
0
100
AcDbCircle
 10
979.4340492985973
 20
380.6431521942954
 30
0.0
 40
8.0
100
AcDbArc
 50
0.0
 51
89.43829466744229
  0
LINE
  5
2697
330
2
100
AcDbEntity
  8
0
100
AcDbLine
 10
936.4340492985968
 20
389.0651052800208
 30
0.0
 11
893.3556216950654
 21
388.6427677544966
 31
0.0
  0
ARC
  5
2698
330
2
100
AcDbEntity
  8
0
100
AcDbCircle
 10
893.4340492985969
 20
380.6431521942963
 30
0.0
 40
8.0
100
AcDbArc
 50
90.5617053325577
 51
180.0
  0
LINE
  5
2699
330
2
100
AcDbEntity
  8
0
100
AcDbLine
 10
936.4340492985968
 20
286.0651052800217
 30
0.0
 11
979.5124769021283
 21
286.4874428055468
 31
0.0
  0
ARC
  5
269A
330
2
100
AcDbEntity
  8
0
100
AcDbCircle
 10
979.4340492985973
 20
294.4870583657471
 30
0.0
 40
8.0
100
AcDbArc
 50
270.5617053325576
 51
0.0
  0
LINE
  5
269B
330
2
100
AcDbEntity
  8
0
100
AcDbLine
 10
936.4340492985968
 20
286.0651052800217
 30
0.0
 11
893.3556216950654
 21
286.4874428055459
 31
0.0
  0
LINE
  5
269C
330
2
100
AcDbEntity
  8
0
100
AcDbLine
 10
890.063886276129
 20
387.8986329641597
 30
0.0
 11
883.4340492986036
 21
387.8407752533817
 31
0.0
  0
LINE
  5
269D
330
2
100
AcDbEntity
  8
0
100
AcDbLine
 10
890.063886276129
 20
287.23157759587
 30
0.0
 11
883.4340492986036
 21
287.2894353066482
 31
0.0
  0
LINE
  5
269E
330
2
100
AcDbEntity
  8
CENTER
100
AcDbLine
 10
812.4340492986043
 20
337.565105280011
 30
0.0
 11
997.9335687488514
 21
337.5651052800108
 31
0.0
  0
LINE
  5
2823
330
2
100
AcDbEntity
  8
0
100
AcDbLine
 10
642.0209583471728
 20
286.5651052800108
 30
0.0
 11
642.0209583471728
 21
388.5651052800112
 31
0.0
  0
LINE
  5
2824
330
2
100
AcDbEntity
  8
0
100
AcDbLine
 10
655.5552592112539
 20
288.5302004671366
 30
0.0
 11
656.4111666585108
 21
337.5651052800112
 31
0.0
  0
LINE
  5
2825
330
2
100
AcDbEntity
  8
0
100
AcDbLine
 10
695.6727849834761
 20
357.5119439270126
 30
0.0
 11
695.6375561845265
 21
359.5302004671361
 31
0.0
  0
ARC
  5
2826
330
2
100
AcDbEntity
  8
0
100
AcDbCircle
 10
697.6372515748394
 20
359.5651052800107
 30
0.0
 40
2.0
100
AcDbArc
 50
90.0
 51
181.0000000000017
  0
LINE
  5
2827
330
2
100
AcDbEntity
  8
0
100
AcDbLine
 10
726.5209583471719
 20
292.5651052800112
 30
0.0
 11
726.5209583471714
 21
382.5651052800107
 31
0.0
  0
LINE
  5
2829
330
2
100
AcDbEntity
  8
0
100
AcDbLine
 10
726.5209583471719
 20
382.5651052800112
 30
0.0
 11
697.6991576095274
 21
382.5651052800099
 31
0.0
  0
LINE
  5
282A
330
2
100
AcDbEntity
  8
0
100
AcDbLine
 10
693.284797200567
 20
388.5651052800112
 30
0.0
 11
642.0209583471728
 21
388.5651052800108
 31
0.0
  0
ARC
  5
282B
330
2
100
AcDbEntity
  8
0
100
AcDbCircle
 10
693.284797200567
 20
386.5651052800112
 30
0.0
 40
2.0
100
AcDbArc
 50
9.999999999990588
 51
90.0
  0
LINE
  5
282C
330
2
100
AcDbEntity
  8
0
100
AcDbLine
 10
695.7295421035028
 20
384.2178089246758
 30
0.0
 11
695.2544127065916
 21
386.9124016353453
 31
0.0
  0
ARC
  5
282D
330
2
100
AcDbEntity
  8
0
100
AcDbCircle
 10
697.6991576095274
 20
384.5651052800099
 30
0.0
 40
2.0
100
AcDbArc
 50
189.9999999999906
 51
270.0
  0
LINE
  5
282E
330
2
100
AcDbEntity
  8
0
100
AcDbLine
 10
726.5209583471719
 20
292.5651052800112
 30
0.0
 11
697.6991576095274
 21
292.5651052800117
 31
0.0
  0
LINE
  5
282F
330
2
100
AcDbEntity
  8
0
100
AcDbLine
 10
693.284797200567
 20
286.5651052800108
 30
0.0
 11
642.0209583471728
 21
286.5651052800112
 31
0.0
  0
ARC
  5
2830
330
2
100
AcDbEntity
  8
0
100
AcDbCircle
 10
653.5555638209411
 20
288.5651052800108
 30
0.0
 40
2.0
100
AcDbArc
 50
270.0
 51
358.9999999999982
  0
LINE
  5
2831
330
2
100
AcDbEntity
  8
0
100
AcDbLine
 10
702.4744853792185
 20
361.5651052800112
 30
0.0
 11
697.6372515748394
 21
361.5651052800108
 31
0.0
  0
ARC
  5
2832
330
2
100
AcDbEntity
  8
0
100
AcDbCircle
 10
702.4744853792185
 20
363.5651052800144
 30
0.0
 40
2.0
100
AcDbArc
 50
270.0
 51
358.9999999999982
  0
LINE
  5
2833
330
2
100
AcDbEntity
  8
0
100
AcDbLine
 10
704.4741807695313
 20
363.5302004671398
 30
0.0
 11
704.7721354048612
 21
380.6000100928881
 31
0.0
  0
ARC
  5
2834
330
2
100
AcDbEntity
  8
0
100
AcDbCircle
 10
706.771830795174
 20
380.5651052800135
 30
0.0
 40
2.0
100
AcDbArc
 50
90.0
 51
178.9999999999982
  0
LINE
  5
2835
330
2
100
AcDbEntity
  8
0
100
AcDbLine
 10
726.5209583471719
 20
337.5651052800112
 30
0.0
 11
642.0209583471728
 21
337.5651052800108
 31
0.0
  0
LINE
  5
2836
330
2
100
AcDbEntity
  8
0
100
AcDbLine
 10
696.0209583471719
 20
337.5651052800112
 30
0.0
 11
695.6375561845265
 21
315.6000100928859
 31
0.0
  0
ARC
  5
2837
330
2
100
AcDbEntity
  8
0
100
AcDbCircle
 10
697.6372515748394
 20
315.5651052800112
 30
0.0
 40
2.0
100
AcDbArc
 50
178.9999999999982
 51
270.0
  0
ARC
  5
2838
330
2
100
AcDbEntity
  8
0
100
AcDbCircle
 10
693.284797200567
 20
288.5651052800108
 30
0.0
 40
2.0
100
AcDbArc
 50
270.0
 51
350.0000000000094
  0
LINE
  5
2839
330
2
100
AcDbEntity
  8
0
100
AcDbLine
 10
695.7295421035028
 20
290.9124016353462
 30
0.0
 11
695.2544127065916
 21
288.2178089246772
 31
0.0
  0
ARC
  5
283A
330
2
100
AcDbEntity
  8
0
100
AcDbCircle
 10
697.6991576095274
 20
290.5651052800121
 30
0.0
 40
2.0
100
AcDbArc
 50
90.0
 51
170.0000000000094
  0
LINE
  5
283B
330
2
100
AcDbEntity
  8
0
100
AcDbLine
 10
702.4744853792185
 20
313.5651052800108
 30
0.0
 11
697.6372515748394
 21
313.5651052800112
 31
0.0
  0
LINE
  5
283C
330
2
100
AcDbEntity
  8
0
100
AcDbLine
 10
704.7721354048603
 20
294.5302004671361
 30
0.0
 11
704.4741807695313
 21
311.6000100928854
 31
0.0
  0
ARC
  5
283D
330
2
100
AcDbEntity
  8
0
100
AcDbCircle
 10
702.4744853792176
 20
311.5651052800108
 30
0.0
 40
2.0
100
AcDbArc
 50
1.000000000001761
 51
90.0
  0
ARC
  5
283E
330
2
100
AcDbEntity
  8
0
100
AcDbCircle
 10
706.7718307951731
 20
294.5651052800108
 30
0.0
 40
2.0
100
AcDbArc
 50
181.0000000000017
 51
270.0
  0
LINE
  5
283F
330
2
100
AcDbEntity
  8
0
100
AcDbLine
 10
655.5552592112539
 20
386.6000100928854
 30
0.0
 11
656.0998056068932
 21
355.4029679804996
 31
0.0
  0
ARC
  5
2840
330
2
100
AcDbEntity
  8
0
100
AcDbCircle
 10
653.5555638209411
 20
386.5651052800108
 30
0.0
 40
2.0
100
AcDbArc
 50
1.000000000001761
 51
90.0
  0
LINE
  5
2841
330
2
100
AcDbEntity
  8
0
100
AcDbLine
 10
698.9467108836056
 20
378.3551052800062
 30
0.0
 11
693.9624018755234
 21
378.3551052800062
 31
0.0
  0
ARC
  5
2842
330
2
100
AcDbEntity
  8
0
100
AcDbCircle
 10
693.9624018755234
 20
380.3551052800062
 30
0.0
 40
2.0
100
AcDbArc
 50
270.0
 51
358.4999999999973
  0
LINE
  5
2843
330
2
100
AcDbEntity
  8
0
100
AcDbLine
 10
695.9699574390656
 20
380.6174591766221
 30
0.0
 11
695.9617165254753
 21
380.3027513833903
 31
0.0
  0
ARC
  5
2844
330
2
100
AcDbEntity
  8
0
100
AcDbCircle
 10
697.9692720890175
 20
380.5651052800062
 30
0.0
 40
2.0
100
AcDbArc
 50
90.0
 51
178.4999999999973
  0
LINE
  5
2845
330
2
100
AcDbEntity
  8
0
100
AcDbLine
 10
642.0209583471721
 20
699.0377674500478
 30
0.0
 11
642.0209583471721
 21
596.0377674500477
 31
0.0
  0
LINE
  5
2846
330
2
100
AcDbEntity
  8
0
100
AcDbLine
 10
655.5209583471722
 20
697.0377674500477
 30
0.0
 11
655.5209583471722
 21
598.0377674500478
 31
0.0
  0
LINE
  5
2847
330
2
100
AcDbEntity
  8
CENTER
100
AcDbLine
 10
708.0209583471712
 20
638.0377674500477
 30
0.0
 11
708.0209583471712
 21
617.0377674500477
 31
0.0
  0
LINE
  5
2848
330
2
100
AcDbEntity
  8
0
100
AcDbLine
 10
704.0209583471721
 20
615.0377674500478
 30
0.0
 11
704.0209583471721
 21
604.5377674500482
 31
0.0
  0
ARC
  5
2849
330
2
100
AcDbEntity
  8
0
100
AcDbCircle
 10
706.0209583471722
 20
604.5377674500482
 30
0.0
 40
2.0
100
AcDbArc
 50
180.0
 51
270.0
  0
LINE
  5
284A
330
2
100
AcDbEntity
  8
0
100
AcDbLine
 10
726.5209583471712
 20
692.5377674500473
 30
0.0
 11
726.5209583471712
 21
602.537767450048
 31
0.0
  0
LINE
  5
284C
330
2
100
AcDbEntity
  8
0
100
AcDbLine
 10
702.0209583471712
 20
671.5377674500473
 30
0.0
 11
698.0209583471721
 21
671.5377674500477
 31
0.0
  0
ARC
  5
284D
330
2
100
AcDbEntity
  8
0
100
AcDbCircle
 10
702.0209583471712
 20
673.5377674500473
 30
0.0
 40
2.0
100
AcDbArc
 50
270.0
 51
0.0
  0
LINE
  5
284E
330
2
100
AcDbEntity
  8
0
100
AcDbLine
 10
702.0209583471721
 20
617.0377674500477
 30
0.0
 11
698.0209583471721
 21
617.0377674500473
 31
0.0
  0
ARC
  5
284F
330
2
100
AcDbEntity
  8
0
100
AcDbCircle
 10
698.0209583471721
 20
619.0377674500473
 30
0.0
 40
2.0
100
AcDbArc
 50
180.0
 51
270.0
  0
ARC
  5
2850
330
2
100
AcDbEntity
  8
0
100
AcDbCircle
 10
702.0209583471721
 20
615.0377674500478
 30
0.0
 40
2.0
100
AcDbArc
 50
0.0
 51
90.0
  0
LINE
  5
2851
330
2
100
AcDbEntity
  8
CENTER
100
AcDbLine
 10
718.5209583471712
 20
627.5377674500478
 30
0.0
 11
697.5209583471712
 21
627.5377674500478
 31
0.0
  0
LINE
  5
2852
330
2
100
AcDbEntity
  8
0
100
AcDbLine
 10
726.5209583471712
 20
602.537767450048
 30
0.0
 11
697.6991576095267
 21
602.5377674500487
 31
0.0
  0
LINE
  5
2853
330
2
100
AcDbEntity
  8
0
100
AcDbLine
 10
693.2847972005663
 20
596.5377674500477
 30
0.0
 11
655.457450020275
 21
596.5377674500477
 31
0.0
  0
ARC
  5
2854
330
2
100
AcDbEntity
  8
0
100
AcDbCircle
 10
653.5209583471721
 20
598.5377674500478
 30
0.0
 40
2.0
100
AcDbArc
 50
270.0
 51
0.0
  0
LINE
  5
2855
330
2
100
AcDbEntity
  8
0
100
AcDbLine
 10
642.0209583471721
 20
596.0377674500477
 30
0.0
 11
653.5209583471721
 21
596.0377674500477
 31
0.0
  0
ARC
  5
2856
330
2
100
AcDbEntity
  8
0
100
AcDbCircle
 10
653.5209583471721
 20
598.0377674500478
 30
0.0
 40
2.0
100
AcDbArc
 50
270.0
 51
0.0
  0
ARC
  5
2857
330
2
100
AcDbEntity
  8
0
100
AcDbCircle
 10
655.4574500202759
 20
594.5377674500478
 30
0.0
 40
2.0
100
AcDbArc
 50
90.0
 51
118.9550243718461
  0
LINE
  5
2858
330
2
100
AcDbEntity
  8
0
100
AcDbLine
 10
653.5209583471721
 20
596.5377674500477
 30
0.0
 11
642.0209583471721
 21
596.5377674500477
 31
0.0
  0
LINE
  5
2859
330
2
100
AcDbEntity
  8
0
100
AcDbLine
 10
696.0209583471712
 20
669.5377674500478
 30
0.0
 11
696.0209583471721
 21
619.0377674500473
 31
0.0
  0
ARC
  5
285A
330
2
100
AcDbEntity
  8
0
100
AcDbCircle
 10
698.0209583471712
 20
669.5377674500478
 30
0.0
 40
2.0
100
AcDbArc
 50
90.0
 51
180.0
  0
LINE
  5
285B
330
2
100
AcDbEntity
  8
0
100
AcDbLine
 10
726.5209583471712
 20
692.5377674500473
 30
0.0
 11
697.6991576095267
 21
692.5377674500473
 31
0.0
  0
LINE
  5
285C
330
2
100
AcDbEntity
  8
0
100
AcDbLine
 10
693.2847972005663
 20
698.5377674500478
 30
0.0
 11
655.457450020275
 21
698.5377674500478
 31
0.0
  0
LINE
  5
285D
330
2
100
AcDbEntity
  8
0
100
AcDbLine
 10
704.0209583471721
 20
690.5377674500473
 30
0.0
 11
704.0209583471712
 21
673.5377674500473
 31
0.0
  0
ARC
  5
285E
330
2
100
AcDbEntity
  8
0
100
AcDbCircle
 10
706.0209583471722
 20
690.5377674500473
 30
0.0
 40
2.0
100
AcDbArc
 50
90.0
 51
180.0
  0
ARC
  5
285F
330
2
100
AcDbEntity
  8
0
100
AcDbCircle
 10
653.5209583471721
 20
696.5377674500477
 30
0.0
 40
2.0
100
AcDbArc
 50
0.0
 51
90.0
  0
LINE
  5
2860
330
2
100
AcDbEntity
  8
0
100
AcDbLine
 10
642.0209583471721
 20
699.0377674500478
 30
0.0
 11
653.5209583471721
 21
699.0377674500478
 31
0.0
  0
ARC
  5
2861
330
2
100
AcDbEntity
  8
0
100
AcDbCircle
 10
653.5209583471721
 20
697.0377674500477
 30
0.0
 40
2.0
100
AcDbArc
 50
0.0
 51
90.0
  0
ARC
  5
2862
330
2
100
AcDbEntity
  8
0
100
AcDbCircle
 10
655.4574500202759
 20
700.5377674500477
 30
0.0
 40
2.0
100
AcDbArc
 50
241.0449756281538
 51
270.0
  0
LINE
  5
2863
330
2
100
AcDbEntity
  8
0
100
AcDbLine
 10
653.5209583471721
 20
698.5377674500478
 30
0.0
 11
642.0209583471721
 21
698.5377674500478
 31
0.0
  0
ARC
  5
2864
330
2
100
AcDbEntity
  8
0
100
AcDbCircle
 10
693.2847972005663
 20
598.5377674500473
 30
0.0
 40
2.0
100
AcDbArc
 50
270.0
 51
350.0000000000076
  0
LINE
  5
2865
330
2
100
AcDbEntity
  8
0
100
AcDbLine
 10
695.7295421035021
 20
600.8850638053827
 30
0.0
 11
695.254412706591
 21
598.1904710947137
 31
0.0
  0
ARC
  5
2866
330
2
100
AcDbEntity
  8
0
100
AcDbCircle
 10
697.6991576095267
 20
600.5377674500486
 30
0.0
 40
2.0
100
AcDbArc
 50
90.0
 51
170.0000000000076
  0
ARC
  5
2867
330
2
100
AcDbEntity
  8
0
100
AcDbCircle
 10
693.2847972005663
 20
696.5377674500477
 30
0.0
 40
2.0
100
AcDbArc
 50
9.999999999989029
 51
90.0
  0
LINE
  5
2868
330
2
100
AcDbEntity
  8
0
100
AcDbLine
 10
695.7295421035021
 20
694.1904710947124
 30
0.0
 11
695.254412706591
 21
696.8850638053818
 31
0.0
  0
ARC
  5
2869
330
2
100
AcDbEntity
  8
0
100
AcDbCircle
 10
697.6991576095267
 20
694.5377674500464
 30
0.0
 40
2.0
100
AcDbArc
 50
189.999999999989
 51
270.0
  0
LINE
  5
2887
330
2
100
AcDbEntity
  8
0
100
AcDbLine
 10
21.38822627320109
 20
286.565105280014
 30
0.0
 11
21.38822627320109
 21
388.5651052800145
 31
0.0
  0
LINE
  5
2888
330
2
100
AcDbEntity
  8
0
100
AcDbLine
 10
7.853925409119938
 20
288.5302004671398
 30
0.0
 11
6.99801796186307
 21
337.5651052800145
 31
0.0
  0
LINE
  5
2889
330
2
100
AcDbEntity
  8
0
100
AcDbLine
 10
-32.61177372679799
 20
337.565105280014
 30
0.0
 11
-32.22837156415266
 21
359.5302004671394
 31
0.0
  0
ARC
  5
288A
330
2
100
AcDbEntity
  8
0
100
AcDbCircle
 10
-34.22806695446547
 20
359.565105280014
 30
0.0
 40
2.0
100
AcDbArc
 50
358.9999999999982
 51
90.0
  0
LINE
  5
288B
330
2
100
AcDbEntity
  8
0
100
AcDbLine
 10
-63.11177372679799
 20
292.5651052800152
 30
0.0
 11
-63.11177372679845
 21
382.5651052800136
 31
0.0
  0
LINE
  5
288D
330
2
100
AcDbEntity
  8
0
100
AcDbLine
 10
-63.11177372679799
 20
382.5651052800138
 30
0.0
 11
-34.28997298915351
 21
382.5651052800131
 31
0.0
  0
LINE
  5
288E
330
2
100
AcDbEntity
  8
0
100
AcDbLine
 10
-29.87561258019309
 20
388.5651052800145
 30
0.0
 11
21.38822627320109
 21
388.565105280014
 31
0.0
  0
ARC
  5
288F
330
2
100
AcDbEntity
  8
0
100
AcDbCircle
 10
-29.87561258019309
 20
386.5651052800145
 30
0.0
 40
2.0
100
AcDbArc
 50
90.0
 51
170.0000000000104
  0
LINE
  5
2890
330
2
100
AcDbEntity
  8
0
100
AcDbLine
 10
-32.32035748312887
 20
384.217808924679
 30
0.0
 11
-31.84522808621773
 21
386.9124016353485
 31
0.0
  0
ARC
  5
2891
330
2
100
AcDbEntity
  8
0
100
AcDbCircle
 10
-34.28997298915351
 20
384.5651052800131
 30
0.0
 40
2.0
100
AcDbArc
 50
270.0
 51
350.0000000000104
  0
LINE
  5
2892
330
2
100
AcDbEntity
  8
0
100
AcDbLine
 10
-63.11177372679799
 20
292.5651052800147
 30
0.0
 11
-34.28997298915351
 21
292.5651052800149
 31
0.0
  0
LINE
  5
2893
330
2
100
AcDbEntity
  8
0
100
AcDbLine
 10
-29.87561258019309
 20
286.565105280014
 30
0.0
 11
21.38822627320109
 21
286.5651052800145
 31
0.0
  0
ARC
  5
2894
330
2
100
AcDbEntity
  8
0
100
AcDbCircle
 10
9.853620799432746
 20
288.565105280014
 30
0.0
 40
2.0
100
AcDbArc
 50
180.9999999999887
 51
270.0
  0
LINE
  5
2895
330
2
100
AcDbEntity
  8
0
100
AcDbLine
 10
-39.06530075884461
 20
361.5651052800145
 30
0.0
 11
-34.22806695446547
 21
361.565105280014
 31
0.0
  0
ARC
  5
2896
330
2
100
AcDbEntity
  8
0
100
AcDbCircle
 10
-39.06530075884461
 20
363.5651052800176
 30
0.0
 40
2.0
100
AcDbArc
 50
180.9999999999887
 51
270.0
  0
LINE
  5
2897
330
2
100
AcDbEntity
  8
0
100
AcDbLine
 10
-41.06499614915742
 20
363.530200467143
 30
0.0
 11
-41.36295078448734
 21
380.6000100928914
 31
0.0
  0
ARC
  5
2898
330
2
100
AcDbEntity
  8
0
100
AcDbCircle
 10
-43.36264617480014
 20
380.5651052800167
 30
0.0
 40
2.0
100
AcDbArc
 50
1.000000000001749
 51
90.0
  0
LINE
  5
2899
330
2
100
AcDbEntity
  8
0
100
AcDbLine
 10
-63.11177372679799
 20
337.5651052800145
 30
0.0
 11
21.38822627320109
 21
337.565105280014
 31
0.0
  0
LINE
  5
289A
330
2
100
AcDbEntity
  8
0
100
AcDbLine
 10
-32.61177372679799
 20
337.5651052800145
 30
0.0
 11
-32.22837156415266
 21
315.6000100928891
 31
0.0
  0
ARC
  5
289B
330
2
100
AcDbEntity
  8
0
100
AcDbCircle
 10
-34.22806695446547
 20
315.5651052800145
 30
0.0
 40
2.0
100
AcDbArc
 50
270.0
 51
1.000000000001749
  0
ARC
  5
289C
330
2
100
AcDbEntity
  8
0
100
AcDbCircle
 10
-29.87561258019309
 20
288.565105280014
 30
0.0
 40
2.0
100
AcDbArc
 50
189.9999999999895
 51
270.0
  0
LINE
  5
289D
330
2
100
AcDbEntity
  8
0
100
AcDbLine
 10
-32.32035748312887
 20
290.9124016353494
 30
0.0
 11
-31.84522808621773
 21
288.2178089246804
 31
0.0
  0
ARC
  5
289E
330
2
100
AcDbEntity
  8
0
100
AcDbCircle
 10
-34.28997298915351
 20
290.5651052800154
 30
0.0
 40
2.0
100
AcDbArc
 50
9.999999999989555
 51
90.0
  0
LINE
  5
289F
330
2
100
AcDbEntity
  8
0
100
AcDbLine
 10
-39.06530075884461
 20
313.565105280014
 30
0.0
 11
-34.22806695446547
 21
313.5651052800145
 31
0.0
  0
LINE
  5
28A0
330
2
100
AcDbEntity
  8
0
100
AcDbLine
 10
-41.36295078448642
 20
294.5302004671394
 30
0.0
 11
-41.06499614915742
 21
311.6000100928886
 31
0.0
  0
ARC
  5
28A1
330
2
100
AcDbEntity
  8
0
100
AcDbCircle
 10
-39.0653007588437
 20
311.565105280014
 30
0.0
 40
2.0
100
AcDbArc
 50
90.0
 51
178.9999999999982
  0
ARC
  5
28A2
330
2
100
AcDbEntity
  8
0
100
AcDbCircle
 10
-43.36264617479923
 20
294.565105280014
 30
0.0
 40
2.0
100
AcDbArc
 50
270.0
 51
358.9999999999982
  0
LINE
  5
28A3
330
2
100
AcDbEntity
  8
0
100
AcDbLine
 10
7.853925409119938
 20
386.6000100928886
 30
0.0
 11
6.99801796186307
 21
337.565105280014
 31
0.0
  0
ARC
  5
28A4
330
2
100
AcDbEntity
  8
0
100
AcDbCircle
 10
9.853620799432746
 20
386.565105280014
 30
0.0
 40
2.0
100
AcDbArc
 50
90.0
 51
178.9999999999982
  0
LINE
  5
28A6
330
2
100
AcDbEntity
  8
0
100
AcDbLine
 10
975.3205544927393
 20
382.5651052800105
 30
0.0
 11
897.5475441044617
 21
382.5651052800105
 31
0.0
  0
LINE
  5
28A7
330
2
100
AcDbEntity
  8
0
100
AcDbLine
 10
975.3205544927393
 20
292.5651052800109
 30
0.0
 11
897.5475441044617
 21
292.5651052800105
 31
0.0
  0
LINE
  5
28A9
330
2
100
AcDbEntity
  8
0
100
AcDbLine
 10
981.3205290978173
 20
376.5825620385609
 30
0.0
 11
981.4340492986008
 21
337.565105280011
 31
0.0
  0
ARC
  5
28AA
330
2
100
AcDbEntity
  8
0
100
AcDbCircle
 10
975.3205544927393
 20
376.5651052800109
 30
0.0
 40
6.0
100
AcDbArc
 50
0.1667000000095645
 51
90.0
  0
LINE
  5
28AB
330
2
100
AcDbEntity
  8
HIDS
  6
SEKKEI_H
100
AcDbLine
 10
905.8997484345189
 20
380.6000100928851
 30
0.0
 11
905.7585520353839
 21
372.5108738040386
 31
0.0
  0
ARC
  5
28AC
330
2
100
AcDbEntity
  8
HIDS
  6
SEKKEI_H
100
AcDbCircle
 10
907.8994438248317
 20
380.5651052800105
 30
0.0
 40
2.0
100
AcDbArc
 50
90.0
 51
178.9999999999982
  0
LINE
  5
28AD
330
2
100
AcDbEntity
  8
0
100
AcDbLine
 10
893.3560023843144
 20
388.5651052726854
 30
0.0
 11
979.5120962128864
 21
388.5651052726854
 31
0.0
  0
ARC
  5
28AE
330
2
100
AcDbEntity
  8
0
100
AcDbCircle
 10
893.3560023843144
 20
380.5651052726854
 30
0.0
 40
8.0
100
AcDbArc
 50
90.0
 51
179.438294667338
  0
LINE
  5
28AF
330
2
100
AcDbEntity
  8
0
100
AcDbLine
 10
964.9686547723465
 20
388.5651052799886
 30
0.0
 11
907.8994438248381
 21
388.5651052799877
 31
0.0
  0
LINE
  5
28B0
330
2
100
AcDbEntity
  8
0
100
AcDbLine
 10
964.9686547723465
 20
286.5651052800328
 30
0.0
 11
907.8994438248381
 21
286.5651052800332
 31
0.0
  0
LINE
  5
28B1
330
2
100
AcDbEntity
  8
CENTER
100
AcDbLine
 10
971.7893883579279
 20
367.4204443393384
 30
0.0
 11
971.7893883579279
 21
378.4204443393384
 31
0.0
  0
LINE
  5
28B2
330
2
100
AcDbEntity
  8
CENTER
100
AcDbLine
 10
966.2893883579279
 20
372.9204443393384
 30
0.0
 11
977.2893883579278
 21
372.9204443393384
 31
0.0
  0
ARC
  5
28B3
330
2
100
AcDbEntity
  8
HIDS
  6
SEKKEI_H
100
AcDbCircle
 10
936.4340492985991
 20
337.5651052800128
 30
0.0
 40
50.99999999999756
100
AcDbArc
 50
106.3235402486149
 51
151.7603583732009
  0
ARC
  5
28B4
330
2
100
AcDbEntity
  8
HIDS
  6
SEKKEI_H
100
AcDbCircle
 10
936.4340492986
 20
337.5651052800096
 30
0.0
 40
50.99999999999896
100
AcDbArc
 50
208.2396416267989
 51
241.9275130641453
  0
ARC
  5
28B5
330
2
100
AcDbEntity
  8
HIDS
  6
SEKKEI_H
100
AcDbCircle
 10
936.4340492986009
 20
337.5651052800096
 30
0.0
 40
50.99999999999878
100
AcDbArc
 50
298.0724869358546
 51
331.7603583732009
  0
ARC
  5
28B6
330
2
100
AcDbEntity
  8
0
100
AcDbCircle
 10
936.4340492985991
 20
337.5651052800105
 30
0.0
 40
51.000000000001
100
AcDbArc
 50
331.7603583732009
 51
28.23964162679899
  0
ARC
  5
28B7
330
2
100
AcDbEntity
  8
HIDS
  6
SEKKEI_H
100
AcDbCircle
 10
936.4340492985963
 20
337.5651052800069
 30
0.0
 40
51.0000000000057
100
AcDbArc
 50
28.23964162679899
 51
61.92751306414532
  0
ARC
  5
28B8
330
2
100
AcDbEntity
  8
0
100
AcDbCircle
 10
936.4340492986009
 20
337.5651052800105
 30
0.0
 40
51.00000000000008
100
AcDbArc
 50
151.7603583732009
 51
208.2396416267989
  0
LINE
  5
28B9
330
2
100
AcDbEntity
  8
0
100
AcDbLine
 10
893.3560023843135
 20
286.5651052873364
 30
0.0
 11
979.5120962128875
 21
286.5651052873364
 31
0.0
  0
LINE
  5
28BA
330
2
100
AcDbEntity
  8
CENTER
100
AcDbLine
 10
903.2576424274246
 20
379.9915121511887
 30
0.0
 11
884.7576424274246
 21
379.9915121511887
 31
0.0
  0
LINE
  5
28BB
330
2
100
AcDbEntity
  8
CENTER
100
AcDbLine
 10
894.0076424274245
 20
389.2415121511887
 30
0.0
 11
894.0076424274245
 21
370.7415121511891
 31
0.0
  0
LINE
  5
28BC
330
2
100
AcDbEntity
  8
CENTER
100
AcDbLine
 10
969.6104561697763
 20
379.9915121511887
 30
0.0
 11
988.1104561697764
 21
379.9915121511887
 31
0.0
  0
LINE
  5
28BD
330
2
100
AcDbEntity
  8
CENTER
100
AcDbLine
 10
978.8604561697765
 20
389.2415121511887
 30
0.0
 11
978.8604561697765
 21
370.7415121511891
 31
0.0
  0
LINE
  5
28BE
330
2
100
AcDbEntity
  8
CENTER
100
AcDbLine
 10
903.2576424274246
 20
295.1386984088323
 30
0.0
 11
884.7576424274246
 21
295.1386984088323
 31
0.0
  0
LINE
  5
28BF
330
2
100
AcDbEntity
  8
CENTER
100
AcDbLine
 10
894.0076424274245
 20
285.8886984088323
 30
0.0
 11
894.0076424274245
 21
304.3886984088323
 31
0.0
  0
LINE
  5
28C0
330
2
100
AcDbEntity
  8
CENTER
100
AcDbLine
 10
969.6104561697763
 20
295.1386984088323
 30
0.0
 11
988.1104561697764
 21
295.1386984088323
 31
0.0
  0
LINE
  5
28C1
330
2
100
AcDbEntity
  8
CENTER
100
AcDbLine
 10
978.8604561697765
 20
285.8886984088323
 30
0.0
 11
978.8604561697765
 21
304.3886984088323
 31
0.0
  0
ARC
  5
28C2
330
2
100
AcDbEntity
  8
0
100
AcDbCircle
 10
936.4340492912722
 20
337.5651052726827
 30
0.0
 40
51.00000000000004
100
AcDbArc
 50
61.92751308162609
 51
106.3235402268953
  0
ARC
  5
28C3
330
2
100
AcDbEntity
  8
0
100
AcDbCircle
 10
936.4340493059287
 20
337.5651052873392
 30
0.0
 40
51.00000000000004
100
AcDbArc
 50
241.927513081656
 51
298.0724869183439
  0
LINE
  5
28C4
330
2
100
AcDbEntity
  8
0
100
AcDbLine
 10
885.3563868241133
 20
380.6435328762283
 30
0.0
 11
884.9340492986
 21
337.5651052800105
 31
0.0
  0
LINE
  5
28C5
330
2
100
AcDbEntity
  8
0
100
AcDbLine
 10
885.3563868241133
 20
294.4866776837936
 30
0.0
 11
884.9340492986
 21
337.565105280011
 31
0.0
  0
ARC
  5
28C6
330
2
100
AcDbEntity
  8
0
100
AcDbCircle
 10
893.3560023843135
 20
294.5651052873365
 30
0.0
 40
8.0
100
AcDbArc
 50
180.5617053326619
 51
270.0
  0
LINE
  5
28C7
330
2
100
AcDbEntity
  8
0
100
AcDbLine
 10
987.5117117730868
 20
380.6435328762278
 30
0.0
 11
987.934049298601
 21
337.5651052800105
 31
0.0
  0
ARC
  5
28C8
330
2
100
AcDbEntity
  8
0
100
AcDbCircle
 10
979.5120962128864
 20
380.5651052726854
 30
0.0
 40
8.0
100
AcDbArc
 50
0.5617053326619468
 51
90.0
  0
LINE
  5
28C9
330
2
100
AcDbEntity
  8
0
100
AcDbLine
 10
987.5117117730876
 20
294.4866776837936
 30
0.0
 11
987.934049298601
 21
337.565105280011
 31
0.0
  0
ARC
  5
28CA
330
2
100
AcDbEntity
  8
0
100
AcDbCircle
 10
979.5120962128875
 20
294.5651052873365
 30
0.0
 40
8.0
100
AcDbArc
 50
270.0
 51
359.438294667364
  0
LINE
  5
28CB
330
2
100
AcDbEntity
  8
CENTER
100
AcDbLine
 10
971.7893883579279
 20
296.7097662206835
 30
0.0
 11
971.7893883579279
 21
307.7097662206835
 31
0.0
  0
LINE
  5
28CC
330
2
100
AcDbEntity
  8
CENTER
100
AcDbLine
 10
966.2893883579279
 20
302.2097662206835
 30
0.0
 11
977.2893883579278
 21
302.2097662206835
 31
0.0
  0
LINE
  5
28CD
330
2
100
AcDbEntity
  8
CENTER
100
AcDbLine
 10
901.0787102392731
 20
296.7097662206835
 30
0.0
 11
901.0787102392731
 21
307.7097662206835
 31
0.0
  0
LINE
  5
28CE
330
2
100
AcDbEntity
  8
CENTER
100
AcDbLine
 10
895.5787102392731
 20
302.2097662206835
 30
0.0
 11
906.5787102392731
 21
302.2097662206835
 31
0.0
  0
LINE
  5
28CF
330
2
100
AcDbEntity
  8
CENTER
100
AcDbLine
 10
901.0787102392731
 20
367.4204443393384
 30
0.0
 11
901.0787102392731
 21
378.4204443393384
 31
0.0
  0
LINE
  5
28D0
330
2
100
AcDbEntity
  8
CENTER
100
AcDbLine
 10
895.5787102392731
 20
372.9204443393384
 30
0.0
 11
906.5787102392731
 21
372.9204443393384
 31
0.0
  0
LINE
  5
28D1
330
2
100
AcDbEntity
  8
0
100
AcDbLine
 10
891.5475694993835
 20
376.5825620385609
 30
0.0
 11
891.4340492985999
 21
337.565105280011
 31
0.0
  0
ARC
  5
28D2
330
2
100
AcDbEntity
  8
0
100
AcDbCircle
 10
897.5475441044617
 20
376.5651052800109
 30
0.0
 40
6.000000000000002
100
AcDbArc
 50
90.0
 51
179.8332999999904
  0
LINE
  5
28D3
330
2
100
AcDbEntity
  8
0
100
AcDbLine
 10
981.3205290978173
 20
298.5476485214605
 30
0.0
 11
981.4340492986008
 21
337.5651052800105
 31
0.0
  0
ARC
  5
28D4
330
2
100
AcDbEntity
  8
0
100
AcDbCircle
 10
975.3205544927393
 20
298.5651052800105
 30
0.0
 40
6.0
100
AcDbArc
 50
270.0
 51
359.8332999999904
  0
LINE
  5
28D5
330
2
100
AcDbEntity
  8
0
100
AcDbLine
 10
891.5475694993835
 20
298.5476485214605
 30
0.0
 11
891.4340492985999
 21
337.5651052800105
 31
0.0
  0
ARC
  5
28D6
330
2
100
AcDbEntity
  8
0
100
AcDbCircle
 10
897.5475441044617
 20
298.5651052800105
 30
0.0
 40
6.000000000000002
100
AcDbArc
 50
180.1667000000095
 51
270.0
  0
LINE
  5
28D7
330
2
100
AcDbEntity
  8
0
100
AcDbLine
 10
981.4340492986008
 20
337.5651052800105
 30
0.0
 11
987.934049298601
 21
337.5651052800105
 31
0.0
  0
LINE
  5
28D8
330
2
100
AcDbEntity
  8
0
100
AcDbLine
 10
891.4340492985999
 20
337.5651052800105
 30
0.0
 11
884.9340492986
 21
337.565105280011
 31
0.0
  0
CIRCLE
  5
28D9
330
2
100
AcDbEntity
  8
CENTER
100
AcDbCircle
 10
936.4340492986
 20
337.565105280011
 30
0.0
 40
50.0000000000004
  0
CIRCLE
  5
28DA
330
2
100
AcDbEntity
  8
HOJO
100
AcDbCircle
 10
971.7893883579279
 20
372.9204443393388
 30
0.0
 40
3.0
  0
CIRCLE
  5
28DB
330
2
100
AcDbEntity
  8
0
100
AcDbCircle
 10
971.7893883579279
 20
372.9204443393388
 30
0.0
 40
2.5
  0
CIRCLE
  5
28DC
330
2
100
AcDbEntity
  8
HOJO
100
AcDbCircle
 10
971.7893883579279
 20
302.209766220684
 30
0.0
 40
3.0
  0
CIRCLE
  5
28DD
330
2
100
AcDbEntity
  8
0
100
AcDbCircle
 10
971.7893883579279
 20
302.209766220684
 30
0.0
 40
2.5
  0
CIRCLE
  5
28DE
330
2
100
AcDbEntity
  8
HOJO
100
AcDbCircle
 10
901.0787102392731
 20
302.2097662206831
 30
0.0
 40
3.0
  0
CIRCLE
  5
28DF
330
2
100
AcDbEntity
  8
0
100
AcDbCircle
 10
901.0787102392731
 20
302.2097662206831
 30
0.0
 40
2.5
  0
CIRCLE
  5
28E0
330
2
100
AcDbEntity
  8
HOJO
100
AcDbCircle
 10
901.0787102392731
 20
372.9204443393388
 30
0.0
 40
3.0
  0
CIRCLE
  5
28E1
330
2
100
AcDbEntity
  8
0
100
AcDbCircle
 10
901.0787102392731
 20
372.9204443393388
 30
0.0
 40
2.5
  0
CIRCLE
  5
28E2
330
2
100
AcDbEntity
  8
0
100
AcDbCircle
 10
936.4340492986
 20
337.565105280011
 30
0.0
 40
37.99999999999533
  0
CIRCLE
  5
28E3
330
2
100
AcDbEntity
  8
0
100
AcDbCircle
 10
936.4340492986
 20
337.565105280011
 30
0.0
 40
40.00000000000068
  0
CIRCLE
  5
28E4
330
2
100
AcDbEntity
  8
HIDS
  6
SEKKEI_H
100
AcDbCircle
 10
936.4340492986
 20
337.565105280011
 30
0.0
 40
45.0
  0
ARC
  5
28E5
330
2
100
AcDbEntity
  8
HIDS
  6
SEKKEI_H
100
AcDbCircle
 10
900.7593135596023
 20
372.5981358362247
 30
0.0
 40
5.0
100
AcDbArc
 50
315.5199710189992
 51
358.9999999999982
  0
LINE
  5
28E6
330
2
100
AcDbEntity
  8
HIDS
  6
SEKKEI_H
100
AcDbLine
 10
966.968350162682
 20
294.5302004671368
 30
0.0
 11
967.109546561817
 21
302.6193367559837
 31
0.0
  0
ARC
  5
28E7
330
2
100
AcDbEntity
  8
HIDS
  6
SEKKEI_H
100
AcDbCircle
 10
964.9686547723693
 20
294.5651052800114
 30
0.0
 40
2.0
100
AcDbArc
 50
270.0
 51
358.9999999999982
  0
ARC
  5
28E8
330
2
100
AcDbEntity
  8
HIDS
  6
SEKKEI_H
100
AcDbCircle
 10
972.1087850375996
 20
302.5320747237971
 30
0.0
 40
5.0
100
AcDbArc
 50
135.5199710189991
 51
178.9999999999982
  0
LINE
  5
28EB
330
2
100
AcDbEntity
  8
HIDS
  6
SEKKEI_H
100
AcDbLine
 10
922.021028731917
 20
372.7256632696677
 30
0.0
 11
922.192776831064
 21
382.5651052800105
 31
0.0
  0
LINE
  5
28EC
330
2
100
AcDbEntity
  8
HIDS
  6
SEKKEI_H
100
AcDbLine
 10
910.9684848413987
 20
365.7698039466476
 30
0.0
 11
910.6753217661369
 21
382.5651052800103
 31
0.0
  0
CIRCLE
  5
28EE
330
2
100
AcDbEntity
  8
0
100
AcDbCircle
 10
708.0209583471712
 20
627.5377674500478
 30
0.0
 40
9.0
  0
LINE
  5
28EF
330
2
100
AcDbEntity
  8
CENTER
100
AcDbLine
 10
708.0209583471719
 20
390.0651052800108
 30
0.0
 11
708.0209583471719
 21
376.8049344227883
 31
0.0
  0
LINE
  5
28F0
330
2
100
AcDbEntity
  8
0
100
AcDbLine
 10
713.0209583471719
 20
386.5651052800099
 30
0.0
 11
703.0209583471719
 21
386.5651052800099
 31
0.0
  0
ARC
  5
28F1
330
2
100
AcDbEntity
  8
0
100
AcDbCircle
 10
703.0209583471719
 20
382.5651052800099
 30
0.0
 40
4.0
100
AcDbArc
 50
90.0
 51
180.0
  0
ARC
  5
28F2
330
2
100
AcDbEntity
  8
0
100
AcDbCircle
 10
713.0209583471719
 20
382.5651052800099
 30
0.0
 40
4.0
100
AcDbArc
 50
0.0
 51
90.0
  0
LINE
  5
28F3
330
2
100
AcDbEntity
  8
CENTER
  6
CENTERX2
100
AcDbLine
 10
-44.61177372679799
 20
390.065105280014
 30
0.0
 11
-44.61177372679799
 21
376.8049344227916
 31
0.0
  0
LINE
  5
28F4
330
2
100
AcDbEntity
  8
0
100
AcDbLine
 10
-39.61177372679799
 20
386.5651052800131
 30
0.0
 11
-49.61177372679799
 21
386.5651052800131
 31
0.0
  0
ARC
  5
28F5
330
2
100
AcDbEntity
  8
0
100
AcDbCircle
 10
-49.61177372679799
 20
382.5651052800131
 30
0.0
 40
4.0
100
AcDbArc
 50
90.0
 51
180.0
  0
ARC
  5
28F6
330
2
100
AcDbEntity
  8
0
100
AcDbCircle
 10
-39.61177372679799
 20
382.5651052800131
 30
0.0
 40
4.0
100
AcDbArc
 50
0.0
 51
90.0
  0
LINE
  5
28F7
330
2
100
AcDbEntity
  8
0
100
AcDbLine
 10
921.4340492986009
 20
386.5651052800105
 30
0.0
 11
911.4340492986009
 21
386.5651052800105
 31
0.0
  0
ARC
  5
28F8
330
2
100
AcDbEntity
  8
0
100
AcDbCircle
 10
911.4340492986009
 20
382.5651052800105
 30
0.0
 40
4.0
100
AcDbArc
 50
90.0
 51
180.0
  0
ARC
  5
28F9
330
2
100
AcDbEntity
  8
0
100
AcDbCircle
 10
921.4340492986009
 20
382.5651052800105
 30
0.0
 40
4.0
100
AcDbArc
 50
0.0
 51
90.0
  0
ARC
  5
28FA
330
2
100
AcDbEntity
  8
0
100
AcDbCircle
 10
978.8604561697718
 20
379.9915121511887
 30
0.0
 40
5.000000000000113
100
AcDbArc
 50
299.5091786427817
 51
149.0213506037803
  0
ARC
  5
28FB
330
2
100
AcDbEntity
  8
0
100
AcDbCircle
 10
978.8604561697718
 20
379.9915121511887
 30
0.0
 40
4.307179676972509
100
AcDbArc
 50
304.8368549824802
 51
143.3182102282577
  0
LINE
  5
28FC
330
2
100
AcDbEntity
  8
0
100
AcDbLine
 10
981.3604561697719
 20
381.4348878241627
 30
0.0
 11
981.3604561697719
 21
378.5481364782146
 31
0.0
  0
LINE
  5
28FD
330
2
100
AcDbEntity
  8
0
100
AcDbLine
 10
981.0440739994326
 20
378.365473147003
 30
0.0
 11
981.3604561697719
 21
378.5481364782146
 31
0.0
  0
LINE
  5
28FE
330
2
100
AcDbEntity
  8
0
100
AcDbLine
 10
981.3604561697719
 20
381.4348878241627
 30
0.0
 11
978.8604561697718
 21
382.8782634971368
 31
0.0
  0
LINE
  5
28FF
330
2
100
AcDbEntity
  8
0
100
AcDbLine
 10
977.5641498170115
 20
382.1298406754187
 30
0.0
 11
978.8604561697718
 21
382.8782634971368
 31
0.0
  0
ARC
  5
2900
330
2
100
AcDbEntity
  8
0
 48
12.0
100
AcDbCircle
 10
978.8604561697765
 20
379.9915121511887
 30
0.0
 40
5.749999999999829
100
AcDbArc
 50
295.3877731485953
 51
153.4113844692913
  0
ARC
  5
2901
330
2
100
AcDbEntity
  8
0
100
AcDbCircle
 10
894.0076424274201
 20
379.9915121511887
 30
0.0
 40
5.000000000000113
100
AcDbArc
 50
30.97864939621962
 51
240.4908213573375
  0
ARC
  5
2902
330
2
100
AcDbEntity
  8
0
100
AcDbCircle
 10
894.0076424274201
 20
379.9915121511887
 30
0.0
 40
4.307179676972509
100
AcDbArc
 50
36.68178977174227
 51
235.1631450176769
  0
LINE
  5
2903
330
2
100
AcDbEntity
  8
0
100
AcDbLine
 10
895.3039487801842
 20
382.1298406754169
 30
0.0
 11
894.0076424274201
 21
382.8782634971368
 31
0.0
  0
LINE
  5
2904
330
2
100
AcDbEntity
  8
0
100
AcDbLine
 10
891.50764242742
 20
381.4348878241627
 30
0.0
 11
891.50764242742
 21
378.5481364782146
 31
0.0
  0
LINE
  5
2905
330
2
100
AcDbEntity
  8
0
100
AcDbLine
 10
891.8240245977665
 20
378.3654731469989
 30
0.0
 11
891.50764242742
 21
378.5481364782146
 31
0.0
  0
LINE
  5
2906
330
2
100
AcDbEntity
  8
0
100
AcDbLine
 10
891.50764242742
 20
381.4348878241627
 30
0.0
 11
894.0076424274201
 21
382.8782634971368
 31
0.0
  0
ARC
  5
2907
330
2
100
AcDbEntity
  8
0
 48
12.0
100
AcDbCircle
 10
894.0076424274245
 20
379.9915121511887
 30
0.0
 40
5.749999999999829
100
AcDbArc
 50
26.58861553070858
 51
244.6122268514046
  0
ARC
  5
2908
330
2
100
AcDbEntity
  8
0
100
AcDbCircle
 10
894.0076424274201
 20
295.1386984088323
 30
0.0
 40
5.000000000000113
100
AcDbArc
 50
119.5091786426624
 51
329.0213506037803
  0
ARC
  5
2909
330
2
100
AcDbEntity
  8
0
100
AcDbCircle
 10
894.0076424274201
 20
295.1386984088323
 30
0.0
 40
4.307179676972509
100
AcDbArc
 50
124.836854982323
 51
323.3182102282577
  0
LINE
  5
290A
330
2
100
AcDbEntity
  8
0
100
AcDbLine
 10
894.0076424274201
 20
292.2519470628841
 30
0.0
 11
895.303948780185
 21
293.000369884605
 31
0.0
  0
LINE
  5
290B
330
2
100
AcDbEntity
  8
0
100
AcDbLine
 10
891.50764242742
 20
296.5820740818064
 30
0.0
 11
891.50764242742
 21
293.6953227358582
 31
0.0
  0
LINE
  5
290C
330
2
100
AcDbEntity
  8
0
100
AcDbLine
 10
894.0076424274201
 20
292.2519470628841
 30
0.0
 11
891.50764242742
 21
293.6953227358582
 31
0.0
  0
LINE
  5
290D
330
2
100
AcDbEntity
  8
0
100
AcDbLine
 10
891.50764242742
 20
296.5820740818064
 30
0.0
 11
891.8240245977665
 21
296.764737413023
 31
0.0
  0
ARC
  5
290E
330
2
100
AcDbEntity
  8
0
 48
12.0
100
AcDbCircle
 10
894.0076424274245
 20
295.1386984088323
 30
0.0
 40
5.749999999999829
100
AcDbArc
 50
115.3877731485953
 51
333.4113844692914
  0
ARC
  5
290F
330
2
100
AcDbEntity
  8
0
100
AcDbCircle
 10
978.8604561697718
 20
295.1386984088323
 30
0.0
 40
5.000000000000113
100
AcDbArc
 50
210.9786493962196
 51
60.49082135721824
  0
ARC
  5
2910
330
2
100
AcDbEntity
  8
0
100
AcDbCircle
 10
978.8604561697718
 20
295.1386984088323
 30
0.0
 40
4.307179676972509
100
AcDbArc
 50
216.6817897717422
 51
55.16314501751971
  0
LINE
  5
2911
330
2
100
AcDbEntity
  8
0
100
AcDbLine
 10
981.3604561697719
 20
296.5820740818064
 30
0.0
 11
981.3604561697719
 21
293.6953227358582
 31
0.0
  0
LINE
  5
2912
330
2
100
AcDbEntity
  8
0
100
AcDbLine
 10
978.8604561697718
 20
292.2519470628841
 30
0.0
 11
981.3604561697719
 21
293.6953227358582
 31
0.0
  0
LINE
  5
2913
330
2
100
AcDbEntity
  8
0
100
AcDbLine
 10
981.3604561697719
 20
296.5820740818064
 30
0.0
 11
981.0440739994326
 21
296.7647374130189
 31
0.0
  0
LINE
  5
2914
330
2
100
AcDbEntity
  8
0
100
AcDbLine
 10
978.8604561697718
 20
292.2519470628841
 30
0.0
 11
977.5641498170115
 21
293.0003698846032
 31
0.0
  0
ARC
  5
2915
330
2
100
AcDbEntity
  8
0
 48
12.0
100
AcDbCircle
 10
978.8604561697765
 20
295.1386984088323
 30
0.0
 40
5.749999999999829
100
AcDbArc
 50
206.5886155307085
 51
64.61222685140467
  0
LINE
  5
2916
330
2
100
AcDbEntity
  8
0
100
AcDbLine
 10
7.638207025132714
 20
385.7415121511917
 30
0.0
 11
6.138207025132714
 21
385.7415121511917
 31
0.0
  0
LINE
  5
2917
330
2
100
AcDbEntity
  8
0
100
AcDbLine
 10
7.638207025132714
 20
374.2415121511918
 30
0.0
 11
6.138207025131805
 21
374.2415121511918
 31
0.0
  0
LINE
  5
2918
330
2
100
AcDbEntity
  8
0
100
AcDbLine
 10
0.5382070251323512
 20
384.9915121511922
 30
0.0
 11
0.138207025132715
 21
384.2986918281649
 31
0.0
  0
LINE
  5
2919
330
2
100
AcDbEntity
  8
0
100
AcDbLine
 10
6.138207025132714
 20
385.7415121511917
 30
0.0
 11
6.138207025131805
 21
374.2415121511918
 31
0.0
  0
LINE
  5
291A
330
2
100
AcDbEntity
  8
0
100
AcDbLine
 10
0.5382070251323512
 20
384.9915121511922
 30
0.0
 11
0.5382070251323512
 21
374.9915121511922
 31
0.0
  0
LINE
  5
291B
330
2
100
AcDbEntity
  8
0
100
AcDbLine
 10
6.138207025132714
 20
384.9915121511918
 30
0.0
 11
0.5382070251323512
 21
384.9915121511922
 31
0.0
  0
LINE
  5
291C
330
2
100
AcDbEntity
  8
0
100
AcDbLine
 10
6.138207025131805
 20
374.9915121511917
 30
0.0
 11
0.5382070251323512
 21
374.9915121511922
 31
0.0
  0
LINE
  5
291D
330
2
100
AcDbEntity
  8
0
100
AcDbLine
 10
0.5382070251323512
 20
374.9915121511922
 30
0.0
 11
0.138207025132715
 21
375.6843324742195
 31
0.0
  0
LINE
  5
291E
330
2
100
AcDbEntity
  8
0
100
AcDbLine
 10
0.138207025132715
 20
384.2986918281649
 30
0.0
 11
0.138207025132715
 21
375.6843324742195
 31
0.0
  0
LINE
  5
291F
330
2
100
AcDbEntity
  8
0
 48
12.0
100
AcDbLine
 10
7.638207025132714
 20
374.2415121511918
 30
0.0
 11
7.638207025132714
 21
385.7415121511917
 31
0.0
  0
LINE
  5
2920
330
2
100
AcDbEntity
  8
0
100
AcDbLine
 10
655.5209583471722
 20
684.2141743212224
 30
0.0
 11
657.0209583471721
 21
684.2141743212224
 31
0.0
  0
LINE
  5
2921
330
2
100
AcDbEntity
  8
0
100
AcDbLine
 10
655.5209583471722
 20
695.7141743212223
 30
0.0
 11
657.020958347173
 21
695.7141743212223
 31
0.0
  0
LINE
  5
2922
330
2
100
AcDbEntity
  8
0
100
AcDbLine
 10
662.6209583471725
 20
684.9641743212223
 30
0.0
 11
663.0209583471721
 21
685.6569946442496
 31
0.0
  0
LINE
  5
2923
330
2
100
AcDbEntity
  8
0
100
AcDbLine
 10
657.0209583471721
 20
684.2141743212224
 30
0.0
 11
657.020958347173
 21
695.7141743212223
 31
0.0
  0
LINE
  5
2924
330
2
100
AcDbEntity
  8
0
100
AcDbLine
 10
662.6209583471725
 20
684.9641743212223
 30
0.0
 11
662.6209583471725
 21
694.9641743212223
 31
0.0
  0
LINE
  5
2925
330
2
100
AcDbEntity
  8
0
100
AcDbLine
 10
657.0209583471721
 20
684.9641743212223
 30
0.0
 11
662.6209583471725
 21
684.9641743212223
 31
0.0
  0
LINE
  5
2926
330
2
100
AcDbEntity
  8
0
100
AcDbLine
 10
657.020958347173
 20
694.9641743212223
 30
0.0
 11
662.6209583471725
 21
694.9641743212223
 31
0.0
  0
LINE
  5
2927
330
2
100
AcDbEntity
  8
0
100
AcDbLine
 10
662.6209583471725
 20
694.9641743212223
 30
0.0
 11
663.0209583471721
 21
694.2713539981951
 31
0.0
  0
LINE
  5
2928
330
2
100
AcDbEntity
  8
0
100
AcDbLine
 10
663.0209583471721
 20
685.6569946442496
 30
0.0
 11
663.0209583471721
 21
694.2713539981951
 31
0.0
  0
LINE
  5
2929
330
2
100
AcDbEntity
  8
0
 48
12.0
100
AcDbLine
 10
655.5209583471722
 20
695.7141743212223
 30
0.0
 11
655.5209583471722
 21
684.2141743212224
 31
0.0
  0
LINE
  5
292A
330
2
100
AcDbEntity
  8
0
100
AcDbLine
 10
655.7709775952412
 20
289.3886984088326
 30
0.0
 11
657.2709775952412
 21
289.3886984088326
 31
0.0
  0
LINE
  5
292B
330
2
100
AcDbEntity
  8
0
100
AcDbLine
 10
655.7709775952412
 20
300.8886984088321
 30
0.0
 11
657.2709775952421
 21
300.8886984088326
 31
0.0
  0
LINE
  5
292C
330
2
100
AcDbEntity
  8
0
100
AcDbLine
 10
662.8709775952415
 20
290.1386984088322
 30
0.0
 11
663.2709775952412
 21
290.8315187318594
 31
0.0
  0
LINE
  5
292D
330
2
100
AcDbEntity
  8
0
100
AcDbLine
 10
657.2709775952412
 20
289.3886984088326
 30
0.0
 11
657.2709775952421
 21
300.8886984088326
 31
0.0
  0
LINE
  5
292E
330
2
100
AcDbEntity
  8
0
100
AcDbLine
 10
662.8709775952415
 20
290.1386984088322
 30
0.0
 11
662.8709775952415
 21
300.1386984088321
 31
0.0
  0
LINE
  5
292F
330
2
100
AcDbEntity
  8
0
100
AcDbLine
 10
657.2709775952412
 20
290.1386984088326
 30
0.0
 11
662.8709775952415
 21
290.1386984088322
 31
0.0
  0
LINE
  5
2930
330
2
100
AcDbEntity
  8
0
100
AcDbLine
 10
657.2709775952421
 20
300.1386984088326
 30
0.0
 11
662.8709775952415
 21
300.1386984088321
 31
0.0
  0
LINE
  5
2931
330
2
100
AcDbEntity
  8
0
100
AcDbLine
 10
662.8709775952415
 20
300.1386984088321
 30
0.0
 11
663.2709775952412
 21
299.4458780858049
 31
0.0
  0
LINE
  5
2932
330
2
100
AcDbEntity
  8
0
100
AcDbLine
 10
663.2709775952412
 20
290.8315187318594
 30
0.0
 11
663.2709775952412
 21
299.4458780858049
 31
0.0
  0
LINE
  5
2933
330
2
100
AcDbEntity
  8
0
 48
12.0
100
AcDbLine
 10
655.7709775952412
 20
300.8886984088321
 30
0.0
 11
655.7709775952412
 21
289.3886984088326
 31
0.0
  0
LINE
  5
2934
330
2
100
AcDbEntity
  8
0
100
AcDbLine
 10
655.7709775952412
 20
374.2415121511885
 30
0.0
 11
657.2709775952412
 21
374.2415121511885
 31
0.0
  0
LINE
  5
2935
330
2
100
AcDbEntity
  8
0
100
AcDbLine
 10
655.7709775952412
 20
385.7415121511885
 30
0.0
 11
657.2709775952421
 21
385.7415121511885
 31
0.0
  0
LINE
  5
2936
330
2
100
AcDbEntity
  8
0
100
AcDbLine
 10
662.8709775952415
 20
374.9915121511885
 30
0.0
 11
663.2709775952412
 21
375.6843324742157
 31
0.0
  0
LINE
  5
2937
330
2
100
AcDbEntity
  8
0
100
AcDbLine
 10
657.2709775952412
 20
374.2415121511885
 30
0.0
 11
657.2709775952421
 21
385.7415121511885
 31
0.0
  0
LINE
  5
2938
330
2
100
AcDbEntity
  8
0
100
AcDbLine
 10
662.8709775952415
 20
374.9915121511885
 30
0.0
 11
662.8709775952415
 21
384.9915121511885
 31
0.0
  0
LINE
  5
2939
330
2
100
AcDbEntity
  8
0
100
AcDbLine
 10
657.2709775952412
 20
374.9915121511885
 30
0.0
 11
662.8709775952415
 21
374.9915121511885
 31
0.0
  0
LINE
  5
293A
330
2
100
AcDbEntity
  8
0
100
AcDbLine
 10
657.2709775952421
 20
384.9915121511885
 30
0.0
 11
662.8709775952415
 21
384.9915121511885
 31
0.0
  0
LINE
  5
293B
330
2
100
AcDbEntity
  8
0
100
AcDbLine
 10
662.8709775952415
 20
384.9915121511885
 30
0.0
 11
663.2709775952412
 21
384.2986918281612
 31
0.0
  0
LINE
  5
293C
330
2
100
AcDbEntity
  8
0
100
AcDbLine
 10
663.2709775952412
 20
375.6843324742157
 30
0.0
 11
663.2709775952412
 21
384.2986918281612
 31
0.0
  0
LINE
  5
293D
330
2
100
AcDbEntity
  8
0
 48
12.0
100
AcDbLine
 10
655.7709775952412
 20
385.7415121511885
 30
0.0
 11
655.7709775952412
 21
374.2415121511885
 31
0.0
  0
LINE
  5
293E
330
2
100
AcDbEntity
  8
0
100
AcDbLine
 10
7.638207025132714
 20
300.8886984088354
 30
0.0
 11
6.138207025132714
 21
300.8886984088358
 31
0.0
  0
LINE
  5
293F
330
2
100
AcDbEntity
  8
0
100
AcDbLine
 10
7.638207025132714
 20
289.3886984088358
 30
0.0
 11
6.138207025131805
 21
289.3886984088358
 31
0.0
  0
LINE
  5
2940
330
2
100
AcDbEntity
  8
0
100
AcDbLine
 10
0.5382070251323512
 20
300.1386984088358
 30
0.0
 11
0.138207025132715
 21
299.4458780858085
 31
0.0
  0
LINE
  5
2941
330
2
100
AcDbEntity
  8
0
100
AcDbLine
 10
6.138207025132714
 20
300.8886984088358
 30
0.0
 11
6.138207025131805
 21
289.3886984088358
 31
0.0
  0
LINE
  5
2942
330
2
100
AcDbEntity
  8
0
100
AcDbLine
 10
0.5382070251323512
 20
300.1386984088358
 30
0.0
 11
0.5382070251323512
 21
290.1386984088358
 31
0.0
  0
LINE
  5
2943
330
2
100
AcDbEntity
  8
0
100
AcDbLine
 10
6.138207025132714
 20
300.1386984088358
 30
0.0
 11
0.5382070251323512
 21
300.1386984088358
 31
0.0
  0
LINE
  5
2944
330
2
100
AcDbEntity
  8
0
100
AcDbLine
 10
6.138207025131805
 20
290.1386984088358
 30
0.0
 11
0.5382070251323512
 21
290.1386984088358
 31
0.0
  0
LINE
  5
2945
330
2
100
AcDbEntity
  8
0
100
AcDbLine
 10
0.5382070251323512
 20
290.1386984088358
 30
0.0
 11
0.138207025132715
 21
290.8315187318631
 31
0.0
  0
LINE
  5
2946
330
2
100
AcDbEntity
  8
0
100
AcDbLine
 10
0.138207025132715
 20
299.4458780858085
 30
0.0
 11
0.138207025132715
 21
290.8315187318631
 31
0.0
  0
LINE
  5
2947
330
2
100
AcDbEntity
  8
0
 48
12.0
100
AcDbLine
 10
7.638207025132714
 20
289.3886984088358
 30
0.0
 11
7.638207025132714
 21
300.8886984088354
 31
0.0
  0
LINE
  5
2948
330
2
100
AcDbEntity
  8
CENTER
100
AcDbLine
 10
916.4340492986145
 20
314.6905191918382
 30
0.0
 11
916.4340492985999
 21
393.5651052799877
 31
0.0
  0
LINE
  5
2949
330
2
100
AcDbEntity
  8
HIDS
  6
SEKKEI_H
100
AcDbLine
 10
911.3541768906404
 20
347.5651052800259
 30
0.0
 11
924.1840492986082
 21
347.5651052800255
 31
0.0
  0
LINE
  5
294A
330
2
100
AcDbEntity
  8
HIDS
  6
SEKKEI_H
100
AcDbLine
 10
920.9340492986083
 20
338.3151052800227
 30
0.0
 11
920.9340492986083
 21
347.5651052800255
 31
0.0
  0
LINE
  5
294B
330
2
100
AcDbEntity
  8
HIDS
  6
SEKKEI_H
100
AcDbLine
 10
911.9340492986081
 20
338.3151052800227
 30
0.0
 11
911.9340492986081
 21
347.5651052800259
 31
0.0
  0
LINE
  5
294C
330
2
100
AcDbEntity
  8
HIDS
  6
SEKKEI_H
100
AcDbLine
 10
913.0340492986077
 20
324.0951386876365
 30
0.0
 11
913.0340492986077
 21
336.8151052800228
 31
0.0
  0
LINE
  5
294D
330
2
100
AcDbEntity
  8
HIDS
  6
SEKKEI_H
100
AcDbLine
 10
912.4340492986082
 20
324.5651052800255
 30
0.0
 11
912.4340492986082
 21
336.8151052800232
 31
0.0
  0
LINE
  5
294E
330
2
100
AcDbEntity
  8
HIDS
  6
SEKKEI_H
100
AcDbLine
 10
920.4340492986082
 20
315.8165421090909
 30
0.0
 11
920.4340492986082
 21
336.8151052800232
 31
0.0
  0
LINE
  5
294F
330
2
100
AcDbEntity
  8
HIDS
  6
SEKKEI_H
100
AcDbLine
 10
919.8340492986078
 20
316.2709746332927
 30
0.0
 11
919.8340492986078
 21
336.8151052800232
 31
0.0
  0
LINE
  5
2950
330
2
100
AcDbEntity
  8
HIDS
  6
SEKKEI_H
100
AcDbLine
 10
922.9340492986146
 20
357.0651052800259
 30
0.0
 11
917.7591999016284
 21
357.0651052800255
 31
0.0
  0
LINE
  5
2951
330
2
100
AcDbEntity
  8
HIDS
  6
SEKKEI_H
100
AcDbLine
 10
922.0680238948286
 20
357.5651052800259
 30
0.0
 11
918.2956921513948
 21
357.5651052800255
 31
0.0
  0
LINE
  5
2952
330
2
100
AcDbEntity
  8
HIDS
  6
SEKKEI_H
100
AcDbLine
 10
923.6840492986145
 20
349.5651052800259
 30
0.0
 11
912.2472760537137
 21
349.5651052800255
 31
0.0
  0
LINE
  5
2953
330
2
100
AcDbEntity
  8
HIDS
  6
SEKKEI_H
100
AcDbLine
 10
919.234049298622
 20
324.5651052800255
 30
0.0
 11
913.634049298608
 21
324.5651052800255
 31
0.0
  0
LINE
  5
2954
330
2
100
AcDbEntity
  8
HIDS
  6
SEKKEI_H
100
AcDbLine
 10
920.4340492986082
 20
325.7651052800258
 30
0.0
 11
912.4340492986082
 21
325.7651052800258
 31
0.0
  0
LINE
  5
2955
330
2
100
AcDbEntity
  8
0
 48
0.3
100
AcDbLine
 10
909.1840492986145
 20
349.5651052800255
 30
0.0
 11
909.1840492986145
 21
347.5651052800255
 31
0.0
  0
LINE
  5
2956
330
2
100
AcDbEntity
  8
0
 48
0.3
100
AcDbLine
 10
909.9340492986145
 20
357.0651052800255
 30
0.0
 11
910.8000747023995
 21
357.5651052800255
 31
0.0
  0
LINE
  5
2957
330
2
100
AcDbEntity
  8
0
 48
0.3
100
AcDbLine
 10
909.9340492986145
 20
357.0651052800255
 30
0.0
 11
909.9340492986145
 21
349.5651052800255
 31
0.0
  0
LINE
  5
2958
330
2
100
AcDbEntity
  8
HIDS
  6
SEKKEI_H
100
AcDbLine
 10
923.6840492986145
 20
349.5651052800259
 30
0.0
 11
923.6840492986145
 21
347.5651052800259
 31
0.0
  0
LINE
  5
2959
330
2
100
AcDbEntity
  8
HIDS
  6
SEKKEI_H
100
AcDbLine
 10
922.9340492986146
 20
357.0651052800251
 30
0.0
 11
922.0680238948304
 21
357.565105280025
 31
0.0
  0
LINE
  5
295A
330
2
100
AcDbEntity
  8
HIDS
  6
SEKKEI_H
100
AcDbLine
 10
922.9340492986146
 20
357.0651052800251
 30
0.0
 11
922.9340492986146
 21
349.5651052800259
 31
0.0
  0
LINE
  5
295B
330
2
100
AcDbEntity
  8
HIDS
  6
SEKKEI_H
100
AcDbLine
 10
924.1340492986152
 20
347.5651052800259
 30
0.0
 11
911.3541768906404
 21
347.5651052800255
 31
0.0
  0
LINE
  5
295C
330
2
100
AcDbEntity
  8
HIDS
  6
SEKKEI_H
100
AcDbLine
 10
920.4340492986082
 20
338.3151052800227
 30
0.0
 11
920.4340492986082
 21
347.5651052800255
 31
0.0
  0
LINE
  5
295D
330
2
100
AcDbEntity
  8
HIDS
  6
SEKKEI_H
100
AcDbLine
 10
919.8340492986078
 20
338.3151052800227
 30
0.0
 11
919.8340492986078
 21
347.5651052800255
 31
0.0
  0
LINE
  5
295E
330
2
100
AcDbEntity
  8
HIDS
  6
SEKKEI_H
100
AcDbLine
 10
913.0340492986077
 20
338.3151052800227
 30
0.0
 11
913.0340492986077
 21
347.5651052800255
 31
0.0
  0
LINE
  5
295F
330
2
100
AcDbEntity
  8
HIDS
  6
SEKKEI_H
100
AcDbLine
 10
912.4340492986082
 20
338.3151052800227
 30
0.0
 11
912.4340492986082
 21
347.5651052800259
 31
0.0
  0
LINE
  5
2960
330
2
100
AcDbEntity
  8
0
100
AcDbLine
 10
918.2956921513948
 20
357.5651052800255
 30
0.0
 11
910.8000747023995
 21
357.5651052800255
 31
0.0
  0
LINE
  5
2961
330
2
100
AcDbEntity
  8
0
100
AcDbLine
 10
917.7591999016284
 20
357.0651052800255
 30
0.0
 11
909.9340492986145
 21
357.0651052800255
 31
0.0
  0
LINE
  5
2962
330
2
100
AcDbEntity
  8
0
100
AcDbLine
 10
912.2472760537137
 20
349.5651052800255
 30
0.0
 11
909.1840492986145
 21
349.5651052800255
 31
0.0
  0
LINE
  5
2963
330
2
100
AcDbEntity
  8
0
100
AcDbLine
 10
911.3541768906404
 20
347.5651052800255
 30
0.0
 11
909.1840492986145
 21
347.5651052800255
 31
0.0
  0
LINE
  5
2964
330
2
100
AcDbEntity
  8
HIDS
  6
SEKKEI_H
100
AcDbLine
 10
912.4340492986082
 20
325.7651052800258
 30
0.0
 11
913.634049298608
 21
324.5651052800255
 31
0.0
  0
LINE
  5
2965
330
2
100
AcDbEntity
  8
HIDS
  6
SEKKEI_H
100
AcDbLine
 10
920.4340492986219
 20
325.7651052800258
 30
0.0
 11
919.234049298622
 21
324.5651052800255
 31
0.0
  0
CIRCLE
  5
2966
330
2
100
AcDbEntity
  8
0
100
AcDbCircle
 10
936.4340492986
 20
337.565105280011
 30
0.0
 40
26.99999999999249
  0
LINE
  5
2967
330
2
100
AcDbEntity
  8
0
100
AcDbLine
 10
696.5209583471719
 20
357.51666529546
 30
0.0
 11
696.5209583471719
 21
337.5651052800108
 31
0.0
  0
LINE
  5
2968
330
2
100
AcDbEntity
  8
0
100
AcDbLine
 10
718.5209583471719
 20
337.5651052800112
 30
0.0
 11
718.5209583471719
 21
364.5651052800135
 31
0.0
  0
LINE
  5
2969
330
2
100
AcDbEntity
  8
0
100
AcDbLine
 10
716.5209583471719
 20
337.5651052800112
 30
0.0
 11
716.5209583471719
 21
347.0651052800176
 31
0.0
  0
LINE
  5
296A
330
2
100
AcDbEntity
  8
0
100
AcDbLine
 10
698.5209583471719
 20
357.5311538210886
 30
0.0
 11
698.5209583471719
 21
337.5651052800108
 31
0.0
  0
LINE
  5
296B
330
2
100
AcDbEntity
  8
0
100
AcDbLine
 10
655.0209583471728
 20
337.5651052800108
 30
0.0
 11
655.0209583471719
 21
347.5651052800158
 31
0.0
  0
LINE
  5
296C
330
2
100
AcDbEntity
  8
0
 48
0.3
100
AcDbLine
 10
675.0209583471728
 20
347.5651052800162
 30
0.0
 11
655.0209583471719
 21
347.5651052800158
 31
0.0
  0
LINE
  5
296D
330
2
100
AcDbEntity
  8
0
 48
0.3
100
AcDbLine
 10
675.0209583471728
 20
347.0651052800162
 30
0.0
 11
696.5209583471719
 21
347.0651052800167
 31
0.0
  0
LINE
  5
296E
330
2
100
AcDbEntity
  8
0
100
AcDbLine
 10
675.0209583471728
 20
337.5651052800108
 30
0.0
 11
675.0209583471719
 21
347.5651052800162
 31
0.0
  0
LINE
  5
296F
330
2
100
AcDbEntity
  8
0
100
AcDbLine
 10
705.2899693986321
 20
364.5651052800135
 30
0.0
 11
718.5209583471719
 21
364.5651052800135
 31
0.0
  0
LINE
  5
2970
330
2
100
AcDbEntity
  8
0
 48
0.3
100
AcDbLine
 10
698.5209583471719
 20
347.0651052800171
 30
0.0
 11
716.5209583471719
 21
347.0651052800176
 31
0.0
  0
LINE
  5
2971
330
2
100
AcDbEntity
  8
0
 48
0.3
100
AcDbLine
 10
649.824805924462
 20
337.5651052800112
 30
0.0
 11
655.0209583471719
 21
346.5651052800158
 31
0.0
  0
LINE
  5
2972
330
2
100
AcDbEntity
  8
0
100
AcDbLine
 10
716.5209583471719
 20
347.0651052800131
 30
0.0
 11
718.5209583471728
 21
348.2198058183926
 31
0.0
  0
LINE
  5
2974
330
2
100
AcDbEntity
  8
0
100
AcDbLine
 10
719.5209583471755
 20
377.5651052800121
 30
0.0
 11
726.5209583471714
 21
377.5651052800124
 31
0.0
  0
LINE
  5
2975
330
2
100
AcDbEntity
  8
0
100
AcDbLine
 10
719.5209583471755
 20
375.7352792019303
 30
0.0
 11
709.5343960081137
 21
375.6481277927138
 31
0.0
  0
LINE
  5
2976
330
2
100
AcDbEntity
  8
0
100
AcDbLine
 10
719.5209583471755
 20
377.5651052800121
 30
0.0
 11
719.5209583471755
 21
337.5651052800112
 31
0.0
  0
LINE
  5
2977
330
2
100
AcDbEntity
  8
0
100
AcDbLine
 10
909.4444679754385
 20
336.8151052800228
 30
0.0
 11
926.9637008361584
 21
336.8151052800228
 31
0.0
  0
LINE
  5
2978
330
2
100
AcDbEntity
  8
0
100
AcDbLine
 10
945.9043977610415
 20
336.8151052800228
 30
0.0
 11
962.4427693446557
 21
336.8151052800228
 31
0.0
  0
LINE
  5
2979
330
2
100
AcDbEntity
  8
0
100
AcDbLine
 10
909.4444679754385
 20
338.3151052800227
 30
0.0
 11
926.9637008361613
 21
338.3151052800227
 31
0.0
  0
LINE
  5
297A
330
2
100
AcDbEntity
  8
0
100
AcDbLine
 10
945.9043977610397
 20
338.3151052800232
 30
0.0
 11
962.4427693446557
 21
338.3151052800227
 31
0.0
  0
LINE
  5
297B
330
2
100
AcDbEntity
  8
0
100
AcDbLine
 10
962.4427693446557
 20
338.3151052800227
 30
0.0
 11
962.4427693446557
 21
336.8151052800228
 31
0.0
  0
LINE
  5
297C
330
2
100
AcDbEntity
  8
HOJO
100
AcDbLine
 10
913.0340492986077
 20
336.8151052800228
 30
0.0
 11
913.0340492986077
 21
338.3151052800227
 31
0.0
  0
LINE
  5
297D
330
2
100
AcDbEntity
  8
0
100
AcDbLine
 10
912.4340492986082
 20
336.8151052800232
 30
0.0
 11
912.4340492986082
 21
338.3151052800227
 31
0.0
  0
LINE
  5
297E
330
2
100
AcDbEntity
  8
HOJO
100
AcDbLine
 10
919.8340492986078
 20
336.8151052800232
 30
0.0
 11
919.8340492986078
 21
338.3151052800227
 31
0.0
  0
LINE
  5
297F
330
2
100
AcDbEntity
  8
0
100
AcDbLine
 10
920.4340492986082
 20
336.8151052800232
 30
0.0
 11
920.4340492986082
 21
338.3151052800227
 31
0.0
  0
CIRCLE
  5
2980
330
2
100
AcDbEntity
  8
0
100
AcDbCircle
 10
936.4340492986
 20
337.565105280011
 30
0.0
 40
9.500000000002447
  0
ARC
  5
2981
330
2
100
AcDbEntity
  8
0
100
AcDbCircle
 10
936.4340492986
 20
337.565105280011
 30
0.0
 40
10.65470053838138
100
AcDbArc
 50
184.0364720826718
 51
355.963527917328
  0
ARC
  5
2982
330
2
100
AcDbEntity
  8
0
100
AcDbCircle
 10
936.4340492986
 20
337.565105280011
 30
0.0
 40
10.65470053838138
100
AcDbArc
 50
4.036472082802338
 51
175.963527917196
  0
LINE
  5
2984
330
2
100
AcDbEntity
  8
HIDS
  6
SEKKEI_H
100
AcDbLine
 10
924.1840492986082
 20
347.5651052800255
 30
0.0
 11
924.1840492986073
 21
361.6262253703259
 31
0.0
  0
LINE
  5
2985
330
2
100
AcDbEntity
  8
0
100
AcDbLine
 10
655.5209583471722
 20
610.8613605788733
 30
0.0
 11
657.0209583471721
 21
610.8613605788733
 31
0.0
  0
LINE
  5
2986
330
2
100
AcDbEntity
  8
0
100
AcDbLine
 10
655.5209583471716
 20
599.3613605788732
 30
0.0
 11
657.0209583471726
 21
599.3613605788732
 31
0.0
  0
LINE
  5
2987
330
2
100
AcDbEntity
  8
0
100
AcDbLine
 10
662.6209583471725
 20
610.1113605788732
 30
0.0
 11
663.0209583471721
 21
609.4185402558459
 31
0.0
  0
LINE
  5
2988
330
2
100
AcDbEntity
  8
0
100
AcDbLine
 10
657.0209583471721
 20
610.8613605788733
 30
0.0
 11
657.0209583471726
 21
599.3613605788732
 31
0.0
  0
LINE
  5
2989
330
2
100
AcDbEntity
  8
0
100
AcDbLine
 10
662.6209583471725
 20
610.1113605788732
 30
0.0
 11
662.620958347172
 21
600.1113605788732
 31
0.0
  0
LINE
  5
298A
330
2
100
AcDbEntity
  8
0
100
AcDbLine
 10
657.0209583471721
 20
610.1113605788732
 30
0.0
 11
662.6209583471725
 21
610.1113605788732
 31
0.0
  0
LINE
  5
298B
330
2
100
AcDbEntity
  8
0
100
AcDbLine
 10
657.0209583471726
 20
600.1113605788732
 30
0.0
 11
662.620958347172
 21
600.1113605788732
 31
0.0
  0
LINE
  5
298C
330
2
100
AcDbEntity
  8
0
100
AcDbLine
 10
662.620958347172
 20
600.1113605788732
 30
0.0
 11
663.0209583471716
 21
600.8041809019005
 31
0.0
  0
LINE
  5
298D
330
2
100
AcDbEntity
  8
0
100
AcDbLine
 10
663.0209583471721
 20
609.4185402558459
 30
0.0
 11
663.0209583471716
 21
600.8041809019005
 31
0.0
  0
LINE
  5
298E
330
2
100
AcDbEntity
  8
0
 48
12.0
100
AcDbLine
 10
655.5209583471716
 20
599.3613605788732
 30
0.0
 11
655.5209583471722
 21
610.8613605788733
 31
0.0
  0
LINE
  5
298F
330
2
100
AcDbEntity
  8
CENTER
  6
CENTERX2
100
AcDbLine
 10
652.5209583471721
 20
689.9641743212228
 30
0.0
 11
666.020958347173
 21
689.9641743212223
 31
0.0
  0
LINE
  5
2990
330
2
100
AcDbEntity
  8
CENTER
  6
CENTERX2
100
AcDbLine
 10
652.5209583471721
 20
605.1113605788737
 30
0.0
 11
666.020958347173
 21
605.1113605788732
 31
0.0
  0
LINE
  5
2991
330
2
100
AcDbEntity
  8
CENTER
  6
CENTERX2
100
AcDbLine
 10
652.7709775952412
 20
379.991512151189
 30
0.0
 11
666.2709775952421
 21
379.9915121511885
 31
0.0
  0
LINE
  5
2992
330
2
100
AcDbEntity
  8
CENTER
  6
CENTERX2
100
AcDbLine
 10
652.7709775952412
 20
295.1386984088326
 30
0.0
 11
666.2709775952421
 21
295.1386984088321
 31
0.0
  0
LINE
  5
2993
330
2
100
AcDbEntity
  8
CENTER
  6
CENTERX2
100
AcDbLine
 10
10.63820702513271
 20
379.9915121511924
 30
0.0
 11
-2.867902247592837
 21
379.9915121511922
 31
0.0
  0
LINE
  5
2994
330
2
100
AcDbEntity
  8
CENTER
  6
CENTERX2
100
AcDbLine
 10
10.63820702513271
 20
295.138698408836
 30
0.0
 11
-2.867902247592837
 21
295.1386984088358
 31
0.0
  0
CIRCLE
  5
2995
330
2
100
AcDbEntity
  8
0
100
AcDbCircle
 10
936.4340492986004
 20
337.565105280013
 30
0.0
 40
37.49999999999977
  0
CIRCLE
  5
2996
330
2
100
AcDbEntity
  8
0
100
AcDbCircle
 10
936.4340492986004
 20
337.565105280013
 30
0.0
 40
38.16581048802308
  0
LINE
  5
2997
330
2
100
AcDbEntity
  8
0
100
AcDbLine
 10
-30.34637234527759
 20
304.674193701481
 30
0.0
 11
-39.18558206786224
 21
304.674193701481
 31
0.0
  0
LINE
  5
2998
330
2
100
AcDbEntity
  8
0
100
AcDbLine
 10
-32.56077281869215
 20
294.5127513833995
 30
0.0
 11
-32.34568699522901
 21
302.7265475980967
 31
0.0
  0
ARC
  5
2999
330
2
100
AcDbEntity
  8
0
100
AcDbCircle
 10
-34.56008746864313
 20
294.5651052800151
 30
0.0
 40
2.0
100
AcDbArc
 50
270.0
 51
358.4999999999971
  0
ARC
  5
299A
330
2
100
AcDbEntity
  8
0
100
AcDbCircle
 10
-30.34637234527759
 20
302.674193701481
 30
0.0
 40
2.0
100
AcDbArc
 50
90.0
 51
178.4999999999971
  0
LINE
  5
2CE2
330
2
100
AcDbEntity
  8
CENTER
100
AcDbLine
 10
211.6615701631836
 20
337.5651052800107
 30
0.0
 11
396.6615701631797
 21
337.5651052800112
 31
0.0
  0
LINE
  5
2CE3
330
2
100
AcDbEntity
  8
CENTER
100
AcDbLine
 10
272.6615701631801
 20
276.0646247071579
 30
0.0
 11
272.6615701631801
 21
399.0655858528432
 31
0.0
  0
LINE
  5
2CE4
330
2
100
AcDbEntity
  8
0
100
AcDbLine
 10
243.1615701631801
 20
286.5651052800123
 30
0.0
 11
243.161570163176
 21
388.5651052800108
 31
0.0
  0
LINE
  5
2CE5
330
2
100
AcDbEntity
  8
0
100
AcDbLine
 10
243.1615701631801
 20
286.5651052800123
 30
0.0
 11
325.6615701631801
 21
287.2850718727499
 31
0.0
  0
LINE
  5
2CE6
330
2
100
AcDbEntity
  8
0
100
AcDbLine
 10
330.6615701631801
 20
292.5651052800126
 30
0.0
 11
330.6615701631801
 21
382.5651052800123
 31
0.0
  0
LINE
  5
2CE7
330
2
100
AcDbEntity
  8
0
100
AcDbLine
 10
325.6615701631801
 20
292.5651052800126
 30
0.0
 11
330.6615701631801
 21
292.5651052800126
 31
0.0
  0
LINE
  5
2CE8
330
2
100
AcDbEntity
  8
0
100
AcDbLine
 10
325.6615701631801
 20
287.2850718727501
 30
0.0
 11
325.6615701631801
 21
387.8425812871029
 31
0.0
  0
LINE
  5
2CE9
330
2
100
AcDbEntity
  8
0
100
AcDbLine
 10
325.6615701631801
 20
382.5651052800123
 30
0.0
 11
330.6615701631801
 21
382.5651052800123
 31
0.0
  0
LINE
  5
2CEA
330
2
100
AcDbEntity
  8
0
100
AcDbLine
 10
344.6615701631815
 20
305.4964828296249
 30
0.0
 11
344.6615701631815
 21
369.633727730398
 31
0.0
  0
LINE
  5
2CEB
330
2
100
AcDbEntity
  8
0
100
AcDbLine
 10
332.5917711697768
 20
303.1436186115513
 30
0.0
 11
342.7313691565862
 21
303.497701175587
 31
0.0
  0
ARC
  5
2CEC
330
2
100
AcDbEntity
  8
0
100
AcDbCircle
 10
332.6615701631815
 20
301.1448369575134
 30
0.0
 40
2.0
100
AcDbArc
 50
92.00000000000365
 51
180.0
  0
ARC
  5
2CED
330
2
100
AcDbEntity
  8
0
100
AcDbCircle
 10
342.6615701631815
 20
305.4964828296249
 30
0.0
 40
2.0
100
AcDbArc
 50
272.0000000000036
 51
0.0
  0
LINE
  5
2CEE
330
2
100
AcDbEntity
  8
0
100
AcDbLine
 10
332.5917711697763
 20
371.9865919484716
 30
0.0
 11
342.7313691565862
 21
371.6325093844359
 31
0.0
  0
ARC
  5
2CEF
330
2
100
AcDbEntity
  8
0
100
AcDbCircle
 10
332.6615701631815
 20
373.9853736025095
 30
0.0
 40
2.0
100
AcDbArc
 50
180.0
 51
267.9999999999963
  0
ARC
  5
2CF0
330
2
100
AcDbEntity
  8
0
100
AcDbCircle
 10
342.6615701631815
 20
369.633727730398
 30
0.0
 40
2.0
100
AcDbArc
 50
0.0
 51
87.99999999999636
  0
LINE
  5
2CF1
330
2
100
AcDbEntity
  8
0
100
AcDbLine
 10
243.161570163176
 20
388.5651052800108
 30
0.0
 11
325.6615701631801
 21
387.8425812871029
 31
0.0
  0
LINE
  5
2CF2
330
2
100
AcDbEntity
  8
0
100
AcDbLine
 10
221.6615701631833
 20
294.4870583657264
 30
0.0
 11
221.6615701631837
 21
380.6431521942747
 31
0.0
  0
ARC
  5
2CF3
330
2
100
AcDbEntity
  8
0
100
AcDbCircle
 10
315.6615701631837
 20
380.6431521942757
 30
0.0
 40
8.0
100
AcDbArc
 50
65.12006096689511
 51
89.43829466741624
  0
LINE
  5
2CF4
330
2
100
AcDbEntity
  8
0
100
AcDbLine
 10
272.6615701631838
 20
286.065105280001
 30
0.0
 11
229.5831425596523
 21
286.4874428055261
 31
0.0
  0
ARC
  5
2CF5
330
2
100
AcDbEntity
  8
0
100
AcDbCircle
 10
229.6615701631833
 20
294.4870583657264
 30
0.0
 40
8.0
100
AcDbArc
 50
180.0
 51
269.4382946674422
  0
LINE
  5
2CF6
330
2
100
AcDbEntity
  8
0
100
AcDbLine
 10
272.6615701631838
 20
286.065105280001
 30
0.0
 11
315.7399977667148
 21
286.4874428055252
 31
0.0
  0
ARC
  5
2CF7
330
2
100
AcDbEntity
  8
0
100
AcDbCircle
 10
315.6615701631837
 20
294.4870583657254
 30
0.0
 40
8.0
100
AcDbArc
 50
270.5617053325576
 51
294.8391048618038
  0
LINE
  5
2CF8
330
2
100
AcDbEntity
  8
0
100
AcDbLine
 10
272.6615701631838
 20
389.0651052800001
 30
0.0
 11
229.5831425596523
 21
388.642767754475
 31
0.0
  0
ARC
  5
2CF9
330
2
100
AcDbEntity
  8
0
100
AcDbCircle
 10
229.6615701631838
 20
380.6431521942747
 30
0.0
 40
8.0
100
AcDbArc
 50
90.5617053325577
 51
180.0
  0
LINE
  5
2CFA
330
2
100
AcDbEntity
  8
0
100
AcDbLine
 10
272.6615701631838
 20
389.0651052800001
 30
0.0
 11
315.7399977667148
 21
388.6427677544759
 31
0.0
  0
LINE
  5
2CFB
330
2
100
AcDbEntity
  8
0
100
AcDbLine
 10
221.6615701631638
 20
369.9877550108098
 30
0.0
 11
221.6615701631728
 21
337.5651052800106
 31
0.0
  0
LINE
  5
2CFC
330
2
100
AcDbEntity
  8
0
 48
0.5
100
AcDbLine
 10
226.3615701631867
 20
370.5651052800117
 30
0.0
 11
229.661570163187
 21
370.5651052800108
 31
0.0
  0
LINE
  5
2CFD
330
2
100
AcDbEntity
  8
HIDS
  6
SEKKEI_H
 48
0.5
100
AcDbLine
 10
235.0757837255498
 20
383.4793188423735
 30
0.0
 11
230.7473566008168
 21
379.1508917176448
 31
0.0
  0
LINE
  5
2CFE
330
2
100
AcDbEntity
  8
0
100
AcDbLine
 10
229.6615701631819
 20
370.5651052800108
 30
0.0
 11
229.6615701631824
 21
372.5651052800053
 31
0.0
  0
LINE
  5
2CFF
330
2
100
AcDbEntity
  8
0
100
AcDbLine
 10
229.6615701631874
 20
372.5651052800106
 30
0.0
 11
230.1615701631878
 21
373.0651052800103
 31
0.0
  0
LINE
  5
2D00
330
2
100
AcDbEntity
  8
0
100
AcDbLine
 10
229.6615701631874
 20
372.5651052800106
 30
0.0
 11
229.661570163187
 21
370.5651052800108
 31
0.0
  0
LINE
  5
2D01
330
2
100
AcDbEntity
  8
0
100
AcDbLine
 10
237.6441170921809
 20
388.5169551965166
 30
0.0
 11
243.1615701631774
 21
388.5651052800089
 31
0.0
  0
ARC
  5
2D02
330
2
100
AcDbEntity
  8
0
100
AcDbCircle
 10
237.6615701631774
 20
386.5170313503883
 30
0.0
 40
2.0
100
AcDbArc
 50
90.49999999999155
 51
180.0
  0
LINE
  5
2D03
330
2
100
AcDbEntity
  8
0
 48
0.5
100
AcDbLine
 10
224.3615701631867
 20
369.8651052800121
 30
0.0
 11
225.9615701631866
 21
369.8651052800117
 31
0.0
  0
LINE
  5
2D04
330
2
100
AcDbEntity
  8
0
 48
0.5
100
AcDbLine
 10
226.1615701631869
 20
370.3651052800114
 30
0.0
 11
226.3615701631867
 21
370.5651052800117
 31
0.0
  0
LINE
  5
2D05
330
2
100
AcDbEntity
  8
0
100
AcDbLine
 10
224.1615701631869
 20
370.3651052800121
 30
0.0
 11
224.1615701631874
 21
304.7651052800093
 31
0.0
  0
LINE
  5
2D06
330
2
100
AcDbEntity
  8
0
100
AcDbLine
 10
222.6615701631869
 20
370.5651052800126
 30
0.0
 11
221.6615701631865
 21
369.987755010823
 31
0.0
  0
LINE
  5
2D07
330
2
100
AcDbEntity
  8
0
 48
0.5
100
AcDbLine
 10
222.6615701631869
 20
370.5651052800126
 30
0.0
 11
223.9615701631871
 21
370.5651052800121
 31
0.0
  0
ARC
  5
2D08
330
2
100
AcDbEntity
  8
HIDS
  6
SEKKEI_H
 48
0.3
100
AcDbCircle
 10
233.6615701631774
 20
384.8935324047473
 30
0.0
 40
2.0
100
AcDbArc
 50
314.9999999999725
 51
0.0
  0
ARC
  5
2D09
330
2
100
AcDbEntity
  8
HIDS
  6
SEKKEI_H
 48
0.5
100
AcDbCircle
 10
232.1615701631892
 20
377.736678155271
 30
0.0
 40
2.0
100
AcDbArc
 50
134.9999999999726
 51
179.9999999999804
  0
ARC
  5
2D0A
330
2
100
AcDbEntity
  8
0
100
AcDbCircle
 10
223.9615701631866
 20
370.3651052800121
 30
0.0
 40
0.2
100
AcDbArc
 50
0.0
 51
89.99999999997395
  0
ARC
  5
2D0B
330
2
100
AcDbEntity
  8
0
 48
0.5
100
AcDbCircle
 10
224.3615701631867
 20
370.0651052800121
 30
0.0
 40
0.2
100
AcDbArc
 50
180.0
 51
269.9999999999739
  0
ARC
  5
2D0C
330
2
100
AcDbEntity
  8
0
100
AcDbCircle
 10
225.9615701631871
 20
370.0651052800117
 30
0.0
 40
0.2
100
AcDbArc
 50
269.9999999999739
 51
0.0
  0
LINE
  5
2D0D
330
2
100
AcDbEntity
  8
0
100
AcDbLine
 10
221.6615701631642
 20
305.1424555492116
 30
0.0
 11
221.6615701631728
 21
337.5651052800106
 31
0.0
  0
LINE
  5
2D0E
330
2
100
AcDbEntity
  8
0
 48
0.5
100
AcDbLine
 10
226.3615701631872
 20
304.5651052800097
 30
0.0
 11
229.6615701631874
 21
304.5651052800106
 31
0.0
  0
LINE
  5
2D0F
330
2
100
AcDbEntity
  8
HIDS
  6
SEKKEI_H
 48
0.5
100
AcDbLine
 10
235.0757837255507
 20
291.650891717648
 30
0.0
 11
230.7473566008177
 21
295.9793188423767
 31
0.0
  0
LINE
  5
2D10
330
2
100
AcDbEntity
  8
0
100
AcDbLine
 10
230.1615701631901
 20
299.5651052800108
 30
0.0
 11
230.1615701631892
 21
375.5651052800109
 31
0.0
  0
LINE
  5
2D11
330
2
100
AcDbEntity
  8
0
100
AcDbLine
 10
229.6615701631824
 20
304.5651052800106
 30
0.0
 11
229.6615701631828
 21
302.5651052800161
 31
0.0
  0
LINE
  5
2D12
330
2
100
AcDbEntity
  8
0
100
AcDbLine
 10
229.6615701631883
 20
302.5651052800109
 30
0.0
 11
230.1615701631883
 21
302.0651052800111
 31
0.0
  0
LINE
  5
2D13
330
2
100
AcDbEntity
  8
0
100
AcDbLine
 10
229.6615701631883
 20
302.5651052800109
 30
0.0
 11
229.6615701631874
 21
304.5651052800106
 31
0.0
  0
LINE
  5
2D14
330
2
100
AcDbEntity
  8
0
100
AcDbLine
 10
237.6441170921818
 20
286.6132553635034
 30
0.0
 11
243.1615701631783
 21
286.5651052800112
 31
0.0
  0
ARC
  5
2D15
330
2
100
AcDbEntity
  8
0
100
AcDbCircle
 10
237.6615701631783
 20
288.6131792096317
 30
0.0
 40
2.0
100
AcDbArc
 50
180.0
 51
269.5000000000084
  0
LINE
  5
2D16
330
2
100
AcDbEntity
  8
0
100
AcDbLine
 10
243.1615701631788
 20
286.5651052800111
 30
0.0
 11
243.1615701631774
 21
388.5651052800099
 31
0.0
  0
LINE
  5
2D17
330
2
100
AcDbEntity
  8
0
 48
0.3
100
AcDbLine
 10
235.6615701631783
 20
288.6131792096317
 30
0.0
 11
235.6615701631774
 21
386.5170313503882
 31
0.0
  0
LINE
  5
2D18
330
2
100
AcDbEntity
  8
0
 48
0.5
100
AcDbLine
 10
224.3615701631872
 20
305.2651052800092
 30
0.0
 11
225.9615701631876
 21
305.2651052800097
 31
0.0
  0
LINE
  5
2D19
330
2
100
AcDbEntity
  8
0
100
AcDbLine
 10
226.1615701631874
 20
304.7651052800099
 30
0.0
 11
226.1615701631869
 21
370.3651052800114
 31
0.0
  0
LINE
  5
2D1A
330
2
100
AcDbEntity
  8
0
 48
0.5
100
AcDbLine
 10
226.1615701631874
 20
304.7651052800099
 30
0.0
 11
226.3615701631872
 21
304.5651052800097
 31
0.0
  0
LINE
  5
2D1B
330
2
100
AcDbEntity
  8
0
100
AcDbLine
 10
222.6615701631874
 20
304.5651052800087
 30
0.0
 11
221.6615701631874
 21
305.1424555491982
 31
0.0
  0
LINE
  5
2D1C
330
2
100
AcDbEntity
  8
0
 48
0.5
100
AcDbLine
 10
222.6615701631874
 20
304.5651052800087
 30
0.0
 11
223.9615701631876
 21
304.5651052800093
 31
0.0
  0
ARC
  5
2D1D
330
2
100
AcDbEntity
  8
HIDS
  6
SEKKEI_H
 48
0.3
100
AcDbCircle
 10
233.6615701631783
 20
290.2366781552742
 30
0.0
 40
2.0
100
AcDbArc
 50
0.0
 51
45.0000000000274
  0
ARC
  5
2D1E
330
2
100
AcDbEntity
  8
HIDS
  6
SEKKEI_H
 48
0.5
100
AcDbCircle
 10
232.1615701631901
 20
297.3935324047505
 30
0.0
 40
2.0
100
AcDbArc
 50
180.0000000000195
 51
225.0000000000274
  0
ARC
  5
2D1F
330
2
100
AcDbEntity
  8
0
100
AcDbCircle
 10
223.9615701631876
 20
304.7651052800093
 30
0.0
 40
0.2
100
AcDbArc
 50
270.000000000026
 51
0.0
  0
ARC
  5
2D20
330
2
100
AcDbEntity
  8
0
 48
0.5
100
AcDbCircle
 10
224.3615701631872
 20
305.0651052800092
 30
0.0
 40
0.2
100
AcDbArc
 50
90.00000000002605
 51
180.0
  0
ARC
  5
2D21
330
2
100
AcDbEntity
  8
0
100
AcDbCircle
 10
225.9615701631876
 20
305.0651052800097
 30
0.0
 40
0.2
100
AcDbArc
 50
0.0
 51
90.00000000002605
  0
LINE
  5
2D22
330
2
100
AcDbEntity
  8
0
 48
12.0
100
AcDbLine
 10
222.6615701631869
 20
370.5651052800126
 30
0.0
 11
222.6615701631874
 21
304.5651052800087
 31
0.0
  0
LINE
  5
2D23
330
2
100
AcDbEntity
  8
0
 48
12.0
100
AcDbLine
 10
226.3615701631867
 20
370.5651052800117
 30
0.0
 11
226.3615701631872
 21
304.5651052800097
 31
0.0
  0
LINE
  5
2D24
330
2
100
AcDbEntity
  8
0
 48
12.0
100
AcDbLine
 10
229.661570163187
 20
370.5651052800108
 30
0.0
 11
229.6615701631874
 21
304.5651052800106
 31
0.0
  0
LINE
  5
2D25
330
2
100
AcDbEntity
  8
CENTER
  6
CENTERX2
100
AcDbLine
 10
238.6615701631778
 20
380.5651052800108
 30
0.0
 11
225.1615701631765
 21
380.5651052800108
 31
0.0
  0
LINE
  5
2D26
330
2
100
AcDbEntity
  8
0
 48
12.0
100
AcDbLine
 10
235.6615701631774
 20
375.5651052800108
 30
0.0
 11
235.6615701631774
 21
385.5651052800108
 31
0.0
  0
LINE
  5
2D27
330
2
100
AcDbEntity
  8
CENTER
  6
CENTERX2
100
AcDbLine
 10
238.6615701631783
 20
294.5651052800108
 30
0.0
 11
225.1615701631774
 21
294.5651052800108
 31
0.0
  0
LINE
  5
2D28
330
2
100
AcDbEntity
  8
0
 48
12.0
100
AcDbLine
 10
235.6615701631783
 20
289.5651052800108
 30
0.0
 11
235.6615701631783
 21
299.5651052800108
 31
0.0
  0
LINE
  5
2D29
330
2
100
AcDbEntity
  8
HIDS
  6
SEKKEI_H
100
AcDbLine
 10
230.1615701631892
 20
377.7366781552717
 30
0.0
 11
230.1615701631892
 21
375.5651052800109
 31
0.0
  0
LINE
  5
2D2A
330
2
100
AcDbEntity
  8
HIDS
  6
SEKKEI_H
100
AcDbLine
 10
230.1615701631901
 20
299.5651052800108
 30
0.0
 11
230.1615701631901
 21
297.3935324047498
 31
0.0
  0
LINE
  5
2D2B
330
2
100
AcDbEntity
  8
0
100
AcDbLine
 10
228.561570163177
 20
385.5651052800108
 30
0.0
 11
228.1615701631774
 21
384.8722849569836
 31
0.0
  0
LINE
  5
2D2C
330
2
100
AcDbEntity
  8
0
100
AcDbLine
 10
228.561570163177
 20
385.5651052800108
 30
0.0
 11
228.561570163177
 21
375.5651052800108
 31
0.0
  0
LINE
  5
2D2D
330
2
100
AcDbEntity
  8
0
100
AcDbLine
 10
234.161570163177
 20
385.5651052800108
 30
0.0
 11
228.561570163177
 21
385.5651052800108
 31
0.0
  0
LINE
  5
2D2E
330
2
100
AcDbEntity
  8
0
100
AcDbLine
 10
234.161570163177
 20
375.5651052800108
 30
0.0
 11
228.561570163177
 21
375.5651052800108
 31
0.0
  0
LINE
  5
2D2F
330
2
100
AcDbEntity
  8
0
100
AcDbLine
 10
228.561570163177
 20
375.5651052800108
 30
0.0
 11
228.1615701631774
 21
376.2579256030381
 31
0.0
  0
LINE
  5
2D30
330
2
100
AcDbEntity
  8
0
100
AcDbLine
 10
228.1615701631774
 20
384.8722849569836
 30
0.0
 11
228.1615701631774
 21
376.2579256030381
 31
0.0
  0
LINE
  5
2D31
330
2
100
AcDbEntity
  8
0
100
AcDbLine
 10
228.5615701631779
 20
299.5651052800108
 30
0.0
 11
228.1615701631783
 21
298.8722849569835
 31
0.0
  0
LINE
  5
2D32
330
2
100
AcDbEntity
  8
0
100
AcDbLine
 10
228.5615701631779
 20
299.5651052800108
 30
0.0
 11
228.5615701631779
 21
289.5651052800108
 31
0.0
  0
LINE
  5
2D33
330
2
100
AcDbEntity
  8
0
100
AcDbLine
 10
234.1615701631778
 20
299.5651052800108
 30
0.0
 11
228.5615701631779
 21
299.5651052800108
 31
0.0
  0
LINE
  5
2D34
330
2
100
AcDbEntity
  8
0
100
AcDbLine
 10
234.1615701631774
 20
289.5651052800108
 30
0.0
 11
228.5615701631779
 21
289.5651052800108
 31
0.0
  0
LINE
  5
2D35
330
2
100
AcDbEntity
  8
0
100
AcDbLine
 10
228.5615701631779
 20
289.5651052800108
 30
0.0
 11
228.1615701631783
 21
290.2579256030381
 31
0.0
  0
LINE
  5
2D36
330
2
100
AcDbEntity
  8
0
100
AcDbLine
 10
228.1615701631783
 20
298.8722849569835
 30
0.0
 11
228.1615701631783
 21
290.2579256030381
 31
0.0
  0
LINE
  5
2D37
330
2
100
AcDbEntity
  8
0
100
AcDbLine
 10
243.161570163176
 20
380.5651052800044
 30
0.0
 11
324.1584859313759
 21
380.5651052800045
 31
0.0
  0
LINE
  5
2D38
330
2
100
AcDbEntity
  8
0
100
AcDbLine
 10
243.1615701631765
 20
377.5651052800129
 30
0.0
 11
324.1584859313759
 21
377.5651052800129
 31
0.0
  0
LINE
  5
2D39
330
2
100
AcDbEntity
  8
0
100
AcDbLine
 10
243.1615701631774
 20
358.1052044572075
 30
0.0
 11
324.1584859313759
 21
358.1052044572074
 31
0.0
  0
LINE
  5
2D3A
330
2
100
AcDbEntity
  8
0
100
AcDbLine
 10
243.1615701631796
 20
294.5651052800046
 30
0.0
 11
324.1584859313759
 21
294.5651052800173
 31
0.0
  0
LINE
  5
2D3B
330
2
100
AcDbEntity
  8
0
100
AcDbLine
 10
243.1615701631796
 20
297.5651052800108
 30
0.0
 11
324.1584859313759
 21
297.5651052800089
 31
0.0
  0
LINE
  5
2D3C
330
2
100
AcDbEntity
  8
0
100
AcDbLine
 10
243.1615701631788
 20
317.0250061028452
 30
0.0
 11
324.1584859313759
 21
317.0250061028144
 31
0.0
  0
LINE
  5
2D3D
330
2
100
AcDbEntity
  8
0
100
AcDbLine
 10
243.1615701631765
 20
377.5651052800129
 30
0.0
 11
237.1615701631778
 21
377.5651052800129
 31
0.0
  0
LINE
  5
2D3E
330
2
100
AcDbEntity
  8
0
100
AcDbLine
 10
243.161570163176
 20
380.5651052800044
 30
0.0
 11
237.1615701631778
 21
380.5651052800108
 31
0.0
  0
LINE
  5
2D3F
330
2
100
AcDbEntity
  8
0
100
AcDbLine
 10
243.1615701631774
 20
358.1052044572073
 30
0.0
 11
237.1615701631778
 21
358.1052044572075
 31
0.0
  0
LINE
  5
2D40
330
2
100
AcDbEntity
  8
0
100
AcDbLine
 10
243.1615701631788
 20
317.025006102845
 30
0.0
 11
237.1615701631783
 21
317.025006102845
 31
0.0
  0
LINE
  5
2D41
330
2
100
AcDbEntity
  8
0
100
AcDbLine
 10
243.1615701631783
 20
294.5651052800046
 30
0.0
 11
237.1615701631783
 21
294.5651052800046
 31
0.0
  0
LINE
  5
2D42
330
2
100
AcDbEntity
  8
0
100
AcDbLine
 10
243.1615701631796
 20
297.5651052800108
 30
0.0
 11
237.1615701631783
 21
297.5651052800108
 31
0.0
  0
LINE
  5
2D43
330
2
100
AcDbEntity
  8
0
100
AcDbLine
 10
235.6615701631783
 20
300.3151052800108
 30
0.0
 11
234.1615701631778
 21
300.3151052800108
 31
0.0
  0
LINE
  5
2D44
330
2
100
AcDbEntity
  8
0
100
AcDbLine
 10
235.6615701631783
 20
288.8151052800109
 30
0.0
 11
234.1615701631774
 21
288.8151052800108
 31
0.0
  0
LINE
  5
2D45
330
2
100
AcDbEntity
  8
0
100
AcDbLine
 10
234.1615701631778
 20
300.3151052800108
 30
0.0
 11
234.1615701631774
 21
288.8151052800108
 31
0.0
  0
LINE
  5
2D46
330
2
100
AcDbEntity
  8
0
 48
12.0
100
AcDbLine
 10
235.6615701631783
 20
288.8151052800109
 30
0.0
 11
235.6615701631783
 21
300.3151052800108
 31
0.0
  0
LINE
  5
2D47
330
2
100
AcDbEntity
  8
0
100
AcDbLine
 10
235.6615701631779
 20
386.3151052800109
 30
0.0
 11
234.1615701631774
 21
386.3151052800109
 31
0.0
  0
LINE
  5
2D48
330
2
100
AcDbEntity
  8
0
100
AcDbLine
 10
235.6615701631774
 20
374.8151052800109
 30
0.0
 11
234.1615701631765
 21
374.8151052800108
 31
0.0
  0
LINE
  5
2D49
330
2
100
AcDbEntity
  8
0
100
AcDbLine
 10
234.1615701631774
 20
386.3151052800109
 30
0.0
 11
234.1615701631765
 21
374.8151052800108
 31
0.0
  0
LINE
  5
2D4A
330
2
100
AcDbEntity
  8
0
 48
12.0
100
AcDbLine
 10
235.6615701631774
 20
374.8151052800109
 30
0.0
 11
235.6615701631779
 21
386.3151052800109
 31
0.0
  0
ARC
  5
2D4B
330
2
100
AcDbEntity
  8
0
100
AcDbCircle
 10
229.5835232489046
 20
380.565105280009
 30
0.0
 40
8.0
100
AcDbArc
 50
134.6047454893947
 51
179.4382946674162
  0
LINE
  5
2D4D
330
2
100
AcDbEntity
  8
0
100
AcDbLine
 10
221.5839076887034
 20
380.643532883541
 30
0.0
 11
221.1615701631802
 21
337.5651052800106
 31
0.0
  0
ARC
  5
2D4E
330
2
100
AcDbEntity
  8
0
100
AcDbCircle
 10
229.5835232489046
 20
294.5651052800135
 30
0.0
 40
8.0
100
AcDbArc
 50
180.5617053325576
 51
225.3952545026044
  0
LINE
  5
2D4F
330
2
100
AcDbEntity
  8
0
100
AcDbLine
 10
221.5839076887034
 20
294.4866776764816
 30
0.0
 11
221.1615701631802
 21
337.5651052800107
 31
0.0
  0
LINE
  5
2D57
330
2
100
AcDbEntity
  8
0
100
AcDbLine
 10
354.6616756740947
 20
340.5651052800109
 30
0.0
 11
386.6616756740948
 21
340.5651052800109
 31
0.0
  0
LINE
  5
2D58
330
2
100
AcDbEntity
  8
0
100
AcDbLine
 10
386.6615701631794
 20
348.5651628667628
 30
0.0
 11
346.6615701631797
 21
348.5651504426753
 31
0.0
  0
LINE
  5
2D59
330
2
100
AcDbEntity
  8
0
100
AcDbLine
 10
354.6616756740947
 20
334.5651052800109
 30
0.0
 11
386.6616756740948
 21
334.5651052800109
 31
0.0
  0
LINE
  5
2D5A
330
2
100
AcDbEntity
  8
0
100
AcDbLine
 10
346.6615701631797
 20
326.5651504426736
 30
0.0
 11
386.6615701631799
 21
326.565164737455
 31
0.0
  0
LINE
  5
2D5B
330
2
100
AcDbEntity
  8
0
100
AcDbLine
 10
345.6615701631797
 20
353.7764301454163
 30
0.0
 11
345.6615701631797
 21
321.3537804146058
 31
0.0
  0
ARC
  5
2D5C
330
2
100
AcDbEntity
  8
0
100
AcDbCircle
 10
354.6616756740947
 20
337.565105280011
 30
0.0
 40
3.0
100
AcDbArc
 50
90.0
 51
270.0
  0
LINE
  5
2D5D
330
2
100
AcDbEntity
  8
0
100
AcDbLine
 10
346.6615701631797
 20
349.5651504426754
 30
0.0
 11
346.6621346964718
 21
325.5651504554214
 31
0.0
  0
LINE
  5
2D5E
330
2
100
AcDbEntity
  8
0
100
AcDbLine
 10
345.4115701631796
 20
320.9207677127137
 30
0.0
 11
345.2597316334065
 21
320.8331036966761
 31
0.0
  0
ARC
  5
2D5F
330
2
100
AcDbEntity
  8
0
100
AcDbCircle
 10
344.2597316334065
 20
322.5651545042449
 30
0.0
 40
2.0
100
AcDbArc
 50
281.5907202811201
 51
300.0000000000008
  0
ARC
  5
2D60
330
2
100
AcDbEntity
  8
0
100
AcDbCircle
 10
345.1615701631796
 20
321.3537804146058
 30
0.0
 40
0.5
100
AcDbArc
 50
300.0000000000008
 51
0.0
  0
LINE
  5
2D61
330
2
100
AcDbEntity
  8
0
100
AcDbLine
 10
346.6615701631797
 20
325.5650601173467
 30
0.0
 11
345.6615701631797
 21
324.987709848157
 31
0.0
  0
LINE
  5
2D62
330
2
100
AcDbEntity
  8
0
100
AcDbLine
 10
346.6615701631797
 20
349.5651504426754
 30
0.0
 11
345.6615701631797
 21
350.1425007118651
 31
0.0
  0
LINE
  5
2D63
330
2
100
AcDbEntity
  8
0
100
AcDbLine
 10
345.4115701631796
 20
354.2094428473085
 30
0.0
 11
345.2597316334065
 21
354.297106863346
 31
0.0
  0
ARC
  5
2D64
330
2
100
AcDbEntity
  8
0
100
AcDbCircle
 10
344.2597316334065
 20
352.5650560557772
 30
0.0
 40
2.0
100
AcDbArc
 50
59.99999999999915
 51
78.40927971887977
  0
ARC
  5
2D65
330
2
100
AcDbEntity
  8
0
100
AcDbCircle
 10
345.1615701631796
 20
353.7764301454163
 30
0.0
 40
0.5
100
AcDbArc
 50
0.0
 51
59.99999999999915
  0
LINE
  5
2D66
330
2
100
AcDbEntity
  8
0
100
AcDbLine
 10
386.6615701631799
 20
326.565164737455
 30
0.0
 11
386.6615701631794
 21
348.5651628667628
 31
0.0
  0
LINE
  5
2ECE
330
2
100
AcDbEntity
  8
0
100
AcDbLine
 10
863.4340492986043
 20
321.353780414606
 30
0.0
 11
863.4340492986043
 21
353.7764301454169
 31
0.0
  0
LINE
  5
2ECF
330
2
100
AcDbEntity
  8
0
100
AcDbLine
 10
822.4340492986041
 20
348.5650469657951
 30
0.0
 11
822.4340492986042
 21
326.5650465171692
 31
0.0
  0
LINE
  5
2ED0
330
2
100
AcDbEntity
  8
0
100
AcDbLine
 10
862.4340492986043
 20
325.5650601173472
 30
0.0
 11
862.4334847653122
 21
349.5650601046006
 31
0.0
  0
LINE
  5
2ED1
330
2
100
AcDbEntity
  8
0
100
AcDbLine
 10
822.4340492986042
 20
326.5650465171692
 30
0.0
 11
862.4340492986043
 21
326.5650601173472
 31
0.0
  0
LINE
  5
2ED2
330
2
100
AcDbEntity
  8
0
100
AcDbLine
 10
863.6840492986044
 20
320.9207677127139
 30
0.0
 11
863.8358878283774
 21
320.8331036966762
 31
0.0
  0
LINE
  5
2ED3
330
2
100
AcDbEntity
  8
0
100
AcDbLine
 10
862.4340492986043
 20
325.5650601173472
 30
0.0
 11
863.4340492986043
 21
324.9877098481572
 31
0.0
  0
ARC
  5
2ED4
330
2
100
AcDbEntity
  8
0
100
AcDbCircle
 10
864.8358878283774
 20
322.5651545042453
 30
0.0
 40
2.0
100
AcDbArc
 50
239.9999999999995
 51
258.4092797188797
  0
ARC
  5
2ED5
330
2
100
AcDbEntity
  8
0
100
AcDbCircle
 10
863.9340492986043
 20
321.353780414606
 30
0.0
 40
0.5
100
AcDbArc
 50
180.0
 51
239.9999999999995
  0
LINE
  5
2ED6
330
2
100
AcDbEntity
  8
0
100
AcDbLine
 10
862.4340492986043
 20
348.565060117349
 30
0.0
 11
822.4340492986042
 21
348.5650469657952
 31
0.0
  0
LINE
  5
2ED7
330
2
100
AcDbEntity
  8
0
100
AcDbLine
 10
862.4340492986043
 20
349.5651504426757
 30
0.0
 11
863.4340492986043
 21
350.1425007118648
 31
0.0
  0
LINE
  5
2ED8
330
2
100
AcDbEntity
  8
0
100
AcDbLine
 10
863.6840492986044
 20
354.2094428473089
 30
0.0
 11
863.8358878283774
 21
354.2971068633467
 31
0.0
  0
ARC
  5
2ED9
330
2
100
AcDbEntity
  8
0
100
AcDbCircle
 10
864.8358878283774
 20
352.5650560557776
 30
0.0
 40
2.0
100
AcDbArc
 50
101.5907202811202
 51
120.0000000000004
  0
ARC
  5
2EDA
330
2
100
AcDbEntity
  8
0
100
AcDbCircle
 10
863.9340492986043
 20
353.7764301454169
 30
0.0
 40
0.5
100
AcDbArc
 50
120.0000000000004
 51
180.0
  0
LINE
  5
2EF5
330
2
100
AcDbEntity
  8
0
100
AcDbLine
 10
535.0209815098339
 20
573.5377674500482
 30
0.0
 11
535.0209834791355
 21
568.5376619391331
 31
0.0
  0
LINE
  5
2EF6
330
2
100
AcDbEntity
  8
0
100
AcDbLine
 10
557.0209959581986
 20
533.5377674500484
 30
0.0
 11
557.0209815098357
 21
573.5377674500482
 31
0.0
  0
LINE
  5
2EF7
330
2
100
AcDbEntity
  8
0
100
AcDbLine
 10
535.4378679906046
 20
565.5376619391331
 30
0.0
 11
535.4378679906046
 21
533.5377674500482
 31
0.0
  0
LINE
  5
2EF8
330
2
100
AcDbEntity
  8
0
100
AcDbLine
 10
532.5209970670019
 20
568.5376619391331
 30
0.0
 11
532.5209970670019
 21
533.5377674500482
 31
0.0
  0
LINE
  5
2EF9
330
2
100
AcDbEntity
  8
0
100
AcDbLine
 10
532.5209970670019
 20
533.5377674500482
 30
0.0
 11
557.0209959581986
 21
533.5377674500482
 31
0.0
  0
LINE
  5
2EFA
330
2
100
AcDbEntity
  8
0
100
AcDbLine
 10
535.0209834791374
 20
568.5376619391331
 30
0.0
 11
535.4378679906046
 21
565.5376619391331
 31
0.0
  0
LINE
  5
2EFB
330
2
100
AcDbEntity
  8
0
100
AcDbLine
 10
535.0209834791383
 20
568.5376619391331
 30
0.0
 11
532.5209970670019
 21
568.5376619391331
 31
0.0
  0
LINE
  5
2EFC
330
2
100
AcDbEntity
  8
0
100
AcDbLine
 10
558.0209815098357
 20
573.5377674500482
 30
0.0
 11
534.0209815225823
 21
573.537202916756
 31
0.0
  0
LINE
  5
2EFD
330
2
100
AcDbEntity
  8
0
100
AcDbLine
 10
562.232261212577
 20
574.5377674500482
 30
0.0
 11
529.809611481766
 21
574.5377674500482
 31
0.0
  0
ARC
  5
2EFE
330
2
100
AcDbEntity
  8
0
100
AcDbCircle
 10
531.0209855714053
 20
575.9396059798214
 30
0.0
 40
2.0
100
AcDbArc
 50
191.5907202811264
 51
210.0000000000207
  0
LINE
  5
2EFF
330
2
100
AcDbEntity
  8
0
100
AcDbLine
 10
529.376598779874
 20
574.7877674500482
 30
0.0
 11
529.2889347638363
 21
574.9396059798214
 31
0.0
  0
ARC
  5
2F00
330
2
100
AcDbEntity
  8
0
100
AcDbCircle
 10
529.809611481766
 20
575.0377674500482
 30
0.0
 40
0.5
100
AcDbArc
 50
210.0000000000207
 51
270.0
  0
LINE
  5
2F01
330
2
100
AcDbEntity
  8
0
100
AcDbLine
 10
534.0208911845072
 20
573.5377674500482
 30
0.0
 11
533.4435409153181
 21
574.5377674500482
 31
0.0
  0
ARC
  5
2F02
330
2
100
AcDbEntity
  8
0
100
AcDbCircle
 10
561.0208871229376
 20
575.9396059798214
 30
0.0
 40
2.0
100
AcDbArc
 50
329.9999999999792
 51
348.4092797188734
  0
LINE
  5
2F03
330
2
100
AcDbEntity
  8
0
100
AcDbLine
 10
562.665273914469
 20
574.7877674500482
 30
0.0
 11
562.7529379305067
 21
574.9396059798214
 31
0.0
  0
ARC
  5
2F04
330
2
100
AcDbEntity
  8
0
100
AcDbCircle
 10
562.232261212577
 20
575.0377674500482
 30
0.0
 40
0.5
100
AcDbArc
 50
270.0
 51
329.9999999999792
  0
LINE
  5
2F05
330
2
100
AcDbEntity
  8
0
100
AcDbLine
 10
558.0209815098357
 20
573.5377674500482
 30
0.0
 11
558.5983317790257
 21
574.5377674500482
 31
0.0
  0
CIRCLE
  5
2F16
330
2
100
AcDbEntity
  8
0
100
AcDbCircle
 10
546.020936347172
 20
337.5651052800107
 30
0.0
 40
16.99995399999989
  0
ARC
  5
2F17
330
2
100
AcDbEntity
  8
0
100
AcDbCircle
 10
546.020936347172
 20
337.5651052800085
 30
0.0
 40
12.57739543185027
100
AcDbArc
 50
193.7993919727374
 51
166.2006080272625
  0
LINE
  5
2F18
330
2
100
AcDbEntity
  8
0
100
AcDbLine
 10
532.5209970669982
 20
340.5651052800085
 30
0.0
 11
532.5209970669982
 21
334.5651052800085
 31
0.0
  0
LINE
  5
2F19
330
2
100
AcDbEntity
  8
0
100
AcDbLine
 10
538.5209970669982
 20
340.5651052800085
 30
0.0
 11
538.5209970669982
 21
334.5651052800085
 31
0.0
  0
ARC
  5
2F1A
330
2
100
AcDbEntity
  8
0
100
AcDbCircle
 10
546.020936347172
 20
337.5651052800085
 30
0.0
 40
12.00004516266062
100
AcDbArc
 50
194.4774565092227
 51
165.5225434907773
  0
ARC
  5
2F1B
330
2
100
AcDbEntity
  8
0
100
AcDbCircle
 10
546.020936347172
 20
337.5651052800085
 30
0.0
 40
11.00006071982613
100
AcDbArc
 50
195.8265304777605
 51
164.1734695222363
  0
LINE
  5
2F1C
330
2
100
AcDbEntity
  8
0
100
AcDbLine
 10
532.5209970669982
 20
334.5651052800085
 30
0.0
 11
538.5209970669982
 21
334.5651052800085
 31
0.0
  0
LINE
  5
2F1D
330
2
100
AcDbEntity
  8
0
100
AcDbLine
 10
532.5209970669982
 20
340.5651052800085
 30
0.0
 11
538.5209970669982
 21
340.5651052800085
 31
0.0
  0
LINE
  5
30CD
330
2
100
AcDbEntity
  8
CENTER
100
AcDbLine
 10
481.0209363471719
 20
337.5651052800075
 30
0.0
 11
736.5209583471752
 21
337.565105280009
 31
0.0
  0
LINE
  5
30CE
330
2
100
AcDbEntity
  8
CENTER
100
AcDbLine
 10
546.020936347172
 20
402.5651052800076
 30
0.0
 11
546.020936347172
 21
272.5651052800075
 31
0.0
  0
SPLINE
  5
31EE
330
2
100
AcDbEntity
  8
HOJO
100
AcDbSpline
210
0.0
220
0.0
230
1.0
 70
     8
 71
     3
 72
    20
 73
    16
 74
     0
 42
0.0000000001
 43
0.0000000001
 40
0.0
 40
0.0
 40
0.0
 40
0.0
 40
10.36993282177743
 40
16.30371211690467
 40
22.46412091066676
 40
30.12711443002843
 40
39.57908467708598
 40
48.05835774814536
 40
53.91763599907932
 40
60.02314881903616
 40
64.41726715555319
 40
70.98949777462724
 40
83.26840745268052
 40
92.52386187203924
 40
96.70774074775394
 40
96.70774074775394
 40
96.70774074775394
 40
96.70774074775394
 10
644.5240378014973
 20
337.5651052800087
 30
0.0
 10
644.5240378014973
 20
337.5651052800087
 30
0.0
 10
647.4118577657777
 20
346.9153449350177
 30
0.0
 10
652.8513511091619
 20
354.3052574311416
 30
0.0
 10
660.4996455826458
 20
357.2686695869174
 30
0.0
 10
668.1679377013574
 20
356.3942166290341
 30
0.0
 10
676.1125408859884
 20
357.2154688147942
 30
0.0
 10
684.9954404537561
 20
357.2215061392761
 30
0.0
 10
691.6563547980422
 20
357.4440108140497
 30
0.0
 10
696.658153809246
 20
357.5506410517679
 30
0.0
 10
701.5075247530699
 20
357.4436396107846
 30
0.0
 10
705.8109986772738
 20
364.3974910863384
 30
0.0
 10
708.5817280480077
 20
375.2997159263072
 30
0.0
 10
712.0598787607027
 20
379.3070195319014
 30
0.0
 10
714.2410937213607
 20
380.8981555770121
 30
0.0
 10
716.3044017501333
 20
382.5651052800084
 30
0.0
  0
ENDSEC
  0
SECTION
  2
OBJECTS
  0
DICTIONARY
  5
7
330
0
100
AcDbDictionary
  3
ACAD_COLOR
350
832
  3
ACAD_GROUP
350
75
  3
ACAD_LAYOUT
350
61
  3
ACAD_MATERIAL
350
808
  3
ACAD_MLEADERSTYLE
350
857
  3
ACAD_MLINESTYLE
350
76
  3
ACAD_PLOTSETTINGS
350
77
  3
ACAD_PLOTSTYLENAME
350
6
  3
ACAD_SCALELIST
350
835
  3
ACAD_TABLESTYLE
350
833
  3
ACAD_VISUALSTYLE
350
821
  3
ACADDIM
350
480
  3
ACDB_RECOMPOSE_DATA
350
88E
  3
ACDBHEADERROUNDTRIPXREC
350
3240
  3
ACDBVARIABLEDICTIONARY
350
102
  3
DWGPROPS
350
3216
  0
DICTIONARY
  5
1AA9
330
6E
100
AcDbDictionary
280
     1
  3
ACAD_XREC_ROUNDTRIP
360
321A
  0
DICTIONARY
  5
86B
330
66
100
AcDbDictionary
280
     1
  3
ACAD_LAYERSTATES
360
86C
  0
DICTIONARY
  5
128D
330
5E
100
AcDbDictionary
280
     1
  3
ADSK_XREC_LAYER_RECONCILED
360
128E
  0
DICTIONARY
  5
128F
330
3E
100
AcDbDictionary
280
     1
  3
ADSK_XREC_LAYER_RECONCILED
360
1290
  0
DICTIONARY
  5
1295
330
2B5
100
AcDbDictionary
280
     1
  3
ADSK_XREC_LAYER_RECONCILED
360
1296
  0
DICTIONARY
  5
1297
330
2BA
100
AcDbDictionary
280
     1
  3
ADSK_XREC_LAYER_RECONCILED
360
1298
  0
DICTIONARY
  5
129B
330
3FA
100
AcDbDictionary
280
     1
  3
ADSK_XREC_LAYER_RECONCILED
360
129C
  0
DICTIONARY
  5
1236
330
2
100
AcDbDictionary
280
     1
  3
ACAD_LAYOUTSELFREF
360
3261
  3
ACAD_SORTENTS
360
1237
  0
DICTIONARY
  5
3262
330
323A
100
AcDbDictionary
280
     1
  3
ACAD_LAYOUTSELFREF
360
3263
  0
DICTIONARY
  5
832
102
{ACAD_REACTORS
330
7
102
}
330
7
100
AcDbDictionary
  0
DICTIONARY
  5
75
102
{ACAD_REACTORS
330
7
102
}
330
7
100
AcDbDictionary
  0
DICTIONARY
  5
61
102
{ACAD_REACTORS
330
7
102
}
330
7
100
AcDbDictionary
  0
DICTIONARY
  5
808
102
{ACAD_REACTORS
330
7
102
}
330
7
100
AcDbDictionary
  3
BYBLOCK
350
811
  3
BYLAYER
350
809
  3
GLOBAL
350
819
  0
DICTIONARY
  5
857
102
{ACAD_REACTORS
330
7
102
}
330
7
100
AcDbDictionary
  3
STANDARD
350
858
  0
DICTIONARY
  5
76
102
{ACAD_REACTORS
330
7
102
}
330
7
100
AcDbDictionary
  3
STANDARD
350
78
  0
DICTIONARY
  5
77
102
{ACAD_REACTORS
330
7
102
}
330
7
100
AcDbDictionary
  0
ACDBDICTIONARYWDFLT
  5
6
102
{ACAD_REACTORS
330
7
102
}
330
7
100
AcDbDictionary
281
     1
  3
Normal
350
5
100
AcDbDictionaryWithDefault
340
5
  0
DICTIONARY
  5
835
102
{ACAD_REACTORS
330
7
102
}
330
7
100
AcDbDictionary
  3
A0
350
836
  3
A1
350
837
  3
A2
350
838
  3
A3
350
839
  3
A4
350
83A
  3
A5
350
83B
  3
A6
350
83C
  3
A7
350
83D
  3
A8
350
83E
  3
A9
350
83F
  3
B0
350
840
  3
B1
350
841
  3
B2
350
842
  3
B3
350
843
  3
B4
350
844
  3
B5
350
845
  3
B6
350
846
  3
B7
350
847
  3
B8
350
848
  3
B9
350
849
  3
C0
350
84A
  3
C1
350
84B
  3
C2
350
84C
  3
C3
350
84D
  3
C4
350
84E
  3
C5
350
84F
  3
C6
350
850
  3
C7
350
851
  3
C8
350
852
  3
C9
350
853
  3
D0
350
854
  3
D1
350
855
  3
D2
350
856
  0
DICTIONARY
  5
833
102
{ACAD_REACTORS
330
7
102
}
330
7
100
AcDbDictionary
  3
STANDARD
350
834
  0
DICTIONARY
  5
821
102
{ACAD_REACTORS
330
7
102
}
330
7
100
AcDbDictionary
  3
2DWIREFRAME
350
827
  3
3D_HIDDEN
350
829
  3
3DWIREFRAME
350
828
  3
BASIC
350
826
  3
BRIGHTEN
350
82D
  3
COLORCHANGE
350
831
  3
CONCEPTUAL
350
82A
  3
DIM
350
82C
  3
FACEPATTERN
350
830
  3
FLAT
350
822
  3
FLATWITHEDGES
350
823
  3
GOURAUD
350
824
  3
GOURAUDWITHEDGES
350
825
  3
LINEPATTERN
350
82F
  3
REALISTIC
350
82B
  3
THICKEN
350
82E
  0
XRECORD
  5
480
102
{ACAD_REACTORS
330
7
102
}
330
7
100
AcDbXrecord
 90
   990106
  3

 60
     0
 61
     0
 62
     1
 63
     3
 64
     1
 65
     0
 66
     0
 67
     3
 68
     1
 69
     0
 70
     0
 71
     0
 72
     0
 40
0.0
170
     2
340
0
  0
XRECORD
  5
88E
102
{ACAD_REACTORS
330
7
102
}
330
7
100
AcDbXrecord
 90
        1
330
834
  0
DICTIONARY
  5
3240
102
{ACAD_REACTORS
330
7
102
}
330
7
100
AcDbDictionary
  3
CEPSNTYPE
350
324A
  3
DIMSTYLEDATA
350
324E
  3
FINGERPRINTGUID
350
324B
  3
HYPERLINKBASE
350
3243
  3
INSUNITS
350
3249
  3
LAYOUTDICT
350
3245
  3
LWETCUNION
350
3248
  3
PLOTSETDICT
350
3246
  3
PLOTSTYLNAMDICT
350
3247
  3
PSVPSCALE
350
324D
  3
PUCSBASE
350
3251
  3
PUCSORGBACK
350
3257
  3
PUCSORGBOTTOM
350
3253
  3
PUCSORGFRONT
350
3256
  3
PUCSORGLEFT
350
3254
  3
PUCSORGRIGHT
350
3255
  3
PUCSORGTOP
350
3252
  3
PUCSORTHOREF
350
324F
  3
PUCSORTHOVIEW
350
3250
  3
STYLESHEET
350
3244
  3
TSTACKALIGN
350
3241
  3
TSTACKSIZE
350
3242
  3
UCSBASE
350
325A
  3
UCSORGBACK
350
3260
  3
UCSORGBOTTOM
350
325C
  3
UCSORGFRONT
350
325F
  3
UCSORGLEFT
350
325D
  3
UCSORGRIGHT
350
325E
  3
UCSORGTOP
350
325B
  3
UCSORTHOREF
350
3258
  3
UCSORTHOVIEW
350
3259
  3
VERSIONGUID
350
324C
  0
DICTIONARY
  5
102
102
{ACAD_REACTORS
330
7
102
}
330
7
100
AcDbDictionary
  3
CANNOSCALE
350
892
  3
CMLEADERSTYLE
350
890
  3
CTABLESTYLE
350
88F
  3
DIMASSOC
350
103
  3
INDEXCTL
350
1AB6
  3
LIGHTINGUNITS
350
893
  3
MSLTSCALE
350
891
  3
SORTENTS
350
549
  0
XRECORD
  5
3216
102
{ACAD_REACTORS
330
7
102
}
330
7
100
AcDbXrecord
  1
DWGPROPS COOKIE
  2

  3

  4

  6

  7

  8
knsuzuki
  9

300
=
301
=
302
=
303
=
304
=
305
=
306
=
307
=
308
=
309
=
 40
0.1204611921296296
 41
2454888.679706122
 42
2454904.643026435
  1

 90
        0
  0
XRECORD
  5
321A
102
{ACAD_REACTORS
330
1AA9
102
}
330
1AA9
100
AcDbXrecord
102
VTR_0.000_0.000_1.000_1.000_VISUALSTYLE
340
827
102
VTR_0.000_0.000_1.000_1.000_GRIDDISPLAY
 70
     3
102
VTR_0.000_0.000_1.000_1.000_GRIDMAJOR
 70
     5
102
VTR_0.000_0.000_1.000_1.000_DEFAULTLIGHTING
280
     1
102
VTR_0.000_0.000_1.000_1.000_DEFAULTLIGHTINGTYPE
 70
     1
102
VTR_0.000_0.000_1.000_1.000_BRIGHTNESS
141
0.0
102
VTR_0.000_0.000_1.000_1.000_CONTRAST
142
0.0
  0
DICTIONARY
  5
86C
102
{ACAD_REACTORS
330
86B
102
}
330
86B
100
AcDbDictionary
  0
XRECORD
  5
128E
102
{ACAD_REACTORS
330
128D
102
}
330
128D
100
AcDbXrecord
290
     1
  0
XRECORD
  5
1290
102
{ACAD_REACTORS
330
128F
102
}
330
128F
100
AcDbXrecord
290
     1
  0
XRECORD
  5
1296
102
{ACAD_REACTORS
330
1295
102
}
330
1295
100
AcDbXrecord
290
     1
  0
XRECORD
  5
1298
102
{ACAD_REACTORS
330
1297
102
}
330
1297
100
AcDbXrecord
290
     1
  0
XRECORD
  5
129C
102
{ACAD_REACTORS
330
129B
102
}
330
129B
100
AcDbXrecord
290
     1
  0
XRECORD
  5
3261
102
{ACAD_REACTORS
330
1236
102
}
330
1236
100
AcDbXrecord
340
2
  0
SORTENTSTABLE
  5
1237
102
{ACAD_REACTORS
330
1236
102
}
330
1236
100
AcDbSortentsTable
330
2
331
C1A
  5
C1A
331
BDB
  5
BDB
331
C22
  5
C22
331
BE3
  5
BE3
331
C2A
  5
C2A
331
BEB
  5
BEB
331
D58
  5
D5A
331
CF9
  5
CFA
331
2898
  5
2899
331
2849
  5
284A
331
C53
  5
C53
331
2692
  5
2693
331
BF3
  5
BF3
331
D60
  5
D62
331
D9F
  5
DA1
331
D01
  5
D02
331
28A0
  5
28A1
331
C5B
  5
C5B
331
269A
  5
269B
331
1436
  5
14BF
331
2851
  5
2852
331
2988
  5
298A
331
2949
  5
294B
331
DE6
  5
DE8
331
D68
  5
D6A
331
D09
  5
D0A
331
DA7
  5
DA9
331
28D3
  5
28D5
331
2912
  5
2914
331
CD2
  5
CD3
331
2859
  5
285A
331
139F
  5
13B5
331
2D54
  5
2D56
331
2990
  5
2992
331
291A
  5
291C
331
D11
  5
D12
331
DAF
  5
DB1
331
28DB
  5
28DD
331
2951
  5
2953
331
2D15
  5
2D17
331
C8B
  5
C8C
331
2861
  5
2862
331
2998
  5
299A
331
2CE6
  5
2CE8
331
2922
  5
2924
331
DB7
  5
DB9
331
28E3
  5
28E5
331
2959
  5
295B
331
2D1D
  5
2D1F
331
2D5C
  5
2D5E
331
2CEE
  5
2CF0
331
28EB
  5
28ED
331
2961
  5
2963
331
2D25
  5
2D27
331
2D64
  5
2D66
331
2D2D
  5
2D2F
331
2ED5
  5
2ED8
331
BFB
  5
BFB
331
C03
  5
C03
331
BCC
  5
BCC
331
C0B
  5
C0B
331
D19
  5
D1A
331
D70
  5
D72
331
CDA
  5
CDB
331
2869
  5
2887
331
C34
  5
C34
331
282A
  5
282B
331
1605
  5
1606
331
C13
  5
C13
331
BD4
  5
BD4
331
D21
  5
D22
331
CE2
  5
CE3
331
ED6
  5
ED8
331
C9B
  5
C9C
331
C3C
  5
C3C
331
2832
  5
2833
331
292A
  5
292C
331
28B4
  5
28B5
331
28F3
  5
28F5
331
2969
  5
296B
331
CEA
  5
CEB
331
2889
  5
288A
331
C44
  5
C44
331
CA3
  5
CA4
331
283A
  5
283B
331
2CF6
  5
2CF8
331
2932
  5
2934
331
D51
  5
D53
331
D88
  5
D8A
331
DCF
  5
DD1
331
28BC
  5
28BD
331
28FB
  5
28FD
331
2971
  5
2973
331
2D35
  5
2D37
331
CF2
  5
CF3
331
CAB
  5
CAC
331
2842
  5
2843
331
C4C
  5
C4C
331
268B
  5
268C
331
2891
  5
2892
331
293A
  5
293C
331
28C4
  5
28C5
331
2903
  5
2905
331
2979
  5
297B
331
2CFE
  5
2D00
331
2D3D
  5
2D3F
331
2942
  5
2944
331
28CC
  5
28CE
331
290B
  5
290D
331
2981
  5
2984
331
2D06
  5
2D08
331
2D45
  5
2D47
331
2D0E
  5
2D10
331
2D4D
  5
2D4F
331
2D68
  5
2D6A
331
2D70
  5
2ECE
331
2EF5
  5
2EF6
331
2EFD
  5
2EFF
331
2F05
  5
2F07
331
BDC
  5
BDC
331
C1B
  5
C1B
331
BE4
  5
BE4
331
C23
  5
C23
331
C2B
  5
C2B
331
BEC
  5
BEC
331
D59
  5
D5B
331
CFA
  5
CFB
331
2899
  5
289A
331
284A
  5
284C
331
C54
  5
C54
331
2693
  5
2694
331
BF4
  5
BF4
331
DDF
  5
DE1
331
D61
  5
D63
331
DA0
  5
DA2
331
D02
  5
D03
331
28A1
  5
28A2
331
CCB
  5
CCC
331
C5C
  5
C5C
331
269B
  5
269C
331
2852
  5
2853
331
294A
  5
294C
331
DE7
  5
DE9
331
D69
  5
D6B
331
DA8
  5
DAA
331
28D4
  5
28D6
331
2913
  5
2915
331
2989
  5
298B
331
D0A
  5
D0B
331
CD3
  5
CD4
331
2823
  5
2824
331
285A
  5
285B
331
1596
  5
15E9
331
28A9
  5
28AA
331
2D55
  5
2D57
331
2991
  5
2993
331
291B
  5
291D
331
DB0
  5
DB2
331
D12
  5
D13
331
28DC
  5
28DE
331
2952
  5
2954
331
2D16
  5
2D18
331
C8C
  5
C8D
331
2862
  5
2863
331
2999
  5
299B
331
2CE7
  5
2CE9
331
2923
  5
2925
331
28E4
  5
28E6
331
295A
  5
295C
331
2D1E
  5
2D20
331
2D5D
  5
2D5F
331
2CEF
  5
2CF1
331
28EC
  5
28EE
331
2962
  5
2964
331
2D26
  5
2D28
331
2D65
  5
2D67
331
2D2E
  5
2D30
331
2ECE
  5
2ED1
331
2ED6
  5
2ED9
331
BFC
  5
BFC
331
C04
  5
C04
331
BCD
  5
BCD
331
C0C
  5
C0C
331
DB8
  5
DBA
331
D71
  5
D73
331
D1A
  5
D1B
331
CDB
  5
CDC
331
C35
  5
C35
331
C94
  5
C95
331
1606
  5
19D1
331
14BF
  5
1505
331
282B
  5
282C
331
BD5
  5
BD5
331
C14
  5
C14
331
ED7
  5
ED9
331
D22
  5
D23
331
CE3
  5
CE4
331
C9C
  5
C9D
331
2833
  5
2834
331
C3D
  5
C3D
331
2524
  5
2686
331
292B
  5
292D
331
D81
  5
D83
331
28B5
  5
28B6
331
28F4
  5
28F6
331
296A
  5
296C
331
CEB
  5
CEC
331
288A
  5
288B
331
C45
  5
C45
331
CA4
  5
CA5
331
1349
  5
1373
331
283B
  5
283C
331
2D36
  5
2D38
331
2CF7
  5
2CF9
331
2972
  5
2974
331
2933
  5
2935
331
10BF
  5
10E9
331
28BD
  5
28BE
331
28FC
  5
28FE
331
DD0
  5
DD2
331
D89
  5
D8B
331
2892
  5
2893
331
D52
  5
D54
331
2843
  5
2844
331
CF3
  5
CF4
331
268C
  5
268D
331
C4D
  5
C4D
331
CAC
  5
CAD
331
2D3E
  5
2D40
331
2CFF
  5
2D01
331
293B
  5
293D
331
28C5
  5
28C6
331
2904
  5
2906
331
297A
  5
297C
331
2D46
  5
2D48
331
2D07
  5
2D09
331
2982
  5
2985
331
2943
  5
2945
331
28CD
  5
28CF
331
290C
  5
290E
331
2D4E
  5
2D53
331
2D0F
  5
2D11
331
2D69
  5
2D6B
331
2D71
  5
2ECF
331
2EF6
  5
2EF7
331
2EFE
  5
2F00
331
BDD
  5
BDD
331
C1C
  5
C1C
331
BE5
  5
BE5
331
C24
  5
C24
331
C2C
  5
C2C
331
BED
  5
BED
331
289A
  5
289B
331
D5A
  5
D5C
331
2694
  5
2695
331
CFB
  5
CFC
331
1389
  5
139F
331
BF5
  5
BF5
331
C55
  5
C55
331
DE0
  5
DE2
331
DA1
  5
DA3
331
28A2
  5
28A3
331
D62
  5
D64
331
2853
  5
2854
331
D03
  5
D04
331
269C
  5
269D
331
CCC
  5
CCD
331
C5D
  5
C5D
331
294B
  5
294D
331
DE8
  5
ED6
331
28AA
  5
28AB
331
D6A
  5
D6C
331
DA9
  5
DAB
331
285B
  5
285C
331
2824
  5
2825
331
CD4
  5
CD5
331
D0B
  5
D0C
331
28D5
  5
28D7
331
2914
  5
2916
331
298A
  5
298C
331
2D56
  5
2D58
331
2D17
  5
2D19
331
2992
  5
2994
331
291C
  5
291E
331
DB1
  5
DB3
331
2863
  5
2864
331
D13
  5
D14
331
C8D
  5
C8E
331
28DD
  5
28DF
331
2953
  5
2955
331
2D5E
  5
2D60
331
2CE8
  5
2CEA
331
299A
  5
2B53
331
2924
  5
2926
331
28E5
  5
28E7
331
295B
  5
295D
331
2D1F
  5
2D21
331
2D66
  5
2D68
331
2963
  5
2965
331
2D27
  5
2D29
331
2D2F
  5
2D31
331
2ECF
  5
2ED2
331
2ED7
  5
2EDA
331
BFD
  5
BFD
331
C05
  5
C05
331
BCE
  5
BCE
331
C0D
  5
C0D
331
DB9
  5
DBB
331
D72
  5
D74
331
D1B
  5
D1C
331
282C
  5
282D
331
CDC
  5
CDD
331
2285
  5
2525
331
BD6
  5
BD6
331
C15
  5
C15
331
C36
  5
C36
331
C95
  5
C96
331
ED8
  5
EDA
331
2834
  5
2835
331
CE4
  5
CE5
331
C3E
  5
C3E
331
C9D
  5
C9E
331
2CF0
  5
2CF2
331
292C
  5
292E
331
288B
  5
288D
331
D82
  5
D85
331
283C
  5
283D
331
CEC
  5
CED
331
C46
  5
C46
331
CA5
  5
CA6
331
28B6
  5
28B7
331
28F5
  5
28F7
331
296B
  5
296D
331
2D37
  5
2D39
331
2CF8
  5
2CFA
331
2934
  5
2936
331
DD1
  5
DD3
331
2893
  5
2894
331
D53
  5
D55
331
2844
  5
2845
331
CF4
  5
CF5
331
268D
  5
268E
331
C4E
  5
C4E
331
CAD
  5
CAE
331
D8A
  5
D8C
331
10E8
  5
10ED
331
28BE
  5
28BF
331
28FD
  5
28FF
331
2D3F
  5
2D41
331
2D00
  5
2D02
331
293C
  5
293E
331
28C6
  5
28C7
331
2905
  5
2907
331
297B
  5
297D
331
2D08
  5
2D0A
331
2944
  5
2946
331
28CE
  5
28D0
331
290D
  5
290F
331
2D47
  5
2D49
331
2D4F
  5
2D54
331
2D6A
  5
2D6C
331
2EF7
  5
2EF8
331
2EFF
  5
2F01
331
BDE
  5
BDE
331
C1D
  5
C1D
331
BE6
  5
BE6
331
C25
  5
C25
331
C2D
  5
C2D
331
BEE
  5
BEE
331
289B
  5
289C
331
D5B
  5
D5D
331
284C
  5
284D
331
2695
  5
2696
331
CFC
  5
CFD
331
BF6
  5
BF6
331
C56
  5
C56
331
DE1
  5
DE3
331
28A3
  5
28A4
331
D63
  5
D65
331
2854
  5
2855
331
D04
  5
D05
331
269D
  5
269E
331
CCD
  5
CCE
331
C5E
  5
C5E
331
DA2
  5
DA4
331
2D10
  5
2D12
331
294C
  5
294E
331
1307
  5
131D
331
28AB
  5
28AC
331
D6B
  5
D6D
331
DAA
  5
DAC
331
285C
  5
285D
331
2825
  5
2826
331
CD5
  5
CD6
331
D0C
  5
D0D
331
28D6
  5
28D8
331
2915
  5
2917
331
298B
  5
298D
331
2D57
  5
2D59
331
2D18
  5
2D1A
331
2954
  5
2956
331
DB2
  5
DB4
331
2864
  5
2865
331
D14
  5
D15
331
C8E
  5
C8F
331
28DE
  5
28E0
331
291D
  5
291F
331
2993
  5
2995
331
2D5F
  5
2D61
331
299B
  5
2CE2
331
2CE9
  5
2CEB
331
2D20
  5
2D22
331
2925
  5
2927
331
28E6
  5
28E8
331
295C
  5
295E
331
2D67
  5
2D69
331
28EE
  5
28F0
331
2964
  5
2966
331
2D28
  5
2D2A
331
2ED0
  5
2ED3
331
BFE
  5
BFE
331
C06
  5
C06
331
BCF
  5
BCF
331
C0E
  5
C0E
331
DBA
  5
DBC
331
D73
  5
D75
331
D1C
  5
D1D
331
282D
  5
282E
331
CDD
  5
CDE
331
BD7
  5
BD7
331
C16
  5
C16
331
C37
  5
C37
331
C96
  5
C97
331
DC2
  5
DC4
331
D7B
  5
D7D
331
2835
  5
2836
331
CE5
  5
CE6
331
1333
  5
1349
331
C3F
  5
C3F
331
C9E
  5
C9F
331
ED9
  5
108B
331
292D
  5
292F
331
DCA
  5
DCC
331
283D
  5
283E
331
CED
  5
CEE
331
2686
  5
2687
331
C47
  5
C47
331
CA6
  5
CA7
331
28B7
  5
28B8
331
28F6
  5
28F8
331
296C
  5
296E
331
2CF1
  5
2CF3
331
2D30
  5
2D32
331
1412
  5
142C
331
2935
  5
2937
331
12B0
  5
12CA
331
DD2
  5
DD4
331
D54
  5
D56
331
D8B
  5
D8D
331
28BF
  5
28C0
331
28FE
  5
2900
331
2974
  5
2976
331
2CF9
  5
2CFB
331
2D38
  5
2D3A
331
CF5
  5
CF6
331
CAE
  5
CAF
331
2845
  5
2846
331
C4F
  5
C4F
331
268E
  5
268F
331
2894
  5
2895
331
293D
  5
293F
331
28C7
  5
28C8
331
2906
  5
2908
331
297C
  5
297E
331
2D01
  5
2D03
331
2D40
  5
2D42
331
2D09
  5
2D0B
331
2945
  5
2947
331
28CF
  5
28D1
331
290E
  5
2910
331
2984
  5
2986
331
2D48
  5
2D4A
331
2D6B
  5
2D6D
331
2ED8
  5
2EDB
331
2EF8
  5
2EF9
331
2F00
  5
2F02
331
BDF
  5
BDF
331
C1E
  5
C1E
331
BE7
  5
BE7
331
C26
  5
C26
331
BEF
  5
BEF
331
C2E
  5
C2E
331
1373
  5
1389
331
D5C
  5
D5E
331
CFD
  5
CFE
331
289C
  5
289D
331
284D
  5
284E
331
C57
  5
C57
331
2696
  5
2697
331
BF7
  5
BF7
331
1559
  5
1596
331
DE2
  5
DE4
331
D64
  5
D66
331
DA3
  5
DA5
331
D05
  5
D06
331
28A4
  5
28A6
331
CCE
  5
CCF
331
C5F
  5
C5F
331
269E
  5
2823
331
2855
  5
2856
331
2D11
  5
2D13
331
294D
  5
294F
331
28AC
  5
28AD
331
D6C
  5
D6E
331
DAB
  5
DAD
331
D0D
  5
D0E
331
28D7
  5
28D9
331
2916
  5
2918
331
298C
  5
298E
331
CD6
  5
CD7
331
2826
  5
2827
331
285D
  5
285E
331
2D58
  5
2D5A
331
2994
  5
2996
331
291E
  5
2920
331
DB3
  5
DB5
331
D15
  5
D16
331
28DF
  5
28E1
331
2955
  5
2957
331
2CE2
  5
2CE4
331
2D19
  5
2D1B
331
C8F
  5
C90
331
2865
  5
2866
331
2CEA
  5
2CEC
331
2926
  5
2928
331
28E7
  5
28E9
331
295D
  5
295F
331
2D21
  5
2D23
331
2D60
  5
2D62
331
28EF
  5
28F1
331
2965
  5
2967
331
2D29
  5
2D2B
331
2ED1
  5
2ED4
331
BFF
  5
BFF
331
C07
  5
C07
331
BD0
  5
BD0
331
C0F
  5
C0F
331
C30
  5
C30
331
DBB
  5
DC3
331
D74
  5
D76
331
D1D
  5
D1E
331
CDE
  5
CDF
331
C38
  5
C38
331
C97
  5
C98
331
C17
  5
C17
331
19D1
  5
19D2
331
282E
  5
282F
331
DC3
  5
DCB
331
D7C
  5
D7E
331
CE6
  5
CE7
331
EDA
  5
10C0
331
28B0
  5
28B1
331
C40
  5
C40
331
C9F
  5
CA0
331
2836
  5
2837
331
13FB
  5
1412
331
292E
  5
2930
331
DCB
  5
DCD
331
D4D
  5
D4E
331
D84
  5
D86
331
28B8
  5
28B9
331
28F7
  5
28F9
331
296D
  5
296F
331
2CF2
  5
2CF4
331
2D31
  5
2D33
331
CEE
  5
CEF
331
288D
  5
288E
331
CA7
  5
CA8
331
283E
  5
283F
331
C48
  5
C48
331
2687
  5
2688
331
2936
  5
2938
331
DD3
  5
DD5
331
D55
  5
D57
331
D8C
  5
D8E
331
28C0
  5
28C1
331
28FF
  5
2901
331
2975
  5
2977
331
2B53
  5
2CE3
331
2CFA
  5
2CFC
331
2D39
  5
2D3B
331
CF6
  5
CF7
331
CAF
  5
CB0
331
2846
  5
2847
331
268F
  5
2690
331
2895
  5
2896
331
293E
  5
2940
331
28C8
  5
28C9
331
2907
  5
2909
331
297D
  5
297F
331
2D02
  5
2D04
331
2D41
  5
2D43
331
2D0A
  5
2D0C
331
2946
  5
2948
331
290F
  5
2911
331
2985
  5
2987
331
2D49
  5
2D4B
331
2D6C
  5
2D6E
331
2ED9
  5
2EDC
331
2EF9
  5
2EFB
331
2F01
  5
2F03
331
BD8
  5
BD8
331
BE0
  5
BE0
331
C1F
  5
C1F
331
BE8
  5
BE8
331
C27
  5
C27
331
C50
  5
C50
331
BF0
  5
BF0
331
C2F
  5
C2F
331
D5D
  5
D5F
331
D9C
  5
D9E
331
CFE
  5
CFF
331
289D
  5
289E
331
284E
  5
284F
331
C58
  5
C58
331
2697
  5
2698
331
DE3
  5
DE5
331
D65
  5
D67
331
D06
  5
D07
331
DA4
  5
DA6
331
28D0
  5
28D2
331
CCF
  5
CD0
331
C60
  5
C60
331
2856
  5
2857
331
2D12
  5
2D14
331
294E
  5
2950
331
28AD
  5
28AE
331
D6D
  5
D6F
331
DAC
  5
DAE
331
D0E
  5
D0F
331
28D8
  5
28DA
331
2917
  5
2919
331
298D
  5
298F
331
CD7
  5
CD8
331
2827
  5
2829
331
285E
  5
285F
331
2995
  5
2997
331
291F
  5
2921
331
DB4
  5
DB6
331
D16
  5
D17
331
28E0
  5
28E2
331
2956
  5
2958
331
2CE3
  5
2CE5
331
2D1A
  5
2D1C
331
2D59
  5
2D5B
331
2866
  5
2867
331
2CEB
  5
2CED
331
2927
  5
2929
331
28E8
  5
28EA
331
295E
  5
2960
331
2D22
  5
2D24
331
2D61
  5
2D63
331
2966
  5
2968
331
2D2A
  5
2D2C
331
2ED2
  5
2ED5
331
BF8
  5
BF8
331
C00
  5
C00
331
C08
  5
C08
331
C90
  5
C91
331
C31
  5
C31
331
BD1
  5
BD1
331
C10
  5
C10
331
131D
  5
1333
331
D75
  5
D77
331
CDF
  5
CE0
331
D1E
  5
D1F
331
C39
  5
C39
331
C98
  5
C99
331
282F
  5
2830
331
19D2
  5
1ABB
331
D7D
  5
D7F
331
CE7
  5
CE8
331
28B1
  5
28B2
331
28F0
  5
28F2
331
C41
  5
C41
331
CA0
  5
CA1
331
2837
  5
2838
331
292F
  5
2931
331
DCC
  5
DCE
331
D4E
  5
D50
331
D85
  5
D87
331
28B9
  5
28BA
331
28F8
  5
28FA
331
296E
  5
2970
331
2CF3
  5
2CF5
331
2D32
  5
2D34
331
CEF
  5
CF0
331
288E
  5
288F
331
CA8
  5
CA9
331
C49
  5
C49
331
2688
  5
2689
331
283F
  5
2840
331
DD4
  5
DD6
331
D56
  5
D58
331
D8D
  5
D8F
331
28C1
  5
28C2
331
2900
  5
2902
331
2937
  5
2939
331
2976
  5
2978
331
2CFB
  5
2CFD
331
2D3A
  5
2D3C
331
CF7
  5
CF8
331
2847
  5
2848
331
2896
  5
2897
331
28C9
  5
28CB
331
2908
  5
290A
331
293F
  5
2941
331
297E
  5
2980
331
2D03
  5
2D05
331
2D42
  5
2D44
331
2D0B
  5
2D0D
331
2947
  5
2949
331
2986
  5
2988
331
2D4A
  5
2D4D
331
2EDA
  5
2EF5
331
2D6D
  5
2D6F
331
2EFA
  5
2EFC
331
2F02
  5
2F04
331
BD9
  5
BD9
331
C18
  5
C18
331
BE1
  5
BE1
331
C20
  5
C20
331
BE9
  5
BE9
331
C28
  5
C28
331
CB0
  5
CB1
331
C51
  5
C51
331
2690
  5
2691
331
1543
  5
1559
331
BF1
  5
BF1
331
142C
  5
142D
331
12CA
  5
1307
331
D5E
  5
D60
331
D9D
  5
D9F
331
CFF
  5
D00
331
289E
  5
289F
331
C59
  5
C59
331
2698
  5
2699
331
1434
  5
1435
331
284F
  5
2850
331
DE4
  5
DE6
331
D66
  5
D68
331
DA5
  5
DA7
331
28D1
  5
28D3
331
2910
  5
2912
331
D07
  5
D08
331
28A6
  5
28A7
331
CD0
  5
CD1
331
2857
  5
2858
331
2D13
  5
2D15
331
2918
  5
291A
331
D6E
  5
D70
331
DAD
  5
DAF
331
28D9
  5
28DB
331
294F
  5
2951
331
298E
  5
2990
331
D0F
  5
D10
331
285F
  5
2860
331
28AE
  5
28AF
331
2996
  5
2998
331
2920
  5
2922
331
DB5
  5
DB7
331
D17
  5
D18
331
28E1
  5
28E3
331
2957
  5
2959
331
2CE4
  5
2CE6
331
2D1B
  5
2D1D
331
2D5A
  5
2D5C
331
2867
  5
2868
331
2CEC
  5
2CEE
331
295F
  5
2961
331
2D23
  5
2D25
331
2D62
  5
2D64
331
2967
  5
2969
331
2D2B
  5
2D2D
331
2ED3
  5
2ED6
331
BF9
  5
BF9
331
C01
  5
C01
331
C09
  5
C09
331
CD8
  5
CD9
331
C91
  5
C92
331
C32
  5
C32
331
BD2
  5
BD2
331
C11
  5
C11
331
13E5
  5
13FB
331
D76
  5
D7C
331
CE0
  5
CE1
331
D1F
  5
D20
331
C3A
  5
C3A
331
C99
  5
C9A
331
2830
  5
2831
331
2928
  5
292A
331
D7E
  5
D82
331
28B2
  5
28B3
331
28F1
  5
28F3
331
CE8
  5
CE9
331
C42
  5
C42
331
CA1
  5
CA2
331
2838
  5
2839
331
2887
  5
2888
331
2930
  5
2932
331
DCD
  5
DCF
331
D4F
  5
D51
331
D86
  5
D88
331
28BA
  5
28BB
331
28F9
  5
28FB
331
296F
  5
2971
331
2CF4
  5
2CF6
331
2D33
  5
2D35
331
CF0
  5
CF1
331
CA9
  5
CAA
331
2840
  5
2841
331
C4A
  5
C4A
331
2689
  5
268A
331
288F
  5
2890
331
2938
  5
293A
331
DD5
  5
DD7
331
D57
  5
D59
331
D8E
  5
D90
331
10EC
  5
12B0
331
28C2
  5
28C3
331
2901
  5
2903
331
2977
  5
2979
331
2CFC
  5
2CFE
331
2D3B
  5
2D3D
331
2897
  5
2898
331
2D43
  5
2D45
331
2940
  5
2942
331
28CA
  5
28CC
331
2909
  5
290B
331
297F
  5
2981
331
2D04
  5
2D06
331
2D0C
  5
2D0E
331
2987
  5
2989
331
2D4B
  5
2D4E
331
2D6E
  5
2D70
331
2EFB
  5
2EFD
331
2F03
  5
2F05
331
BDA
  5
BDA
331
C19
  5
C19
331
BE2
  5
BE2
331
C21
  5
C21
331
BEA
  5
BEA
331
C29
  5
C29
331
CF8
  5
CF9
331
2848
  5
2849
331
C52
  5
C52
331
2691
  5
2692
331
1ABB
  5
2286
331
BF2
  5
BF2
331
142D
  5
1434
331
D5F
  5
D61
331
D9E
  5
DA0
331
D00
  5
D01
331
289F
  5
28A0
331
2850
  5
2851
331
C5A
  5
C5A
331
1435
  5
1436
331
2699
  5
269A
331
2948
  5
294A
331
DE5
  5
DE7
331
D67
  5
D69
331
DA6
  5
DA8
331
28D2
  5
28D4
331
2911
  5
2913
331
D08
  5
D09
331
CD1
  5
CD2
331
2858
  5
2859
331
28A7
  5
28A9
331
2D53
  5
2D55
331
2D14
  5
2D16
331
2919
  5
291B
331
D6F
  5
D71
331
DAE
  5
DB0
331
28DA
  5
28DC
331
2950
  5
2952
331
298F
  5
2991
331
D10
  5
D11
331
2860
  5
2861
331
28AF
  5
28B0
331
2CE5
  5
2CE7
331
2997
  5
2999
331
2921
  5
2923
331
DB6
  5
DB8
331
28E2
  5
28E4
331
2958
  5
295A
331
2D1C
  5
2D1E
331
2D5B
  5
2D5D
331
2CED
  5
2CEF
331
2960
  5
2962
331
2D24
  5
2D26
331
2D63
  5
2D65
331
2D2C
  5
2D2E
331
2ED4
  5
2ED7
331
BFA
  5
BFA
331
C02
  5
C02
331
C0A
  5
C0A
331
D18
  5
D19
331
CD9
  5
CDA
331
2868
  5
2869
331
C33
  5
C33
331
C92
  5
C93
331
2829
  5
282A
331
BD3
  5
BD3
331
C12
  5
C12
331
D20
  5
D21
331
CE1
  5
CE2
331
ED5
  5
ED7
331
C3B
  5
C3B
331
C9A
  5
C9B
331
2831
  5
2832
331
2929
  5
292B
331
28B3
  5
28B4
331
28F2
  5
28F4
331
2968
  5
296A
331
CE9
  5
CEA
331
2888
  5
2889
331
C43
  5
C43
331
CA2
  5
CA3
331
2839
  5
283A
331
1505
  5
1543
331
2CF5
  5
2CF7
331
2931
  5
2933
331
DCE
  5
DD0
331
D50
  5
D52
331
D87
  5
D89
331
28BB
  5
28BC
331
28FA
  5
28FC
331
2970
  5
2972
331
2D34
  5
2D36
331
CF1
  5
CF2
331
CAA
  5
CAB
331
2841
  5
2842
331
C4B
  5
C4B
331
268A
  5
268B
331
2890
  5
2891
331
2978
  5
297A
331
2939
  5
293B
331
DD6
  5
DE0
331
D8F
  5
D9D
331
28C3
  5
28C4
331
2902
  5
2904
331
2CFD
  5
2CFF
331
2D3C
  5
2D3E
331
2941
  5
2943
331
28CB
  5
28CD
331
290A
  5
290C
331
2980
  5
2982
331
2D05
  5
2D07
331
2D44
  5
2D46
331
2D0D
  5
2D0F
331
2D6F
  5
2D71
331
2EFC
  5
2EFE
331
2F04
  5
2F06
  0
XRECORD
  5
3263
102
{ACAD_REACTORS
330
3262
102
}
330
3262
100
AcDbXrecord
340
323A
  0
ACAD_PROXY_OBJECT
  5
811
102
{ACAD_XDICTIONARY
360
812
102
}
102
{ACAD_REACTORS
330
808
102
}
330
808
100
AcDbProxyObject
 90
      499
 91
      512
 93
     1340
310
42109E509B1BD8DAC02004014080404555555555555953FAA155555555555654FEA9AA400014080404555555555555953FAA155555555555654FEA9AA400000000000000E03F4080404555555555555953FAA155555555555654FEA9AA4014080404555555555555953FAA155555555555654FEA9AA4010201011555555555
310
55654FEA8555555555555953FAA6A9005020101155555555555654FEA8555555555555953FAA6A9002
 94
        0
1001
ACAD
1000
AcadProxyRoundTripData
1071
      504
1071
   851991
1070
     0
  0
ACAD_PROXY_OBJECT
  5
809
102
{ACAD_XDICTIONARY
360
80A
102
}
102
{ACAD_REACTORS
330
808
102
}
330
808
100
AcDbProxyObject
 90
      499
 91
      512
 93
     1340
310
42109E53185E595C802004014080404555555555555953FAA155555555555654FEA9AA400014080404555555555555953FAA155555555555654FEA9AA400000000000000E03F4080404555555555555953FAA155555555555654FEA9AA4014080404555555555555953FAA155555555555654FEA9AA4010201011555555555
310
55654FEA8555555555555953FAA6A9005020101155555555555654FEA8555555555555953FAA6A9002
 94
        0
1001
ACAD
1000
AcadProxyRoundTripData
1071
      504
1071
   851991
1070
     0
  0
ACAD_PROXY_OBJECT
  5
819
102
{ACAD_XDICTIONARY
360
81A
102
}
102
{ACAD_REACTORS
330
808
102
}
330
808
100
AcDbProxyObject
 90
      499
 91
      512
 93
     1332
310
41D1DB1BD8985B002004014080404555555555555953FAA155555555555654FEA9AA400014080404555555555555953FAA155555555555654FEA9AA400000000000000E03F4080404555555555555953FAA155555555555654FEA9AA4014080404555555555555953FAA155555555555654FEA9AA401020101155555555555
310
654FEA8555555555555953FAA6A9005020101155555555555654FEA8555555555555953FAA6A9000
 94
        0
1001
ACAD
1000
AcadProxyRoundTripData
1071
      504
1071
   851991
1070
     0
  0
ACAD_PROXY_OBJECT
  5
858
102
{ACAD_REACTORS
330
857
102
}
330
857
100
AcDbProxyObject
 90
      499
 91
      512
 93
      618
310
40901902A4063FBFFFFFE056BD1B81E855B9FC0AD7A3703D0AD73F4254DD185B99185C990000AD7A3703D0AC73F90141901A02B5E8DC0F42B1CFC02B5E8DC0F42B1CFE5764000000000000300FC6
340
6A
340
0
340
16
340
0
 94
        0
1001
ACAD_MLEADERVER
1070
     2
1001
ACAD
1000
AcadProxyRoundTripData
1071
      508
1071
   851991
1070
     0
  0
MLINESTYLE
  5
78
102
{ACAD_REACTORS
330
76
102
}
330
76
100
AcDbMlineStyle
  2
STANDARD
 70
     0
  3

 62
     0
 51
90.0
 52
90.0
 71
     2
 49
0.5
 62
   256
  6
BYLAYER
 49
-0.5
 62
   256
  6
BYLAYER
  0
ACDBPLACEHOLDER
  5
5
102
{ACAD_REACTORS
330
6
102
}
330
6
100
AcDbPlaceHolder
280
     0
  0
ACAD_PROXY_OBJECT
  5
836
102
{ACAD_REACTORS
330
835
102
}
330
835
100
AcDbProxyObject
 90
      499
 91
      512
 93
       49
310
904313A3100598
 94
        0
1001
ACAD
1000
AcadProxyRoundTripData
1071
      507
1071
   851991
1070
     0
  0
ACAD_PROXY_OBJECT
  5
837
102
{ACAD_REACTORS
330
835
102
}
330
835
100
AcDbProxyObject
 90
      499
 91
      512
 93
      113
310
904313A3200400000000000000406B
 94
        0
1001
ACAD
1000
AcadProxyRoundTripData
1071
      507
1071
   851991
1070
     0
  0
ACAD_PROXY_OBJECT
  5
838
102
{ACAD_REACTORS
330
835
102
}
330
835
100
AcDbProxyObject
 90
      499
 91
      512
 93
      113
310
904313A3400400000000000010406B
 94
        0
1001
ACAD
1000
AcadProxyRoundTripData
1071
      507
1071
   851991
1070
     0
  0
ACAD_PROXY_OBJECT
  5
839
102
{ACAD_REACTORS
330
835
102
}
330
835
100
AcDbProxyObject
 90
      499
 91
      512
 93
      113
310
904313A3500400000000000014406B
 94
        0
1001
ACAD
1000
AcadProxyRoundTripData
1071
      507
1071
   851991
1070
     0
  0
ACAD_PROXY_OBJECT
  5
83A
102
{ACAD_REACTORS
330
835
102
}
330
835
100
AcDbProxyObject
 90
      499
 91
      512
 93
      113
310
904313A3800400000000000020406B
 94
        0
1001
ACAD
1000
AcadProxyRoundTripData
1071
      507
1071
   851991
1070
     0
  0
ACAD_PROXY_OBJECT
  5
83B
102
{ACAD_REACTORS
330
835
102
}
330
835
100
AcDbProxyObject
 90
      499
 91
      512
 93
      121
310
905313A3130004000000000000244051
 94
        0
1001
ACAD
1000
AcadProxyRoundTripData
1071
      507
1071
   851991
1070
     0
  0
ACAD_PROXY_OBJECT
  5
83C
102
{ACAD_REACTORS
330
835
102
}
330
835
100
AcDbProxyObject
 90
      499
 91
      512
 93
      121
310
905313A3136004000000000000304051
 94
        0
1001
ACAD
1000
AcadProxyRoundTripData
1071
      507
1071
   851991
1070
     0
  0
ACAD_PROXY_OBJECT
  5
83D
102
{ACAD_REACTORS
330
835
102
}
330
835
100
AcDbProxyObject
 90
      499
 91
      512
 93
      121
310
905313A3230004000000000000344051
 94
        0
1001
ACAD
1000
AcadProxyRoundTripData
1071
      507
1071
   851991
1070
     0
  0
ACAD_PROXY_OBJECT
  5
83E
102
{ACAD_REACTORS
330
835
102
}
330
835
100
AcDbProxyObject
 90
      499
 91
      512
 93
      121
310
905313A33300040000000000003E4051
 94
        0
1001
ACAD
1000
AcadProxyRoundTripData
1071
      507
1071
   851991
1070
     0
  0
ACAD_PROXY_OBJECT
  5
83F
102
{ACAD_REACTORS
330
835
102
}
330
835
100
AcDbProxyObject
 90
      499
 91
      512
 93
      121
310
905313A3430004000000000000444051
 94
        0
1001
ACAD
1000
AcadProxyRoundTripData
1071
      507
1071
   851991
1070
     0
  0
ACAD_PROXY_OBJECT
  5
840
102
{ACAD_REACTORS
330
835
102
}
330
835
100
AcDbProxyObject
 90
      499
 91
      512
 93
      121
310
905313A3530004000000000000494051
 94
        0
1001
ACAD
1000
AcadProxyRoundTripData
1071
      507
1071
   851991
1070
     0
  0
ACAD_PROXY_OBJECT
  5
841
102
{ACAD_REACTORS
330
835
102
}
330
835
100
AcDbProxyObject
 90
      499
 91
      512
 93
      129
310
906313A313030004000000000000594038
 94
        0
1001
ACAD
1000
AcadProxyRoundTripData
1071
      507
1071
   851991
1070
     0
  0
ACAD_PROXY_OBJECT
  5
842
102
{ACAD_REACTORS
330
835
102
}
330
835
100
AcDbProxyObject
 90
      499
 91
      512
 93
      113
310
904323A31000000000000000010159
 94
        0
1001
ACAD
1000
AcadProxyRoundTripData
1071
      507
1071
   851991
1070
     0
  0
ACAD_PROXY_OBJECT
  5
843
102
{ACAD_REACTORS
330
835
102
}
330
835
100
AcDbProxyObject
 90
      499
 91
      512
 93
      113
310
904343A31000000000000000410159
 94
        0
1001
ACAD
1000
AcadProxyRoundTripData
1071
      507
1071
   851991
1070
     0
  0
ACAD_PROXY_OBJECT
  5
844
102
{ACAD_REACTORS
330
835
102
}
330
835
100
AcDbProxyObject
 90
      499
 91
      512
 93
      113
310
904383A31000000000000000810159
 94
        0
1001
ACAD
1000
AcadProxyRoundTripData
1071
      507
1071
   851991
1070
     0
  0
ACAD_PROXY_OBJECT
  5
845
102
{ACAD_REACTORS
330
835
102
}
330
835
100
AcDbProxyObject
 90
      499
 91
      512
 93
      121
310
90531303A31000000000000000910140
 94
        0
1001
ACAD
1000
AcadProxyRoundTripData
1071
      507
1071
   851991
1070
     0
  0
ACAD_PROXY_OBJECT
  5
846
102
{ACAD_REACTORS
330
835
102
}
330
835
100
AcDbProxyObject
 90
      499
 91
      512
 93
      129
310
9063130303A31000000000000001650138
 94
        0
1001
ACAD
1000
AcadProxyRoundTripData
1071
      507
1071
   851991
1070
     0
  0
ACAD_PROXY_OBJECT
  5
847
102
{ACAD_REACTORS
330
835
102
}
330
835
100
AcDbProxyObject
 90
      499
 91
      512
 93
      265
310
90F312F31323822203D2031272D302200000000000000200FC00000000000028402B
 94
        0
1001
ACAD
1000
AcadProxyRoundTripData
1071
      507
1071
   851991
1070
     0
  0
ACAD_PROXY_OBJECT
  5
848
102
{ACAD_REACTORS
330
835
102
}
330
835
100
AcDbProxyObject
 90
      499
 91
      512
 93
      257
310
90E312F363422203D2031272D302200000000000000240FC000000000000284040
 94
        0
1001
ACAD
1000
AcadProxyRoundTripData
1071
      507
1071
   851991
1070
     0
  0
ACAD_PROXY_OBJECT
  5
849
102
{ACAD_REACTORS
330
835
102
}
330
835
100
AcDbProxyObject
 90
      499
 91
      512
 93
      257
310
90E312F333222203D2031272D302200000000000000280FC000000000000284040
 94
        0
1001
ACAD
1000
AcadProxyRoundTripData
1071
      507
1071
   851991
1070
     0
  0
ACAD_PROXY_OBJECT
  5
84A
102
{ACAD_REACTORS
330
835
102
}
330
835
100
AcDbProxyObject
 90
      499
 91
      512
 93
      257
310
90E312F313622203D2031272D3022000000000000002C0FC000000000000284040
 94
        0
1001
ACAD
1000
AcadProxyRoundTripData
1071
      507
1071
   851991
1070
     0
  0
ACAD_PROXY_OBJECT
  5
84B
102
{ACAD_REACTORS
330
835
102
}
330
835
100
AcDbProxyObject
 90
      499
 91
      512
 93
      257
310
90E332F333222203D2031272D3022000000000000002E0FC000000000000284040
 94
        0
1001
ACAD
1000
AcadProxyRoundTripData
1071
      507
1071
   851991
1070
     0
  0
ACAD_PROXY_OBJECT
  5
84C
102
{ACAD_REACTORS
330
835
102
}
330
835
100
AcDbProxyObject
 90
      499
 91
      512
 93
      249
310
90D312F3822203D2031272D302200000000000000300FC000000000000284040
 94
        0
1001
ACAD
1000
AcadProxyRoundTripData
1071
      507
1071
   851991
1070
     0
  0
ACAD_PROXY_OBJECT
  5
84D
102
{ACAD_REACTORS
330
835
102
}
330
835
100
AcDbProxyObject
 90
      499
 91
      512
 93
      257
310
90E332F313622203D2031272D302200000000000000320FC000000000000284040
 94
        0
1001
ACAD
1000
AcadProxyRoundTripData
1071
      507
1071
   851991
1070
     0
  0
ACAD_PROXY_OBJECT
  5
84E
102
{ACAD_REACTORS
330
835
102
}
330
835
100
AcDbProxyObject
 90
      499
 91
      512
 93
      249
310
90D312F3422203D2031272D302200000000000000340FC000000000000284040
 94
        0
1001
ACAD
1000
AcadProxyRoundTripData
1071
      507
1071
   851991
1070
     0
  0
ACAD_PROXY_OBJECT
  5
84F
102
{ACAD_REACTORS
330
835
102
}
330
835
100
AcDbProxyObject
 90
      499
 91
      512
 93
      249
310
90D332F3822203D2031272D302200000000000000360FC000000000000284040
 94
        0
1001
ACAD
1000
AcadProxyRoundTripData
1071
      507
1071
   851991
1070
     0
  0
ACAD_PROXY_OBJECT
  5
850
102
{ACAD_REACTORS
330
835
102
}
330
835
100
AcDbProxyObject
 90
      499
 91
      512
 93
      249
310
90D312F3222203D2031272D302200000000000000380FC000000000000284040
 94
        0
1001
ACAD
1000
AcadProxyRoundTripData
1071
      507
1071
   851991
1070
     0
  0
ACAD_PROXY_OBJECT
  5
851
102
{ACAD_REACTORS
330
835
102
}
330
835
100
AcDbProxyObject
 90
      499
 91
      512
 93
      249
310
90D332F3422203D2031272D3022000000000000003A0FC000000000000284040
 94
        0
1001
ACAD
1000
AcadProxyRoundTripData
1071
      507
1071
   851991
1070
     0
  0
ACAD_PROXY_OBJECT
  5
852
102
{ACAD_REACTORS
330
835
102
}
330
835
100
AcDbProxyObject
 90
      499
 91
      512
 93
      169
310
90B3122203D2031272D3022004000000000000284020
 94
        0
1001
ACAD
1000
AcadProxyRoundTripData
1071
      507
1071
   851991
1070
     0
  0
ACAD_PROXY_OBJECT
  5
853
102
{ACAD_REACTORS
330
835
102
}
330
835
100
AcDbProxyObject
 90
      499
 91
      512
 93
      265
310
90F312D312F3222203D2031272D3022000000000000003E0FC00000000000028402B
 94
        0
1001
ACAD
1000
AcadProxyRoundTripData
1071
      507
1071
   851991
1070
     0
  0
ACAD_PROXY_OBJECT
  5
854
102
{ACAD_REACTORS
330
835
102
}
330
835
100
AcDbProxyObject
 90
      499
 91
      512
 93
      233
310
90B3322203D2031272D30220000000000000002100000000000000284000
 94
        0
1001
ACAD
1000
AcadProxyRoundTripData
1071
      507
1071
   851991
1070
     0
  0
ACAD_PROXY_OBJECT
  5
855
102
{ACAD_REACTORS
330
835
102
}
330
835
100
AcDbProxyObject
 90
      499
 91
      512
 93
      233
310
90B3622203D2031272D30220000000000000006100000000000000284000
 94
        0
1001
ACAD
1000
AcadProxyRoundTripData
1071
      507
1071
   851991
1070
     0
  0
ACAD_PROXY_OBJECT
  5
856
102
{ACAD_REACTORS
330
835
102
}
330
835
100
AcDbProxyObject
 90
      499
 91
      512
 93
      257
310
90E31272D3022203D2031272D3022000000000000000A100000000000000284040
 94
        0
1001
ACAD
1000
AcadProxyRoundTripData
1071
      507
1071
   851991
1070
     0
  0
ACAD_PROXY_OBJECT
  5
834
102
{ACAD_XDICTIONARY
360
88C
102
}
102
{ACAD_REACTORS
330
833
102
}
330
833
100
AcDbProxyObject
 90
      499
 91
      512
 93
     1849
310
4254DD185B99185C990028B81E85EB51B8AE3F2E07A17AD46E2B8FC02B5E8DC0F42B1CFD028000000C1008070000C3001FDFF8000000C1003FBFF000000182007F7FE00000030400FEFFC00000060801FDFF8000000C1003FBFF00000018200000000000000681FA0B0000001820100E000186003FBFF000000182007F7FE0
310
0000030400FEFFC00000060801FDFF8000000C1003FBFF000000182007F7FE000000304000AD7A3703D0AC73F4160000003040201C00030C007F7FE00000030400FEFFC00000060801FDFF8000000C1003FBFF000000182007F7FE00000030400FEFFC000000608062
340
16
340
16
340
16
 94
        0
1001
ACAD
1000
AcadProxyRoundTripData
1071
      506
1071
   851991
1070
     0
  0
ACAD_PROXY_OBJECT
  5
827
102
{ACAD_REACTORS
330
821
102
}
330
821
100
AcDbProxyObject
 90
      499
 91
      512
 93
      444
310
430C9915DA5C99599C985B59401049028333333333333E3BF0000000000000FB0107901411070040501600405405064090741402480A0340
 94
        0
1001
ACAD
1000
AcDbSavedByObjectVersion
1070
     0
1000
AcadProxyRoundTripData
1071
      505
1071
   851991
1070
     0
  0
ACAD_PROXY_OBJECT
  5
829
102
{ACAD_REACTORS
330
821
102
}
330
821
100
AcDbProxyObject
 90
      499
 91
      512
 93
      508
310
428CD108121A5919195B8010640502408333333333333E3BF0000000000000FB01079024090700405020000000000001110200405405064090740C02480A0340
 94
        0
1001
ACAD
1000
AcDbSavedByObjectVersion
1070
     0
1000
AcadProxyRoundTripData
1071
      505
1071
   851991
1070
     0
  0
ACAD_PROXY_OBJECT
  5
828
102
{ACAD_REACTORS
330
821
102
}
330
821
100
AcDbProxyObject
 90
      499
 91
      512
 93
      444
310
430CD915DA5C99599C985B59401059028333333333333E3BF0000000000000FB0107901411070040501600405405064090741402480A0340
 94
        0
1001
ACAD
1000
AcDbSavedByObjectVersion
1070
     0
1000
AcadProxyRoundTripData
1071
      505
1071
   851991
1070
     0
  0
ACAD_PROXY_OBJECT
  5
826
102
{ACAD_REACTORS
330
821
102
}
330
821
100
AcDbProxyObject
 90
      499
 91
      512
 93
      396
310
4190985CDA58C0107406404333333333333E3BF0000000000000FB0107A41107004050150841D405064090741402480A0356
 94
        0
1001
ACAD
1000
AcDbSavedByObjectVersion
1070
     0
1000
AcadProxyRoundTripData
1071
      505
1071
   851991
1070
     0
  0
ACAD_PROXY_OBJECT
  5
82D
102
{ACAD_REACTORS
330
821
102
}
330
821
100
AcDbProxyObject
 90
      499
 91
      512
 93
      436
310
42509C9A59DA1D195B8010C409028333333333333E3BF0000000000000FB010790141107004050150841D405064090741402480A029956
 94
        0
1001
ACAD
1000
AcDbSavedByObjectVersion
1070
     0
1000
AcadProxyRoundTripData
1071
      505
1071
   851991
1070
     0
  0
ACAD_PROXY_OBJECT
  5
831
102
{ACAD_REACTORS
330
821
102
}
330
821
100
AcDbProxyObject
 90
      499
 91
      512
 93
      460
310
4310DBDB1BDC90DA185B99D9401104090240C333333333333E3BF0000000000000FB0108901411070040501508421405064090741402480A0354
 94
        0
1001
ACAD
1000
AcDbSavedByObjectVersion
1070
     0
1000
AcadProxyRoundTripData
1071
      505
1071
   851991
1070
     0
  0
ACAD_PROXY_OBJECT
  5
82A
102
{ACAD_REACTORS
330
821
102
}
330
821
100
AcDbProxyObject
 90
      499
 91
      512
 93
      508
310
42D0DBDB98D95C1D1D585B0010940D028333333333333E3BF0000000000000FB0107902409070040501000000000000111010841D405064090740C02480A0340
 94
        0
1001
ACAD
1000
AcDbSavedByObjectVersion
1070
     0
1000
AcadProxyRoundTripData
1071
      505
1071
   851991
1070
     0
  0
ACAD_PROXY_OBJECT
  5
82C
102
{ACAD_REACTORS
330
821
102
}
330
821
100
AcDbProxyObject
 90
      499
 91
      512
 93
      420
310
41111A5B4010B409028333333333333E3BF0000000000000FB010790141107004050150841D405064090741402480A02677FFFFFDB
 94
        0
1001
ACAD
1000
AcDbSavedByObjectVersion
1070
     0
1000
AcadProxyRoundTripData
1071
      505
1071
   851991
1070
     0
  0
ACAD_PROXY_OBJECT
  5
830
102
{ACAD_REACTORS
330
821
102
}
330
821
100
AcDbProxyObject
 90
      499
 91
      512
 93
      452
310
43119858D95C185D1D195C9B8010F409028333333333333E3BF0000000000000FB010790141107004050150841D405064090741402480A0350
 94
        0
1001
ACAD
1000
AcDbSavedByObjectVersion
1070
     0
1000
AcadProxyRoundTripData
1071
      505
1071
   851991
1070
     0
  0
ACAD_PROXY_OBJECT
  5
822
102
{ACAD_REACTORS
330
821
102
}
330
821
100
AcDbProxyObject
 90
      499
 91
      512
 93
      396
310
41519B185D00240901404333333333333E3BF0000000000000F9010740A41107004050150841D405064090741402480A1B55
 94
        0
1001
ACAD
1000
AcDbSavedByObjectVersion
1070
     0
1000
AcadProxyRoundTripData
1071
      505
1071
   851991
1070
     0
  0
ACAD_PROXY_OBJECT
  5
823
102
{ACAD_REACTORS
330
821
102
}
330
821
100
AcDbProxyObject
 90
      499
 91
      512
 93
      484
310
43919B185D15DA5D1A115919D95CC010140901404333333333333E3BF0000000000000F9010740901411070040501600405405064090741402480A1B50
 94
        0
1001
ACAD
1000
AcDbSavedByObjectVersion
1070
     0
1000
AcadProxyRoundTripData
1071
      505
1071
   851991
1070
     0
  0
ACAD_PROXY_OBJECT
  5
824
102
{ACAD_REACTORS
330
821
102
}
330
821
100
AcDbProxyObject
 90
      499
 91
      512
 93
      420
310
4211DBDD5C985D590010240902404333333333333E3BF0000000000000F9010740A411070040501641D405064090741402480A1B50
 94
        0
1001
ACAD
1000
AcDbSavedByObjectVersion
1070
     0
1000
AcadProxyRoundTripData
1071
      505
1071
   851991
1070
     0
  0
ACAD_PROXY_OBJECT
  5
825
102
{ACAD_REACTORS
330
821
102
}
330
821
100
AcDbProxyObject
 90
      499
 91
      512
 93
      508
310
4451DBDD5C985D5915DA5D1A115919D95CC010340902404333333333333E3BF0000000000000F9010740901411070040501600405405064090741402480A1B50
 94
        0
1001
ACAD
1000
AcDbSavedByObjectVersion
1070
     0
1000
AcadProxyRoundTripData
1071
      505
1071
   851991
1070
     0
  0
ACAD_PROXY_OBJECT
  5
82F
102
{ACAD_REACTORS
330
821
102
}
330
821
100
AcDbProxyObject
 90
      499
 91
      512
 93
      452
310
43131A5B995C185D1D195C9B8010E409028333333333333E3BF0000000000000FB010790141107004050750841D405064090741402483A0350
 94
        0
1001
ACAD
1000
AcDbSavedByObjectVersion
1070
     0
1000
AcadProxyRoundTripData
1071
      505
1071
   851991
1070
     0
  0
ACAD_PROXY_OBJECT
  5
82B
102
{ACAD_REACTORS
330
821
102
}
330
821
100
AcDbProxyObject
 90
      499
 91
      512
 93
      428
310
429499585B1A5CDD1A58C0108409028333333333333E3BF0000000000000FB01079019070040501508421405064090741402480A1B45
 94
        0
1001
ACAD
1000
AcDbSavedByObjectVersion
1070
     0
1000
AcadProxyRoundTripData
1071
      505
1071
   851991
1070
     0
  0
ACAD_PROXY_OBJECT
  5
82E
102
{ACAD_REACTORS
330
821
102
}
330
821
100
AcDbProxyObject
 90
      499
 91
      512
 93
      420
310
42151A1A58DAD95B8010D409028333333333333E3BF0000000000000FB010790141107004050150C41D405064090741402480A0352
 94
        0
1001
ACAD
1000
AcDbSavedByObjectVersion
1070
     0
1000
AcadProxyRoundTripData
1071
      505
1071
   851991
1070
     0
  0
XRECORD
  5
324A
102
{ACAD_REACTORS
330
3240
102
}
330
3240
100
AcDbXrecord
 90
        0
  0
XRECORD
  5
324E
102
{ACAD_REACTORS
330
3240
102
}
330
3240
100
AcDbXrecord
1000
DSTYLE
1002
{
1070
   179
 70
     2
1070
   277
 70
     6
1002
}
  0
XRECORD
  5
324B
102
{ACAD_REACTORS
330
3240
102
}
330
3240
100
AcDbXrecord
  1
{2B619D65-6486-4694-9735-88ECB2045D11}
  0
XRECORD
  5
3243
102
{ACAD_REACTORS
330
3240
102
}
330
3240
100
AcDbXrecord
  1

  0
XRECORD
  5
3249
102
{ACAD_REACTORS
330
3240
102
}
330
3240
100
AcDbXrecord
 90
        0
  0
XRECORD
  5
3245
102
{ACAD_REACTORS
330
3240
102
}
330
3240
100
AcDbXrecord
340
61
  0
XRECORD
  5
3248
102
{ACAD_REACTORS
330
3240
102
}
330
3240
100
AcDbXrecord
 90
    10781
  0
XRECORD
  5
3246
102
{ACAD_REACTORS
330
3240
102
}
330
3240
100
AcDbXrecord
340
77
  0
XRECORD
  5
3247
102
{ACAD_REACTORS
330
3240
102
}
330
3240
100
AcDbXrecord
340
6
  0
XRECORD
  5
324D
102
{ACAD_REACTORS
330
3240
102
}
330
3240
100
AcDbXrecord
 40
0.0
  0
XRECORD
  5
3251
102
{ACAD_REACTORS
330
3240
102
}
330
3240
100
AcDbXrecord
340
0
  0
XRECORD
  5
3257
102
{ACAD_REACTORS
330
3240
102
}
330
3240
100
AcDbXrecord
 10
0.0
 20
0.0
 30
0.0
  0
XRECORD
  5
3253
102
{ACAD_REACTORS
330
3240
102
}
330
3240
100
AcDbXrecord
 10
0.0
 20
0.0
 30
0.0
  0
XRECORD
  5
3256
102
{ACAD_REACTORS
330
3240
102
}
330
3240
100
AcDbXrecord
 10
0.0
 20
0.0
 30
0.0
  0
XRECORD
  5
3254
102
{ACAD_REACTORS
330
3240
102
}
330
3240
100
AcDbXrecord
 10
0.0
 20
0.0
 30
0.0
  0
XRECORD
  5
3255
102
{ACAD_REACTORS
330
3240
102
}
330
3240
100
AcDbXrecord
 10
0.0
 20
0.0
 30
0.0
  0
XRECORD
  5
3252
102
{ACAD_REACTORS
330
3240
102
}
330
3240
100
AcDbXrecord
 10
0.0
 20
0.0
 30
0.0
  0
XRECORD
  5
324F
102
{ACAD_REACTORS
330
3240
102
}
330
3240
100
AcDbXrecord
340
0
  0
XRECORD
  5
3250
102
{ACAD_REACTORS
330
3240
102
}
330
3240
100
AcDbXrecord
 70
     0
  0
XRECORD
  5
3244
102
{ACAD_REACTORS
330
3240
102
}
330
3240
100
AcDbXrecord
  1
Sekkei.ctb
  0
XRECORD
  5
3241
102
{ACAD_REACTORS
330
3240
102
}
330
3240
100
AcDbXrecord
 90
        1
  0
XRECORD
  5
3242
102
{ACAD_REACTORS
330
3240
102
}
330
3240
100
AcDbXrecord
 90
       70
  0
XRECORD
  5
325A
102
{ACAD_REACTORS
330
3240
102
}
330
3240
100
AcDbXrecord
340
0
  0
XRECORD
  5
3260
102
{ACAD_REACTORS
330
3240
102
}
330
3240
100
AcDbXrecord
 10
0.0
 20
0.0
 30
0.0
  0
XRECORD
  5
325C
102
{ACAD_REACTORS
330
3240
102
}
330
3240
100
AcDbXrecord
 10
0.0
 20
0.0
 30
0.0
  0
XRECORD
  5
325F
102
{ACAD_REACTORS
330
3240
102
}
330
3240
100
AcDbXrecord
 10
0.0
 20
0.0
 30
0.0
  0
XRECORD
  5
325D
102
{ACAD_REACTORS
330
3240
102
}
330
3240
100
AcDbXrecord
 10
0.0
 20
0.0
 30
0.0
  0
XRECORD
  5
325E
102
{ACAD_REACTORS
330
3240
102
}
330
3240
100
AcDbXrecord
 10
0.0
 20
0.0
 30
0.0
  0
XRECORD
  5
325B
102
{ACAD_REACTORS
330
3240
102
}
330
3240
100
AcDbXrecord
 10
0.0
 20
0.0
 30
0.0
  0
XRECORD
  5
3258
102
{ACAD_REACTORS
330
3240
102
}
330
3240
100
AcDbXrecord
340
0
  0
XRECORD
  5
3259
102
{ACAD_REACTORS
330
3240
102
}
330
3240
100
AcDbXrecord
 70
     0
  0
XRECORD
  5
324C
102
{ACAD_REACTORS
330
3240
102
}
330
3240
100
AcDbXrecord
  1
{51CBA483-10F9-4F21-8F0B-54291DFD5083}
  0
DICTIONARYVAR
  5
892
102
{ACAD_REACTORS
330
102
102
}
330
102
100
DictionaryVariables
280
     0
  1
1:1
  0
DICTIONARYVAR
  5
890
102
{ACAD_REACTORS
330
102
102
}
330
102
100
DictionaryVariables
280
     0
  1
STANDARD
  0
DICTIONARYVAR
  5
88F
102
{ACAD_REACTORS
330
102
102
}
330
102
100
DictionaryVariables
280
     0
  1
STANDARD
  0
DICTIONARYVAR
  5
103
102
{ACAD_REACTORS
330
102
102
}
330
102
100
DictionaryVariables
280
     0
  1
1
  0
DICTIONARYVAR
  5
1AB6
102
{ACAD_REACTORS
330
102
102
}
330
102
100
DictionaryVariables
280
     0
  1
0
  0
DICTIONARYVAR
  5
893
102
{ACAD_REACTORS
330
102
102
}
330
102
100
DictionaryVariables
280
     0
  1
0
  0
DICTIONARYVAR
  5
891
102
{ACAD_REACTORS
330
102
102
}
330
102
100
DictionaryVariables
280
     0
  1
0
  0
DICTIONARYVAR
  5
549
102
{ACAD_REACTORS
330
102
102
}
330
102
100
DictionaryVariables
280
     0
  1
96
  0
DICTIONARY
  5
812
330
811
100
AcDbDictionary
280
     1
  3
ACAD_XREC_ROUNDTRIP
360
321E
  3
BUMPTILE
360
814
  3
DIFFUSETILE
360
813
  3
OPACITYTILE
360
817
  3
REFLECTIONTILE
360
816
  3
REFRACTIONTILE
360
818
  3
SPECULARTILE
360
815
  0
DICTIONARY
  5
80A
330
809
100
AcDbDictionary
280
     1
  3
ACAD_XREC_ROUNDTRIP
360
321D
  3
BUMPTILE
360
80C
  3
DIFFUSETILE
360
80B
  3
OPACITYTILE
360
80F
  3
REFLECTIONTILE
360
80E
  3
REFRACTIONTILE
360
810
  3
SPECULARTILE
360
80D
  0
DICTIONARY
  5
81A
330
819
100
AcDbDictionary
280
     1
  3
ACAD_XREC_ROUNDTRIP
360
321F
  3
BUMPTILE
360
81C
  3
DIFFUSETILE
360
81B
  3
OPACITYTILE
360
81F
  3
REFLECTIONTILE
360
81E
  3
REFRACTIONTILE
360
820
  3
SPECULARTILE
360
81D
  0
DICTIONARY
  5
88C
330
834
100
AcDbDictionary
280
     1
  3
ACAD_ROUNDTRIP_2008_TABLES
360
3215
  3
ACAD_XREC_ROUNDTRIP
360
3220
  0
XRECORD
  5
321E
102
{ACAD_REACTORS
330
812
102
}
330
812
100
AcDbXrecord
102
MATERIAL
148
0.0
149
0.0
149
0.0
 93
        0
 94
      127
282
     0
 72
     0
 77
     0
171
     0
175
     0
179
     0
273
     0
  0
XRECORD
  5
814
102
{ACAD_REACTORS
330
812
102
}
330
812
100
AcDbXrecord
270
     1
271
     1
  0
XRECORD
  5
813
102
{ACAD_REACTORS
330
812
102
}
330
812
100
AcDbXrecord
270
     1
271
     1
  0
XRECORD
  5
817
102
{ACAD_REACTORS
330
812
102
}
330
812
100
AcDbXrecord
270
     1
271
     1
  0
XRECORD
  5
816
102
{ACAD_REACTORS
330
812
102
}
330
812
100
AcDbXrecord
270
     1
271
     1
  0
XRECORD
  5
818
102
{ACAD_REACTORS
330
812
102
}
330
812
100
AcDbXrecord
270
     1
271
     1
  0
XRECORD
  5
815
102
{ACAD_REACTORS
330
812
102
}
330
812
100
AcDbXrecord
270
     1
271
     1
  0
XRECORD
  5
321D
102
{ACAD_REACTORS
330
80A
102
}
330
80A
100
AcDbXrecord
102
MATERIAL
148
0.0
149
0.0
149
0.0
 93
        0
 94
      127
282
     0
 72
     0
 77
     0
171
     0
175
     0
179
     0
273
     0
  0
XRECORD
  5
80C
102
{ACAD_REACTORS
330
80A
102
}
330
80A
100
AcDbXrecord
270
     1
271
     1
  0
XRECORD
  5
80B
102
{ACAD_REACTORS
330
80A
102
}
330
80A
100
AcDbXrecord
270
     1
271
     1
  0
XRECORD
  5
80F
102
{ACAD_REACTORS
330
80A
102
}
330
80A
100
AcDbXrecord
270
     1
271
     1
  0
XRECORD
  5
80E
102
{ACAD_REACTORS
330
80A
102
}
330
80A
100
AcDbXrecord
270
     1
271
     1
  0
XRECORD
  5
810
102
{ACAD_REACTORS
330
80A
102
}
330
80A
100
AcDbXrecord
270
     1
271
     1
  0
XRECORD
  5
80D
102
{ACAD_REACTORS
330
80A
102
}
330
80A
100
AcDbXrecord
270
     1
271
     1
  0
XRECORD
  5
321F
102
{ACAD_REACTORS
330
81A
102
}
330
81A
100
AcDbXrecord
102
MATERIAL
148
0.0
149
0.0
149
0.0
 93
        0
 94
      127
282
     0
 72
     0
 77
     0
171
     0
175
     0
179
     0
273
     0
  0
XRECORD
  5
81C
102
{ACAD_REACTORS
330
81A
102
}
330
81A
100
AcDbXrecord
270
     1
271
     1
  0
XRECORD
  5
81B
102
{ACAD_REACTORS
330
81A
102
}
330
81A
100
AcDbXrecord
270
     1
271
     1
  0
XRECORD
  5
81F
102
{ACAD_REACTORS
330
81A
102
}
330
81A
100
AcDbXrecord
270
     1
271
     1
  0
XRECORD
  5
81E
102
{ACAD_REACTORS
330
81A
102
}
330
81A
100
AcDbXrecord
270
     1
271
     1
  0
XRECORD
  5
820
102
{ACAD_REACTORS
330
81A
102
}
330
81A
100
AcDbXrecord
270
     1
271
     1
  0
XRECORD
  5
81D
102
{ACAD_REACTORS
330
81A
102
}
330
81A
100
AcDbXrecord
270
     1
271
     1
  0
ACAD_PROXY_OBJECT
  5
3215
102
{ACAD_REACTORS
330
88C
102
}
330
88C
100
AcDbProxyObject
 90
      499
 91
      512
 93
     1044
310
40D054060020000020000003200101A000080002A5058000000C100000000000000340FE901405075F5449544C450041501A8000000C800406800020000A9416000000304000AD7A3703D0AC73FA409014217D2115051115480105406A0000003200101A000080002A5028000000C10002B5E8DC0F42B1CFE903409065F444
310
15441002
340
16
340
16
340
16
 94
        0
1001
ACAD
1000
AcadProxyRoundTripData
1071
      510
1071
   851991
1070
     0
  0
XRECORD
  5
3220
102
{ACAD_REACTORS
330
88C
102
}
330
88C
100
AcDbXrecord
102
ACAD_ROUNDTRIP_PRE2007_TABLESTYLE
 90
      512
 91
        0
  1

 92
      512
 93
        0
  2

 94
      512
 95
        0
  3

  0
ENDSEC
  0
EOF
