  0
SECTION
  2
HEADER
  9
$ACADVER
  1
AC1014
  9
$ACADMAINTVER
 70
     9
  9
$DWGCODEPAGE
  3
ANSI_932
  9
$INSBASE
 10
0.0
 20
0.0
 30
0.0
  9
$EXTMIN
 10
34.86246706497002
 20
79.82833714013418
 30
0.0
  9
$EXTMAX
 10
1261.579427399211
 20
585.1314265968869
 30
0.0
  9
$LIMMIN
 10
-41.62744328140115
 20
-7.827191348036421
  9
$LIMMAX
 10
1174.614339523422
 20
792.5727910899158
  9
$ORTHOMODE
 70
     1
  9
$REGENMODE
 70
     1
  9
$FILLMODE
 70
     1
  9
$QTEXTMODE
 70
     0
  9
$MIRRTEXT
 70
     0
  9
$DRAGMODE
 70
     2
  9
$LTSCALE
 40
4.0
  9
$OSMODE
 70
    37
  9
$ATTMODE
 70
     1
  9
$TEXTSIZE
 40
2.0
  9
$TRACEWID
 40
1.0
  9
$TEXTSTYLE
  7
STANDARD
  9
$CLAYER
  8
0
  9
$CELTYPE
  6
BYLAYER
  9
$CECOLOR
 62
   256
  9
$CELTSCALE
 40
1.0
  9
$DELOBJ
 70
     1
  9
$DISPSILH
 70
     0
  9
$DIMSCALE
 40
4.0
  9
$DIMASZ
 40
1.8
  9
$DIMEXO
 40
0.625
  9
$DIMDLI
 40
3.75
  9
$DIMRND
 40
0.0
  9
$DIMDLE
 40
0.0
  9
$DIMEXE
 40
0.8
  9
$DIMTP
 40
0.0
  9
$DIMTM
 40
0.0
  9
$DIMTXT
 40
1.8
  9
$DIMCEN
 40
2.5
  9
$DIMTSZ
 40
0.0
  9
$DIMTOL
 70
     0
  9
$DIMLIM
 70
     0
  9
$DIMTIH
 70
     0
  9
$DIMTOH
 70
     0
  9
$DIMSE1
 70
     0
  9
$DIMSE2
 70
     0
  9
$DIMTAD
 70
     1
  9
$DIMZIN
 70
     8
  9
$DIMBLK
  1

  9
$DIMASO
 70
     1
  9
$DIMSHO
 70
     1
  9
$DIMPOST
  1

  9
$DIMAPOST
  1

  9
$DIMALT
 70
     0
  9
$DIMALTD
 70
     4
  9
$DIMALTF
 40
0.0394
  9
$DIMLFAC
 40
1.0
  9
$DIMTOFL
 70
     1
  9
$DIMTVP
 40
0.0
  9
$DIMTIX
 70
     0
  9
$DIMSOXD
 70
     0
  9
$DIMSAH
 70
     0
  9
$DIMBLK1
  1

  9
$DIMBLK2
  1

  9
$DIMSTYLE
  2
STANDARD
  9
$DIMCLRD
 70
     0
  9
$DIMCLRE
 70
     0
  9
$DIMCLRT
 70
     0
  9
$DIMTFAC
 40
1.0
  9
$DIMGAP
 40
0.75
  9
$DIMJUST
 70
     0
  9
$DIMSD1
 70
     0
  9
$DIMSD2
 70
     0
  9
$DIMTOLJ
 70
     1
  9
$DIMTZIN
 70
     0
  9
$DIMALTZ
 70
     0
  9
$DIMALTTZ
 70
     0
  9
$DIMFIT
 70
     3
  9
$DIMUPT
 70
     0
  9
$DIMUNIT
 70
     8
  9
$DIMDEC
 70
     2
  9
$DIMTDEC
 70
     2
  9
$DIMALTU
 70
     8
  9
$DIMALTTD
 70
     4
  9
$DIMTXSTY
  7
STANDARD
  9
$DIMAUNIT
 70
     0
  9
$LUNITS
 70
     2
  9
$LUPREC
 70
     3
  9
$SKETCHINC
 40
1.0
  9
$FILLETRAD
 40
2.0
  9
$AUNITS
 70
     0
  9
$AUPREC
 70
     2
  9
$MENU
  1
.
  9
$ELEVATION
 40
0.0
  9
$PELEVATION
 40
0.0
  9
$THICKNESS
 40
0.0
  9
$LIMCHECK
 70
     0
  9
$BLIPMODE
 70
     0
  9
$CHAMFERA
 40
0.0
  9
$CHAMFERB
 40
0.0
  9
$CHAMFERC
 40
20.0
  9
$CHAMFERD
 40
0.0
  9
$SKPOLY
 70
     0
  9
$TDCREATE
 40
2454412.642362187
  9
$TDUPDATE
 40
2454424.581839363
  9
$TDINDWG
 40
0.0587472801
  9
$TDUSRTIMER
 40
0.0587472801
  9
$USRTIMER
 70
     1
  9
$ANGBASE
 50
0.0
  9
$ANGDIR
 70
     0
  9
$PDMODE
 70
     0
  9
$PDSIZE
 40
-10.0
  9
$PLINEWID
 40
0.0
  9
$COORDS
 70
     0
  9
$SPLFRAME
 70
     0
  9
$SPLINETYPE
 70
     6
  9
$SPLINESEGS
 70
     8
  9
$ATTDIA
 70
     0
  9
$ATTREQ
 70
     1
  9
$HANDLING
 70
-16383
  9
$HANDSEED
  5
3D9A
  9
$SURFTAB1
 70
     6
  9
$SURFTAB2
 70
     6
  9
$SURFTYPE
 70
     6
  9
$SURFU
 70
     6
  9
$SURFV
 70
     6
  9
$UCSNAME
  2

  9
$UCSORG
 10
0.0
 20
0.0
 30
0.0
  9
$UCSXDIR
 10
1.0
 20
0.0
 30
0.0
  9
$UCSYDIR
 10
0.0
 20
1.0
 30
0.0
  9
$PUCSNAME
  2

  9
$PUCSORG
 10
0.0
 20
0.0
 30
0.0
  9
$PUCSXDIR
 10
1.0
 20
0.0
 30
0.0
  9
$PUCSYDIR
 10
0.0
 20
1.0
 30
0.0
  9
$USERI1
 70
     0
  9
$USERI2
 70
     0
  9
$USERI3
 70
     0
  9
$USERI4
 70
     0
  9
$USERI5
 70
     0
  9
$USERR1
 40
0.0
  9
$USERR2
 40
0.0
  9
$USERR3
 40
0.0
  9
$USERR4
 40
0.0
  9
$USERR5
 40
0.0
  9
$WORLDVIEW
 70
     1
  9
$SHADEDGE
 70
     3
  9
$SHADEDIF
 70
    70
  9
$TILEMODE
 70
     1
  9
$MAXACTVP
 70
    48
  9
$PINSBASE
 10
0.0
 20
0.0
 30
0.0
  9
$PLIMCHECK
 70
     0
  9
$PEXTMIN
 10
0.0
 20
0.0
 30
0.0
  9
$PEXTMAX
 10
0.0
 20
0.0
 30
0.0
  9
$PLIMMIN
 10
0.0
 20
0.0
  9
$PLIMMAX
 10
12.0
 20
9.0
  9
$UNITMODE
 70
     0
  9
$VISRETAIN
 70
     1
  9
$PLINEGEN
 70
     0
  9
$PSLTSCALE
 70
     1
  9
$TREEDEPTH
 70
  3020
  9
$PICKSTYLE
 70
     1
  9
$CMLSTYLE
  2
STANDARD
  9
$CMLJUST
 70
     0
  9
$CMLSCALE
 40
1.0
  9
$PROXYGRAPHICS
 70
     1
  9
$MEASUREMENT
 70
     0
  0
ENDSEC
  0
SECTION
  2
CLASSES
  0
CLASS
  1
DICTIONARYVAR
  2
AcDbDictionaryVar
  3
AutoCAD 2000
 90
        0
280
     0
281
     0
  0
CLASS
  1
ACDBDICTIONARYWDFLT
  2
AcDbDictionaryWithDefault
  3
AutoCAD 2000
 90
        0
280
     0
281
     0
  0
CLASS
  1
ACDBPLACEHOLDER
  2
AcDbPlaceHolder
  3
AutoCAD 2000
 90
        0
280
     0
281
     0
  0
CLASS
  1
LAYOUT
  2
AcDbLayout
  3
AutoCAD 2000
 90
        0
280
     0
281
     0
  0
CLASS
  1
LONG_TRANSACTION
  2
AcDbLongTransaction
  3
AutoCAD 2000
 90
        0
280
     0
281
     0
  0
CLASS
  1
LWPOLYLINE
  2
AcDbPolyline
  3
AutoCAD 2000
 90
        0
280
     0
281
     1
  0
CLASS
  1
HATCH
  2
AcDbHatch
  3
AutoCAD 2000
 90
        0
280
     0
281
     1
  0
CLASS
  1
XRECORD
  2
AcDbXrecord
  3
AutoCAD 2000
 90
        0
280
     0
281
     0
  0
ENDSEC
  0
SECTION
  2
TABLES
  0
TABLE
  2
VPORT
  5
6E
330
0
100
AcDbSymbolTable
 70
     2
  0
VPORT
  5
3D74
330
6E
100
AcDbSymbolTableRecord
100
AcDbViewportTableRecord
  2
*ACTIVE
 70
     0
 10
0.0
 20
0.0
 11
1.0
 21
1.0
 12
734.9242170717988
 22
320.6817021498546
 13
0.0
 23
0.0
 14
10.0
 24
10.0
 15
24.0
 25
24.0
 16
0.0
 26
0.0
 36
1.0
 17
0.0
 27
0.0
 37
0.0
 40
802.1149784067889
 41
1.753504672897196
 42
50.0
 43
0.0
 44
0.0
 50
0.0
 51
0.0
 71
     0
 72
   100
 73
     1
 74
     3
 75
     0
 76
     0
 77
     0
 78
     0
  0
ENDTAB
  0
TABLE
  2
LTYPE
  5
69
330
0
100
AcDbSymbolTable
 70
     6
  0
LTYPE
  5
6A
330
69
100
AcDbSymbolTableRecord
100
AcDbLinetypeTableRecord
  2
BYBLOCK
 70
     0
  3

 72
    65
 73
     0
 40
0.0
  0
LTYPE
  5
6B
330
69
100
AcDbSymbolTableRecord
100
AcDbLinetypeTableRecord
  2
BYLAYER
 70
     0
  3

 72
    65
 73
     0
 40
0.0
  0
LTYPE
  5
8
330
69
100
AcDbSymbolTableRecord
100
AcDbLinetypeTableRecord
  2
CONTINUOUS
 70
     0
  3
Solid line
 72
    65
 73
     0
 40
0.0
  0
LTYPE
  5
27C
330
69
100
AcDbSymbolTableRecord
100
AcDbLinetypeTableRecord
  2
SEKKEI_A2_
 70
     0
  3
center(A2)  ____ _ ____ _ ____ _ ____ _ ____ _ 
 72
    65
 73
     4
 40
14.28749999999999
 49
9.525
 74
     0
 49
-1.587499999999999
 74
     0
 49
1.587499999999999
 74
     0
 49
-1.587499999999999
 74
     0
  0
LTYPE
  5
48F
330
69
100
AcDbSymbolTableRecord
100
AcDbLinetypeTableRecord
  2
SEKKEI_H
 70
     0
  3
Hidden-S _ _ _ _ _ _ _ _ _ _ _ _ _ _ _ _ _
 72
    65
 73
     2
 40
2.381249999999999
 49
1.587499999999999
 74
     0
 49
-0.79375
 74
     0
  0
LTYPE
  5
7F0
330
69
100
AcDbSymbolTableRecord
100
AcDbLinetypeTableRecord
  2
HIDDEN3
 70
     0
  3
Hidden (.3x) _ _ _ _ _ _ _ _ _ _ _ _ _ _ _ _ _
 72
    65
 73
     2
 40
2.857499999999999
 49
1.905
 74
     0
 49
-0.9525
 74
     0
  0
LTYPE
  5
B20
330
69
100
AcDbSymbolTableRecord
100
AcDbLinetypeTableRecord
  2
CENS
 70
     0
  3
(一点鎖線１)---- - ---- - ---- - ---- - ---- - 
 72
    65
 73
     4
 40
7.0
 49
4.0
 74
     0
 49
-1.0
 74
     0
 49
1.0
 74
     0
 49
-1.0
 74
     0
  0
ENDTAB
  0
TABLE
  2
LAYER
  5
66
102
{ACAD_XDICTIONARY
360
B21
102
}
330
0
100
AcDbSymbolTable
 70
     9
  0
LAYER
  5
5E
330
66
100
AcDbSymbolTableRecord
100
AcDbLayerTableRecord
  2
0
 70
     0
 62
     7
  6
CONTINUOUS
  0
LAYER
  5
3E
330
66
100
AcDbSymbolTableRecord
100
AcDbLayerTableRecord
  2
CENTER
 70
     0
 62
     3
  6
SEKKEI_A2_
  0
LAYER
  5
2B5
330
66
100
AcDbSymbolTableRecord
100
AcDbLayerTableRecord
  2
HIDS
 70
     0
 62
     1
  6
HIDDEN3
  0
LAYER
  5
2BA
330
66
100
AcDbSymbolTableRecord
100
AcDbLayerTableRecord
  2
HOJO
 70
     0
 62
     4
  6
CONTINUOUS
  0
LAYER
  5
3FA
330
66
100
AcDbSymbolTableRecord
100
AcDbLayerTableRecord
  2
TITLE
 70
     0
 62
     4
  6
CONTINUOUS
  0
ENDTAB
  0
TABLE
  2
STYLE
  5
67
330
0
100
AcDbSymbolTable
 70
     2
  0
STYLE
  5
16
330
67
100
AcDbSymbolTableRecord
100
AcDbTextStyleTableRecord
  2
STANDARD
 70
     0
 40
0.0
 41
1.0
 50
0.0
 71
     0
 42
2.0
  3
simplex.shx
  4
extfont.shx
  0
ENDTAB
  0
TABLE
  2
VIEW
  5
6C
330
0
100
AcDbSymbolTable
 70
     0
  0
ENDTAB
  0
TABLE
  2
UCS
  5
6D
330
0
100
AcDbSymbolTable
 70
     0
  0
ENDTAB
  0
TABLE
  2
APPID
  5
70
330
0
100
AcDbSymbolTable
 70
     2
  0
APPID
  5
71
330
70
100
AcDbSymbolTableRecord
100
AcDbRegAppTableRecord
  2
ACAD
 70
     0
  0
APPID
  5
1E93
330
70
100
AcDbSymbolTableRecord
100
AcDbRegAppTableRecord
  2
ACAD_MLEADERVER
 70
     0
  0
ENDTAB
  0
TABLE
  2
DIMSTYLE
  5
72
330
0
100
AcDbSymbolTable
 70
     1
  0
DIMSTYLE
105
73
102
{ACAD_REACTORS
330
1463
330
1473
330
147A
102
}
330
72
100
AcDbSymbolTableRecord
100
AcDbDimStyleTableRecord
  2
STANDARD
 70
     0
  3

  4

  5

  6

  7

 40
4.0
 41
1.8
 42
0.625
 43
3.75
 44
0.8
 45
0.0
 46
0.0
 47
0.0
 48
0.0
140
1.8
141
2.5
142
0.0
143
0.0394
144
1.0
145
0.0
146
1.0
147
0.75
 71
     0
 72
     0
 73
     0
 74
     0
 75
     0
 76
     0
 77
     1
 78
     8
170
     0
171
     4
172
     1
173
     0
174
     0
175
     0
176
     0
177
     0
178
     0
270
     8
271
     2
272
     2
273
     8
274
     4
340
16
275
     0
280
     0
281
     0
282
     0
283
     1
284
     0
285
     0
286
     0
287
     3
288
     0
  0
ENDTAB
  0
TABLE
  2
BLOCK_RECORD
  5
1
330
0
100
AcDbSymbolTable
 70
    47
  0
BLOCK_RECORD
  5
2
102
{ACAD_XDICTIONARY
360
3D96
102
}
330
1
100
AcDbSymbolTableRecord
100
AcDbBlockTableRecord
  2
*MODEL_SPACE
  0
BLOCK_RECORD
  5
3D6F
102
{ACAD_XDICTIONARY
360
3D98
102
}
330
1
100
AcDbSymbolTableRecord
100
AcDbBlockTableRecord
  2
*PAPER_SPACE
  0
ENDTAB
  0
ENDSEC
  0
SECTION
  2
BLOCKS
  0
BLOCK
  5
5D
330
2
100
AcDbEntity
  8
0
100
AcDbBlockBegin
  2
*MODEL_SPACE
 70
     0
 10
0.0
 20
0.0
 30
0.0
  3
*MODEL_SPACE
  1

  0
ENDBLK
  5
5F
330
2
100
AcDbEntity
  8
0
100
AcDbBlockEnd
  0
BLOCK
  5
3D71
330
3D6F
100
AcDbEntity
 67
     1
  8
0
100
AcDbBlockBegin
  2
*PAPER_SPACE
 70
     0
 10
0.0
 20
0.0
 30
0.0
  3
*PAPER_SPACE
  1

  0
ENDBLK
  5
3D72
330
3D6F
100
AcDbEntity
 67
     1
  8
0
100
AcDbBlockEnd
  0
ENDSEC
  0
SECTION
  2
ENTITIES
  0
TEXT
  5
FDC
330
2
100
AcDbEntity
  8
TITLE
100
AcDbText
 10
426.9346977012719
 20
517.0459966857614
 30
0.0
 40
10.0
  1
AFCZ22L-40~60M200S1
100
AcDbText
  0
TEXT
  5
FDD
330
2
100
AcDbEntity
  8
TITLE
100
AcDbText
 10
426.9346977012719
 20
501.7126633524281
 30
0.0
 40
10.0
  1
AFCZ22L-40~60L200S1
100
AcDbText
  0
LINE
  5
FDF
330
2
100
AcDbEntity
  8
CENTER
100
AcDbLine
 10
282.6524670649718
 20
154.8283371401341
 30
0.0
 11
34.86246706497002
 21
154.8283371401341
 31
0.0
  0
LINE
  5
FE1
330
2
100
AcDbEntity
  8
0
100
AcDbLine
 10
1220.579427399206
 20
205.8283371401341
 30
0.0
 11
1220.579427399206
 21
190.9394482512454
 31
0.0
  0
LINE
  5
FE2
330
2
100
AcDbEntity
  8
CENTER
100
AcDbLine
 10
1192.579427399206
 20
220.5839848419929
 30
0.0
 11
1192.579427399206
 21
89.0726894382753
 31
0.0
  0
LINE
  5
FE3
330
2
100
AcDbEntity
  8
0
100
AcDbLine
 10
1154.579427399206
 20
205.2523638659442
 30
0.0
 11
1154.579427399206
 21
104.404310414324
 31
0.0
  0
LINE
  5
FE9
330
2
100
AcDbEntity
  8
CENTER
100
AcDbLine
 10
685.6335898757773
 20
154.8283371401341
 30
0.0
 11
942.4235898775021
 21
154.8283371401341
 31
0.0
  0
LINE
  5
FEC
330
2
100
AcDbEntity
  8
CENTER
100
AcDbLine
 10
694.8779421739194
 20
516.1314265968824
 30
0.0
 11
942.4235898775027
 21
516.1314265968824
 31
0.0
  0
LINE
  5
FEF
330
2
100
AcDbEntity
  8
CENTER
100
AcDbLine
 10
1078.579427399208
 20
154.8283371401341
 30
0.0
 11
1261.579427399211
 21
154.8283371401341
 31
0.0
  0
LINE
  5
FF0
330
2
100
AcDbEntity
  8
0
100
AcDbLine
 10
1149.579427399207
 20
199.8283371401341
 30
0.0
 11
1149.579427399213
 21
109.8283371401341
 31
0.0
  0
LINE
  5
FF1
330
2
100
AcDbEntity
  8
0
100
AcDbLine
 10
1154.579427399206
 20
199.8283371401341
 30
0.0
 11
1149.579427399207
 21
199.8283371401341
 31
0.0
  0
LINE
  5
FF2
330
2
100
AcDbEntity
  8
0
100
AcDbLine
 10
1154.579427399206
 20
109.8283371401341
 30
0.0
 11
1149.579427399207
 21
109.8283371401341
 31
0.0
  0
LINE
  5
FF3
330
2
100
AcDbEntity
  8
0
100
AcDbLine
 10
1220.579427399206
 20
118.7172260290246
 30
0.0
 11
1220.579427399206
 21
103.8283371401341
 31
0.0
  0
LINE
  5
FFC
330
2
100
AcDbEntity
  8
0
100
AcDbLine
 10
1220.579427399206
 20
103.8283371401341
 30
0.0
 11
1154.579427399206
 21
104.404310414324
 31
0.0
  0
LINE
  5
FFD
330
2
100
AcDbEntity
  8
0
100
AcDbLine
 10
1220.579427399206
 20
205.8283371401341
 30
0.0
 11
1154.579427399206
 21
205.2523638659442
 31
0.0
  0
LINE
  5
1002
330
2
100
AcDbEntity
  8
0
100
AcDbLine
 10
884.4235898775021
 20
552.1314265968824
 30
0.0
 11
884.4235898775021
 21
480.1314265968824
 31
0.0
  0
LINE
  5
1008
330
2
100
AcDbEntity
  8
0
100
AcDbLine
 10
884.4235898775021
 20
552.1314265968824
 30
0.0
 11
884.4235898775021
 21
480.1314265968824
 31
0.0
  0
LINE
  5
100B
330
2
100
AcDbEntity
  8
0
100
AcDbLine
 10
884.4235898757769
 20
191.3283371401341
 30
0.0
 11
884.4235898757769
 21
118.3283371401341
 31
0.0
  0
LINE
  5
1036
330
2
100
AcDbEntity
  8
0
100
AcDbLine
 10
92.86246706497001
 20
118.3283371401341
 30
0.0
 11
92.86246706497001
 21
191.3283371401341
 31
0.0
  0
LINE
  5
1044
330
2
100
AcDbEntity
  8
0
100
AcDbLine
 10
1135.579427399207
 20
122.759714689748
 30
0.0
 11
1135.579427399205
 21
186.896959590522
 31
0.0
  0
LINE
  5
1045
330
2
100
AcDbEntity
  8
0
100
AcDbLine
 10
1147.64922639261
 20
189.2498238085956
 30
0.0
 11
1137.5096284058
 21
188.8957412445599
 31
0.0
  0
LINE
  5
1046
330
2
100
AcDbEntity
  8
0
100
AcDbLine
 10
1147.64922639261
 20
120.4068504716744
 30
0.0
 11
1137.509628405801
 21
120.7609330357101
 31
0.0
  0
ARC
  5
1047
330
2
100
AcDbEntity
  8
0
100
AcDbCircle
 10
1137.579427399207
 20
122.759714689748
 30
0.0
 40
2.0
100
AcDbArc
 50
180.0
 51
267.9999999999963
  0
ARC
  5
1048
330
2
100
AcDbEntity
  8
0
100
AcDbCircle
 10
1147.579427399205
 20
118.4080688176365
 30
0.0
 40
2.0
100
AcDbArc
 50
0.0
 51
87.99999999999636
  0
ARC
  5
1049
330
2
100
AcDbEntity
  8
0
100
AcDbCircle
 10
1137.579427399205
 20
186.896959590522
 30
0.0
 40
2.0
100
AcDbArc
 50
92.00000000000365
 51
180.0
  0
ARC
  5
104A
330
2
100
AcDbEntity
  8
0
100
AcDbCircle
 10
1147.579427399205
 20
191.2486054626353
 30
0.0
 40
2.0
100
AcDbArc
 50
271.9999999999775
 51
0.0
  0
LINE
  5
109F
330
2
100
AcDbEntity
  8
0
100
AcDbLine
 10
1192.579427399206
 20
191.3283371401359
 30
0.0
 11
1223.64886514666
 21
190.8968171714206
 31
0.0
  0
ARC
  5
10A0
330
2
100
AcDbEntity
  8
0
100
AcDbCircle
 10
1223.579427399205
 20
185.8972993547469
 30
0.0
 40
5.0
100
AcDbArc
 50
44.44120087857601
 51
89.20427644725567
  0
LINE
  5
10A1
330
2
100
AcDbEntity
  8
0
100
AcDbLine
 10
1228.579427399206
 20
179.3283371401341
 30
0.0
 11
1228.579427399205
 21
177.3676080451934
 31
0.0
  0
LINE
  5
10A2
330
2
100
AcDbEntity
  8
0
100
AcDbLine
 10
1228.579427399205
 20
132.2890662350766
 30
0.0
 11
1228.579427399205
 21
130.3283371401359
 31
0.0
  0
ARC
  5
10A3
330
2
100
AcDbEntity
  8
0
100
AcDbCircle
 10
1223.579427399205
 20
123.7593749255231
 30
0.0
 40
5.0
100
AcDbArc
 50
270.7957235527443
 51
315.5587991206642
  0
LINE
  5
10A4
330
2
100
AcDbEntity
  8
0
100
AcDbLine
 10
1192.579427399206
 20
118.3283371401341
 30
0.0
 11
1223.64886514666
 21
118.7598571088494
 31
0.0
  0
LINE
  5
10A5
330
2
100
AcDbEntity
  8
0
100
AcDbLine
 10
1192.579427399206
 20
118.3283371401341
 30
0.0
 11
1161.509991396049
 21
118.7598570846222
 31
0.0
  0
ARC
  5
10A6
330
2
100
AcDbEntity
  8
0
100
AcDbCircle
 10
1161.579429143503
 20
123.7593749012959
 30
0.0
 40
5.0
100
AcDbArc
 50
224.4419082453118
 51
269.2042764472556
  0
ARC
  5
10A7
330
2
100
AcDbEntity
  8
0
100
AcDbCircle
 10
1161.579429143503
 20
185.897299378974
 30
0.0
 40
5.0
100
AcDbArc
 50
90.79572355274434
 51
135.5580917554524
  0
LINE
  5
10A8
330
2
100
AcDbEntity
  8
0
100
AcDbLine
 10
1192.579427399206
 20
191.3283371401359
 30
0.0
 11
1161.509991396049
 21
190.8968171956477
 31
0.0
  0
LINE
  5
10D9
330
2
100
AcDbEntity
  8
0
100
AcDbLine
 10
1220.579427399206
 20
197.8283371401323
 30
0.0
 11
1154.579427399206
 21
197.8283371401323
 31
0.0
  0
LINE
  5
10DA
330
2
100
AcDbEntity
  8
0
100
AcDbLine
 10
1220.579427399206
 20
111.8283371401359
 30
0.0
 11
1154.579427399206
 21
111.8283371401359
 31
0.0
  0
LINE
  5
11FC
330
2
100
AcDbEntity
  8
0
100
AcDbLine
 10
1246.579427399211
 20
122.4056874093259
 30
0.0
 11
1246.579427399212
 21
187.2509868709459
 31
0.0
  0
LINE
  5
11FD
330
2
100
AcDbEntity
  8
0
100
AcDbLine
 10
1236.665213836839
 20
195.2425507025074
 30
0.0
 11
1237.493640961583
 21
194.4141235777626
 31
0.0
  0
LINE
  5
11FE
330
2
100
AcDbEntity
  8
0
100
AcDbLine
 10
1220.579427399208
 20
205.8283371401341
 30
0.0
 11
1220.579427399208
 21
190.9394482512454
 31
0.0
  0
LINE
  5
11FF
330
2
100
AcDbEntity
  8
0
100
AcDbLine
 10
1220.579427399205
 20
118.7172260290228
 30
0.0
 11
1220.579427399203
 21
103.8283371401359
 31
0.0
  0
LINE
  5
1200
330
2
100
AcDbEntity
  8
0
100
AcDbLine
 10
1228.079427399208
 20
188.7802632105123
 30
0.0
 11
1228.079427399208
 21
188.076748826512
 31
0.0
  0
LINE
  5
1201
330
2
100
AcDbEntity
  8
0
100
AcDbLine
 10
1233.079427399207
 20
179.3283371401341
 30
0.0
 11
1233.079427399205
 21
130.3283371401359
 31
0.0
  0
ARC
  5
1202
330
2
100
AcDbEntity
  8
0
100
AcDbCircle
 10
1231.079427399208
 20
188.7366288715604
 30
0.0
 40
2.0
100
AcDbArc
 50
17.20876206250203
 51
89.50000000000846
  0
LINE
  5
1203
330
2
100
AcDbEntity
  8
0
100
AcDbLine
 10
1236.079427399214
 20
105.9462260120819
 30
0.0
 11
1236.079427399211
 21
203.7104482681863
 31
0.0
  0
ARC
  5
1204
330
2
100
AcDbEntity
  8
0
100
AcDbCircle
 10
1234.079427399214
 20
105.9462260120819
 30
0.0
 40
2.0
100
AcDbArc
 50
270.4999999999915
 51
0.0
  0
LINE
  5
1205
330
2
100
AcDbEntity
  8
0
100
AcDbLine
 10
1242.079427399211
 20
187.6283371401352
 30
0.0
 11
1241.879427399211
 21
187.8283371401341
 31
0.0
  0
LINE
  5
1206
330
2
100
AcDbEntity
  8
0
100
AcDbLine
 10
1238.579427399211
 20
189.8283371401341
 30
0.0
 11
1238.079427399211
 21
190.3283371401341
 31
0.0
  0
LINE
  5
1207
330
2
100
AcDbEntity
  8
0
100
AcDbLine
 10
1238.07942739921
 20
192.9999100153892
 30
0.0
 11
1238.079427399211
 21
190.3283371401341
 31
0.0
  0
LINE
  5
1208
330
2
100
AcDbEntity
  8
0
100
AcDbLine
 10
1241.879427399211
 20
187.8283371401341
 30
0.0
 11
1238.579427399211
 21
187.8283371401341
 31
0.0
  0
LINE
  5
1209
330
2
100
AcDbEntity
  8
0
100
AcDbLine
 10
1245.579427399211
 20
187.8283371401341
 30
0.0
 11
1246.579427399211
 21
187.2509868709459
 31
0.0
  0
LINE
  5
120A
330
2
100
AcDbEntity
  8
0
100
AcDbLine
 10
1245.579427399212
 20
187.8283371401341
 30
0.0
 11
1244.279427399211
 21
187.8283371401341
 31
0.0
  0
LINE
  5
120B
330
2
100
AcDbEntity
  8
0
100
AcDbLine
 10
1243.879427399211
 20
187.1283371401352
 30
0.0
 11
1242.279427399211
 21
187.1283371401352
 31
0.0
  0
LINE
  5
120C
330
2
100
AcDbEntity
  8
0
100
AcDbLine
 10
1220.579427399203
 20
103.8283371401359
 30
0.0
 11
1234.096880470211
 21
103.9463021659541
 31
0.0
  0
LINE
  5
120D
330
2
100
AcDbEntity
  8
0
100
AcDbLine
 10
1236.665213836839
 20
114.4141235777626
 30
0.0
 11
1237.493640961578
 21
115.242550702502
 31
0.0
  0
LINE
  5
120E
330
2
100
AcDbEntity
  8
0
100
AcDbLine
 10
1238.579427399207
 20
119.8283371401359
 30
0.0
 11
1238.579427399214
 21
189.8283371401323
 31
0.0
  0
LINE
  5
120F
330
2
100
AcDbEntity
  8
0
100
AcDbLine
 10
1242.079427399207
 20
122.0283371401348
 30
0.0
 11
1242.079427399207
 21
187.6283371401388
 31
0.0
  0
LINE
  5
1210
330
2
100
AcDbEntity
  8
0
100
AcDbLine
 10
1242.079427399207
 20
122.0283371401348
 30
0.0
 11
1241.879427399206
 21
121.8283371401341
 31
0.0
  0
LINE
  5
1211
330
2
100
AcDbEntity
  8
0
100
AcDbLine
 10
1241.879427399206
 20
121.8283371401341
 30
0.0
 11
1238.579427399207
 21
121.8283371401359
 31
0.0
  0
LINE
  5
1212
330
2
100
AcDbEntity
  8
0
100
AcDbLine
 10
1238.579427399207
 20
119.8283371401359
 30
0.0
 11
1238.079427399207
 21
119.3283371401359
 31
0.0
  0
LINE
  5
1213
330
2
100
AcDbEntity
  8
0
100
AcDbLine
 10
1238.079427399205
 20
116.6567642648753
 30
0.0
 11
1238.079427399211
 21
190.3283371401341
 31
0.0
  0
LINE
  5
1214
330
2
100
AcDbEntity
  8
0
100
AcDbLine
 10
1245.579427399206
 20
121.8283371401341
 30
0.0
 11
1246.579427399207
 21
122.4056874093241
 31
0.0
  0
LINE
  5
1215
330
2
100
AcDbEntity
  8
0
100
AcDbLine
 10
1244.079427399206
 20
122.0283371401348
 30
0.0
 11
1244.079427399206
 21
187.6283371401352
 31
0.0
  0
LINE
  5
1216
330
2
100
AcDbEntity
  8
0
100
AcDbLine
 10
1245.579427399206
 20
121.8283371401341
 30
0.0
 11
1244.279427399206
 21
121.8283371401341
 31
0.0
  0
LINE
  5
1217
330
2
100
AcDbEntity
  8
0
100
AcDbLine
 10
1243.879427399206
 20
122.5283371401348
 30
0.0
 11
1242.279427399207
 21
122.5283371401348
 31
0.0
  0
ARC
  5
1218
330
2
100
AcDbEntity
  8
0
100
AcDbCircle
 10
1236.079427399205
 20
116.6567642648753
 30
0.0
 40
2.0
100
AcDbArc
 50
314.9999999999905
 51
0.0
  0
ARC
  5
1219
330
2
100
AcDbEntity
  8
0
100
AcDbCircle
 10
1238.079427399212
 20
112.9999100153892
 30
0.0
 40
2.0
100
AcDbArc
 50
134.9999999999905
 51
180.0
  0
ARC
  5
121A
330
2
100
AcDbEntity
  8
0
100
AcDbCircle
 10
1236.07942739921
 20
192.9999100153892
 30
0.0
 40
2.0
100
AcDbArc
 50
0.0
 51
45.00000000000949
  0
ARC
  5
121B
330
2
100
AcDbEntity
  8
0
100
AcDbCircle
 10
1238.079427399212
 20
196.6567642648807
 30
0.0
 40
2.0
100
AcDbArc
 50
180.0
 51
225.0000000000094
  0
ARC
  5
121C
330
2
100
AcDbEntity
  8
0
100
AcDbCircle
 10
1244.279427399207
 20
122.0283371401348
 30
0.0
 40
0.2
100
AcDbArc
 50
180.0
 51
269.9999999999739
  0
ARC
  5
121D
330
2
100
AcDbEntity
  8
0
100
AcDbCircle
 10
1243.879427399206
 20
122.3283371401341
 30
0.0
 40
0.2
100
AcDbArc
 50
0.0
 51
89.99999999997395
  0
ARC
  5
121E
330
2
100
AcDbEntity
  8
0
100
AcDbCircle
 10
1242.279427399207
 20
122.3283371401341
 30
0.0
 40
0.2
100
AcDbArc
 50
89.99999999997395
 51
180.0
  0
ARC
  5
121F
330
2
100
AcDbEntity
  8
0
100
AcDbCircle
 10
1244.279427399211
 20
187.6283371401352
 30
0.0
 40
0.2
100
AcDbArc
 50
90.0
 51
180.0
  0
ARC
  5
1220
330
2
100
AcDbEntity
  8
0
100
AcDbCircle
 10
1243.879427399211
 20
187.3283371401341
 30
0.0
 40
0.2
100
AcDbArc
 50
270.0
 51
0.0
  0
ARC
  5
1221
330
2
100
AcDbEntity
  8
0
100
AcDbCircle
 10
1242.279427399211
 20
187.3283371401341
 30
0.0
 40
0.2
100
AcDbArc
 50
180.0
 51
270.0
  0
LINE
  5
1222
330
2
100
AcDbEntity
  8
0
100
AcDbLine
 10
1245.579427399206
 20
121.8283371401341
 30
0.0
 11
1245.579427399211
 21
187.8283371401341
 31
0.0
  0
LINE
  5
1223
330
2
100
AcDbEntity
  8
0
100
AcDbLine
 10
1241.879427399206
 20
121.8283371401341
 30
0.0
 11
1241.879427399211
 21
187.8283371401341
 31
0.0
  0
ARC
  5
1224
330
2
100
AcDbEntity
  8
0
100
AcDbCircle
 10
1234.079427399214
 20
203.7104482681863
 30
0.0
 40
2.0
100
AcDbArc
 50
0.0
 51
89.50000000000846
  0
LINE
  5
1225
330
2
100
AcDbEntity
  8
0
100
AcDbLine
 10
1220.579427399203
 20
205.8283371401341
 30
0.0
 11
1234.096880470211
 21
205.7103721143159
 31
0.0
  0
LINE
  5
1226
330
2
100
AcDbEntity
  8
0
100
AcDbLine
 10
1231.096880470205
 20
190.7365527176882
 30
0.0
 11
1224.59389487497
 21
190.793303413224
 31
0.0
  0
LINE
  5
1227
330
2
100
AcDbEntity
  8
0
100
AcDbLine
 10
1228.575064131459
 20
177.3676461228534
 30
0.0
 11
1231.096880470204
 21
177.3456385650717
 31
0.0
  0
ARC
  5
1228
330
2
100
AcDbEntity
  8
0
100
AcDbCircle
 10
1226.079427399208
 20
188.7802632105123
 30
0.0
 40
2.0
100
AcDbArc
 50
0.0
 51
89.50000000000846
  0
ARC
  5
1229
330
2
100
AcDbEntity
  8
0
100
AcDbCircle
 10
1231.079427399206
 20
175.3457147189439
 30
0.0
 40
2.0
100
AcDbArc
 50
0.0
 51
89.49999999998238
  0
LINE
  5
122A
330
2
100
AcDbEntity
  8
0
100
AcDbLine
 10
1228.079427399208
 20
120.3283371401359
 30
0.0
 11
1228.079427399207
 21
121.5799254537561
 31
0.0
  0
ARC
  5
122B
330
2
100
AcDbEntity
  8
0
100
AcDbCircle
 10
1231.079427399208
 20
120.9200454087096
 30
0.0
 40
2.0
100
AcDbArc
 50
270.4999999999915
 51
342.791237937498
  0
LINE
  5
122C
330
2
100
AcDbEntity
  8
0
100
AcDbLine
 10
1231.096880470205
 20
118.92012156258
 30
0.0
 11
1224.59389487497
 21
118.863370867046
 31
0.0
  0
LINE
  5
122D
330
2
100
AcDbEntity
  8
0
100
AcDbLine
 10
1228.575064131459
 20
132.2890281574165
 30
0.0
 11
1231.096880470204
 21
132.3110357151965
 31
0.0
  0
ARC
  5
122E
330
2
100
AcDbEntity
  8
0
100
AcDbCircle
 10
1226.079427399208
 20
120.8764110697577
 30
0.0
 40
2.0
100
AcDbArc
 50
270.4999999999915
 51
0.0
  0
ARC
  5
122F
330
2
100
AcDbEntity
  8
0
100
AcDbCircle
 10
1231.079427399206
 20
134.3109595613243
 30
0.0
 40
2.0
100
AcDbArc
 50
270.5000000000175
 51
0.0
  0
LINE
  5
1230
330
2
100
AcDbEntity
  8
CENTER
  6
CENS
100
AcDbLine
 10
1214.795639650124
 20
184.3283371401341
 30
0.0
 11
1238.579427399209
 21
184.3283371401341
 31
0.0
  0
LINE
  5
1231
330
2
100
AcDbEntity
  8
0
100
AcDbLine
 10
1235.179427399209
 20
189.3283371401341
 30
0.0
 11
1235.579427399208
 21
188.6355168171068
 31
0.0
  0
LINE
  5
1232
330
2
100
AcDbEntity
  8
0
100
AcDbLine
 10
1229.579427399208
 20
189.3283371401341
 30
0.0
 11
1229.579427399208
 21
179.3283371401341
 31
0.0
  0
LINE
  5
1233
330
2
100
AcDbEntity
  8
0
100
AcDbLine
 10
1235.179427399209
 20
189.3283371401341
 30
0.0
 11
1235.179427399209
 21
179.3283371401341
 31
0.0
  0
LINE
  5
1234
330
2
100
AcDbEntity
  8
0
100
AcDbLine
 10
1228.079427399208
 20
189.3283371401341
 30
0.0
 11
1235.179427399209
 21
189.3283371401341
 31
0.0
  0
LINE
  5
1235
330
2
100
AcDbEntity
  8
0
100
AcDbLine
 10
1228.57942565491
 20
179.3283371401341
 30
0.0
 11
1235.179427399209
 21
179.3283371401341
 31
0.0
  0
LINE
  5
1236
330
2
100
AcDbEntity
  8
0
100
AcDbLine
 10
1235.179427399209
 20
179.3283371401341
 30
0.0
 11
1235.579427399208
 21
180.0211574631613
 31
0.0
  0
LINE
  5
1237
330
2
100
AcDbEntity
  8
0
100
AcDbLine
 10
1235.579427399208
 20
188.6355168171068
 30
0.0
 11
1235.579427399208
 21
180.0211574631613
 31
0.0
  0
LINE
  5
1238
330
2
100
AcDbEntity
  8
0
100
AcDbLine
 10
1228.079427399208
 20
188.076748826512
 30
0.0
 11
1228.079427399208
 21
189.3283371401341
 31
0.0
  0
LINE
  5
1239
330
2
100
AcDbEntity
  8
CENTER
  6
CENS
100
AcDbLine
 10
1214.795639650124
 20
125.3283371401359
 30
0.0
 11
1238.579427399209
 21
125.3283371401359
 31
0.0
  0
LINE
  5
123A
330
2
100
AcDbEntity
  8
0
100
AcDbLine
 10
1235.179427399209
 20
120.3283371401359
 30
0.0
 11
1235.579427399208
 21
121.0211574631631
 31
0.0
  0
LINE
  5
123B
330
2
100
AcDbEntity
  8
0
100
AcDbLine
 10
1229.579427399208
 20
120.3283371401359
 30
0.0
 11
1229.579427399208
 21
130.3283371401359
 31
0.0
  0
LINE
  5
123C
330
2
100
AcDbEntity
  8
0
100
AcDbLine
 10
1235.179427399209
 20
120.3283371401359
 30
0.0
 11
1235.179427399209
 21
130.3283371401359
 31
0.0
  0
LINE
  5
123D
330
2
100
AcDbEntity
  8
0
100
AcDbLine
 10
1228.079427399208
 20
120.3283371401359
 30
0.0
 11
1235.179427399209
 21
120.3283371401359
 31
0.0
  0
LINE
  5
123E
330
2
100
AcDbEntity
  8
0
100
AcDbLine
 10
1228.579425654908
 20
130.3283371401359
 30
0.0
 11
1235.179427399209
 21
130.3283371401359
 31
0.0
  0
LINE
  5
123F
330
2
100
AcDbEntity
  8
0
100
AcDbLine
 10
1235.179427399209
 20
130.3283371401359
 30
0.0
 11
1235.579427399208
 21
129.6355168171086
 31
0.0
  0
LINE
  5
1240
330
2
100
AcDbEntity
  8
0
100
AcDbLine
 10
1235.579427399208
 20
121.0211574631631
 30
0.0
 11
1235.579427399208
 21
129.6355168171086
 31
0.0
  0
LINE
  5
132F
330
2
100
AcDbEntity
  8
0
100
AcDbLine
 10
901.6547468318048
 20
181.6883371401346
 30
0.0
 11
896.9547468318058
 21
181.6883371401346
 31
0.0
  0
LINE
  5
1330
330
2
100
AcDbEntity
  8
0
100
AcDbLine
 10
896.9547468318058
 20
190.1883371401346
 30
0.0
 11
901.6547468318048
 21
190.1883371401346
 31
0.0
  0
LINE
  5
1331
330
2
100
AcDbEntity
  8
CENTER
  6
CENS
100
AcDbLine
 10
879.4235898757769
 20
185.9383371401347
 30
0.0
 11
906.8805628058607
 21
185.9383371401347
 31
0.0
  0
LINE
  5
1332
330
2
100
AcDbEntity
  8
0
100
AcDbLine
 10
901.9547468318059
 20
189.6687218978642
 30
0.0
 11
901.9547468318059
 21
182.2079523824051
 31
0.0
  0
LINE
  5
1333
330
2
100
AcDbEntity
  8
0
100
AcDbLine
 10
901.6547468318048
 20
181.6883371401346
 30
0.0
 11
901.6547468318048
 21
190.1883371401346
 31
0.0
  0
LINE
  5
1334
330
2
100
AcDbEntity
  8
0
100
AcDbLine
 10
901.6547468318048
 20
181.6883371401346
 30
0.0
 11
901.9547468318059
 21
182.2079523824051
 31
0.0
  0
LINE
  5
1335
330
2
100
AcDbEntity
  8
0
100
AcDbLine
 10
901.9547468318059
 20
189.6687218978642
 30
0.0
 11
901.6547468318048
 21
190.1883371401346
 31
0.0
  0
LINE
  5
1336
330
2
100
AcDbEntity
  8
0
100
AcDbLine
 10
896.9547468318058
 20
190.1883371401346
 30
0.0
 11
895.9547468318058
 21
190.1883371401346
 31
0.0
  0
LINE
  5
1337
330
2
100
AcDbEntity
  8
0
100
AcDbLine
 10
895.9547468318058
 20
190.1883371401346
 30
0.0
 11
895.9547468318058
 21
181.6883371401346
 31
0.0
  0
LINE
  5
1338
330
2
100
AcDbEntity
  8
0
100
AcDbLine
 10
895.9547468318058
 20
181.6883371401346
 30
0.0
 11
896.9547468318058
 21
181.6883371401346
 31
0.0
  0
LINE
  5
1339
330
2
100
AcDbEntity
  8
0
100
AcDbLine
 10
896.9547468318058
 20
181.6883371401346
 30
0.0
 11
896.9547468318058
 21
190.1883371401346
 31
0.0
  0
LINE
  5
133A
330
2
100
AcDbEntity
  8
0
100
AcDbLine
 10
896.9547468318058
 20
181.6883371401346
 30
0.0
 11
896.9547468318058
 21
190.1883371401346
 31
0.0
  0
ARC
  5
133B
330
2
100
AcDbEntity
  8
0
100
AcDbCircle
 10
894.4235898775021
 20
550.1314265968824
 30
0.0
 40
2.0
100
AcDbArc
 50
40.04151653422545
 51
90.0
  0
ARC
  5
133C
330
2
100
AcDbEntity
  8
0
100
AcDbCircle
 10
894.4235898775021
 20
482.1314265968823
 30
0.0
 40
2.0
100
AcDbArc
 50
270.0
 51
319.9584834657742
  0
LINE
  5
133D
330
2
100
AcDbEntity
  8
0
100
AcDbLine
 10
903.4235898775021
 20
513.1314265968824
 30
0.0
 11
903.4235898775021
 21
498.6314265968823
 31
0.0
  0
LINE
  5
133E
330
2
100
AcDbEntity
  8
0
100
AcDbLine
 10
896.4235898775022
 20
542.991426596883
 30
0.0
 11
896.4235898775022
 21
489.2714265968818
 31
0.0
  0
LINE
  5
133F
330
2
100
AcDbEntity
  8
CENTER
  6
CENS
100
AcDbLine
 10
913.4235898775022
 20
518.5314265968823
 30
0.0
 11
913.4235898775022
 21
492.7314265968824
 31
0.0
  0
LINE
  5
1340
330
2
100
AcDbEntity
  8
0
100
AcDbLine
 10
912.4235898775022
 20
543.1314265968824
 30
0.0
 11
912.4235898775022
 21
519.1314265968824
 31
0.0
  0
LINE
  5
1341
330
2
100
AcDbEntity
  8
0
100
AcDbLine
 10
901.9547468335312
 20
546.1314265968824
 30
0.0
 11
927.4235898775021
 21
546.1314265968824
 31
0.0
  0
ARC
  5
1342
330
2
100
AcDbEntity
  8
0
100
AcDbCircle
 10
915.4235898775022
 20
543.1314265968824
 30
0.0
 40
3.0
100
AcDbArc
 50
90.0
 51
180.0
  0
ARC
  5
1343
330
2
100
AcDbEntity
  8
0
100
AcDbCircle
 10
909.4235898775021
 20
519.1314265968824
 30
0.0
 40
3.0
100
AcDbArc
 50
270.0
 51
0.0
  0
ARC
  5
1344
330
2
100
AcDbEntity
  8
0
100
AcDbCircle
 10
906.4235898775022
 20
513.1314265968824
 30
0.0
 40
3.0
100
AcDbArc
 50
90.0
 51
180.0
  0
LINE
  5
1345
330
2
100
AcDbEntity
  8
0
100
AcDbLine
 10
906.4235898775022
 20
516.1314265968824
 30
0.0
 11
909.4235898775021
 21
516.1314265968824
 31
0.0
  0
LINE
  5
1346
330
2
100
AcDbEntity
  8
0
100
AcDbLine
 10
901.9547468335312
 20
486.1314265968823
 30
0.0
 11
927.4235898775021
 21
486.1314265968823
 31
0.0
  0
LINE
  5
1347
330
2
100
AcDbEntity
  8
CENTER
  6
CENS
100
AcDbLine
 10
900.5235898775023
 20
505.6314265968824
 30
0.0
 11
926.3235898775022
 21
505.6314265968824
 31
0.0
  0
ARC
  5
1348
330
2
100
AcDbEntity
  8
0
100
AcDbCircle
 10
906.4235898775022
 20
498.6314265968823
 30
0.0
 40
3.0
100
AcDbArc
 50
180.0
 51
270.0
  0
ARC
  5
1349
330
2
100
AcDbEntity
  8
0
100
AcDbCircle
 10
909.4235898775021
 20
492.6314265968824
 30
0.0
 40
3.0
100
AcDbArc
 50
0.0
 51
90.0
  0
LINE
  5
134A
330
2
100
AcDbEntity
  8
0
100
AcDbLine
 10
906.4235898775022
 20
495.6314265968824
 30
0.0
 11
909.4235898775021
 21
495.6314265968824
 31
0.0
  0
LINE
  5
134B
330
2
100
AcDbEntity
  8
0
100
AcDbLine
 10
912.4235898775022
 20
492.6314265968824
 30
0.0
 11
912.4235898775022
 21
489.1314265968824
 31
0.0
  0
ARC
  5
134C
330
2
100
AcDbEntity
  8
0
100
AcDbCircle
 10
915.4235898775022
 20
489.1314265968824
 30
0.0
 40
3.0
100
AcDbArc
 50
180.0
 51
270.0
  0
LINE
  5
134D
330
2
100
AcDbEntity
  8
0
100
AcDbLine
 10
884.4235898775021
 20
552.1314265968824
 30
0.0
 11
894.4235898775021
 21
552.1314265968824
 31
0.0
  0
LINE
  5
134E
330
2
100
AcDbEntity
  8
0
100
AcDbLine
 10
884.4235898775021
 20
480.1314265968824
 30
0.0
 11
894.4235898775021
 21
480.1314265968824
 31
0.0
  0
LINE
  5
134F
330
2
100
AcDbEntity
  8
0
100
AcDbLine
 10
927.4235898775021
 20
546.1314265968824
 30
0.0
 11
927.4235898775021
 21
486.1314265968823
 31
0.0
  0
LINE
  5
1350
330
2
100
AcDbEntity
  8
0
100
AcDbLine
 10
1161.510465184595
 20
118.8283371401341
 30
0.0
 11
1223.648389613819
 21
118.8283371401341
 31
0.0
  0
CIRCLE
  5
1351
330
2
100
AcDbEntity
  8
HIDS
100
AcDbCircle
 10
1192.579427399206
 20
154.8283371401341
 30
0.0
 40
30.0
  0
ARC
  5
1352
330
2
100
AcDbEntity
  8
0
100
AcDbCircle
 10
1167.652170810548
 20
129.8283371401341
 30
0.0
 40
5.0
100
AcDbArc
 50
180.1666666666621
 51
270.0
  0
LINE
  5
1353
330
2
100
AcDbEntity
  8
CENTER
100
AcDbLine
 10
1172.829427399207
 20
179.5783371401341
 30
0.0
 11
1162.829427399206
 21
179.5783371401341
 31
0.0
  0
LINE
  5
1354
330
2
100
AcDbEntity
  8
CENTER
100
AcDbLine
 10
1172.829427399207
 20
130.0783371401341
 30
0.0
 11
1162.829427399206
 21
130.0783371401341
 31
0.0
  0
ARC
  5
1355
330
2
100
AcDbEntity
  8
0
100
AcDbCircle
 10
1167.652170810548
 20
179.8283371401341
 30
0.0
 40
5.0
100
AcDbArc
 50
90.0
 51
179.8333333333378
  0
LINE
  5
1356
330
2
100
AcDbEntity
  8
0
100
AcDbLine
 10
1156.510947367922
 20
123.7588993926803
 30
0.0
 11
1156.079427399197
 21
154.8283371401359
 31
0.0
  0
LINE
  5
1357
330
2
100
AcDbEntity
  8
0
100
AcDbLine
 10
1162.652191964521
 20
129.8137927502131
 30
0.0
 11
1162.579427399206
 21
154.8283371401341
 31
0.0
  0
ARC
  5
1358
330
2
100
AcDbEntity
  8
0
100
AcDbCircle
 10
1161.510465184595
 20
123.8283371401341
 30
0.0
 40
5.0
100
AcDbArc
 50
180.7957235527443
 51
270.0
  0
LINE
  5
1359
330
2
100
AcDbEntity
  8
0
100
AcDbLine
 10
1156.510947367922
 20
185.8977748875878
 30
0.0
 11
1156.079427399197
 21
154.8283371401359
 31
0.0
  0
LINE
  5
135A
330
2
100
AcDbEntity
  8
0
100
AcDbLine
 10
1162.652191964521
 20
179.842881530055
 30
0.0
 11
1162.579427399206
 21
154.8283371401341
 31
0.0
  0
LINE
  5
135B
330
2
100
AcDbEntity
  8
0
100
AcDbLine
 10
1162.579427399206
 20
154.8283371401341
 30
0.0
 11
1156.079427399206
 21
154.8283371401341
 31
0.0
  0
ARC
  5
135C
330
2
100
AcDbEntity
  8
0
100
AcDbCircle
 10
1161.510465184595
 20
185.8283371401341
 30
0.0
 40
5.0
100
AcDbArc
 50
90.0
 51
179.2042764472556
  0
LINE
  5
135D
330
2
100
AcDbEntity
  8
0
100
AcDbLine
 10
1228.647907430492
 20
123.7588993926803
 30
0.0
 11
1229.079427399206
 21
154.8283371401359
 31
0.0
  0
LINE
  5
135E
330
2
100
AcDbEntity
  8
0
100
AcDbLine
 10
1222.506662833893
 20
129.8137927502131
 30
0.0
 11
1222.579427399206
 21
154.8283371401341
 31
0.0
  0
LINE
  5
135F
330
2
100
AcDbEntity
  8
0
100
AcDbLine
 10
1217.506683987866
 20
124.8283371401341
 30
0.0
 11
1167.652170810548
 21
124.8283371401341
 31
0.0
  0
LINE
  5
1360
330
2
100
AcDbEntity
  8
CENTER
100
AcDbLine
 10
1167.829427399206
 20
135.0783371401341
 30
0.0
 11
1167.829427399206
 21
125.0783371401341
 31
0.0
  0
LINE
  5
1361
330
2
100
AcDbEntity
  8
HIDS
100
AcDbLine
 10
1213.113728263289
 20
126.7934323272595
 30
0.0
 11
1213.201766013003
 21
131.8371116304971
 31
0.0
  0
ARC
  5
1362
330
2
100
AcDbEntity
  8
0
100
AcDbCircle
 10
1217.506683987866
 20
129.8283371401341
 30
0.0
 40
5.0
100
AcDbArc
 50
270.0
 51
359.8333333333378
  0
LINE
  5
1363
330
2
100
AcDbEntity
  8
CENTER
100
AcDbLine
 10
1217.329427399207
 20
135.0783371401341
 30
0.0
 11
1217.329427399207
 21
125.0783371401341
 31
0.0
  0
ARC
  5
1364
330
2
100
AcDbEntity
  8
0
100
AcDbCircle
 10
1223.648389613819
 20
123.8283371401341
 30
0.0
 40
4.999999999999999
100
AcDbArc
 50
270.0
 51
359.2042764472556
  0
ARC
  5
1365
330
2
100
AcDbEntity
  8
HIDS
100
AcDbCircle
 10
1211.114032872975
 20
126.8283371401341
 30
0.0
 40
2.0
100
AcDbArc
 50
270.0
 51
358.9999999999982
  0
LINE
  5
1366
330
2
100
AcDbEntity
  8
CENTER
100
AcDbLine
 10
1222.329427399206
 20
130.0783371401341
 30
0.0
 11
1212.329427399207
 21
130.0783371401341
 31
0.0
  0
ARC
  5
1367
330
2
100
AcDbEntity
  8
HIDS
100
AcDbCircle
 10
1216.201309098472
 20
131.7847544111848
 30
0.0
 40
3.0
100
AcDbArc
 50
135.7099981688302
 51
178.9999999999982
  0
LINE
  5
1368
330
2
100
AcDbEntity
  8
0
100
AcDbLine
 10
1217.506683987866
 20
184.8283371401341
 30
0.0
 11
1167.652170810548
 21
184.8283371401341
 31
0.0
  0
LINE
  5
1369
330
2
100
AcDbEntity
  8
HIDS
  6
SEKKEI_H
100
AcDbLine
 10
1176.329427399207
 20
184.8283371401341
 30
0.0
 11
1176.576995517883
 21
170.6451691201384
 31
0.0
  0
LINE
  5
136A
330
2
100
AcDbEntity
  8
CENTER
100
AcDbLine
 10
1167.829427399206
 20
184.5783371401341
 30
0.0
 11
1167.829427399206
 21
174.5783371401341
 31
0.0
  0
ARC
  5
136B
330
2
100
AcDbEntity
  8
HIDS
100
AcDbCircle
 10
1168.957545699941
 20
177.8719198690834
 30
0.0
 40
3.0
100
AcDbArc
 50
315.7099981688302
 51
358.9999999999982
  0
ARC
  5
136C
330
2
100
AcDbEntity
  8
HIDS
100
AcDbCircle
 10
1174.044821925438
 20
182.8283371401341
 30
0.0
 40
2.0
100
AcDbArc
 50
90.0
 51
178.9999999999982
  0
LINE
  5
136D
330
2
100
AcDbEntity
  8
HIDS
100
AcDbLine
 10
1172.045126535125
 20
182.8632419530078
 30
0.0
 11
1171.95708878541
 21
177.819562649771
 31
0.0
  0
LINE
  5
136E
330
2
100
AcDbEntity
  8
HIDS
  6
SEKKEI_H
100
AcDbLine
 10
1187.829427399206
 20
184.8283371401341
 30
0.0
 11
1187.689125775361
 21
176.7904624932927
 31
0.0
  0
LINE
  5
136F
330
2
100
AcDbEntity
  8
0
100
AcDbLine
 10
1228.647907430492
 20
185.8977748875878
 30
0.0
 11
1229.079427399207
 21
154.8283371401359
 31
0.0
  0
LINE
  5
1370
330
2
100
AcDbEntity
  8
0
100
AcDbLine
 10
1222.506662833893
 20
179.842881530055
 30
0.0
 11
1222.579427399206
 21
154.8283371401341
 31
0.0
  0
LINE
  5
1371
330
2
100
AcDbEntity
  8
CENTER
100
AcDbLine
 10
1217.329427399207
 20
184.5783371401341
 30
0.0
 11
1217.329427399207
 21
174.5783371401341
 31
0.0
  0
LINE
  5
1372
330
2
100
AcDbEntity
  8
0
100
AcDbLine
 10
1222.579427399206
 20
154.8283371401341
 30
0.0
 11
1229.079427399208
 21
154.8283371401341
 31
0.0
  0
ARC
  5
1373
330
2
100
AcDbEntity
  8
0
100
AcDbCircle
 10
1223.648389613819
 20
185.8283371401341
 30
0.0
 40
4.999999999999999
100
AcDbArc
 50
0.7957235527443399
 51
90.0
  0
ARC
  5
1374
330
2
100
AcDbEntity
  8
0
100
AcDbCircle
 10
1217.506683987866
 20
179.8283371401341
 30
0.0
 40
5.0
100
AcDbArc
 50
0.1666666666621044
 51
90.0
  0
LINE
  5
1375
330
2
100
AcDbEntity
  8
CENTER
100
AcDbLine
 10
1222.329427399206
 20
179.5783371401341
 30
0.0
 11
1212.329427399207
 21
179.5783371401341
 31
0.0
  0
CIRCLE
  5
1376
330
2
100
AcDbEntity
  8
0
100
AcDbCircle
 10
1192.579427399206
 20
154.8283371401341
 30
0.0
 40
25.00000000022851
  0
ARC
  5
1377
330
2
100
AcDbEntity
  8
0
100
AcDbCircle
 10
900.7580162424064
 20
119.8283371401341
 30
0.0
 40
5.0
100
AcDbArc
 50
163.874137856383
 51
171.7867892982513
  0
LINE
  5
1378
330
2
100
AcDbEntity
  8
0
100
AcDbLine
 10
895.829508402442
 20
120.7934323272594
 30
0.0
 11
896.4235898757769
 21
154.8283371401341
 31
0.0
  0
LINE
  5
1379
330
2
100
AcDbEntity
  8
0
100
AcDbLine
 10
884.4235898757769
 20
118.8283371401341
 30
0.0
 11
893.8298130121301
 21
118.8283371401341
 31
0.0
  0
ARC
  5
137A
330
2
100
AcDbEntity
  8
0
100
AcDbCircle
 10
893.8298130121301
 20
120.8283371401341
 30
0.0
 40
2.0
100
AcDbArc
 50
270.0
 51
358.9999999999982
  0
LINE
  5
137B
330
2
100
AcDbEntity
  8
CENTER
  6
CENS
100
AcDbLine
 10
913.4235898757768
 20
170.1475927382498
 30
0.0
 11
913.4235898757768
 21
193.5075187406166
 31
0.0
  0
LINE
  5
137C
330
2
100
AcDbEntity
  8
0
100
AcDbLine
 10
895.829508402442
 20
188.8632419530078
 30
0.0
 11
896.2836481583806
 21
162.8455927602792
 31
0.0
  0
LINE
  5
137D
330
2
100
AcDbEntity
  8
0
100
AcDbLine
 10
912.8948048495848
 20
181.8242249093565
 30
0.0
 11
912.6772618390504
 21
169.3611941828659
 31
0.0
  0
LINE
  5
137E
330
2
100
AcDbEntity
  8
0
100
AcDbLine
 10
884.4235898757769
 20
154.8283371401341
 30
0.0
 11
884.8836292289641
 21
154.8283371401341
 31
0.0
  0
LINE
  5
137F
330
2
100
AcDbEntity
  8
0
100
AcDbLine
 10
901.9547468318059
 20
124.8283371401341
 30
0.0
 11
927.4235898757769
 21
124.8283371401341
 31
0.0
  0
LINE
  5
1380
330
2
100
AcDbEntity
  8
0
100
AcDbLine
 10
912.8948048495848
 20
127.8324493709116
 30
0.0
 11
912.4235898757769
 21
154.8283371401341
 31
0.0
  0
ARC
  5
1381
330
2
100
AcDbEntity
  8
0
100
AcDbCircle
 10
915.8953336129714
 20
127.8283371401341
 30
0.0
 40
3.0
100
AcDbArc
 50
181.0000000000017
 51
270.0
  0
ARC
  5
1382
330
2
100
AcDbEntity
  8
0
100
AcDbCircle
 10
900.3318048263871
 20
179.5961557856773
 30
0.0
 40
3.0
100
AcDbArc
 50
270.0
 51
358.9999999999721
  0
LINE
  5
1383
330
2
100
AcDbEntity
  8
0
100
AcDbLine
 10
909.8030915794486
 20
176.5961557856773
 30
0.0
 11
900.3318048263871
 21
176.5961557856773
 31
0.0
  0
LINE
  5
1384
330
2
100
AcDbEntity
  8
0
100
AcDbLine
 10
903.3313479118559
 20
179.5437985663649
 30
0.0
 11
903.3892890116957
 21
182.8632419530087
 31
0.0
  0
ARC
  5
1385
330
2
100
AcDbEntity
  8
0
100
AcDbCircle
 10
905.3889844020094
 20
182.8283371401341
 30
0.0
 40
2.0
100
AcDbArc
 50
90.0
 51
178.9999999999721
  0
LINE
  5
1386
330
2
100
AcDbEntity
  8
0
100
AcDbLine
 10
901.9547468318059
 20
184.8283371401341
 30
0.0
 11
927.4235898757769
 21
184.8283371401341
 31
0.0
  0
ARC
  5
1387
330
2
100
AcDbEntity
  8
0
100
AcDbCircle
 10
915.8953336129714
 20
181.8283371401341
 30
0.0
 40
3.0
100
AcDbArc
 50
90.0
 51
178.9999999999982
  0
ARC
  5
1388
330
2
100
AcDbEntity
  8
0
100
AcDbCircle
 10
893.8298130121301
 20
188.8283371401341
 30
0.0
 40
2.0
100
AcDbArc
 50
1.000000000001775
 51
90.0
  0
LINE
  5
1389
330
2
100
AcDbEntity
  8
0
100
AcDbLine
 10
884.4235898757769
 20
190.8283371401341
 30
0.0
 11
893.8298130121301
 21
190.8283371401341
 31
0.0
  0
ARC
  5
138A
330
2
100
AcDbEntity
  8
0
100
AcDbCircle
 10
900.7580162424064
 20
189.8283371401341
 30
0.0
 40
5.0
100
AcDbArc
 50
188.2132107017486
 51
196.1258621436169
  0
LINE
  5
138B
330
2
100
AcDbEntity
  8
0
100
AcDbLine
 10
927.4235898757769
 20
124.8283371401341
 30
0.0
 11
927.4235898757769
 21
184.8283371401341
 31
0.0
  0
LINE
  5
138C
330
2
100
AcDbEntity
  8
0
100
AcDbLine
 10
1161.510465184595
 20
190.8283371401341
 30
0.0
 11
1223.648389613819
 21
190.8283371401341
 31
0.0
  0
CIRCLE
  5
138D
330
2
100
AcDbEntity
  8
0
100
AcDbCircle
 10
1161.469427399207
 20
123.7183371401335
 30
0.0
 40
2.75
  0
CIRCLE
  5
138E
330
2
100
AcDbEntity
  8
0
100
AcDbCircle
 10
1223.689427399206
 20
185.9383371401347
 30
0.0
 40
2.75
  0
CIRCLE
  5
138F
330
2
100
AcDbEntity
  8
0
100
AcDbCircle
 10
1223.689427399206
 20
123.7183371401344
 30
0.0
 40
2.75
  0
LINE
  5
1390
330
2
100
AcDbEntity
  8
0
100
AcDbLine
 10
901.6547468318048
 20
127.9683371401335
 30
0.0
 11
896.9547468318058
 21
127.9683371401335
 31
0.0
  0
LINE
  5
1391
330
2
100
AcDbEntity
  8
0
100
AcDbLine
 10
896.9547468318058
 20
119.4683371401335
 30
0.0
 11
901.6547468318048
 21
119.4683371401335
 31
0.0
  0
LINE
  5
1392
330
2
100
AcDbEntity
  8
CENTER
  6
CENS
100
AcDbLine
 10
879.4235898757769
 20
123.7183371401335
 30
0.0
 11
906.8805628058607
 21
123.7183371401335
 31
0.0
  0
LINE
  5
1393
330
2
100
AcDbEntity
  8
0
100
AcDbLine
 10
901.9547468318059
 20
119.9879523824039
 30
0.0
 11
901.9547468318059
 21
127.448721897863
 31
0.0
  0
LINE
  5
1394
330
2
100
AcDbEntity
  8
0
100
AcDbLine
 10
901.6547468318048
 20
127.9683371401335
 30
0.0
 11
901.6547468318048
 21
119.4683371401335
 31
0.0
  0
LINE
  5
1395
330
2
100
AcDbEntity
  8
0
100
AcDbLine
 10
901.6547468318048
 20
127.9683371401335
 30
0.0
 11
901.9547468318059
 21
127.448721897863
 31
0.0
  0
LINE
  5
1396
330
2
100
AcDbEntity
  8
0
100
AcDbLine
 10
901.9547468318059
 20
119.9879523824039
 30
0.0
 11
901.6547468318048
 21
119.4683371401335
 31
0.0
  0
LINE
  5
1397
330
2
100
AcDbEntity
  8
0
100
AcDbLine
 10
896.9547468318058
 20
119.4683371401335
 30
0.0
 11
895.9547468318058
 21
119.4683371401335
 31
0.0
  0
LINE
  5
1398
330
2
100
AcDbEntity
  8
0
100
AcDbLine
 10
895.9547468318058
 20
119.4683371401335
 30
0.0
 11
895.9547468318058
 21
127.9683371401335
 31
0.0
  0
LINE
  5
1399
330
2
100
AcDbEntity
  8
0
100
AcDbLine
 10
895.9547468318058
 20
127.9683371401335
 30
0.0
 11
896.9547468318058
 21
127.9683371401335
 31
0.0
  0
LINE
  5
139A
330
2
100
AcDbEntity
  8
0
100
AcDbLine
 10
896.9547468318058
 20
127.9683371401335
 30
0.0
 11
896.9547468318058
 21
119.4683371401335
 31
0.0
  0
LINE
  5
139B
330
2
100
AcDbEntity
  8
0
100
AcDbLine
 10
896.9547468318058
 20
127.9683371401335
 30
0.0
 11
896.9547468318058
 21
119.4683371401335
 31
0.0
  0
LINE
  5
139C
330
2
100
AcDbEntity
  8
0
100
AcDbLine
 10
901.6547468335302
 20
489.2714265968818
 30
0.0
 11
896.9547468335312
 21
489.2714265968818
 31
0.0
  0
LINE
  5
139D
330
2
100
AcDbEntity
  8
0
100
AcDbLine
 10
896.9547468335312
 20
480.7714265968818
 30
0.0
 11
901.6547468335302
 21
480.7714265968818
 31
0.0
  0
LINE
  5
139E
330
2
100
AcDbEntity
  8
CENTER
  6
CENS
100
AcDbLine
 10
879.4235898775022
 20
485.0214265968818
 30
0.0
 11
906.880562807586
 21
485.0214265968818
 31
0.0
  0
LINE
  5
139F
330
2
100
AcDbEntity
  8
0
100
AcDbLine
 10
901.9547468335312
 20
481.2910418391522
 30
0.0
 11
901.9547468335312
 21
488.7518113546113
 31
0.0
  0
LINE
  5
13A0
330
2
100
AcDbEntity
  8
0
100
AcDbLine
 10
901.6547468335302
 20
489.2714265968818
 30
0.0
 11
901.6547468335302
 21
480.7714265968818
 31
0.0
  0
LINE
  5
13A1
330
2
100
AcDbEntity
  8
0
100
AcDbLine
 10
901.6547468335302
 20
489.2714265968818
 30
0.0
 11
901.9547468335312
 21
488.7518113546113
 31
0.0
  0
LINE
  5
13A2
330
2
100
AcDbEntity
  8
0
100
AcDbLine
 10
901.9547468335312
 20
481.2910418391522
 30
0.0
 11
901.6547468335302
 21
480.7714265968818
 31
0.0
  0
LINE
  5
13A3
330
2
100
AcDbEntity
  8
0
100
AcDbLine
 10
896.9547468335312
 20
480.7714265968818
 30
0.0
 11
895.9547468335312
 21
480.7714265968818
 31
0.0
  0
LINE
  5
13A4
330
2
100
AcDbEntity
  8
0
100
AcDbLine
 10
895.9547468335312
 20
480.7714265968818
 30
0.0
 11
895.9547468335312
 21
489.2714265968818
 31
0.0
  0
LINE
  5
13A5
330
2
100
AcDbEntity
  8
0
100
AcDbLine
 10
895.9547468335312
 20
489.2714265968818
 30
0.0
 11
896.9547468335312
 21
489.2714265968818
 31
0.0
  0
LINE
  5
13A6
330
2
100
AcDbEntity
  8
0
100
AcDbLine
 10
896.9547468335312
 20
489.2714265968818
 30
0.0
 11
896.9547468335312
 21
480.7714265968818
 31
0.0
  0
LINE
  5
13A7
330
2
100
AcDbEntity
  8
0
100
AcDbLine
 10
896.9547468335312
 20
489.2714265968818
 30
0.0
 11
896.9547468335312
 21
480.7714265968818
 31
0.0
  0
LINE
  5
13A8
330
2
100
AcDbEntity
  8
0
100
AcDbLine
 10
901.6547468335302
 20
542.991426596883
 30
0.0
 11
896.9547468335312
 21
542.991426596883
 31
0.0
  0
LINE
  5
13A9
330
2
100
AcDbEntity
  8
0
100
AcDbLine
 10
896.9547468335312
 20
551.491426596883
 30
0.0
 11
901.6547468335302
 21
551.491426596883
 31
0.0
  0
LINE
  5
13AA
330
2
100
AcDbEntity
  8
CENTER
  6
CENS
100
AcDbLine
 10
879.4235898775022
 20
547.2414265968829
 30
0.0
 11
906.880562807586
 21
547.2414265968829
 31
0.0
  0
LINE
  5
13AB
330
2
100
AcDbEntity
  8
0
100
AcDbLine
 10
901.9547468335312
 20
550.9718113546125
 30
0.0
 11
901.9547468335312
 21
543.5110418391534
 31
0.0
  0
LINE
  5
13AC
330
2
100
AcDbEntity
  8
0
100
AcDbLine
 10
901.6547468335302
 20
542.991426596883
 30
0.0
 11
901.6547468335302
 21
551.491426596883
 31
0.0
  0
LINE
  5
13AD
330
2
100
AcDbEntity
  8
0
100
AcDbLine
 10
901.6547468335302
 20
542.991426596883
 30
0.0
 11
901.9547468335312
 21
543.5110418391534
 31
0.0
  0
LINE
  5
13AE
330
2
100
AcDbEntity
  8
0
100
AcDbLine
 10
901.9547468335312
 20
550.9718113546125
 30
0.0
 11
901.6547468335302
 21
551.491426596883
 31
0.0
  0
LINE
  5
13AF
330
2
100
AcDbEntity
  8
0
100
AcDbLine
 10
896.9547468335312
 20
551.491426596883
 30
0.0
 11
895.9547468335312
 21
551.491426596883
 31
0.0
  0
LINE
  5
13B0
330
2
100
AcDbEntity
  8
0
100
AcDbLine
 10
895.9547468335312
 20
551.491426596883
 30
0.0
 11
895.9547468335312
 21
542.991426596883
 31
0.0
  0
LINE
  5
13B1
330
2
100
AcDbEntity
  8
0
100
AcDbLine
 10
895.9547468335312
 20
542.991426596883
 30
0.0
 11
896.9547468335312
 21
542.991426596883
 31
0.0
  0
LINE
  5
13B2
330
2
100
AcDbEntity
  8
0
100
AcDbLine
 10
896.9547468335312
 20
542.991426596883
 30
0.0
 11
896.9547468335312
 21
551.491426596883
 31
0.0
  0
LINE
  5
13B3
330
2
100
AcDbEntity
  8
0
100
AcDbLine
 10
896.9547468335312
 20
542.991426596883
 30
0.0
 11
896.9547468335312
 21
551.491426596883
 31
0.0
  0
ARC
  5
13B4
330
2
100
AcDbEntity
  8
0
100
AcDbCircle
 10
1161.469427399207
 20
185.9383371401347
 30
0.0
 40
4.25000000000019
100
AcDbArc
 50
337.0991355555424
 51
293.57896235452
  0
ARC
  5
13B5
330
2
100
AcDbEntity
  8
0
100
AcDbCircle
 10
1161.469427399207
 20
185.9383371401347
 30
0.0
 40
3.730384757729381
100
AcDbArc
 50
321.5287333511531
 51
309.1493645588708
  0
LWPOLYLINE
  5
13B6
330
2
100
AcDbEntity
  8
0
100
AcDbPolyline
 90
        6
 70
     1
 43
0.0
 10
1163.469427399207
 20
187.0930376785128
 10
1161.469427399207
 20
188.2477382168928
 10
1159.469427399207
 20
187.0930376785128
 10
1159.469427399207
 20
184.7836366017547
 10
1161.469427399207
 20
183.6289360633756
 10
1163.469427399207
 20
184.7836366017547
  0
CIRCLE
  5
13B7
330
2
100
AcDbEntity
  8
0
100
AcDbCircle
 10
1161.469427399207
 20
185.9383371401347
 30
0.0
 40
2.3094010767585
  0
LINE
  5
13B8
330
2
100
AcDbEntity
  8
CENTER
100
AcDbLine
 10
1161.469427399205
 20
191.8967673874287
 30
0.0
 11
1161.469427399205
 21
179.9799068928406
 31
0.0
  0
LINE
  5
13B9
330
2
100
AcDbEntity
  8
CENTER
100
AcDbLine
 10
1155.510997151911
 20
185.9383371401347
 30
0.0
 11
1167.427857646499
 21
185.9383371401347
 31
0.0
  0
ARC
  5
13BA
330
2
100
AcDbEntity
  8
0
100
AcDbCircle
 10
1223.689427399208
 20
185.9383371401347
 30
0.0
 40
4.25000000000019
100
AcDbArc
 50
246.4210376454799
 51
202.9008644444575
  0
ARC
  5
13BB
330
2
100
AcDbEntity
  8
0
100
AcDbCircle
 10
1223.689427399208
 20
185.9383371401347
 30
0.0
 40
3.730384757729381
100
AcDbArc
 50
230.8506354409912
 51
218.4712666488595
  0
LWPOLYLINE
  5
13BC
330
2
100
AcDbEntity
  8
0
100
AcDbPolyline
 90
        6
 70
     1
 43
0.0
 10
1225.689427399208
 20
187.0930376785128
 10
1223.689427399208
 20
188.2477382168928
 10
1221.689427399208
 20
187.0930376785128
 10
1221.689427399208
 20
184.7836366017547
 10
1223.689427399208
 20
183.6289360633756
 10
1225.689427399208
 20
184.7836366017547
  0
CIRCLE
  5
13BD
330
2
100
AcDbEntity
  8
0
100
AcDbCircle
 10
1223.689427399208
 20
185.9383371401347
 30
0.0
 40
2.3094010767585
  0
LINE
  5
13BE
330
2
100
AcDbEntity
  8
CENTER
100
AcDbLine
 10
1223.689427399206
 20
191.8967673874287
 30
0.0
 11
1223.689427399206
 21
179.9799068928406
 31
0.0
  0
LINE
  5
13BF
330
2
100
AcDbEntity
  8
CENTER
100
AcDbLine
 10
1217.730997151912
 20
185.9383371401347
 30
0.0
 11
1229.6478576465
 21
185.9383371401347
 31
0.0
  0
ARC
  5
13C0
330
2
100
AcDbEntity
  8
0
100
AcDbCircle
 10
1223.689427399208
 20
123.7183371401344
 30
0.0
 40
4.25000000000019
100
AcDbArc
 50
157.0991355555424
 51
113.57896235452
  0
ARC
  5
13C1
330
2
100
AcDbEntity
  8
0
100
AcDbCircle
 10
1223.689427399208
 20
123.7183371401344
 30
0.0
 40
3.730384757729381
100
AcDbArc
 50
141.5287333511404
 51
129.1493645588707
  0
LWPOLYLINE
  5
13C2
330
2
100
AcDbEntity
  8
0
100
AcDbPolyline
 90
        6
 70
     1
 43
0.0
 10
1225.689427399208
 20
124.8730376785135
 10
1223.689427399208
 20
126.0277382168935
 10
1221.689427399208
 20
124.8730376785135
 10
1221.689427399208
 20
122.5636366017553
 10
1223.689427399208
 20
121.4089360633753
 10
1225.689427399208
 20
122.5636366017553
  0
CIRCLE
  5
13C3
330
2
100
AcDbEntity
  8
0
100
AcDbCircle
 10
1223.689427399208
 20
123.7183371401344
 30
0.0
 40
2.3094010767585
  0
LINE
  5
13C4
330
2
100
AcDbEntity
  8
CENTER
100
AcDbLine
 10
1223.689427399206
 20
129.6767673874284
 30
0.0
 11
1223.689427399206
 21
117.7599068928404
 31
0.0
  0
LINE
  5
13C5
330
2
100
AcDbEntity
  8
CENTER
100
AcDbLine
 10
1217.730997151912
 20
123.7183371401344
 30
0.0
 11
1229.6478576465
 21
123.7183371401344
 31
0.0
  0
ARC
  5
13C6
330
2
100
AcDbEntity
  8
0
100
AcDbCircle
 10
1161.469427399208
 20
123.7183371401335
 30
0.0
 40
4.25000000000019
100
AcDbArc
 50
66.42103764559156
 51
22.90086444439993
  0
ARC
  5
13C7
330
2
100
AcDbEntity
  8
0
100
AcDbCircle
 10
1161.469427399208
 20
123.7183371401335
 30
0.0
 40
3.730384757729381
100
AcDbArc
 50
50.85063544126404
 51
38.47126664871087
  0
LWPOLYLINE
  5
13C8
330
2
100
AcDbEntity
  8
0
100
AcDbPolyline
 90
        6
 70
     1
 43
0.0
 10
1163.469427399208
 20
124.8730376785135
 10
1161.469427399208
 20
126.0277382168925
 10
1159.469427399208
 20
124.8730376785135
 10
1159.469427399208
 20
122.5636366017553
 10
1161.469427399208
 20
121.4089360633753
 10
1163.469427399208
 20
122.5636366017553
  0
CIRCLE
  5
13C9
330
2
100
AcDbEntity
  8
0
100
AcDbCircle
 10
1161.469427399208
 20
123.7183371401335
 30
0.0
 40
2.3094010767585
  0
LINE
  5
13CA
330
2
100
AcDbEntity
  8
CENTER
100
AcDbLine
 10
1161.469427399207
 20
129.6767673874275
 30
0.0
 11
1161.469427399207
 21
117.7599068928395
 31
0.0
  0
LINE
  5
13CB
330
2
100
AcDbEntity
  8
CENTER
100
AcDbLine
 10
1155.510997151913
 20
123.7183371401335
 30
0.0
 11
1167.427857646501
 21
123.7183371401335
 31
0.0
  0
LINE
  5
13CC
330
2
100
AcDbEntity
  8
HIDS
  6
SEKKEI_H
100
AcDbLine
 10
1183.746094065873
 20
154.0783371401341
 30
0.0
 11
1183.746094065873
 21
145.2950038068012
 31
0.0
  0
LINE
  5
13CD
330
2
100
AcDbEntity
  8
HIDS
  6
SEKKEI_H
100
AcDbLine
 10
1180.41276073254
 20
154.0783371401341
 30
0.0
 11
1180.41276073254
 21
146.4895888994071
 31
0.0
  0
LINE
  5
13CE
330
2
100
AcDbEntity
  8
HIDS
  6
SEKKEI_H
100
AcDbLine
 10
1180.079427399207
 20
154.0783371401341
 30
0.0
 11
1180.079427399207
 21
146.9981072584507
 31
0.0
  0
LINE
  5
13CF
330
2
100
AcDbEntity
  8
CENTER
  6
CENS
100
AcDbLine
 10
1182.079427399207
 20
193.4552356998721
 30
0.0
 11
1182.079427399207
 21
143.3760867955772
 31
0.0
  0
LINE
  5
13D0
330
2
100
AcDbEntity
  8
HIDS
  6
SEKKEI_H
100
AcDbLine
 10
1184.079427399207
 20
154.0783371401341
 30
0.0
 11
1184.079427399207
 21
142.7737736888922
 31
0.0
  0
LINE
  5
13D1
330
2
100
AcDbEntity
  8
HIDS
  6
SEKKEI_H
100
AcDbLine
 10
1181.050225345292
 20
145.6283371401333
 30
0.0
 11
1182.079427399207
 21
145.6283371401333
 31
0.0
  0
LINE
  5
13D2
330
2
100
AcDbEntity
  8
0
100
AcDbLine
 10
1180.879427399207
 20
144.8283371401341
 30
0.0
 11
1181.736803178106
 21
144.8283371401341
 31
0.0
  0
LINE
  5
13D3
330
2
100
AcDbEntity
  8
0
100
AcDbLine
 10
1180.079427399207
 20
146.9981072584507
 30
0.0
 11
1180.079427399207
 21
145.6283371401333
 31
0.0
  0
LINE
  5
13D4
330
2
100
AcDbEntity
  8
HOJO
100
AcDbLine
 10
1180.41276073254
 20
146.4895888994071
 30
0.0
 11
1180.41276073254
 21
145.2950038068012
 31
0.0
  0
LINE
  5
13D5
330
2
100
AcDbEntity
  8
0
100
AcDbLine
 10
1180.079427399207
 20
145.6283371401333
 30
0.0
 11
1181.050225345292
 21
145.6283371401333
 31
0.0
  0
LINE
  5
13D6
330
2
100
AcDbEntity
  8
0
100
AcDbLine
 10
1180.079427399207
 20
145.6283371401333
 30
0.0
 11
1180.879427399207
 21
144.8283371401341
 31
0.0
  0
LINE
  5
13D7
330
2
100
AcDbEntity
  8
HIDS
  6
SEKKEI_H
100
AcDbLine
 10
1181.736803178106
 20
144.8283371401341
 30
0.0
 11
1182.079427399207
 21
144.8283371401341
 31
0.0
  0
LINE
  5
13D8
330
2
100
AcDbEntity
  8
HIDS
  6
SEKKEI_H
100
AcDbLine
 10
1184.079427399207
 20
145.6283371401333
 30
0.0
 11
1183.279427399206
 21
144.8283371401341
 31
0.0
  0
LINE
  5
13D9
330
2
100
AcDbEntity
  8
HIDS
  6
SEKKEI_H
100
AcDbLine
 10
1183.279427399206
 20
144.8283371401341
 30
0.0
 11
1182.079427399207
 21
144.8283371401341
 31
0.0
  0
LINE
  5
13DA
330
2
100
AcDbEntity
  8
HIDS
  6
SEKKEI_H
100
AcDbLine
 10
1184.079427399207
 20
145.6283371401333
 30
0.0
 11
1182.079427399207
 21
145.6283371401333
 31
0.0
  0
LINE
  5
13DB
330
2
100
AcDbEntity
  8
HIDS
  6
SEKKEI_H
100
AcDbLine
 10
1183.746094065873
 20
145.2950038068012
 30
0.0
 11
1183.746094065873
 21
143.0158555116942
 31
0.0
  0
LINE
  5
13DC
330
2
100
AcDbEntity
  8
HIDS
  6
SEKKEI_H
100
AcDbLine
 10
1178.702738312828
 20
159.8283371401341
 30
0.0
 11
1185.579427399207
 21
159.8283371401341
 31
0.0
  0
LINE
  5
13DD
330
2
100
AcDbEntity
  8
HIDS
  6
SEKKEI_H
100
AcDbLine
 10
1180.668403093967
 20
163.5283371401348
 30
0.0
 11
1185.579427399207
 21
163.5283371401348
 31
0.0
  0
LINE
  5
13DE
330
2
100
AcDbEntity
  8
HIDS
  6
SEKKEI_H
100
AcDbLine
 10
1185.059812156936
 20
163.8283371401341
 30
0.0
 11
1180.893431506686
 21
163.8283371401341
 31
0.0
  0
LINE
  5
13DF
330
2
100
AcDbEntity
  8
HIDS
  6
SEKKEI_H
100
AcDbLine
 10
1184.079427399207
 20
158.161670473468
 30
0.0
 11
1180.079427399207
 21
158.161670473468
 31
0.0
  0
LINE
  5
13E0
330
2
100
AcDbEntity
  8
HIDS
  6
SEKKEI_H
100
AcDbLine
 10
1178.702738312828
 20
159.8283371401341
 30
0.0
 11
1186.079427399206
 21
159.8283371401341
 31
0.0
  0
LINE
  5
13E1
330
2
100
AcDbEntity
  8
0
100
AcDbLine
 10
1177.84850753655
 20
155.5783371401341
 30
0.0
 11
1182.079427399207
 21
155.5783371401341
 31
0.0
  0
LINE
  5
13E2
330
2
100
AcDbEntity
  8
0
100
AcDbLine
 10
1177.84850753655
 20
154.0783371401341
 30
0.0
 11
1182.079427399207
 21
154.0783371401341
 31
0.0
  0
LINE
  5
13E3
330
2
100
AcDbEntity
  8
0
100
AcDbLine
 10
1178.579427399206
 20
163.5283371401348
 30
0.0
 11
1178.579427399206
 21
159.8283371401341
 31
0.0
  0
LINE
  5
13E4
330
2
100
AcDbEntity
  8
0
100
AcDbLine
 10
1180.079427399207
 20
155.5783371401341
 30
0.0
 11
1180.079427399207
 21
154.0783371401341
 31
0.0
  0
LINE
  5
13E5
330
2
100
AcDbEntity
  8
HOJO
100
AcDbLine
 10
1180.41276073254
 20
155.5783371401341
 30
0.0
 11
1180.41276073254
 21
154.0783371401341
 31
0.0
  0
LINE
  5
13E6
330
2
100
AcDbEntity
  8
HIDS
  6
SEKKEI_H
100
AcDbLine
 10
1180.079427399207
 20
159.8283371401341
 30
0.0
 11
1180.41276073254
 21
158.161670473468
 31
0.0
  0
LINE
  5
13E7
330
2
100
AcDbEntity
  8
0
100
AcDbLine
 10
1178.579427399206
 20
159.8283371401341
 30
0.0
 11
1178.702738312828
 21
159.8283371401341
 31
0.0
  0
LINE
  5
13E8
330
2
100
AcDbEntity
  8
HIDS
  6
SEKKEI_H
100
AcDbLine
 10
1180.41276073254
 20
158.161670473468
 30
0.0
 11
1180.41276073254
 21
155.5783371401341
 31
0.0
  0
LINE
  5
13E9
330
2
100
AcDbEntity
  8
HIDS
  6
SEKKEI_H
100
AcDbLine
 10
1180.079427399207
 20
159.8283371401341
 30
0.0
 11
1180.079427399207
 21
155.5783371401341
 31
0.0
  0
LINE
  5
13EA
330
2
100
AcDbEntity
  8
HIDS
  6
SEKKEI_H
100
AcDbLine
 10
1179.579427399206
 20
159.8283371401341
 30
0.0
 11
1179.579427399206
 21
155.5783371401341
 31
0.0
  0
LINE
  5
13EB
330
2
100
AcDbEntity
  8
0
100
AcDbLine
 10
1180.893431506686
 20
163.8283371401341
 30
0.0
 11
1179.099042641478
 21
163.8283371401341
 31
0.0
  0
LINE
  5
13EC
330
2
100
AcDbEntity
  8
0
100
AcDbLine
 10
1178.579427399206
 20
163.5283371401348
 30
0.0
 11
1179.099042641478
 21
163.8283371401341
 31
0.0
  0
LINE
  5
13ED
330
2
100
AcDbEntity
  8
0
100
AcDbLine
 10
1178.579427399206
 20
163.5283371401348
 30
0.0
 11
1180.668403093967
 21
163.5283371401348
 31
0.0
  0
LINE
  5
13EE
330
2
100
AcDbEntity
  8
HIDS
  6
SEKKEI_H
100
AcDbLine
 10
1185.579427399207
 20
159.8283371401341
 30
0.0
 11
1185.579427399207
 21
163.5283371401348
 31
0.0
  0
LINE
  5
13EF
330
2
100
AcDbEntity
  8
HIDS
  6
SEKKEI_H
100
AcDbLine
 10
1186.079427399206
 20
168.0688998169991
 30
0.0
 11
1186.079427399206
 21
159.8283371401341
 31
0.0
  0
LINE
  5
13F0
330
2
100
AcDbEntity
  8
HOJO
100
AcDbLine
 10
1183.746094065873
 20
155.5783371401341
 30
0.0
 11
1183.746094065873
 21
154.0783371401341
 31
0.0
  0
LINE
  5
13F1
330
2
100
AcDbEntity
  8
0
100
AcDbLine
 10
1184.079427399207
 20
155.5783371401341
 30
0.0
 11
1184.079427399207
 21
154.0783371401341
 31
0.0
  0
LINE
  5
13F2
330
2
100
AcDbEntity
  8
0
100
AcDbLine
 10
1182.079427399207
 20
154.0783371401341
 30
0.0
 11
1187.130803719781
 21
154.0783371401341
 31
0.0
  0
LINE
  5
13F3
330
2
100
AcDbEntity
  8
0
100
AcDbLine
 10
1182.079427399207
 20
155.5783371401341
 30
0.0
 11
1187.130803719781
 21
155.5783371401341
 31
0.0
  0
LINE
  5
13F4
330
2
100
AcDbEntity
  8
HIDS
  6
SEKKEI_H
100
AcDbLine
 10
1184.079427399207
 20
159.8283371401341
 30
0.0
 11
1183.746094065873
 21
158.161670473468
 31
0.0
  0
LINE
  5
13F5
330
2
100
AcDbEntity
  8
HIDS
  6
SEKKEI_H
100
AcDbLine
 10
1184.079427399207
 20
159.8283371401341
 30
0.0
 11
1184.079427399207
 21
155.5783371401341
 31
0.0
  0
LINE
  5
13F6
330
2
100
AcDbEntity
  8
HIDS
  6
SEKKEI_H
100
AcDbLine
 10
1183.746094065873
 20
158.161670473468
 30
0.0
 11
1183.746094065873
 21
155.5783371401341
 31
0.0
  0
LINE
  5
13F7
330
2
100
AcDbEntity
  8
HIDS
  6
SEKKEI_H
100
AcDbLine
 10
1184.579427399206
 20
159.8283371401341
 30
0.0
 11
1184.579427399206
 21
155.5783371401341
 31
0.0
  0
LINE
  5
13F8
330
2
100
AcDbEntity
  8
HIDS
  6
SEKKEI_H
100
AcDbLine
 10
1185.059812156936
 20
163.8283371401341
 30
0.0
 11
1185.579427399207
 21
163.5283371401348
 31
0.0
  0
LINE
  5
13F9
330
2
100
AcDbEntity
  8
0
100
AcDbLine
 10
1206.579427399206
 20
154.0783371401341
 30
0.0
 11
1198.028051078633
 21
154.0783371401341
 31
0.0
  0
LINE
  5
13FA
330
2
100
AcDbEntity
  8
0
100
AcDbLine
 10
1198.028051078633
 20
155.5783371401341
 30
0.0
 11
1206.579427399206
 21
155.5783371401341
 31
0.0
  0
LINE
  5
13FB
330
2
100
AcDbEntity
  8
0
100
AcDbLine
 10
1206.579427399206
 20
155.5783371401341
 30
0.0
 11
1206.579427399206
 21
154.0783371401341
 31
0.0
  0
CIRCLE
  5
13FC
330
2
100
AcDbEntity
  8
0
100
AcDbCircle
 10
1192.579427399206
 20
154.8283371401359
 30
0.0
 40
5.5
  0
LINE
  5
13FD
330
2
100
AcDbEntity
  8
0
100
AcDbLine
 10
917.9235792667267
 20
160.3283371401341
 30
0.0
 11
907.9235792667267
 21
160.3283371401341
 31
0.0
  0
LINE
  5
13FE
330
2
100
AcDbEntity
  8
0
100
AcDbLine
 10
917.9235792667267
 20
160.3283371401341
 30
0.0
 11
917.9235792667267
 21
154.8283371401341
 31
0.0
  0
LINE
  5
13FF
330
2
100
AcDbEntity
  8
0
100
AcDbLine
 10
919.9235792667266
 20
161.4830376785141
 30
0.0
 11
917.9235792667267
 21
160.3283371401341
 31
0.0
  0
LINE
  5
1400
330
2
100
AcDbEntity
  8
0
100
AcDbLine
 10
890.9235792667267
 20
160.5783371401341
 30
0.0
 11
890.9235792667267
 21
154.8283371401341
 31
0.0
  0
LINE
  5
1401
330
2
100
AcDbEntity
  8
0
100
AcDbLine
 10
917.9235792667267
 20
160.3283371401341
 30
0.0
 11
907.9235792667267
 21
160.3283371401341
 31
0.0
  0
LINE
  5
1402
330
2
100
AcDbEntity
  8
0
100
AcDbLine
 10
912.8357934454005
 20
169.5783371401341
 30
0.0
 11
919.9235792667266
 21
169.5783371401341
 31
0.0
  0
LINE
  5
1403
330
2
100
AcDbEntity
  8
0
100
AcDbLine
 10
919.9235792667266
 20
169.5783371401341
 30
0.0
 11
919.9235792667266
 21
154.8283371401341
 31
0.0
  0
LINE
  5
1404
330
2
100
AcDbEntity
  8
0
100
AcDbLine
 10
905.9235792667267
 20
165.113018326858
 30
0.0
 11
905.9235792667267
 21
154.8283371401341
 31
0.0
  0
LINE
  5
1405
330
2
100
AcDbEntity
  8
0
100
AcDbLine
 10
907.9235792667267
 20
165.6384184742893
 30
0.0
 11
907.9235792667267
 21
154.8283371401341
 31
0.0
  0
LINE
  5
1406
330
2
100
AcDbEntity
  8
0
100
AcDbLine
 10
898.9235792667267
 20
160.5783371401341
 30
0.0
 11
890.9235792667267
 21
160.5783371401341
 31
0.0
  0
LINE
  5
1407
330
2
100
AcDbEntity
  8
0
100
AcDbLine
 10
898.9235792667267
 20
154.8283371401341
 30
0.0
 11
898.9235792667267
 21
160.5783371401341
 31
0.0
  0
LINE
  5
1408
330
2
100
AcDbEntity
  8
0
100
AcDbLine
 10
905.9235792667267
 20
160.3283371401341
 30
0.0
 11
898.9235792667267
 21
160.3283371401341
 31
0.0
  0
LINE
  5
1409
330
2
100
AcDbEntity
  8
0
100
AcDbLine
 10
888.0368279207786
 20
154.8283371401341
 30
0.0
 11
890.9235792667267
 21
159.8283371401341
 31
0.0
  0
SPLINE
  5
140A
330
2
100
AcDbEntity
  8
HOJO
100
AcDbSpline
210
0.0
220
0.0
230
1.0
 70
     8
 71
     3
 72
    20
 73
    16
 74
     0
 42
0.0000000001
 43
0.0000000001
 40
0.0
 40
0.0
 40
0.0
 40
0.0
 40
5.311626210389601
 40
7.954639692924123
 40
10.24579206730457
 40
14.18281221953265
 40
18.83794314114633
 40
26.54246833222011
 40
31.19712602527561
 40
34.95638115537181
 40
42.12378530287149
 40
45.78553747213095
 40
50.20353689726185
 40
53.26513166942802
 40
54.23175360515262
 40
54.23175360515262
 40
54.23175360515262
 40
54.23175360515262
 10
927.4235898757769
 20
181.5157858621498
 30
0.0
 10
925.7106107098886
 20
181.407743811924
 30
0.0
 10
923.1452697904778
 20
181.2459410895191
 30
0.0
 10
919.3735159034012
 20
180.993808417352
 30
0.0
 10
918.054374687267
 20
178.0613669323849
 30
0.0
 10
915.6191653189752
 20
175.4068581090898
 30
0.0
 10
913.7811169758251
 20
170.255562675926
 30
0.0
 10
909.6562805663497
 20
165.5458153243
 30
0.0
 10
904.1786330633431
 20
164.9084838898817
 30
0.0
 10
899.265247553777
 20
163.2221649431742
 30
0.0
 10
894.431248207019
 20
162.6021778511987
 30
0.0
 10
889.3935214423789
 20
161.6469538335379
 30
0.0
 10
886.3223708210107
 20
159.1127419907872
 30
0.0
 10
885.322396526285
 20
156.4345014698976
 30
0.0
 10
884.9663570010514
 20
155.1394884398271
 30
0.0
 10
884.8836292289641
 20
154.828337140134
 30
0.0
  0
LINE
  5
140B
330
2
100
AcDbEntity
  8
0
100
AcDbLine
 10
927.4235898757769
 20
179.8283371401341
 30
0.0
 11
920.4235898757769
 21
179.8283371401341
 31
0.0
  0
LINE
  5
140C
330
2
100
AcDbEntity
  8
0
100
AcDbLine
 10
920.4235898757769
 20
179.8283371401341
 30
0.0
 11
920.4235898757769
 21
154.8283371401341
 31
0.0
  0
ARC
  5
140D
330
2
100
AcDbEntity
  8
0
100
AcDbCircle
 10
1192.579427399205
 20
154.8283371401341
 30
0.0
 40
6.654700538379415
100
AcDbArc
 50
6.471114411168633
 51
173.5288855888313
  0
ARC
  5
140E
330
2
100
AcDbEntity
  8
0
100
AcDbCircle
 10
1192.579427399205
 20
154.8283371401341
 30
0.0
 40
6.654700538379415
100
AcDbArc
 50
186.4711144111686
 51
353.5288855888313
  0
LINE
  5
140F
330
2
100
AcDbEntity
  8
0
100
AcDbLine
 10
918.423596046964
 20
188.8283371401341
 30
0.0
 11
908.4235960469639
 21
188.8283371401341
 31
0.0
  0
ARC
  5
1410
330
2
100
AcDbEntity
  8
0
100
AcDbCircle
 10
908.4235960469639
 20
184.8283371401341
 30
0.0
 40
4.0
100
AcDbArc
 50
90.0
 51
180.0
  0
ARC
  5
1411
330
2
100
AcDbEntity
  8
0
100
AcDbCircle
 10
918.423596046964
 20
184.8283371401341
 30
0.0
 40
4.0
100
AcDbArc
 50
0.0
 51
90.0
  0
LINE
  5
1412
330
2
100
AcDbEntity
  8
0
100
AcDbLine
 10
1177.079421228019
 20
188.8283350045605
 30
0.0
 11
1187.07942122802
 21
188.8283350045605
 31
0.0
  0
ARC
  5
1413
330
2
100
AcDbEntity
  8
0
100
AcDbCircle
 10
1187.07942122802
 20
184.8283350045605
 30
0.0
 40
4.0
100
AcDbArc
 50
0.0
 51
90.0
  0
LINE
  5
1414
330
2
100
AcDbEntity
  8
0
100
AcDbLine
 10
1191.079421228019
 20
184.8283350045605
 30
0.0
 11
1191.079421228019
 21
184.8283350045605
 31
0.0
  0
ARC
  5
1415
330
2
100
AcDbEntity
  8
0
100
AcDbCircle
 10
1177.079421228019
 20
184.8283350045605
 30
0.0
 40
4.0
100
AcDbArc
 50
90.0
 51
180.0
  0
CIRCLE
  5
1416
330
2
100
AcDbEntity
  8
0
100
AcDbCircle
 10
913.4235898775022
 20
505.6314265968824
 30
0.0
 40
9.000006171187123
  0
CIRCLE
  5
1418
330
2
100
AcDbEntity
  8
CENTER
100
AcDbCircle
 10
1192.579427399205
 20
154.8283371401368
 30
0.0
 40
35.00178566873169
  0
CIRCLE
  5
1419
330
2
100
AcDbEntity
  8
0
100
AcDbCircle
 10
1192.579427399206
 20
154.8283371401359
 30
0.0
 40
14.75
  0
LINE
  5
141A
330
2
100
AcDbEntity
  8
0
100
AcDbLine
 10
75.6313101089421
 20
181.6883371401346
 30
0.0
 11
80.331310108941
 21
181.6883371401346
 31
0.0
  0
LINE
  5
141B
330
2
100
AcDbEntity
  8
0
100
AcDbLine
 10
80.331310108941
 20
190.1883371401346
 30
0.0
 11
75.6313101089421
 21
190.1883371401346
 31
0.0
  0
LINE
  5
141C
330
2
100
AcDbEntity
  8
CENTER
  6
CENS
100
AcDbLine
 10
97.86246706497003
 20
185.9383371401347
 30
0.0
 11
70.40549413488623
 21
185.9383371401347
 31
0.0
  0
LINE
  5
141D
330
2
100
AcDbEntity
  8
0
100
AcDbLine
 10
75.33131010894101
 20
189.6687218978642
 30
0.0
 11
75.33131010894101
 21
182.2079523824051
 31
0.0
  0
LINE
  5
141E
330
2
100
AcDbEntity
  8
0
100
AcDbLine
 10
75.6313101089421
 20
181.6883371401346
 30
0.0
 11
75.6313101089421
 21
190.1883371401346
 31
0.0
  0
LINE
  5
141F
330
2
100
AcDbEntity
  8
0
100
AcDbLine
 10
75.6313101089421
 20
181.6883371401346
 30
0.0
 11
75.33131010894101
 21
182.2079523824051
 31
0.0
  0
LINE
  5
1420
330
2
100
AcDbEntity
  8
0
100
AcDbLine
 10
75.33131010894101
 20
189.6687218978642
 30
0.0
 11
75.6313101089421
 21
190.1883371401346
 31
0.0
  0
LINE
  5
1421
330
2
100
AcDbEntity
  8
0
100
AcDbLine
 10
80.331310108941
 20
190.1883371401346
 30
0.0
 11
81.33131010894102
 21
190.1883371401346
 31
0.0
  0
LINE
  5
1422
330
2
100
AcDbEntity
  8
0
100
AcDbLine
 10
81.33131010894102
 20
190.1883371401346
 30
0.0
 11
81.33131010894102
 21
181.6883371401346
 31
0.0
  0
LINE
  5
1423
330
2
100
AcDbEntity
  8
0
100
AcDbLine
 10
81.33131010894102
 20
181.6883371401346
 30
0.0
 11
80.331310108941
 21
181.6883371401346
 31
0.0
  0
LINE
  5
1424
330
2
100
AcDbEntity
  8
0
100
AcDbLine
 10
80.331310108941
 20
181.6883371401346
 30
0.0
 11
80.331310108941
 21
190.1883371401346
 31
0.0
  0
LINE
  5
1425
330
2
100
AcDbEntity
  8
0
100
AcDbLine
 10
80.331310108941
 20
181.6883371401346
 30
0.0
 11
80.331310108941
 21
190.1883371401346
 31
0.0
  0
ARC
  5
1426
330
2
100
AcDbEntity
  8
0
100
AcDbCircle
 10
76.52804069834053
 20
119.8283371401341
 30
0.0
 40
5.0
100
AcDbArc
 50
8.213210701748629
 51
16.12586214361697
  0
LINE
  5
1427
330
2
100
AcDbEntity
  8
0
100
AcDbLine
 10
81.45654853830491
 20
120.7934323272594
 30
0.0
 11
80.86246706497002
 21
154.8283371401341
 31
0.0
  0
LINE
  5
1428
330
2
100
AcDbEntity
  8
0
100
AcDbLine
 10
92.86246706497001
 20
118.8283371401341
 30
0.0
 11
83.4562439286168
 21
118.8283371401341
 31
0.0
  0
ARC
  5
1429
330
2
100
AcDbEntity
  8
0
100
AcDbCircle
 10
83.4562439286168
 20
120.8283371401341
 30
0.0
 40
2.0
100
AcDbArc
 50
181.0000000000017
 51
270.0
  0
LINE
  5
142A
330
2
100
AcDbEntity
  8
CENTER
  6
CENS
100
AcDbLine
 10
63.86246706497002
 20
170.1475927382498
 30
0.0
 11
63.86246706497002
 21
193.5075187406166
 31
0.0
  0
LINE
  5
142B
330
2
100
AcDbEntity
  8
0
100
AcDbLine
 10
81.45654853830491
 20
188.8632419530078
 30
0.0
 11
80.86246706497048
 21
154.8283371401341
 31
0.0
  0
LINE
  5
142C
330
2
100
AcDbEntity
  8
0
100
AcDbLine
 10
64.39125209116207
 20
181.8242249093565
 30
0.0
 11
64.86246706497093
 21
154.8283371401341
 31
0.0
  0
LINE
  5
142D
330
2
100
AcDbEntity
  8
0
100
AcDbLine
 10
92.86246706497001
 20
154.8283371401341
 30
0.0
 11
49.86246706497002
 21
154.8283371401341
 31
0.0
  0
LINE
  5
142E
330
2
100
AcDbEntity
  8
0
100
AcDbLine
 10
75.33131010894101
 20
124.8283371401341
 30
0.0
 11
49.86246706497002
 21
124.8283371401341
 31
0.0
  0
LINE
  5
142F
330
2
100
AcDbEntity
  8
0
100
AcDbLine
 10
64.39125209116207
 20
127.8324493709116
 30
0.0
 11
64.86246706497002
 21
154.8283371401341
 31
0.0
  0
ARC
  5
1430
330
2
100
AcDbEntity
  8
0
100
AcDbCircle
 10
61.39072332777539
 20
127.8283371401341
 30
0.0
 40
3.0
100
AcDbArc
 50
270.0
 51
358.9999999999982
  0
ARC
  5
1431
330
2
100
AcDbEntity
  8
0
100
AcDbCircle
 10
76.95425211435974
 20
130.0605184945909
 30
0.0
 40
3.0
100
AcDbArc
 50
90.0
 51
178.9999999999721
  0
LINE
  5
1432
330
2
100
AcDbEntity
  8
0
100
AcDbLine
 10
67.48296536129817
 20
133.0605184945909
 30
0.0
 11
76.95425211435974
 21
133.0605184945909
 31
0.0
  0
LINE
  5
1433
330
2
100
AcDbEntity
  8
0
100
AcDbLine
 10
73.95470902889099
 20
130.1128757139032
 30
0.0
 11
73.89676792905118
 21
126.7934323272595
 31
0.0
  0
ARC
  5
1434
330
2
100
AcDbEntity
  8
0
100
AcDbCircle
 10
71.89707253873746
 20
126.8283371401341
 30
0.0
 40
2.0
100
AcDbArc
 50
270.0
 51
358.9999999999721
  0
LINE
  5
1435
330
2
100
AcDbEntity
  8
0
100
AcDbLine
 10
75.33131010894101
 20
184.8283371401341
 30
0.0
 11
49.86246706497002
 21
184.8283371401341
 31
0.0
  0
ARC
  5
1436
330
2
100
AcDbEntity
  8
0
100
AcDbCircle
 10
61.39072332777539
 20
181.8283371401341
 30
0.0
 40
3.0
100
AcDbArc
 50
1.000000000001775
 51
90.0
  0
ARC
  5
1437
330
2
100
AcDbEntity
  8
0
100
AcDbCircle
 10
83.4562439286168
 20
188.8283371401341
 30
0.0
 40
2.0
100
AcDbArc
 50
90.0
 51
178.9999999999982
  0
LINE
  5
1438
330
2
100
AcDbEntity
  8
0
100
AcDbLine
 10
92.86246706497001
 20
190.8283371401341
 30
0.0
 11
83.4562439286168
 21
190.8283371401341
 31
0.0
  0
ARC
  5
1439
330
2
100
AcDbEntity
  8
0
100
AcDbCircle
 10
76.52804069834053
 20
189.8283371401341
 30
0.0
 40
5.0
100
AcDbArc
 50
343.874137856383
 51
351.7867892982513
  0
LINE
  5
143A
330
2
100
AcDbEntity
  8
0
100
AcDbLine
 10
49.86246706497002
 20
124.8283371401341
 30
0.0
 11
49.86246706497002
 21
184.8283371401341
 31
0.0
  0
LINE
  5
143B
330
2
100
AcDbEntity
  8
0
100
AcDbLine
 10
75.6313101089421
 20
127.9683371401335
 30
0.0
 11
80.331310108941
 21
127.9683371401335
 31
0.0
  0
LINE
  5
143C
330
2
100
AcDbEntity
  8
0
100
AcDbLine
 10
80.331310108941
 20
119.4683371401335
 30
0.0
 11
75.6313101089421
 21
119.4683371401335
 31
0.0
  0
LINE
  5
143D
330
2
100
AcDbEntity
  8
CENTER
  6
CENS
100
AcDbLine
 10
97.86246706497003
 20
123.7183371401335
 30
0.0
 11
70.40549413488623
 21
123.7183371401335
 31
0.0
  0
LINE
  5
143E
330
2
100
AcDbEntity
  8
0
100
AcDbLine
 10
75.33131010894101
 20
119.9879523824039
 30
0.0
 11
75.33131010894101
 21
127.448721897863
 31
0.0
  0
LINE
  5
143F
330
2
100
AcDbEntity
  8
0
100
AcDbLine
 10
75.6313101089421
 20
127.9683371401335
 30
0.0
 11
75.6313101089421
 21
119.4683371401335
 31
0.0
  0
LINE
  5
1440
330
2
100
AcDbEntity
  8
0
100
AcDbLine
 10
75.6313101089421
 20
127.9683371401335
 30
0.0
 11
75.33131010894101
 21
127.448721897863
 31
0.0
  0
LINE
  5
1441
330
2
100
AcDbEntity
  8
0
100
AcDbLine
 10
75.33131010894101
 20
119.9879523824039
 30
0.0
 11
75.6313101089421
 21
119.4683371401335
 31
0.0
  0
LINE
  5
1442
330
2
100
AcDbEntity
  8
0
100
AcDbLine
 10
80.331310108941
 20
119.4683371401335
 30
0.0
 11
81.33131010894102
 21
119.4683371401335
 31
0.0
  0
LINE
  5
1443
330
2
100
AcDbEntity
  8
0
100
AcDbLine
 10
81.33131010894102
 20
119.4683371401335
 30
0.0
 11
81.33131010894102
 21
127.9683371401335
 31
0.0
  0
LINE
  5
1444
330
2
100
AcDbEntity
  8
0
100
AcDbLine
 10
81.33131010894102
 20
127.9683371401335
 30
0.0
 11
80.331310108941
 21
127.9683371401335
 31
0.0
  0
LINE
  5
1445
330
2
100
AcDbEntity
  8
0
100
AcDbLine
 10
80.331310108941
 20
127.9683371401335
 30
0.0
 11
80.331310108941
 21
119.4683371401335
 31
0.0
  0
LINE
  5
1446
330
2
100
AcDbEntity
  8
0
100
AcDbLine
 10
80.331310108941
 20
127.9683371401335
 30
0.0
 11
80.331310108941
 21
119.4683371401335
 31
0.0
  0
LINE
  5
1447
330
2
100
AcDbEntity
  8
0
100
AcDbLine
 10
58.86246089378289
 20
188.8283371401341
 30
0.0
 11
68.86246089378289
 21
188.8283371401341
 31
0.0
  0
ARC
  5
1448
330
2
100
AcDbEntity
  8
0
100
AcDbCircle
 10
68.86246089378289
 20
184.8283371401341
 30
0.0
 40
4.0
100
AcDbArc
 50
0.0
 51
90.0
  0
ARC
  5
1449
330
2
100
AcDbEntity
  8
0
100
AcDbCircle
 10
58.86246089378289
 20
184.8283371401341
 30
0.0
 40
4.0
100
AcDbArc
 50
90.0
 51
180.0
  0
CIRCLE
  5
144A
330
2
100
AcDbEntity
  8
HOJO
100
AcDbCircle
 10
1167.829427399206
 20
179.5783371401341
 30
0.0
 40
2.5
  0
CIRCLE
  5
144B
330
2
100
AcDbEntity
  8
0
100
AcDbCircle
 10
1167.829427399206
 20
179.5783371401341
 30
0.0
 40
2.0
  0
CIRCLE
  5
144C
330
2
100
AcDbEntity
  8
0
100
AcDbCircle
 10
1167.829427399206
 20
130.0783371401341
 30
0.0
 40
2.0
  0
CIRCLE
  5
144D
330
2
100
AcDbEntity
  8
HOJO
100
AcDbCircle
 10
1167.829427399206
 20
130.0783371401341
 30
0.0
 40
2.5
  0
CIRCLE
  5
144E
330
2
100
AcDbEntity
  8
0
100
AcDbCircle
 10
1217.329427399207
 20
130.0783371401341
 30
0.0
 40
2.0
  0
CIRCLE
  5
144F
330
2
100
AcDbEntity
  8
HOJO
100
AcDbCircle
 10
1217.329427399207
 20
130.0783371401341
 30
0.0
 40
2.5
  0
CIRCLE
  5
1450
330
2
100
AcDbEntity
  8
0
100
AcDbCircle
 10
1217.329427399207
 20
179.5783371401341
 30
0.0
 40
2.0
  0
CIRCLE
  5
1451
330
2
100
AcDbEntity
  8
HOJO
100
AcDbCircle
 10
1217.329427399207
 20
179.5783371401341
 30
0.0
 40
2.5
  0
LINE
  5
1452
330
2
100
AcDbEntity
  8
0
100
AcDbLine
 10
917.3229232041597
 20
177.3283371401341
 30
0.0
 11
920.4235898757769
 21
177.3283371401341
 31
0.0
  0
CIRCLE
  5
1453
330
2
100
AcDbEntity
  8
0
100
AcDbCircle
 10
1192.579427399205
 20
154.8283371401341
 30
0.0
 40
22.5
  0
LINE
  5
2813
330
2
100
AcDbEntity
  8
CENTER
100
AcDbLine
 10
529.4611179538451
 20
154.8283371401341
 30
0.0
 11
346.4611179538406
 21
154.8283371401341
 31
0.0
  0
LINE
  5
2816
330
2
100
AcDbEntity
  8
0
100
AcDbLine
 10
387.461117953846
 20
103.8283371401341
 30
0.0
 11
453.4611179538451
 21
104.404310414324
 31
0.0
  0
LINE
  5
2817
330
2
100
AcDbEntity
  8
0
100
AcDbLine
 10
387.4611179538437
 20
114.8283371401341
 30
0.0
 11
452.4611179538428
 21
114.8283371401341
 31
0.0
  0
LINE
  5
2818
330
2
100
AcDbEntity
  8
0
100
AcDbLine
 10
387.461117953846
 20
111.828337140136
 30
0.0
 11
452.4611179538451
 21
111.828337140136
 31
0.0
  0
LINE
  5
2819
330
2
100
AcDbEntity
  8
0
100
AcDbLine
 10
387.4611179538437
 20
114.8283371401341
 30
0.0
 11
452.4611179538428
 21
114.8283371401341
 31
0.0
  0
LINE
  5
281A
330
2
100
AcDbEntity
  8
0
100
AcDbLine
 10
387.461117953846
 20
134.2882379629647
 30
0.0
 11
452.4611179538451
 21
134.2882379629647
 31
0.0
  0
LINE
  5
281B
330
2
100
AcDbEntity
  8
CENTER
100
AcDbLine
 10
395.3695140655363
 20
111.8283371401341
 30
0.0
 11
369.461117953916
 21
111.8283371401341
 31
0.0
  0
LINE
  5
281C
330
2
100
AcDbEntity
  8
0
100
AcDbLine
 10
387.461117953846
 20
205.8283371401341
 30
0.0
 11
453.4611179538451
 21
205.2523638659442
 31
0.0
  0
LINE
  5
281D
330
2
100
AcDbEntity
  8
0
100
AcDbLine
 10
387.461117953846
 20
197.8283371401341
 30
0.0
 11
452.4611179538451
 21
197.8283371401341
 31
0.0
  0
LINE
  5
281E
330
2
100
AcDbEntity
  8
0
100
AcDbLine
 10
387.461117953846
 20
194.8283371401323
 30
0.0
 11
452.4611179538451
 21
194.8283371401323
 31
0.0
  0
LINE
  5
281F
330
2
100
AcDbEntity
  8
0
100
AcDbLine
 10
387.461117953846
 20
175.3684363173054
 30
0.0
 11
452.4611179538451
 21
175.3684363173054
 31
0.0
  0
LINE
  5
2820
330
2
100
AcDbEntity
  8
CENTER
100
AcDbLine
 10
395.3695140655363
 20
197.8283371401341
 30
0.0
 11
369.461117953916
 21
197.8283371401341
 31
0.0
  0
LINE
  5
2821
330
2
100
AcDbEntity
  8
CENTER
100
AcDbLine
 10
216.6524670649717
 20
88.82833714013418
 30
0.0
 11
216.6524670649717
 21
220.8283371401341
 31
0.0
  0
LINE
  5
2823
330
2
100
AcDbEntity
  8
0
100
AcDbLine
 10
371.3753315162139
 20
195.2425507025075
 30
0.0
 11
370.5469043914681
 21
194.4141235777608
 31
0.0
  0
LINE
  5
2824
330
2
100
AcDbEntity
  8
0
100
AcDbLine
 10
372.8611179539166
 20
202.8283371401341
 30
0.0
 11
372.8611179539166
 21
192.8283371401341
 31
0.0
  0
LINE
  5
2825
330
2
100
AcDbEntity
  8
0
100
AcDbLine
 10
372.461117953917
 20
202.1355168171069
 30
0.0
 11
372.461117953917
 21
193.5211574631614
 31
0.0
  0
LINE
  5
2826
330
2
100
AcDbEntity
  8
0
100
AcDbLine
 10
379.9611179539169
 20
204.7715744211075
 30
0.0
 11
379.9611179539169
 21
191.8196483507292
 31
0.0
  0
LINE
  5
2827
330
2
100
AcDbEntity
  8
0
100
AcDbLine
 10
378.4611179539165
 20
202.8283371401341
 30
0.0
 11
378.461117953916
 21
192.8283371401341
 31
0.0
  0
LINE
  5
2828
330
2
100
AcDbEntity
  8
0
100
AcDbLine
 10
379.9611179539169
 20
192.8283371401341
 30
0.0
 11
379.9611179539169
 21
202.8283371401341
 31
0.0
  0
ARC
  5
2829
330
2
100
AcDbEntity
  8
0
100
AcDbCircle
 10
262.6524670649708
 20
194.8283371401341
 30
0.0
 40
5.0
100
AcDbArc
 50
348.1949321895584
 51
0.0
  0
ARC
  5
282A
330
2
100
AcDbEntity
  8
0
100
AcDbCircle
 10
259.6524670649718
 20
197.8283371401341
 30
0.0
 40
7.0
100
AcDbArc
 50
180.0
 51
270.0
  0
ARC
  5
282B
330
2
100
AcDbEntity
  8
0
100
AcDbCircle
 10
240.6524670649718
 20
178.8283371401341
 30
0.0
 40
15.0
100
AcDbArc
 50
0.0
 51
90.0
  0
ARC
  5
282C
330
2
100
AcDbEntity
  8
0
100
AcDbCircle
 10
240.6524670649718
 20
178.8283371401341
 30
0.0
 40
17.0
100
AcDbArc
 50
0.0
 51
90.0
  0
CIRCLE
  5
282D
330
2
100
AcDbEntity
  8
0
100
AcDbCircle
 10
259.6524670649718
 20
197.8283371401341
 30
0.0
 40
5.000000000000113
  0
CIRCLE
  5
282E
330
2
100
AcDbEntity
  8
0
100
AcDbCircle
 10
259.6524670649718
 20
197.8283371401341
 30
0.0
 40
4.307179676972509
  0
LINE
  5
282F
330
2
100
AcDbEntity
  8
CENTER
100
AcDbLine
 10
259.6524670649768
 20
206.5783371401341
 30
0.0
 11
259.6524670649754
 21
189.0783371401341
 31
0.0
  0
ARC
  5
2830
330
2
100
AcDbEntity
  8
0
100
AcDbCircle
 10
192.6524670649718
 20
178.8283371401341
 30
0.0
 40
15.0
100
AcDbArc
 50
90.0
 51
180.0
  0
ARC
  5
2831
330
2
100
AcDbEntity
  8
0
100
AcDbCircle
 10
192.6524670649718
 20
178.8283371401341
 30
0.0
 40
17.0
100
AcDbArc
 50
90.0
 51
180.0
  0
ARC
  5
2832
330
2
100
AcDbEntity
  8
0
100
AcDbCircle
 10
159.6524670649754
 20
196.8283371401341
 30
0.0
 40
6.0
100
AcDbArc
 50
270.0
 51
0.0
  0
LINE
  5
2833
330
2
100
AcDbEntity
  8
0
100
AcDbLine
 10
165.6524670649754
 20
111.8283371401341
 30
0.0
 11
165.6524670649754
 21
197.8283371401341
 31
0.0
  0
LINE
  5
2834
330
2
100
AcDbEntity
  8
0
100
AcDbLine
 10
387.461117953846
 20
103.8283371401341
 30
0.0
 11
387.461117953846
 21
205.8283371401341
 31
0.0
  0
LINE
  5
2835
330
2
100
AcDbEntity
  8
0
100
AcDbLine
 10
371.9611179538378
 20
105.9462260120819
 30
0.0
 11
371.9611179538405
 21
203.7104482681864
 31
0.0
  0
LINE
  5
2837
330
2
100
AcDbEntity
  8
0
100
AcDbLine
 10
102.8624670649704
 20
190.8283371401341
 30
0.0
 11
92.86246706497001
 21
190.8283371401341
 31
0.0
  0
LINE
  5
2838
330
2
100
AcDbEntity
  8
0
100
AcDbLine
 10
102.8624670649704
 20
191.3283371401341
 30
0.0
 11
92.86246706497001
 21
191.3283371401341
 31
0.0
  0
LINE
  5
2839
330
2
100
AcDbEntity
  8
0
100
AcDbLine
 10
102.86246706497
 20
118.8283371401341
 30
0.0
 11
92.86246706497001
 21
118.8283371401341
 31
0.0
  0
LINE
  5
283A
330
2
100
AcDbEntity
  8
0
100
AcDbLine
 10
102.86246706497
 20
118.3283371401341
 30
0.0
 11
92.86246706497001
 21
118.3283371401341
 31
0.0
  0
LINE
  5
283C
330
2
100
AcDbEntity
  8
0
100
AcDbLine
 10
240.6524670649718
 20
193.8283371401341
 30
0.0
 11
192.6524670649718
 21
193.8283371401341
 31
0.0
  0
LINE
  5
283D
330
2
100
AcDbEntity
  8
0
100
AcDbLine
 10
240.6524670649713
 20
115.8283371401341
 30
0.0
 11
192.6524670649718
 21
115.8283371401341
 31
0.0
  0
LINE
  5
283E
330
2
100
AcDbEntity
  8
0
100
AcDbLine
 10
240.6524670649718
 20
113.8283371401341
 30
0.0
 11
192.6524670649718
 21
113.8283371401341
 31
0.0
  0
ARC
  5
283F
330
2
100
AcDbEntity
  8
0
100
AcDbCircle
 10
216.6524670649717
 20
303.8283371401341
 30
0.0
 40
200.0
100
AcDbArc
 50
264.1053016136486
 51
275.8946983863513
  0
CIRCLE
  5
2840
330
2
100
AcDbEntity
  8
0
100
AcDbCircle
 10
216.6524670649717
 20
154.8283371401341
 30
0.0
 40
26.57735026918791
  0
CIRCLE
  5
2841
330
2
100
AcDbEntity
  8
0
100
AcDbCircle
 10
216.6524670649717
 20
154.8283371401341
 30
0.0
 40
32.42260000000154
  0
CIRCLE
  5
2842
330
2
100
AcDbEntity
  8
0
100
AcDbCircle
 10
216.6524670649717
 20
154.8283371401341
 30
0.0
 40
35.50000000000153
  0
CIRCLE
  5
2843
330
2
100
AcDbEntity
  8
0
100
AcDbCircle
 10
216.6524670649717
 20
154.8283371401341
 30
0.0
 40
35.00000000000153
  0
CIRCLE
  5
2844
330
2
100
AcDbEntity
  8
0
100
AcDbCircle
 10
216.6524670649717
 20
154.8283371401341
 30
0.0
 40
33.00000000000153
  0
CIRCLE
  5
2845
330
2
100
AcDbEntity
  8
0
100
AcDbCircle
 10
216.6524670649717
 20
154.8283371401341
 30
0.0
 40
26.0
  0
ARC
  5
2846
330
2
100
AcDbEntity
  8
0
100
AcDbCircle
 10
192.6524670649718
 20
130.8283371401341
 30
0.0
 40
15.0
100
AcDbArc
 50
180.0
 51
270.0
  0
ARC
  5
2847
330
2
100
AcDbEntity
  8
0
100
AcDbCircle
 10
192.6524670649718
 20
130.8283371401341
 30
0.0
 40
17.0
100
AcDbArc
 50
180.0
 51
270.0
  0
ARC
  5
2848
330
2
100
AcDbEntity
  8
0
100
AcDbCircle
 10
173.6524670649681
 20
111.8283371401341
 30
0.0
 40
8.0
100
AcDbArc
 50
180.0
 51
270.0
  0
ARC
  5
284A
330
2
100
AcDbEntity
  8
0
100
AcDbCircle
 10
189.9503381346461
 20
45.20313281814947
 30
0.0
 40
60.0
100
AcDbArc
 50
84.10530161364862
 51
101.8050678104414
  0
ARC
  5
284B
330
2
100
AcDbEntity
  8
0
100
AcDbCircle
 10
176.6524670649717
 20
108.8283371401341
 30
0.0
 40
5.0
100
AcDbArc
 50
269.9999999999478
 51
281.8050678104415
  0
LINE
  5
284C
330
2
100
AcDbEntity
  8
0
100
AcDbLine
 10
173.652467064969
 20
103.8283371401341
 30
0.0
 11
176.6524670649717
 21
103.8283371401341
 31
0.0
  0
ARC
  5
284D
330
2
100
AcDbEntity
  8
0
100
AcDbCircle
 10
159.6524670649754
 20
112.8283371401341
 30
0.0
 40
6.0
100
AcDbArc
 50
0.0
 51
90.0
  0
LINE
  5
284E
330
2
100
AcDbEntity
  8
0
100
AcDbLine
 10
104.86246706497
 20
120.3283371401341
 30
0.0
 11
104.86246706497
 21
189.3283371401341
 31
0.0
  0
LINE
  5
284F
330
2
100
AcDbEntity
  8
0
100
AcDbLine
 10
114.3624670666935
 20
179.3283371401341
 30
0.0
 11
114.3624670666935
 21
130.3283371401323
 31
0.0
  0
LINE
  5
2850
330
2
100
AcDbEntity
  8
0
100
AcDbLine
 10
128.6524670649727
 20
184.8283371401341
 30
0.0
 11
128.6524670649727
 21
124.8283371401341
 31
0.0
  0
LINE
  5
2851
330
2
100
AcDbEntity
  8
CENTER
100
AcDbLine
 10
126.4024670649718
 20
125.328337140136
 30
0.0
 11
143.9024670649718
 21
125.3283371401341
 31
0.0
  0
LINE
  5
2852
330
2
100
AcDbEntity
  8
0
100
AcDbLine
 10
135.1524670649727
 20
132.3283371401341
 30
0.0
 11
130.6524670649727
 21
132.3283371401341
 31
0.0
  0
ARC
  5
2853
330
2
100
AcDbEntity
  8
0
100
AcDbCircle
 10
134.6524670649727
 20
124.8283371401341
 30
0.0
 40
6.0
100
AcDbArc
 50
180.0
 51
270.0
  0
CIRCLE
  5
2854
330
2
100
AcDbEntity
  8
0
100
AcDbCircle
 10
135.1524670649718
 20
125.3283371401341
 30
0.0
 40
5.000000000000113
  0
CIRCLE
  5
2855
330
2
100
AcDbEntity
  8
0
100
AcDbCircle
 10
135.1524670649718
 20
125.3283371401341
 30
0.0
 40
4.307179676972509
  0
LINE
  5
2856
330
2
100
AcDbEntity
  8
0
100
AcDbLine
 10
125.6524670649727
 20
152.3283371401341
 30
0.0
 11
117.3624670666935
 21
152.3283371401341
 31
0.0
  0
ARC
  5
2857
330
2
100
AcDbEntity
  8
0
100
AcDbCircle
 10
126.6524670649717
 20
126.8283371401341
 30
0.0
 40
2.0
100
AcDbArc
 50
0.0
 51
90.0
  0
LINE
  5
2858
330
2
100
AcDbEntity
  8
0
100
AcDbLine
 10
109.86246706497
 20
127.3283371401323
 30
0.0
 11
111.3624670666944
 21
127.3283371401323
 31
0.0
  0
ARC
  5
2859
330
2
100
AcDbEntity
  8
0
100
AcDbCircle
 10
111.3624670666935
 20
130.3283371401323
 30
0.0
 40
3.0
100
AcDbArc
 50
270.0
 51
0.0
  0
LINE
  5
285A
330
2
100
AcDbEntity
  8
0
100
AcDbLine
 10
123.6524670649717
 20
132.8283371401341
 30
0.0
 11
118.9618091434789
 21
132.8283371401341
 31
0.0
  0
LINE
  5
285B
330
2
100
AcDbEntity
  8
0
100
AcDbLine
 10
126.6523909083938
 20
128.8283371401341
 30
0.0
 11
114.9331812809654
 21
128.8283371401341
 31
0.0
  0
ARC
  5
285C
330
2
100
AcDbEntity
  8
0
100
AcDbCircle
 10
114.9331812809654
 20
126.8283371401341
 30
0.0
 40
2.0
100
AcDbArc
 50
90.0
 51
135.5729959991723
  0
ARC
  5
285D
330
2
100
AcDbEntity
  8
0
100
AcDbCircle
 10
125.6524670649727
 20
149.3283371401341
 30
0.0
 40
3.0
100
AcDbArc
 50
0.0
 51
90.0
  0
ARC
  5
285E
330
2
100
AcDbEntity
  8
0
100
AcDbCircle
 10
117.3624670666935
 20
149.3283371401341
 30
0.0
 40
3.0
100
AcDbArc
 50
90.0
 51
180.0
  0
ARC
  5
285F
330
2
100
AcDbEntity
  8
0
100
AcDbCircle
 10
123.6524670649717
 20
127.8283371401341
 30
0.0
 40
5.0
100
AcDbArc
 50
0.0
 51
90.0
  0
ARC
  5
2860
330
2
100
AcDbEntity
  8
0
100
AcDbCircle
 10
118.9618091434789
 20
127.8283371401341
 30
0.0
 40
5.0
100
AcDbArc
 50
90.0
 51
161.7900431357172
  0
ARC
  5
2861
330
2
100
AcDbEntity
  8
0
100
AcDbCircle
 10
130.6524670649727
 20
134.3283371401341
 30
0.0
 40
2.0
100
AcDbArc
 50
180.0
 51
270.0
  0
ARC
  5
2862
330
2
100
AcDbEntity
  8
0
100
AcDbCircle
 10
102.86246706497
 20
120.8283371401341
 30
0.0
 40
2.0
100
AcDbArc
 50
270.0
 51
0.0
  0
ARC
  5
2863
330
2
100
AcDbEntity
  8
0
100
AcDbCircle
 10
102.86246706497
 20
120.3283371401341
 30
0.0
 40
2.0
100
AcDbArc
 50
270.0
 51
0.0
  0
ARC
  5
2864
330
2
100
AcDbEntity
  8
0
100
AcDbCircle
 10
109.86246706497
 20
122.3283371401323
 30
0.0
 40
5.0
100
AcDbArc
 50
90.0
 51
180.0
  0
ARC
  5
2865
330
2
100
AcDbEntity
  8
0
100
AcDbCircle
 10
135.1524670649727
 20
125.3283371401341
 30
0.0
 40
7.0
100
AcDbArc
 50
0.0
 51
90.0
  0
LINE
  5
2866
330
2
100
AcDbEntity
  8
0
100
AcDbLine
 10
137.6524670649718
 20
126.7717128131082
 30
0.0
 11
135.1524670649718
 21
128.2150884860823
 31
0.0
  0
LINE
  5
2867
330
2
100
AcDbEntity
  8
0
100
AcDbLine
 10
132.6524670649718
 20
126.7717128131082
 30
0.0
 11
132.6524670649718
 21
123.8849614671601
 31
0.0
  0
LINE
  5
2868
330
2
100
AcDbEntity
  8
0
100
AcDbLine
 10
132.6524670649718
 20
126.7717128131082
 30
0.0
 11
135.1524670649718
 21
128.2150884860823
 31
0.0
  0
LINE
  5
2869
330
2
100
AcDbEntity
  8
CENTER
100
AcDbLine
 10
141.4792619842186
 20
123.3283371401341
 30
0.0
 11
153.0791790031593
 21
123.3283371401341
 31
0.0
  0
LINE
  5
286A
330
2
100
AcDbEntity
  8
0
100
AcDbLine
 10
137.6524670649718
 20
126.7717128131082
 30
0.0
 11
137.6524670649718
 21
123.8849614671601
 31
0.0
  0
LINE
  5
286B
330
2
100
AcDbEntity
  8
0
100
AcDbLine
 10
134.6524670649727
 20
118.8283371401341
 30
0.0
 11
159.6524670649754
 21
118.8283371401341
 31
0.0
  0
ARC
  5
286C
330
2
100
AcDbEntity
  8
0
100
AcDbCircle
 10
144.1524670649727
 20
120.8283371401341
 30
0.0
 40
2.0
100
AcDbArc
 50
180.0
 51
270.0
  0
LINE
  5
286D
330
2
100
AcDbEntity
  8
CENTER
100
AcDbLine
 10
146.6524670649754
 20
116.7255114953607
 30
0.0
 11
146.6524670649754
 21
130.4688357924699
 31
0.0
  0
CIRCLE
  5
286E
330
2
100
AcDbEntity
  8
HOJO
100
AcDbCircle
 10
146.6524670649736
 20
123.3283371401323
 30
0.0
 40
2.0
  0
CIRCLE
  5
286F
330
2
100
AcDbEntity
  8
0
100
AcDbCircle
 10
146.6524670649754
 20
123.3283371401341
 30
0.0
 40
3.25
  0
CIRCLE
  5
2870
330
2
100
AcDbEntity
  8
0
100
AcDbCircle
 10
146.6524670649754
 20
123.3283371401341
 30
0.0
 40
2.75
  0
LINE
  5
2871
330
2
100
AcDbEntity
  8
0
100
AcDbLine
 10
142.1524670649727
 20
125.3283371401341
 30
0.0
 11
142.1524670649727
 21
120.8283371401341
 31
0.0
  0
CIRCLE
  5
2872
330
2
100
AcDbEntity
  8
0
100
AcDbCircle
 10
146.6524670649754
 20
123.3283371401341
 30
0.0
 40
1.6
  0
LINE
  5
2873
330
2
100
AcDbEntity
  8
CENTER
100
AcDbLine
 10
135.1524670649709
 20
116.5783371401341
 30
0.0
 11
135.1524670649718
 21
134.0783371401341
 31
0.0
  0
LINE
  5
2874
330
2
100
AcDbEntity
  8
0
100
AcDbLine
 10
135.1524670649713
 20
122.441585794186
 30
0.0
 11
137.6524670649718
 21
123.8849614671601
 31
0.0
  0
LINE
  5
2875
330
2
100
AcDbEntity
  8
0
100
AcDbLine
 10
135.1524670649713
 20
122.441585794186
 30
0.0
 11
132.6524670649718
 21
123.8849614671601
 31
0.0
  0
LINE
  5
2876
330
2
100
AcDbEntity
  8
CENTER
100
AcDbLine
 10
126.4024670649718
 20
184.3283371401341
 30
0.0
 11
143.9024670649718
 21
184.3283371401341
 31
0.0
  0
CIRCLE
  5
2877
330
2
100
AcDbEntity
  8
0
100
AcDbCircle
 10
135.1524670649718
 20
184.3283371401341
 30
0.0
 40
5.000000000000113
  0
CIRCLE
  5
2878
330
2
100
AcDbEntity
  8
0
100
AcDbCircle
 10
135.1524670649718
 20
184.3283371401341
 30
0.0
 40
4.307179676972509
  0
ARC
  5
2879
330
2
100
AcDbEntity
  8
0
100
AcDbCircle
 10
134.6524670649727
 20
184.8283371401341
 30
0.0
 40
6.0
100
AcDbArc
 50
90.0
 51
180.0
  0
LINE
  5
287A
330
2
100
AcDbEntity
  8
0
100
AcDbLine
 10
135.1524670649718
 20
177.3283371401341
 30
0.0
 11
130.6524670649722
 21
177.3283371401341
 31
0.0
  0
ARC
  5
287B
330
2
100
AcDbEntity
  8
0
100
AcDbCircle
 10
102.8624670649704
 20
188.8283371401341
 30
0.0
 40
2.0
100
AcDbArc
 50
0.0
 51
90.0
  0
ARC
  5
287C
330
2
100
AcDbEntity
  8
0
100
AcDbCircle
 10
126.6524670649717
 20
182.8283371401341
 30
0.0
 40
2.0
100
AcDbArc
 50
270.0
 51
0.0
  0
LINE
  5
287D
330
2
100
AcDbEntity
  8
0
100
AcDbLine
 10
109.86246706497
 20
182.3283371401341
 30
0.0
 11
111.3624670666944
 21
182.3283371401341
 31
0.0
  0
LINE
  5
287E
330
2
100
AcDbEntity
  8
0
100
AcDbLine
 10
126.6523909083938
 20
180.8283371401341
 30
0.0
 11
114.9331812809654
 21
180.8283371401341
 31
0.0
  0
LINE
  5
287F
330
2
100
AcDbEntity
  8
0
100
AcDbLine
 10
123.6524670649717
 20
176.8283371401341
 30
0.0
 11
118.9618091434789
 21
176.8283371401341
 31
0.0
  0
ARC
  5
2880
330
2
100
AcDbEntity
  8
0
100
AcDbCircle
 10
114.9331812809654
 20
182.8283371401341
 30
0.0
 40
2.0
100
AcDbArc
 50
224.4270040008276
 51
270.0
  0
ARC
  5
2881
330
2
100
AcDbEntity
  8
0
100
AcDbCircle
 10
111.3624670666935
 20
179.3283371401341
 30
0.0
 40
3.0
100
AcDbArc
 50
0.0
 51
90.0
  0
ARC
  5
2882
330
2
100
AcDbEntity
  8
0
100
AcDbCircle
 10
109.86246706497
 20
187.3283371401342
 30
0.0
 40
5.0
100
AcDbArc
 50
180.0
 51
270.0
  0
ARC
  5
2883
330
2
100
AcDbEntity
  8
0
100
AcDbCircle
 10
123.6524670649717
 20
181.8283371401341
 30
0.0
 40
5.0
100
AcDbArc
 50
270.0
 51
0.0
  0
ARC
  5
2884
330
2
100
AcDbEntity
  8
0
100
AcDbCircle
 10
118.9618091434789
 20
181.8283371401341
 30
0.0
 40
5.0
100
AcDbArc
 50
198.2099568642827
 51
270.0
  0
ARC
  5
2885
330
2
100
AcDbEntity
  8
0
100
AcDbCircle
 10
102.8624670649704
 20
189.3283371401341
 30
0.0
 40
2.0
100
AcDbArc
 50
0.0
 51
90.0
  0
ARC
  5
2886
330
2
100
AcDbEntity
  8
0
100
AcDbCircle
 10
130.6524670649727
 20
175.3283371401341
 30
0.0
 40
2.0
100
AcDbArc
 50
90.0
 51
180.0
  0
LINE
  5
2887
330
2
100
AcDbEntity
  8
0
100
AcDbLine
 10
125.6524670649727
 20
157.3283371401341
 30
0.0
 11
117.3624670666935
 21
157.3283371401341
 31
0.0
  0
ARC
  5
2888
330
2
100
AcDbEntity
  8
0
100
AcDbCircle
 10
125.6524670649727
 20
160.3283371401341
 30
0.0
 40
3.0
100
AcDbArc
 50
270.0
 51
0.0
  0
ARC
  5
2889
330
2
100
AcDbEntity
  8
0
100
AcDbCircle
 10
117.3624670666935
 20
160.3283371401341
 30
0.0
 40
3.0
100
AcDbArc
 50
180.0
 51
270.0
  0
LINE
  5
288A
330
2
100
AcDbEntity
  8
0
100
AcDbLine
 10
134.6524670649727
 20
190.8283371401341
 30
0.0
 11
159.6524670649754
 21
190.8283371401341
 31
0.0
  0
ARC
  5
288B
330
2
100
AcDbEntity
  8
0
100
AcDbCircle
 10
135.1524670649718
 20
184.3283371401341
 30
0.0
 40
7.0
100
AcDbArc
 50
270.0
 51
0.0
  0
LINE
  5
288C
330
2
100
AcDbEntity
  8
0
100
AcDbLine
 10
135.1524670649713
 20
181.441585794186
 30
0.0
 11
137.6524670649718
 21
182.8849614671601
 31
0.0
  0
LINE
  5
288D
330
2
100
AcDbEntity
  8
0
100
AcDbLine
 10
137.6524670649718
 20
185.7717128131082
 30
0.0
 11
135.1524670649718
 21
187.2150884860823
 31
0.0
  0
LINE
  5
288E
330
2
100
AcDbEntity
  8
CENTER
100
AcDbLine
 10
135.1524670649709
 20
193.0783371401341
 30
0.0
 11
135.1524670649718
 21
175.5783371401341
 31
0.0
  0
LINE
  5
288F
330
2
100
AcDbEntity
  8
0
100
AcDbLine
 10
132.6524670649718
 20
185.7717128131082
 30
0.0
 11
132.6524670649718
 21
182.8849614671601
 31
0.0
  0
LINE
  5
2890
330
2
100
AcDbEntity
  8
0
100
AcDbLine
 10
135.1524670649713
 20
181.441585794186
 30
0.0
 11
132.6524670649718
 21
182.8849614671601
 31
0.0
  0
LINE
  5
2891
330
2
100
AcDbEntity
  8
0
100
AcDbLine
 10
132.6524670649718
 20
185.7717128131082
 30
0.0
 11
135.1524670649718
 21
187.2150884860823
 31
0.0
  0
CIRCLE
  5
2892
330
2
100
AcDbEntity
  8
HOJO
100
AcDbCircle
 10
146.6524670649718
 20
186.3283371401341
 30
0.0
 40
2.0
  0
LINE
  5
2893
330
2
100
AcDbEntity
  8
CENTER
100
AcDbLine
 10
146.6524670649718
 20
191.5015422208909
 30
0.0
 11
146.6524670649718
 21
181.1551320593773
 31
0.0
  0
LINE
  5
2894
330
2
100
AcDbEntity
  8
CENTER
100
AcDbLine
 10
141.4792619842149
 20
186.3283371401341
 30
0.0
 11
151.8256721457286
 21
186.3283371401341
 31
0.0
  0
CIRCLE
  5
2895
330
2
100
AcDbEntity
  8
0
100
AcDbCircle
 10
146.6524670649718
 20
186.3283371401341
 30
0.0
 40
2.5
  0
CIRCLE
  5
2896
330
2
100
AcDbEntity
  8
0
100
AcDbCircle
 10
146.6524670649718
 20
186.3283371401341
 30
0.0
 40
1.6
  0
CIRCLE
  5
2897
330
2
100
AcDbEntity
  8
0
100
AcDbCircle
 10
146.6524670649718
 20
186.3283371401341
 30
0.0
 40
3.0
  0
LINE
  5
2898
330
2
100
AcDbEntity
  8
0
100
AcDbLine
 10
142.1524670649717
 20
184.3283371401341
 30
0.0
 11
142.1524670649708
 21
188.8283371401341
 31
0.0
  0
ARC
  5
2899
330
2
100
AcDbEntity
  8
0
100
AcDbCircle
 10
144.1524670649708
 20
188.8283371401341
 30
0.0
 40
2.0
100
AcDbArc
 50
90.0
 51
180.0
  0
LINE
  5
289A
330
2
100
AcDbEntity
  8
0
100
AcDbLine
 10
137.6524670649718
 20
185.7717128131082
 30
0.0
 11
137.6524670649718
 21
182.8849614671601
 31
0.0
  0
LINE
  5
289B
330
2
100
AcDbEntity
  8
0
100
AcDbLine
 10
177.6524670649718
 20
130.8283371401341
 30
0.0
 11
177.6524670649718
 21
178.8283371401341
 31
0.0
  0
LINE
  5
289C
330
2
100
AcDbEntity
  8
0
100
AcDbLine
 10
175.6524670649717
 20
130.8283371401341
 30
0.0
 11
175.6524670649717
 21
178.8283371401341
 31
0.0
  0
LINE
  5
289D
330
2
100
AcDbEntity
  8
0
100
AcDbLine
 10
182.0458653471736
 20
120.221735422336
 30
0.0
 11
180.6316517848003
 21
118.8075218599626
 31
0.0
  0
LINE
  5
289E
330
2
100
AcDbEntity
  8
0
100
AcDbLine
 10
182.0458653471736
 20
189.4349388579323
 30
0.0
 11
180.6316517848003
 21
190.8491524203057
 31
0.0
  0
LINE
  5
289F
330
2
100
AcDbEntity
  8
0
100
AcDbLine
 10
372.8611179539166
 20
106.8283371401341
 30
0.0
 11
372.8611179539166
 21
116.8283371401341
 31
0.0
  0
LINE
  5
28A0
330
2
100
AcDbEntity
  8
0
100
AcDbLine
 10
372.461117953917
 20
107.5211574631614
 30
0.0
 11
372.461117953917
 21
116.1355168171069
 31
0.0
  0
LINE
  5
28A1
330
2
100
AcDbEntity
  8
0
100
AcDbLine
 10
379.9611179539169
 20
104.8850998591608
 30
0.0
 11
379.9611179539169
 21
117.8370259295409
 31
0.0
  0
LINE
  5
28A2
330
2
100
AcDbEntity
  8
0
100
AcDbLine
 10
378.4611179539165
 20
106.8283371401341
 30
0.0
 11
378.461117953916
 21
116.8283371401341
 31
0.0
  0
LINE
  5
28A3
330
2
100
AcDbEntity
  8
0
100
AcDbLine
 10
379.9611179539169
 20
116.8283371401341
 30
0.0
 11
379.9611179539169
 21
106.8283371401341
 31
0.0
  0
LINE
  5
28A4
330
2
100
AcDbEntity
  8
0
100
AcDbLine
 10
267.6524670649718
 20
111.8283371401341
 30
0.0
 11
267.6524670649718
 21
114.8283371401323
 31
0.0
  0
ARC
  5
28A5
330
2
100
AcDbEntity
  8
0
100
AcDbCircle
 10
259.6524670649709
 20
111.8283371401341
 30
0.0
 40
7.0
100
AcDbArc
 50
89.99999999994789
 51
180.0
  0
LINE
  5
28A6
330
2
100
AcDbEntity
  8
CENTER
100
AcDbLine
 10
259.6524670649768
 20
103.078337140136
 30
0.0
 11
259.6524670649754
 21
120.5783371401359
 31
0.0
  0
CIRCLE
  5
28A7
330
2
100
AcDbEntity
  8
0
100
AcDbCircle
 10
259.6524670649763
 20
111.8283371401341
 30
0.0
 40
5.000000000000113
  0
CIRCLE
  5
28A8
330
2
100
AcDbEntity
  8
0
100
AcDbCircle
 10
259.6524670649763
 20
111.8283371401341
 30
0.0
 40
4.307179676972509
  0
LINE
  5
28A9
330
2
100
AcDbEntity
  8
0
100
AcDbLine
 10
262.1524670649763
 20
113.2717128131082
 30
0.0
 11
262.1524670649763
 21
110.3849614671601
 31
0.0
  0
LINE
  5
28AA
330
2
100
AcDbEntity
  8
0
100
AcDbLine
 10
257.1524670649763
 20
113.2717128131082
 30
0.0
 11
257.1524670649763
 21
110.3849614671601
 31
0.0
  0
ARC
  5
28AB
330
2
100
AcDbEntity
  8
0
100
AcDbCircle
 10
240.6524670649713
 20
130.8283371401341
 30
0.0
 40
15.0
100
AcDbArc
 50
270.0
 51
0.0
  0
ARC
  5
28AC
330
2
100
AcDbEntity
  8
0
100
AcDbCircle
 10
240.6524670649718
 20
130.8283371401341
 30
0.0
 40
17.0
100
AcDbArc
 50
270.0
 51
0.0
  0
ARC
  5
28AD
330
2
100
AcDbEntity
  8
0
100
AcDbCircle
 10
259.6524670649718
 20
111.8283371401341
 30
0.0
 40
8.0
100
AcDbArc
 50
270.0
 51
0.0
  0
ARC
  5
28AE
330
2
100
AcDbEntity
  8
0
100
AcDbCircle
 10
243.3545959952965
 20
45.20313281814947
 30
0.0
 40
60.0
100
AcDbArc
 50
78.19493218955852
 51
95.89469838635137
  0
ARC
  5
28AF
330
2
100
AcDbEntity
  8
0
100
AcDbCircle
 10
250.6524670649704
 20
106.7721272703131
 30
0.0
 40
2.0
100
AcDbArc
 50
263.2401800668832
 51
0.0
  0
LINE
  5
28B0
330
2
100
AcDbEntity
  8
0
100
AcDbLine
 10
252.6524670649704
 20
111.8283371401341
 30
0.0
 11
252.6524670649699
 21
106.7721272703131
 31
0.0
  0
LINE
  5
28B1
330
2
100
AcDbEntity
  8
0
100
AcDbLine
 10
259.6524670649718
 20
103.8283371401341
 30
0.0
 11
256.6524670649718
 21
103.8283371401341
 31
0.0
  0
ARC
  5
28B2
330
2
100
AcDbEntity
  8
0
100
AcDbCircle
 10
256.6524670649718
 20
108.8283371401341
 30
0.0
 40
5.0
100
AcDbArc
 50
258.1949321895585
 51
270.0
  0
LINE
  5
28B3
330
2
100
AcDbEntity
  8
CENTER
100
AcDbLine
 10
268.4024670649749
 20
111.8283371401341
 30
0.0
 11
250.902467064975
 21
111.8283371401341
 31
0.0
  0
LINE
  5
28B4
330
2
100
AcDbEntity
  8
0
100
AcDbLine
 10
259.6524670649758
 20
108.941585794186
 30
0.0
 11
262.1524670649763
 21
110.3849614671601
 31
0.0
  0
LINE
  5
28B5
330
2
100
AcDbEntity
  8
0
100
AcDbLine
 10
259.6524670649758
 20
108.941585794186
 30
0.0
 11
257.1524670649763
 21
110.3849614671601
 31
0.0
  0
LINE
  5
28B6
330
2
100
AcDbEntity
  8
0
100
AcDbLine
 10
387.4611179538487
 20
103.8283371401359
 30
0.0
 11
373.9436648828414
 21
103.9463021659541
 31
0.0
  0
LINE
  5
28B7
330
2
100
AcDbEntity
  8
0
100
AcDbLine
 10
379.9611179539169
 20
106.8283371401341
 30
0.0
 11
372.8611179539166
 21
106.8283371401341
 31
0.0
  0
ARC
  5
28B8
330
2
100
AcDbEntity
  8
0
100
AcDbCircle
 10
373.9611179538378
 20
105.9462260120819
 30
0.0
 40
2.0
100
AcDbArc
 50
180.0
 51
269.4999999999823
  0
LINE
  5
28B9
330
2
100
AcDbEntity
  8
0
100
AcDbLine
 10
372.8611179539166
 20
106.8283371401341
 30
0.0
 11
372.461117953917
 21
107.5211574631614
 31
0.0
  0
ARC
  5
28BA
330
2
100
AcDbEntity
  8
0
100
AcDbCircle
 10
380.9611179539169
 20
104.8850998591608
 30
0.0
 40
1.0
100
AcDbArc
 50
180.0
 51
269.4999999999823
  0
LINE
  5
28BB
330
2
100
AcDbEntity
  8
0
100
AcDbLine
 10
380.9523914184183
 20
111.8283371401341
 30
0.0
 11
387.4611179538487
 21
111.8283371401341
 31
0.0
  0
LINE
  5
28BC
330
2
100
AcDbEntity
  8
0
100
AcDbLine
 10
255.6524670649713
 20
130.8283371401341
 30
0.0
 11
255.6524670649718
 21
178.8283371401341
 31
0.0
  0
ARC
  5
28BD
330
2
100
AcDbEntity
  8
0
100
AcDbCircle
 10
67.6524670649718
 20
154.8283371401341
 30
0.0
 40
200.0
100
AcDbArc
 50
354.1053016136486
 51
5.894698386351389
  0
LINE
  5
28BE
330
2
100
AcDbEntity
  8
0
100
AcDbLine
 10
257.6524670649718
 20
130.8283371401341
 30
0.0
 11
257.6524670649718
 21
178.8283371401341
 31
0.0
  0
LINE
  5
28BF
330
2
100
AcDbEntity
  8
CENTER
100
AcDbLine
 10
257.2777246595809
 20
123.3283371401341
 30
0.0
 11
266.0272094703644
 21
123.3283371401341
 31
0.0
  0
ARC
  5
28C0
330
2
100
AcDbEntity
  8
0
100
AcDbCircle
 10
262.6524670649708
 20
114.8283371401341
 30
0.0
 40
5.0
100
AcDbArc
 50
0.0
 51
11.80506781044149
  0
ARC
  5
28C1
330
2
100
AcDbEntity
  8
0
100
AcDbCircle
 10
264.7086769347937
 20
120.8283371401341
 30
0.0
 40
2.0
100
AcDbArc
 50
269.9999999999478
 51
6.759819933116788
  0
LINE
  5
28C2
330
2
100
AcDbEntity
  8
0
100
AcDbLine
 10
259.6524670649736
 20
118.8283371401341
 30
0.0
 11
264.7086769347937
 21
118.8283371401341
 31
0.0
  0
LINE
  5
28C3
330
2
100
AcDbEntity
  8
0
100
AcDbLine
 10
251.2590687827695
 20
120.221735422336
 30
0.0
 11
252.6732823451424
 21
118.8075218599626
 31
0.0
  0
LINE
  5
28C4
330
2
100
AcDbEntity
  8
0
100
AcDbLine
 10
262.1524670649763
 20
113.2717128131082
 30
0.0
 11
259.6524670649763
 21
114.7150884860823
 31
0.0
  0
LINE
  5
28C5
330
2
100
AcDbEntity
  8
0
100
AcDbLine
 10
257.1524670649763
 20
113.2717128131082
 30
0.0
 11
259.6524670649763
 21
114.7150884860823
 31
0.0
  0
CIRCLE
  5
28C6
330
2
100
AcDbEntity
  8
HOJO
100
AcDbCircle
 10
261.6524670649727
 20
123.3283371401341
 30
0.0
 40
2.0
  0
ARC
  5
28C7
330
2
100
AcDbEntity
  8
0
100
AcDbCircle
 10
326.2776713869556
 20
128.1262082098094
 30
0.0
 40
60.0
100
AcDbArc
 50
174.1053016136486
 51
191.8050678104415
  0
CIRCLE
  5
28C8
330
2
100
AcDbEntity
  8
0
100
AcDbCircle
 10
261.6524670649727
 20
123.3283371401341
 30
0.0
 40
3.0
  0
CIRCLE
  5
28C9
330
2
100
AcDbEntity
  8
0
100
AcDbCircle
 10
261.6524670649727
 20
123.3283371401341
 30
0.0
 40
2.5
  0
CIRCLE
  5
28CA
330
2
100
AcDbEntity
  8
0
100
AcDbCircle
 10
261.6524670649727
 20
123.3283371401341
 30
0.0
 40
1.6
  0
LINE
  5
28CB
330
2
100
AcDbEntity
  8
CENTER
100
AcDbLine
 10
261.6524670649727
 20
127.7030795455268
 30
0.0
 11
261.6524670649727
 21
118.9535947347433
 31
0.0
  0
CIRCLE
  5
28CC
330
2
100
AcDbEntity
  8
HOJO
100
AcDbCircle
 10
261.6524670649718
 20
186.3283371401341
 30
0.0
 40
2.0
  0
CIRCLE
  5
28CD
330
2
100
AcDbEntity
  8
0
100
AcDbCircle
 10
261.6524670649718
 20
186.3283371401341
 30
0.0
 40
3.0
  0
CIRCLE
  5
28CE
330
2
100
AcDbEntity
  8
0
100
AcDbCircle
 10
261.6524670649718
 20
186.3283371401341
 30
0.0
 40
2.5
  0
CIRCLE
  5
28CF
330
2
100
AcDbEntity
  8
0
100
AcDbCircle
 10
261.6524670649718
 20
186.3283371401341
 30
0.0
 40
1.6
  0
ARC
  5
28D0
330
2
100
AcDbEntity
  8
0
100
AcDbCircle
 10
326.2776713869565
 20
181.5304660704589
 30
0.0
 40
60.0
100
AcDbArc
 50
168.1949321895585
 51
185.8946983863513
  0
ARC
  5
28D1
330
2
100
AcDbEntity
  8
0
100
AcDbCircle
 10
264.7086769347937
 20
188.8283371401341
 30
0.0
 40
2.0
100
AcDbArc
 50
353.2401800668832
 51
90.0
  0
LINE
  5
28D2
330
2
100
AcDbEntity
  8
0
100
AcDbLine
 10
259.6524670649745
 20
190.8283371401341
 30
0.0
 11
264.7086769347937
 21
190.8283371401341
 31
0.0
  0
LINE
  5
28D3
330
2
100
AcDbEntity
  8
0
100
AcDbLine
 10
252.6732823451424
 20
190.8491524203057
 30
0.0
 11
251.25906878277
 21
189.4349388579323
 31
0.0
  0
LINE
  5
28D4
330
2
100
AcDbEntity
  8
CENTER
100
AcDbLine
 10
261.6524670649718
 20
190.4242795277007
 30
0.0
 11
261.6524670649718
 21
182.2323947525676
 31
0.0
  0
LINE
  5
28D5
330
2
100
AcDbEntity
  8
CENTER
100
AcDbLine
 10
257.5565246774052
 20
186.3283371401341
 30
0.0
 11
265.7484094525383
 21
186.3283371401341
 31
0.0
  0
LINE
  5
28D7
330
2
100
AcDbEntity
  8
0
100
AcDbLine
 10
361.4611179538405
 20
122.405687409326
 30
0.0
 11
361.4611179538405
 21
187.2509868709441
 31
0.0
  0
LINE
  5
28D8
330
2
100
AcDbEntity
  8
0
100
AcDbLine
 10
369.461117953846
 20
119.8283371401341
 30
0.0
 11
369.4611179538378
 21
189.8283371401305
 31
0.0
  0
LINE
  5
28D9
330
2
100
AcDbEntity
  8
0
100
AcDbLine
 10
365.9611179538451
 20
122.0283371401349
 30
0.0
 11
365.9611179538451
 21
187.6283371401389
 31
0.0
  0
LINE
  5
28DA
330
2
100
AcDbEntity
  8
0
100
AcDbLine
 10
369.9611179538469
 20
116.6567642648735
 30
0.0
 11
369.9611179538405
 21
190.3283371401341
 31
0.0
  0
LINE
  5
28DB
330
2
100
AcDbEntity
  8
0
100
AcDbLine
 10
363.9611179538451
 20
122.0283371401349
 30
0.0
 11
363.9611179538451
 21
187.6283371401352
 31
0.0
  0
LINE
  5
28DC
330
2
100
AcDbEntity
  8
0
100
AcDbLine
 10
362.461117953846
 20
121.8283371401341
 30
0.0
 11
362.4611179538405
 21
187.8283371401341
 31
0.0
  0
LINE
  5
28DD
330
2
100
AcDbEntity
  8
0
100
AcDbLine
 10
366.1611179538458
 20
121.8283371401341
 30
0.0
 11
366.1611179538404
 21
187.8283371401341
 31
0.0
  0
LINE
  5
28DE
330
2
100
AcDbEntity
  8
0
100
AcDbLine
 10
373.9436648828414
 20
134.2882379629374
 30
0.0
 11
387.4611179538447
 21
134.2882379629374
 31
0.0
  0
LINE
  5
28DF
330
2
100
AcDbEntity
  8
0
100
AcDbLine
 10
378.9698444894147
 20
118.8369878526048
 30
0.0
 11
373.9436648828414
 21
118.8808506575244
 31
0.0
  0
LINE
  5
28E0
330
2
100
AcDbEntity
  8
0
100
AcDbLine
 10
379.9611179539169
 20
116.8283371401341
 30
0.0
 11
372.8611179539166
 21
116.8283371401341
 31
0.0
  0
ARC
  5
28E1
330
2
100
AcDbEntity
  8
0
100
AcDbCircle
 10
373.9611179538378
 20
120.8807745036522
 30
0.0
 40
2.0
100
AcDbArc
 50
180.0
 51
269.4999999999823
  0
LINE
  5
28E2
330
2
100
AcDbEntity
  8
0
100
AcDbLine
 10
371.3753315162139
 20
114.4141235777608
 30
0.0
 11
370.5469043914736
 21
115.242550702502
 31
0.0
  0
LINE
  5
28E3
330
2
100
AcDbEntity
  8
0
100
AcDbLine
 10
365.9611179538451
 20
122.0283371401349
 30
0.0
 11
366.1611179538458
 21
121.8283371401341
 31
0.0
  0
LINE
  5
28E4
330
2
100
AcDbEntity
  8
0
100
AcDbLine
 10
366.1611179538458
 20
121.8283371401341
 30
0.0
 11
369.461117953846
 21
121.8283371401341
 31
0.0
  0
LINE
  5
28E5
330
2
100
AcDbEntity
  8
0
100
AcDbLine
 10
369.461117953846
 20
119.8283371401341
 30
0.0
 11
369.961117953846
 21
119.3283371401359
 31
0.0
  0
LINE
  5
28E6
330
2
100
AcDbEntity
  8
0
100
AcDbLine
 10
362.461117953846
 20
121.8283371401341
 30
0.0
 11
361.4611179538451
 21
122.4056874093241
 31
0.0
  0
LINE
  5
28E7
330
2
100
AcDbEntity
  8
0
100
AcDbLine
 10
362.4611179538451
 20
121.8283371401341
 30
0.0
 11
363.7611179538453
 21
121.8283371401341
 31
0.0
  0
LINE
  5
28E8
330
2
100
AcDbEntity
  8
0
100
AcDbLine
 10
364.1611179538458
 20
122.5283371401349
 30
0.0
 11
365.7611179538453
 21
122.5283371401349
 31
0.0
  0
ARC
  5
28E9
330
2
100
AcDbEntity
  8
0
100
AcDbCircle
 10
371.9611179538469
 20
116.6567642648753
 30
0.0
 40
2.0
100
AcDbArc
 50
180.0
 51
224.9999999999908
  0
ARC
  5
28EA
330
2
100
AcDbEntity
  8
0
100
AcDbCircle
 10
369.9611179538405
 20
112.9999100153875
 30
0.0
 40
2.0
100
AcDbArc
 50
0.0
 51
44.99999999999078
  0
ARC
  5
28EB
330
2
100
AcDbEntity
  8
0
100
AcDbCircle
 10
363.7611179538453
 20
122.0283371401349
 30
0.0
 40
0.2
100
AcDbArc
 50
270.0
 51
0.0
  0
ARC
  5
28EC
330
2
100
AcDbEntity
  8
0
100
AcDbCircle
 10
364.1611179538458
 20
122.3283371401341
 30
0.0
 40
0.2
100
AcDbArc
 50
90.0
 51
180.0
  0
ARC
  5
28ED
330
2
100
AcDbEntity
  8
0
100
AcDbCircle
 10
365.7611179538453
 20
122.3283371401341
 30
0.0
 40
0.2
100
AcDbArc
 50
0.0
 51
90.0
  0
LINE
  5
28EE
330
2
100
AcDbEntity
  8
0
100
AcDbLine
 10
372.8611179539166
 20
116.8283371401341
 30
0.0
 11
372.461117953917
 21
116.1355168171069
 31
0.0
  0
ARC
  5
28EF
330
2
100
AcDbEntity
  8
0
100
AcDbCircle
 10
378.961117953917
 20
117.8370259295409
 30
0.0
 40
1.0
100
AcDbArc
 50
0.0
 51
89.50000000003447
  0
LINE
  5
28F0
330
2
100
AcDbEntity
  8
0
100
AcDbLine
 10
380.9523914184183
 20
114.8283371401341
 30
0.0
 11
387.4611179538478
 21
114.8283371401341
 31
0.0
  0
LINE
  5
28F1
330
2
100
AcDbEntity
  8
0
100
AcDbLine
 10
378.9698444894147
 20
190.8196864276653
 30
0.0
 11
373.9436648828414
 21
190.7758236227457
 31
0.0
  0
LINE
  5
28F2
330
2
100
AcDbEntity
  8
0
100
AcDbLine
 10
379.9611179539169
 20
192.8283371401341
 30
0.0
 11
372.8611179539166
 21
192.8283371401341
 31
0.0
  0
LINE
  5
28F3
330
2
100
AcDbEntity
  8
0
100
AcDbLine
 10
373.9436648828414
 20
175.3684363173308
 30
0.0
 11
387.4611179538447
 21
175.3684363173308
 31
0.0
  0
LINE
  5
28F4
330
2
100
AcDbEntity
  8
0
100
AcDbLine
 10
365.9611179538405
 20
187.6283371401352
 30
0.0
 11
366.1611179538404
 21
187.8283371401341
 31
0.0
  0
LINE
  5
28F5
330
2
100
AcDbEntity
  8
0
100
AcDbLine
 10
369.4611179538406
 20
189.8283371401341
 30
0.0
 11
369.9611179538405
 21
190.3283371401341
 31
0.0
  0
LINE
  5
28F6
330
2
100
AcDbEntity
  8
0
100
AcDbLine
 10
369.9611179538415
 20
192.9999100153893
 30
0.0
 11
369.9611179538405
 21
190.3283371401341
 31
0.0
  0
LINE
  5
28F7
330
2
100
AcDbEntity
  8
0
100
AcDbLine
 10
366.1611179538404
 20
187.8283371401341
 30
0.0
 11
369.4611179538406
 21
187.8283371401341
 31
0.0
  0
LINE
  5
28F8
330
2
100
AcDbEntity
  8
0
100
AcDbLine
 10
362.4611179538405
 20
187.8283371401341
 30
0.0
 11
361.4611179538405
 21
187.2509868709441
 31
0.0
  0
LINE
  5
28F9
330
2
100
AcDbEntity
  8
0
100
AcDbLine
 10
362.4611179538405
 20
187.8283371401341
 30
0.0
 11
363.7611179538407
 21
187.8283371401341
 31
0.0
  0
LINE
  5
28FA
330
2
100
AcDbEntity
  8
0
100
AcDbLine
 10
364.1611179538404
 20
187.1283371401352
 30
0.0
 11
365.7611179538407
 21
187.1283371401352
 31
0.0
  0
ARC
  5
28FB
330
2
100
AcDbEntity
  8
0
100
AcDbCircle
 10
371.9611179538414
 20
192.9999100153893
 30
0.0
 40
2.0
100
AcDbArc
 50
135.0000000000092
 51
180.0
  0
ARC
  5
28FC
330
2
100
AcDbEntity
  8
0
100
AcDbCircle
 10
363.7611179538407
 20
187.6283371401352
 30
0.0
 40
0.2
100
AcDbArc
 50
0.0
 51
90.0
  0
ARC
  5
28FD
330
2
100
AcDbEntity
  8
0
100
AcDbCircle
 10
364.1611179538404
 20
187.3283371401342
 30
0.0
 40
0.2
100
AcDbArc
 50
180.0
 51
270.0
  0
ARC
  5
28FE
330
2
100
AcDbEntity
  8
0
100
AcDbCircle
 10
365.7611179538407
 20
187.3283371401342
 30
0.0
 40
0.2
100
AcDbArc
 50
270.0
 51
0.0
  0
ARC
  5
28FF
330
2
100
AcDbEntity
  8
0
100
AcDbCircle
 10
373.9611179538378
 20
188.7758997766161
 30
0.0
 40
2.0
100
AcDbArc
 50
90.50000000001762
 51
180.0
  0
LINE
  5
2900
330
2
100
AcDbEntity
  8
0
100
AcDbLine
 10
372.8611179539166
 20
192.8283371401341
 30
0.0
 11
372.461117953917
 21
193.5211574631614
 31
0.0
  0
ARC
  5
2901
330
2
100
AcDbEntity
  8
0
100
AcDbCircle
 10
378.961117953917
 20
191.8196483507292
 30
0.0
 40
1.0
100
AcDbArc
 50
270.4999999999655
 51
0.0
  0
LINE
  5
2902
330
2
100
AcDbEntity
  8
0
100
AcDbLine
 10
240.6524670649718
 20
195.8283371401341
 30
0.0
 11
192.6524670649718
 21
195.8283371401341
 31
0.0
  0
ARC
  5
2903
330
2
100
AcDbEntity
  8
0
100
AcDbCircle
 10
216.6524670649717
 20
5.828337140134181
 30
0.0
 40
200.0
100
AcDbArc
 50
84.10530161364862
 51
95.89469838635137
  0
ARC
  5
2904
330
2
100
AcDbEntity
  8
0
100
AcDbCircle
 10
173.6524670649754
 20
197.8283371401341
 30
0.0
 40
8.0
100
AcDbArc
 50
90.0
 51
180.0
  0
ARC
  5
2905
330
2
100
AcDbEntity
  8
0
100
AcDbCircle
 10
176.6524670649717
 20
200.8283371401341
 30
0.0
 40
5.0
100
AcDbArc
 50
78.19493218955852
 51
90.0
  0
LINE
  5
2906
330
2
100
AcDbEntity
  8
0
100
AcDbLine
 10
176.6524670649717
 20
205.8283371401341
 30
0.0
 11
173.6524670649754
 21
205.8283371401341
 31
0.0
  0
ARC
  5
2907
330
2
100
AcDbEntity
  8
0
100
AcDbCircle
 10
189.950338134647
 20
264.4535414621188
 30
0.0
 40
60.0
100
AcDbArc
 50
258.1949321895585
 51
275.8946983863513
  0
ARC
  5
2908
330
2
100
AcDbEntity
  8
0
100
AcDbCircle
 10
259.6524670649718
 20
197.8283371401341
 30
0.0
 40
8.0
100
AcDbArc
 50
0.0
 51
90.0
  0
LINE
  5
2909
330
2
100
AcDbEntity
  8
0
100
AcDbLine
 10
259.6524670649713
 20
205.8283371401341
 30
0.0
 11
256.6524670649718
 21
205.8283371401341
 31
0.0
  0
ARC
  5
290A
330
2
100
AcDbEntity
  8
0
100
AcDbCircle
 10
256.6524670649718
 20
200.8283371401341
 30
0.0
 40
5.0
100
AcDbArc
 50
89.99999999994789
 51
101.8050678104414
  0
LINE
  5
290B
330
2
100
AcDbEntity
  8
CENTER
100
AcDbLine
 10
268.4024670649749
 20
197.8283371401341
 30
0.0
 11
250.902467064975
 21
197.8283371401341
 31
0.0
  0
LINE
  5
290C
330
2
100
AcDbEntity
  8
0
100
AcDbLine
 10
252.6524670649718
 20
197.8283371401341
 30
0.0
 11
252.6524670649718
 21
202.884547009957
 31
0.0
  0
LINE
  5
290D
330
2
100
AcDbEntity
  8
0
100
AcDbLine
 10
267.6524670649718
 20
194.8283371401323
 30
0.0
 11
267.6524670649718
 21
197.8283371401341
 31
0.0
  0
LINE
  5
290E
330
2
100
AcDbEntity
  8
0
100
AcDbLine
 10
262.1524670649717
 20
199.2717128131082
 30
0.0
 11
262.1524670649717
 21
196.3849614671601
 31
0.0
  0
LINE
  5
290F
330
2
100
AcDbEntity
  8
0
100
AcDbLine
 10
259.6524670649718
 20
194.941585794186
 30
0.0
 11
262.1524670649717
 21
196.3849614671601
 31
0.0
  0
LINE
  5
2910
330
2
100
AcDbEntity
  8
0
100
AcDbLine
 10
262.1524670649717
 20
199.2717128131082
 30
0.0
 11
259.6524670649718
 21
200.7150884860823
 31
0.0
  0
LINE
  5
2911
330
2
100
AcDbEntity
  8
0
100
AcDbLine
 10
257.1524670649718
 20
199.2717128131082
 30
0.0
 11
257.1524670649718
 21
196.3849614671601
 31
0.0
  0
LINE
  5
2912
330
2
100
AcDbEntity
  8
0
100
AcDbLine
 10
259.6524670649718
 20
194.941585794186
 30
0.0
 11
257.1524670649718
 21
196.3849614671601
 31
0.0
  0
LINE
  5
2913
330
2
100
AcDbEntity
  8
0
100
AcDbLine
 10
257.1524670649718
 20
199.2717128131082
 30
0.0
 11
259.6524670649718
 21
200.7150884860823
 31
0.0
  0
ARC
  5
2914
330
2
100
AcDbEntity
  8
0
100
AcDbCircle
 10
243.3545959952974
 20
264.4535414621188
 30
0.0
 40
60.0
100
AcDbArc
 50
264.1053016136486
 51
281.8050678104415
  0
ARC
  5
2915
330
2
100
AcDbEntity
  8
0
100
AcDbCircle
 10
250.6524670649718
 20
202.884547009957
 30
0.0
 40
2.0
100
AcDbArc
 50
0.0
 51
96.7598199331168
  0
LINE
  5
2916
330
2
100
AcDbEntity
  8
0
100
AcDbLine
 10
387.4611179538487
 20
205.8283371401341
 30
0.0
 11
373.9436648828414
 21
205.7103721143141
 31
0.0
  0
LINE
  5
2917
330
2
100
AcDbEntity
  8
0
100
AcDbLine
 10
379.9611179539169
 20
202.8283371401341
 30
0.0
 11
372.8611179539166
 21
202.8283371401341
 31
0.0
  0
ARC
  5
2918
330
2
100
AcDbEntity
  8
0
100
AcDbCircle
 10
369.9611179538405
 20
196.6567642648808
 30
0.0
 40
2.0
100
AcDbArc
 50
315.0000000000092
 51
0.0
  0
LINE
  5
2919
330
2
100
AcDbEntity
  8
0
100
AcDbLine
 10
372.8611179539166
 20
202.8283371401341
 30
0.0
 11
372.461117953917
 21
202.1355168171069
 31
0.0
  0
LINE
  5
291A
330
2
100
AcDbEntity
  8
0
100
AcDbLine
 10
387.461117953846
 20
197.8283371401341
 30
0.0
 11
380.9523914184183
 21
197.8283371401341
 31
0.0
  0
LINE
  5
291B
330
2
100
AcDbEntity
  8
0
100
AcDbLine
 10
387.461117953846
 20
194.8283371401323
 30
0.0
 11
380.9523914184183
 21
194.8283371401323
 31
0.0
  0
ARC
  5
291C
330
2
100
AcDbEntity
  8
0
100
AcDbCircle
 10
373.9611179538378
 20
203.7104482681864
 30
0.0
 40
2.0
100
AcDbArc
 50
90.50000000001762
 51
180.0
  0
ARC
  5
291D
330
2
100
AcDbEntity
  8
0
100
AcDbCircle
 10
380.9611179539169
 20
204.7715744211075
 30
0.0
 40
1.0
100
AcDbArc
 50
90.50000000001762
 51
180.0
  0
LINE
  5
2925
330
2
100
AcDbEntity
  8
CENTER
100
AcDbLine
 10
704.9056678144201
 20
210.5562592014912
 30
0.0
 11
816.3615119371351
 21
99.10041507877735
 31
0.0
  0
LINE
  5
2926
330
2
100
AcDbEntity
  8
CENTER
100
AcDbLine
 10
816.3615119371378
 20
210.5562592014933
 30
0.0
 11
704.9056678144201
 21
99.10041507877691
 31
0.0
  0
LINE
  5
2927
330
2
100
AcDbEntity
  8
CENTER
100
AcDbLine
 10
760.6335898757783
 20
229.8283371401341
 30
0.0
 11
760.6335898757783
 21
79.82833714013418
 31
0.0
  0
LINE
  5
2928
330
2
100
AcDbEntity
  8
CENTER
100
AcDbLine
 10
415.461117953846
 20
89.07268943827535
 30
0.0
 11
415.461117953846
 21
220.5839848419932
 31
0.0
  0
ARC
  5
292F
330
2
100
AcDbEntity
  8
0
100
AcDbCircle
 10
817.6335898757809
 20
196.8283371401341
 30
0.0
 40
6.0
100
AcDbArc
 50
180.0
 51
270.0
  0
CIRCLE
  5
2930
330
2
100
AcDbEntity
  8
HOJO
100
AcDbCircle
 10
803.0599967469706
 20
197.2547440113269
 30
0.0
 40
4.0
  0
CIRCLE
  5
2931
330
2
100
AcDbEntity
  8
0
100
AcDbCircle
 10
803.0599967469706
 20
197.2547440113251
 30
0.0
 40
3.2
  0
LINE
  5
2932
330
2
100
AcDbEntity
  8
CENTER
100
AcDbLine
 10
803.0599967469692
 20
189.2547440113269
 30
0.0
 11
803.0599967469692
 21
205.2547440113269
 31
0.0
  0
ARC
  5
2933
330
2
100
AcDbEntity
  8
0
100
AcDbCircle
 10
714.6335898757755
 20
194.8283371401323
 30
0.0
 40
5.0
100
AcDbArc
 50
180.0
 51
191.8050678104415
  0
CIRCLE
  5
2934
330
2
100
AcDbEntity
  8
HOJO
100
AcDbCircle
 10
718.2071830045846
 20
197.2547440113269
 30
0.0
 40
4.0
  0
CIRCLE
  5
2935
330
2
100
AcDbEntity
  8
0
100
AcDbCircle
 10
718.2071830045846
 20
197.2547440113251
 30
0.0
 40
3.2
  0
LINE
  5
2936
330
2
100
AcDbEntity
  8
CENTER
100
AcDbLine
 10
718.2071830045846
 20
189.2547440113269
 30
0.0
 11
718.2071830045846
 21
205.2547440113269
 31
0.0
  0
LINE
  5
2937
330
2
100
AcDbEntity
  8
0
100
AcDbLine
 10
453.4611179538451
 20
104.404310414324
 30
0.0
 11
453.4611179538451
 21
205.2523638659442
 31
0.0
  0
LINE
  5
2938
330
2
100
AcDbEntity
  8
0
100
AcDbLine
 10
458.4611179538451
 20
109.8283371401341
 30
0.0
 11
458.4611179538391
 21
199.8283371401342
 31
0.0
  0
CIRCLE
  5
293A
330
2
100
AcDbEntity
  8
CENTER
100
AcDbCircle
 10
760.6335898757773
 20
154.8283371401341
 30
0.0
 40
60.0
  0
LINE
  5
293C
330
2
100
AcDbEntity
  8
0
100
AcDbLine
 10
811.6335898757814
 20
197.8283371401323
 30
0.0
 11
811.6335898757764
 21
111.8283371401323
 31
0.0
  0
CIRCLE
  5
293D
330
2
100
AcDbEntity
  8
0
100
AcDbCircle
 10
760.6335898757783
 20
154.8283371401341
 30
0.0
 40
45.0
  0
ARC
  5
293F
330
2
100
AcDbEntity
  8
0
100
AcDbCircle
 10
760.6335898757751
 20
303.8283371401323
 30
0.0
 40
200.0
100
AcDbArc
 50
264.1053016135961
 51
275.8946983863513
  0
CIRCLE
  5
2941
330
2
100
AcDbEntity
  8
0
100
AcDbCircle
 10
760.6335898757783
 20
154.8283371401341
 30
0.0
 40
34.0
  0
CIRCLE
  5
2942
330
2
100
AcDbEntity
  8
0
100
AcDbCircle
 10
760.6335898757783
 20
154.8283371401341
 30
0.0
 40
26.0
  0
LINE
  5
2944
330
2
100
AcDbEntity
  8
0
100
AcDbLine
 10
453.4611179538451
 20
109.8283371401341
 30
0.0
 11
458.4611179538451
 21
109.8283371401341
 31
0.0
  0
ARC
  5
2945
330
2
100
AcDbEntity
  8
0
100
AcDbCircle
 10
460.4611179538465
 20
191.2486054626335
 30
0.0
 40
2.0
100
AcDbArc
 50
180.0
 51
267.9999999999963
  0
ARC
  5
2946
330
2
100
AcDbEntity
  8
0
100
AcDbCircle
 10
460.4611179538465
 20
118.4080688176347
 30
0.0
 40
2.0
100
AcDbArc
 50
92.0000000000037
 51
180.0
  0
LINE
  5
2947
330
2
100
AcDbEntity
  8
0
100
AcDbLine
 10
472.461117953846
 20
186.8969595905202
 30
0.0
 11
472.4611179538469
 21
122.7597146897462
 31
0.0
  0
LINE
  5
2951
330
2
100
AcDbEntity
  8
0
100
AcDbLine
 10
460.3913189604418
 20
120.4068504716726
 30
0.0
 11
470.5309169472516
 21
120.7609330357083
 31
0.0
  0
ARC
  5
2952
330
2
100
AcDbEntity
  8
0
100
AcDbCircle
 10
470.4611179538469
 20
122.7597146897462
 30
0.0
 40
2.0
100
AcDbArc
 50
272.0000000000037
 51
0.0
  0
LINE
  5
2955
330
2
100
AcDbEntity
  8
0
100
AcDbLine
 10
460.3913189604418
 20
189.2498238085938
 30
0.0
 11
470.5309169472512
 21
188.8957412445581
 31
0.0
  0
ARC
  5
2956
330
2
100
AcDbEntity
  8
0
100
AcDbCircle
 10
470.461117953846
 20
186.8969595905202
 30
0.0
 40
2.0
100
AcDbArc
 50
0.0
 51
87.99999999999627
  0
LINE
  5
295C
330
2
100
AcDbEntity
  8
0
100
AcDbLine
 10
709.6335898757782
 20
114.8283371401323
 30
0.0
 11
709.6335898757782
 21
111.8283371401341
 31
0.0
  0
CIRCLE
  5
295D
330
2
100
AcDbEntity
  8
HOJO
100
AcDbCircle
 10
718.2071830045846
 20
112.4019302689414
 30
0.0
 40
4.0
  0
LINE
  5
295E
330
2
100
AcDbEntity
  8
CENTER
100
AcDbLine
 10
718.2071830045846
 20
120.4019302689432
 30
0.0
 11
718.2071830045846
 21
104.4019302689432
 31
0.0
  0
CIRCLE
  5
295F
330
2
100
AcDbEntity
  8
0
100
AcDbCircle
 10
718.2071830045846
 20
112.4019302689396
 30
0.0
 40
3.2
  0
ARC
  5
2960
330
2
100
AcDbEntity
  8
0
100
AcDbCircle
 10
717.6335898757782
 20
111.8283371401341
 30
0.0
 40
8.0
100
AcDbArc
 50
180.0
 51
270.0
  0
LINE
  5
2961
330
2
100
AcDbEntity
  8
CENTER
100
AcDbLine
 10
726.2071830045846
 20
112.4019302689432
 30
0.0
 11
710.2071830045846
 21
112.4019302689432
 31
0.0
  0
ARC
  5
2962
330
2
100
AcDbEntity
  8
0
100
AcDbCircle
 10
733.9314609454499
 20
45.20313281814765
 30
0.0
 40
60.0
100
AcDbArc
 50
84.10530161364862
 51
101.8050678104414
  0
LINE
  5
2963
330
2
100
AcDbEntity
  8
0
100
AcDbLine
 10
717.6335898757782
 20
103.8283371401341
 30
0.0
 11
720.6335898757751
 21
103.8283371401341
 31
0.0
  0
ARC
  5
2964
330
2
100
AcDbEntity
  8
0
100
AcDbCircle
 10
720.6335898757751
 20
108.8283371401323
 30
0.0
 40
5.0
100
AcDbArc
 50
269.9999999999478
 51
281.8050678104415
  0
ARC
  5
2965
330
2
100
AcDbEntity
  8
0
100
AcDbCircle
 10
909.633589875775
 20
154.8283371401323
 30
0.0
 40
200.0
100
AcDbArc
 50
174.1053016136486
 51
185.8946983863513
  0
ARC
  5
2966
330
2
100
AcDbEntity
  8
0
100
AcDbCircle
 10
714.6335898757755
 20
114.8283371401323
 30
0.0
 40
5.0
100
AcDbArc
 50
168.1949321895585
 51
180.0
  0
ARC
  5
2967
330
2
100
AcDbEntity
  8
0
100
AcDbCircle
 10
651.0083855537908
 20
128.1262082098076
 30
0.0
 40
60.0
100
AcDbArc
 50
348.1949321895584
 51
5.894698386351389
  0
ARC
  5
2968
330
2
100
AcDbEntity
  8
0
100
AcDbCircle
 10
651.0083855537908
 20
181.5304660704571
 30
0.0
 40
60.0
100
AcDbArc
 50
354.1053016136486
 51
11.80506781044149
  0
LINE
  5
2969
330
2
100
AcDbEntity
  8
0
100
AcDbLine
 10
884.4235898757769
 20
190.8283371401341
 30
0.0
 11
874.4235898757768
 21
190.8283371401341
 31
0.0
  0
LINE
  5
296A
330
2
100
AcDbEntity
  8
0
100
AcDbLine
 10
884.4235898757769
 20
191.3283371401341
 30
0.0
 11
874.4235898757768
 21
191.3283371401341
 31
0.0
  0
LINE
  5
296B
330
2
100
AcDbEntity
  8
0
100
AcDbLine
 10
874.4235898757768
 20
118.8283371401341
 30
0.0
 11
884.4235898757769
 21
118.8283371401341
 31
0.0
  0
LINE
  5
296C
330
2
100
AcDbEntity
  8
0
100
AcDbLine
 10
874.4235898757768
 20
118.3283371401341
 30
0.0
 11
884.4235898757769
 21
118.3283371401341
 31
0.0
  0
CIRCLE
  5
296D
330
2
100
AcDbEntity
  8
HOJO
100
AcDbCircle
 10
803.0599967469706
 20
112.4019302689414
 30
0.0
 40
4.0
  0
LINE
  5
296E
330
2
100
AcDbEntity
  8
CENTER
100
AcDbLine
 10
803.0599967469692
 20
120.4019302689432
 30
0.0
 11
803.0599967469692
 21
104.4019302689432
 31
0.0
  0
CIRCLE
  5
296F
330
2
100
AcDbEntity
  8
0
100
AcDbCircle
 10
803.0599967469706
 20
112.4019302689396
 30
0.0
 40
3.2
  0
LINE
  5
2970
330
2
100
AcDbEntity
  8
0
100
AcDbLine
 10
757.4918191260198
 20
119.0512567335774
 30
0.0
 11
753.4918191260143
 21
111.0512567335665
 31
0.0
  0
LINE
  5
2971
330
2
100
AcDbEntity
  8
0
100
AcDbLine
 10
765.7882917456894
 20
114.1738839319589
 30
0.0
 11
767.775360625544
 21
111.0512567335665
 31
0.0
  0
LINE
  5
2972
330
2
100
AcDbEntity
  8
0
100
AcDbLine
 10
761.7518191260254
 20
115.9912567335725
 30
0.0
 11
764.8953593842128
 21
111.0512567335665
 31
0.0
  0
LINE
  5
2973
330
2
100
AcDbEntity
  8
0
100
AcDbLine
 10
761.4117463660253
 20
116.3312567335744
 30
0.0
 11
761.4117463660253
 21
111.0512567335647
 31
0.0
  0
ARC
  5
2974
330
2
100
AcDbEntity
  8
0
100
AcDbCircle
 10
803.6335898757764
 20
111.8283371401341
 30
0.0
 40
8.0
100
AcDbArc
 50
270.0
 51
0.0
  0
LINE
  5
2975
330
2
100
AcDbEntity
  8
CENTER
100
AcDbLine
 10
795.0599967469692
 20
112.4019302689414
 30
0.0
 11
811.0599967469692
 21
112.4019302689414
 31
0.0
  0
LINE
  5
2976
330
2
100
AcDbEntity
  8
0
100
AcDbLine
 10
753.4918191260143
 20
111.0512567335665
 30
0.0
 11
756.3718203673464
 21
111.0512567335665
 31
0.0
  0
LINE
  5
2977
330
2
100
AcDbEntity
  8
0
100
AcDbLine
 10
764.8953593842128
 20
111.0512567335665
 30
0.0
 11
767.775360625544
 21
111.0512567335665
 31
0.0
  0
LINE
  5
2978
330
2
100
AcDbEntity
  8
0
100
AcDbLine
 10
759.011819126022
 20
111.0512567335665
 30
0.0
 11
761.4117463660253
 21
111.0512567335647
 31
0.0
  0
LINE
  5
2979
330
2
100
AcDbEntity
  8
0
100
AcDbLine
 10
756.9718203673468
 20
112.2512567335691
 30
0.0
 11
756.3718203673464
 21
111.0512567335665
 31
0.0
  0
LINE
  5
297A
330
2
100
AcDbEntity
  8
0
100
AcDbLine
 10
756.9718203673468
 20
112.2512567335691
 30
0.0
 11
759.011819126022
 21
112.2512567335672
 31
0.0
  0
LINE
  5
297B
330
2
100
AcDbEntity
  8
0
100
AcDbLine
 10
759.011819126022
 20
112.2512567335672
 30
0.0
 11
759.011819126022
 21
111.0512567335665
 31
0.0
  0
ARC
  5
297C
330
2
100
AcDbEntity
  8
0
100
AcDbCircle
 10
787.3357188060999
 20
45.20313281814765
 30
0.0
 40
60.0
100
AcDbArc
 50
78.19493218955852
 51
95.89469838635137
  0
ARC
  5
297D
330
2
100
AcDbEntity
  8
0
100
AcDbCircle
 10
800.633589875775
 20
108.8283371401323
 30
0.0
 40
5.0
100
AcDbArc
 50
258.1949321895585
 51
270.0
  0
LINE
  5
297E
330
2
100
AcDbEntity
  8
0
100
AcDbLine
 10
800.633589875775
 20
103.8283371401341
 30
0.0
 11
803.6335898757764
 21
103.8283371401341
 31
0.0
  0
ARC
  5
2983
330
2
100
AcDbEntity
  8
0
100
AcDbCircle
 10
764.1317463660301
 20
116.3312567335744
 30
0.0
 40
2.720000000003957
100
AcDbArc
 50
307.5189678668038
 51
90.0
  0
LINE
  5
2984
330
2
100
AcDbEntity
  8
0
100
AcDbLine
 10
758.2518203673493
 20
114.8112567335704
 30
0.0
 11
759.011819126022
 21
114.8112567335704
 31
0.0
  0
LINE
  5
2985
330
2
100
AcDbEntity
  8
0
100
AcDbLine
 10
759.011819126022
 20
116.3312542509177
 30
0.0
 11
759.011819126022
 21
114.8112567335704
 31
0.0
  0
LINE
  5
2986
330
2
100
AcDbEntity
  8
0
100
AcDbLine
 10
759.011819126022
 20
116.3312542509177
 30
0.0
 11
758.2518203673493
 21
114.8112567335704
 31
0.0
  0
LINE
  5
2987
330
2
100
AcDbEntity
  8
0
100
AcDbLine
 10
761.4117463660253
 20
116.3312567335744
 30
0.0
 11
763.9618191260282
 21
116.3312567335744
 31
0.0
  0
LINE
  5
2988
330
2
100
AcDbEntity
  8
0
100
AcDbLine
 10
761.7518191260254
 20
115.9912567335725
 30
0.0
 11
763.96181912603
 21
115.9912567335725
 31
0.0
  0
ARC
  5
2989
330
2
100
AcDbEntity
  8
0
100
AcDbCircle
 10
763.96181912603
 20
116.1612567335726
 30
0.0
 40
0.1700000000002474
100
AcDbArc
 50
270.0
 51
90.0
  0
LINE
  5
298A
330
2
100
AcDbEntity
  8
0
100
AcDbLine
 10
757.4918191260198
 20
119.0512567335774
 30
0.0
 11
764.1317463660301
 21
119.0512567335774
 31
0.0
  0
LINE
  5
298B
330
2
100
AcDbEntity
  8
0
100
AcDbLine
 10
872.4235898757768
 20
189.3283371401341
 30
0.0
 11
872.4235898757768
 21
120.3283371401341
 31
0.0
  0
LINE
  5
298C
330
2
100
AcDbEntity
  8
0
100
AcDbLine
 10
848.6335898757769
 20
124.8283371401341
 30
0.0
 11
848.6335898757769
 21
184.8283371401341
 31
0.0
  0
LINE
  5
298D
330
2
100
AcDbEntity
  8
0
100
AcDbLine
 10
862.9235898740551
 20
130.3283371401323
 30
0.0
 11
862.9235898740551
 21
179.3283371401341
 31
0.0
  0
ARC
  5
298E
330
2
100
AcDbEntity
  8
0
100
AcDbCircle
 10
842.6335898757768
 20
124.8283371401341
 30
0.0
 40
6.0
100
AcDbArc
 50
270.0
 51
0.0
  0
ARC
  5
298F
330
2
100
AcDbEntity
  8
0
100
AcDbCircle
 10
817.6335898757765
 20
112.8283371401341
 30
0.0
 40
6.0
100
AcDbArc
 50
90.0
 51
180.0
  0
LINE
  5
2990
330
2
100
AcDbEntity
  8
0
100
AcDbLine
 10
842.6335898757768
 20
118.8283371401341
 30
0.0
 11
817.6335898757765
 21
118.8283371401341
 31
0.0
  0
ARC
  5
2991
330
2
100
AcDbEntity
  8
0
100
AcDbCircle
 10
851.6335898757759
 20
149.3283371401341
 30
0.0
 40
3.0
100
AcDbArc
 50
90.0
 51
180.0
  0
LINE
  5
2992
330
2
100
AcDbEntity
  8
0
100
AcDbLine
 10
851.6335898757759
 20
152.3283371401341
 30
0.0
 11
859.9235898740552
 21
152.3283371401341
 31
0.0
  0
ARC
  5
2993
330
2
100
AcDbEntity
  8
0
100
AcDbCircle
 10
859.9235898740552
 20
149.3283371401341
 30
0.0
 40
3.0
100
AcDbArc
 50
0.0
 51
90.0
  0
ARC
  5
2994
330
2
100
AcDbEntity
  8
0
100
AcDbCircle
 10
865.9235898740552
 20
130.3283371401323
 30
0.0
 40
3.0
100
AcDbArc
 50
180.0
 51
270.0
  0
LINE
  5
2995
330
2
100
AcDbEntity
  8
0
100
AcDbLine
 10
850.6336660323549
 20
128.8283371401341
 30
0.0
 11
862.3528756597833
 21
128.8283371401341
 31
0.0
  0
ARC
  5
2996
330
2
100
AcDbEntity
  8
0
100
AcDbCircle
 10
862.3528756597833
 20
126.8283371401341
 30
0.0
 40
2.0
100
AcDbArc
 50
44.42700400082762
 51
90.0
  0
ARC
  5
2997
330
2
100
AcDbEntity
  8
0
100
AcDbCircle
 10
850.6335898757768
 20
126.8283371401341
 30
0.0
 40
2.0
100
AcDbArc
 50
90.0
 51
180.0
  0
LINE
  5
2998
330
2
100
AcDbEntity
  8
0
100
AcDbLine
 10
867.4235898757787
 20
127.3283371401323
 30
0.0
 11
865.9235898740544
 21
127.3283371401323
 31
0.0
  0
ARC
  5
2999
330
2
100
AcDbEntity
  8
0
100
AcDbCircle
 10
853.6335898757769
 20
127.8283371401359
 30
0.0
 40
5.0
100
AcDbArc
 50
90.0
 51
180.0
  0
LINE
  5
299A
330
2
100
AcDbEntity
  8
0
100
AcDbLine
 10
853.6335898757769
 20
132.8283371401359
 30
0.0
 11
858.3242477972698
 21
132.8283371401359
 31
0.0
  0
ARC
  5
299B
330
2
100
AcDbEntity
  8
0
100
AcDbCircle
 10
858.3242477972698
 20
127.8283371401359
 30
0.0
 40
5.0
100
AcDbArc
 50
18.20995686428278
 51
90.0
  0
ARC
  5
299C
330
2
100
AcDbEntity
  8
0
100
AcDbCircle
 10
874.4235898757768
 20
120.8283371401341
 30
0.0
 40
2.0
100
AcDbArc
 50
180.0
 51
270.0
  0
ARC
  5
299D
330
2
100
AcDbEntity
  8
0
100
AcDbCircle
 10
874.4235898757768
 20
120.3283371401341
 30
0.0
 40
2.0
100
AcDbArc
 50
180.0
 51
270.0
  0
ARC
  5
299E
330
2
100
AcDbEntity
  8
0
100
AcDbCircle
 10
867.4235898757787
 20
122.3283371401323
 30
0.0
 40
5.0
100
AcDbArc
 50
0.0
 51
90.0
  0
ARC
  5
299F
330
2
100
AcDbEntity
  8
0
100
AcDbCircle
 10
842.6335898757768
 20
184.8283371401341
 30
0.0
 40
6.0
100
AcDbArc
 50
0.0
 51
90.0
  0
LINE
  5
29A0
330
2
100
AcDbEntity
  8
0
100
AcDbLine
 10
842.6335898757768
 20
190.8283371401341
 30
0.0
 11
817.6335898757809
 21
190.8283371401341
 31
0.0
  0
ARC
  5
29A1
330
2
100
AcDbEntity
  8
0
100
AcDbCircle
 10
874.4235898757768
 20
188.8283371401341
 30
0.0
 40
2.0
100
AcDbArc
 50
90.0
 51
180.0
  0
LINE
  5
29A2
330
2
100
AcDbEntity
  8
0
100
AcDbLine
 10
850.6336660323549
 20
180.8283371401341
 30
0.0
 11
862.3528756597833
 21
180.8283371401341
 31
0.0
  0
ARC
  5
29A3
330
2
100
AcDbEntity
  8
0
100
AcDbCircle
 10
850.6335898757768
 20
182.8283371401341
 30
0.0
 40
2.0
100
AcDbArc
 50
180.0
 51
270.0
  0
ARC
  5
29A4
330
2
100
AcDbEntity
  8
0
100
AcDbCircle
 10
862.3528756597833
 20
182.8283371401341
 30
0.0
 40
2.0
100
AcDbArc
 50
270.0
 51
315.5729959991723
  0
ARC
  5
29A5
330
2
100
AcDbEntity
  8
0
100
AcDbCircle
 10
865.9235898740552
 20
179.3283371401341
 30
0.0
 40
3.0
100
AcDbArc
 50
90.0
 51
180.0
  0
ARC
  5
29A6
330
2
100
AcDbEntity
  8
0
100
AcDbCircle
 10
867.4235898757787
 20
187.3283371401342
 30
0.0
 40
5.0
100
AcDbArc
 50
270.0
 51
0.0
  0
LINE
  5
29A7
330
2
100
AcDbEntity
  8
0
100
AcDbLine
 10
867.4235898757787
 20
182.3283371401341
 30
0.0
 11
865.9235898740544
 21
182.3283371401341
 31
0.0
  0
ARC
  5
29A8
330
2
100
AcDbEntity
  8
0
100
AcDbCircle
 10
853.6335898757769
 20
181.828337140136
 30
0.0
 40
5.0
100
AcDbArc
 50
180.0
 51
270.0
  0
LINE
  5
29A9
330
2
100
AcDbEntity
  8
0
100
AcDbLine
 10
853.6335898757769
 20
176.8283371401359
 30
0.0
 11
858.3242477972698
 21
176.8283371401359
 31
0.0
  0
ARC
  5
29AA
330
2
100
AcDbEntity
  8
0
100
AcDbCircle
 10
858.3242477972698
 20
181.828337140136
 30
0.0
 40
5.0
100
AcDbArc
 50
270.0
 51
341.7900431357172
  0
ARC
  5
29AB
330
2
100
AcDbEntity
  8
0
100
AcDbCircle
 10
874.4235898757768
 20
189.3283371401341
 30
0.0
 40
2.0
100
AcDbArc
 50
90.0
 51
180.0
  0
ARC
  5
29AC
330
2
100
AcDbEntity
  8
0
100
AcDbCircle
 10
859.9235898740552
 20
160.3283371401341
 30
0.0
 40
3.0
100
AcDbArc
 50
270.0
 51
0.0
  0
LINE
  5
29AD
330
2
100
AcDbEntity
  8
0
100
AcDbLine
 10
851.6335898757759
 20
157.3283371401341
 30
0.0
 11
859.9235898740552
 21
157.3283371401341
 31
0.0
  0
ARC
  5
29AE
330
2
100
AcDbEntity
  8
0
100
AcDbCircle
 10
851.6335898757759
 20
160.3283371401341
 30
0.0
 40
3.0
100
AcDbArc
 50
180.0
 51
270.0
  0
ARC
  5
29D7
330
2
100
AcDbEntity
  8
0
100
AcDbCircle
 10
760.6335898757755
 20
5.828337140132362
 30
0.0
 40
200.0
100
AcDbArc
 50
84.10530161364862
 51
95.89469838635137
  0
LINE
  5
29D8
330
2
100
AcDbEntity
  8
0
100
AcDbLine
 10
792.7022123261653
 20
459.1314265968824
 30
0.0
 11
728.5649674253912
 21
459.1314265968824
 31
0.0
  0
LINE
  5
29DB
330
2
100
AcDbEntity
  8
0
100
AcDbLine
 10
453.4611179538451
 20
199.8283371401342
 30
0.0
 11
458.4611179538451
 21
199.8283371401342
 31
0.0
  0
LINE
  5
29DC
330
2
100
AcDbEntity
  8
0
100
AcDbLine
 10
717.6335898757782
 20
205.8283371401341
 30
0.0
 11
720.6335898757751
 21
205.8283371401341
 31
0.0
  0
ARC
  5
29DD
330
2
100
AcDbEntity
  8
0
100
AcDbCircle
 10
720.6335898757751
 20
200.8283371401323
 30
0.0
 40
5.0
100
AcDbArc
 50
78.19493218955852
 51
90.0
  0
LINE
  5
29DE
330
2
100
AcDbEntity
  8
0
100
AcDbLine
 10
709.6335898757782
 20
197.8283371401341
 30
0.0
 11
709.6335898757782
 21
194.8283371401323
 31
0.0
  0
LINE
  5
29DF
330
2
100
AcDbEntity
  8
CENTER
100
AcDbLine
 10
726.2071830045846
 20
197.2547440113269
 30
0.0
 11
710.2071830045846
 21
197.2547440113269
 31
0.0
  0
ARC
  5
29E0
330
2
100
AcDbEntity
  8
0
100
AcDbCircle
 10
717.6335898757782
 20
197.8283371401341
 30
0.0
 40
8.0
100
AcDbArc
 50
90.0
 51
180.0
  0
ARC
  5
29E1
330
2
100
AcDbEntity
  8
0
100
AcDbCircle
 10
733.9314609454503
 20
264.453541462117
 30
0.0
 40
60.0
100
AcDbArc
 50
258.1949321895585
 51
275.8946983863513
  0
ARC
  5
29E2
330
2
100
AcDbEntity
  8
0
100
AcDbCircle
 10
728.5649674253912
 20
461.1314265968823
 30
0.0
 40
2.0
100
AcDbArc
 50
182.0000000000037
 51
270.0
  0
ARC
  5
29E3
330
2
100
AcDbEntity
  8
0
100
AcDbCircle
 10
803.6335898757814
 20
197.8283371401341
 30
0.0
 40
8.0
100
AcDbArc
 50
0.0
 51
90.0
  0
LINE
  5
29E4
330
2
100
AcDbEntity
  8
CENTER
100
AcDbLine
 10
795.0599967469692
 20
197.2547440113269
 30
0.0
 11
811.0599967469692
 21
197.2547440113269
 31
0.0
  0
ARC
  5
29E5
330
2
100
AcDbEntity
  8
0
100
AcDbCircle
 10
800.633589875775
 20
200.8283371401305
 30
0.0
 40
5.0
100
AcDbArc
 50
89.99999999994789
 51
101.8050678104414
  0
LINE
  5
29E6
330
2
100
AcDbEntity
  8
0
100
AcDbLine
 10
800.633589875775
 20
205.8283371401341
 30
0.0
 11
803.633589875781
 21
205.8283371401341
 31
0.0
  0
ARC
  5
29E7
330
2
100
AcDbEntity
  8
0
100
AcDbCircle
 10
787.3357188061008
 20
264.4535414621152
 30
0.0
 40
60.0
100
AcDbArc
 50
264.1053016135961
 51
281.8050678104415
  0
ARC
  5
29F5
330
2
100
AcDbEntity
  8
0
100
AcDbCircle
 10
792.7022123261653
 20
461.1314265968823
 30
0.0
 40
2.0
100
AcDbArc
 50
270.0
 51
357.9999999999962
  0
LINE
  5
2A50
330
2
100
AcDbEntity
  8
0
100
AcDbLine
 10
727.6335898757783
 20
565.4314265968817
 30
0.0
 11
793.6335898757783
 21
565.4314265968871
 31
0.0
  0
LINE
  5
2A51
330
2
100
AcDbEntity
  8
0
100
AcDbLine
 10
727.6335898757778
 20
569.1314265968824
 30
0.0
 11
793.6335898757783
 21
569.131426596886
 31
0.0
  0
LINE
  5
2A52
330
2
100
AcDbEntity
  8
0
100
AcDbLine
 10
727.8335898757781
 20
567.6314265968824
 30
0.0
 11
793.4335898757784
 21
567.6314265968824
 31
0.0
  0
LINE
  5
2A53
330
2
100
AcDbEntity
  8
0
100
AcDbLine
 10
722.4620170005181
 20
561.6314265968806
 30
0.0
 11
796.1335898757782
 21
561.631426596886
 31
0.0
  0
LINE
  5
2A54
330
2
100
AcDbEntity
  8
0
100
AcDbLine
 10
727.8335898757781
 20
565.6314265968823
 30
0.0
 11
793.433589875783
 21
565.6314265968823
 31
0.0
  0
LINE
  5
2A55
330
2
100
AcDbEntity
  8
0
100
AcDbLine
 10
725.6335898757787
 20
562.1314265968824
 30
0.0
 11
795.6335898757751
 21
562.1314265968897
 31
0.0
  0
LINE
  5
2A56
330
2
100
AcDbEntity
  8
0
100
AcDbLine
 10
711.7514787477261
 20
559.6314265968897
 30
0.0
 11
809.6335898757782
 21
559.631426596886
 31
0.0
  0
LINE
  5
2A57
330
2
100
AcDbEntity
  8
0
100
AcDbLine
 10
728.2109401449701
 20
570.131426596886
 30
0.0
 11
793.0562396065887
 21
570.1314265968878
 31
0.0
  0
LINE
  5
2A58
330
2
100
AcDbEntity
  8
0
100
AcDbLine
 10
715.6335898757783
 20
473.1314265994272
 30
0.0
 11
805.6335898757783
 21
473.1314265994345
 31
0.0
  0
LINE
  5
2A59
330
2
100
AcDbEntity
  8
0
100
AcDbLine
 10
710.2095631499463
 20
478.1314265994272
 30
0.0
 11
811.0532531677167
 21
478.1314265994272
 31
0.0
  0
LINE
  5
2A5A
330
2
100
AcDbEntity
  8
0
100
AcDbLine
 10
709.6335898757782
 20
544.1314265968824
 30
0.0
 11
848.6335898755832
 21
544.1314265968824
 31
0.0
  0
LINE
  5
2A5B
330
2
100
AcDbEntity
  8
0
100
AcDbLine
 10
740.0934907003251
 20
543.6314265968824
 30
0.0
 11
740.0934907003251
 21
479.6352834285255
 31
0.0
  0
LINE
  5
2A5C
330
2
100
AcDbEntity
  8
0
100
AcDbLine
 10
720.6335898774981
 20
543.6314265968824
 30
0.0
 11
720.633589877499
 21
479.632771933034
 31
0.0
  0
LINE
  5
2A5D
330
2
100
AcDbEntity
  8
0
100
AcDbLine
 10
717.6335898775026
 20
543.6314265968824
 30
0.0
 11
717.6335898775008
 21
479.6323847529285
 31
0.0
  0
LINE
  5
2A5E
330
2
100
AcDbEntity
  8
0
100
AcDbLine
 10
710.2095631499463
 20
478.1314265994272
 30
0.0
 11
709.6335898757782
 21
544.1314265968824
 31
0.0
  0
ARC
  5
2A5F
330
2
100
AcDbEntity
  8
0
100
AcDbCircle
 10
724.2133215532788
 20
471.1314265968824
 30
0.0
 40
2.0
100
AcDbArc
 50
2.000000000003725
 51
90.0
  0
LINE
  5
2A60
330
2
100
AcDbEntity
  8
0
100
AcDbLine
 10
726.2121032073176
 20
471.2012255902857
 30
0.0
 11
726.5661857713533
 21
461.0616276034773
 31
0.0
  0
LINE
  5
2A61
330
2
100
AcDbEntity
  8
0
100
AcDbLine
 10
715.6335898757783
 20
478.1314265994272
 30
0.0
 11
715.6335898757783
 21
473.1314265994272
 31
0.0
  0
LINE
  5
2A62
330
2
100
AcDbEntity
  8
CENTER
100
AcDbLine
 10
717.6335898757728
 20
539.6752874063252
 30
0.0
 11
717.6335898757724
 21
562.1314265968115
 31
0.0
  0
LINE
  5
2A63
330
2
100
AcDbEntity
  8
0
100
AcDbLine
 10
725.6335898757787
 20
562.1314265968824
 30
0.0
 11
725.1335898757791
 21
561.6314265968823
 31
0.0
  0
LINE
  5
2A64
330
2
100
AcDbEntity
  8
0
100
AcDbLine
 10
712.6335898757723
 20
551.6314265968114
 30
0.0
 11
722.6335898757723
 21
551.6314265968114
 31
0.0
  0
LINE
  5
2A65
330
2
100
AcDbEntity
  8
0
100
AcDbLine
 10
721.9407695527446
 20
559.1314265968114
 30
0.0
 11
713.3264101987996
 21
559.1314265968114
 31
0.0
  0
LINE
  5
2A66
330
2
100
AcDbEntity
  8
0
100
AcDbLine
 10
712.6335898757723
 20
558.7314265968118
 30
0.0
 11
713.3264101988
 21
559.1314265968114
 31
0.0
  0
LINE
  5
2A67
330
2
100
AcDbEntity
  8
0
100
AcDbLine
 10
712.6335898757723
 20
551.6314265968114
 30
0.0
 11
712.6335898757723
 21
558.7314265968118
 31
0.0
  0
LINE
  5
2A68
330
2
100
AcDbEntity
  8
0
100
AcDbLine
 10
722.6335898757723
 20
551.6314265968114
 30
0.0
 11
722.6335898757723
 21
558.7314265968118
 31
0.0
  0
LINE
  5
2A69
330
2
100
AcDbEntity
  8
0
100
AcDbLine
 10
722.6335898757723
 20
558.7314265968118
 30
0.0
 11
712.6335898757723
 21
558.7314265968118
 31
0.0
  0
LINE
  5
2A6A
330
2
100
AcDbEntity
  8
0
100
AcDbLine
 10
722.6335898757723
 20
553.1314265968115
 30
0.0
 11
712.6335898757723
 21
553.1314265968115
 31
0.0
  0
LINE
  5
2A6B
330
2
100
AcDbEntity
  8
0
100
AcDbLine
 10
722.6335898757723
 20
558.7314265968118
 30
0.0
 11
721.9407695527446
 21
559.1314265968114
 31
0.0
  0
LINE
  5
2A6C
330
2
100
AcDbEntity
  8
0
100
AcDbLine
 10
740.0934906986029
 20
544.1314265968806
 30
0.0
 11
740.0934906986029
 21
557.648879667887
 31
0.0
  0
LINE
  5
2A6D
330
2
100
AcDbEntity
  8
0
100
AcDbLine
 10
720.6335898757778
 20
550.6401531323092
 30
0.0
 11
720.6335898757778
 21
544.1314265968787
 31
0.0
  0
LINE
  5
2A6E
330
2
100
AcDbEntity
  8
0
100
AcDbLine
 10
717.6335898757778
 20
550.6401531323092
 30
0.0
 11
717.6335898757778
 21
544.1314265968787
 31
0.0
  0
ARC
  5
2A6F
330
2
100
AcDbEntity
  8
0
100
AcDbCircle
 10
723.6422786651841
 20
552.6314265968115
 30
0.0
 40
1.0
100
AcDbArc
 50
270.0
 51
359.5000000000345
  0
LINE
  5
2A70
330
2
100
AcDbEntity
  8
0
100
AcDbLine
 10
710.6903525948045
 20
551.6314265968114
 30
0.0
 11
723.6422786651841
 21
551.6314265968114
 31
0.0
  0
LINE
  5
2A71
330
2
100
AcDbEntity
  8
0
100
AcDbLine
 10
724.642240588248
 20
552.6227000613118
 30
0.0
 11
724.6861033931676
 21
557.648879667887
 31
0.0
  0
ARC
  5
2A72
330
2
100
AcDbEntity
  8
0
100
AcDbCircle
 10
718.805162751032
 20
561.6314265968878
 30
0.0
 40
2.0
100
AcDbArc
 50
270.0
 51
315.0000000000092
  0
ARC
  5
2A73
330
2
100
AcDbEntity
  8
0
100
AcDbCircle
 10
722.4620170005185
 20
559.6314265968806
 30
0.0
 40
2.0
100
AcDbArc
 50
90.0
 51
135.0000000000092
  0
LINE
  5
2A74
330
2
100
AcDbEntity
  8
0
100
AcDbLine
 10
720.2193763134054
 20
560.2172130345145
 30
0.0
 11
721.0478034381452
 21
561.0456401592539
 31
0.0
  0
ARC
  5
2A75
330
2
100
AcDbEntity
  8
0
100
AcDbCircle
 10
726.6860272392959
 20
557.6314265968896
 30
0.0
 40
2.0
100
AcDbArc
 50
90.0
 51
179.5000000000344
  0
LINE
  5
2A76
330
2
100
AcDbEntity
  8
0
100
AcDbLine
 10
709.6335898757792
 20
544.1314265968787
 30
0.0
 11
709.7515549015978
 21
557.648879667887
 31
0.0
  0
ARC
  5
2A77
330
2
100
AcDbEntity
  8
0
100
AcDbCircle
 10
710.6903525948045
 20
550.6314265968114
 30
0.0
 40
1.0
100
AcDbArc
 50
90.0
 51
179.5000000000344
  0
ARC
  5
2A78
330
2
100
AcDbEntity
  8
0
100
AcDbCircle
 10
711.7514787477261
 20
557.6314265968896
 30
0.0
 40
2.0
100
AcDbArc
 50
90.0
 51
179.5000000000344
  0
ARC
  5
2A79
330
2
100
AcDbEntity
  8
0
100
AcDbCircle
 10
728.1335898757783
 20
565.8314265968831
 30
0.0
 40
0.2
100
AcDbArc
 50
270.0
 51
0.0
  0
ARC
  5
2A7A
330
2
100
AcDbEntity
  8
0
100
AcDbCircle
 10
728.1335898757778
 20
567.4314265968816
 30
0.0
 40
0.2
100
AcDbArc
 50
0.0
 51
90.0
  0
ARC
  5
2A7B
330
2
100
AcDbEntity
  8
0
100
AcDbCircle
 10
727.8335898757781
 20
567.8314265968831
 30
0.0
 40
0.2
100
AcDbArc
 50
180.0
 51
270.0
  0
LINE
  5
2A7C
330
2
100
AcDbEntity
  8
0
100
AcDbLine
 10
728.3335898757781
 20
567.4314265968816
 30
0.0
 11
728.3335898757781
 21
565.8314265968831
 31
0.0
  0
LINE
  5
2A7D
330
2
100
AcDbEntity
  8
0
100
AcDbLine
 10
727.6335898757778
 20
569.1314265968824
 30
0.0
 11
727.6335898757783
 21
567.8314265968813
 31
0.0
  0
LINE
  5
2A7E
330
2
100
AcDbEntity
  8
0
100
AcDbLine
 10
727.6335898757778
 20
569.1314265968824
 30
0.0
 11
728.2109401449673
 21
570.1314265968824
 31
0.0
  0
LINE
  5
2A7F
330
2
100
AcDbEntity
  8
0
100
AcDbLine
 10
727.6335898757783
 20
565.4314265968817
 30
0.0
 11
727.6335898757787
 21
562.1314265968824
 31
0.0
  0
LINE
  5
2A80
330
2
100
AcDbEntity
  8
0
100
AcDbLine
 10
727.8335898757781
 20
565.6314265968823
 30
0.0
 11
727.6335898757783
 21
565.4314265968817
 31
0.0
  0
LINE
  5
2A81
330
2
100
AcDbEntity
  8
CENTER
100
AcDbLine
 10
760.6335898757773
 20
402.1314265968833
 30
0.0
 11
760.6335898757787
 21
585.1314265968869
 31
0.0
  0
ARC
  5
2A82
330
2
100
AcDbEntity
  8
0
100
AcDbCircle
 10
812.5576737191908
 20
478.6314265994271
 30
0.0
 40
1.5
100
AcDbArc
 50
90.0
 51
179.5000000000344
  0
LINE
  5
2A83
330
2
100
AcDbEntity
  8
0
100
AcDbLine
 10
811.0532531677167
 20
478.1314265994272
 30
0.0
 11
811.6292264418829
 21
544.1314265968824
 31
0.0
  0
LINE
  5
2A84
330
2
100
AcDbEntity
  8
0
100
AcDbLine
 10
803.6335898775
 20
543.6314265968824
 30
0.0
 11
803.6335898775
 21
479.6434839159785
 31
0.0
  0
LINE
  5
2A85
330
2
100
AcDbEntity
  8
0
100
AcDbLine
 10
800.6335898774981
 20
543.6314265968824
 30
0.0
 11
800.6335898774981
 21
479.6430967358713
 31
0.0
  0
LINE
  5
2A86
330
2
100
AcDbEntity
  8
0
100
AcDbLine
 10
781.173689054673
 20
543.6314265968824
 30
0.0
 11
781.173689054672
 21
479.6405852403816
 31
0.0
  0
ARC
  5
2A87
330
2
100
AcDbEntity
  8
0
100
AcDbCircle
 10
874.371903619345
 20
482.1314265968823
 30
0.0
 40
2.0
100
AcDbArc
 50
181.4999999999896
 51
270.0
  0
ARC
  5
2A89
330
2
100
AcDbEntity
  8
0
100
AcDbCircle
 10
797.0538581982776
 20
471.1314265968824
 30
0.0
 40
2.0
100
AcDbArc
 50
90.0
 51
177.9999999999962
  0
LINE
  5
2A8A
330
2
100
AcDbEntity
  8
0
100
AcDbLine
 10
795.0550765442389
 20
471.2012255902857
 30
0.0
 11
794.7009939802032
 21
461.0616276034773
 31
0.0
  0
LINE
  5
2A8B
330
2
100
AcDbEntity
  8
0
100
AcDbLine
 10
805.6335898757783
 20
478.1314265994272
 30
0.0
 11
805.6335898757783
 21
473.1314265994272
 31
0.0
  0
LINE
  5
2A8C
330
2
100
AcDbEntity
  8
0
100
AcDbLine
 10
874.371903619345
 20
552.1314265968824
 30
0.0
 11
884.4235898775021
 21
552.1314265968824
 31
0.0
  0
LINE
  5
2A8D
330
2
100
AcDbEntity
  8
0
100
AcDbLine
 10
871.4808967010247
 20
516.1314265968824
 30
0.0
 11
884.4235898775021
 21
516.1314265968824
 31
0.0
  0
LINE
  5
2A8E
330
2
100
AcDbEntity
  8
0
100
AcDbLine
 10
874.371903619345
 20
480.1314265968824
 30
0.0
 11
884.4235898775021
 21
480.1314265968824
 31
0.0
  0
LINE
  5
2A8F
330
2
100
AcDbEntity
  8
CENTER
100
AcDbLine
 10
842.1335898757787
 20
539.6752874063252
 30
0.0
 11
842.1335898757787
 21
562.1314265968115
 31
0.0
  0
LINE
  5
2A90
330
2
100
AcDbEntity
  8
0
100
AcDbLine
 10
795.6335898757783
 20
562.1314265968861
 30
0.0
 11
796.1335898757782
 21
561.631426596886
 31
0.0
  0
LINE
  5
2A91
330
2
100
AcDbEntity
  8
0
100
AcDbLine
 10
781.1736890529531
 20
544.1314265968806
 30
0.0
 11
781.1736890529531
 21
557.648879667887
 31
0.0
  0
LINE
  5
2A92
330
2
100
AcDbEntity
  8
0
100
AcDbLine
 10
800.6335898757782
 20
557.648879667887
 30
0.0
 11
800.6335898757782
 21
544.1314265968787
 31
0.0
  0
LINE
  5
2A93
330
2
100
AcDbEntity
  8
0
100
AcDbLine
 10
803.6335898757787
 20
557.648879667887
 30
0.0
 11
803.6335898757787
 21
544.1314265968787
 31
0.0
  0
ARC
  5
2A94
330
2
100
AcDbEntity
  8
0
100
AcDbCircle
 10
802.462017000524
 20
561.6314265968878
 30
0.0
 40
2.0
100
AcDbArc
 50
224.9999999999908
 51
270.0
  0
ARC
  5
2A95
330
2
100
AcDbEntity
  8
0
100
AcDbCircle
 10
798.8051627510325
 20
559.631426596886
 30
0.0
 40
2.0
100
AcDbArc
 50
44.99999999999078
 51
90.0
  0
LINE
  5
2A96
330
2
100
AcDbEntity
  8
0
100
AcDbLine
 10
798.8051627510325
 20
561.631426596886
 30
0.0
 11
796.1335898757782
 21
561.631426596886
 31
0.0
  0
LINE
  5
2A97
330
2
100
AcDbEntity
  8
0
100
AcDbLine
 10
801.0478034381511
 20
560.2172130345145
 30
0.0
 11
800.2193763134053
 21
561.0456401592593
 31
0.0
  0
ARC
  5
2A98
330
2
100
AcDbEntity
  8
0
100
AcDbCircle
 10
851.8300586360409
 20
521.6314265968824
 30
0.0
 40
3.0
100
AcDbArc
 50
180.4999999995485
 51
270.0
  0
LINE
  5
2A99
330
2
100
AcDbEntity
  8
0
100
AcDbLine
 10
848.877942173687
 20
516.1314265968824
 30
0.0
 11
848.6335898757786
 21
544.1314265968824
 31
0.0
  0
ARC
  5
2A9A
330
2
100
AcDbEntity
  8
0
100
AcDbCircle
 10
859.3464712255089
 20
521.6314265968824
 30
0.0
 40
3.0
100
AcDbArc
 50
270.0
 51
358.5000000000103
  0
LINE
  5
2A9B
330
2
100
AcDbEntity
  8
0
100
AcDbLine
 10
872.3725889693941
 20
550.1837804934978
 30
0.0
 11
871.4808967010212
 21
516.1314265968824
 31
0.0
  0
LINE
  5
2A9C
330
2
100
AcDbEntity
  8
0
100
AcDbLine
 10
862.8470885153419
 20
540.7099574418054
 30
0.0
 11
862.2034770343505
 21
516.1314265968824
 31
0.0
  0
LINE
  5
2A9D
330
2
100
AcDbEntity
  8
0
100
AcDbLine
 10
842.6466828382871
 20
544.1314265968824
 30
0.0
 11
843.3543881881686
 21
517.1052496485747
 31
0.0
  0
ARC
  5
2A9E
330
2
100
AcDbEntity
  8
0
100
AcDbCircle
 10
844.354045513144
 20
517.1314265968824
 30
0.0
 40
1.0
100
AcDbArc
 50
181.4999999999896
 51
270.0
  0
LINE
  5
2A9F
330
2
100
AcDbEntity
  8
0
100
AcDbLine
 10
846.5811525122836
 20
480.1314265994271
 30
0.0
 11
812.5576737191908
 21
480.1314265994271
 31
0.0
  0
ARC
  5
2AA0
330
2
100
AcDbEntity
  8
0
100
AcDbCircle
 10
851.8300586362292
 20
510.6314265968824
 30
0.0
 40
3.0
100
AcDbArc
 50
90.0
 51
179.5000000000344
  0
ARC
  5
2AA1
330
2
100
AcDbEntity
  8
0
100
AcDbCircle
 10
853.6425071354987
 20
489.1314265968824
 30
0.0
 40
5.0
100
AcDbArc
 50
90.0
 51
179.5000000000344
  0
ARC
  5
2AA2
330
2
100
AcDbEntity
  8
0
100
AcDbCircle
 10
850.6336660325503
 20
488.1314265968824
 30
0.0
 40
2.0
100
AcDbArc
 50
90.0
 51
179.5000000000344
  0
LINE
  5
2AA3
330
2
100
AcDbEntity
  8
0
100
AcDbLine
 10
848.8779421739216
 20
516.1314265968824
 30
0.0
 11
848.5810763584121
 21
482.1139735284302
 31
0.0
  0
ARC
  5
2AA4
330
2
100
AcDbEntity
  8
0
100
AcDbCircle
 10
859.3464712255089
 20
510.6314265968824
 30
0.0
 40
3.0
100
AcDbArc
 50
1.499999999989629
 51
90.0
  0
LINE
  5
2AA5
330
2
100
AcDbEntity
  8
0
100
AcDbLine
 10
865.8460604902684
 20
488.6314265968805
 30
0.0
 11
867.3302251895565
 21
488.6314265968805
 31
0.0
  0
LINE
  5
2AA6
330
2
100
AcDbEntity
  8
0
100
AcDbLine
 10
851.8300586360409
 20
518.6314265968824
 30
0.0
 11
859.3464712255089
 21
518.6314265968824
 31
0.0
  0
LINE
  5
2AA7
330
2
100
AcDbEntity
  8
0
100
AcDbLine
 10
851.8300586362292
 20
513.6314265968824
 30
0.0
 11
859.3464712255089
 21
513.6314265968824
 31
0.0
  0
LINE
  5
2AA8
330
2
100
AcDbEntity
  8
0
100
AcDbLine
 10
850.6336660325503
 20
490.1314265968824
 30
0.0
 11
862.2753462759956
 21
490.1314265968824
 31
0.0
  0
LINE
  5
2AA9
330
2
100
AcDbEntity
  8
0
100
AcDbLine
 10
853.633589875584
 20
494.1314265968824
 30
0.0
 11
858.246718413482
 21
494.1314265968824
 31
0.0
  0
ARC
  5
2AAA
330
2
100
AcDbEntity
  8
0
100
AcDbCircle
 10
867.3302251895565
 20
483.6314265968805
 30
0.0
 40
5.0
100
AcDbArc
 50
1.499999999989629
 51
90.0
  0
ARC
  5
2AAB
330
2
100
AcDbEntity
  8
0
100
AcDbCircle
 10
858.246718413482
 20
489.1314265968824
 30
0.0
 40
5.0
100
AcDbArc
 50
18.20995686428278
 51
90.0
  0
ARC
  5
2AAC
330
2
100
AcDbEntity
  8
0
100
AcDbCircle
 10
862.2753462759956
 20
488.1314265968824
 30
0.0
 40
2.0
100
AcDbArc
 50
44.42700400082762
 51
90.0
  0
ARC
  5
2AAD
330
2
100
AcDbEntity
  8
0
100
AcDbCircle
 10
865.8460604902684
 20
491.6314265968805
 30
0.0
 40
3.0
100
AcDbArc
 50
181.4999999999896
 51
270.0
  0
LINE
  5
2AAE
330
2
100
AcDbEntity
  8
0
100
AcDbLine
 10
872.3725889693941
 20
482.079072700267
 30
0.0
 11
871.4808967010247
 21
516.1314265968824
 31
0.0
  0
LINE
  5
2AAF
330
2
100
AcDbEntity
  8
0
100
AcDbLine
 10
862.8470885153419
 20
491.5528957519575
 30
0.0
 11
862.2034770343505
 21
516.1314265968824
 31
0.0
  0
LINE
  5
2AB0
330
2
100
AcDbEntity
  8
0
100
AcDbLine
 10
844.354045513144
 20
516.1314265968824
 30
0.0
 11
848.8779421738053
 21
516.1314265834382
 31
0.0
  0
LINE
  5
2AB1
330
2
100
AcDbEntity
  8
0
100
AcDbLine
 10
837.1335898757788
 20
551.6314265968114
 30
0.0
 11
847.1335898757788
 21
551.6314265968114
 31
0.0
  0
LINE
  5
2AB2
330
2
100
AcDbEntity
  8
0
100
AcDbLine
 10
846.4407695527514
 20
559.1314265968114
 30
0.0
 11
837.826410198806
 21
559.1314265968114
 31
0.0
  0
LINE
  5
2AB3
330
2
100
AcDbEntity
  8
0
100
AcDbLine
 10
847.1335898757788
 20
558.7314265968118
 30
0.0
 11
837.1335898757788
 21
558.7314265968118
 31
0.0
  0
LINE
  5
2AB4
330
2
100
AcDbEntity
  8
0
100
AcDbLine
 10
847.1335898757788
 20
553.1314265968115
 30
0.0
 11
837.1335898757788
 21
553.1314265968115
 31
0.0
  0
LINE
  5
2AB5
330
2
100
AcDbEntity
  8
0
100
AcDbLine
 10
835.7515979190846
 20
551.6314265968114
 30
0.0
 11
847.5768271565593
 21
551.6314265968114
 31
0.0
  0
LINE
  5
2AB6
330
2
100
AcDbEntity
  8
0
100
AcDbLine
 10
837.1335898757788
 20
558.7314265968118
 30
0.0
 11
837.826410198806
 21
559.1314265968114
 31
0.0
  0
LINE
  5
2AB7
330
2
100
AcDbEntity
  8
0
100
AcDbLine
 10
837.1335898757788
 20
551.6314265968114
 30
0.0
 11
837.1335898757788
 21
558.7314265968118
 31
0.0
  0
ARC
  5
2AB8
330
2
100
AcDbEntity
  8
0
100
AcDbCircle
 10
835.7515979190846
 20
552.1314265968114
 30
0.0
 40
0.5
100
AcDbArc
 50
181.4999999999896
 51
270.0
  0
ARC
  5
2AB9
330
2
100
AcDbEntity
  8
0
100
AcDbCircle
 10
833.1852761339341
 20
554.6314265968114
 30
0.0
 40
2.0
100
AcDbArc
 50
1.499999999989629
 51
90.0
  0
LINE
  5
2ABA
330
2
100
AcDbEntity
  8
0
100
AcDbLine
 10
835.2517692565978
 20
552.1183381226576
 30
0.0
 11
835.184590783885
 21
554.6837804934287
 31
0.0
  0
LINE
  5
2ABB
330
2
100
AcDbEntity
  8
0
100
AcDbLine
 10
811.633589875781
 20
557.631426596886
 30
0.0
 11
811.633589875781
 21
544.1314265968842
 31
0.0
  0
ARC
  5
2ABC
330
2
100
AcDbEntity
  8
0
100
AcDbCircle
 10
812.6335898757783
 20
557.6314265968096
 30
0.0
 40
1.0
100
AcDbArc
 50
180.0
 51
270.0
  0
ARC
  5
2ABD
330
2
100
AcDbEntity
  8
0
100
AcDbCircle
 10
809.6335898757782
 20
557.631426596886
 30
0.0
 40
2.0
100
AcDbArc
 50
0.0
 51
90.0
  0
LINE
  5
2ABE
330
2
100
AcDbEntity
  8
0
100
AcDbLine
 10
812.6335898757783
 20
556.6314265968096
 30
0.0
 11
837.1335898757788
 21
556.6314265968096
 31
0.0
  0
ARC
  5
2ABF
330
2
100
AcDbEntity
  8
0
100
AcDbCircle
 10
847.5768271565593
 20
550.6314265968114
 30
0.0
 40
1.0
100
AcDbArc
 50
0.499999999965521
 51
90.0
  0
LINE
  5
2AC0
330
2
100
AcDbEntity
  8
0
100
AcDbLine
 10
848.6335898755841
 20
544.1314265968842
 30
0.0
 11
848.5418054531381
 21
554.6488796678052
 31
0.0
  0
ARC
  5
2AC1
330
2
100
AcDbEntity
  8
0
100
AcDbCircle
 10
853.6425071354896
 20
543.1314265968824
 30
0.0
 40
5.0
100
AcDbArc
 50
180.4999999995485
 51
270.0
  0
ARC
  5
2AC2
330
2
100
AcDbEntity
  8
0
100
AcDbCircle
 10
850.6336660325494
 20
544.1314265968824
 30
0.0
 40
2.0
100
AcDbArc
 50
180.4999999995485
 51
270.0
  0
LINE
  5
2AC3
330
2
100
AcDbEntity
  8
0
100
AcDbLine
 10
850.6336660325503
 20
542.1314265968824
 30
0.0
 11
862.2753462759956
 21
542.1314265968824
 31
0.0
  0
LINE
  5
2AC4
330
2
100
AcDbEntity
  8
0
100
AcDbLine
 10
853.6335898755831
 20
538.1314265968824
 30
0.0
 11
858.246718413482
 21
538.1314265968824
 31
0.0
  0
ARC
  5
2AC5
330
2
100
AcDbEntity
  8
0
100
AcDbCircle
 10
874.371903619345
 20
550.1314265968824
 30
0.0
 40
2.0
100
AcDbArc
 50
90.0
 51
178.5000000000103
  0
ARC
  5
2AC6
330
2
100
AcDbEntity
  8
0
100
AcDbCircle
 10
867.3302251895565
 20
548.6314265968823
 30
0.0
 40
5.0
100
AcDbArc
 50
270.0
 51
358.5000000000103
  0
ARC
  5
2AC7
330
2
100
AcDbEntity
  8
0
100
AcDbCircle
 10
862.2753462759956
 20
544.1314265968824
 30
0.0
 40
2.0
100
AcDbArc
 50
269.9999999999478
 51
315.5729959991723
  0
ARC
  5
2AC8
330
2
100
AcDbEntity
  8
0
100
AcDbCircle
 10
858.246718413482
 20
543.1314265968824
 30
0.0
 40
5.0
100
AcDbArc
 50
270.0
 51
341.7900431357172
  0
ARC
  5
2AC9
330
2
100
AcDbEntity
  8
0
100
AcDbCircle
 10
865.8460604902684
 20
540.6314265968823
 30
0.0
 40
3.0
100
AcDbArc
 50
90.0
 51
178.5000000000103
  0
LINE
  5
2ACA
330
2
100
AcDbEntity
  8
0
100
AcDbLine
 10
865.8460604902684
 20
543.6314265968824
 30
0.0
 11
867.3302251895565
 21
543.6314265968824
 31
0.0
  0
LINE
  5
2ACB
330
2
100
AcDbEntity
  8
0
100
AcDbLine
 10
847.1335898757788
 20
551.6314265968114
 30
0.0
 11
847.1335898757788
 21
558.7314265968118
 31
0.0
  0
LINE
  5
2ACC
330
2
100
AcDbEntity
  8
0
100
AcDbLine
 10
847.1335898757788
 20
558.7314265968118
 30
0.0
 11
846.4407695527514
 21
559.1314265968114
 31
0.0
  0
ARC
  5
2ACD
330
2
100
AcDbEntity
  8
0
100
AcDbCircle
 10
846.5418816070103
 20
554.6314265968078
 30
0.0
 40
2.0
100
AcDbArc
 50
0.499999999965521
 51
72.79123793165911
  0
ARC
  5
2ACE
330
2
100
AcDbEntity
  8
0
100
AcDbCircle
 10
793.1335898757782
 20
565.8314265968868
 30
0.0
 40
0.2
100
AcDbArc
 50
180.0
 51
270.0
  0
ARC
  5
2ACF
330
2
100
AcDbEntity
  8
0
100
AcDbCircle
 10
793.1335898757782
 20
567.4314265968871
 30
0.0
 40
0.2
100
AcDbArc
 50
89.99999999994789
 51
180.0
  0
ARC
  5
2AD0
330
2
100
AcDbEntity
  8
0
100
AcDbCircle
 10
793.4335898757784
 20
567.8314265968867
 30
0.0
 40
0.2
100
AcDbArc
 50
270.0
 51
0.0
  0
LINE
  5
2AD1
330
2
100
AcDbEntity
  8
0
100
AcDbLine
 10
792.9335898757784
 20
567.4314265968871
 30
0.0
 11
792.9335898757784
 21
565.8314265968868
 31
0.0
  0
LINE
  5
2AD2
330
2
100
AcDbEntity
  8
0
100
AcDbLine
 10
793.6335898757783
 20
569.1314265968879
 30
0.0
 11
793.6335898757783
 21
567.8314265968867
 31
0.0
  0
LINE
  5
2AD3
330
2
100
AcDbEntity
  8
0
100
AcDbLine
 10
793.6335898757783
 20
569.131426596886
 30
0.0
 11
793.0562396065887
 21
570.131426596886
 31
0.0
  0
LINE
  5
2AD4
330
2
100
AcDbEntity
  8
0
100
AcDbLine
 10
793.6335898757783
 20
565.4314265968871
 30
0.0
 11
793.6335898757783
 21
562.1314265968861
 31
0.0
  0
LINE
  5
2AD5
330
2
100
AcDbEntity
  8
0
100
AcDbLine
 10
793.4335898757784
 20
565.631426596886
 30
0.0
 11
793.6335898757783
 21
565.4314265968871
 31
0.0
  0
LINE
  5
3A48
330
2
100
AcDbEntity
  8
0
100
AcDbLine
 10
771.6336505956077
 20
417.6314265968842
 30
0.0
 11
771.1336507925333
 21
417.1314265968842
 31
0.0
  0
LINE
  5
3A49
330
2
100
AcDbEntity
  8
0
100
AcDbLine
 10
750.0505215192105
 20
449.1313210859691
 30
0.0
 11
750.0505215192105
 21
417.1314265968842
 31
0.0
  0
LINE
  5
3A4A
330
2
100
AcDbEntity
  8
0
100
AcDbLine
 10
747.1336505956077
 20
452.1313210859691
 30
0.0
 11
747.1336505956077
 21
417.1314265968842
 31
0.0
  0
LINE
  5
3A4C
330
2
100
AcDbEntity
  8
0
100
AcDbLine
 10
1133.579427399207
 20
165.8282919774721
 30
0.0
 11
1094.079427399208
 21
165.8282764203178
 31
0.0
  0
LINE
  5
3A4D
330
2
100
AcDbEntity
  8
0
100
AcDbLine
 10
1094.079427399208
 20
143.8282764203042
 30
0.0
 11
1133.579427399207
 21
143.8282919774703
 31
0.0
  0
LINE
  5
3A52
330
2
100
AcDbEntity
  8
0
100
AcDbLine
 10
1094.079427399208
 20
143.8282764203042
 30
0.0
 11
1094.079427399206
 21
165.8282764203178
 31
0.0
  0
LINE
  5
3A53
330
2
100
AcDbEntity
  8
0
100
AcDbLine
 10
1093.579427399207
 20
165.3282762233918
 30
0.0
 11
1093.579427399207
 21
144.3282762233786
 31
0.0
  0
ARC
  5
3A54
330
2
100
AcDbEntity
  8
0
100
AcDbCircle
 10
760.6335898757746
 20
154.8283371401341
 30
0.0
 40
11.00006071982613
100
AcDbArc
 50
195.8265304777667
 51
164.1734695222332
  0
CIRCLE
  5
3A56
330
2
100
AcDbEntity
  8
0
100
AcDbCircle
 10
760.6335898757746
 20
154.8283371401341
 30
0.0
 40
16.99995077575704
  0
ARC
  5
3A57
330
2
100
AcDbEntity
  8
0
100
AcDbCircle
 10
760.6335898757746
 20
154.8283371401341
 30
0.0
 40
12.57739543185027
100
AcDbArc
 50
193.7993919727436
 51
166.2006080272562
  0
ARC
  5
3A58
330
2
100
AcDbEntity
  8
0
100
AcDbCircle
 10
760.6335898757746
 20
154.8283371401341
 30
0.0
 40
12.00004516266062
100
AcDbArc
 50
194.4774565092163
 51
165.5225434907836
  0
LINE
  5
3A59
330
2
100
AcDbEntity
  8
0
100
AcDbLine
 10
513.9611179538446
 20
165.8283978599641
 30
0.0
 11
513.9611179538446
 21
157.8283371401338
 31
0.0
  0
LINE
  5
3A5A
330
2
100
AcDbEntity
  8
0
100
AcDbLine
 10
514.4611179538446
 20
144.3283980568879
 30
0.0
 11
514.4611179538446
 21
165.3283980568902
 31
0.0
  0
LINE
  5
3A5C
330
2
100
AcDbEntity
  8
0
100
AcDbLine
 10
474.4611179538447
 20
166.8283823027985
 30
0.0
 11
474.4616824871368
 21
142.8283823155446
 31
0.0
  0
LINE
  5
3A5D
330
2
100
AcDbEntity
  8
0
100
AcDbLine
 10
473.4611179538446
 20
171.0396620055393
 30
0.0
 11
473.4611179538446
 21
138.6170122747288
 31
0.0
  0
LINE
  5
3A5E
330
2
100
AcDbEntity
  8
0
100
AcDbLine
 10
482.4612234647597
 20
157.8283371401338
 30
0.0
 11
514.4612234647597
 21
157.8283371401338
 31
0.0
  0
LINE
  5
3A5F
330
2
100
AcDbEntity
  8
0
100
AcDbLine
 10
482.4612234647597
 20
151.8283371401338
 30
0.0
 11
514.4612234647597
 21
151.8283371401338
 31
0.0
  0
LINE
  5
3A60
330
2
100
AcDbEntity
  8
0
100
AcDbLine
 10
474.4611179538447
 20
143.8283823027967
 30
0.0
 11
513.9611179538446
 21
143.8283978599619
 31
0.0
  0
LINE
  5
3A62
330
2
100
AcDbEntity
  8
0
100
AcDbLine
 10
473.2111179538446
 20
138.1839995728368
 30
0.0
 11
473.0592794240715
 21
138.096335556799
 31
0.0
  0
ARC
  5
3A63
330
2
100
AcDbEntity
  8
0
100
AcDbCircle
 10
472.0592794240714
 20
139.8283863643681
 30
0.0
 40
2.0
100
AcDbArc
 50
281.5907202811201
 51
300.0000000000005
  0
ARC
  5
3A64
330
2
100
AcDbEntity
  8
0
100
AcDbCircle
 10
472.9611179538446
 20
138.6170122747288
 30
0.0
 40
0.5
100
AcDbArc
 50
300.0000000000005
 51
0.0
  0
ARC
  5
3A65
330
2
100
AcDbEntity
  8
0
100
AcDbCircle
 10
482.4612234647597
 20
154.8283371401338
 30
0.0
 40
3.0
100
AcDbArc
 50
90.0
 51
270.0
  0
LINE
  5
3A66
330
2
100
AcDbEntity
  8
0
100
AcDbLine
 10
474.4611179538447
 20
142.8282919774695
 30
0.0
 11
473.4611179538446
 21
142.25094170828
 31
0.0
  0
LINE
  5
3A67
330
2
100
AcDbEntity
  8
0
100
AcDbLine
 10
513.9611179538446
 20
151.8283371401338
 30
0.0
 11
513.9611179538446
 21
143.8283978599619
 31
0.0
  0
LINE
  5
3A68
330
2
100
AcDbEntity
  8
0
100
AcDbLine
 10
514.4611179538446
 20
144.3283980568879
 30
0.0
 11
513.9611179538446
 21
143.8283978599619
 31
0.0
  0
LINE
  5
3A6A
330
2
100
AcDbEntity
  8
0
100
AcDbLine
 10
747.1336505956009
 20
157.8283371401341
 30
0.0
 11
747.1336505956009
 21
151.8283371401341
 31
0.0
  0
LINE
  5
3A6B
330
2
100
AcDbEntity
  8
0
100
AcDbLine
 10
753.1336505956009
 20
157.8283371401341
 30
0.0
 11
753.1336505956009
 21
151.8283371401341
 31
0.0
  0
LINE
  5
3A6C
330
2
100
AcDbEntity
  8
0
100
AcDbLine
 10
747.1336505956009
 20
157.8283371401341
 30
0.0
 11
753.1336505956009
 21
157.8283371401341
 31
0.0
  0
LINE
  5
3A6D
330
2
100
AcDbEntity
  8
0
100
AcDbLine
 10
747.1336505956009
 20
151.8283371401341
 30
0.0
 11
753.1336505956009
 21
151.8283371401341
 31
0.0
  0
LINE
  5
3A6E
330
2
100
AcDbEntity
  8
0
100
AcDbLine
 10
1094.079427399208
 20
143.8282764203042
 30
0.0
 11
1093.579427399207
 21
144.3282762233786
 31
0.0
  0
LINE
  5
3A6F
330
2
100
AcDbEntity
  8
0
100
AcDbLine
 10
513.9611179538446
 20
165.8283978599641
 30
0.0
 11
474.4611179538447
 21
165.8283823027985
 31
0.0
  0
LINE
  5
3A70
330
2
100
AcDbEntity
  8
0
100
AcDbLine
 10
473.2111179538446
 20
171.4726747074313
 30
0.0
 11
473.0592794240715
 21
171.560338723469
 31
0.0
  0
LINE
  5
3A71
330
2
100
AcDbEntity
  8
0
100
AcDbLine
 10
474.4611179538447
 20
166.8283823027985
 30
0.0
 11
473.4611179538446
 21
167.405732571988
 31
0.0
  0
ARC
  5
3A72
330
2
100
AcDbEntity
  8
0
100
AcDbCircle
 10
472.0592794240714
 20
169.8282879159004
 30
0.0
 40
2.0
100
AcDbArc
 50
59.99999999999946
 51
78.40927971887985
  0
ARC
  5
3A73
330
2
100
AcDbEntity
  8
0
100
AcDbCircle
 10
472.9611179538446
 20
171.0396620055393
 30
0.0
 40
0.5
100
AcDbArc
 50
0.0
 51
59.99999999999946
  0
LINE
  5
3A74
330
2
100
AcDbEntity
  8
0
100
AcDbLine
 10
513.9611179538446
 20
165.8283978599641
 30
0.0
 11
514.4611179538446
 21
165.3283980568902
 31
0.0
  0
LINE
  5
3A75
330
2
100
AcDbEntity
  8
0
100
AcDbLine
 10
1094.079427399208
 20
165.8282764203178
 30
0.0
 11
1093.579427399207
 21
165.3282762233918
 31
0.0
  0
LINE
  5
3A76
330
2
100
AcDbEntity
  8
0
100
AcDbLine
 10
747.1336505956077
 20
417.1314265968842
 30
0.0
 11
771.1336507925333
 21
417.1314265968842
 31
0.0
  0
LINE
  5
3A78
330
2
100
AcDbEntity
  8
0
100
AcDbLine
 10
1133.579427399207
 20
142.8282919774703
 30
0.0
 11
1133.578862865915
 21
166.8282919647237
 31
0.0
  0
LINE
  5
3A79
330
2
100
AcDbEntity
  8
0
100
AcDbLine
 10
1134.579427399207
 20
138.6170122747291
 30
0.0
 11
1134.579427399207
 21
171.03966200554
 31
0.0
  0
LINE
  5
3A7A
330
2
100
AcDbEntity
  8
0
100
AcDbLine
 10
1134.829427399207
 20
138.183999572837
 30
0.0
 11
1134.981265928981
 21
138.0963355567993
 31
0.0
  0
ARC
  5
3A7B
330
2
100
AcDbEntity
  8
0
100
AcDbCircle
 10
1135.98126592898
 20
139.8283863643684
 30
0.0
 40
2.0
100
AcDbArc
 50
239.9999999999994
 51
258.4092797188798
  0
ARC
  5
3A7C
330
2
100
AcDbEntity
  8
0
100
AcDbCircle
 10
1135.079427399207
 20
138.6170122747291
 30
0.0
 40
0.5
100
AcDbArc
 50
180.0
 51
239.9999999999994
  0
LINE
  5
3A7D
330
2
100
AcDbEntity
  8
0
100
AcDbLine
 10
1133.579427399207
 20
142.8282919774703
 30
0.0
 11
1134.579427399207
 21
142.2509417082803
 31
0.0
  0
LINE
  5
3A7E
330
2
100
AcDbEntity
  8
0
100
AcDbLine
 10
1134.829427399207
 20
171.472674707432
 30
0.0
 11
1134.981265928981
 21
171.5603387234697
 31
0.0
  0
ARC
  5
3A7F
330
2
100
AcDbEntity
  8
0
100
AcDbCircle
 10
1135.98126592898
 20
169.8282879159007
 30
0.0
 40
2.0
100
AcDbArc
 50
101.5907202811201
 51
120.0000000000005
  0
ARC
  5
3A80
330
2
100
AcDbEntity
  8
0
100
AcDbCircle
 10
1135.079427399207
 20
171.03966200554
 30
0.0
 40
0.5
100
AcDbArc
 50
120.0000000000005
 51
180.0
  0
LINE
  5
3A81
330
2
100
AcDbEntity
  8
0
100
AcDbLine
 10
1133.579427399207
 20
166.8283823027988
 30
0.0
 11
1134.579427399207
 21
167.4057325719879
 31
0.0
  0
LINE
  5
3A82
330
2
100
AcDbEntity
  8
0
100
AcDbLine
 10
771.6336505956077
 20
417.6314265968842
 30
0.0
 11
771.6336350384416
 21
457.1314265968842
 31
0.0
  0
LINE
  5
3A83
330
2
100
AcDbEntity
  8
0
100
AcDbLine
 10
771.6336505956077
 20
417.6314265968842
 30
0.0
 11
750.0505215192105
 21
417.6314265968842
 31
0.0
  0
LINE
  5
3A85
330
2
100
AcDbEntity
  8
0
100
AcDbLine
 10
772.6336350384416
 20
457.1314265968842
 30
0.0
 11
748.6336350511882
 21
457.130862063592
 31
0.0
  0
LINE
  5
3A86
330
2
100
AcDbEntity
  8
0
100
AcDbLine
 10
776.8449147411828
 20
458.1314265968842
 30
0.0
 11
744.4222650103719
 21
458.1314265968842
 31
0.0
  0
LINE
  5
3A87
330
2
100
AcDbEntity
  8
0
100
AcDbLine
 10
743.9892523084798
 20
458.3814265968842
 30
0.0
 11
743.9015882924421
 21
458.5332651266574
 31
0.0
  0
ARC
  5
3A88
330
2
100
AcDbEntity
  8
0
100
AcDbCircle
 10
745.6336391000112
 20
459.5332651266573
 30
0.0
 40
2.0
100
AcDbArc
 50
191.5907202811201
 51
210.0000000000061
  0
ARC
  5
3A89
330
2
100
AcDbEntity
  8
0
100
AcDbCircle
 10
744.4222650103719
 20
458.6314265968842
 30
0.0
 40
0.5
100
AcDbArc
 50
210.0000000000061
 51
270.0
  0
LINE
  5
3A8A
330
2
100
AcDbEntity
  8
0
100
AcDbLine
 10
748.6335447131131
 20
457.1314265968842
 30
0.0
 11
748.056194443924
 21
458.1314265968842
 31
0.0
  0
LINE
  5
3A8B
330
2
100
AcDbEntity
  8
0
100
AcDbLine
 10
749.6336370077432
 20
452.1313210859691
 30
0.0
 11
750.0505215192105
 21
449.1313210859691
 31
0.0
  0
LINE
  5
3A8C
330
2
100
AcDbEntity
  8
0
100
AcDbLine
 10
749.6336370077441
 20
452.1313210859691
 30
0.0
 11
747.1336505956077
 21
452.1313210859691
 31
0.0
  0
LINE
  5
3A8D
330
2
100
AcDbEntity
  8
0
100
AcDbLine
 10
749.6336350384398
 20
457.1314265968842
 30
0.0
 11
749.6336370077414
 21
452.1313210859691
 31
0.0
  0
LINE
  5
3A8E
330
2
100
AcDbEntity
  8
0
100
AcDbLine
 10
777.2779274430749
 20
458.3814265968842
 30
0.0
 11
777.3655914591126
 21
458.5332651266574
 31
0.0
  0
LINE
  5
3A8F
330
2
100
AcDbEntity
  8
0
100
AcDbLine
 10
772.6336350384416
 20
457.1314265968842
 30
0.0
 11
773.2109853076316
 21
458.1314265968842
 31
0.0
  0
ARC
  5
3A90
330
2
100
AcDbEntity
  8
0
100
AcDbCircle
 10
775.6335406515435
 20
459.5332651266573
 30
0.0
 40
2.0
100
AcDbArc
 50
329.9999999999938
 51
348.4092797188798
  0
ARC
  5
3A91
330
2
100
AcDbEntity
  8
0
100
AcDbCircle
 10
776.8449147411828
 20
458.6314265968842
 30
0.0
 40
0.5
100
AcDbArc
 50
270.0
 51
329.9999999999938
  0
CIRCLE
  5
3D56
330
2
100
AcDbEntity
  8
0
100
AcDbCircle
 10
760.6335898757746
 20
154.8283371401342
 30
0.0
 40
26.57735026918791
  0
ARC
  5
3D5B
330
2
100
AcDbEntity
  8
0
100
AcDbCircle
 10
846.5811525122836
 20
482.1314265994271
 30
0.0
 40
2.0
100
AcDbArc
 50
270.0
 51
359.4999999999951
  0
ENDSEC
  0
SECTION
  2
OBJECTS
  0
DICTIONARY
  5
7
330
0
100
AcDbDictionary
  3
ACAD_GROUP
350
75
  3
ACAD_LAYOUT
350
61
  3
ACAD_MLINESTYLE
350
76
  3
ACAD_PLOTSETTINGS
350
77
  3
ACAD_PLOTSTYLENAME
350
6
  3
ACADDIM
350
480
  3
ACDBHEADERROUNDTRIPXREC
350
3D75
  3
ACDBVARIABLEDICTIONARY
350
102
  3
DWGPROPS
350
3D2
  0
DICTIONARY
  5
B21
330
66
100
AcDbDictionary
280
     1
  3
ACAD_LAYERSTATES
360
B22
  0
DICTIONARY
  5
3D96
330
2
100
AcDbDictionary
280
     1
  3
ACAD_LAYOUTSELFREF
360
3D97
  0
DICTIONARY
  5
3D98
330
3D6F
100
AcDbDictionary
280
     1
  3
ACAD_LAYOUTSELFREF
360
3D99
  0
DICTIONARY
  5
75
102
{ACAD_REACTORS
330
7
102
}
330
7
100
AcDbDictionary
  0
DICTIONARY
  5
61
102
{ACAD_REACTORS
330
7
102
}
330
7
100
AcDbDictionary
  0
DICTIONARY
  5
76
102
{ACAD_REACTORS
330
7
102
}
330
7
100
AcDbDictionary
  3
STANDARD
350
78
  0
DICTIONARY
  5
77
102
{ACAD_REACTORS
330
7
102
}
330
7
100
AcDbDictionary
  0
ACDBDICTIONARYWDFLT
  5
6
102
{ACAD_REACTORS
330
7
102
}
330
7
100
AcDbDictionary
281
     1
  3
Normal
350
5
100
AcDbDictionaryWithDefault
340
5
  0
XRECORD
  5
480
102
{ACAD_REACTORS
330
7
102
}
330
7
100
AcDbXrecord
 90
   990106
  3

 60
     0
 61
     0
 62
     1
 63
     3
 64
     1
 65
     0
 66
     0
 67
     3
 68
     1
 69
     0
 70
     0
 71
     0
 72
     0
 40
0.0
170
     2
340
0
  0
DICTIONARY
  5
3D75
102
{ACAD_REACTORS
330
7
102
}
330
7
100
AcDbDictionary
  3
CEPSNTYPE
350
3D7F
  3
DIMSTYLEDATA
350
3D83
  3
FINGERPRINTGUID
350
3D80
  3
HYPERLINKBASE
350
3D78
  3
INSUNITS
350
3D7E
  3
LAYOUTDICT
350
3D7A
  3
LWETCUNION
350
3D7D
  3
PLOTSETDICT
350
3D7B
  3
PLOTSTYLNAMDICT
350
3D7C
  3
PSVPSCALE
350
3D82
  3
PUCSBASE
350
3D86
  3
PUCSORGBACK
350
3D8C
  3
PUCSORGBOTTOM
350
3D88
  3
PUCSORGFRONT
350
3D8B
  3
PUCSORGLEFT
350
3D89
  3
PUCSORGRIGHT
350
3D8A
  3
PUCSORGTOP
350
3D87
  3
PUCSORTHOREF
350
3D84
  3
PUCSORTHOVIEW
350
3D85
  3
STYLESHEET
350
3D79
  3
TSTACKALIGN
350
3D76
  3
TSTACKSIZE
350
3D77
  3
UCSBASE
350
3D8F
  3
UCSORGBACK
350
3D95
  3
UCSORGBOTTOM
350
3D91
  3
UCSORGFRONT
350
3D94
  3
UCSORGLEFT
350
3D92
  3
UCSORGRIGHT
350
3D93
  3
UCSORGTOP
350
3D90
  3
UCSORTHOREF
350
3D8D
  3
UCSORTHOVIEW
350
3D8E
  3
VERSIONGUID
350
3D81
  0
DICTIONARY
  5
102
102
{ACAD_REACTORS
330
7
102
}
330
7
100
AcDbDictionary
  3
DIMASSOC
350
103
  3
SORTENTS
350
549
  0
XRECORD
  5
3D2
102
{ACAD_REACTORS
330
7
102
}
330
7
100
AcDbXrecord
  1
DWGPROPS COOKIE
  2

  3

  4

  6

  7

  8

  9

300
=
301
=
302
=
303
=
304
=
305
=
306
=
307
=
308
=
309
=
 40
0.5353330671296296
 41
2452052.431989363
 42
2453406.550756377
  1

 90
        0
  0
DICTIONARY
  5
B22
102
{ACAD_REACTORS
330
B21
102
}
330
B21
100
AcDbDictionary
  0
XRECORD
  5
3D97
102
{ACAD_REACTORS
330
3D96
102
}
330
3D96
100
AcDbXrecord
340
2
  0
XRECORD
  5
3D99
102
{ACAD_REACTORS
330
3D98
102
}
330
3D98
100
AcDbXrecord
340
3D6F
  0
MLINESTYLE
  5
78
102
{ACAD_REACTORS
330
76
102
}
330
76
100
AcDbMlineStyle
  2
STANDARD
 70
     0
  3

 62
     0
 51
90.0
 52
90.0
 71
     2
 49
0.5
 62
   256
  6
BYLAYER
 49
-0.5
 62
   256
  6
BYLAYER
  0
ACDBPLACEHOLDER
  5
5
102
{ACAD_REACTORS
330
6
102
}
330
6
100
AcDbPlaceHolder
280
     0
  0
XRECORD
  5
3D7F
102
{ACAD_REACTORS
330
3D75
102
}
330
3D75
100
AcDbXrecord
 90
        0
  0
XRECORD
  5
3D83
102
{ACAD_REACTORS
330
3D75
102
}
330
3D75
100
AcDbXrecord
1000
DSTYLE
1002
{
1070
   179
 70
     2
1070
   277
 70
     6
1002
}
  0
XRECORD
  5
3D80
102
{ACAD_REACTORS
330
3D75
102
}
330
3D75
100
AcDbXrecord
  1
{6385560B-F4B1-4644-A7C2-A3E32AC3D232}
  0
XRECORD
  5
3D78
102
{ACAD_REACTORS
330
3D75
102
}
330
3D75
100
AcDbXrecord
  1

  0
XRECORD
  5
3D7E
102
{ACAD_REACTORS
330
3D75
102
}
330
3D75
100
AcDbXrecord
 90
        0
  0
XRECORD
  5
3D7A
102
{ACAD_REACTORS
330
3D75
102
}
330
3D75
100
AcDbXrecord
340
61
  0
XRECORD
  5
3D7D
102
{ACAD_REACTORS
330
3D75
102
}
330
3D75
100
AcDbXrecord
 90
    10781
  0
XRECORD
  5
3D7B
102
{ACAD_REACTORS
330
3D75
102
}
330
3D75
100
AcDbXrecord
340
77
  0
XRECORD
  5
3D7C
102
{ACAD_REACTORS
330
3D75
102
}
330
3D75
100
AcDbXrecord
340
6
  0
XRECORD
  5
3D82
102
{ACAD_REACTORS
330
3D75
102
}
330
3D75
100
AcDbXrecord
 40
0.0
  0
XRECORD
  5
3D86
102
{ACAD_REACTORS
330
3D75
102
}
330
3D75
100
AcDbXrecord
340
0
  0
XRECORD
  5
3D8C
102
{ACAD_REACTORS
330
3D75
102
}
330
3D75
100
AcDbXrecord
 10
0.0
 20
0.0
 30
0.0
  0
XRECORD
  5
3D88
102
{ACAD_REACTORS
330
3D75
102
}
330
3D75
100
AcDbXrecord
 10
0.0
 20
0.0
 30
0.0
  0
XRECORD
  5
3D8B
102
{ACAD_REACTORS
330
3D75
102
}
330
3D75
100
AcDbXrecord
 10
0.0
 20
0.0
 30
0.0
  0
XRECORD
  5
3D89
102
{ACAD_REACTORS
330
3D75
102
}
330
3D75
100
AcDbXrecord
 10
0.0
 20
0.0
 30
0.0
  0
XRECORD
  5
3D8A
102
{ACAD_REACTORS
330
3D75
102
}
330
3D75
100
AcDbXrecord
 10
0.0
 20
0.0
 30
0.0
  0
XRECORD
  5
3D87
102
{ACAD_REACTORS
330
3D75
102
}
330
3D75
100
AcDbXrecord
 10
0.0
 20
0.0
 30
0.0
  0
XRECORD
  5
3D84
102
{ACAD_REACTORS
330
3D75
102
}
330
3D75
100
AcDbXrecord
340
0
  0
XRECORD
  5
3D85
102
{ACAD_REACTORS
330
3D75
102
}
330
3D75
100
AcDbXrecord
 70
     0
  0
XRECORD
  5
3D79
102
{ACAD_REACTORS
330
3D75
102
}
330
3D75
100
AcDbXrecord
  1
Sekkei.ctb
  0
XRECORD
  5
3D76
102
{ACAD_REACTORS
330
3D75
102
}
330
3D75
100
AcDbXrecord
 90
        1
  0
XRECORD
  5
3D77
102
{ACAD_REACTORS
330
3D75
102
}
330
3D75
100
AcDbXrecord
 90
       70
  0
XRECORD
  5
3D8F
102
{ACAD_REACTORS
330
3D75
102
}
330
3D75
100
AcDbXrecord
340
0
  0
XRECORD
  5
3D95
102
{ACAD_REACTORS
330
3D75
102
}
330
3D75
100
AcDbXrecord
 10
0.0
 20
0.0
 30
0.0
  0
XRECORD
  5
3D91
102
{ACAD_REACTORS
330
3D75
102
}
330
3D75
100
AcDbXrecord
 10
0.0
 20
0.0
 30
0.0
  0
XRECORD
  5
3D94
102
{ACAD_REACTORS
330
3D75
102
}
330
3D75
100
AcDbXrecord
 10
0.0
 20
0.0
 30
0.0
  0
XRECORD
  5
3D92
102
{ACAD_REACTORS
330
3D75
102
}
330
3D75
100
AcDbXrecord
 10
0.0
 20
0.0
 30
0.0
  0
XRECORD
  5
3D93
102
{ACAD_REACTORS
330
3D75
102
}
330
3D75
100
AcDbXrecord
 10
0.0
 20
0.0
 30
0.0
  0
XRECORD
  5
3D90
102
{ACAD_REACTORS
330
3D75
102
}
330
3D75
100
AcDbXrecord
 10
0.0
 20
0.0
 30
0.0
  0
XRECORD
  5
3D8D
102
{ACAD_REACTORS
330
3D75
102
}
330
3D75
100
AcDbXrecord
340
0
  0
XRECORD
  5
3D8E
102
{ACAD_REACTORS
330
3D75
102
}
330
3D75
100
AcDbXrecord
 70
     0
  0
XRECORD
  5
3D81
102
{ACAD_REACTORS
330
3D75
102
}
330
3D75
100
AcDbXrecord
  1
{D8D3340B-AA5E-415D-B670-A505A9BC738C}
  0
DICTIONARYVAR
  5
103
102
{ACAD_REACTORS
330
102
102
}
330
102
100
DictionaryVariables
280
     0
  1
1
  0
DICTIONARYVAR
  5
549
102
{ACAD_REACTORS
330
102
102
}
330
102
100
DictionaryVariables
280
     0
  1
96
  0
ENDSEC
  0
EOF
