  0
SECTION
  2
HEADER
  9
$ACADVER
  1
AC1014
  9
$ACADMAINTVER
 70
     9
  9
$DWGCODEPAGE
  3
ANSI_932
  9
$INSBASE
 10
0.0
 20
0.0
 30
0.0
  9
$EXTMIN
 10
34.86246706497093
 20
79.82833714013418
 30
0.0
  9
$EXTMAX
 10
1261.579427399212
 20
585.1314265968869
 30
0.0
  9
$LIMMIN
 10
0.0
 20
0.0
  9
$LIMMAX
 10
297.0
 20
210.0
  9
$ORTHOMODE
 70
     1
  9
$REGENMODE
 70
     1
  9
$FILLMODE
 70
     1
  9
$QTEXTMODE
 70
     0
  9
$MIRRTEXT
 70
     0
  9
$DRAGMODE
 70
     2
  9
$LTSCALE
 40
4.0
  9
$OSMODE
 70
    37
  9
$ATTMODE
 70
     1
  9
$TEXTSIZE
 40
2.0
  9
$TRACEWID
 40
1.0
  9
$TEXTSTYLE
  7
STANDARD
  9
$CLAYER
  8
0
  9
$CELTYPE
  6
BYLAYER
  9
$CECOLOR
 62
   256
  9
$CELTSCALE
 40
1.0
  9
$DELOBJ
 70
     1
  9
$DISPSILH
 70
     0
  9
$DIMSCALE
 40
4.0
  9
$DIMASZ
 40
1.8
  9
$DIMEXO
 40
0.625
  9
$DIMDLI
 40
3.75
  9
$DIMRND
 40
0.0
  9
$DIMDLE
 40
0.0
  9
$DIMEXE
 40
0.8
  9
$DIMTP
 40
0.0
  9
$DIMTM
 40
0.0
  9
$DIMTXT
 40
1.8
  9
$DIMCEN
 40
2.5
  9
$DIMTSZ
 40
0.0
  9
$DIMTOL
 70
     0
  9
$DIMLIM
 70
     0
  9
$DIMTIH
 70
     0
  9
$DIMTOH
 70
     0
  9
$DIMSE1
 70
     0
  9
$DIMSE2
 70
     0
  9
$DIMTAD
 70
     1
  9
$DIMZIN
 70
     8
  9
$DIMBLK
  1

  9
$DIMASO
 70
     1
  9
$DIMSHO
 70
     1
  9
$DIMPOST
  1

  9
$DIMAPOST
  1

  9
$DIMALT
 70
     0
  9
$DIMALTD
 70
     4
  9
$DIMALTF
 40
0.0394
  9
$DIMLFAC
 40
1.0
  9
$DIMTOFL
 70
     1
  9
$DIMTVP
 40
0.0
  9
$DIMTIX
 70
     0
  9
$DIMSOXD
 70
     0
  9
$DIMSAH
 70
     0
  9
$DIMBLK1
  1

  9
$DIMBLK2
  1

  9
$DIMSTYLE
  2
STANDARD
  9
$DIMCLRD
 70
     0
  9
$DIMCLRE
 70
     0
  9
$DIMCLRT
 70
     0
  9
$DIMTFAC
 40
1.0
  9
$DIMGAP
 40
0.75
  9
$DIMJUST
 70
     0
  9
$DIMSD1
 70
     0
  9
$DIMSD2
 70
     0
  9
$DIMTOLJ
 70
     1
  9
$DIMTZIN
 70
     0
  9
$DIMALTZ
 70
     0
  9
$DIMALTTZ
 70
     0
  9
$DIMFIT
 70
     3
  9
$DIMUPT
 70
     0
  9
$DIMUNIT
 70
     8
  9
$DIMDEC
 70
     2
  9
$DIMTDEC
 70
     2
  9
$DIMALTU
 70
     8
  9
$DIMALTTD
 70
     4
  9
$DIMTXSTY
  7
STANDARD
  9
$DIMAUNIT
 70
     0
  9
$LUNITS
 70
     2
  9
$LUPREC
 70
     3
  9
$SKETCHINC
 40
1.0
  9
$FILLETRAD
 40
2.0
  9
$AUNITS
 70
     0
  9
$AUPREC
 70
     2
  9
$MENU
  1
.
  9
$ELEVATION
 40
0.0
  9
$PELEVATION
 40
0.0
  9
$THICKNESS
 40
0.0
  9
$LIMCHECK
 70
     0
  9
$BLIPMODE
 70
     0
  9
$CHAMFERA
 40
0.0
  9
$CHAMFERB
 40
0.0
  9
$CHAMFERC
 40
20.0
  9
$CHAMFERD
 40
0.0
  9
$SKPOLY
 70
     0
  9
$TDCREATE
 40
2454412.680298565
  9
$TDUPDATE
 40
2454424.582038657
  9
$TDINDWG
 40
0.0479134028
  9
$TDUSRTIMER
 40
0.0479132292
  9
$USRTIMER
 70
     1
  9
$ANGBASE
 50
0.0
  9
$ANGDIR
 70
     0
  9
$PDMODE
 70
     0
  9
$PDSIZE
 40
-10.0
  9
$PLINEWID
 40
0.0
  9
$COORDS
 70
     0
  9
$SPLFRAME
 70
     0
  9
$SPLINETYPE
 70
     6
  9
$SPLINESEGS
 70
     8
  9
$ATTDIA
 70
     0
  9
$ATTREQ
 70
     1
  9
$HANDLING
 70
-16383
  9
$HANDSEED
  5
2B53
  9
$SURFTAB1
 70
     6
  9
$SURFTAB2
 70
     6
  9
$SURFTYPE
 70
     6
  9
$SURFU
 70
     6
  9
$SURFV
 70
     6
  9
$UCSNAME
  2

  9
$UCSORG
 10
0.0
 20
0.0
 30
0.0
  9
$UCSXDIR
 10
1.0
 20
0.0
 30
0.0
  9
$UCSYDIR
 10
0.0
 20
1.0
 30
0.0
  9
$PUCSNAME
  2

  9
$PUCSORG
 10
0.0
 20
0.0
 30
0.0
  9
$PUCSXDIR
 10
1.0
 20
0.0
 30
0.0
  9
$PUCSYDIR
 10
0.0
 20
1.0
 30
0.0
  9
$USERI1
 70
     0
  9
$USERI2
 70
     0
  9
$USERI3
 70
     0
  9
$USERI4
 70
     0
  9
$USERI5
 70
     0
  9
$USERR1
 40
0.0
  9
$USERR2
 40
0.0
  9
$USERR3
 40
0.0
  9
$USERR4
 40
0.0
  9
$USERR5
 40
0.0
  9
$WORLDVIEW
 70
     1
  9
$SHADEDGE
 70
     3
  9
$SHADEDIF
 70
    70
  9
$TILEMODE
 70
     1
  9
$MAXACTVP
 70
    48
  9
$PINSBASE
 10
0.0
 20
0.0
 30
0.0
  9
$PLIMCHECK
 70
     0
  9
$PEXTMIN
 10
0.0
 20
0.0
 30
0.0
  9
$PEXTMAX
 10
0.0
 20
0.0
 30
0.0
  9
$PLIMMIN
 10
0.0
 20
0.0
  9
$PLIMMAX
 10
12.0
 20
9.0
  9
$UNITMODE
 70
     0
  9
$VISRETAIN
 70
     1
  9
$PLINEGEN
 70
     0
  9
$PSLTSCALE
 70
     1
  9
$TREEDEPTH
 70
  3020
  9
$PICKSTYLE
 70
     1
  9
$CMLSTYLE
  2
STANDARD
  9
$CMLJUST
 70
     0
  9
$CMLSCALE
 40
1.0
  9
$PROXYGRAPHICS
 70
     1
  9
$MEASUREMENT
 70
     0
  0
ENDSEC
  0
SECTION
  2
CLASSES
  0
CLASS
  1
DICTIONARYVAR
  2
AcDbDictionaryVar
  3
AutoCAD 2000
 90
        0
280
     0
281
     0
  0
CLASS
  1
ACDBDICTIONARYWDFLT
  2
AcDbDictionaryWithDefault
  3
AutoCAD 2000
 90
        0
280
     0
281
     0
  0
CLASS
  1
ACDBPLACEHOLDER
  2
AcDbPlaceHolder
  3
AutoCAD 2000
 90
        0
280
     0
281
     0
  0
CLASS
  1
LAYOUT
  2
AcDbLayout
  3
AutoCAD 2000
 90
        0
280
     0
281
     0
  0
CLASS
  1
LONG_TRANSACTION
  2
AcDbLongTransaction
  3
AutoCAD 2000
 90
        0
280
     0
281
     0
  0
CLASS
  1
LWPOLYLINE
  2
AcDbPolyline
  3
AutoCAD 2000
 90
        0
280
     0
281
     1
  0
CLASS
  1
HATCH
  2
AcDbHatch
  3
AutoCAD 2000
 90
        0
280
     0
281
     1
  0
CLASS
  1
XRECORD
  2
AcDbXrecord
  3
AutoCAD 2000
 90
        0
280
     0
281
     0
  0
ENDSEC
  0
SECTION
  2
TABLES
  0
TABLE
  2
VPORT
  5
6E
330
0
100
AcDbSymbolTable
 70
     2
  0
VPORT
  5
2B2D
330
6E
100
AcDbSymbolTableRecord
100
AcDbViewportTableRecord
  2
*ACTIVE
 70
     0
 10
0.0
 20
0.0
 11
1.0
 21
1.0
 12
734.9239463607518
 22
320.6874180935999
 13
0.0
 23
0.0
 14
10.0
 24
10.0
 15
10.0
 25
10.0
 16
0.0
 26
0.0
 36
1.0
 17
0.0
 27
0.0
 37
0.0
 40
802.1144470578009
 41
1.753504672897196
 42
50.0
 43
0.0
 44
0.0
 50
0.0
 51
0.0
 71
     0
 72
   100
 73
     1
 74
     3
 75
     0
 76
     0
 77
     0
 78
     0
  0
ENDTAB
  0
TABLE
  2
LTYPE
  5
69
330
0
100
AcDbSymbolTable
 70
     5
  0
LTYPE
  5
6A
330
69
100
AcDbSymbolTableRecord
100
AcDbLinetypeTableRecord
  2
BYBLOCK
 70
     0
  3

 72
    65
 73
     0
 40
0.0
  0
LTYPE
  5
6B
330
69
100
AcDbSymbolTableRecord
100
AcDbLinetypeTableRecord
  2
BYLAYER
 70
     0
  3

 72
    65
 73
     0
 40
0.0
  0
LTYPE
  5
8
330
69
100
AcDbSymbolTableRecord
100
AcDbLinetypeTableRecord
  2
CONTINUOUS
 70
     0
  3
Solid line
 72
    65
 73
     0
 40
0.0
  0
LTYPE
  5
27C
330
69
100
AcDbSymbolTableRecord
100
AcDbLinetypeTableRecord
  2
SEKKEI_A2_
 70
     0
  3
center(A2)  ____ _ ____ _ ____ _ ____ _ ____ _ 
 72
    65
 73
     4
 40
14.28749999999999
 49
9.525
 74
     0
 49
-1.587499999999999
 74
     0
 49
1.587499999999999
 74
     0
 49
-1.587499999999999
 74
     0
  0
LTYPE
  5
7F0
330
69
100
AcDbSymbolTableRecord
100
AcDbLinetypeTableRecord
  2
HIDDEN3
 70
     0
  3
Hidden (.3x) _ _ _ _ _ _ _ _ _ _ _ _ _ _ _ _ _
 72
    65
 73
     2
 40
2.857499999999999
 49
1.905
 74
     0
 49
-0.9525
 74
     0
  0
LTYPE
  5
B20
330
69
100
AcDbSymbolTableRecord
100
AcDbLinetypeTableRecord
  2
CENS
 70
     0
  3
(一点鎖線１)---- - ---- - ---- - ---- - ---- - 
 72
    65
 73
     4
 40
7.0
 49
4.0
 74
     0
 49
-1.0
 74
     0
 49
1.0
 74
     0
 49
-1.0
 74
     0
  0
ENDTAB
  0
TABLE
  2
LAYER
  5
66
102
{ACAD_XDICTIONARY
360
B21
102
}
330
0
100
AcDbSymbolTable
 70
     9
  0
LAYER
  5
5E
330
66
100
AcDbSymbolTableRecord
100
AcDbLayerTableRecord
  2
0
 70
     0
 62
     7
  6
CONTINUOUS
  0
LAYER
  5
3E
330
66
100
AcDbSymbolTableRecord
100
AcDbLayerTableRecord
  2
CENTER
 70
     0
 62
     3
  6
SEKKEI_A2_
  0
LAYER
  5
2B5
330
66
100
AcDbSymbolTableRecord
100
AcDbLayerTableRecord
  2
HIDS
 70
     0
 62
     1
  6
HIDDEN3
  0
LAYER
  5
2BA
330
66
100
AcDbSymbolTableRecord
100
AcDbLayerTableRecord
  2
HOJO
 70
     0
 62
     4
  6
CONTINUOUS
  0
LAYER
  5
3FA
330
66
100
AcDbSymbolTableRecord
100
AcDbLayerTableRecord
  2
TITLE
 70
     0
 62
     4
  6
CONTINUOUS
  0
ENDTAB
  0
TABLE
  2
STYLE
  5
67
330
0
100
AcDbSymbolTable
 70
     2
  0
STYLE
  5
16
330
67
100
AcDbSymbolTableRecord
100
AcDbTextStyleTableRecord
  2
STANDARD
 70
     0
 40
0.0
 41
1.0
 50
0.0
 71
     0
 42
2.0
  3
simplex.shx
  4
extfont.shx
  0
ENDTAB
  0
TABLE
  2
VIEW
  5
6C
330
0
100
AcDbSymbolTable
 70
     0
  0
ENDTAB
  0
TABLE
  2
UCS
  5
6D
330
0
100
AcDbSymbolTable
 70
     0
  0
ENDTAB
  0
TABLE
  2
APPID
  5
70
330
0
100
AcDbSymbolTable
 70
     2
  0
APPID
  5
71
330
70
100
AcDbSymbolTableRecord
100
AcDbRegAppTableRecord
  2
ACAD
 70
     0
  0
APPID
  5
276F
330
70
100
AcDbSymbolTableRecord
100
AcDbRegAppTableRecord
  2
ACAD_MLEADERVER
 70
     0
  0
ENDTAB
  0
TABLE
  2
DIMSTYLE
  5
72
330
0
100
AcDbSymbolTable
 70
     1
  0
DIMSTYLE
105
73
330
72
100
AcDbSymbolTableRecord
100
AcDbDimStyleTableRecord
  2
STANDARD
 70
     0
  3

  4

  5

  6

  7

 40
4.0
 41
1.8
 42
0.625
 43
3.75
 44
0.8
 45
0.0
 46
0.0
 47
0.0
 48
0.0
140
1.8
141
2.5
142
0.0
143
0.0394
144
1.0
145
0.0
146
1.0
147
0.75
 71
     0
 72
     0
 73
     0
 74
     0
 75
     0
 76
     0
 77
     1
 78
     8
170
     0
171
     4
172
     1
173
     0
174
     0
175
     0
176
     0
177
     0
178
     0
270
     8
271
     2
272
     2
273
     8
274
     4
340
16
275
     0
280
     0
281
     0
282
     0
283
     1
284
     0
285
     0
286
     0
287
     3
288
     0
  0
ENDTAB
  0
TABLE
  2
BLOCK_RECORD
  5
1
330
0
100
AcDbSymbolTable
 70
    47
  0
BLOCK_RECORD
  5
2
102
{ACAD_XDICTIONARY
360
2B4F
102
}
330
1
100
AcDbSymbolTableRecord
100
AcDbBlockTableRecord
  2
*MODEL_SPACE
  0
BLOCK_RECORD
  5
2B28
102
{ACAD_XDICTIONARY
360
2B51
102
}
330
1
100
AcDbSymbolTableRecord
100
AcDbBlockTableRecord
  2
*PAPER_SPACE
  0
ENDTAB
  0
ENDSEC
  0
SECTION
  2
BLOCKS
  0
BLOCK
  5
5D
330
2
100
AcDbEntity
  8
0
100
AcDbBlockBegin
  2
*MODEL_SPACE
 70
     0
 10
0.0
 20
0.0
 30
0.0
  3
*MODEL_SPACE
  1

  0
ENDBLK
  5
5F
330
2
100
AcDbEntity
  8
0
100
AcDbBlockEnd
  0
BLOCK
  5
2B2A
330
2B28
100
AcDbEntity
 67
     1
  8
0
100
AcDbBlockBegin
  2
*PAPER_SPACE
 70
     0
 10
0.0
 20
0.0
 30
0.0
  3
*PAPER_SPACE
  1

  0
ENDBLK
  5
2B2B
330
2B28
100
AcDbEntity
 67
     1
  8
0
100
AcDbBlockEnd
  0
ENDSEC
  0
SECTION
  2
ENTITIES
  0
TEXT
  5
FDD
330
2
100
AcDbEntity
  8
TITLE
100
AcDbText
 10
452.6590009315136
 20
514.8955924666664
 30
0.0
 40
10.0
  1
AFCZ22L-10~30M400S3
100
AcDbText
  0
TEXT
  5
FDE
330
2
100
AcDbEntity
  8
TITLE
100
AcDbText
 10
452.6590009315136
 20
499.5622591333329
 30
0.0
 40
10.0
  1
AFCZ22L-10~30L400S3
100
AcDbText
  0
LINE
  5
FE0
330
2
100
AcDbEntity
  8
CENTER
100
AcDbLine
 10
282.6524670649727
 20
154.8283371401341
 30
0.0
 11
34.86246706497093
 21
154.8283371401341
 31
0.0
  0
LINE
  5
FE7
330
2
100
AcDbEntity
  8
CENTER
100
AcDbLine
 10
685.6335898757773
 20
154.8283371401341
 30
0.0
 11
942.4235898775027
 21
154.8283371401341
 31
0.0
  0
LINE
  5
FEA
330
2
100
AcDbEntity
  8
CENTER
100
AcDbLine
 10
694.8779421739193
 20
516.1314265968824
 30
0.0
 11
942.4235898775025
 21
516.1314265968824
 31
0.0
  0
LINE
  5
FF9
330
2
100
AcDbEntity
  8
0
100
AcDbLine
 10
884.4235898775025
 20
552.1314265968824
 30
0.0
 11
884.4235898775025
 21
480.1314265968824
 31
0.0
  0
LINE
  5
FFF
330
2
100
AcDbEntity
  8
0
100
AcDbLine
 10
884.4235898775025
 20
552.1314265968824
 30
0.0
 11
884.4235898775025
 21
480.1314265968824
 31
0.0
  0
LINE
  5
1002
330
2
100
AcDbEntity
  8
0
100
AcDbLine
 10
884.4235898757773
 20
191.3283371401341
 30
0.0
 11
884.4235898757773
 21
118.3283371401341
 31
0.0
  0
LINE
  5
102D
330
2
100
AcDbEntity
  8
0
100
AcDbLine
 10
92.86246706497093
 20
118.3283371401341
 30
0.0
 11
92.86246706497093
 21
191.3283371401341
 31
0.0
  0
LINE
  5
1304
330
2
100
AcDbEntity
  8
0
100
AcDbLine
 10
1220.579427399206
 20
205.8283371401277
 30
0.0
 11
1220.579427399206
 21
190.939448251239
 31
0.0
  0
LINE
  5
1305
330
2
100
AcDbEntity
  8
CENTER
100
AcDbLine
 10
1192.579427399206
 20
220.5839848419866
 30
0.0
 11
1192.579427399206
 21
89.07268943826892
 31
0.0
  0
LINE
  5
1306
330
2
100
AcDbEntity
  8
0
100
AcDbLine
 10
1154.579427399206
 20
205.2523638659378
 30
0.0
 11
1154.579427399206
 21
104.4043104143176
 31
0.0
  0
LINE
  5
1307
330
2
100
AcDbEntity
  8
CENTER
100
AcDbLine
 10
1078.579427399207
 20
154.8283371401277
 30
0.0
 11
1261.579427399212
 21
154.8283371401277
 31
0.0
  0
LINE
  5
1308
330
2
100
AcDbEntity
  8
0
100
AcDbLine
 10
1149.579427399207
 20
199.8283371401277
 30
0.0
 11
1149.579427399213
 21
109.8283371401277
 31
0.0
  0
LINE
  5
1309
330
2
100
AcDbEntity
  8
0
100
AcDbLine
 10
1154.579427399206
 20
199.8283371401277
 30
0.0
 11
1149.579427399207
 21
199.8283371401277
 31
0.0
  0
LINE
  5
130A
330
2
100
AcDbEntity
  8
0
100
AcDbLine
 10
1154.579427399206
 20
109.8283371401277
 30
0.0
 11
1149.579427399207
 21
109.8283371401277
 31
0.0
  0
LINE
  5
130B
330
2
100
AcDbEntity
  8
0
100
AcDbLine
 10
1220.579427399206
 20
118.7172260290182
 30
0.0
 11
1220.579427399206
 21
103.8283371401277
 31
0.0
  0
LINE
  5
130C
330
2
100
AcDbEntity
  8
0
100
AcDbLine
 10
1220.579427399206
 20
103.8283371401277
 30
0.0
 11
1154.579427399206
 21
104.4043104143176
 31
0.0
  0
LINE
  5
130D
330
2
100
AcDbEntity
  8
0
100
AcDbLine
 10
1220.579427399206
 20
205.8283371401277
 30
0.0
 11
1154.579427399206
 21
205.2523638659378
 31
0.0
  0
LINE
  5
130E
330
2
100
AcDbEntity
  8
0
100
AcDbLine
 10
1135.579427399207
 20
122.7597146897416
 30
0.0
 11
1135.579427399205
 21
186.8969595905156
 31
0.0
  0
LINE
  5
130F
330
2
100
AcDbEntity
  8
0
100
AcDbLine
 10
1147.64922639261
 20
189.2498238085892
 30
0.0
 11
1137.5096284058
 21
188.8957412445535
 31
0.0
  0
LINE
  5
1310
330
2
100
AcDbEntity
  8
0
100
AcDbLine
 10
1147.64922639261
 20
120.406850471668
 30
0.0
 11
1137.509628405801
 21
120.7609330357037
 31
0.0
  0
ARC
  5
1311
330
2
100
AcDbEntity
  8
0
100
AcDbCircle
 10
1137.579427399207
 20
122.7597146897416
 30
0.0
 40
2.0
100
AcDbArc
 50
180.0
 51
267.9999999999963
  0
ARC
  5
1312
330
2
100
AcDbEntity
  8
0
100
AcDbCircle
 10
1147.579427399205
 20
118.4080688176301
 30
0.0
 40
2.0
100
AcDbArc
 50
0.0
 51
87.99999999999636
  0
ARC
  5
1313
330
2
100
AcDbEntity
  8
0
100
AcDbCircle
 10
1137.579427399205
 20
186.8969595905156
 30
0.0
 40
2.0
100
AcDbArc
 50
92.00000000000365
 51
180.0
  0
ARC
  5
1314
330
2
100
AcDbEntity
  8
0
100
AcDbCircle
 10
1147.579427399205
 20
191.2486054626289
 30
0.0
 40
2.0
100
AcDbArc
 50
271.9999999999775
 51
0.0
  0
LINE
  5
1315
330
2
100
AcDbEntity
  8
0
100
AcDbLine
 10
1192.579427399206
 20
191.3283371401295
 30
0.0
 11
1223.64886514666
 21
190.8968171714142
 31
0.0
  0
ARC
  5
1316
330
2
100
AcDbEntity
  8
0
100
AcDbCircle
 10
1223.579427399205
 20
185.8972993547405
 30
0.0
 40
5.0
100
AcDbArc
 50
44.44120088201017
 51
89.20427644725567
  0
ARC
  5
1317
330
2
100
AcDbEntity
  8
0
100
AcDbCircle
 10
1223.579427399205
 20
123.7593749255167
 30
0.0
 40
5.0
100
AcDbArc
 50
270.7957235527443
 51
315.5587991240926
  0
LINE
  5
1318
330
2
100
AcDbEntity
  8
0
100
AcDbLine
 10
1192.579427399206
 20
118.3283371401277
 30
0.0
 11
1223.64886514666
 21
118.759857108843
 31
0.0
  0
LINE
  5
1319
330
2
100
AcDbEntity
  8
0
100
AcDbLine
 10
1192.579427399206
 20
118.3283371401277
 30
0.0
 11
1161.509991396049
 21
118.7598570846159
 31
0.0
  0
ARC
  5
131A
330
2
100
AcDbEntity
  8
0
100
AcDbCircle
 10
1161.579429143503
 20
123.7593749012896
 30
0.0
 40
5.0
100
AcDbArc
 50
224.4419082422435
 51
269.2042764472556
  0
ARC
  5
131B
330
2
100
AcDbEntity
  8
0
100
AcDbCircle
 10
1161.579429143503
 20
185.8972993789677
 30
0.0
 40
5.0
100
AcDbArc
 50
90.79572355274434
 51
135.55809175165
  0
LINE
  5
131C
330
2
100
AcDbEntity
  8
0
100
AcDbLine
 10
1192.579427399206
 20
191.3283371401295
 30
0.0
 11
1161.509991396049
 21
190.8968171956414
 31
0.0
  0
LINE
  5
131D
330
2
100
AcDbEntity
  8
0
100
AcDbLine
 10
1220.579427399206
 20
197.8283371401259
 30
0.0
 11
1154.579427399206
 21
197.8283371401259
 31
0.0
  0
LINE
  5
131E
330
2
100
AcDbEntity
  8
0
100
AcDbLine
 10
1220.579427399206
 20
111.8283371401295
 30
0.0
 11
1154.579427399206
 21
111.8283371401295
 31
0.0
  0
LINE
  5
131F
330
2
100
AcDbEntity
  8
0
100
AcDbLine
 10
1246.579427399211
 20
122.4056874093195
 30
0.0
 11
1246.579427399212
 21
187.2509868709395
 31
0.0
  0
LINE
  5
1320
330
2
100
AcDbEntity
  8
0
100
AcDbLine
 10
1236.665213836839
 20
195.242550702501
 30
0.0
 11
1237.493640961583
 21
194.4141235777562
 31
0.0
  0
LINE
  5
1321
330
2
100
AcDbEntity
  8
0
100
AcDbLine
 10
1220.579427399208
 20
205.8283371401277
 30
0.0
 11
1220.579427399208
 21
190.939448251239
 31
0.0
  0
LINE
  5
1322
330
2
100
AcDbEntity
  8
0
100
AcDbLine
 10
1220.579427399205
 20
118.7172260290164
 30
0.0
 11
1220.579427399203
 21
103.8283371401295
 31
0.0
  0
LINE
  5
1323
330
2
100
AcDbEntity
  8
0
100
AcDbLine
 10
1228.079427399208
 20
188.780263210506
 30
0.0
 11
1228.079427399208
 21
188.1447792707433
 31
0.0
  0
LINE
  5
1324
330
2
100
AcDbEntity
  8
0
100
AcDbLine
 10
1233.079427399207
 20
179.3283371401277
 30
0.0
 11
1233.079427399205
 21
130.3283371401295
 31
0.0
  0
ARC
  5
1325
330
2
100
AcDbEntity
  8
0
100
AcDbCircle
 10
1231.079427399208
 20
188.736628871554
 30
0.0
 40
2.0
100
AcDbArc
 50
17.20876206250551
 51
89.50000000000846
  0
LINE
  5
1326
330
2
100
AcDbEntity
  8
0
100
AcDbLine
 10
1236.079427399214
 20
105.9462260120755
 30
0.0
 11
1236.079427399211
 21
203.7104482681799
 31
0.0
  0
ARC
  5
1327
330
2
100
AcDbEntity
  8
0
100
AcDbCircle
 10
1234.079427399214
 20
105.9462260120755
 30
0.0
 40
2.0
100
AcDbArc
 50
270.4999999999915
 51
0.0
  0
LINE
  5
1328
330
2
100
AcDbEntity
  8
0
100
AcDbLine
 10
1242.079427399211
 20
187.6283371401288
 30
0.0
 11
1241.879427399211
 21
187.8283371401277
 31
0.0
  0
LINE
  5
1329
330
2
100
AcDbEntity
  8
0
100
AcDbLine
 10
1238.579427399211
 20
189.8283371401277
 30
0.0
 11
1238.079427399211
 21
190.3283371401277
 31
0.0
  0
LINE
  5
132A
330
2
100
AcDbEntity
  8
0
100
AcDbLine
 10
1238.07942739921
 20
192.9999100153828
 30
0.0
 11
1238.079427399211
 21
190.3283371401277
 31
0.0
  0
LINE
  5
132B
330
2
100
AcDbEntity
  8
0
100
AcDbLine
 10
1241.879427399211
 20
187.8283371401277
 30
0.0
 11
1238.579427399211
 21
187.8283371401277
 31
0.0
  0
LINE
  5
132C
330
2
100
AcDbEntity
  8
0
100
AcDbLine
 10
1245.579427399211
 20
187.8283371401277
 30
0.0
 11
1246.579427399211
 21
187.2509868709395
 31
0.0
  0
LINE
  5
132D
330
2
100
AcDbEntity
  8
0
100
AcDbLine
 10
1245.579427399212
 20
187.8283371401277
 30
0.0
 11
1244.279427399211
 21
187.8283371401277
 31
0.0
  0
LINE
  5
132E
330
2
100
AcDbEntity
  8
0
100
AcDbLine
 10
1243.879427399211
 20
187.1283371401288
 30
0.0
 11
1242.279427399211
 21
187.1283371401288
 31
0.0
  0
LINE
  5
132F
330
2
100
AcDbEntity
  8
0
100
AcDbLine
 10
1220.579427399203
 20
103.8283371401295
 30
0.0
 11
1234.096880470211
 21
103.9463021659477
 31
0.0
  0
LINE
  5
1330
330
2
100
AcDbEntity
  8
0
100
AcDbLine
 10
1236.665213836839
 20
114.4141235777562
 30
0.0
 11
1237.493640961578
 21
115.2425507024956
 31
0.0
  0
LINE
  5
1331
330
2
100
AcDbEntity
  8
0
100
AcDbLine
 10
1238.579427399207
 20
119.8283371401295
 30
0.0
 11
1238.579427399214
 21
189.8283371401259
 31
0.0
  0
LINE
  5
1332
330
2
100
AcDbEntity
  8
0
100
AcDbLine
 10
1242.079427399207
 20
122.0283371401284
 30
0.0
 11
1242.079427399207
 21
187.6283371401324
 31
0.0
  0
LINE
  5
1333
330
2
100
AcDbEntity
  8
0
100
AcDbLine
 10
1242.079427399207
 20
122.0283371401284
 30
0.0
 11
1241.879427399206
 21
121.8283371401277
 31
0.0
  0
LINE
  5
1334
330
2
100
AcDbEntity
  8
0
100
AcDbLine
 10
1241.879427399206
 20
121.8283371401277
 30
0.0
 11
1238.579427399207
 21
121.8283371401295
 31
0.0
  0
LINE
  5
1335
330
2
100
AcDbEntity
  8
0
100
AcDbLine
 10
1238.579427399207
 20
119.8283371401295
 30
0.0
 11
1238.079427399207
 21
119.3283371401295
 31
0.0
  0
LINE
  5
1336
330
2
100
AcDbEntity
  8
0
100
AcDbLine
 10
1238.079427399205
 20
116.6567642648689
 30
0.0
 11
1238.079427399211
 21
190.3283371401277
 31
0.0
  0
LINE
  5
1337
330
2
100
AcDbEntity
  8
0
100
AcDbLine
 10
1245.579427399206
 20
121.8283371401277
 30
0.0
 11
1246.579427399207
 21
122.4056874093177
 31
0.0
  0
LINE
  5
1338
330
2
100
AcDbEntity
  8
0
100
AcDbLine
 10
1244.079427399206
 20
122.0283371401284
 30
0.0
 11
1244.079427399206
 21
187.6283371401288
 31
0.0
  0
LINE
  5
1339
330
2
100
AcDbEntity
  8
0
100
AcDbLine
 10
1245.579427399206
 20
121.8283371401277
 30
0.0
 11
1244.279427399206
 21
121.8283371401277
 31
0.0
  0
LINE
  5
133A
330
2
100
AcDbEntity
  8
0
100
AcDbLine
 10
1243.879427399206
 20
122.5283371401284
 30
0.0
 11
1242.279427399207
 21
122.5283371401284
 31
0.0
  0
ARC
  5
133B
330
2
100
AcDbEntity
  8
0
100
AcDbCircle
 10
1236.079427399205
 20
116.6567642648689
 30
0.0
 40
2.0
100
AcDbArc
 50
314.9999999999812
 51
0.0
  0
ARC
  5
133C
330
2
100
AcDbEntity
  8
0
100
AcDbCircle
 10
1238.079427399212
 20
112.9999100153829
 30
0.0
 40
2.0
100
AcDbArc
 50
134.9999999999812
 51
180.0
  0
ARC
  5
133D
330
2
100
AcDbEntity
  8
0
100
AcDbCircle
 10
1236.07942739921
 20
192.9999100153828
 30
0.0
 40
2.0
100
AcDbArc
 50
0.0
 51
45.00000000001871
  0
ARC
  5
133E
330
2
100
AcDbEntity
  8
0
100
AcDbCircle
 10
1238.079427399212
 20
196.6567642648744
 30
0.0
 40
2.0
100
AcDbArc
 50
180.0
 51
225.0000000000187
  0
ARC
  5
133F
330
2
100
AcDbEntity
  8
0
100
AcDbCircle
 10
1244.279427399207
 20
122.0283371401284
 30
0.0
 40
0.2
100
AcDbArc
 50
180.0
 51
269.9999999999739
  0
ARC
  5
1340
330
2
100
AcDbEntity
  8
0
100
AcDbCircle
 10
1243.879427399206
 20
122.3283371401277
 30
0.0
 40
0.2
100
AcDbArc
 50
0.0
 51
89.99999999997395
  0
ARC
  5
1341
330
2
100
AcDbEntity
  8
0
100
AcDbCircle
 10
1242.279427399207
 20
122.3283371401277
 30
0.0
 40
0.2
100
AcDbArc
 50
89.99999999997395
 51
180.0
  0
ARC
  5
1342
330
2
100
AcDbEntity
  8
0
100
AcDbCircle
 10
1244.279427399211
 20
187.6283371401288
 30
0.0
 40
0.2
100
AcDbArc
 50
90.0
 51
180.0
  0
ARC
  5
1343
330
2
100
AcDbEntity
  8
0
100
AcDbCircle
 10
1243.879427399211
 20
187.3283371401277
 30
0.0
 40
0.2
100
AcDbArc
 50
270.0
 51
0.0
  0
ARC
  5
1344
330
2
100
AcDbEntity
  8
0
100
AcDbCircle
 10
1242.279427399211
 20
187.3283371401277
 30
0.0
 40
0.2
100
AcDbArc
 50
180.0
 51
270.0
  0
LINE
  5
1345
330
2
100
AcDbEntity
  8
0
100
AcDbLine
 10
1245.579427399206
 20
121.8283371401277
 30
0.0
 11
1245.579427399211
 21
187.8283371401277
 31
0.0
  0
LINE
  5
1346
330
2
100
AcDbEntity
  8
0
100
AcDbLine
 10
1241.879427399206
 20
121.8283371401277
 30
0.0
 11
1241.879427399211
 21
187.8283371401277
 31
0.0
  0
ARC
  5
1347
330
2
100
AcDbEntity
  8
0
100
AcDbCircle
 10
1234.079427399214
 20
203.7104482681799
 30
0.0
 40
2.0
100
AcDbArc
 50
0.0
 51
89.50000000000846
  0
LINE
  5
1348
330
2
100
AcDbEntity
  8
0
100
AcDbLine
 10
1220.579427399203
 20
205.8283371401277
 30
0.0
 11
1234.096880470211
 21
205.7103721143095
 31
0.0
  0
LINE
  5
1349
330
2
100
AcDbEntity
  8
0
100
AcDbLine
 10
1231.096880470205
 20
190.7365527176818
 30
0.0
 11
1224.59389487497
 21
190.7933034132176
 31
0.0
  0
LINE
  5
134A
330
2
100
AcDbEntity
  8
0
100
AcDbLine
 10
1228.766404632826
 20
177.3659763195885
 30
0.0
 11
1231.096880470204
 21
177.3456385650653
 31
0.0
  0
ARC
  5
134B
330
2
100
AcDbEntity
  8
0
100
AcDbCircle
 10
1226.079427399208
 20
188.780263210506
 30
0.0
 40
2.0
100
AcDbArc
 50
0.0
 51
89.50000000000846
  0
ARC
  5
134C
330
2
100
AcDbEntity
  8
0
100
AcDbCircle
 10
1231.079427399206
 20
175.3457147189375
 30
0.0
 40
2.0
100
AcDbArc
 50
0.0
 51
89.49999999998238
  0
LINE
  5
134D
330
2
100
AcDbEntity
  8
0
100
AcDbLine
 10
1228.079427399208
 20
120.3283371401295
 30
0.0
 11
1228.079427399207
 21
121.5118950095264
 31
0.0
  0
ARC
  5
134E
330
2
100
AcDbEntity
  8
0
100
AcDbCircle
 10
1231.079427399208
 20
120.9200454087032
 30
0.0
 40
2.0
100
AcDbArc
 50
270.4999999999915
 51
342.7912379374944
  0
LINE
  5
134F
330
2
100
AcDbEntity
  8
0
100
AcDbLine
 10
1231.096880470205
 20
118.9201215625736
 30
0.0
 11
1224.59389487497
 21
118.8633708670396
 31
0.0
  0
LINE
  5
1350
330
2
100
AcDbEntity
  8
0
100
AcDbLine
 10
1228.766404632826
 20
132.2906979606685
 30
0.0
 11
1231.096880470204
 21
132.3110357151901
 31
0.0
  0
ARC
  5
1351
330
2
100
AcDbEntity
  8
0
100
AcDbCircle
 10
1226.079427399208
 20
120.8764110697513
 30
0.0
 40
2.0
100
AcDbArc
 50
270.4999999999915
 51
0.0
  0
ARC
  5
1352
330
2
100
AcDbEntity
  8
0
100
AcDbCircle
 10
1231.079427399206
 20
134.3109595613179
 30
0.0
 40
2.0
100
AcDbArc
 50
270.5000000000175
 51
0.0
  0
LINE
  5
1353
330
2
100
AcDbEntity
  8
CENTER
  6
CENS
100
AcDbLine
 10
1214.795639650124
 20
184.3283371401277
 30
0.0
 11
1238.579427399209
 21
184.3283371401277
 31
0.0
  0
LINE
  5
1354
330
2
100
AcDbEntity
  8
0
100
AcDbLine
 10
1235.179427399209
 20
189.3283371401277
 30
0.0
 11
1235.579427399208
 21
188.6355168171004
 31
0.0
  0
LINE
  5
1355
330
2
100
AcDbEntity
  8
0
100
AcDbLine
 10
1229.579427399208
 20
189.3283371401277
 30
0.0
 11
1229.579427399208
 21
179.3283371401277
 31
0.0
  0
LINE
  5
1356
330
2
100
AcDbEntity
  8
0
100
AcDbLine
 10
1235.179427399209
 20
189.3283371401277
 30
0.0
 11
1235.179427399209
 21
179.3283371401277
 31
0.0
  0
LINE
  5
1357
330
2
100
AcDbEntity
  8
0
100
AcDbLine
 10
1228.079427399208
 20
189.3283371401277
 30
0.0
 11
1235.179427399209
 21
189.3283371401277
 31
0.0
  0
LINE
  5
1358
330
2
100
AcDbEntity
  8
0
100
AcDbLine
 10
1228.739149621429
 20
179.3283371401277
 30
0.0
 11
1235.179427399209
 21
179.3283371401277
 31
0.0
  0
LINE
  5
1359
330
2
100
AcDbEntity
  8
0
100
AcDbLine
 10
1235.179427399209
 20
179.3283371401277
 30
0.0
 11
1235.579427399208
 21
180.021157463155
 31
0.0
  0
LINE
  5
135A
330
2
100
AcDbEntity
  8
0
100
AcDbLine
 10
1235.579427399208
 20
188.6355168171004
 30
0.0
 11
1235.579427399208
 21
180.021157463155
 31
0.0
  0
LINE
  5
135B
330
2
100
AcDbEntity
  8
0
100
AcDbLine
 10
1228.079427399208
 20
188.1447792707442
 30
0.0
 11
1228.079427399208
 21
189.3283371401277
 31
0.0
  0
LINE
  5
135C
330
2
100
AcDbEntity
  8
CENTER
  6
CENS
100
AcDbLine
 10
1214.795639650124
 20
125.3283371401295
 30
0.0
 11
1238.579427399209
 21
125.3283371401295
 31
0.0
  0
LINE
  5
135D
330
2
100
AcDbEntity
  8
0
100
AcDbLine
 10
1235.179427399209
 20
120.3283371401295
 30
0.0
 11
1235.579427399208
 21
121.0211574631568
 31
0.0
  0
LINE
  5
135E
330
2
100
AcDbEntity
  8
0
100
AcDbLine
 10
1229.579427399208
 20
120.3283371401295
 30
0.0
 11
1229.579427399208
 21
130.3283371401295
 31
0.0
  0
LINE
  5
135F
330
2
100
AcDbEntity
  8
0
100
AcDbLine
 10
1235.179427399209
 20
120.3283371401295
 30
0.0
 11
1235.179427399209
 21
130.3283371401295
 31
0.0
  0
LINE
  5
1360
330
2
100
AcDbEntity
  8
0
100
AcDbLine
 10
1228.079427399208
 20
120.3283371401295
 30
0.0
 11
1235.179427399209
 21
120.3283371401295
 31
0.0
  0
LINE
  5
1361
330
2
100
AcDbEntity
  8
0
100
AcDbLine
 10
1228.739149621429
 20
130.3283371401295
 30
0.0
 11
1235.179427399209
 21
130.3283371401295
 31
0.0
  0
LINE
  5
1362
330
2
100
AcDbEntity
  8
0
100
AcDbLine
 10
1235.179427399209
 20
130.3283371401295
 30
0.0
 11
1235.579427399208
 21
129.6355168171023
 31
0.0
  0
LINE
  5
1363
330
2
100
AcDbEntity
  8
0
100
AcDbLine
 10
1235.579427399208
 20
121.0211574631568
 30
0.0
 11
1235.579427399208
 21
129.6355168171023
 31
0.0
  0
ARC
  5
136A
330
2
100
AcDbEntity
  8
0
100
AcDbCircle
 10
894.4235898775025
 20
550.1314265968824
 30
0.0
 40
2.0
100
AcDbArc
 50
40.04151653423412
 51
90.0
  0
ARC
  5
136B
330
2
100
AcDbEntity
  8
0
100
AcDbCircle
 10
894.4235898775025
 20
482.1314265968823
 30
0.0
 40
2.0
100
AcDbArc
 50
270.0
 51
319.9584834657658
  0
LINE
  5
136C
330
2
100
AcDbEntity
  8
0
100
AcDbLine
 10
903.4235898775024
 20
513.1314265968824
 30
0.0
 11
903.4235898775024
 21
498.6314265968823
 31
0.0
  0
LINE
  5
136D
330
2
100
AcDbEntity
  8
0
100
AcDbLine
 10
896.4235898775006
 20
542.991426596883
 30
0.0
 11
896.4235898775026
 21
489.2714265968827
 31
0.0
  0
LINE
  5
136E
330
2
100
AcDbEntity
  8
CENTER
  6
CENS
100
AcDbLine
 10
913.4235898775026
 20
518.5314265968823
 30
0.0
 11
913.4235898775026
 21
492.7314265968824
 31
0.0
  0
LINE
  5
136F
330
2
100
AcDbEntity
  8
0
100
AcDbLine
 10
912.4235898775024
 20
543.1314265968824
 30
0.0
 11
912.4235898775024
 21
519.1314265968824
 31
0.0
  0
LINE
  5
1370
330
2
100
AcDbEntity
  8
0
100
AcDbLine
 10
901.9547468335296
 20
546.1314265968824
 30
0.0
 11
927.4235898775025
 21
546.1314265968824
 31
0.0
  0
ARC
  5
1371
330
2
100
AcDbEntity
  8
0
100
AcDbCircle
 10
915.4235898775025
 20
543.1314265968824
 30
0.0
 40
3.0
100
AcDbArc
 50
90.0
 51
180.0
  0
ARC
  5
1372
330
2
100
AcDbEntity
  8
0
100
AcDbCircle
 10
909.4235898775025
 20
519.1314265968824
 30
0.0
 40
3.0
100
AcDbArc
 50
270.0
 51
0.0
  0
ARC
  5
1373
330
2
100
AcDbEntity
  8
0
100
AcDbCircle
 10
906.4235898775026
 20
513.1314265968824
 30
0.0
 40
3.0
100
AcDbArc
 50
90.0
 51
180.0
  0
LINE
  5
1374
330
2
100
AcDbEntity
  8
0
100
AcDbLine
 10
906.4235898775026
 20
516.1314265968824
 30
0.0
 11
909.4235898775025
 21
516.1314265968824
 31
0.0
  0
LINE
  5
1375
330
2
100
AcDbEntity
  8
0
100
AcDbLine
 10
901.9547468335296
 20
486.1314265968823
 30
0.0
 11
927.4235898775025
 21
486.1314265968823
 31
0.0
  0
LINE
  5
1376
330
2
100
AcDbEntity
  8
CENTER
  6
CENS
100
AcDbLine
 10
900.5235898775024
 20
505.6314265968824
 30
0.0
 11
926.3235898775025
 21
505.6314265968824
 31
0.0
  0
ARC
  5
1377
330
2
100
AcDbEntity
  8
0
100
AcDbCircle
 10
906.4235898775026
 20
498.6314265968823
 30
0.0
 40
3.0
100
AcDbArc
 50
180.0
 51
270.0
  0
ARC
  5
1378
330
2
100
AcDbEntity
  8
0
100
AcDbCircle
 10
909.4235898775025
 20
492.6314265968824
 30
0.0
 40
3.0
100
AcDbArc
 50
0.0
 51
90.0
  0
LINE
  5
1379
330
2
100
AcDbEntity
  8
0
100
AcDbLine
 10
906.4235898775026
 20
495.6314265968824
 30
0.0
 11
909.4235898775025
 21
495.6314265968824
 31
0.0
  0
LINE
  5
137A
330
2
100
AcDbEntity
  8
0
100
AcDbLine
 10
912.4235898775024
 20
492.6314265968824
 30
0.0
 11
912.4235898775024
 21
489.1314265968824
 31
0.0
  0
ARC
  5
137B
330
2
100
AcDbEntity
  8
0
100
AcDbCircle
 10
915.4235898775025
 20
489.1314265968824
 30
0.0
 40
3.0
100
AcDbArc
 50
180.0
 51
270.0
  0
LINE
  5
137C
330
2
100
AcDbEntity
  8
0
100
AcDbLine
 10
884.4235898775025
 20
552.1314265968824
 30
0.0
 11
894.4235898775025
 21
552.1314265968824
 31
0.0
  0
LINE
  5
137D
330
2
100
AcDbEntity
  8
0
100
AcDbLine
 10
884.4235898775025
 20
480.1314265968824
 30
0.0
 11
894.4235898775025
 21
480.1314265968824
 31
0.0
  0
LINE
  5
137E
330
2
100
AcDbEntity
  8
0
100
AcDbLine
 10
927.4235898775025
 20
546.1314265968824
 30
0.0
 11
927.4235898775025
 21
486.1314265968823
 31
0.0
  0
LINE
  5
137F
330
2
100
AcDbEntity
  8
0
100
AcDbLine
 10
1161.510465184594
 20
118.8283371401359
 30
0.0
 11
1223.648389613819
 21
118.8283371401359
 31
0.0
  0
LINE
  5
1380
330
2
100
AcDbEntity
  8
0
100
AcDbLine
 10
1161.510465184594
 20
190.8283371401359
 30
0.0
 11
1223.648389613819
 21
190.8283371401359
 31
0.0
  0
CIRCLE
  5
1381
330
2
100
AcDbEntity
  8
HIDS
100
AcDbCircle
 10
1192.579427399206
 20
154.8283371401359
 30
0.0
 40
30.0
  0
ARC
  5
1382
330
2
100
AcDbEntity
  8
0
100
AcDbCircle
 10
1167.652170810548
 20
129.8283371401368
 30
0.0
 40
5.0
100
AcDbArc
 50
180.1666666666621
 51
270.0
  0
LINE
  5
1383
330
2
100
AcDbEntity
  8
CENTER
100
AcDbLine
 10
1172.829427399207
 20
179.5783371401359
 30
0.0
 11
1162.829427399206
 21
179.5783371401359
 31
0.0
  0
LINE
  5
1384
330
2
100
AcDbEntity
  8
CENTER
100
AcDbLine
 10
1172.829427399207
 20
130.0783371401359
 30
0.0
 11
1162.829427399206
 21
130.0783371401359
 31
0.0
  0
ARC
  5
1385
330
2
100
AcDbEntity
  8
0
100
AcDbCircle
 10
1167.652170810548
 20
179.8283371401359
 30
0.0
 40
5.0
100
AcDbArc
 50
90.0
 51
179.8333333333378
  0
LINE
  5
1386
330
2
100
AcDbEntity
  8
0
100
AcDbLine
 10
1156.510947367922
 20
123.7588993926821
 30
0.0
 11
1156.079427399208
 21
154.8283371401377
 31
0.0
  0
LINE
  5
1387
330
2
100
AcDbEntity
  8
0
100
AcDbLine
 10
1162.65219196452
 20
129.8137927502158
 30
0.0
 11
1162.579427399206
 21
154.8283371401359
 31
0.0
  0
ARC
  5
1388
330
2
100
AcDbEntity
  8
0
100
AcDbCircle
 10
1161.510465184594
 20
123.8283371401359
 30
0.0
 40
5.0
100
AcDbArc
 50
180.7957235527443
 51
270.0
  0
LINE
  5
1389
330
2
100
AcDbEntity
  8
0
100
AcDbLine
 10
1156.510947367922
 20
185.8977748875897
 30
0.0
 11
1156.079427399206
 21
154.8283371401377
 31
0.0
  0
LINE
  5
138A
330
2
100
AcDbEntity
  8
0
100
AcDbLine
 10
1162.65219196452
 20
179.8428815300578
 30
0.0
 11
1162.579427399206
 21
154.8283371401359
 31
0.0
  0
LINE
  5
138B
330
2
100
AcDbEntity
  8
0
100
AcDbLine
 10
1162.579427399206
 20
154.8283371401359
 30
0.0
 11
1156.079427399206
 21
154.8283371401359
 31
0.0
  0
ARC
  5
138C
330
2
100
AcDbEntity
  8
0
100
AcDbCircle
 10
1161.510465184594
 20
185.8283371401359
 30
0.0
 40
5.0
100
AcDbArc
 50
90.0
 51
179.2042764472556
  0
LINE
  5
138D
330
2
100
AcDbEntity
  8
0
100
AcDbLine
 10
1228.647907430493
 20
123.7588993926821
 30
0.0
 11
1229.079427399207
 21
154.8283371401377
 31
0.0
  0
LINE
  5
138E
330
2
100
AcDbEntity
  8
0
100
AcDbLine
 10
1222.506662833893
 20
129.8137927502158
 30
0.0
 11
1222.579427399206
 21
154.8283371401359
 31
0.0
  0
LINE
  5
138F
330
2
100
AcDbEntity
  8
0
100
AcDbLine
 10
1217.506683987865
 20
124.8283371401359
 30
0.0
 11
1167.652170810548
 21
124.8283371401359
 31
0.0
  0
LINE
  5
1390
330
2
100
AcDbEntity
  8
CENTER
100
AcDbLine
 10
1167.829427399206
 20
135.0783371401359
 30
0.0
 11
1167.829427399206
 21
125.0783371401359
 31
0.0
  0
LINE
  5
1391
330
2
100
AcDbEntity
  8
HIDS
100
AcDbLine
 10
1213.113728263288
 20
126.7934323272622
 30
0.0
 11
1213.201766013004
 21
131.8371116304999
 31
0.0
  0
ARC
  5
1392
330
2
100
AcDbEntity
  8
0
100
AcDbCircle
 10
1217.506683987865
 20
129.8283371401368
 30
0.0
 40
5.0
100
AcDbArc
 50
270.0
 51
359.8333333333378
  0
LINE
  5
1393
330
2
100
AcDbEntity
  8
CENTER
100
AcDbLine
 10
1217.329427399207
 20
135.0783371401359
 30
0.0
 11
1217.329427399207
 21
125.0783371401359
 31
0.0
  0
ARC
  5
1394
330
2
100
AcDbEntity
  8
0
100
AcDbCircle
 10
1223.648389613819
 20
123.8283371401359
 30
0.0
 40
4.999999999999999
100
AcDbArc
 50
270.0
 51
359.2042764472556
  0
ARC
  5
1395
330
2
100
AcDbEntity
  8
HIDS
100
AcDbCircle
 10
1211.114032872976
 20
126.8283371401359
 30
0.0
 40
2.0
100
AcDbArc
 50
270.0
 51
358.9999999999982
  0
LINE
  5
1396
330
2
100
AcDbEntity
  8
CENTER
100
AcDbLine
 10
1222.329427399206
 20
130.0783371401359
 30
0.0
 11
1212.329427399207
 21
130.0783371401359
 31
0.0
  0
ARC
  5
1397
330
2
100
AcDbEntity
  8
HIDS
100
AcDbCircle
 10
1216.201309098472
 20
131.7847544111875
 30
0.0
 40
3.0
100
AcDbArc
 50
135.7099981688279
 51
178.9999999999982
  0
LINE
  5
1398
330
2
100
AcDbEntity
  8
0
100
AcDbLine
 10
1217.506683987865
 20
184.8283371401359
 30
0.0
 11
1167.652170810548
 21
184.8283371401359
 31
0.0
  0
LINE
  5
1399
330
2
100
AcDbEntity
  8
HIDS
100
AcDbLine
 10
1176.329427399207
 20
184.8283371401359
 30
0.0
 11
1176.576995517882
 21
170.6451691201411
 31
0.0
  0
LINE
  5
139A
330
2
100
AcDbEntity
  8
CENTER
100
AcDbLine
 10
1167.829427399206
 20
184.5783371401359
 30
0.0
 11
1167.829427399206
 21
174.5783371401359
 31
0.0
  0
ARC
  5
139B
330
2
100
AcDbEntity
  8
HIDS
100
AcDbCircle
 10
1168.957545699941
 20
177.8719198690852
 30
0.0
 40
3.0
100
AcDbArc
 50
315.7099981688279
 51
358.9999999999982
  0
ARC
  5
139C
330
2
100
AcDbEntity
  8
HIDS
100
AcDbCircle
 10
1174.044821925437
 20
182.8283371401359
 30
0.0
 40
2.0
100
AcDbArc
 50
90.0
 51
178.9999999999982
  0
LINE
  5
139D
330
2
100
AcDbEntity
  8
HIDS
100
AcDbLine
 10
1172.045126535125
 20
182.8632419530105
 30
0.0
 11
1171.957088785411
 21
177.8195626497728
 31
0.0
  0
LINE
  5
139E
330
2
100
AcDbEntity
  8
HIDS
100
AcDbLine
 10
1187.829427399206
 20
184.8283371401359
 30
0.0
 11
1187.689125775361
 21
176.7904624932963
 31
0.0
  0
LINE
  5
139F
330
2
100
AcDbEntity
  8
0
100
AcDbLine
 10
1228.647907430493
 20
185.8977748875897
 30
0.0
 11
1229.079427399207
 21
154.8283371401377
 31
0.0
  0
LINE
  5
13A0
330
2
100
AcDbEntity
  8
0
100
AcDbLine
 10
1222.506662833893
 20
179.8428815300578
 30
0.0
 11
1222.579427399206
 21
154.8283371401359
 31
0.0
  0
LINE
  5
13A1
330
2
100
AcDbEntity
  8
CENTER
100
AcDbLine
 10
1217.329427399207
 20
184.5783371401359
 30
0.0
 11
1217.329427399207
 21
174.5783371401359
 31
0.0
  0
LINE
  5
13A2
330
2
100
AcDbEntity
  8
0
100
AcDbLine
 10
1222.579427399206
 20
154.8283371401359
 30
0.0
 11
1229.079427399207
 21
154.8283371401359
 31
0.0
  0
ARC
  5
13A3
330
2
100
AcDbEntity
  8
0
100
AcDbCircle
 10
1223.648389613819
 20
185.8283371401359
 30
0.0
 40
4.999999999999999
100
AcDbArc
 50
0.7957235527443399
 51
90.0
  0
ARC
  5
13A4
330
2
100
AcDbEntity
  8
0
100
AcDbCircle
 10
1217.506683987865
 20
179.8283371401359
 30
0.0
 40
5.0
100
AcDbArc
 50
0.1666666666621044
 51
90.0
  0
LINE
  5
13A5
330
2
100
AcDbEntity
  8
CENTER
100
AcDbLine
 10
1222.329427399206
 20
179.5783371401359
 30
0.0
 11
1212.329427399207
 21
179.5783371401359
 31
0.0
  0
CIRCLE
  5
13A6
330
2
100
AcDbEntity
  8
0
100
AcDbCircle
 10
1192.579427399206
 20
154.8283371401359
 30
0.0
 40
25.00000000022851
  0
CIRCLE
  5
13A7
330
2
100
AcDbEntity
  8
0
100
AcDbCircle
 10
1161.469427399208
 20
123.7183371401362
 30
0.0
 40
2.75
  0
CIRCLE
  5
13A8
330
2
100
AcDbEntity
  8
0
100
AcDbCircle
 10
1223.689427399207
 20
185.9383371401365
 30
0.0
 40
2.75
  0
CIRCLE
  5
13A9
330
2
100
AcDbEntity
  8
0
100
AcDbCircle
 10
1223.689427399207
 20
123.7183371401371
 30
0.0
 40
2.75
  0
LINE
  5
13AA
330
2
100
AcDbEntity
  8
0
100
AcDbLine
 10
901.6547468335303
 20
489.2714265968827
 30
0.0
 11
896.9547468335298
 21
489.2714265968827
 31
0.0
  0
LINE
  5
13AB
330
2
100
AcDbEntity
  8
0
100
AcDbLine
 10
896.9547468335298
 20
480.7714265968827
 30
0.0
 11
901.6547468335303
 21
480.7714265968827
 31
0.0
  0
LINE
  5
13AC
330
2
100
AcDbEntity
  8
CENTER
  6
CENS
100
AcDbLine
 10
879.4235898775026
 20
485.0214265968827
 30
0.0
 11
906.8805628075844
 21
485.0214265968827
 31
0.0
  0
LINE
  5
13AD
330
2
100
AcDbEntity
  8
0
100
AcDbLine
 10
901.9547468335296
 20
481.2910418391531
 30
0.0
 11
901.9547468335296
 21
488.7518113546122
 31
0.0
  0
LINE
  5
13AE
330
2
100
AcDbEntity
  8
0
100
AcDbLine
 10
901.6547468335303
 20
489.2714265968827
 30
0.0
 11
901.6547468335303
 21
480.7714265968827
 31
0.0
  0
LINE
  5
13AF
330
2
100
AcDbEntity
  8
0
100
AcDbLine
 10
901.6547468335303
 20
489.2714265968827
 30
0.0
 11
901.9547468335296
 21
488.7518113546122
 31
0.0
  0
LINE
  5
13B0
330
2
100
AcDbEntity
  8
0
100
AcDbLine
 10
901.9547468335296
 20
481.2910418391531
 30
0.0
 11
901.6547468335303
 21
480.7714265968827
 31
0.0
  0
LINE
  5
13B1
330
2
100
AcDbEntity
  8
0
100
AcDbLine
 10
896.9547468335298
 20
480.7714265968827
 30
0.0
 11
895.9547468335298
 21
480.7714265968827
 31
0.0
  0
LINE
  5
13B2
330
2
100
AcDbEntity
  8
0
100
AcDbLine
 10
895.9547468335298
 20
480.7714265968827
 30
0.0
 11
895.9547468335298
 21
489.2714265968827
 31
0.0
  0
LINE
  5
13B3
330
2
100
AcDbEntity
  8
0
100
AcDbLine
 10
895.9547468335298
 20
489.2714265968827
 30
0.0
 11
896.9547468335298
 21
489.2714265968827
 31
0.0
  0
LINE
  5
13B4
330
2
100
AcDbEntity
  8
0
100
AcDbLine
 10
896.9547468335298
 20
489.2714265968827
 30
0.0
 11
896.9547468335298
 21
480.7714265968827
 31
0.0
  0
LINE
  5
13B5
330
2
100
AcDbEntity
  8
0
100
AcDbLine
 10
896.9547468335298
 20
489.2714265968827
 30
0.0
 11
896.9547468335298
 21
480.7714265968827
 31
0.0
  0
LINE
  5
13B6
330
2
100
AcDbEntity
  8
0
100
AcDbLine
 10
901.6547468335303
 20
542.991426596883
 30
0.0
 11
896.9547468335298
 21
542.991426596883
 31
0.0
  0
LINE
  5
13B7
330
2
100
AcDbEntity
  8
0
100
AcDbLine
 10
896.9547468335298
 20
551.491426596883
 30
0.0
 11
901.6547468335303
 21
551.491426596883
 31
0.0
  0
LINE
  5
13B8
330
2
100
AcDbEntity
  8
CENTER
  6
CENS
100
AcDbLine
 10
879.4235898775026
 20
547.2414265968829
 30
0.0
 11
906.8805628075844
 21
547.2414265968829
 31
0.0
  0
LINE
  5
13B9
330
2
100
AcDbEntity
  8
0
100
AcDbLine
 10
901.9547468335296
 20
550.9718113546125
 30
0.0
 11
901.9547468335296
 21
543.5110418391534
 31
0.0
  0
LINE
  5
13BA
330
2
100
AcDbEntity
  8
0
100
AcDbLine
 10
901.6547468335303
 20
542.991426596883
 30
0.0
 11
901.6547468335303
 21
551.491426596883
 31
0.0
  0
LINE
  5
13BB
330
2
100
AcDbEntity
  8
0
100
AcDbLine
 10
901.6547468335303
 20
542.991426596883
 30
0.0
 11
901.9547468335296
 21
543.5110418391534
 31
0.0
  0
LINE
  5
13BC
330
2
100
AcDbEntity
  8
0
100
AcDbLine
 10
901.9547468335296
 20
550.9718113546125
 30
0.0
 11
901.6547468335303
 21
551.491426596883
 31
0.0
  0
LINE
  5
13BD
330
2
100
AcDbEntity
  8
0
100
AcDbLine
 10
896.9547468335298
 20
551.491426596883
 30
0.0
 11
895.9547468335298
 21
551.491426596883
 31
0.0
  0
LINE
  5
13BE
330
2
100
AcDbEntity
  8
0
100
AcDbLine
 10
895.9547468335298
 20
551.491426596883
 30
0.0
 11
895.9547468335298
 21
542.991426596883
 31
0.0
  0
LINE
  5
13BF
330
2
100
AcDbEntity
  8
0
100
AcDbLine
 10
895.9547468335298
 20
542.991426596883
 30
0.0
 11
896.9547468335298
 21
542.991426596883
 31
0.0
  0
LINE
  5
13C0
330
2
100
AcDbEntity
  8
0
100
AcDbLine
 10
896.9547468335298
 20
542.991426596883
 30
0.0
 11
896.9547468335298
 21
551.491426596883
 31
0.0
  0
LINE
  5
13C1
330
2
100
AcDbEntity
  8
0
100
AcDbLine
 10
896.9547468335298
 20
542.991426596883
 30
0.0
 11
896.9547468335298
 21
551.491426596883
 31
0.0
  0
ARC
  5
13C2
330
2
100
AcDbEntity
  8
0
100
AcDbCircle
 10
1161.469427399206
 20
185.9383371401365
 30
0.0
 40
4.25000000000019
100
AcDbArc
 50
337.0991355555407
 51
293.57896235452
  0
ARC
  5
13C3
330
2
100
AcDbEntity
  8
0
100
AcDbCircle
 10
1161.469427399206
 20
185.9383371401365
 30
0.0
 40
3.730384757729381
100
AcDbArc
 50
321.5287333511416
 51
309.1493645588698
  0
LWPOLYLINE
  5
13C4
330
2
100
AcDbEntity
  8
0
100
AcDbPolyline
 90
        6
 70
     1
 43
0.0
 10
1163.469427399206
 20
187.0930376785155
 10
1161.469427399206
 20
188.2477382168946
 10
1159.469427399206
 20
187.0930376785155
 10
1159.469427399206
 20
184.7836366017574
 10
1161.469427399206
 20
183.6289360633783
 10
1163.469427399206
 20
184.7836366017574
  0
CIRCLE
  5
13C5
330
2
100
AcDbEntity
  8
0
100
AcDbCircle
 10
1161.469427399206
 20
185.9383371401365
 30
0.0
 40
2.3094010767585
  0
LINE
  5
13C6
330
2
100
AcDbEntity
  8
CENTER
100
AcDbLine
 10
1161.469427399206
 20
191.8967673874305
 30
0.0
 11
1161.469427399206
 21
179.9799068928425
 31
0.0
  0
LINE
  5
13C7
330
2
100
AcDbEntity
  8
CENTER
100
AcDbLine
 10
1155.510997151912
 20
185.9383371401365
 30
0.0
 11
1167.4278576465
 21
185.9383371401365
 31
0.0
  0
ARC
  5
13C8
330
2
100
AcDbEntity
  8
0
100
AcDbCircle
 10
1223.689427399207
 20
185.9383371401365
 30
0.0
 40
4.25000000000019
100
AcDbArc
 50
246.4210376454799
 51
202.9008644444592
  0
ARC
  5
13C9
330
2
100
AcDbEntity
  8
0
100
AcDbCircle
 10
1223.689427399207
 20
185.9383371401365
 30
0.0
 40
3.730384757729381
100
AcDbArc
 50
230.8506354409909
 51
218.4712666488583
  0
LWPOLYLINE
  5
13CA
330
2
100
AcDbEntity
  8
0
100
AcDbPolyline
 90
        6
 70
     1
 43
0.0
 10
1225.689427399207
 20
187.0930376785155
 10
1223.689427399207
 20
188.2477382168946
 10
1221.689427399207
 20
187.0930376785155
 10
1221.689427399207
 20
184.7836366017574
 10
1223.689427399207
 20
183.6289360633783
 10
1225.689427399207
 20
184.7836366017574
  0
CIRCLE
  5
13CB
330
2
100
AcDbEntity
  8
0
100
AcDbCircle
 10
1223.689427399207
 20
185.9383371401365
 30
0.0
 40
2.3094010767585
  0
LINE
  5
13CC
330
2
100
AcDbEntity
  8
CENTER
100
AcDbLine
 10
1223.689427399207
 20
191.8967673874305
 30
0.0
 11
1223.689427399207
 21
179.9799068928425
 31
0.0
  0
LINE
  5
13CD
330
2
100
AcDbEntity
  8
CENTER
100
AcDbLine
 10
1217.730997151913
 20
185.9383371401365
 30
0.0
 11
1229.647857646501
 21
185.9383371401365
 31
0.0
  0
ARC
  5
13CE
330
2
100
AcDbEntity
  8
0
100
AcDbCircle
 10
1223.689427399207
 20
123.7183371401371
 30
0.0
 40
4.25000000000019
100
AcDbArc
 50
157.0991355555407
 51
113.57896235452
  0
ARC
  5
13CF
330
2
100
AcDbEntity
  8
0
100
AcDbCircle
 10
1223.689427399207
 20
123.7183371401371
 30
0.0
 40
3.730384757729381
100
AcDbArc
 50
141.5287333511416
 51
129.1493645588699
  0
LWPOLYLINE
  5
13D0
330
2
100
AcDbEntity
  8
0
100
AcDbPolyline
 90
        6
 70
     1
 43
0.0
 10
1225.689427399207
 20
124.8730376785153
 10
1223.689427399207
 20
126.0277382168953
 10
1221.689427399207
 20
124.8730376785153
 10
1221.689427399207
 20
122.5636366017571
 10
1223.689427399207
 20
121.4089360633781
 10
1225.689427399207
 20
122.5636366017571
  0
CIRCLE
  5
13D1
330
2
100
AcDbEntity
  8
0
100
AcDbCircle
 10
1223.689427399207
 20
123.7183371401371
 30
0.0
 40
2.3094010767585
  0
LINE
  5
13D2
330
2
100
AcDbEntity
  8
CENTER
100
AcDbLine
 10
1223.689427399207
 20
129.6767673874311
 30
0.0
 11
1223.689427399207
 21
117.7599068928431
 31
0.0
  0
LINE
  5
13D3
330
2
100
AcDbEntity
  8
CENTER
100
AcDbLine
 10
1217.730997151913
 20
123.7183371401371
 30
0.0
 11
1229.647857646501
 21
123.7183371401371
 31
0.0
  0
ARC
  5
13D4
330
2
100
AcDbEntity
  8
0
100
AcDbCircle
 10
1161.469427399208
 20
123.7183371401362
 30
0.0
 40
4.25000000000019
100
AcDbArc
 50
66.421037645593
 51
22.90086444442398
  0
ARC
  5
13D5
330
2
100
AcDbEntity
  8
0
100
AcDbCircle
 10
1161.469427399208
 20
123.7183371401362
 30
0.0
 40
3.730384757729381
100
AcDbArc
 50
50.8506354412629
 51
38.47126664870337
  0
LWPOLYLINE
  5
13D6
330
2
100
AcDbEntity
  8
0
100
AcDbPolyline
 90
        6
 70
     1
 43
0.0
 10
1163.469427399208
 20
124.8730376785153
 10
1161.469427399208
 20
126.0277382168953
 10
1159.469427399208
 20
124.8730376785153
 10
1159.469427399208
 20
122.5636366017571
 10
1161.469427399208
 20
121.4089360633781
 10
1163.469427399208
 20
122.5636366017571
  0
CIRCLE
  5
13D7
330
2
100
AcDbEntity
  8
0
100
AcDbCircle
 10
1161.469427399208
 20
123.7183371401362
 30
0.0
 40
2.3094010767585
  0
LINE
  5
13D8
330
2
100
AcDbEntity
  8
CENTER
100
AcDbLine
 10
1161.469427399208
 20
129.6767673874302
 30
0.0
 11
1161.469427399208
 21
117.7599068928422
 31
0.0
  0
LINE
  5
13D9
330
2
100
AcDbEntity
  8
CENTER
100
AcDbLine
 10
1155.510997151914
 20
123.7183371401362
 30
0.0
 11
1167.427857646502
 21
123.7183371401362
 31
0.0
  0
LINE
  5
13DA
330
2
100
AcDbEntity
  8
HIDS
100
AcDbLine
 10
1184.079427399207
 20
154.0783371401359
 30
0.0
 11
1184.079427399207
 21
145.6283371401361
 31
0.0
  0
LINE
  5
13DB
330
2
100
AcDbEntity
  8
HIDS
100
AcDbLine
 10
1183.746094065873
 20
154.0783371401359
 30
0.0
 11
1183.746094065873
 21
145.295003806803
 31
0.0
  0
LINE
  5
13DC
330
2
100
AcDbEntity
  8
HIDS
100
AcDbLine
 10
1180.41276073254
 20
154.0783371401359
 30
0.0
 11
1180.41276073254
 21
146.4895888994098
 31
0.0
  0
LINE
  5
13DD
330
2
100
AcDbEntity
  8
HIDS
100
AcDbLine
 10
1180.079427399207
 20
154.0783371401359
 30
0.0
 11
1180.079427399207
 21
146.9981072584534
 31
0.0
  0
ARC
  5
13DE
330
2
100
AcDbEntity
  8
0
100
AcDbCircle
 10
1192.579427399206
 20
154.8283371401359
 30
0.0
 40
14.75
100
AcDbArc
 50
218.5889464533588
 51
160.1850718515033
  0
LINE
  5
13DF
330
2
100
AcDbEntity
  8
CENTER
  6
CENS
100
AcDbLine
 10
1182.079427399207
 20
192.5731667041483
 30
0.0
 11
1182.079427399207
 21
143.376086795579
 31
0.0
  0
LINE
  5
13E0
330
2
100
AcDbEntity
  8
HIDS
100
AcDbLine
 10
1184.079427399207
 20
154.0783371401359
 30
0.0
 11
1184.079427399207
 21
142.773773688895
 31
0.0
  0
ARC
  5
13E1
330
2
100
AcDbEntity
  8
0
100
AcDbCircle
 10
1192.579427399206
 20
154.8283371401359
 30
0.0
 40
14.75
100
AcDbArc
 50
180.0
 51
218.5889464533588
  0
LINE
  5
13E2
330
2
100
AcDbEntity
  8
HIDS
100
AcDbLine
 10
1181.050225345292
 20
145.6283371401361
 30
0.0
 11
1182.079427399207
 21
145.6283371401361
 31
0.0
  0
LINE
  5
13E3
330
2
100
AcDbEntity
  8
0
100
AcDbLine
 10
1180.879427399208
 20
144.8283371401359
 30
0.0
 11
1181.736803178106
 21
144.8283371401359
 31
0.0
  0
LINE
  5
13E4
330
2
100
AcDbEntity
  8
0
100
AcDbLine
 10
1180.079427399207
 20
146.9981072584534
 30
0.0
 11
1180.079427399207
 21
145.6283371401361
 31
0.0
  0
LINE
  5
13E5
330
2
100
AcDbEntity
  8
HOJO
100
AcDbLine
 10
1180.41276073254
 20
146.4895888994098
 30
0.0
 11
1180.41276073254
 21
145.295003806803
 31
0.0
  0
LINE
  5
13E6
330
2
100
AcDbEntity
  8
0
100
AcDbLine
 10
1180.079427399207
 20
145.6283371401361
 30
0.0
 11
1181.050225345292
 21
145.6283371401361
 31
0.0
  0
LINE
  5
13E7
330
2
100
AcDbEntity
  8
0
100
AcDbLine
 10
1180.079427399207
 20
145.6283371401361
 30
0.0
 11
1180.879427399208
 21
144.8283371401359
 31
0.0
  0
LINE
  5
13E8
330
2
100
AcDbEntity
  8
HIDS
100
AcDbLine
 10
1181.736803178106
 20
144.8283371401359
 30
0.0
 11
1182.079427399207
 21
144.8283371401359
 31
0.0
  0
LINE
  5
13E9
330
2
100
AcDbEntity
  8
HIDS
100
AcDbLine
 10
1184.079427399207
 20
145.6283371401361
 30
0.0
 11
1183.279427399207
 21
144.8283371401359
 31
0.0
  0
LINE
  5
13EA
330
2
100
AcDbEntity
  8
HIDS
100
AcDbLine
 10
1183.279427399207
 20
144.8283371401359
 30
0.0
 11
1182.079427399207
 21
144.8283371401359
 31
0.0
  0
LINE
  5
13EB
330
2
100
AcDbEntity
  8
HIDS
100
AcDbLine
 10
1184.079427399207
 20
145.6283371401361
 30
0.0
 11
1182.079427399207
 21
145.6283371401361
 31
0.0
  0
LINE
  5
13EC
330
2
100
AcDbEntity
  8
HIDS
100
AcDbLine
 10
1183.746094065873
 20
145.295003806803
 30
0.0
 11
1183.746094065873
 21
143.0158555116969
 31
0.0
  0
LINE
  5
13ED
330
2
100
AcDbEntity
  8
HIDS
100
AcDbLine
 10
1178.702738312829
 20
159.8283371401359
 30
0.0
 11
1185.579427399207
 21
159.8283371401359
 31
0.0
  0
LINE
  5
13EE
330
2
100
AcDbEntity
  8
HIDS
100
AcDbLine
 10
1180.668403093966
 20
163.5283371401366
 30
0.0
 11
1185.579427399207
 21
163.5283371401366
 31
0.0
  0
LINE
  5
13EF
330
2
100
AcDbEntity
  8
HIDS
100
AcDbLine
 10
1185.059812156936
 20
163.8283371401359
 30
0.0
 11
1180.893431506687
 21
163.8283371401359
 31
0.0
  0
LINE
  5
13F0
330
2
100
AcDbEntity
  8
HIDS
100
AcDbLine
 10
1184.079427399207
 20
158.1616704734698
 30
0.0
 11
1180.079427399207
 21
158.1616704734698
 31
0.0
  0
LINE
  5
13F1
330
2
100
AcDbEntity
  8
HIDS
100
AcDbLine
 10
1178.702738312827
 20
159.8283371401359
 30
0.0
 11
1186.079427399206
 21
159.8283371401359
 31
0.0
  0
LINE
  5
13F2
330
2
100
AcDbEntity
  8
0
100
AcDbLine
 10
1177.848507536551
 20
155.5783371401359
 30
0.0
 11
1182.079427399207
 21
155.5783371401359
 31
0.0
  0
LINE
  5
13F3
330
2
100
AcDbEntity
  8
0
100
AcDbLine
 10
1177.848507536551
 20
154.0783371401359
 30
0.0
 11
1182.079427399207
 21
154.0783371401359
 31
0.0
  0
LINE
  5
13F4
330
2
100
AcDbEntity
  8
0
100
AcDbLine
 10
1178.579427399206
 20
163.5283371401366
 30
0.0
 11
1178.579427399206
 21
159.8283371401359
 31
0.0
  0
LINE
  5
13F5
330
2
100
AcDbEntity
  8
0
100
AcDbLine
 10
1180.079427399207
 20
155.5783371401359
 30
0.0
 11
1180.079427399207
 21
154.0783371401359
 31
0.0
  0
LINE
  5
13F6
330
2
100
AcDbEntity
  8
HOJO
100
AcDbLine
 10
1180.41276073254
 20
155.5783371401359
 30
0.0
 11
1180.41276073254
 21
154.0783371401359
 31
0.0
  0
ARC
  5
13F7
330
2
100
AcDbEntity
  8
0
100
AcDbCircle
 10
1192.579427399206
 20
154.8283371401359
 30
0.0
 40
14.75
100
AcDbArc
 50
160.1850718515033
 51
180.0
  0
LINE
  5
13F8
330
2
100
AcDbEntity
  8
HIDS
100
AcDbLine
 10
1180.079427399207
 20
159.8283371401359
 30
0.0
 11
1180.41276073254
 21
158.1616704734698
 31
0.0
  0
LINE
  5
13F9
330
2
100
AcDbEntity
  8
0
100
AcDbLine
 10
1178.579427399206
 20
159.8283371401359
 30
0.0
 11
1178.702738312829
 21
159.8283371401359
 31
0.0
  0
LINE
  5
13FA
330
2
100
AcDbEntity
  8
HIDS
100
AcDbLine
 10
1180.41276073254
 20
158.1616704734698
 30
0.0
 11
1180.41276073254
 21
155.5783371401359
 31
0.0
  0
LINE
  5
13FB
330
2
100
AcDbEntity
  8
HIDS
100
AcDbLine
 10
1180.079427399207
 20
159.8283371401359
 30
0.0
 11
1180.079427399207
 21
155.5783371401359
 31
0.0
  0
LINE
  5
13FC
330
2
100
AcDbEntity
  8
HIDS
100
AcDbLine
 10
1179.579427399206
 20
159.8283371401359
 30
0.0
 11
1179.579427399206
 21
155.5783371401359
 31
0.0
  0
LINE
  5
13FD
330
2
100
AcDbEntity
  8
0
100
AcDbLine
 10
1180.893431506687
 20
163.8283371401359
 30
0.0
 11
1179.099042641477
 21
163.8283371401359
 31
0.0
  0
LINE
  5
13FE
330
2
100
AcDbEntity
  8
0
100
AcDbLine
 10
1178.579427399206
 20
163.5283371401366
 30
0.0
 11
1179.099042641477
 21
163.8283371401359
 31
0.0
  0
LINE
  5
13FF
330
2
100
AcDbEntity
  8
0
100
AcDbLine
 10
1178.579427399206
 20
163.5283371401366
 30
0.0
 11
1180.668403093966
 21
163.5283371401366
 31
0.0
  0
LINE
  5
1400
330
2
100
AcDbEntity
  8
HIDS
100
AcDbLine
 10
1185.579427399207
 20
159.8283371401359
 30
0.0
 11
1185.579427399207
 21
163.5283371401366
 31
0.0
  0
LINE
  5
1401
330
2
100
AcDbEntity
  8
HIDS
100
AcDbLine
 10
1186.079427399206
 20
168.0688998170018
 30
0.0
 11
1186.079427399206
 21
159.8283371401359
 31
0.0
  0
LINE
  5
1402
330
2
100
AcDbEntity
  8
HOJO
100
AcDbLine
 10
1183.746094065873
 20
155.5783371401359
 30
0.0
 11
1183.746094065873
 21
154.0783371401359
 31
0.0
  0
LINE
  5
1403
330
2
100
AcDbEntity
  8
0
100
AcDbLine
 10
1184.079427399207
 20
155.5783371401359
 30
0.0
 11
1184.079427399207
 21
154.0783371401359
 31
0.0
  0
LINE
  5
1404
330
2
100
AcDbEntity
  8
0
100
AcDbLine
 10
1182.079427399207
 20
154.0783371401359
 30
0.0
 11
1185.619721945668
 21
154.0783371401359
 31
0.0
  0
LINE
  5
1405
330
2
100
AcDbEntity
  8
0
100
AcDbLine
 10
1182.079427399207
 20
155.5783371401359
 30
0.0
 11
1185.619721945668
 21
155.5783371401368
 31
0.0
  0
LINE
  5
1406
330
2
100
AcDbEntity
  8
HIDS
100
AcDbLine
 10
1184.079427399207
 20
159.8283371401359
 30
0.0
 11
1183.746094065873
 21
158.1616704734698
 31
0.0
  0
LINE
  5
1407
330
2
100
AcDbEntity
  8
HIDS
100
AcDbLine
 10
1184.079427399207
 20
159.8283371401359
 30
0.0
 11
1184.079427399207
 21
155.5783371401359
 31
0.0
  0
LINE
  5
1408
330
2
100
AcDbEntity
  8
HIDS
100
AcDbLine
 10
1183.746094065873
 20
158.1616704734698
 30
0.0
 11
1183.746094065873
 21
155.5783371401359
 31
0.0
  0
LINE
  5
1409
330
2
100
AcDbEntity
  8
HIDS
100
AcDbLine
 10
1184.579427399206
 20
159.8283371401359
 30
0.0
 11
1184.579427399206
 21
155.5783371401359
 31
0.0
  0
LINE
  5
140A
330
2
100
AcDbEntity
  8
HIDS
100
AcDbLine
 10
1185.059812156936
 20
163.8283371401359
 30
0.0
 11
1185.579427399207
 21
163.5283371401366
 31
0.0
  0
LINE
  5
140B
330
2
100
AcDbEntity
  8
0
100
AcDbLine
 10
1206.579427399206
 20
154.0783371401359
 30
0.0
 11
1199.539132852742
 21
154.0783371401359
 31
0.0
  0
LINE
  5
140C
330
2
100
AcDbEntity
  8
0
100
AcDbLine
 10
1199.539132852742
 20
155.5783371401359
 30
0.0
 11
1206.579427399206
 21
155.5783371401359
 31
0.0
  0
LINE
  5
140D
330
2
100
AcDbEntity
  8
0
100
AcDbLine
 10
1206.579427399206
 20
155.5783371401359
 30
0.0
 11
1206.579427399206
 21
154.0783371401359
 31
0.0
  0
LINE
  5
140E
330
2
100
AcDbEntity
  8
0
100
AcDbLine
 10
1177.079421228019
 20
188.8283350045623
 30
0.0
 11
1187.07942122802
 21
188.8283350045623
 31
0.0
  0
ARC
  5
140F
330
2
100
AcDbEntity
  8
0
100
AcDbCircle
 10
1187.07942122802
 20
184.8283350045623
 30
0.0
 40
4.0
100
AcDbArc
 50
0.0
 51
90.0
  0
LINE
  5
1410
330
2
100
AcDbEntity
  8
0
100
AcDbLine
 10
1191.079421228019
 20
184.8283350045623
 30
0.0
 11
1191.079421228019
 21
184.8283350045623
 31
0.0
  0
ARC
  5
1411
330
2
100
AcDbEntity
  8
0
100
AcDbCircle
 10
1177.079421228019
 20
184.8283350045623
 30
0.0
 40
4.0
100
AcDbArc
 50
90.0
 51
180.0
  0
CIRCLE
  5
1412
330
2
100
AcDbEntity
  8
0
100
AcDbCircle
 10
913.4235898775026
 20
505.6314265968824
 30
0.0
 40
9.000006171187123
  0
CIRCLE
  5
1413
330
2
100
AcDbEntity
  8
HOJO
100
AcDbCircle
 10
1217.329427399207
 20
179.5783371401359
 30
0.0
 40
2.0
  0
CIRCLE
  5
1414
330
2
100
AcDbEntity
  8
0
100
AcDbCircle
 10
1217.329427399207
 20
179.5783371401359
 30
0.0
 40
1.6
  0
CIRCLE
  5
1415
330
2
100
AcDbEntity
  8
HOJO
100
AcDbCircle
 10
1167.829427399206
 20
179.5783371401359
 30
0.0
 40
2.0
  0
CIRCLE
  5
1416
330
2
100
AcDbEntity
  8
0
100
AcDbCircle
 10
1167.829427399206
 20
179.5783371401359
 30
0.0
 40
1.6
  0
CIRCLE
  5
1417
330
2
100
AcDbEntity
  8
HOJO
100
AcDbCircle
 10
1167.829427399206
 20
130.0783371401359
 30
0.0
 40
2.0
  0
CIRCLE
  5
1418
330
2
100
AcDbEntity
  8
0
100
AcDbCircle
 10
1167.829427399206
 20
130.0783371401359
 30
0.0
 40
1.6
  0
CIRCLE
  5
1419
330
2
100
AcDbEntity
  8
HOJO
100
AcDbCircle
 10
1217.329427399207
 20
130.0783371401359
 30
0.0
 40
2.0
  0
CIRCLE
  5
141A
330
2
100
AcDbEntity
  8
0
100
AcDbCircle
 10
1217.329427399207
 20
130.0783371401359
 30
0.0
 40
1.6
  0
CIRCLE
  5
141C
330
2
100
AcDbEntity
  8
0
100
AcDbCircle
 10
1192.579427399205
 20
154.8283371401377
 30
0.0
 40
6.999999999998635
  0
ARC
  5
141D
330
2
100
AcDbEntity
  8
0
100
AcDbCircle
 10
1192.579427399206
 20
154.8283371401377
 30
0.0
 40
8.154700538378165
100
AcDbArc
 50
5.277035934804533
 51
174.7229640651954
  0
ARC
  5
141E
330
2
100
AcDbEntity
  8
0
100
AcDbCircle
 10
1192.579427399206
 20
154.8283371401377
 30
0.0
 40
8.154700538378165
100
AcDbArc
 50
185.2770359348045
 51
354.7229640651954
  0
CIRCLE
  5
141F
330
2
100
AcDbEntity
  8
CENTER
100
AcDbCircle
 10
1192.579427399206
 20
154.828337140135
 30
0.0
 40
35.0017856687341
  0
LINE
  5
1420
330
2
100
AcDbEntity
  8
0
100
AcDbLine
 10
75.63131010894301
 20
181.6883371401346
 30
0.0
 11
80.33131010894374
 21
181.6883371401346
 31
0.0
  0
LINE
  5
1421
330
2
100
AcDbEntity
  8
0
100
AcDbLine
 10
80.33131010894374
 20
190.1883371401346
 30
0.0
 11
75.63131010894301
 21
190.1883371401346
 31
0.0
  0
LINE
  5
1422
330
2
100
AcDbEntity
  8
CENTER
  6
CENS
100
AcDbLine
 10
97.86246706497093
 20
185.9383371401347
 30
0.0
 11
70.40549413488895
 21
185.9383371401347
 31
0.0
  0
LINE
  5
1423
330
2
100
AcDbEntity
  8
0
100
AcDbLine
 10
75.33131010894374
 20
189.6687218978642
 30
0.0
 11
75.33131010894374
 21
182.2079523824051
 31
0.0
  0
LINE
  5
1424
330
2
100
AcDbEntity
  8
0
100
AcDbLine
 10
75.63131010894301
 20
181.6883371401346
 30
0.0
 11
75.63131010894301
 21
190.1883371401346
 31
0.0
  0
LINE
  5
1425
330
2
100
AcDbEntity
  8
0
100
AcDbLine
 10
75.63131010894301
 20
181.6883371401346
 30
0.0
 11
75.33131010894374
 21
182.2079523824051
 31
0.0
  0
LINE
  5
1426
330
2
100
AcDbEntity
  8
0
100
AcDbLine
 10
75.33131010894374
 20
189.6687218978642
 30
0.0
 11
75.63131010894301
 21
190.1883371401346
 31
0.0
  0
LINE
  5
1427
330
2
100
AcDbEntity
  8
0
100
AcDbLine
 10
80.33131010894374
 20
190.1883371401346
 30
0.0
 11
81.33131010894373
 21
190.1883371401346
 31
0.0
  0
LINE
  5
1428
330
2
100
AcDbEntity
  8
0
100
AcDbLine
 10
81.33131010894373
 20
190.1883371401346
 30
0.0
 11
81.33131010894373
 21
181.6883371401346
 31
0.0
  0
LINE
  5
1429
330
2
100
AcDbEntity
  8
0
100
AcDbLine
 10
81.33131010894373
 20
181.6883371401346
 30
0.0
 11
80.33131010894374
 21
181.6883371401346
 31
0.0
  0
LINE
  5
142A
330
2
100
AcDbEntity
  8
0
100
AcDbLine
 10
80.33131010894374
 20
181.6883371401346
 30
0.0
 11
80.33131010894374
 21
190.1883371401346
 31
0.0
  0
LINE
  5
142B
330
2
100
AcDbEntity
  8
0
100
AcDbLine
 10
80.33131010894374
 20
181.6883371401346
 30
0.0
 11
80.33131010894374
 21
190.1883371401346
 31
0.0
  0
ARC
  5
142C
330
2
100
AcDbEntity
  8
0
100
AcDbCircle
 10
76.52804069834326
 20
119.8283371401341
 30
0.0
 40
5.0
100
AcDbArc
 50
8.213210701749492
 51
16.12586214361865
  0
LINE
  5
142D
330
2
100
AcDbEntity
  8
0
100
AcDbLine
 10
81.45654853830581
 20
120.7934323272604
 30
0.0
 11
80.86246706497092
 21
154.8283371401341
 31
0.0
  0
LINE
  5
142E
330
2
100
AcDbEntity
  8
0
100
AcDbLine
 10
92.86246706497093
 20
118.8283371401341
 30
0.0
 11
83.45624392861953
 21
118.8283371401341
 31
0.0
  0
ARC
  5
142F
330
2
100
AcDbEntity
  8
0
100
AcDbCircle
 10
83.45624392861953
 20
120.8283371401341
 30
0.0
 40
2.0
100
AcDbArc
 50
181.0000000000017
 51
270.0
  0
LINE
  5
1430
330
2
100
AcDbEntity
  8
CENTER
  6
CENS
100
AcDbLine
 10
63.86246706497093
 20
169.1609576610352
 30
0.0
 11
63.86246706497093
 21
192.5731667041465
 31
0.0
  0
LINE
  5
1431
330
2
100
AcDbEntity
  8
0
100
AcDbLine
 10
81.45654853830581
 20
188.8632419530087
 30
0.0
 11
80.86246706497092
 21
154.8283371401341
 31
0.0
  0
LINE
  5
1432
330
2
100
AcDbEntity
  8
0
100
AcDbLine
 10
64.3912520911648
 20
181.8242249093565
 30
0.0
 11
64.86246706496911
 21
154.8283371401341
 31
0.0
  0
LINE
  5
1433
330
2
100
AcDbEntity
  8
0
100
AcDbLine
 10
92.86246706497093
 20
154.8283371401341
 30
0.0
 11
49.86246706497093
 21
154.8283371401341
 31
0.0
  0
LINE
  5
1434
330
2
100
AcDbEntity
  8
0
100
AcDbLine
 10
75.33131010894374
 20
124.8283371401341
 30
0.0
 11
49.86246706497093
 21
124.8283371401341
 31
0.0
  0
LINE
  5
1435
330
2
100
AcDbEntity
  8
0
100
AcDbLine
 10
64.3912520911648
 20
127.8324493709116
 30
0.0
 11
64.86246706497093
 21
154.8283371401341
 31
0.0
  0
ARC
  5
1436
330
2
100
AcDbEntity
  8
0
100
AcDbCircle
 10
61.39072332777812
 20
127.8283371401341
 30
0.0
 40
3.0
100
AcDbArc
 50
270.0
 51
358.9999999999982
  0
ARC
  5
1437
330
2
100
AcDbEntity
  8
0
100
AcDbCircle
 10
76.95425211436248
 20
130.0605184945909
 30
0.0
 40
3.0
100
AcDbArc
 50
90.0
 51
178.9999999999721
  0
LINE
  5
1438
330
2
100
AcDbEntity
  8
0
100
AcDbLine
 10
67.48296536129908
 20
133.0605184945909
 30
0.0
 11
76.95425211436248
 21
133.0605184945909
 31
0.0
  0
LINE
  5
1439
330
2
100
AcDbEntity
  8
0
100
AcDbLine
 10
73.9547090288919
 20
130.1128757139032
 30
0.0
 11
73.8967679290539
 21
126.7934323272604
 31
0.0
  0
ARC
  5
143A
330
2
100
AcDbEntity
  8
0
100
AcDbCircle
 10
71.89707253874018
 20
126.8283371401341
 30
0.0
 40
2.0
100
AcDbArc
 50
270.0
 51
358.9999999999721
  0
LINE
  5
143B
330
2
100
AcDbEntity
  8
0
100
AcDbLine
 10
75.33131010894374
 20
184.828337140135
 30
0.0
 11
49.86246706497093
 21
184.8283371401341
 31
0.0
  0
ARC
  5
143C
330
2
100
AcDbEntity
  8
0
100
AcDbCircle
 10
61.39072332777812
 20
181.8283371401341
 30
0.0
 40
3.0
100
AcDbArc
 50
1.000000000001775
 51
90.0
  0
ARC
  5
143D
330
2
100
AcDbEntity
  8
0
100
AcDbCircle
 10
83.45624392861953
 20
188.8283371401341
 30
0.0
 40
2.0
100
AcDbArc
 50
90.0
 51
178.9999999999982
  0
LINE
  5
143E
330
2
100
AcDbEntity
  8
0
100
AcDbLine
 10
92.86246706497093
 20
190.8283371401341
 30
0.0
 11
83.45624392861953
 21
190.8283371401341
 31
0.0
  0
ARC
  5
143F
330
2
100
AcDbEntity
  8
0
100
AcDbCircle
 10
76.52804069834326
 20
189.828337140135
 30
0.0
 40
5.0
100
AcDbArc
 50
343.8741378563813
 51
351.7867892982504
  0
LINE
  5
1440
330
2
100
AcDbEntity
  8
0
100
AcDbLine
 10
49.86246706497093
 20
124.8283371401341
 30
0.0
 11
49.86246706497093
 21
184.8283371401341
 31
0.0
  0
LINE
  5
1441
330
2
100
AcDbEntity
  8
0
100
AcDbLine
 10
75.63131010894301
 20
127.9683371401344
 30
0.0
 11
80.33131010894374
 21
127.9683371401344
 31
0.0
  0
LINE
  5
1442
330
2
100
AcDbEntity
  8
0
100
AcDbLine
 10
80.33131010894374
 20
119.4683371401344
 30
0.0
 11
75.63131010894301
 21
119.4683371401344
 31
0.0
  0
LINE
  5
1443
330
2
100
AcDbEntity
  8
CENTER
  6
CENS
100
AcDbLine
 10
97.86246706497093
 20
123.7183371401344
 30
0.0
 11
70.40549413488895
 21
123.7183371401344
 31
0.0
  0
LINE
  5
1444
330
2
100
AcDbEntity
  8
0
100
AcDbLine
 10
75.33131010894374
 20
119.9879523824048
 30
0.0
 11
75.33131010894374
 21
127.448721897864
 31
0.0
  0
LINE
  5
1445
330
2
100
AcDbEntity
  8
0
100
AcDbLine
 10
75.63131010894301
 20
127.9683371401344
 30
0.0
 11
75.63131010894301
 21
119.4683371401344
 31
0.0
  0
LINE
  5
1446
330
2
100
AcDbEntity
  8
0
100
AcDbLine
 10
75.63131010894301
 20
127.9683371401344
 30
0.0
 11
75.33131010894374
 21
127.448721897864
 31
0.0
  0
LINE
  5
1447
330
2
100
AcDbEntity
  8
0
100
AcDbLine
 10
75.33131010894374
 20
119.9879523824048
 30
0.0
 11
75.63131010894301
 21
119.4683371401344
 31
0.0
  0
LINE
  5
1448
330
2
100
AcDbEntity
  8
0
100
AcDbLine
 10
80.33131010894374
 20
119.4683371401344
 30
0.0
 11
81.33131010894373
 21
119.4683371401344
 31
0.0
  0
LINE
  5
1449
330
2
100
AcDbEntity
  8
0
100
AcDbLine
 10
81.33131010894373
 20
119.4683371401344
 30
0.0
 11
81.33131010894373
 21
127.9683371401344
 31
0.0
  0
LINE
  5
144A
330
2
100
AcDbEntity
  8
0
100
AcDbLine
 10
81.33131010894373
 20
127.9683371401344
 30
0.0
 11
80.33131010894374
 21
127.9683371401344
 31
0.0
  0
LINE
  5
144B
330
2
100
AcDbEntity
  8
0
100
AcDbLine
 10
80.33131010894374
 20
127.9683371401344
 30
0.0
 11
80.33131010894374
 21
119.4683371401344
 31
0.0
  0
LINE
  5
144C
330
2
100
AcDbEntity
  8
0
100
AcDbLine
 10
80.33131010894374
 20
127.9683371401344
 30
0.0
 11
80.33131010894374
 21
119.4683371401344
 31
0.0
  0
LINE
  5
144D
330
2
100
AcDbEntity
  8
0
100
AcDbLine
 10
58.86246089378381
 20
188.8283371401341
 30
0.0
 11
68.86246089378381
 21
188.8283371401341
 31
0.0
  0
ARC
  5
144E
330
2
100
AcDbEntity
  8
0
100
AcDbCircle
 10
68.86246089378381
 20
184.8283371401341
 30
0.0
 40
4.0
100
AcDbArc
 50
0.0
 51
90.0
  0
ARC
  5
144F
330
2
100
AcDbEntity
  8
0
100
AcDbCircle
 10
58.86246089378381
 20
184.8283371401341
 30
0.0
 40
4.0
100
AcDbArc
 50
90.0
 51
180.0
  0
CIRCLE
  5
1450
330
2
100
AcDbEntity
  8
0
100
AcDbCircle
 10
1192.579427399205
 20
154.8283371401377
 30
0.0
 40
22.5
  0
LINE
  5
1451
330
2
100
AcDbEntity
  8
0
100
AcDbLine
 10
901.6547468318051
 20
181.6883371401347
 30
0.0
 11
896.9547468318046
 21
181.6883371401347
 31
0.0
  0
LINE
  5
1452
330
2
100
AcDbEntity
  8
0
100
AcDbLine
 10
896.9547468318046
 20
190.1883371401347
 30
0.0
 11
901.6547468318051
 21
190.1883371401347
 31
0.0
  0
LINE
  5
1453
330
2
100
AcDbEntity
  8
CENTER
  6
CENS
100
AcDbLine
 10
879.4235898757774
 20
185.9383371401347
 30
0.0
 11
906.8805628058592
 21
185.9383371401347
 31
0.0
  0
LINE
  5
1454
330
2
100
AcDbEntity
  8
0
100
AcDbLine
 10
901.9547468318044
 20
189.6687218978643
 30
0.0
 11
901.9547468318044
 21
182.2079523824052
 31
0.0
  0
LINE
  5
1455
330
2
100
AcDbEntity
  8
0
100
AcDbLine
 10
901.6547468318051
 20
181.6883371401347
 30
0.0
 11
901.6547468318051
 21
190.1883371401347
 31
0.0
  0
LINE
  5
1456
330
2
100
AcDbEntity
  8
0
100
AcDbLine
 10
901.6547468318051
 20
181.6883371401347
 30
0.0
 11
901.9547468318044
 21
182.2079523824052
 31
0.0
  0
LINE
  5
1457
330
2
100
AcDbEntity
  8
0
100
AcDbLine
 10
901.9547468318044
 20
189.6687218978643
 30
0.0
 11
901.6547468318051
 21
190.1883371401347
 31
0.0
  0
LINE
  5
1458
330
2
100
AcDbEntity
  8
0
100
AcDbLine
 10
896.9547468318046
 20
190.1883371401347
 30
0.0
 11
895.9547468318046
 21
190.1883371401347
 31
0.0
  0
LINE
  5
1459
330
2
100
AcDbEntity
  8
0
100
AcDbLine
 10
895.9547468318046
 20
190.1883371401347
 30
0.0
 11
895.9547468318046
 21
181.6883371401347
 31
0.0
  0
LINE
  5
145A
330
2
100
AcDbEntity
  8
0
100
AcDbLine
 10
895.9547468318046
 20
181.6883371401347
 30
0.0
 11
896.9547468318046
 21
181.6883371401347
 31
0.0
  0
LINE
  5
145B
330
2
100
AcDbEntity
  8
0
100
AcDbLine
 10
896.9547468318046
 20
181.6883371401347
 30
0.0
 11
896.9547468318046
 21
190.1883371401347
 31
0.0
  0
LINE
  5
145C
330
2
100
AcDbEntity
  8
0
100
AcDbLine
 10
896.9547468318046
 20
181.6883371401347
 30
0.0
 11
896.9547468318046
 21
190.1883371401347
 31
0.0
  0
ARC
  5
145D
330
2
100
AcDbEntity
  8
0
100
AcDbCircle
 10
900.758016242405
 20
119.8283371401341
 30
0.0
 40
5.0
100
AcDbArc
 50
163.8741378563813
 51
171.7867892982505
  0
LINE
  5
145E
330
2
100
AcDbEntity
  8
0
100
AcDbLine
 10
895.8295084024424
 20
120.7934323272604
 30
0.0
 11
896.4235898757774
 21
154.8283371401341
 31
0.0
  0
LINE
  5
145F
330
2
100
AcDbEntity
  8
0
100
AcDbLine
 10
884.4235898757773
 20
118.8283371401341
 30
0.0
 11
893.8298130121287
 21
118.8283371401341
 31
0.0
  0
ARC
  5
1460
330
2
100
AcDbEntity
  8
0
100
AcDbCircle
 10
893.8298130121287
 20
120.8283371401341
 30
0.0
 40
2.0
100
AcDbArc
 50
270.0
 51
358.9999999999982
  0
LINE
  5
1461
330
2
100
AcDbEntity
  8
CENTER
  6
CENS
100
AcDbLine
 10
913.4235898757774
 20
169.1609576610353
 30
0.0
 11
913.4235898757774
 21
192.5731667041466
 31
0.0
  0
LINE
  5
1462
330
2
100
AcDbEntity
  8
0
100
AcDbLine
 10
895.8295084024424
 20
188.8632419530088
 30
0.0
 11
896.2452594523615
 21
165.0448802551766
 31
0.0
  0
LINE
  5
1463
330
2
100
AcDbEntity
  8
0
100
AcDbLine
 10
912.8948048495834
 20
181.8242249093566
 30
0.0
 11
912.6772618390509
 21
169.3611941828669
 31
0.0
  0
LINE
  5
1464
330
2
100
AcDbEntity
  8
0
100
AcDbLine
 10
884.4235898757773
 20
154.8283371401341
 30
0.0
 11
884.8836292289629
 21
154.8283371401341
 31
0.0
  0
LINE
  5
1465
330
2
100
AcDbEntity
  8
0
100
AcDbLine
 10
901.9547468318044
 20
124.8283371401341
 30
0.0
 11
927.4235898757773
 21
124.8283371401341
 31
0.0
  0
LINE
  5
1466
330
2
100
AcDbEntity
  8
0
100
AcDbLine
 10
912.8948048495834
 20
127.8324493709117
 30
0.0
 11
912.4235898757772
 21
154.8283371401341
 31
0.0
  0
ARC
  5
1467
330
2
100
AcDbEntity
  8
0
100
AcDbCircle
 10
915.8953336129702
 20
127.8283371401341
 30
0.0
 40
3.0
100
AcDbArc
 50
181.0000000000017
 51
270.0
  0
ARC
  5
1468
330
2
100
AcDbEntity
  8
0
100
AcDbCircle
 10
900.3318048263858
 20
179.5961557856774
 30
0.0
 40
3.0
100
AcDbArc
 50
270.0
 51
358.9999999999721
  0
LINE
  5
1469
330
2
100
AcDbEntity
  8
0
100
AcDbLine
 10
909.8030915794492
 20
176.5961557856774
 30
0.0
 11
900.3318048263858
 21
176.5961557856783
 31
0.0
  0
LINE
  5
146A
330
2
100
AcDbEntity
  8
0
100
AcDbLine
 10
903.3313479118563
 20
179.5437985663659
 30
0.0
 11
903.3892890116943
 21
182.8632419530097
 31
0.0
  0
ARC
  5
146B
330
2
100
AcDbEntity
  8
0
100
AcDbCircle
 10
905.388984402008
 20
182.8283371401341
 30
0.0
 40
2.0
100
AcDbArc
 50
90.0
 51
178.9999999999721
  0
LINE
  5
146C
330
2
100
AcDbEntity
  8
0
100
AcDbLine
 10
901.9547468318044
 20
184.828337140135
 30
0.0
 11
927.4235898757773
 21
184.8283371401341
 31
0.0
  0
ARC
  5
146D
330
2
100
AcDbEntity
  8
0
100
AcDbCircle
 10
915.8953336129702
 20
181.8283371401341
 30
0.0
 40
3.0
100
AcDbArc
 50
90.0
 51
178.9999999999982
  0
ARC
  5
146E
330
2
100
AcDbEntity
  8
0
100
AcDbCircle
 10
893.8298130121287
 20
188.8283371401341
 30
0.0
 40
2.0
100
AcDbArc
 50
1.000000000001775
 51
90.0
  0
LINE
  5
146F
330
2
100
AcDbEntity
  8
0
100
AcDbLine
 10
884.4235898757773
 20
190.8283371401341
 30
0.0
 11
893.8298130121287
 21
190.8283371401341
 31
0.0
  0
ARC
  5
1470
330
2
100
AcDbEntity
  8
0
100
AcDbCircle
 10
900.758016242405
 20
189.828337140135
 30
0.0
 40
5.0
100
AcDbArc
 50
188.2132107017494
 51
196.1258621436186
  0
LINE
  5
1471
330
2
100
AcDbEntity
  8
0
100
AcDbLine
 10
927.4235898757773
 20
124.8283371401341
 30
0.0
 11
927.4235898757773
 21
184.8283371401341
 31
0.0
  0
LINE
  5
1472
330
2
100
AcDbEntity
  8
0
100
AcDbLine
 10
901.6547468318051
 20
127.9683371401345
 30
0.0
 11
896.9547468318046
 21
127.9683371401345
 31
0.0
  0
LINE
  5
1473
330
2
100
AcDbEntity
  8
0
100
AcDbLine
 10
896.9547468318046
 20
119.4683371401345
 30
0.0
 11
901.6547468318051
 21
119.4683371401345
 31
0.0
  0
LINE
  5
1474
330
2
100
AcDbEntity
  8
CENTER
  6
CENS
100
AcDbLine
 10
879.4235898757774
 20
123.7183371401345
 30
0.0
 11
906.8805628058592
 21
123.7183371401345
 31
0.0
  0
LINE
  5
1475
330
2
100
AcDbEntity
  8
0
100
AcDbLine
 10
901.9547468318044
 20
119.9879523824049
 30
0.0
 11
901.9547468318044
 21
127.448721897864
 31
0.0
  0
LINE
  5
1476
330
2
100
AcDbEntity
  8
0
100
AcDbLine
 10
901.6547468318051
 20
127.9683371401345
 30
0.0
 11
901.6547468318051
 21
119.4683371401345
 31
0.0
  0
LINE
  5
1477
330
2
100
AcDbEntity
  8
0
100
AcDbLine
 10
901.6547468318051
 20
127.9683371401345
 30
0.0
 11
901.9547468318044
 21
127.448721897864
 31
0.0
  0
LINE
  5
1478
330
2
100
AcDbEntity
  8
0
100
AcDbLine
 10
901.9547468318044
 20
119.9879523824049
 30
0.0
 11
901.6547468318051
 21
119.4683371401345
 31
0.0
  0
LINE
  5
1479
330
2
100
AcDbEntity
  8
0
100
AcDbLine
 10
896.9547468318046
 20
119.4683371401345
 30
0.0
 11
895.9547468318046
 21
119.4683371401345
 31
0.0
  0
LINE
  5
147A
330
2
100
AcDbEntity
  8
0
100
AcDbLine
 10
895.9547468318046
 20
119.4683371401345
 30
0.0
 11
895.9547468318046
 21
127.9683371401345
 31
0.0
  0
LINE
  5
147B
330
2
100
AcDbEntity
  8
0
100
AcDbLine
 10
895.9547468318046
 20
127.9683371401345
 30
0.0
 11
896.9547468318046
 21
127.9683371401345
 31
0.0
  0
LINE
  5
147C
330
2
100
AcDbEntity
  8
0
100
AcDbLine
 10
896.9547468318046
 20
127.9683371401345
 30
0.0
 11
896.9547468318046
 21
119.4683371401345
 31
0.0
  0
LINE
  5
147D
330
2
100
AcDbEntity
  8
0
100
AcDbLine
 10
896.9547468318046
 20
127.9683371401345
 30
0.0
 11
896.9547468318046
 21
119.4683371401345
 31
0.0
  0
LINE
  5
147E
330
2
100
AcDbEntity
  8
0
100
AcDbLine
 10
917.9235792667272
 20
161.828337140135
 30
0.0
 11
907.9235792667253
 21
161.828337140135
 31
0.0
  0
LINE
  5
147F
330
2
100
AcDbEntity
  8
0
100
AcDbLine
 10
917.9235792667254
 20
161.828337140135
 30
0.0
 11
917.9235792667254
 21
154.8283371401341
 31
0.0
  0
LINE
  5
1480
330
2
100
AcDbEntity
  8
0
100
AcDbLine
 10
919.9235792667254
 20
162.9830376785141
 30
0.0
 11
917.9235792667254
 21
161.8283371401341
 31
0.0
  0
LINE
  5
1481
330
2
100
AcDbEntity
  8
0
100
AcDbLine
 10
890.9235792667272
 20
162.0783371401341
 30
0.0
 11
890.9235792667272
 21
154.8283371401341
 31
0.0
  0
LINE
  5
1482
330
2
100
AcDbEntity
  8
0
100
AcDbLine
 10
917.9235792667272
 20
161.828337140135
 30
0.0
 11
907.9235792667253
 21
161.828337140135
 31
0.0
  0
LINE
  5
1483
330
2
100
AcDbEntity
  8
0
100
AcDbLine
 10
912.8357934453992
 20
169.5783371401351
 30
0.0
 11
919.9235792667254
 21
169.5783371401351
 31
0.0
  0
LINE
  5
1484
330
2
100
AcDbEntity
  8
0
100
AcDbLine
 10
919.9235792667254
 20
169.5783371401351
 30
0.0
 11
919.9235792667254
 21
154.8283371401341
 31
0.0
  0
LINE
  5
1485
330
2
100
AcDbEntity
  8
0
100
AcDbLine
 10
905.9235792667253
 20
165.113018326858
 30
0.0
 11
905.9235792667253
 21
154.8283371401341
 31
0.0
  0
LINE
  5
1486
330
2
100
AcDbEntity
  8
0
100
AcDbLine
 10
907.9235792667253
 20
165.6384184742894
 30
0.0
 11
907.9235792667253
 21
154.8283371401341
 31
0.0
  0
LINE
  5
1487
330
2
100
AcDbEntity
  8
0
100
AcDbLine
 10
898.9235792667271
 20
162.0783371401341
 30
0.0
 11
890.9235792667272
 21
162.0783371401341
 31
0.0
  0
LINE
  5
1488
330
2
100
AcDbEntity
  8
0
100
AcDbLine
 10
898.9235792667271
 20
154.8283371401341
 30
0.0
 11
898.9235792667271
 21
162.0783371401341
 31
0.0
  0
LINE
  5
1489
330
2
100
AcDbEntity
  8
0
100
AcDbLine
 10
905.9235792667253
 20
161.8283371401341
 30
0.0
 11
898.9235792667271
 21
161.8283371401341
 31
0.0
  0
LINE
  5
148A
330
2
100
AcDbEntity
  8
0
100
AcDbLine
 10
887.1708025169931
 20
154.8283371401341
 30
0.0
 11
890.9235792667272
 21
161.3283371401341
 31
0.0
  0
SPLINE
  5
148B
330
2
100
AcDbEntity
  8
HOJO
100
AcDbSpline
210
0.0
220
0.0
230
1.0
 70
     8
 71
     3
 72
    20
 73
    16
 74
     0
 42
0.0000000001
 43
0.0000000001
 40
0.0
 40
0.0
 40
0.0
 40
0.0
 40
5.311626210389601
 40
7.954639692924123
 40
10.24579206730457
 40
14.18281221953265
 40
18.83794314114633
 40
26.54246833222011
 40
31.19712602527561
 40
34.95638115537181
 40
42.12378530287149
 40
45.78553747213095
 40
50.20353689726185
 40
53.26513166942802
 40
54.23175360515262
 40
54.23175360515262
 40
54.23175360515262
 40
54.23175360515262
 10
927.4235898757755
 20
181.5157858621507
 30
0.0
 10
925.7106107098874
 20
181.4077438119241
 30
0.0
 10
923.1452697904764
 20
181.2459410895201
 30
0.0
 10
919.3735159033998
 20
180.9938084173529
 30
0.0
 10
918.0543746872658
 20
178.0613669323859
 30
0.0
 10
915.6191653189756
 20
175.4068581090907
 30
0.0
 10
913.7811169758254
 20
170.255562675926
 30
0.0
 10
909.6562805663483
 20
165.5458153243009
 30
0.0
 10
904.1786330633415
 20
164.9084838898818
 30
0.0
 10
899.2652475537756
 20
164.5229122463408
 30
0.0
 10
894.4312482070175
 20
165.6864963557948
 30
0.0
 10
889.3935214423795
 20
162.9869661199302
 30
0.0
 10
886.3223708210092
 20
159.1127419907882
 30
0.0
 10
885.3223965262836
 20
156.4345014698976
 30
0.0
 10
884.966357001052
 20
155.1394884398271
 30
0.0
 10
884.8836292289629
 20
154.8283371401341
 30
0.0
  0
LINE
  5
148C
330
2
100
AcDbEntity
  8
0
100
AcDbLine
 10
927.4235898757773
 20
179.828337140135
 30
0.0
 11
920.4235898757772
 21
179.828337140135
 31
0.0
  0
LINE
  5
148D
330
2
100
AcDbEntity
  8
0
100
AcDbLine
 10
920.4235898757772
 20
179.828337140135
 30
0.0
 11
920.4235898757772
 21
154.8283371401341
 31
0.0
  0
LINE
  5
148E
330
2
100
AcDbEntity
  8
0
100
AcDbLine
 10
918.4235960469644
 20
188.8283371401341
 30
0.0
 11
908.4235960469644
 21
188.8283371401341
 31
0.0
  0
ARC
  5
148F
330
2
100
AcDbEntity
  8
0
100
AcDbCircle
 10
908.4235960469644
 20
184.8283371401341
 30
0.0
 40
4.0
100
AcDbArc
 50
90.0
 51
180.0
  0
ARC
  5
1490
330
2
100
AcDbEntity
  8
0
100
AcDbCircle
 10
918.4235960469644
 20
184.8283371401341
 30
0.0
 40
4.0
100
AcDbArc
 50
0.0
 51
90.0
  0
LINE
  5
1491
330
2
100
AcDbEntity
  8
0
100
AcDbLine
 10
917.3229232041606
 20
177.3283371401341
 30
0.0
 11
920.4235898757772
 21
177.3283371401341
 31
0.0
  0
LINE
  5
1FD2
330
2
100
AcDbEntity
  8
CENTER
100
AcDbLine
 10
216.6524670649727
 20
88.82833714013418
 30
0.0
 11
216.6524670649727
 21
220.8283371401341
 31
0.0
  0
LINE
  5
1FD3
330
2
100
AcDbEntity
  8
CENTER
100
AcDbLine
 10
415.461117953846
 20
89.07268943827535
 30
0.0
 11
415.461117953846
 21
220.5839848419932
 31
0.0
  0
LINE
  5
1FDD
330
2
100
AcDbEntity
  8
0
100
AcDbLine
 10
123.6524670649727
 20
132.8283371401341
 30
0.0
 11
118.9618091434798
 21
132.8283371401341
 31
0.0
  0
LINE
  5
1FDE
330
2
100
AcDbEntity
  8
0
100
AcDbLine
 10
125.6524670649736
 20
152.3283371401341
 30
0.0
 11
117.3624670666944
 21
152.3283371401341
 31
0.0
  0
LINE
  5
1FDF
330
2
100
AcDbEntity
  8
0
100
AcDbLine
 10
126.6523909083947
 20
128.8283371401341
 30
0.0
 11
114.9331812809663
 21
128.8283371401341
 31
0.0
  0
LINE
  5
1FE0
330
2
100
AcDbEntity
  8
0
100
AcDbLine
 10
123.6524670649727
 20
176.8283371401341
 30
0.0
 11
118.9618091434798
 21
176.8283371401341
 31
0.0
  0
LINE
  5
1FE1
330
2
100
AcDbEntity
  8
0
100
AcDbLine
 10
126.6523909083947
 20
180.8283371401341
 30
0.0
 11
114.9331812809663
 21
180.8283371401341
 31
0.0
  0
LINE
  5
1FE2
330
2
100
AcDbEntity
  8
0
100
AcDbLine
 10
125.6524670649736
 20
157.3283371401341
 30
0.0
 11
117.3624670666944
 21
157.3283371401341
 31
0.0
  0
ARC
  5
1FE3
330
2
100
AcDbEntity
  8
0
100
AcDbCircle
 10
118.9618091434798
 20
127.8283371401341
 30
0.0
 40
5.0
100
AcDbArc
 50
90.0
 51
161.7900431357172
  0
ARC
  5
1FE4
330
2
100
AcDbEntity
  8
0
100
AcDbCircle
 10
111.3624670666944
 20
130.3283371401323
 30
0.0
 40
3.0
100
AcDbArc
 50
270.0
 51
0.0
  0
LINE
  5
1FE6
330
2
100
AcDbEntity
  8
0
100
AcDbLine
 10
104.8624670649709
 20
120.3283371401341
 30
0.0
 11
104.8624670649709
 21
189.3283371401341
 31
0.0
  0
LINE
  5
1FE7
330
2
100
AcDbEntity
  8
0
100
AcDbLine
 10
102.8624670649709
 20
118.8283371401341
 30
0.0
 11
92.86246706497093
 21
118.8283371401341
 31
0.0
  0
LINE
  5
1FE8
330
2
100
AcDbEntity
  8
0
100
AcDbLine
 10
102.8624670649709
 20
118.3283371401341
 30
0.0
 11
92.86246706497093
 21
118.3283371401341
 31
0.0
  0
ARC
  5
1FE9
330
2
100
AcDbEntity
  8
0
100
AcDbCircle
 10
114.9331812809663
 20
126.8283371401341
 30
0.0
 40
2.0
100
AcDbArc
 50
90.0
 51
135.57299599917
  0
ARC
  5
1FEA
330
2
100
AcDbEntity
  8
0
100
AcDbCircle
 10
102.8624670649709
 20
120.8283371401341
 30
0.0
 40
2.0
100
AcDbArc
 50
270.0
 51
0.0
  0
ARC
  5
1FEB
330
2
100
AcDbEntity
  8
0
100
AcDbCircle
 10
102.8624670649709
 20
120.3283371401341
 30
0.0
 40
2.0
100
AcDbArc
 50
270.0
 51
0.0
  0
ARC
  5
1FEC
330
2
100
AcDbEntity
  8
0
100
AcDbCircle
 10
109.8624670649709
 20
122.3283371401323
 30
0.0
 40
5.0
100
AcDbArc
 50
90.0
 51
180.0
  0
LINE
  5
1FED
330
2
100
AcDbEntity
  8
0
100
AcDbLine
 10
109.8624670649709
 20
127.3283371401323
 30
0.0
 11
111.3624670666953
 21
127.3283371401323
 31
0.0
  0
LINE
  5
1FEE
330
2
100
AcDbEntity
  8
0
100
AcDbLine
 10
114.3624670666944
 20
179.3283371401341
 30
0.0
 11
114.3624670666944
 21
130.3283371401323
 31
0.0
  0
ARC
  5
1FEF
330
2
100
AcDbEntity
  8
0
100
AcDbCircle
 10
117.3624670666944
 20
160.3283371401341
 30
0.0
 40
3.0
100
AcDbArc
 50
180.0
 51
270.0
  0
ARC
  5
1FF0
330
2
100
AcDbEntity
  8
0
100
AcDbCircle
 10
117.3624670666944
 20
149.3283371401341
 30
0.0
 40
3.0
100
AcDbArc
 50
90.0
 51
180.0
  0
LINE
  5
1FF1
330
2
100
AcDbEntity
  8
0
100
AcDbLine
 10
102.8624670649713
 20
190.8283371401341
 30
0.0
 11
92.86246706497093
 21
190.8283371401341
 31
0.0
  0
LINE
  5
1FF2
330
2
100
AcDbEntity
  8
0
100
AcDbLine
 10
102.8624670649713
 20
191.3283371401341
 30
0.0
 11
92.86246706497093
 21
191.3283371401341
 31
0.0
  0
ARC
  5
1FF3
330
2
100
AcDbEntity
  8
0
100
AcDbCircle
 10
118.9618091434798
 20
181.8283371401341
 30
0.0
 40
5.0
100
AcDbArc
 50
198.2099568642827
 51
270.0
  0
ARC
  5
1FF4
330
2
100
AcDbEntity
  8
0
100
AcDbCircle
 10
114.9331812809663
 20
182.8283371401341
 30
0.0
 40
2.0
100
AcDbArc
 50
224.4270040008299
 51
270.0
  0
ARC
  5
1FF5
330
2
100
AcDbEntity
  8
0
100
AcDbCircle
 10
111.3624670666944
 20
179.3283371401341
 30
0.0
 40
3.0
100
AcDbArc
 50
0.0
 51
90.0
  0
ARC
  5
1FF6
330
2
100
AcDbEntity
  8
0
100
AcDbCircle
 10
102.8624670649713
 20
188.8283371401341
 30
0.0
 40
2.0
100
AcDbArc
 50
0.0
 51
90.0
  0
ARC
  5
1FF7
330
2
100
AcDbEntity
  8
0
100
AcDbCircle
 10
109.8624670649709
 20
187.3283371401342
 30
0.0
 40
5.0
100
AcDbArc
 50
180.0
 51
270.0
  0
ARC
  5
1FF8
330
2
100
AcDbEntity
  8
0
100
AcDbCircle
 10
102.8624670649713
 20
189.3283371401341
 30
0.0
 40
2.0
100
AcDbArc
 50
0.0
 51
90.0
  0
LINE
  5
1FF9
330
2
100
AcDbEntity
  8
0
100
AcDbLine
 10
109.8624670649709
 20
182.3283371401341
 30
0.0
 11
111.3624670666953
 21
182.3283371401341
 31
0.0
  0
LINE
  5
1FFA
330
2
100
AcDbEntity
  8
0
100
AcDbLine
 10
379.9611179539169
 20
202.8283371401341
 30
0.0
 11
372.8611179539166
 21
202.8283371401341
 31
0.0
  0
LINE
  5
1FFB
330
2
100
AcDbEntity
  8
0
100
AcDbLine
 10
387.4611179538487
 20
205.8283371401341
 30
0.0
 11
373.9436648828414
 21
205.7103721143141
 31
0.0
  0
LINE
  5
1FFC
330
2
100
AcDbEntity
  8
CENTER
100
AcDbLine
 10
529.4611179538451
 20
154.8283371401341
 30
0.0
 11
346.4611179538406
 21
154.8283371401341
 31
0.0
  0
LINE
  5
1FFD
330
2
100
AcDbEntity
  8
0
100
AcDbLine
 10
379.9611179539169
 20
106.8283371401341
 30
0.0
 11
372.8611179539166
 21
106.8283371401341
 31
0.0
  0
LINE
  5
1FFE
330
2
100
AcDbEntity
  8
0
100
AcDbLine
 10
387.4611179538487
 20
103.8283371401359
 30
0.0
 11
373.9436648828414
 21
103.9463021659541
 31
0.0
  0
LINE
  5
1FFF
330
2
100
AcDbEntity
  8
CENTER
100
AcDbLine
 10
395.3695140655363
 20
111.8283371401341
 30
0.0
 11
369.461117953916
 21
111.8283371401341
 31
0.0
  0
LINE
  5
2000
330
2
100
AcDbEntity
  8
0
100
AcDbLine
 10
379.9611179539169
 20
116.8283371401341
 30
0.0
 11
372.8611179539166
 21
116.8283371401341
 31
0.0
  0
LINE
  5
2001
330
2
100
AcDbEntity
  8
0
100
AcDbLine
 10
378.9698444894147
 20
118.8369878526048
 30
0.0
 11
373.9436648828414
 21
118.8808506575244
 31
0.0
  0
LINE
  5
2002
330
2
100
AcDbEntity
  8
0
100
AcDbLine
 10
373.9436648828414
 20
134.2882379629374
 30
0.0
 11
387.4611179538447
 21
134.2882379629374
 31
0.0
  0
LINE
  5
2003
330
2
100
AcDbEntity
  8
CENTER
100
AcDbLine
 10
395.3695140655363
 20
197.8283371401341
 30
0.0
 11
369.461117953916
 21
197.8283371401341
 31
0.0
  0
LINE
  5
2004
330
2
100
AcDbEntity
  8
0
100
AcDbLine
 10
379.9611179539169
 20
192.8283371401341
 30
0.0
 11
372.8611179539166
 21
192.8283371401341
 31
0.0
  0
LINE
  5
2005
330
2
100
AcDbEntity
  8
0
100
AcDbLine
 10
378.9698444894147
 20
190.8196864276653
 30
0.0
 11
373.9436648828414
 21
190.7758236227457
 31
0.0
  0
LINE
  5
2006
330
2
100
AcDbEntity
  8
0
100
AcDbLine
 10
373.9436648828414
 20
175.3684363173308
 30
0.0
 11
387.4611179538447
 21
175.3684363173308
 31
0.0
  0
LINE
  5
2007
330
2
100
AcDbEntity
  8
0
100
AcDbLine
 10
262.1524670649727
 20
199.2717128131082
 30
0.0
 11
259.6524670649727
 21
200.7150884860823
 31
0.0
  0
CIRCLE
  5
2008
330
2
100
AcDbEntity
  8
0
100
AcDbCircle
 10
259.6524670649772
 20
111.8283371401341
 30
0.0
 40
5.000000000000113
  0
CIRCLE
  5
2009
330
2
100
AcDbEntity
  8
0
100
AcDbCircle
 10
259.6524670649772
 20
111.8283371401341
 30
0.0
 40
4.307179676972509
  0
ARC
  5
200A
330
2
100
AcDbEntity
  8
0
100
AcDbCircle
 10
259.6524670649727
 20
111.8283371401341
 30
0.0
 40
8.0
100
AcDbArc
 50
270.0
 51
0.0
  0
LINE
  5
200B
330
2
100
AcDbEntity
  8
0
100
AcDbLine
 10
259.6524670649768
 20
108.941585794186
 30
0.0
 11
262.1524670649772
 21
110.3849614671601
 31
0.0
  0
LINE
  5
200C
330
2
100
AcDbEntity
  8
0
100
AcDbLine
 10
262.1524670649772
 20
113.2717128131082
 30
0.0
 11
259.6524670649772
 21
114.7150884860823
 31
0.0
  0
CIRCLE
  5
200D
330
2
100
AcDbEntity
  8
HOJO
100
AcDbCircle
 10
261.6524670649736
 20
123.3283371401341
 30
0.0
 40
2.0
  0
CIRCLE
  5
200E
330
2
100
AcDbEntity
  8
0
100
AcDbCircle
 10
261.6524670649736
 20
123.3283371401341
 30
0.0
 40
2.5
  0
CIRCLE
  5
200F
330
2
100
AcDbEntity
  8
0
100
AcDbCircle
 10
261.6524670649736
 20
123.3283371401341
 30
0.0
 40
1.6
  0
LINE
  5
2010
330
2
100
AcDbEntity
  8
CENTER
100
AcDbLine
 10
257.2777246595818
 20
123.3283371401341
 30
0.0
 11
266.0272094703653
 21
123.3283371401341
 31
0.0
  0
CIRCLE
  5
2011
330
2
100
AcDbEntity
  8
0
100
AcDbCircle
 10
261.6524670649736
 20
123.3283371401341
 30
0.0
 40
3.0
  0
LINE
  5
2012
330
2
100
AcDbEntity
  8
CENTER
100
AcDbLine
 10
268.4024670649758
 20
111.8283371401341
 30
0.0
 11
250.9024670649758
 21
111.8283371401341
 31
0.0
  0
LINE
  5
2013
330
2
100
AcDbEntity
  8
0
100
AcDbLine
 10
259.6524670649745
 20
118.8283371401341
 30
0.0
 11
264.7086769347946
 21
118.8283371401341
 31
0.0
  0
LINE
  5
2014
330
2
100
AcDbEntity
  8
0
100
AcDbLine
 10
259.6524670649727
 20
194.941585794186
 30
0.0
 11
262.1524670649727
 21
196.3849614671601
 31
0.0
  0
CIRCLE
  5
2015
330
2
100
AcDbEntity
  8
HOJO
100
AcDbCircle
 10
261.6524670649727
 20
186.3283371401341
 30
0.0
 40
2.0
  0
CIRCLE
  5
2016
330
2
100
AcDbEntity
  8
0
100
AcDbCircle
 10
261.6524670649727
 20
186.3283371401341
 30
0.0
 40
2.5
  0
CIRCLE
  5
2017
330
2
100
AcDbEntity
  8
0
100
AcDbCircle
 10
261.6524670649727
 20
186.3283371401341
 30
0.0
 40
1.6
  0
LINE
  5
2018
330
2
100
AcDbEntity
  8
CENTER
100
AcDbLine
 10
268.4024670649758
 20
197.8283371401341
 30
0.0
 11
250.9024670649758
 21
197.8283371401341
 31
0.0
  0
CIRCLE
  5
2019
330
2
100
AcDbEntity
  8
0
100
AcDbCircle
 10
261.6524670649727
 20
186.3283371401341
 30
0.0
 40
3.0
  0
LINE
  5
201A
330
2
100
AcDbEntity
  8
CENTER
100
AcDbLine
 10
257.5565246774061
 20
186.3283371401341
 30
0.0
 11
265.7484094525392
 21
186.3283371401341
 31
0.0
  0
LINE
  5
201B
330
2
100
AcDbEntity
  8
0
100
AcDbLine
 10
259.6524670649754
 20
190.8283371401341
 30
0.0
 11
264.7086769347946
 21
190.8283371401341
 31
0.0
  0
ARC
  5
201C
330
2
100
AcDbEntity
  8
0
100
AcDbCircle
 10
259.6524670649727
 20
197.8283371401341
 30
0.0
 40
8.0
100
AcDbArc
 50
0.0
 51
90.0
  0
CIRCLE
  5
201D
330
2
100
AcDbEntity
  8
0
100
AcDbCircle
 10
259.6524670649727
 20
197.8283371401341
 30
0.0
 40
5.000000000000113
  0
CIRCLE
  5
201E
330
2
100
AcDbEntity
  8
0
100
AcDbCircle
 10
259.6524670649727
 20
197.8283371401341
 30
0.0
 40
4.307179676972509
  0
ARC
  5
201F
330
2
100
AcDbEntity
  8
0
100
AcDbCircle
 10
240.6524670649722
 20
130.8283371401341
 30
0.0
 40
15.0
100
AcDbArc
 50
270.0
 51
0.0
  0
CIRCLE
  5
2020
330
2
100
AcDbEntity
  8
0
100
AcDbCircle
 10
135.1524670649727
 20
125.3283371401341
 30
0.0
 40
5.000000000000113
  0
ARC
  5
2021
330
2
100
AcDbEntity
  8
0
100
AcDbCircle
 10
123.6524670649727
 20
127.8283371401341
 30
0.0
 40
5.0
100
AcDbArc
 50
0.0
 51
90.0
  0
LINE
  5
2022
330
2
100
AcDbEntity
  8
CENTER
100
AcDbLine
 10
146.6524670649763
 20
116.7255114953607
 30
0.0
 11
146.6524670649763
 21
130.4688357924699
 31
0.0
  0
ARC
  5
2023
330
2
100
AcDbEntity
  8
0
100
AcDbCircle
 10
135.1524670649736
 20
125.3283371401341
 30
0.0
 40
7.0
100
AcDbArc
 50
0.0
 51
90.0
  0
LINE
  5
2024
330
2
100
AcDbEntity
  8
CENTER
100
AcDbLine
 10
135.1524670649718
 20
116.5783371401341
 30
0.0
 11
135.1524670649727
 21
134.0783371401341
 31
0.0
  0
LINE
  5
2025
330
2
100
AcDbEntity
  8
0
100
AcDbLine
 10
128.6524670649736
 20
184.8283371401341
 30
0.0
 11
128.6524670649736
 21
124.8283371401341
 31
0.0
  0
LINE
  5
2026
330
2
100
AcDbEntity
  8
0
100
AcDbLine
 10
165.6524670649763
 20
111.8283371401341
 30
0.0
 11
165.6524670649763
 21
197.8283371401341
 31
0.0
  0
CIRCLE
  5
2027
330
2
100
AcDbEntity
  8
0
100
AcDbCircle
 10
216.6524670649727
 20
154.8283371401341
 30
0.0
 40
26.57735026918791
  0
CIRCLE
  5
2028
330
2
100
AcDbEntity
  8
0
100
AcDbCircle
 10
216.6524670649727
 20
154.8283371401341
 30
0.0
 40
32.42260000000154
  0
CIRCLE
  5
2029
330
2
100
AcDbEntity
  8
0
100
AcDbCircle
 10
216.6524670649727
 20
154.8283371401341
 30
0.0
 40
35.50000000000153
  0
CIRCLE
  5
202A
330
2
100
AcDbEntity
  8
0
100
AcDbCircle
 10
216.6524670649727
 20
154.8283371401341
 30
0.0
 40
35.00000000000153
  0
CIRCLE
  5
202B
330
2
100
AcDbEntity
  8
0
100
AcDbCircle
 10
216.6524670649727
 20
154.8283371401341
 30
0.0
 40
33.00000000000153
  0
CIRCLE
  5
202C
330
2
100
AcDbEntity
  8
0
100
AcDbCircle
 10
216.6524670649727
 20
154.8283371401341
 30
0.0
 40
26.0
  0
ARC
  5
202D
330
2
100
AcDbEntity
  8
0
100
AcDbCircle
 10
192.6524670649727
 20
130.8283371401341
 30
0.0
 40
15.0
100
AcDbArc
 50
180.0
 51
270.0
  0
ARC
  5
202E
330
2
100
AcDbEntity
  8
0
100
AcDbCircle
 10
192.6524670649727
 20
130.8283371401341
 30
0.0
 40
17.0
100
AcDbArc
 50
180.0
 51
270.0
  0
ARC
  5
202F
330
2
100
AcDbEntity
  8
0
100
AcDbCircle
 10
240.6524670649726
 20
130.8283371401341
 30
0.0
 40
17.0
100
AcDbArc
 50
270.0
 51
0.0
  0
ARC
  5
2030
330
2
100
AcDbEntity
  8
0
100
AcDbCircle
 10
189.950338134647
 20
45.20313281814947
 30
0.0
 40
60.0
100
AcDbArc
 50
84.10530161364862
 51
101.8050678104414
  0
LINE
  5
2031
330
2
100
AcDbEntity
  8
0
100
AcDbLine
 10
134.6524670649736
 20
118.8283371401341
 30
0.0
 11
159.6524670649763
 21
118.8283371401341
 31
0.0
  0
LINE
  5
2032
330
2
100
AcDbEntity
  8
CENTER
100
AcDbLine
 10
126.4024670649727
 20
125.328337140136
 30
0.0
 11
143.9024670649727
 21
125.3283371401341
 31
0.0
  0
ARC
  5
2033
330
2
100
AcDbEntity
  8
0
100
AcDbCircle
 10
134.6524670649736
 20
124.8283371401341
 30
0.0
 40
6.0
100
AcDbArc
 50
180.0
 51
270.0
  0
CIRCLE
  5
2034
330
2
100
AcDbEntity
  8
0
100
AcDbCircle
 10
135.1524670649727
 20
125.3283371401341
 30
0.0
 40
4.307179676972509
  0
ARC
  5
2035
330
2
100
AcDbEntity
  8
0
100
AcDbCircle
 10
126.6524670649727
 20
126.8283371401341
 30
0.0
 40
2.0
100
AcDbArc
 50
0.0
 51
90.0
  0
LINE
  5
2036
330
2
100
AcDbEntity
  8
0
100
AcDbLine
 10
137.6524670649727
 20
126.7717128131082
 30
0.0
 11
135.1524670649727
 21
128.2150884860823
 31
0.0
  0
LINE
  5
2037
330
2
100
AcDbEntity
  8
0
100
AcDbLine
 10
132.6524670649727
 20
126.7717128131082
 30
0.0
 11
132.6524670649727
 21
123.8849614671601
 31
0.0
  0
LINE
  5
2038
330
2
100
AcDbEntity
  8
0
100
AcDbLine
 10
132.6524670649727
 20
126.7717128131082
 30
0.0
 11
135.1524670649727
 21
128.2150884860823
 31
0.0
  0
LINE
  5
2039
330
2
100
AcDbEntity
  8
0
100
AcDbLine
 10
137.6524670649727
 20
126.7717128131082
 30
0.0
 11
137.6524670649727
 21
123.8849614671601
 31
0.0
  0
ARC
  5
203A
330
2
100
AcDbEntity
  8
0
100
AcDbCircle
 10
144.1524670649736
 20
120.8283371401341
 30
0.0
 40
2.0
100
AcDbArc
 50
180.0
 51
270.0
  0
LINE
  5
203B
330
2
100
AcDbEntity
  8
0
100
AcDbLine
 10
142.1524670649736
 20
125.3283371401341
 30
0.0
 11
142.1524670649736
 21
120.8283371401341
 31
0.0
  0
LINE
  5
203C
330
2
100
AcDbEntity
  8
0
100
AcDbLine
 10
135.1524670649722
 20
122.441585794186
 30
0.0
 11
137.6524670649727
 21
123.8849614671601
 31
0.0
  0
LINE
  5
203D
330
2
100
AcDbEntity
  8
0
100
AcDbLine
 10
135.1524670649722
 20
122.441585794186
 30
0.0
 11
132.6524670649727
 21
123.8849614671601
 31
0.0
  0
LINE
  5
203E
330
2
100
AcDbEntity
  8
CENTER
100
AcDbLine
 10
141.4792619842195
 20
123.3283371401341
 30
0.0
 11
153.0791790031602
 21
123.3283371401341
 31
0.0
  0
CIRCLE
  5
203F
330
2
100
AcDbEntity
  8
HOJO
100
AcDbCircle
 10
146.6524670649745
 20
123.3283371401323
 30
0.0
 40
2.0
  0
CIRCLE
  5
2040
330
2
100
AcDbEntity
  8
0
100
AcDbCircle
 10
146.6524670649763
 20
123.3283371401341
 30
0.0
 40
3.25
  0
CIRCLE
  5
2041
330
2
100
AcDbEntity
  8
0
100
AcDbCircle
 10
146.6524670649763
 20
123.3283371401341
 30
0.0
 40
2.75
  0
CIRCLE
  5
2042
330
2
100
AcDbEntity
  8
0
100
AcDbCircle
 10
146.6524670649763
 20
123.3283371401341
 30
0.0
 40
1.6
  0
ARC
  5
2043
330
2
100
AcDbEntity
  8
0
100
AcDbCircle
 10
159.6524670649763
 20
112.8283371401341
 30
0.0
 40
6.0
100
AcDbArc
 50
0.0
 51
90.0
  0
LINE
  5
2044
330
2
100
AcDbEntity
  8
0
100
AcDbLine
 10
182.0458653471745
 20
120.221735422336
 30
0.0
 11
180.6316517848012
 21
118.8075218599626
 31
0.0
  0
ARC
  5
2045
330
2
100
AcDbEntity
  8
0
100
AcDbCircle
 10
176.6524670649727
 20
108.8283371401341
 30
0.0
 40
5.0
100
AcDbArc
 50
269.9999999999478
 51
281.8050678104415
  0
LINE
  5
2046
330
2
100
AcDbEntity
  8
0
100
AcDbLine
 10
173.6524670649699
 20
103.8283371401341
 30
0.0
 11
176.6524670649727
 21
103.8283371401341
 31
0.0
  0
ARC
  5
2047
330
2
100
AcDbEntity
  8
0
100
AcDbCircle
 10
173.652467064969
 20
111.8283371401341
 30
0.0
 40
8.0
100
AcDbArc
 50
180.0
 51
270.0
  0
LINE
  5
2048
330
2
100
AcDbEntity
  8
0
100
AcDbLine
 10
240.6524670649722
 20
115.8283371401341
 30
0.0
 11
192.6524670649727
 21
115.8283371401341
 31
0.0
  0
LINE
  5
2049
330
2
100
AcDbEntity
  8
0
100
AcDbLine
 10
240.6524670649726
 20
113.8283371401341
 30
0.0
 11
192.6524670649727
 21
113.8283371401341
 31
0.0
  0
ARC
  5
204A
330
2
100
AcDbEntity
  8
0
100
AcDbCircle
 10
216.6524670649727
 20
303.8283371401341
 30
0.0
 40
200.0
100
AcDbArc
 50
264.1053016136486
 51
275.8946983863513
  0
ARC
  5
204B
330
2
100
AcDbEntity
  8
0
100
AcDbCircle
 10
259.6524670649718
 20
111.8283371401341
 30
0.0
 40
7.0
100
AcDbArc
 50
89.99999999994789
 51
180.0
  0
LINE
  5
204C
330
2
100
AcDbEntity
  8
0
100
AcDbLine
 10
257.1524670649772
 20
113.2717128131082
 30
0.0
 11
259.6524670649772
 21
114.7150884860823
 31
0.0
  0
LINE
  5
204D
330
2
100
AcDbEntity
  8
0
100
AcDbLine
 10
251.2590687827704
 20
120.221735422336
 30
0.0
 11
252.6732823451433
 21
118.8075218599626
 31
0.0
  0
LINE
  5
204E
330
2
100
AcDbEntity
  8
CENTER
100
AcDbLine
 10
261.6524670649736
 20
127.7030795455268
 30
0.0
 11
261.6524670649736
 21
118.9535947347433
 31
0.0
  0
ARC
  5
204F
330
2
100
AcDbEntity
  8
0
100
AcDbCircle
 10
243.3545959952974
 20
45.20313281814947
 30
0.0
 40
60.0
100
AcDbArc
 50
78.19493218955852
 51
95.89469838635137
  0
LINE
  5
2050
330
2
100
AcDbEntity
  8
0
100
AcDbLine
 10
259.6524670649768
 20
108.941585794186
 30
0.0
 11
257.1524670649772
 21
110.3849614671601
 31
0.0
  0
LINE
  5
2051
330
2
100
AcDbEntity
  8
0
100
AcDbLine
 10
259.6524670649727
 20
103.8283371401341
 30
0.0
 11
256.6524670649727
 21
103.8283371401341
 31
0.0
  0
ARC
  5
2052
330
2
100
AcDbEntity
  8
0
100
AcDbCircle
 10
256.6524670649727
 20
108.8283371401341
 30
0.0
 40
5.0
100
AcDbArc
 50
258.1949321895585
 51
270.0
  0
ARC
  5
2053
330
2
100
AcDbEntity
  8
0
100
AcDbCircle
 10
250.6524670649713
 20
106.7721272703131
 30
0.0
 40
2.0
100
AcDbArc
 50
263.2401800668832
 51
0.0
  0
LINE
  5
2054
330
2
100
AcDbEntity
  8
0
100
AcDbLine
 10
257.1524670649772
 20
113.2717128131082
 30
0.0
 11
257.1524670649772
 21
110.3849614671601
 31
0.0
  0
LINE
  5
2055
330
2
100
AcDbEntity
  8
0
100
AcDbLine
 10
252.6524670649713
 20
111.8283371401341
 30
0.0
 11
252.6524670649708
 21
106.7721272703131
 31
0.0
  0
LINE
  5
2056
330
2
100
AcDbEntity
  8
CENTER
100
AcDbLine
 10
259.6524670649777
 20
103.078337140136
 30
0.0
 11
259.6524670649763
 21
120.5783371401359
 31
0.0
  0
ARC
  5
2057
330
2
100
AcDbEntity
  8
0
100
AcDbCircle
 10
189.9503381346479
 20
264.4535414621188
 30
0.0
 40
60.0
100
AcDbArc
 50
258.1949321895585
 51
275.8946983863513
  0
ARC
  5
2058
330
2
100
AcDbEntity
  8
0
100
AcDbCircle
 10
192.6524670649727
 20
178.8283371401341
 30
0.0
 40
15.0
100
AcDbArc
 50
90.0
 51
180.0
  0
ARC
  5
2059
330
2
100
AcDbEntity
  8
0
100
AcDbCircle
 10
192.6524670649727
 20
178.8283371401341
 30
0.0
 40
17.0
100
AcDbArc
 50
90.0
 51
180.0
  0
LINE
  5
205A
330
2
100
AcDbEntity
  8
0
100
AcDbLine
 10
177.6524670649727
 20
130.8283371401341
 30
0.0
 11
177.6524670649727
 21
178.8283371401341
 31
0.0
  0
LINE
  5
205B
330
2
100
AcDbEntity
  8
0
100
AcDbLine
 10
175.6524670649727
 20
130.8283371401341
 30
0.0
 11
175.6524670649727
 21
178.8283371401341
 31
0.0
  0
ARC
  5
205C
330
2
100
AcDbEntity
  8
0
100
AcDbCircle
 10
125.6524670649736
 20
160.3283371401341
 30
0.0
 40
3.0
100
AcDbArc
 50
270.0
 51
0.0
  0
LINE
  5
205D
330
2
100
AcDbEntity
  8
0
100
AcDbLine
 10
135.1524670649736
 20
132.3283371401341
 30
0.0
 11
130.6524670649736
 21
132.3283371401341
 31
0.0
  0
ARC
  5
205E
330
2
100
AcDbEntity
  8
0
100
AcDbCircle
 10
130.6524670649736
 20
134.3283371401341
 30
0.0
 40
2.0
100
AcDbArc
 50
180.0
 51
270.0
  0
ARC
  5
205F
330
2
100
AcDbEntity
  8
0
100
AcDbCircle
 10
125.6524670649736
 20
149.3283371401341
 30
0.0
 40
3.0
100
AcDbArc
 50
0.0
 51
90.0
  0
LINE
  5
2060
330
2
100
AcDbEntity
  8
0
100
AcDbLine
 10
134.6524670649736
 20
190.8283371401341
 30
0.0
 11
159.6524670649763
 21
190.8283371401341
 31
0.0
  0
LINE
  5
2061
330
2
100
AcDbEntity
  8
CENTER
100
AcDbLine
 10
126.4024670649727
 20
184.3283371401341
 30
0.0
 11
143.9024670649727
 21
184.3283371401341
 31
0.0
  0
CIRCLE
  5
2062
330
2
100
AcDbEntity
  8
0
100
AcDbCircle
 10
135.1524670649727
 20
184.3283371401341
 30
0.0
 40
5.000000000000113
  0
CIRCLE
  5
2063
330
2
100
AcDbEntity
  8
0
100
AcDbCircle
 10
135.1524670649727
 20
184.3283371401341
 30
0.0
 40
4.307179676972509
  0
ARC
  5
2064
330
2
100
AcDbEntity
  8
0
100
AcDbCircle
 10
134.6524670649736
 20
184.8283371401341
 30
0.0
 40
6.0
100
AcDbArc
 50
90.0
 51
180.0
  0
LINE
  5
2065
330
2
100
AcDbEntity
  8
0
100
AcDbLine
 10
135.1524670649727
 20
177.3283371401341
 30
0.0
 11
130.6524670649731
 21
177.3283371401341
 31
0.0
  0
ARC
  5
2066
330
2
100
AcDbEntity
  8
0
100
AcDbCircle
 10
126.6524670649727
 20
182.8283371401341
 30
0.0
 40
2.0
100
AcDbArc
 50
270.0
 51
0.0
  0
ARC
  5
2067
330
2
100
AcDbEntity
  8
0
100
AcDbCircle
 10
130.6524670649736
 20
175.3283371401341
 30
0.0
 40
2.0
100
AcDbArc
 50
90.0
 51
180.0
  0
ARC
  5
2068
330
2
100
AcDbEntity
  8
0
100
AcDbCircle
 10
123.6524670649727
 20
181.8283371401341
 30
0.0
 40
5.0
100
AcDbArc
 50
270.0
 51
0.0
  0
LINE
  5
2069
330
2
100
AcDbEntity
  8
CENTER
100
AcDbLine
 10
146.6524670649727
 20
191.5015422208909
 30
0.0
 11
146.6524670649727
 21
181.1551320593773
 31
0.0
  0
ARC
  5
206A
330
2
100
AcDbEntity
  8
0
100
AcDbCircle
 10
135.1524670649727
 20
184.3283371401341
 30
0.0
 40
7.0
100
AcDbArc
 50
270.0
 51
0.0
  0
LINE
  5
206B
330
2
100
AcDbEntity
  8
0
100
AcDbLine
 10
135.1524670649722
 20
181.441585794186
 30
0.0
 11
137.6524670649727
 21
182.8849614671601
 31
0.0
  0
LINE
  5
206C
330
2
100
AcDbEntity
  8
0
100
AcDbLine
 10
137.6524670649727
 20
185.7717128131082
 30
0.0
 11
135.1524670649727
 21
187.2150884860823
 31
0.0
  0
LINE
  5
206D
330
2
100
AcDbEntity
  8
CENTER
100
AcDbLine
 10
135.1524670649718
 20
193.0783371401341
 30
0.0
 11
135.1524670649727
 21
175.5783371401341
 31
0.0
  0
LINE
  5
206E
330
2
100
AcDbEntity
  8
0
100
AcDbLine
 10
132.6524670649727
 20
185.7717128131082
 30
0.0
 11
132.6524670649727
 21
182.8849614671601
 31
0.0
  0
LINE
  5
206F
330
2
100
AcDbEntity
  8
0
100
AcDbLine
 10
135.1524670649722
 20
181.441585794186
 30
0.0
 11
132.6524670649727
 21
182.8849614671601
 31
0.0
  0
LINE
  5
2070
330
2
100
AcDbEntity
  8
0
100
AcDbLine
 10
132.6524670649727
 20
185.7717128131082
 30
0.0
 11
135.1524670649727
 21
187.2150884860823
 31
0.0
  0
LINE
  5
2071
330
2
100
AcDbEntity
  8
0
100
AcDbLine
 10
142.1524670649727
 20
184.3283371401341
 30
0.0
 11
142.1524670649717
 21
188.8283371401341
 31
0.0
  0
ARC
  5
2072
330
2
100
AcDbEntity
  8
0
100
AcDbCircle
 10
144.1524670649718
 20
188.8283371401341
 30
0.0
 40
2.0
100
AcDbArc
 50
90.0
 51
180.0
  0
LINE
  5
2073
330
2
100
AcDbEntity
  8
0
100
AcDbLine
 10
137.6524670649727
 20
185.7717128131082
 30
0.0
 11
137.6524670649727
 21
182.8849614671601
 31
0.0
  0
CIRCLE
  5
2074
330
2
100
AcDbEntity
  8
HOJO
100
AcDbCircle
 10
146.6524670649727
 20
186.3283371401341
 30
0.0
 40
2.0
  0
LINE
  5
2075
330
2
100
AcDbEntity
  8
CENTER
100
AcDbLine
 10
141.4792619842159
 20
186.3283371401341
 30
0.0
 11
151.8256721457295
 21
186.3283371401341
 31
0.0
  0
CIRCLE
  5
2076
330
2
100
AcDbEntity
  8
0
100
AcDbCircle
 10
146.6524670649727
 20
186.3283371401341
 30
0.0
 40
2.5
  0
CIRCLE
  5
2077
330
2
100
AcDbEntity
  8
0
100
AcDbCircle
 10
146.6524670649727
 20
186.3283371401341
 30
0.0
 40
1.6
  0
CIRCLE
  5
2078
330
2
100
AcDbEntity
  8
0
100
AcDbCircle
 10
146.6524670649727
 20
186.3283371401341
 30
0.0
 40
3.0
  0
ARC
  5
2079
330
2
100
AcDbEntity
  8
0
100
AcDbCircle
 10
176.6524670649727
 20
200.8283371401341
 30
0.0
 40
5.0
100
AcDbArc
 50
78.19493218955852
 51
90.0
  0
LINE
  5
207A
330
2
100
AcDbEntity
  8
0
100
AcDbLine
 10
176.6524670649727
 20
205.8283371401341
 30
0.0
 11
173.6524670649763
 21
205.8283371401341
 31
0.0
  0
ARC
  5
207B
330
2
100
AcDbEntity
  8
0
100
AcDbCircle
 10
159.6524670649763
 20
196.8283371401341
 30
0.0
 40
6.0
100
AcDbArc
 50
270.0
 51
0.0
  0
LINE
  5
207C
330
2
100
AcDbEntity
  8
0
100
AcDbLine
 10
182.0458653471745
 20
189.4349388579323
 30
0.0
 11
180.6316517848012
 21
190.8491524203057
 31
0.0
  0
ARC
  5
207D
330
2
100
AcDbEntity
  8
0
100
AcDbCircle
 10
173.6524670649763
 20
197.8283371401341
 30
0.0
 40
8.0
100
AcDbArc
 50
90.0
 51
180.0
  0
LINE
  5
207E
330
2
100
AcDbEntity
  8
0
100
AcDbLine
 10
255.6524670649722
 20
130.8283371401341
 30
0.0
 11
255.6524670649727
 21
178.8283371401341
 31
0.0
  0
LINE
  5
207F
330
2
100
AcDbEntity
  8
0
100
AcDbLine
 10
257.6524670649727
 20
130.8283371401341
 30
0.0
 11
257.6524670649727
 21
178.8283371401341
 31
0.0
  0
ARC
  5
2080
330
2
100
AcDbEntity
  8
0
100
AcDbCircle
 10
216.6524670649727
 20
5.828337140134181
 30
0.0
 40
200.0
100
AcDbArc
 50
84.10530161364862
 51
95.89469838635137
  0
LINE
  5
2081
330
2
100
AcDbEntity
  8
0
100
AcDbLine
 10
240.6524670649726
 20
193.8283371401341
 30
0.0
 11
192.6524670649727
 21
193.8283371401341
 31
0.0
  0
LINE
  5
2082
330
2
100
AcDbEntity
  8
0
100
AcDbLine
 10
240.6524670649726
 20
195.8283371401341
 30
0.0
 11
192.6524670649727
 21
195.8283371401341
 31
0.0
  0
ARC
  5
2083
330
2
100
AcDbEntity
  8
0
100
AcDbCircle
 10
243.3545959952983
 20
264.4535414621188
 30
0.0
 40
60.0
100
AcDbArc
 50
264.1053016136486
 51
281.8050678104415
  0
LINE
  5
2084
330
2
100
AcDbEntity
  8
0
100
AcDbLine
 10
259.6524670649722
 20
205.8283371401341
 30
0.0
 11
256.6524670649727
 21
205.8283371401341
 31
0.0
  0
LINE
  5
2085
330
2
100
AcDbEntity
  8
0
100
AcDbLine
 10
257.1524670649727
 20
199.2717128131082
 30
0.0
 11
259.6524670649727
 21
200.7150884860823
 31
0.0
  0
ARC
  5
2086
330
2
100
AcDbEntity
  8
0
100
AcDbCircle
 10
256.6524670649727
 20
200.8283371401341
 30
0.0
 40
5.0
100
AcDbArc
 50
89.99999999994789
 51
101.8050678104414
  0
ARC
  5
2087
330
2
100
AcDbEntity
  8
0
100
AcDbCircle
 10
250.6524670649727
 20
202.884547009957
 30
0.0
 40
2.0
100
AcDbArc
 50
0.0
 51
96.7598199331168
  0
LINE
  5
2088
330
2
100
AcDbEntity
  8
0
100
AcDbLine
 10
259.6524670649727
 20
194.941585794186
 30
0.0
 11
257.1524670649727
 21
196.3849614671601
 31
0.0
  0
ARC
  5
2089
330
2
100
AcDbEntity
  8
0
100
AcDbCircle
 10
259.6524670649727
 20
197.8283371401341
 30
0.0
 40
7.0
100
AcDbArc
 50
180.0
 51
270.0
  0
LINE
  5
208A
330
2
100
AcDbEntity
  8
0
100
AcDbLine
 10
252.6732823451433
 20
190.8491524203057
 30
0.0
 11
251.2590687827708
 21
189.4349388579323
 31
0.0
  0
ARC
  5
208B
330
2
100
AcDbEntity
  8
0
100
AcDbCircle
 10
240.6524670649726
 20
178.8283371401341
 30
0.0
 40
15.0
100
AcDbArc
 50
0.0
 51
90.0
  0
LINE
  5
208C
330
2
100
AcDbEntity
  8
CENTER
100
AcDbLine
 10
261.6524670649727
 20
190.4242795277007
 30
0.0
 11
261.6524670649727
 21
182.2323947525676
 31
0.0
  0
LINE
  5
208D
330
2
100
AcDbEntity
  8
0
100
AcDbLine
 10
252.6524670649727
 20
197.8283371401341
 30
0.0
 11
252.6524670649727
 21
202.884547009957
 31
0.0
  0
LINE
  5
208E
330
2
100
AcDbEntity
  8
0
100
AcDbLine
 10
257.1524670649727
 20
199.2717128131082
 30
0.0
 11
257.1524670649727
 21
196.3849614671601
 31
0.0
  0
ARC
  5
208F
330
2
100
AcDbEntity
  8
0
100
AcDbCircle
 10
240.6524670649726
 20
178.8283371401341
 30
0.0
 40
17.0
100
AcDbArc
 50
0.0
 51
90.0
  0
LINE
  5
2090
330
2
100
AcDbEntity
  8
CENTER
100
AcDbLine
 10
259.6524670649777
 20
206.5783371401341
 30
0.0
 11
259.6524670649763
 21
189.0783371401341
 31
0.0
  0
LINE
  5
2091
330
2
100
AcDbEntity
  8
0
100
AcDbLine
 10
366.1611179538458
 20
121.8283371401341
 30
0.0
 11
366.1611179538404
 21
187.8283371401341
 31
0.0
  0
LINE
  5
2092
330
2
100
AcDbEntity
  8
0
100
AcDbLine
 10
362.461117953846
 20
121.8283371401341
 30
0.0
 11
362.4611179538405
 21
187.8283371401341
 31
0.0
  0
LINE
  5
2093
330
2
100
AcDbEntity
  8
0
100
AcDbLine
 10
363.9611179538451
 20
122.0283371401349
 30
0.0
 11
363.9611179538451
 21
187.6283371401352
 31
0.0
  0
LINE
  5
2094
330
2
100
AcDbEntity
  8
0
100
AcDbLine
 10
369.9611179538469
 20
116.6567642648735
 30
0.0
 11
369.9611179538405
 21
190.3283371401341
 31
0.0
  0
LINE
  5
2095
330
2
100
AcDbEntity
  8
0
100
AcDbLine
 10
365.9611179538451
 20
122.0283371401349
 30
0.0
 11
365.9611179538451
 21
187.6283371401389
 31
0.0
  0
LINE
  5
2096
330
2
100
AcDbEntity
  8
0
100
AcDbLine
 10
369.461117953846
 20
119.8283371401341
 30
0.0
 11
369.4611179538378
 21
189.8283371401305
 31
0.0
  0
LINE
  5
2097
330
2
100
AcDbEntity
  8
0
100
AcDbLine
 10
361.4611179538405
 20
122.405687409326
 30
0.0
 11
361.4611179538405
 21
187.2509868709441
 31
0.0
  0
ARC
  5
2099
330
2
100
AcDbEntity
  8
0
100
AcDbCircle
 10
326.2776713869565
 20
128.1262082098094
 30
0.0
 40
60.0
100
AcDbArc
 50
174.1053016136486
 51
191.8050678104415
  0
LINE
  5
209A
330
2
100
AcDbEntity
  8
0
100
AcDbLine
 10
371.9611179538378
 20
105.9462260120819
 30
0.0
 11
371.9611179538405
 21
203.7104482681864
 31
0.0
  0
LINE
  5
209B
330
2
100
AcDbEntity
  8
0
100
AcDbLine
 10
267.6524670649726
 20
111.8283371401341
 30
0.0
 11
267.6524670649726
 21
114.8283371401323
 31
0.0
  0
ARC
  5
209C
330
2
100
AcDbEntity
  8
0
100
AcDbCircle
 10
262.6524670649718
 20
114.8283371401341
 30
0.0
 40
5.0
100
AcDbArc
 50
0.0
 51
11.80506781044149
  0
ARC
  5
209D
330
2
100
AcDbEntity
  8
0
100
AcDbCircle
 10
264.7086769347946
 20
120.8283371401341
 30
0.0
 40
2.0
100
AcDbArc
 50
269.9999999999478
 51
6.759819933116788
  0
LINE
  5
209E
330
2
100
AcDbEntity
  8
0
100
AcDbLine
 10
262.1524670649772
 20
113.2717128131082
 30
0.0
 11
262.1524670649772
 21
110.3849614671601
 31
0.0
  0
LINE
  5
209F
330
2
100
AcDbEntity
  8
0
100
AcDbLine
 10
372.8611179539166
 20
116.8283371401341
 30
0.0
 11
372.461117953917
 21
116.1355168171069
 31
0.0
  0
ARC
  5
20A0
330
2
100
AcDbEntity
  8
0
100
AcDbCircle
 10
365.7611179538453
 20
122.3283371401341
 30
0.0
 40
0.2
100
AcDbArc
 50
0.0
 51
90.0
  0
ARC
  5
20A1
330
2
100
AcDbEntity
  8
0
100
AcDbCircle
 10
364.1611179538458
 20
122.3283371401341
 30
0.0
 40
0.2
100
AcDbArc
 50
90.0
 51
180.0
  0
ARC
  5
20A2
330
2
100
AcDbEntity
  8
0
100
AcDbCircle
 10
363.7611179538453
 20
122.0283371401349
 30
0.0
 40
0.2
100
AcDbArc
 50
270.0
 51
0.0
  0
ARC
  5
20A3
330
2
100
AcDbEntity
  8
0
100
AcDbCircle
 10
369.9611179538405
 20
112.9999100153875
 30
0.0
 40
2.0
100
AcDbArc
 50
0.0
 51
44.99999999999078
  0
ARC
  5
20A4
330
2
100
AcDbEntity
  8
0
100
AcDbCircle
 10
371.9611179538469
 20
116.6567642648753
 30
0.0
 40
2.0
100
AcDbArc
 50
180.0
 51
224.9999999999908
  0
LINE
  5
20A5
330
2
100
AcDbEntity
  8
0
100
AcDbLine
 10
364.1611179538458
 20
122.5283371401349
 30
0.0
 11
365.7611179538453
 21
122.5283371401349
 31
0.0
  0
LINE
  5
20A6
330
2
100
AcDbEntity
  8
0
100
AcDbLine
 10
362.4611179538451
 20
121.8283371401341
 30
0.0
 11
363.7611179538453
 21
121.8283371401341
 31
0.0
  0
LINE
  5
20A7
330
2
100
AcDbEntity
  8
0
100
AcDbLine
 10
362.461117953846
 20
121.8283371401341
 30
0.0
 11
361.4611179538451
 21
122.4056874093241
 31
0.0
  0
LINE
  5
20A8
330
2
100
AcDbEntity
  8
0
100
AcDbLine
 10
369.461117953846
 20
119.8283371401341
 30
0.0
 11
369.961117953846
 21
119.3283371401359
 31
0.0
  0
LINE
  5
20A9
330
2
100
AcDbEntity
  8
0
100
AcDbLine
 10
366.1611179538458
 20
121.8283371401341
 30
0.0
 11
369.461117953846
 21
121.8283371401341
 31
0.0
  0
LINE
  5
20AA
330
2
100
AcDbEntity
  8
0
100
AcDbLine
 10
365.9611179538451
 20
122.0283371401349
 30
0.0
 11
366.1611179538458
 21
121.8283371401341
 31
0.0
  0
LINE
  5
20AB
330
2
100
AcDbEntity
  8
0
100
AcDbLine
 10
371.3753315162139
 20
114.4141235777608
 30
0.0
 11
370.5469043914736
 21
115.242550702502
 31
0.0
  0
ARC
  5
20AC
330
2
100
AcDbEntity
  8
0
100
AcDbCircle
 10
373.9611179538378
 20
120.8807745036522
 30
0.0
 40
2.0
100
AcDbArc
 50
180.0
 51
269.4999999999823
  0
ARC
  5
20AD
330
2
100
AcDbEntity
  8
0
100
AcDbCircle
 10
373.9611179538378
 20
105.9462260120819
 30
0.0
 40
2.0
100
AcDbArc
 50
180.0
 51
269.4999999999823
  0
LINE
  5
20AE
330
2
100
AcDbEntity
  8
0
100
AcDbLine
 10
372.8611179539166
 20
106.8283371401341
 30
0.0
 11
372.461117953917
 21
107.5211574631614
 31
0.0
  0
LINE
  5
20AF
330
2
100
AcDbEntity
  8
0
100
AcDbLine
 10
372.461117953917
 20
107.5211574631614
 30
0.0
 11
372.461117953917
 21
116.1355168171069
 31
0.0
  0
LINE
  5
20B0
330
2
100
AcDbEntity
  8
0
100
AcDbLine
 10
372.8611179539166
 20
106.8283371401341
 30
0.0
 11
372.8611179539166
 21
116.8283371401341
 31
0.0
  0
ARC
  5
20B1
330
2
100
AcDbEntity
  8
0
100
AcDbCircle
 10
67.65246706497271
 20
154.8283371401341
 30
0.0
 40
200.0
100
AcDbArc
 50
354.1053016136486
 51
5.894698386351389
  0
ARC
  5
20B2
330
2
100
AcDbEntity
  8
0
100
AcDbCircle
 10
262.6524670649718
 20
194.8283371401341
 30
0.0
 40
5.0
100
AcDbArc
 50
348.1949321895584
 51
0.0
  0
LINE
  5
20B3
330
2
100
AcDbEntity
  8
0
100
AcDbLine
 10
267.6524670649726
 20
194.8283371401323
 30
0.0
 11
267.6524670649726
 21
197.8283371401341
 31
0.0
  0
ARC
  5
20B4
330
2
100
AcDbEntity
  8
0
100
AcDbCircle
 10
264.7086769347946
 20
188.8283371401341
 30
0.0
 40
2.0
100
AcDbArc
 50
353.2401800668832
 51
90.0
  0
ARC
  5
20B5
330
2
100
AcDbEntity
  8
0
100
AcDbCircle
 10
326.2776713869574
 20
181.5304660704589
 30
0.0
 40
60.0
100
AcDbArc
 50
168.1949321895585
 51
185.8946983863513
  0
LINE
  5
20B6
330
2
100
AcDbEntity
  8
0
100
AcDbLine
 10
262.1524670649727
 20
199.2717128131082
 30
0.0
 11
262.1524670649727
 21
196.3849614671601
 31
0.0
  0
ARC
  5
20B7
330
2
100
AcDbEntity
  8
0
100
AcDbCircle
 10
373.9611179538378
 20
203.7104482681864
 30
0.0
 40
2.0
100
AcDbArc
 50
90.50000000001762
 51
180.0
  0
LINE
  5
20B8
330
2
100
AcDbEntity
  8
0
100
AcDbLine
 10
372.8611179539166
 20
202.8283371401341
 30
0.0
 11
372.461117953917
 21
202.1355168171069
 31
0.0
  0
ARC
  5
20B9
330
2
100
AcDbEntity
  8
0
100
AcDbCircle
 10
371.9611179538414
 20
192.9999100153893
 30
0.0
 40
2.0
100
AcDbArc
 50
135.0000000000092
 51
180.0
  0
LINE
  5
20BA
330
2
100
AcDbEntity
  8
0
100
AcDbLine
 10
372.8611179539166
 20
192.8283371401341
 30
0.0
 11
372.461117953917
 21
193.5211574631614
 31
0.0
  0
ARC
  5
20BB
330
2
100
AcDbEntity
  8
0
100
AcDbCircle
 10
373.9611179538378
 20
188.7758997766161
 30
0.0
 40
2.0
100
AcDbArc
 50
90.50000000001762
 51
180.0
  0
ARC
  5
20BC
330
2
100
AcDbEntity
  8
0
100
AcDbCircle
 10
365.7611179538407
 20
187.3283371401342
 30
0.0
 40
0.2
100
AcDbArc
 50
270.0
 51
0.0
  0
ARC
  5
20BD
330
2
100
AcDbEntity
  8
0
100
AcDbCircle
 10
364.1611179538404
 20
187.3283371401342
 30
0.0
 40
0.2
100
AcDbArc
 50
180.0
 51
270.0
  0
ARC
  5
20BE
330
2
100
AcDbEntity
  8
0
100
AcDbCircle
 10
363.7611179538407
 20
187.6283371401352
 30
0.0
 40
0.2
100
AcDbArc
 50
0.0
 51
90.0
  0
LINE
  5
20BF
330
2
100
AcDbEntity
  8
0
100
AcDbLine
 10
364.1611179538404
 20
187.1283371401352
 30
0.0
 11
365.7611179538407
 21
187.1283371401352
 31
0.0
  0
LINE
  5
20C0
330
2
100
AcDbEntity
  8
0
100
AcDbLine
 10
362.4611179538405
 20
187.8283371401341
 30
0.0
 11
363.7611179538407
 21
187.8283371401341
 31
0.0
  0
LINE
  5
20C1
330
2
100
AcDbEntity
  8
0
100
AcDbLine
 10
362.4611179538405
 20
187.8283371401341
 30
0.0
 11
361.4611179538405
 21
187.2509868709441
 31
0.0
  0
LINE
  5
20C2
330
2
100
AcDbEntity
  8
0
100
AcDbLine
 10
366.1611179538404
 20
187.8283371401341
 30
0.0
 11
369.4611179538406
 21
187.8283371401341
 31
0.0
  0
LINE
  5
20C3
330
2
100
AcDbEntity
  8
0
100
AcDbLine
 10
369.9611179538415
 20
192.9999100153893
 30
0.0
 11
369.9611179538405
 21
190.3283371401341
 31
0.0
  0
LINE
  5
20C4
330
2
100
AcDbEntity
  8
0
100
AcDbLine
 10
369.4611179538406
 20
189.8283371401341
 30
0.0
 11
369.9611179538405
 21
190.3283371401341
 31
0.0
  0
LINE
  5
20C5
330
2
100
AcDbEntity
  8
0
100
AcDbLine
 10
365.9611179538405
 20
187.6283371401352
 30
0.0
 11
366.1611179538404
 21
187.8283371401341
 31
0.0
  0
ARC
  5
20C6
330
2
100
AcDbEntity
  8
0
100
AcDbCircle
 10
369.9611179538405
 20
196.6567642648808
 30
0.0
 40
2.0
100
AcDbArc
 50
315.0000000000092
 51
0.0
  0
LINE
  5
20C7
330
2
100
AcDbEntity
  8
0
100
AcDbLine
 10
371.3753315162139
 20
195.2425507025075
 30
0.0
 11
370.5469043914681
 21
194.4141235777608
 31
0.0
  0
LINE
  5
20C8
330
2
100
AcDbEntity
  8
0
100
AcDbLine
 10
372.461117953917
 20
202.1355168171069
 30
0.0
 11
372.461117953917
 21
193.5211574631614
 31
0.0
  0
LINE
  5
20C9
330
2
100
AcDbEntity
  8
0
100
AcDbLine
 10
372.8611179539166
 20
202.8283371401341
 30
0.0
 11
372.8611179539166
 21
192.8283371401341
 31
0.0
  0
LINE
  5
20CC
330
2
100
AcDbEntity
  8
0
100
AcDbLine
 10
472.461117953846
 20
186.8969595905202
 30
0.0
 11
472.4611179538469
 21
122.7597146897462
 31
0.0
  0
LINE
  5
20CD
330
2
100
AcDbEntity
  8
0
100
AcDbLine
 10
458.4611179538451
 20
109.8283371401341
 30
0.0
 11
458.4611179538391
 21
199.8283371401342
 31
0.0
  0
LINE
  5
20CE
330
2
100
AcDbEntity
  8
0
100
AcDbLine
 10
453.4611179538451
 20
104.404310414324
 30
0.0
 11
453.4611179538451
 21
205.2523638659442
 31
0.0
  0
LINE
  5
20CF
330
2
100
AcDbEntity
  8
0
100
AcDbLine
 10
387.461117953846
 20
103.8283371401341
 30
0.0
 11
387.461117953846
 21
205.8283371401341
 31
0.0
  0
LINE
  5
20D0
330
2
100
AcDbEntity
  8
0
100
AcDbLine
 10
387.4611179538437
 20
114.8283371401341
 30
0.0
 11
452.4611179538428
 21
114.8283371401341
 31
0.0
  0
LINE
  5
20D1
330
2
100
AcDbEntity
  8
0
100
AcDbLine
 10
387.461117953846
 20
111.828337140136
 30
0.0
 11
452.4611179538451
 21
111.828337140136
 31
0.0
  0
LINE
  5
20D2
330
2
100
AcDbEntity
  8
0
100
AcDbLine
 10
387.4611179538437
 20
114.8283371401341
 30
0.0
 11
452.4611179538428
 21
114.8283371401341
 31
0.0
  0
LINE
  5
20D3
330
2
100
AcDbEntity
  8
0
100
AcDbLine
 10
387.461117953846
 20
103.8283371401341
 30
0.0
 11
453.4611179538451
 21
104.404310414324
 31
0.0
  0
ARC
  5
20D4
330
2
100
AcDbEntity
  8
0
100
AcDbCircle
 10
378.961117953917
 20
117.8370259295409
 30
0.0
 40
1.0
100
AcDbArc
 50
0.0
 51
89.50000000003447
  0
LINE
  5
20D5
330
2
100
AcDbEntity
  8
0
100
AcDbLine
 10
380.9523914184183
 20
114.8283371401341
 30
0.0
 11
387.4611179538478
 21
114.8283371401341
 31
0.0
  0
LINE
  5
20D6
330
2
100
AcDbEntity
  8
0
100
AcDbLine
 10
380.9523914184183
 20
111.8283371401341
 30
0.0
 11
387.4611179538487
 21
111.8283371401341
 31
0.0
  0
ARC
  5
20D7
330
2
100
AcDbEntity
  8
0
100
AcDbCircle
 10
380.9611179539169
 20
104.8850998591608
 30
0.0
 40
1.0
100
AcDbArc
 50
180.0
 51
269.4999999999823
  0
LINE
  5
20D8
330
2
100
AcDbEntity
  8
0
100
AcDbLine
 10
379.9611179539169
 20
104.8850998591608
 30
0.0
 11
379.9611179539169
 21
117.8370259295409
 31
0.0
  0
LINE
  5
20D9
330
2
100
AcDbEntity
  8
0
100
AcDbLine
 10
379.9611179539169
 20
116.8283371401341
 30
0.0
 11
379.9611179539169
 21
106.8283371401341
 31
0.0
  0
LINE
  5
20DA
330
2
100
AcDbEntity
  8
0
100
AcDbLine
 10
378.4611179539165
 20
106.8283371401341
 30
0.0
 11
378.461117953916
 21
116.8283371401341
 31
0.0
  0
ARC
  5
20DB
330
2
100
AcDbEntity
  8
0
100
AcDbCircle
 10
460.4611179538465
 20
118.4080688176347
 30
0.0
 40
2.0
100
AcDbArc
 50
92.0000000000037
 51
180.0
  0
ARC
  5
20DC
330
2
100
AcDbEntity
  8
0
100
AcDbCircle
 10
470.4611179538469
 20
122.7597146897462
 30
0.0
 40
2.0
100
AcDbArc
 50
272.0000000000037
 51
0.0
  0
LINE
  5
20DD
330
2
100
AcDbEntity
  8
0
100
AcDbLine
 10
460.3913189604418
 20
120.4068504716726
 30
0.0
 11
470.5309169472516
 21
120.7609330357083
 31
0.0
  0
LINE
  5
20DE
330
2
100
AcDbEntity
  8
0
100
AcDbLine
 10
453.4611179538451
 20
109.8283371401341
 30
0.0
 11
458.4611179538451
 21
109.8283371401341
 31
0.0
  0
LINE
  5
20DF
330
2
100
AcDbEntity
  8
0
100
AcDbLine
 10
387.461117953846
 20
205.8283371401341
 30
0.0
 11
453.4611179538451
 21
205.2523638659442
 31
0.0
  0
LINE
  5
20E0
330
2
100
AcDbEntity
  8
0
100
AcDbLine
 10
387.461117953846
 20
175.3684363173054
 30
0.0
 11
452.4611179538451
 21
175.3684363173054
 31
0.0
  0
LINE
  5
20E1
330
2
100
AcDbEntity
  8
0
100
AcDbLine
 10
387.461117953846
 20
194.8283371401323
 30
0.0
 11
452.4611179538451
 21
194.8283371401323
 31
0.0
  0
LINE
  5
20E2
330
2
100
AcDbEntity
  8
0
100
AcDbLine
 10
387.461117953846
 20
197.8283371401341
 30
0.0
 11
452.4611179538451
 21
197.8283371401341
 31
0.0
  0
LINE
  5
20E3
330
2
100
AcDbEntity
  8
0
100
AcDbLine
 10
387.461117953846
 20
134.2882379629647
 30
0.0
 11
452.4611179538451
 21
134.2882379629647
 31
0.0
  0
ARC
  5
20E4
330
2
100
AcDbEntity
  8
0
100
AcDbCircle
 10
380.9611179539169
 20
204.7715744211075
 30
0.0
 40
1.0
100
AcDbArc
 50
90.50000000001762
 51
180.0
  0
ARC
  5
20E5
330
2
100
AcDbEntity
  8
0
100
AcDbCircle
 10
378.961117953917
 20
191.8196483507292
 30
0.0
 40
1.0
100
AcDbArc
 50
270.4999999999655
 51
0.0
  0
LINE
  5
20E6
330
2
100
AcDbEntity
  8
0
100
AcDbLine
 10
387.461117953846
 20
194.8283371401323
 30
0.0
 11
380.9523914184183
 21
194.8283371401323
 31
0.0
  0
LINE
  5
20E7
330
2
100
AcDbEntity
  8
0
100
AcDbLine
 10
387.461117953846
 20
197.8283371401341
 30
0.0
 11
380.9523914184183
 21
197.8283371401341
 31
0.0
  0
LINE
  5
20E8
330
2
100
AcDbEntity
  8
0
100
AcDbLine
 10
379.9611179539169
 20
192.8283371401341
 30
0.0
 11
379.9611179539169
 21
202.8283371401341
 31
0.0
  0
LINE
  5
20E9
330
2
100
AcDbEntity
  8
0
100
AcDbLine
 10
378.4611179539165
 20
202.8283371401341
 30
0.0
 11
378.461117953916
 21
192.8283371401341
 31
0.0
  0
LINE
  5
20EA
330
2
100
AcDbEntity
  8
0
100
AcDbLine
 10
379.9611179539169
 20
204.7715744211075
 30
0.0
 11
379.9611179539169
 21
191.8196483507292
 31
0.0
  0
LINE
  5
20FB
330
2
100
AcDbEntity
  8
0
100
AcDbLine
 10
453.4611179538451
 20
199.8283371401342
 30
0.0
 11
458.4611179538451
 21
199.8283371401342
 31
0.0
  0
ARC
  5
20FC
330
2
100
AcDbEntity
  8
0
100
AcDbCircle
 10
460.4611179538465
 20
191.2486054626335
 30
0.0
 40
2.0
100
AcDbArc
 50
180.0
 51
267.9999999999963
  0
ARC
  5
20FD
330
2
100
AcDbEntity
  8
0
100
AcDbCircle
 10
470.461117953846
 20
186.8969595905202
 30
0.0
 40
2.0
100
AcDbArc
 50
0.0
 51
87.99999999999627
  0
LINE
  5
20FE
330
2
100
AcDbEntity
  8
0
100
AcDbLine
 10
460.3913189604418
 20
189.2498238085938
 30
0.0
 11
470.5309169472512
 21
188.8957412445581
 31
0.0
  0
LINE
  5
2100
330
2
100
AcDbEntity
  8
CENTER
100
AcDbLine
 10
760.6335898757787
 20
229.8283371401341
 30
0.0
 11
760.6335898757787
 21
79.82833714013418
 31
0.0
  0
LINE
  5
2104
330
2
100
AcDbEntity
  8
0
100
AcDbLine
 10
842.6335898757773
 20
118.8283371401341
 30
0.0
 11
817.6335898757768
 21
118.8283371401341
 31
0.0
  0
LINE
  5
2105
330
2
100
AcDbEntity
  8
0
100
AcDbLine
 10
842.6335898757773
 20
190.8283371401341
 30
0.0
 11
817.6335898757814
 21
190.8283371401341
 31
0.0
  0
LINE
  5
2106
330
2
100
AcDbEntity
  8
0
100
AcDbLine
 10
811.6335898757819
 20
197.8283371401323
 30
0.0
 11
811.6335898757769
 21
111.8283371401323
 31
0.0
  0
ARC
  5
2107
330
2
100
AcDbEntity
  8
0
100
AcDbCircle
 10
651.0083855537913
 20
128.1262082098076
 30
0.0
 40
60.0
100
AcDbArc
 50
348.1949321895584
 51
5.894698386351389
  0
CIRCLE
  5
2108
330
2
100
AcDbEntity
  8
0
100
AcDbCircle
 10
760.6335898757787
 20
154.8283371401341
 30
0.0
 40
34.0
  0
CIRCLE
  5
2109
330
2
100
AcDbEntity
  8
0
100
AcDbCircle
 10
760.6335898757787
 20
154.8283371401341
 30
0.0
 40
26.0
  0
CIRCLE
  5
210A
330
2
100
AcDbEntity
  8
0
100
AcDbCircle
 10
760.6335898757787
 20
154.8283371401341
 30
0.0
 40
45.0
  0
LINE
  5
210B
330
2
100
AcDbEntity
  8
CENTER
100
AcDbLine
 10
704.9056678144205
 20
210.5562592014912
 30
0.0
 11
816.3615119371355
 21
99.10041507877735
 31
0.0
  0
LINE
  5
210C
330
2
100
AcDbEntity
  8
CENTER
100
AcDbLine
 10
816.3615119371382
 20
210.5562592014933
 30
0.0
 11
704.9056678144205
 21
99.10041507877691
 31
0.0
  0
CIRCLE
  5
210D
330
2
100
AcDbEntity
  8
CENTER
100
AcDbCircle
 10
760.6335898757778
 20
154.8283371401341
 30
0.0
 40
60.0
  0
ARC
  5
210E
330
2
100
AcDbEntity
  8
0
100
AcDbCircle
 10
764.1317463660306
 20
116.3312567335744
 30
0.0
 40
2.720000000003957
100
AcDbArc
 50
307.5189678668038
 51
90.0
  0
ARC
  5
2110
330
2
100
AcDbEntity
  8
0
100
AcDbCircle
 10
760.6335898757755
 20
303.8283371401323
 30
0.0
 40
200.0
100
AcDbArc
 50
264.1053016135961
 51
275.8946983863513
  0
LINE
  5
2111
330
2
100
AcDbEntity
  8
0
100
AcDbLine
 10
761.7518191260259
 20
115.9912567335725
 30
0.0
 11
764.8953593842133
 21
111.0512567335665
 31
0.0
  0
ARC
  5
2112
330
2
100
AcDbEntity
  8
0
100
AcDbCircle
 10
733.9314609454503
 20
45.20313281814765
 30
0.0
 40
60.0
100
AcDbArc
 50
84.10530161364862
 51
101.8050678104414
  0
LINE
  5
2113
330
2
100
AcDbEntity
  8
CENTER
100
AcDbLine
 10
726.2071830045851
 20
112.4019302689432
 30
0.0
 11
710.2071830045851
 21
112.4019302689432
 31
0.0
  0
LINE
  5
2114
330
2
100
AcDbEntity
  8
0
100
AcDbLine
 10
709.6335898757787
 20
114.8283371401323
 30
0.0
 11
709.6335898757787
 21
111.8283371401341
 31
0.0
  0
ARC
  5
2115
330
2
100
AcDbEntity
  8
0
100
AcDbCircle
 10
714.633589875776
 20
114.8283371401323
 30
0.0
 40
5.0
100
AcDbArc
 50
168.1949321895585
 51
180.0
  0
LINE
  5
2116
330
2
100
AcDbEntity
  8
0
100
AcDbLine
 10
717.6335898757787
 20
103.8283371401341
 30
0.0
 11
720.6335898757755
 21
103.8283371401341
 31
0.0
  0
ARC
  5
2117
330
2
100
AcDbEntity
  8
0
100
AcDbCircle
 10
720.6335898757755
 20
108.8283371401323
 30
0.0
 40
5.0
100
AcDbArc
 50
269.9999999999478
 51
281.8050678104415
  0
CIRCLE
  5
2118
330
2
100
AcDbEntity
  8
HOJO
100
AcDbCircle
 10
718.2071830045851
 20
112.4019302689414
 30
0.0
 40
4.0
  0
CIRCLE
  5
2119
330
2
100
AcDbEntity
  8
0
100
AcDbCircle
 10
718.2071830045851
 20
112.4019302689396
 30
0.0
 40
3.2
  0
LINE
  5
211A
330
2
100
AcDbEntity
  8
CENTER
100
AcDbLine
 10
718.2071830045851
 20
120.4019302689432
 30
0.0
 11
718.2071830045851
 21
104.4019302689432
 31
0.0
  0
ARC
  5
211B
330
2
100
AcDbEntity
  8
0
100
AcDbCircle
 10
717.6335898757787
 20
111.8283371401341
 30
0.0
 40
8.0
100
AcDbArc
 50
180.0
 51
270.0
  0
LINE
  5
211C
330
2
100
AcDbEntity
  8
0
100
AcDbLine
 10
756.9718203673472
 20
112.2512567335691
 30
0.0
 11
759.0118191260224
 21
112.2512567335672
 31
0.0
  0
LINE
  5
211D
330
2
100
AcDbEntity
  8
0
100
AcDbLine
 10
758.2518203673497
 20
114.8112567335704
 30
0.0
 11
759.0118191260224
 21
114.8112567335704
 31
0.0
  0
LINE
  5
211E
330
2
100
AcDbEntity
  8
0
100
AcDbLine
 10
759.0118191260224
 20
116.3312542509177
 30
0.0
 11
759.0118191260224
 21
114.8112567335704
 31
0.0
  0
LINE
  5
211F
330
2
100
AcDbEntity
  8
0
100
AcDbLine
 10
759.0118191260224
 20
116.3312542509177
 30
0.0
 11
758.2518203673497
 21
114.8112567335704
 31
0.0
  0
LINE
  5
2120
330
2
100
AcDbEntity
  8
0
100
AcDbLine
 10
761.4117463660257
 20
116.3312567335744
 30
0.0
 11
763.9618191260287
 21
116.3312567335744
 31
0.0
  0
LINE
  5
2121
330
2
100
AcDbEntity
  8
0
100
AcDbLine
 10
761.7518191260259
 20
115.9912567335725
 30
0.0
 11
763.9618191260304
 21
115.9912567335725
 31
0.0
  0
ARC
  5
2122
330
2
100
AcDbEntity
  8
0
100
AcDbCircle
 10
763.9618191260304
 20
116.1612567335726
 30
0.0
 40
0.1700000000002474
100
AcDbArc
 50
270.0
 51
90.0
  0
LINE
  5
2123
330
2
100
AcDbEntity
  8
0
100
AcDbLine
 10
757.4918191260202
 20
119.0512567335774
 30
0.0
 11
764.1317463660306
 21
119.0512567335774
 31
0.0
  0
LINE
  5
2124
330
2
100
AcDbEntity
  8
0
100
AcDbLine
 10
753.4918191260147
 20
111.0512567335665
 30
0.0
 11
756.3718203673468
 21
111.0512567335665
 31
0.0
  0
LINE
  5
2125
330
2
100
AcDbEntity
  8
0
100
AcDbLine
 10
759.0118191260224
 20
111.0512567335665
 30
0.0
 11
761.4117463660257
 21
111.0512567335647
 31
0.0
  0
LINE
  5
2126
330
2
100
AcDbEntity
  8
0
100
AcDbLine
 10
757.4918191260202
 20
119.0512567335774
 30
0.0
 11
753.4918191260147
 21
111.0512567335665
 31
0.0
  0
LINE
  5
2127
330
2
100
AcDbEntity
  8
0
100
AcDbLine
 10
761.4117463660257
 20
116.3312567335744
 30
0.0
 11
761.4117463660257
 21
111.0512567335647
 31
0.0
  0
LINE
  5
2128
330
2
100
AcDbEntity
  8
0
100
AcDbLine
 10
756.9718203673472
 20
112.2512567335691
 30
0.0
 11
756.3718203673468
 21
111.0512567335665
 31
0.0
  0
LINE
  5
2129
330
2
100
AcDbEntity
  8
0
100
AcDbLine
 10
759.0118191260224
 20
112.2512567335672
 30
0.0
 11
759.0118191260224
 21
111.0512567335665
 31
0.0
  0
LINE
  5
212A
330
2
100
AcDbEntity
  8
CENTER
100
AcDbLine
 10
795.0599967469696
 20
112.4019302689414
 30
0.0
 11
811.0599967469696
 21
112.4019302689414
 31
0.0
  0
ARC
  5
212B
330
2
100
AcDbEntity
  8
0
100
AcDbCircle
 10
787.3357188061003
 20
45.20313281814765
 30
0.0
 40
60.0
100
AcDbArc
 50
78.19493218955852
 51
95.89469838635137
  0
CIRCLE
  5
212C
330
2
100
AcDbEntity
  8
HOJO
100
AcDbCircle
 10
803.059996746971
 20
112.4019302689414
 30
0.0
 40
4.0
  0
LINE
  5
212D
330
2
100
AcDbEntity
  8
0
100
AcDbLine
 10
764.8953593842133
 20
111.0512567335665
 30
0.0
 11
767.7753606255445
 21
111.0512567335665
 31
0.0
  0
LINE
  5
212E
330
2
100
AcDbEntity
  8
0
100
AcDbLine
 10
765.7882917456898
 20
114.1738839319589
 30
0.0
 11
767.7753606255445
 21
111.0512567335665
 31
0.0
  0
ARC
  5
212F
330
2
100
AcDbEntity
  8
0
100
AcDbCircle
 10
817.6335898757768
 20
112.8283371401341
 30
0.0
 40
6.0
100
AcDbArc
 50
90.0
 51
180.0
  0
ARC
  5
2130
330
2
100
AcDbEntity
  8
0
100
AcDbCircle
 10
800.6335898757756
 20
108.8283371401323
 30
0.0
 40
5.0
100
AcDbArc
 50
258.1949321895585
 51
270.0
  0
LINE
  5
2131
330
2
100
AcDbEntity
  8
0
100
AcDbLine
 10
800.6335898757756
 20
103.8283371401341
 30
0.0
 11
803.6335898757769
 21
103.8283371401341
 31
0.0
  0
ARC
  5
2132
330
2
100
AcDbEntity
  8
0
100
AcDbCircle
 10
803.6335898757769
 20
111.8283371401341
 30
0.0
 40
8.0
100
AcDbArc
 50
270.0
 51
0.0
  0
LINE
  5
2133
330
2
100
AcDbEntity
  8
CENTER
100
AcDbLine
 10
803.0599967469695
 20
120.4019302689432
 30
0.0
 11
803.0599967469695
 21
104.4019302689432
 31
0.0
  0
CIRCLE
  5
2134
330
2
100
AcDbEntity
  8
0
100
AcDbCircle
 10
803.059996746971
 20
112.4019302689396
 30
0.0
 40
3.2
  0
ARC
  5
2135
330
2
100
AcDbEntity
  8
0
100
AcDbCircle
 10
760.633589875776
 20
5.828337140132362
 30
0.0
 40
200.0
100
AcDbArc
 50
84.10530161364862
 51
95.89469838635137
  0
ARC
  5
213A
330
2
100
AcDbEntity
  8
0
100
AcDbCircle
 10
909.6335898757756
 20
154.8283371401323
 30
0.0
 40
200.0
100
AcDbArc
 50
174.1053016136486
 51
185.8946983863513
  0
ARC
  5
213B
330
2
100
AcDbEntity
  8
0
100
AcDbCircle
 10
733.9314609454508
 20
264.453541462117
 30
0.0
 40
60.0
100
AcDbArc
 50
258.1949321895585
 51
275.8946983863513
  0
LINE
  5
213C
330
2
100
AcDbEntity
  8
0
100
AcDbLine
 10
717.6335898757787
 20
205.8283371401341
 30
0.0
 11
720.6335898757755
 21
205.8283371401341
 31
0.0
  0
ARC
  5
213D
330
2
100
AcDbEntity
  8
0
100
AcDbCircle
 10
720.6335898757755
 20
200.8283371401323
 30
0.0
 40
5.0
100
AcDbArc
 50
78.19493218955852
 51
90.0
  0
LINE
  5
213E
330
2
100
AcDbEntity
  8
CENTER
100
AcDbLine
 10
726.2071830045851
 20
197.2547440113269
 30
0.0
 11
710.2071830045851
 21
197.2547440113269
 31
0.0
  0
ARC
  5
213F
330
2
100
AcDbEntity
  8
0
100
AcDbCircle
 10
714.633589875776
 20
194.8283371401323
 30
0.0
 40
5.0
100
AcDbArc
 50
180.0
 51
191.8050678104415
  0
LINE
  5
2140
330
2
100
AcDbEntity
  8
0
100
AcDbLine
 10
709.6335898757787
 20
197.8283371401341
 30
0.0
 11
709.6335898757787
 21
194.8283371401323
 31
0.0
  0
ARC
  5
2141
330
2
100
AcDbEntity
  8
0
100
AcDbCircle
 10
651.0083855537913
 20
181.5304660704571
 30
0.0
 40
60.0
100
AcDbArc
 50
354.1053016136486
 51
11.80506781044149
  0
CIRCLE
  5
2142
330
2
100
AcDbEntity
  8
0
100
AcDbCircle
 10
718.2071830045851
 20
197.2547440113251
 30
0.0
 40
3.2
  0
CIRCLE
  5
2143
330
2
100
AcDbEntity
  8
HOJO
100
AcDbCircle
 10
718.2071830045851
 20
197.2547440113269
 30
0.0
 40
4.0
  0
LINE
  5
2144
330
2
100
AcDbEntity
  8
CENTER
100
AcDbLine
 10
718.2071830045851
 20
189.2547440113269
 30
0.0
 11
718.2071830045851
 21
205.2547440113269
 31
0.0
  0
ARC
  5
2145
330
2
100
AcDbEntity
  8
0
100
AcDbCircle
 10
717.6335898757787
 20
197.8283371401341
 30
0.0
 40
8.0
100
AcDbArc
 50
90.0
 51
180.0
  0
ARC
  5
2146
330
2
100
AcDbEntity
  8
0
100
AcDbCircle
 10
787.3357188061012
 20
264.4535414621152
 30
0.0
 40
60.0
100
AcDbArc
 50
264.1053016135961
 51
281.8050678104415
  0
LINE
  5
2147
330
2
100
AcDbEntity
  8
CENTER
100
AcDbLine
 10
795.0599967469696
 20
197.2547440113269
 30
0.0
 11
811.0599967469696
 21
197.2547440113269
 31
0.0
  0
CIRCLE
  5
2148
330
2
100
AcDbEntity
  8
HOJO
100
AcDbCircle
 10
803.059996746971
 20
197.2547440113269
 30
0.0
 40
4.0
  0
ARC
  5
2149
330
2
100
AcDbEntity
  8
0
100
AcDbCircle
 10
800.6335898757756
 20
200.8283371401305
 30
0.0
 40
5.0
100
AcDbArc
 50
89.99999999994789
 51
101.8050678104414
  0
LINE
  5
214A
330
2
100
AcDbEntity
  8
0
100
AcDbLine
 10
800.6335898757756
 20
205.8283371401341
 30
0.0
 11
803.6335898757814
 21
205.8283371401341
 31
0.0
  0
ARC
  5
214B
330
2
100
AcDbEntity
  8
0
100
AcDbCircle
 10
817.6335898757814
 20
196.8283371401341
 30
0.0
 40
6.0
100
AcDbArc
 50
180.0
 51
270.0
  0
ARC
  5
214C
330
2
100
AcDbEntity
  8
0
100
AcDbCircle
 10
803.6335898757819
 20
197.8283371401341
 30
0.0
 40
8.0
100
AcDbArc
 50
0.0
 51
90.0
  0
LINE
  5
214D
330
2
100
AcDbEntity
  8
CENTER
100
AcDbLine
 10
803.0599967469695
 20
189.2547440113269
 30
0.0
 11
803.0599967469695
 21
205.2547440113269
 31
0.0
  0
CIRCLE
  5
214E
330
2
100
AcDbEntity
  8
0
100
AcDbCircle
 10
803.059996746971
 20
197.2547440113251
 30
0.0
 40
3.2
  0
ARC
  5
214F
330
2
100
AcDbEntity
  8
0
100
AcDbCircle
 10
865.9235898740556
 20
130.3283371401323
 30
0.0
 40
3.0
100
AcDbArc
 50
180.0
 51
270.0
  0
ARC
  5
2150
330
2
100
AcDbEntity
  8
0
100
AcDbCircle
 10
858.3242477972701
 20
127.8283371401359
 30
0.0
 40
5.0
100
AcDbArc
 50
18.20995686428278
 51
90.0
  0
ARC
  5
2151
330
2
100
AcDbEntity
  8
0
100
AcDbCircle
 10
853.6335898757773
 20
127.8283371401359
 30
0.0
 40
5.0
100
AcDbArc
 50
90.0
 51
180.0
  0
LINE
  5
2152
330
2
100
AcDbEntity
  8
0
100
AcDbLine
 10
872.4235898757774
 20
189.3283371401341
 30
0.0
 11
872.4235898757774
 21
120.3283371401341
 31
0.0
  0
LINE
  5
2153
330
2
100
AcDbEntity
  8
0
100
AcDbLine
 10
848.6335898757774
 20
124.8283371401341
 30
0.0
 11
848.6335898757774
 21
184.8283371401341
 31
0.0
  0
ARC
  5
2155
330
2
100
AcDbEntity
  8
0
100
AcDbCircle
 10
867.4235898757791
 20
122.3283371401323
 30
0.0
 40
5.0
100
AcDbArc
 50
0.0
 51
90.0
  0
ARC
  5
2156
330
2
100
AcDbEntity
  8
0
100
AcDbCircle
 10
842.6335898757773
 20
124.8283371401341
 30
0.0
 40
6.0
100
AcDbArc
 50
270.0
 51
0.0
  0
LINE
  5
2157
330
2
100
AcDbEntity
  8
0
100
AcDbLine
 10
850.6336660323553
 20
128.8283371401341
 30
0.0
 11
862.3528756597837
 21
128.8283371401341
 31
0.0
  0
ARC
  5
2158
330
2
100
AcDbEntity
  8
0
100
AcDbCircle
 10
862.3528756597837
 20
126.8283371401341
 30
0.0
 40
2.0
100
AcDbArc
 50
44.42700400082991
 51
90.0
  0
LINE
  5
2159
330
2
100
AcDbEntity
  8
0
100
AcDbLine
 10
867.4235898757791
 20
127.3283371401323
 30
0.0
 11
865.9235898740547
 21
127.3283371401323
 31
0.0
  0
ARC
  5
215A
330
2
100
AcDbEntity
  8
0
100
AcDbCircle
 10
850.6335898757773
 20
126.8283371401341
 30
0.0
 40
2.0
100
AcDbArc
 50
90.0
 51
180.0
  0
LINE
  5
215B
330
2
100
AcDbEntity
  8
0
100
AcDbLine
 10
874.4235898757773
 20
118.8283371401341
 30
0.0
 11
884.4235898757773
 21
118.8283371401341
 31
0.0
  0
LINE
  5
215C
330
2
100
AcDbEntity
  8
0
100
AcDbLine
 10
874.4235898757773
 20
118.3283371401341
 30
0.0
 11
884.4235898757773
 21
118.3283371401341
 31
0.0
  0
ARC
  5
215D
330
2
100
AcDbEntity
  8
0
100
AcDbCircle
 10
874.4235898757773
 20
120.8283371401341
 30
0.0
 40
2.0
100
AcDbArc
 50
180.0
 51
270.0
  0
ARC
  5
215E
330
2
100
AcDbEntity
  8
0
100
AcDbCircle
 10
874.4235898757773
 20
120.3283371401341
 30
0.0
 40
2.0
100
AcDbArc
 50
180.0
 51
270.0
  0
LINE
  5
215F
330
2
100
AcDbEntity
  8
0
100
AcDbLine
 10
862.9235898740557
 20
130.3283371401323
 30
0.0
 11
862.9235898740557
 21
179.3283371401341
 31
0.0
  0
ARC
  5
2160
330
2
100
AcDbEntity
  8
0
100
AcDbCircle
 10
859.9235898740557
 20
160.3283371401341
 30
0.0
 40
3.0
100
AcDbArc
 50
270.0
 51
0.0
  0
LINE
  5
2161
330
2
100
AcDbEntity
  8
0
100
AcDbLine
 10
851.6335898757764
 20
157.3283371401341
 30
0.0
 11
859.9235898740557
 21
157.3283371401341
 31
0.0
  0
ARC
  5
2162
330
2
100
AcDbEntity
  8
0
100
AcDbCircle
 10
851.6335898757764
 20
160.3283371401341
 30
0.0
 40
3.0
100
AcDbArc
 50
180.0
 51
270.0
  0
LINE
  5
2163
330
2
100
AcDbEntity
  8
0
100
AcDbLine
 10
851.6335898757764
 20
152.3283371401341
 30
0.0
 11
859.9235898740557
 21
152.3283371401341
 31
0.0
  0
LINE
  5
2164
330
2
100
AcDbEntity
  8
0
100
AcDbLine
 10
853.6335898757773
 20
132.8283371401359
 30
0.0
 11
858.3242477972701
 21
132.8283371401359
 31
0.0
  0
ARC
  5
2165
330
2
100
AcDbEntity
  8
0
100
AcDbCircle
 10
859.9235898740557
 20
149.3283371401341
 30
0.0
 40
3.0
100
AcDbArc
 50
0.0
 51
90.0
  0
ARC
  5
2166
330
2
100
AcDbEntity
  8
0
100
AcDbCircle
 10
851.6335898757764
 20
149.3283371401341
 30
0.0
 40
3.0
100
AcDbArc
 50
90.0
 51
180.0
  0
ARC
  5
2167
330
2
100
AcDbEntity
  8
0
100
AcDbCircle
 10
867.4235898757791
 20
187.3283371401342
 30
0.0
 40
5.0
100
AcDbArc
 50
270.0
 51
0.0
  0
ARC
  5
2168
330
2
100
AcDbEntity
  8
0
100
AcDbCircle
 10
842.6335898757773
 20
184.8283371401341
 30
0.0
 40
6.0
100
AcDbArc
 50
0.0
 51
90.0
  0
LINE
  5
2169
330
2
100
AcDbEntity
  8
0
100
AcDbLine
 10
850.6336660323553
 20
180.8283371401341
 30
0.0
 11
862.3528756597837
 21
180.8283371401341
 31
0.0
  0
ARC
  5
216A
330
2
100
AcDbEntity
  8
0
100
AcDbCircle
 10
862.3528756597837
 20
182.8283371401341
 30
0.0
 40
2.0
100
AcDbArc
 50
270.0
 51
315.5729959991701
  0
ARC
  5
216B
330
2
100
AcDbEntity
  8
0
100
AcDbCircle
 10
865.9235898740556
 20
179.3283371401341
 30
0.0
 40
3.0
100
AcDbArc
 50
90.0
 51
180.0
  0
LINE
  5
216C
330
2
100
AcDbEntity
  8
0
100
AcDbLine
 10
867.4235898757791
 20
182.3283371401341
 30
0.0
 11
865.9235898740547
 21
182.3283371401341
 31
0.0
  0
LINE
  5
216D
330
2
100
AcDbEntity
  8
0
100
AcDbLine
 10
853.6335898757773
 20
176.8283371401359
 30
0.0
 11
858.3242477972701
 21
176.8283371401359
 31
0.0
  0
ARC
  5
216E
330
2
100
AcDbEntity
  8
0
100
AcDbCircle
 10
858.3242477972701
 20
181.828337140136
 30
0.0
 40
5.0
100
AcDbArc
 50
270.0
 51
341.7900431357172
  0
ARC
  5
216F
330
2
100
AcDbEntity
  8
0
100
AcDbCircle
 10
850.6335898757773
 20
182.8283371401341
 30
0.0
 40
2.0
100
AcDbArc
 50
180.0
 51
270.0
  0
ARC
  5
2170
330
2
100
AcDbEntity
  8
0
100
AcDbCircle
 10
853.6335898757773
 20
181.828337140136
 30
0.0
 40
5.0
100
AcDbArc
 50
180.0
 51
270.0
  0
LINE
  5
2171
330
2
100
AcDbEntity
  8
0
100
AcDbLine
 10
884.4235898757773
 20
190.8283371401341
 30
0.0
 11
874.4235898757773
 21
190.8283371401341
 31
0.0
  0
LINE
  5
2172
330
2
100
AcDbEntity
  8
0
100
AcDbLine
 10
884.4235898757773
 20
191.3283371401341
 30
0.0
 11
874.4235898757773
 21
191.3283371401341
 31
0.0
  0
ARC
  5
2173
330
2
100
AcDbEntity
  8
0
100
AcDbCircle
 10
874.4235898757773
 20
188.8283371401341
 30
0.0
 40
2.0
100
AcDbArc
 50
90.0
 51
180.0
  0
ARC
  5
2174
330
2
100
AcDbEntity
  8
0
100
AcDbCircle
 10
874.4235898757773
 20
189.3283371401341
 30
0.0
 40
2.0
100
AcDbArc
 50
90.0
 51
180.0
  0
LINE
  5
21F7
330
2
100
AcDbEntity
  8
0
100
AcDbLine
 10
846.5811525122839
 20
480.1314265994271
 30
0.0
 11
812.5576737191911
 21
480.1314265994271
 31
0.0
  0
LINE
  5
21FE
330
2
100
AcDbEntity
  8
0
100
AcDbLine
 10
710.2095631499467
 20
478.1314265994272
 30
0.0
 11
811.053253167717
 21
478.1314265994272
 31
0.0
  0
LINE
  5
21FF
330
2
100
AcDbEntity
  8
0
100
AcDbLine
 10
792.7022123261656
 20
459.1314265968824
 30
0.0
 11
728.5649674253916
 21
459.1314265968824
 31
0.0
  0
LINE
  5
2200
330
2
100
AcDbEntity
  8
0
100
AcDbLine
 10
715.6335898757786
 20
473.1314265994272
 30
0.0
 11
805.6335898757787
 21
473.1314265994345
 31
0.0
  0
LINE
  5
2203
330
2
100
AcDbEntity
  8
0
100
AcDbLine
 10
726.212103207318
 20
471.2012255902857
 30
0.0
 11
726.5661857713537
 21
461.0616276034773
 31
0.0
  0
ARC
  5
2204
330
2
100
AcDbEntity
  8
0
100
AcDbCircle
 10
728.5649674253916
 20
461.1314265968823
 30
0.0
 40
2.0
100
AcDbArc
 50
182.0000000000036
 51
270.0
  0
ARC
  5
2209
330
2
100
AcDbEntity
  8
0
100
AcDbCircle
 10
724.2133215532792
 20
471.1314265968824
 30
0.0
 40
2.0
100
AcDbArc
 50
2.000000000003612
 51
90.0
  0
LINE
  5
220A
330
2
100
AcDbEntity
  8
0
100
AcDbLine
 10
715.6335898757786
 20
478.1314265994272
 30
0.0
 11
715.6335898757786
 21
473.1314265994272
 31
0.0
  0
LINE
  5
220B
330
2
100
AcDbEntity
  8
0
100
AcDbLine
 10
795.0550765442392
 20
471.2012255902857
 30
0.0
 11
794.7009939802035
 21
461.0616276034773
 31
0.0
  0
ARC
  5
220D
330
2
100
AcDbEntity
  8
0
100
AcDbCircle
 10
792.7022123261656
 20
461.1314265968823
 30
0.0
 40
2.0
100
AcDbArc
 50
270.0
 51
357.9999999999964
  0
ARC
  5
2211
330
2
100
AcDbEntity
  8
0
100
AcDbCircle
 10
797.053858198278
 20
471.1314265968824
 30
0.0
 40
2.0
100
AcDbArc
 50
90.0
 51
177.9999999999963
  0
LINE
  5
2212
330
2
100
AcDbEntity
  8
0
100
AcDbLine
 10
805.6335898757787
 20
478.1314265994272
 30
0.0
 11
805.6335898757787
 21
473.1314265994272
 31
0.0
  0
ARC
  5
2213
330
2
100
AcDbEntity
  8
0
100
AcDbCircle
 10
812.5576737191911
 20
478.6314265994271
 30
0.0
 40
1.5
100
AcDbArc
 50
90.0
 51
179.5000000000344
  0
ARC
  5
2215
330
2
100
AcDbEntity
  8
0
100
AcDbCircle
 10
874.3719036193454
 20
482.1314265968823
 30
0.0
 40
2.0
100
AcDbArc
 50
181.4999999999897
 51
270.0
  0
LINE
  5
2216
330
2
100
AcDbEntity
  8
0
100
AcDbLine
 10
874.3719036193454
 20
480.1314265968824
 30
0.0
 11
884.4235898775025
 21
480.1314265968824
 31
0.0
  0
ARC
  5
2217
330
2
100
AcDbEntity
  8
0
100
AcDbCircle
 10
859.3464712255093
 20
510.6314265968824
 30
0.0
 40
3.0
100
AcDbArc
 50
1.499999999989714
 51
90.0
  0
ARC
  5
2218
330
2
100
AcDbEntity
  8
0
100
AcDbCircle
 10
851.8300586362295
 20
510.6314265968824
 30
0.0
 40
3.0
100
AcDbArc
 50
90.0
 51
179.5000000000344
  0
LINE
  5
2219
330
2
100
AcDbEntity
  8
0
100
AcDbLine
 10
740.0934907003254
 20
543.6314265968824
 30
0.0
 11
740.0934907003254
 21
479.6352834285255
 31
0.0
  0
LINE
  5
221A
330
2
100
AcDbEntity
  8
0
100
AcDbLine
 10
803.6335898775003
 20
543.6314265968824
 30
0.0
 11
803.6335898775003
 21
479.6434839159785
 31
0.0
  0
LINE
  5
221B
330
2
100
AcDbEntity
  8
0
100
AcDbLine
 10
800.6335898774985
 20
543.6314265968824
 30
0.0
 11
800.6335898774985
 21
479.6430967358713
 31
0.0
  0
LINE
  5
221C
330
2
100
AcDbEntity
  8
0
100
AcDbLine
 10
781.1736890546733
 20
543.6314265968824
 30
0.0
 11
781.1736890546724
 21
479.6405852403816
 31
0.0
  0
LINE
  5
221D
330
2
100
AcDbEntity
  8
CENTER
100
AcDbLine
 10
760.6335898757777
 20
402.1314265968833
 30
0.0
 11
760.6335898757791
 21
585.1314265968869
 31
0.0
  0
LINE
  5
221E
330
2
100
AcDbEntity
  8
0
100
AcDbLine
 10
720.6335898774985
 20
543.6314265968824
 30
0.0
 11
720.6335898774994
 21
479.632771933034
 31
0.0
  0
LINE
  5
221F
330
2
100
AcDbEntity
  8
0
100
AcDbLine
 10
717.633589877503
 20
543.6314265968824
 30
0.0
 11
717.6335898775012
 21
479.6323847529285
 31
0.0
  0
LINE
  5
2222
330
2
100
AcDbEntity
  8
0
100
AcDbLine
 10
862.8470885153422
 20
491.5528957519575
 30
0.0
 11
862.2034770343509
 21
516.1314265968824
 31
0.0
  0
LINE
  5
2223
330
2
100
AcDbEntity
  8
0
100
AcDbLine
 10
848.877942173922
 20
516.1314265968824
 30
0.0
 11
848.5810763584122
 21
482.1139735284302
 31
0.0
  0
LINE
  5
2224
330
2
100
AcDbEntity
  8
0
100
AcDbLine
 10
811.053253167717
 20
478.1314265994272
 30
0.0
 11
811.6292264418833
 21
544.1314265968824
 31
0.0
  0
LINE
  5
2225
330
2
100
AcDbEntity
  8
0
100
AcDbLine
 10
872.3725889693945
 20
482.079072700267
 30
0.0
 11
871.4808967010251
 21
516.1314265968824
 31
0.0
  0
LINE
  5
2226
330
2
100
AcDbEntity
  8
0
100
AcDbLine
 10
710.2095631499467
 20
478.1314265994272
 30
0.0
 11
709.6335898757786
 21
544.1314265968824
 31
0.0
  0
ARC
  5
2227
330
2
100
AcDbEntity
  8
0
100
AcDbCircle
 10
867.3302251895568
 20
483.6314265968805
 30
0.0
 40
5.0
100
AcDbArc
 50
1.499999999989714
 51
90.0
  0
LINE
  5
2228
330
2
100
AcDbEntity
  8
0
100
AcDbLine
 10
853.6335898755844
 20
494.1314265968824
 30
0.0
 11
858.2467184134824
 21
494.1314265968824
 31
0.0
  0
LINE
  5
2229
330
2
100
AcDbEntity
  8
0
100
AcDbLine
 10
850.6336660325507
 20
490.1314265968824
 30
0.0
 11
862.2753462759957
 21
490.1314265968824
 31
0.0
  0
ARC
  5
222A
330
2
100
AcDbEntity
  8
0
100
AcDbCircle
 10
862.2753462759957
 20
488.1314265968824
 30
0.0
 40
2.0
100
AcDbArc
 50
44.42700400082991
 51
90.0
  0
LINE
  5
222B
330
2
100
AcDbEntity
  8
0
100
AcDbLine
 10
865.8460604902685
 20
488.6314265968805
 30
0.0
 11
867.3302251895568
 21
488.6314265968805
 31
0.0
  0
ARC
  5
222C
330
2
100
AcDbEntity
  8
0
100
AcDbCircle
 10
865.8460604902685
 20
491.6314265968805
 30
0.0
 40
3.0
100
AcDbArc
 50
181.4999999999897
 51
270.0
  0
ARC
  5
222D
330
2
100
AcDbEntity
  8
0
100
AcDbCircle
 10
850.6336660325507
 20
488.1314265968824
 30
0.0
 40
2.0
100
AcDbArc
 50
90.0
 51
179.5000000000344
  0
ARC
  5
222E
330
2
100
AcDbEntity
  8
0
100
AcDbCircle
 10
853.642507135499
 20
489.1314265968824
 30
0.0
 40
5.0
100
AcDbArc
 50
90.0
 51
179.5000000000344
  0
ARC
  5
222F
330
2
100
AcDbEntity
  8
0
100
AcDbCircle
 10
858.2467184134824
 20
489.1314265968824
 30
0.0
 40
5.0
100
AcDbArc
 50
18.20995686428278
 51
90.0
  0
LINE
  5
2231
330
2
100
AcDbEntity
  8
0
100
AcDbLine
 10
709.6335898757786
 20
544.1314265968824
 30
0.0
 11
848.6335898755836
 21
544.1314265968824
 31
0.0
  0
ARC
  5
2232
330
2
100
AcDbEntity
  8
0
100
AcDbCircle
 10
833.1852761339344
 20
554.6314265968114
 30
0.0
 40
2.0
100
AcDbArc
 50
1.499999999989714
 51
90.0
  0
LINE
  5
2233
330
2
100
AcDbEntity
  8
0
100
AcDbLine
 10
812.6335898757785
 20
556.6314265968096
 30
0.0
 11
837.133589875779
 21
556.6314265968096
 31
0.0
  0
LINE
  5
2234
330
2
100
AcDbEntity
  8
0
100
AcDbLine
 10
727.6335898757785
 20
565.4314265968817
 30
0.0
 11
793.6335898757786
 21
565.4314265968871
 31
0.0
  0
LINE
  5
2235
330
2
100
AcDbEntity
  8
0
100
AcDbLine
 10
727.6335898757781
 20
569.1314265968824
 30
0.0
 11
793.6335898757786
 21
569.131426596886
 31
0.0
  0
LINE
  5
2236
330
2
100
AcDbEntity
  8
0
100
AcDbLine
 10
727.8335898757784
 20
567.6314265968824
 30
0.0
 11
793.4335898757788
 21
567.6314265968824
 31
0.0
  0
LINE
  5
2237
330
2
100
AcDbEntity
  8
0
100
AcDbLine
 10
722.4620170005184
 20
561.6314265968806
 30
0.0
 11
796.1335898757786
 21
561.631426596886
 31
0.0
  0
LINE
  5
2238
330
2
100
AcDbEntity
  8
0
100
AcDbLine
 10
727.8335898757784
 20
565.6314265968823
 30
0.0
 11
793.4335898757833
 21
565.6314265968823
 31
0.0
  0
LINE
  5
2239
330
2
100
AcDbEntity
  8
0
100
AcDbLine
 10
725.633589875779
 20
562.1314265968824
 30
0.0
 11
795.6335898757754
 21
562.1314265968897
 31
0.0
  0
LINE
  5
223A
330
2
100
AcDbEntity
  8
0
100
AcDbLine
 10
711.7514787477264
 20
559.6314265968897
 30
0.0
 11
809.6335898757786
 21
559.631426596886
 31
0.0
  0
LINE
  5
223B
330
2
100
AcDbEntity
  8
0
100
AcDbLine
 10
728.2109401449704
 20
570.131426596886
 30
0.0
 11
793.0562396065891
 21
570.1314265968878
 31
0.0
  0
LINE
  5
223C
330
2
100
AcDbEntity
  8
0
100
AcDbLine
 10
740.0934906986033
 20
544.1314265968806
 30
0.0
 11
740.0934906986033
 21
557.648879667887
 31
0.0
  0
LINE
  5
223D
330
2
100
AcDbEntity
  8
CENTER
100
AcDbLine
 10
717.6335898757732
 20
539.6752874063252
 30
0.0
 11
717.6335898757727
 21
562.1314265968115
 31
0.0
  0
LINE
  5
223E
330
2
100
AcDbEntity
  8
0
100
AcDbLine
 10
712.6335898757726
 20
551.6314265968114
 30
0.0
 11
712.6335898757726
 21
558.7314265968118
 31
0.0
  0
LINE
  5
223F
330
2
100
AcDbEntity
  8
0
100
AcDbLine
 10
722.6335898757727
 20
551.6314265968114
 30
0.0
 11
722.6335898757727
 21
558.7314265968118
 31
0.0
  0
LINE
  5
2240
330
2
100
AcDbEntity
  8
0
100
AcDbLine
 10
724.6422405882483
 20
552.6227000613118
 30
0.0
 11
724.6861033931679
 21
557.648879667887
 31
0.0
  0
LINE
  5
2241
330
2
100
AcDbEntity
  8
0
100
AcDbLine
 10
709.6335898757795
 20
544.1314265968787
 30
0.0
 11
709.7515549015981
 21
557.648879667887
 31
0.0
  0
LINE
  5
2242
330
2
100
AcDbEntity
  8
0
100
AcDbLine
 10
712.6335898757726
 20
551.6314265968114
 30
0.0
 11
722.6335898757727
 21
551.6314265968114
 31
0.0
  0
LINE
  5
2243
330
2
100
AcDbEntity
  8
0
100
AcDbLine
 10
722.6335898757727
 20
553.1314265968115
 30
0.0
 11
712.6335898757726
 21
553.1314265968115
 31
0.0
  0
LINE
  5
2244
330
2
100
AcDbEntity
  8
0
100
AcDbLine
 10
720.6335898757782
 20
550.6401531323092
 30
0.0
 11
720.6335898757782
 21
544.1314265968787
 31
0.0
  0
LINE
  5
2245
330
2
100
AcDbEntity
  8
0
100
AcDbLine
 10
717.6335898757781
 20
550.6401531323092
 30
0.0
 11
717.6335898757781
 21
544.1314265968787
 31
0.0
  0
ARC
  5
2246
330
2
100
AcDbEntity
  8
0
100
AcDbCircle
 10
723.6422786651844
 20
552.6314265968115
 30
0.0
 40
1.0
100
AcDbArc
 50
270.0
 51
359.5000000000345
  0
LINE
  5
2247
330
2
100
AcDbEntity
  8
0
100
AcDbLine
 10
710.6903525948048
 20
551.6314265968114
 30
0.0
 11
723.6422786651844
 21
551.6314265968114
 31
0.0
  0
ARC
  5
2248
330
2
100
AcDbEntity
  8
0
100
AcDbCircle
 10
710.6903525948048
 20
550.6314265968114
 30
0.0
 40
1.0
100
AcDbArc
 50
90.0
 51
179.5000000000344
  0
LINE
  5
2249
330
2
100
AcDbEntity
  8
0
100
AcDbLine
 10
725.633589875779
 20
562.1314265968824
 30
0.0
 11
725.1335898757795
 21
561.6314265968823
 31
0.0
  0
LINE
  5
224A
330
2
100
AcDbEntity
  8
0
100
AcDbLine
 10
721.940769552745
 20
559.1314265968114
 30
0.0
 11
713.3264101987999
 21
559.1314265968114
 31
0.0
  0
LINE
  5
224B
330
2
100
AcDbEntity
  8
0
100
AcDbLine
 10
712.6335898757726
 20
558.7314265968118
 30
0.0
 11
713.3264101988004
 21
559.1314265968114
 31
0.0
  0
LINE
  5
224C
330
2
100
AcDbEntity
  8
0
100
AcDbLine
 10
722.6335898757727
 20
558.7314265968118
 30
0.0
 11
712.6335898757726
 21
558.7314265968118
 31
0.0
  0
LINE
  5
224D
330
2
100
AcDbEntity
  8
0
100
AcDbLine
 10
722.6335898757727
 20
558.7314265968118
 30
0.0
 11
721.940769552745
 21
559.1314265968114
 31
0.0
  0
ARC
  5
224E
330
2
100
AcDbEntity
  8
0
100
AcDbCircle
 10
718.8051627510324
 20
561.6314265968878
 30
0.0
 40
2.0
100
AcDbArc
 50
270.0
 51
315.0000000000092
  0
ARC
  5
224F
330
2
100
AcDbEntity
  8
0
100
AcDbCircle
 10
722.4620170005189
 20
559.6314265968806
 30
0.0
 40
2.0
100
AcDbArc
 50
90.0
 51
135.0000000000092
  0
LINE
  5
2250
330
2
100
AcDbEntity
  8
0
100
AcDbLine
 10
720.2193763134057
 20
560.2172130345145
 30
0.0
 11
721.0478034381456
 21
561.0456401592539
 31
0.0
  0
ARC
  5
2251
330
2
100
AcDbEntity
  8
0
100
AcDbCircle
 10
726.6860272392961
 20
557.6314265968896
 30
0.0
 40
2.0
100
AcDbArc
 50
90.0
 51
179.5000000000344
  0
ARC
  5
2252
330
2
100
AcDbEntity
  8
0
100
AcDbCircle
 10
728.1335898757786
 20
565.8314265968831
 30
0.0
 40
0.2
100
AcDbArc
 50
270.0
 51
0.0
  0
ARC
  5
2253
330
2
100
AcDbEntity
  8
0
100
AcDbCircle
 10
728.1335898757781
 20
567.4314265968816
 30
0.0
 40
0.2
100
AcDbArc
 50
0.0
 51
90.0
  0
ARC
  5
2254
330
2
100
AcDbEntity
  8
0
100
AcDbCircle
 10
727.8335898757784
 20
567.8314265968831
 30
0.0
 40
0.2
100
AcDbArc
 50
180.0
 51
270.0
  0
LINE
  5
2255
330
2
100
AcDbEntity
  8
0
100
AcDbLine
 10
728.3335898757784
 20
567.4314265968816
 30
0.0
 11
728.3335898757784
 21
565.8314265968831
 31
0.0
  0
LINE
  5
2256
330
2
100
AcDbEntity
  8
0
100
AcDbLine
 10
727.6335898757781
 20
569.1314265968824
 30
0.0
 11
727.6335898757785
 21
567.8314265968813
 31
0.0
  0
LINE
  5
2257
330
2
100
AcDbEntity
  8
0
100
AcDbLine
 10
727.6335898757781
 20
569.1314265968824
 30
0.0
 11
728.2109401449677
 21
570.1314265968824
 31
0.0
  0
LINE
  5
2258
330
2
100
AcDbEntity
  8
0
100
AcDbLine
 10
727.6335898757785
 20
565.4314265968817
 30
0.0
 11
727.6335898757791
 21
562.1314265968824
 31
0.0
  0
LINE
  5
2259
330
2
100
AcDbEntity
  8
0
100
AcDbLine
 10
727.8335898757784
 20
565.6314265968823
 30
0.0
 11
727.6335898757785
 21
565.4314265968817
 31
0.0
  0
ARC
  5
225A
330
2
100
AcDbEntity
  8
0
100
AcDbCircle
 10
711.7514787477264
 20
557.6314265968896
 30
0.0
 40
2.0
100
AcDbArc
 50
90.0
 51
179.5000000000344
  0
LINE
  5
225B
330
2
100
AcDbEntity
  8
0
100
AcDbLine
 10
803.6335898757791
 20
557.648879667887
 30
0.0
 11
803.6335898757791
 21
544.1314265968787
 31
0.0
  0
LINE
  5
225C
330
2
100
AcDbEntity
  8
0
100
AcDbLine
 10
800.6335898757786
 20
557.648879667887
 30
0.0
 11
800.6335898757786
 21
544.1314265968787
 31
0.0
  0
LINE
  5
225D
330
2
100
AcDbEntity
  8
0
100
AcDbLine
 10
811.6335898757814
 20
557.631426596886
 30
0.0
 11
811.6335898757814
 21
544.1314265968842
 31
0.0
  0
LINE
  5
225E
330
2
100
AcDbEntity
  8
0
100
AcDbLine
 10
781.1736890529535
 20
544.1314265968806
 30
0.0
 11
781.1736890529535
 21
557.648879667887
 31
0.0
  0
ARC
  5
225F
330
2
100
AcDbEntity
  8
0
100
AcDbCircle
 10
798.8051627510328
 20
559.631426596886
 30
0.0
 40
2.0
100
AcDbArc
 50
44.99999999999078
 51
90.0
  0
LINE
  5
2260
330
2
100
AcDbEntity
  8
0
100
AcDbLine
 10
795.6335898757786
 20
562.1314265968861
 30
0.0
 11
796.1335898757786
 21
561.631426596886
 31
0.0
  0
LINE
  5
2261
330
2
100
AcDbEntity
  8
0
100
AcDbLine
 10
798.8051627510328
 20
561.631426596886
 30
0.0
 11
796.1335898757786
 21
561.631426596886
 31
0.0
  0
ARC
  5
2262
330
2
100
AcDbEntity
  8
0
100
AcDbCircle
 10
793.1335898757786
 20
565.8314265968868
 30
0.0
 40
0.2
100
AcDbArc
 50
180.0
 51
270.0
  0
ARC
  5
2263
330
2
100
AcDbEntity
  8
0
100
AcDbCircle
 10
793.1335898757786
 20
567.4314265968871
 30
0.0
 40
0.2
100
AcDbArc
 50
89.99999999994789
 51
180.0
  0
ARC
  5
2264
330
2
100
AcDbEntity
  8
0
100
AcDbCircle
 10
793.4335898757788
 20
567.8314265968867
 30
0.0
 40
0.2
100
AcDbArc
 50
270.0
 51
0.0
  0
LINE
  5
2265
330
2
100
AcDbEntity
  8
0
100
AcDbLine
 10
792.9335898757788
 20
567.4314265968871
 30
0.0
 11
792.9335898757788
 21
565.8314265968868
 31
0.0
  0
LINE
  5
2266
330
2
100
AcDbEntity
  8
0
100
AcDbLine
 10
793.6335898757786
 20
569.1314265968879
 30
0.0
 11
793.6335898757786
 21
567.8314265968867
 31
0.0
  0
LINE
  5
2267
330
2
100
AcDbEntity
  8
0
100
AcDbLine
 10
793.6335898757786
 20
569.131426596886
 30
0.0
 11
793.0562396065891
 21
570.131426596886
 31
0.0
  0
LINE
  5
2268
330
2
100
AcDbEntity
  8
0
100
AcDbLine
 10
793.6335898757786
 20
565.4314265968871
 30
0.0
 11
793.6335898757786
 21
562.1314265968861
 31
0.0
  0
LINE
  5
2269
330
2
100
AcDbEntity
  8
0
100
AcDbLine
 10
793.4335898757788
 20
565.631426596886
 30
0.0
 11
793.6335898757786
 21
565.4314265968871
 31
0.0
  0
ARC
  5
226A
330
2
100
AcDbEntity
  8
0
100
AcDbCircle
 10
809.6335898757786
 20
557.631426596886
 30
0.0
 40
2.0
100
AcDbArc
 50
0.0
 51
90.0
  0
LINE
  5
226B
330
2
100
AcDbEntity
  8
0
100
AcDbLine
 10
801.0478034381515
 20
560.2172130345145
 30
0.0
 11
800.2193763134057
 21
561.0456401592593
 31
0.0
  0
ARC
  5
226C
330
2
100
AcDbEntity
  8
0
100
AcDbCircle
 10
802.4620170005244
 20
561.6314265968878
 30
0.0
 40
2.0
100
AcDbArc
 50
224.9999999999908
 51
270.0
  0
ARC
  5
226D
330
2
100
AcDbEntity
  8
0
100
AcDbCircle
 10
812.6335898757785
 20
557.6314265968096
 30
0.0
 40
1.0
100
AcDbArc
 50
180.0
 51
270.0
  0
LINE
  5
226E
330
2
100
AcDbEntity
  8
CENTER
100
AcDbLine
 10
842.133589875779
 20
539.6752874063252
 30
0.0
 11
842.133589875779
 21
562.1314265968115
 31
0.0
  0
LINE
  5
226F
330
2
100
AcDbEntity
  8
0
100
AcDbLine
 10
837.133589875779
 20
551.6314265968114
 30
0.0
 11
837.133589875779
 21
558.7314265968118
 31
0.0
  0
LINE
  5
2270
330
2
100
AcDbEntity
  8
0
100
AcDbLine
 10
847.1335898757791
 20
551.6314265968114
 30
0.0
 11
847.1335898757791
 21
558.7314265968118
 31
0.0
  0
ARC
  5
2271
330
2
100
AcDbEntity
  8
0
100
AcDbCircle
 10
846.5418816070107
 20
554.6314265968078
 30
0.0
 40
2.0
100
AcDbArc
 50
0.4999999999654926
 51
72.79123793165911
  0
ARC
  5
2272
330
2
100
AcDbEntity
  8
0
100
AcDbCircle
 10
867.3302251895568
 20
548.6314265968823
 30
0.0
 40
5.0
100
AcDbArc
 50
270.0
 51
358.5000000000102
  0
LINE
  5
2273
330
2
100
AcDbEntity
  8
0
100
AcDbLine
 10
837.133589875779
 20
551.6314265968114
 30
0.0
 11
847.1335898757791
 21
551.6314265968114
 31
0.0
  0
LINE
  5
2274
330
2
100
AcDbEntity
  8
0
100
AcDbLine
 10
847.1335898757791
 20
553.1314265968115
 30
0.0
 11
837.133589875779
 21
553.1314265968115
 31
0.0
  0
LINE
  5
2275
330
2
100
AcDbEntity
  8
0
100
AcDbLine
 10
835.751597919085
 20
551.6314265968114
 30
0.0
 11
847.5768271565595
 21
551.6314265968114
 31
0.0
  0
ARC
  5
2276
330
2
100
AcDbEntity
  8
0
100
AcDbCircle
 10
835.751597919085
 20
552.1314265968114
 30
0.0
 40
0.5
100
AcDbArc
 50
181.4999999999897
 51
270.0
  0
LINE
  5
2277
330
2
100
AcDbEntity
  8
0
100
AcDbLine
 10
835.2517692565982
 20
552.1183381226576
 30
0.0
 11
835.1845907838853
 21
554.6837804934287
 31
0.0
  0
LINE
  5
2278
330
2
100
AcDbEntity
  8
0
100
AcDbLine
 10
850.6336660325507
 20
542.1314265968824
 30
0.0
 11
862.2753462759957
 21
542.1314265968824
 31
0.0
  0
LINE
  5
2279
330
2
100
AcDbEntity
  8
0
100
AcDbLine
 10
853.6335898755835
 20
538.1314265968824
 30
0.0
 11
858.2467184134824
 21
538.1314265968824
 31
0.0
  0
ARC
  5
227A
330
2
100
AcDbEntity
  8
0
100
AcDbCircle
 10
862.2753462759957
 20
544.1314265968824
 30
0.0
 40
2.0
100
AcDbArc
 50
269.9999999999478
 51
315.5729959991701
  0
ARC
  5
227B
330
2
100
AcDbEntity
  8
0
100
AcDbCircle
 10
865.8460604902685
 20
540.6314265968823
 30
0.0
 40
3.0
100
AcDbArc
 50
90.0
 51
178.5000000000102
  0
LINE
  5
227C
330
2
100
AcDbEntity
  8
0
100
AcDbLine
 10
865.8460604902685
 20
543.6314265968824
 30
0.0
 11
867.3302251895568
 21
543.6314265968824
 31
0.0
  0
ARC
  5
227D
330
2
100
AcDbEntity
  8
0
100
AcDbCircle
 10
847.5768271565595
 20
550.6314265968114
 30
0.0
 40
1.0
100
AcDbArc
 50
0.4999999999654926
 51
90.0
  0
LINE
  5
227E
330
2
100
AcDbEntity
  8
0
100
AcDbLine
 10
848.6335898755845
 20
544.1314265968842
 30
0.0
 11
848.5418054531384
 21
554.6488796678052
 31
0.0
  0
ARC
  5
227F
330
2
100
AcDbEntity
  8
0
100
AcDbCircle
 10
850.6336660325498
 20
544.1314265968824
 30
0.0
 40
2.0
100
AcDbArc
 50
180.4999999995485
 51
270.0
  0
LINE
  5
2280
330
2
100
AcDbEntity
  8
0
100
AcDbLine
 10
844.3540455131444
 20
516.1314265968824
 30
0.0
 11
848.8779421738056
 21
516.1314265834382
 31
0.0
  0
ARC
  5
2281
330
2
100
AcDbEntity
  8
0
100
AcDbCircle
 10
844.3540455131444
 20
517.1314265968824
 30
0.0
 40
1.0
100
AcDbArc
 50
181.4999999999897
 51
270.0
  0
ARC
  5
2282
330
2
100
AcDbEntity
  8
0
100
AcDbCircle
 10
859.3464712255093
 20
521.6314265968824
 30
0.0
 40
3.0
100
AcDbArc
 50
270.0
 51
358.5000000000102
  0
LINE
  5
2283
330
2
100
AcDbEntity
  8
0
100
AcDbLine
 10
851.8300586360412
 20
518.6314265968824
 30
0.0
 11
859.3464712255093
 21
518.6314265968824
 31
0.0
  0
LINE
  5
2284
330
2
100
AcDbEntity
  8
0
100
AcDbLine
 10
851.8300586362295
 20
513.6314265968824
 30
0.0
 11
859.3464712255093
 21
513.6314265968824
 31
0.0
  0
ARC
  5
2285
330
2
100
AcDbEntity
  8
0
100
AcDbCircle
 10
851.8300586360412
 20
521.6314265968824
 30
0.0
 40
3.0
100
AcDbArc
 50
180.4999999995485
 51
270.0
  0
ARC
  5
2286
330
2
100
AcDbEntity
  8
0
100
AcDbCircle
 10
858.2467184134824
 20
543.1314265968824
 30
0.0
 40
5.0
100
AcDbArc
 50
270.0
 51
341.7900431357172
  0
LINE
  5
2287
330
2
100
AcDbEntity
  8
0
100
AcDbLine
 10
862.8470885153422
 20
540.7099574418054
 30
0.0
 11
862.2034770343509
 21
516.1314265968824
 31
0.0
  0
LINE
  5
2288
330
2
100
AcDbEntity
  8
0
100
AcDbLine
 10
848.8779421736873
 20
516.1314265968824
 30
0.0
 11
848.633589875779
 21
544.1314265968824
 31
0.0
  0
LINE
  5
2289
330
2
100
AcDbEntity
  8
0
100
AcDbLine
 10
842.6466828382874
 20
544.1314265968824
 30
0.0
 11
843.3543881881689
 21
517.1052496485747
 31
0.0
  0
ARC
  5
228A
330
2
100
AcDbEntity
  8
0
100
AcDbCircle
 10
853.64250713549
 20
543.1314265968824
 30
0.0
 40
5.0
100
AcDbArc
 50
180.4999999995485
 51
270.0
  0
LINE
  5
228B
330
2
100
AcDbEntity
  8
0
100
AcDbLine
 10
874.3719036193454
 20
552.1314265968824
 30
0.0
 11
884.4235898775025
 21
552.1314265968824
 31
0.0
  0
ARC
  5
228C
330
2
100
AcDbEntity
  8
0
100
AcDbCircle
 10
874.3719036193454
 20
550.1314265968824
 30
0.0
 40
2.0
100
AcDbArc
 50
90.0
 51
178.5000000000102
  0
LINE
  5
228D
330
2
100
AcDbEntity
  8
0
100
AcDbLine
 10
871.4808967010251
 20
516.1314265968824
 30
0.0
 11
884.4235898775025
 21
516.1314265968824
 31
0.0
  0
LINE
  5
228E
330
2
100
AcDbEntity
  8
0
100
AcDbLine
 10
872.3725889693945
 20
550.1837804934978
 30
0.0
 11
871.4808967010215
 21
516.1314265968824
 31
0.0
  0
LINE
  5
228F
330
2
100
AcDbEntity
  8
0
100
AcDbLine
 10
846.4407695527517
 20
559.1314265968114
 30
0.0
 11
837.8264101988063
 21
559.1314265968114
 31
0.0
  0
LINE
  5
2290
330
2
100
AcDbEntity
  8
0
100
AcDbLine
 10
847.1335898757791
 20
558.7314265968118
 30
0.0
 11
837.133589875779
 21
558.7314265968118
 31
0.0
  0
LINE
  5
2291
330
2
100
AcDbEntity
  8
0
100
AcDbLine
 10
837.133589875779
 20
558.7314265968118
 30
0.0
 11
837.8264101988063
 21
559.1314265968114
 31
0.0
  0
LINE
  5
2292
330
2
100
AcDbEntity
  8
0
100
AcDbLine
 10
847.1335898757791
 20
558.7314265968118
 30
0.0
 11
846.4407695527517
 21
559.1314265968114
 31
0.0
  0
LINE
  5
2805
330
2
100
AcDbEntity
  8
0
100
AcDbLine
 10
771.633650595608
 20
417.6314265968842
 30
0.0
 11
771.1336507925336
 21
417.1314265968842
 31
0.0
  0
LINE
  5
2806
330
2
100
AcDbEntity
  8
0
100
AcDbLine
 10
750.0505215192108
 20
449.1313210859691
 30
0.0
 11
750.0505215192108
 21
417.1314265968842
 31
0.0
  0
LINE
  5
2807
330
2
100
AcDbEntity
  8
0
100
AcDbLine
 10
747.133650595608
 20
452.1313210859691
 30
0.0
 11
747.133650595608
 21
417.1314265968842
 31
0.0
  0
LINE
  5
2809
330
2
100
AcDbEntity
  8
0
100
AcDbLine
 10
1133.579427399207
 20
165.8282919774657
 30
0.0
 11
1094.079427399208
 21
165.8282764203115
 31
0.0
  0
LINE
  5
280A
330
2
100
AcDbEntity
  8
0
100
AcDbLine
 10
1094.079427399208
 20
143.8282764202978
 30
0.0
 11
1133.579427399207
 21
143.8282919774639
 31
0.0
  0
LINE
  5
280F
330
2
100
AcDbEntity
  8
0
100
AcDbLine
 10
1094.079427399208
 20
143.8282764202978
 30
0.0
 11
1094.079427399206
 21
165.8282764203115
 31
0.0
  0
LINE
  5
2810
330
2
100
AcDbEntity
  8
0
100
AcDbLine
 10
1093.579427399207
 20
165.3282762233854
 30
0.0
 11
1093.579427399207
 21
144.3282762233722
 31
0.0
  0
ARC
  5
2811
330
2
100
AcDbEntity
  8
0
100
AcDbCircle
 10
760.6335898757751
 20
154.8283371401341
 30
0.0
 40
11.00006071982613
100
AcDbArc
 50
195.8265304777667
 51
164.1734695222332
  0
CIRCLE
  5
2813
330
2
100
AcDbEntity
  8
0
100
AcDbCircle
 10
760.6335898757751
 20
154.8283371401341
 30
0.0
 40
16.99995077575704
  0
ARC
  5
2814
330
2
100
AcDbEntity
  8
0
100
AcDbCircle
 10
760.6335898757751
 20
154.8283371401341
 30
0.0
 40
12.57739543185027
100
AcDbArc
 50
193.7993919727436
 51
166.2006080272562
  0
ARC
  5
2815
330
2
100
AcDbEntity
  8
0
100
AcDbCircle
 10
760.6335898757751
 20
154.8283371401341
 30
0.0
 40
12.00004516266062
100
AcDbArc
 50
194.4774565092163
 51
165.5225434907836
  0
LINE
  5
2816
330
2
100
AcDbEntity
  8
0
100
AcDbLine
 10
513.9611179538446
 20
165.8283978599641
 30
0.0
 11
513.9611179538446
 21
157.8283371401338
 31
0.0
  0
LINE
  5
2817
330
2
100
AcDbEntity
  8
0
100
AcDbLine
 10
514.4611179538446
 20
144.3283980568879
 30
0.0
 11
514.4611179538446
 21
165.3283980568902
 31
0.0
  0
LINE
  5
2819
330
2
100
AcDbEntity
  8
0
100
AcDbLine
 10
474.4611179538447
 20
166.8283823027985
 30
0.0
 11
474.4616824871368
 21
142.8283823155446
 31
0.0
  0
LINE
  5
281A
330
2
100
AcDbEntity
  8
0
100
AcDbLine
 10
473.4611179538446
 20
171.0396620055393
 30
0.0
 11
473.4611179538446
 21
138.6170122747288
 31
0.0
  0
LINE
  5
281B
330
2
100
AcDbEntity
  8
0
100
AcDbLine
 10
482.4612234647597
 20
157.8283371401338
 30
0.0
 11
514.4612234647597
 21
157.8283371401338
 31
0.0
  0
LINE
  5
281C
330
2
100
AcDbEntity
  8
0
100
AcDbLine
 10
482.4612234647597
 20
151.8283371401338
 30
0.0
 11
514.4612234647597
 21
151.8283371401338
 31
0.0
  0
LINE
  5
281D
330
2
100
AcDbEntity
  8
0
100
AcDbLine
 10
474.4611179538447
 20
143.8283823027967
 30
0.0
 11
513.9611179538446
 21
143.8283978599619
 31
0.0
  0
LINE
  5
281F
330
2
100
AcDbEntity
  8
0
100
AcDbLine
 10
473.2111179538446
 20
138.1839995728368
 30
0.0
 11
473.0592794240715
 21
138.096335556799
 31
0.0
  0
ARC
  5
2820
330
2
100
AcDbEntity
  8
0
100
AcDbCircle
 10
472.0592794240714
 20
139.8283863643681
 30
0.0
 40
2.0
100
AcDbArc
 50
281.5907202811201
 51
300.0000000000005
  0
ARC
  5
2821
330
2
100
AcDbEntity
  8
0
100
AcDbCircle
 10
472.9611179538446
 20
138.6170122747288
 30
0.0
 40
0.5
100
AcDbArc
 50
300.0000000000005
 51
0.0
  0
ARC
  5
2822
330
2
100
AcDbEntity
  8
0
100
AcDbCircle
 10
482.4612234647597
 20
154.8283371401338
 30
0.0
 40
3.0
100
AcDbArc
 50
90.0
 51
270.0
  0
LINE
  5
2823
330
2
100
AcDbEntity
  8
0
100
AcDbLine
 10
474.4611179538447
 20
142.8282919774695
 30
0.0
 11
473.4611179538446
 21
142.25094170828
 31
0.0
  0
LINE
  5
2824
330
2
100
AcDbEntity
  8
0
100
AcDbLine
 10
513.9611179538446
 20
151.8283371401338
 30
0.0
 11
513.9611179538446
 21
143.8283978599619
 31
0.0
  0
LINE
  5
2825
330
2
100
AcDbEntity
  8
0
100
AcDbLine
 10
514.4611179538446
 20
144.3283980568879
 30
0.0
 11
513.9611179538446
 21
143.8283978599619
 31
0.0
  0
LINE
  5
2827
330
2
100
AcDbEntity
  8
0
100
AcDbLine
 10
747.1336505956013
 20
157.8283371401341
 30
0.0
 11
747.1336505956013
 21
151.8283371401341
 31
0.0
  0
LINE
  5
2828
330
2
100
AcDbEntity
  8
0
100
AcDbLine
 10
753.1336505956013
 20
157.8283371401341
 30
0.0
 11
753.1336505956013
 21
151.8283371401341
 31
0.0
  0
LINE
  5
2829
330
2
100
AcDbEntity
  8
0
100
AcDbLine
 10
747.1336505956013
 20
157.8283371401341
 30
0.0
 11
753.1336505956013
 21
157.8283371401341
 31
0.0
  0
LINE
  5
282A
330
2
100
AcDbEntity
  8
0
100
AcDbLine
 10
747.1336505956013
 20
151.8283371401341
 30
0.0
 11
753.1336505956013
 21
151.8283371401341
 31
0.0
  0
LINE
  5
282B
330
2
100
AcDbEntity
  8
0
100
AcDbLine
 10
1094.079427399208
 20
143.8282764202978
 30
0.0
 11
1093.579427399207
 21
144.3282762233722
 31
0.0
  0
LINE
  5
282C
330
2
100
AcDbEntity
  8
0
100
AcDbLine
 10
513.9611179538446
 20
165.8283978599641
 30
0.0
 11
474.4611179538447
 21
165.8283823027985
 31
0.0
  0
LINE
  5
282D
330
2
100
AcDbEntity
  8
0
100
AcDbLine
 10
473.2111179538446
 20
171.4726747074313
 30
0.0
 11
473.0592794240715
 21
171.560338723469
 31
0.0
  0
LINE
  5
282E
330
2
100
AcDbEntity
  8
0
100
AcDbLine
 10
474.4611179538447
 20
166.8283823027985
 30
0.0
 11
473.4611179538446
 21
167.405732571988
 31
0.0
  0
ARC
  5
282F
330
2
100
AcDbEntity
  8
0
100
AcDbCircle
 10
472.0592794240714
 20
169.8282879159004
 30
0.0
 40
2.0
100
AcDbArc
 50
59.99999999999946
 51
78.40927971887985
  0
ARC
  5
2830
330
2
100
AcDbEntity
  8
0
100
AcDbCircle
 10
472.9611179538446
 20
171.0396620055393
 30
0.0
 40
0.5
100
AcDbArc
 50
0.0
 51
59.99999999999946
  0
LINE
  5
2831
330
2
100
AcDbEntity
  8
0
100
AcDbLine
 10
513.9611179538446
 20
165.8283978599641
 30
0.0
 11
514.4611179538446
 21
165.3283980568902
 31
0.0
  0
LINE
  5
2832
330
2
100
AcDbEntity
  8
0
100
AcDbLine
 10
1094.079427399208
 20
165.8282764203115
 30
0.0
 11
1093.579427399207
 21
165.3282762233854
 31
0.0
  0
LINE
  5
2833
330
2
100
AcDbEntity
  8
0
100
AcDbLine
 10
747.133650595608
 20
417.1314265968842
 30
0.0
 11
771.1336507925336
 21
417.1314265968842
 31
0.0
  0
LINE
  5
2835
330
2
100
AcDbEntity
  8
0
100
AcDbLine
 10
1133.579427399207
 20
142.8282919774639
 30
0.0
 11
1133.578862865915
 21
166.8282919647173
 31
0.0
  0
LINE
  5
2836
330
2
100
AcDbEntity
  8
0
100
AcDbLine
 10
1134.579427399207
 20
138.6170122747227
 30
0.0
 11
1134.579427399207
 21
171.0396620055336
 31
0.0
  0
LINE
  5
2837
330
2
100
AcDbEntity
  8
0
100
AcDbLine
 10
1134.829427399207
 20
138.1839995728307
 30
0.0
 11
1134.981265928981
 21
138.096335556793
 31
0.0
  0
ARC
  5
2838
330
2
100
AcDbEntity
  8
0
100
AcDbCircle
 10
1135.98126592898
 20
139.828386364362
 30
0.0
 40
2.0
100
AcDbArc
 50
239.9999999999994
 51
258.4092797188798
  0
ARC
  5
2839
330
2
100
AcDbEntity
  8
0
100
AcDbCircle
 10
1135.079427399207
 20
138.6170122747227
 30
0.0
 40
0.5
100
AcDbArc
 50
180.0
 51
239.9999999999994
  0
LINE
  5
283A
330
2
100
AcDbEntity
  8
0
100
AcDbLine
 10
1133.579427399207
 20
142.8282919774639
 30
0.0
 11
1134.579427399207
 21
142.2509417082739
 31
0.0
  0
LINE
  5
283B
330
2
100
AcDbEntity
  8
0
100
AcDbLine
 10
1134.829427399207
 20
171.4726747074257
 30
0.0
 11
1134.981265928981
 21
171.5603387234634
 31
0.0
  0
ARC
  5
283C
330
2
100
AcDbEntity
  8
0
100
AcDbCircle
 10
1135.98126592898
 20
169.8282879158943
 30
0.0
 40
2.0
100
AcDbArc
 50
101.5907202811201
 51
120.0000000000005
  0
ARC
  5
283D
330
2
100
AcDbEntity
  8
0
100
AcDbCircle
 10
1135.079427399207
 20
171.0396620055336
 30
0.0
 40
0.5
100
AcDbArc
 50
120.0000000000005
 51
180.0
  0
LINE
  5
283E
330
2
100
AcDbEntity
  8
0
100
AcDbLine
 10
1133.579427399207
 20
166.8283823027924
 30
0.0
 11
1134.579427399207
 21
167.4057325719815
 31
0.0
  0
LINE
  5
283F
330
2
100
AcDbEntity
  8
0
100
AcDbLine
 10
771.633650595608
 20
417.6314265968842
 30
0.0
 11
771.633635038442
 21
457.1314265968842
 31
0.0
  0
LINE
  5
2840
330
2
100
AcDbEntity
  8
0
100
AcDbLine
 10
771.633650595608
 20
417.6314265968842
 30
0.0
 11
750.0505215192108
 21
417.6314265968842
 31
0.0
  0
LINE
  5
2842
330
2
100
AcDbEntity
  8
0
100
AcDbLine
 10
772.633635038442
 20
457.1314265968842
 30
0.0
 11
748.6336350511885
 21
457.130862063592
 31
0.0
  0
LINE
  5
2843
330
2
100
AcDbEntity
  8
0
100
AcDbLine
 10
776.8449147411831
 20
458.1314265968842
 30
0.0
 11
744.4222650103722
 21
458.1314265968842
 31
0.0
  0
LINE
  5
2844
330
2
100
AcDbEntity
  8
0
100
AcDbLine
 10
743.9892523084802
 20
458.3814265968842
 30
0.0
 11
743.9015882924425
 21
458.5332651266574
 31
0.0
  0
ARC
  5
2845
330
2
100
AcDbEntity
  8
0
100
AcDbCircle
 10
745.6336391000116
 20
459.5332651266573
 30
0.0
 40
2.0
100
AcDbArc
 50
191.5907202811201
 51
210.0000000000061
  0
ARC
  5
2846
330
2
100
AcDbEntity
  8
0
100
AcDbCircle
 10
744.4222650103722
 20
458.6314265968842
 30
0.0
 40
0.5
100
AcDbArc
 50
210.0000000000061
 51
270.0
  0
LINE
  5
2847
330
2
100
AcDbEntity
  8
0
100
AcDbLine
 10
748.6335447131134
 20
457.1314265968842
 30
0.0
 11
748.0561944439243
 21
458.1314265968842
 31
0.0
  0
LINE
  5
2848
330
2
100
AcDbEntity
  8
0
100
AcDbLine
 10
749.6336370077435
 20
452.1313210859691
 30
0.0
 11
750.0505215192108
 21
449.1313210859691
 31
0.0
  0
LINE
  5
2849
330
2
100
AcDbEntity
  8
0
100
AcDbLine
 10
749.6336370077444
 20
452.1313210859691
 30
0.0
 11
747.133650595608
 21
452.1313210859691
 31
0.0
  0
LINE
  5
284A
330
2
100
AcDbEntity
  8
0
100
AcDbLine
 10
749.6336350384401
 20
457.1314265968842
 30
0.0
 11
749.6336370077417
 21
452.1313210859691
 31
0.0
  0
LINE
  5
284B
330
2
100
AcDbEntity
  8
0
100
AcDbLine
 10
777.2779274430752
 20
458.3814265968842
 30
0.0
 11
777.3655914591129
 21
458.5332651266574
 31
0.0
  0
LINE
  5
284C
330
2
100
AcDbEntity
  8
0
100
AcDbLine
 10
772.633635038442
 20
457.1314265968842
 30
0.0
 11
773.210985307632
 21
458.1314265968842
 31
0.0
  0
ARC
  5
284D
330
2
100
AcDbEntity
  8
0
100
AcDbCircle
 10
775.6335406515439
 20
459.5332651266573
 30
0.0
 40
2.0
100
AcDbArc
 50
329.9999999999938
 51
348.4092797188798
  0
ARC
  5
284E
330
2
100
AcDbEntity
  8
0
100
AcDbCircle
 10
776.8449147411831
 20
458.6314265968842
 30
0.0
 40
0.5
100
AcDbArc
 50
270.0
 51
329.9999999999938
  0
CIRCLE
  5
2B0F
330
2
100
AcDbEntity
  8
0
100
AcDbCircle
 10
760.6335898757751
 20
154.8283371401342
 30
0.0
 40
26.57735026918791
  0
ARC
  5
2B14
330
2
100
AcDbEntity
  8
0
100
AcDbCircle
 10
846.5811525122839
 20
482.1314265994271
 30
0.0
 40
2.0
100
AcDbArc
 50
270.0
 51
359.4999999999951
  0
ENDSEC
  0
SECTION
  2
OBJECTS
  0
DICTIONARY
  5
7
330
0
100
AcDbDictionary
  3
ACAD_GROUP
350
75
  3
ACAD_LAYOUT
350
61
  3
ACAD_MLINESTYLE
350
76
  3
ACAD_PLOTSETTINGS
350
77
  3
ACAD_PLOTSTYLENAME
350
6
  3
ACADDIM
350
480
  3
ACDBHEADERROUNDTRIPXREC
350
2B2E
  3
ACDBVARIABLEDICTIONARY
350
102
  3
DWGPROPS
350
3D2
  0
DICTIONARY
  5
B21
330
66
100
AcDbDictionary
280
     1
  3
ACAD_LAYERSTATES
360
B22
  0
DICTIONARY
  5
2B4F
330
2
100
AcDbDictionary
280
     1
  3
ACAD_LAYOUTSELFREF
360
2B50
  0
DICTIONARY
  5
2B51
330
2B28
100
AcDbDictionary
280
     1
  3
ACAD_LAYOUTSELFREF
360
2B52
  0
DICTIONARY
  5
75
102
{ACAD_REACTORS
330
7
102
}
330
7
100
AcDbDictionary
  0
DICTIONARY
  5
61
102
{ACAD_REACTORS
330
7
102
}
330
7
100
AcDbDictionary
  0
DICTIONARY
  5
76
102
{ACAD_REACTORS
330
7
102
}
330
7
100
AcDbDictionary
  3
STANDARD
350
78
  0
DICTIONARY
  5
77
102
{ACAD_REACTORS
330
7
102
}
330
7
100
AcDbDictionary
  0
ACDBDICTIONARYWDFLT
  5
6
102
{ACAD_REACTORS
330
7
102
}
330
7
100
AcDbDictionary
281
     1
  3
Normal
350
5
100
AcDbDictionaryWithDefault
340
5
  0
XRECORD
  5
480
102
{ACAD_REACTORS
330
7
102
}
330
7
100
AcDbXrecord
 90
   990106
  3

 60
     0
 61
     0
 62
     1
 63
     3
 64
     1
 65
     0
 66
     0
 67
     3
 68
     1
 69
     0
 70
     0
 71
     0
 72
     0
 40
0.0
170
     2
340
0
  0
DICTIONARY
  5
2B2E
102
{ACAD_REACTORS
330
7
102
}
330
7
100
AcDbDictionary
  3
CEPSNTYPE
350
2B38
  3
DIMSTYLEDATA
350
2B3C
  3
FINGERPRINTGUID
350
2B39
  3
HYPERLINKBASE
350
2B31
  3
INSUNITS
350
2B37
  3
LAYOUTDICT
350
2B33
  3
LWETCUNION
350
2B36
  3
PLOTSETDICT
350
2B34
  3
PLOTSTYLNAMDICT
350
2B35
  3
PSVPSCALE
350
2B3B
  3
PUCSBASE
350
2B3F
  3
PUCSORGBACK
350
2B45
  3
PUCSORGBOTTOM
350
2B41
  3
PUCSORGFRONT
350
2B44
  3
PUCSORGLEFT
350
2B42
  3
PUCSORGRIGHT
350
2B43
  3
PUCSORGTOP
350
2B40
  3
PUCSORTHOREF
350
2B3D
  3
PUCSORTHOVIEW
350
2B3E
  3
STYLESHEET
350
2B32
  3
TSTACKALIGN
350
2B2F
  3
TSTACKSIZE
350
2B30
  3
UCSBASE
350
2B48
  3
UCSORGBACK
350
2B4E
  3
UCSORGBOTTOM
350
2B4A
  3
UCSORGFRONT
350
2B4D
  3
UCSORGLEFT
350
2B4B
  3
UCSORGRIGHT
350
2B4C
  3
UCSORGTOP
350
2B49
  3
UCSORTHOREF
350
2B46
  3
UCSORTHOVIEW
350
2B47
  3
VERSIONGUID
350
2B3A
  0
DICTIONARY
  5
102
102
{ACAD_REACTORS
330
7
102
}
330
7
100
AcDbDictionary
  3
DIMASSOC
350
103
  3
SORTENTS
350
549
  0
XRECORD
  5
3D2
102
{ACAD_REACTORS
330
7
102
}
330
7
100
AcDbXrecord
  1
DWGPROPS COOKIE
  2

  3

  4

  6

  7

  8

  9

300
=
301
=
302
=
303
=
304
=
305
=
306
=
307
=
308
=
309
=
 40
0.5353330671296296
 41
2452052.431989363
 42
2453406.550756377
  1

 90
        0
  0
DICTIONARY
  5
B22
102
{ACAD_REACTORS
330
B21
102
}
330
B21
100
AcDbDictionary
  0
XRECORD
  5
2B50
102
{ACAD_REACTORS
330
2B4F
102
}
330
2B4F
100
AcDbXrecord
340
2
  0
XRECORD
  5
2B52
102
{ACAD_REACTORS
330
2B51
102
}
330
2B51
100
AcDbXrecord
340
2B28
  0
MLINESTYLE
  5
78
102
{ACAD_REACTORS
330
76
102
}
330
76
100
AcDbMlineStyle
  2
STANDARD
 70
     0
  3

 62
     0
 51
90.0
 52
90.0
 71
     2
 49
0.5
 62
   256
  6
BYLAYER
 49
-0.5
 62
   256
  6
BYLAYER
  0
ACDBPLACEHOLDER
  5
5
102
{ACAD_REACTORS
330
6
102
}
330
6
100
AcDbPlaceHolder
280
     0
  0
XRECORD
  5
2B38
102
{ACAD_REACTORS
330
2B2E
102
}
330
2B2E
100
AcDbXrecord
 90
        0
  0
XRECORD
  5
2B3C
102
{ACAD_REACTORS
330
2B2E
102
}
330
2B2E
100
AcDbXrecord
1000
DSTYLE
1002
{
1070
   179
 70
     2
1070
   277
 70
     6
1002
}
  0
XRECORD
  5
2B39
102
{ACAD_REACTORS
330
2B2E
102
}
330
2B2E
100
AcDbXrecord
  1
{6385560B-F4B1-4644-A7C2-A3E32AC3D232}
  0
XRECORD
  5
2B31
102
{ACAD_REACTORS
330
2B2E
102
}
330
2B2E
100
AcDbXrecord
  1

  0
XRECORD
  5
2B37
102
{ACAD_REACTORS
330
2B2E
102
}
330
2B2E
100
AcDbXrecord
 90
        0
  0
XRECORD
  5
2B33
102
{ACAD_REACTORS
330
2B2E
102
}
330
2B2E
100
AcDbXrecord
340
61
  0
XRECORD
  5
2B36
102
{ACAD_REACTORS
330
2B2E
102
}
330
2B2E
100
AcDbXrecord
 90
    10781
  0
XRECORD
  5
2B34
102
{ACAD_REACTORS
330
2B2E
102
}
330
2B2E
100
AcDbXrecord
340
77
  0
XRECORD
  5
2B35
102
{ACAD_REACTORS
330
2B2E
102
}
330
2B2E
100
AcDbXrecord
340
6
  0
XRECORD
  5
2B3B
102
{ACAD_REACTORS
330
2B2E
102
}
330
2B2E
100
AcDbXrecord
 40
0.0
  0
XRECORD
  5
2B3F
102
{ACAD_REACTORS
330
2B2E
102
}
330
2B2E
100
AcDbXrecord
340
0
  0
XRECORD
  5
2B45
102
{ACAD_REACTORS
330
2B2E
102
}
330
2B2E
100
AcDbXrecord
 10
0.0
 20
0.0
 30
0.0
  0
XRECORD
  5
2B41
102
{ACAD_REACTORS
330
2B2E
102
}
330
2B2E
100
AcDbXrecord
 10
0.0
 20
0.0
 30
0.0
  0
XRECORD
  5
2B44
102
{ACAD_REACTORS
330
2B2E
102
}
330
2B2E
100
AcDbXrecord
 10
0.0
 20
0.0
 30
0.0
  0
XRECORD
  5
2B42
102
{ACAD_REACTORS
330
2B2E
102
}
330
2B2E
100
AcDbXrecord
 10
0.0
 20
0.0
 30
0.0
  0
XRECORD
  5
2B43
102
{ACAD_REACTORS
330
2B2E
102
}
330
2B2E
100
AcDbXrecord
 10
0.0
 20
0.0
 30
0.0
  0
XRECORD
  5
2B40
102
{ACAD_REACTORS
330
2B2E
102
}
330
2B2E
100
AcDbXrecord
 10
0.0
 20
0.0
 30
0.0
  0
XRECORD
  5
2B3D
102
{ACAD_REACTORS
330
2B2E
102
}
330
2B2E
100
AcDbXrecord
340
0
  0
XRECORD
  5
2B3E
102
{ACAD_REACTORS
330
2B2E
102
}
330
2B2E
100
AcDbXrecord
 70
     0
  0
XRECORD
  5
2B32
102
{ACAD_REACTORS
330
2B2E
102
}
330
2B2E
100
AcDbXrecord
  1
Sekkei.ctb
  0
XRECORD
  5
2B2F
102
{ACAD_REACTORS
330
2B2E
102
}
330
2B2E
100
AcDbXrecord
 90
        1
  0
XRECORD
  5
2B30
102
{ACAD_REACTORS
330
2B2E
102
}
330
2B2E
100
AcDbXrecord
 90
       70
  0
XRECORD
  5
2B48
102
{ACAD_REACTORS
330
2B2E
102
}
330
2B2E
100
AcDbXrecord
340
0
  0
XRECORD
  5
2B4E
102
{ACAD_REACTORS
330
2B2E
102
}
330
2B2E
100
AcDbXrecord
 10
0.0
 20
0.0
 30
0.0
  0
XRECORD
  5
2B4A
102
{ACAD_REACTORS
330
2B2E
102
}
330
2B2E
100
AcDbXrecord
 10
0.0
 20
0.0
 30
0.0
  0
XRECORD
  5
2B4D
102
{ACAD_REACTORS
330
2B2E
102
}
330
2B2E
100
AcDbXrecord
 10
0.0
 20
0.0
 30
0.0
  0
XRECORD
  5
2B4B
102
{ACAD_REACTORS
330
2B2E
102
}
330
2B2E
100
AcDbXrecord
 10
0.0
 20
0.0
 30
0.0
  0
XRECORD
  5
2B4C
102
{ACAD_REACTORS
330
2B2E
102
}
330
2B2E
100
AcDbXrecord
 10
0.0
 20
0.0
 30
0.0
  0
XRECORD
  5
2B49
102
{ACAD_REACTORS
330
2B2E
102
}
330
2B2E
100
AcDbXrecord
 10
0.0
 20
0.0
 30
0.0
  0
XRECORD
  5
2B46
102
{ACAD_REACTORS
330
2B2E
102
}
330
2B2E
100
AcDbXrecord
340
0
  0
XRECORD
  5
2B47
102
{ACAD_REACTORS
330
2B2E
102
}
330
2B2E
100
AcDbXrecord
 70
     0
  0
XRECORD
  5
2B3A
102
{ACAD_REACTORS
330
2B2E
102
}
330
2B2E
100
AcDbXrecord
  1
{3DAB0500-0AEF-45BE-AA7C-76F7FE9CC26D}
  0
DICTIONARYVAR
  5
103
102
{ACAD_REACTORS
330
102
102
}
330
102
100
DictionaryVariables
280
     0
  1
1
  0
DICTIONARYVAR
  5
549
102
{ACAD_REACTORS
330
102
102
}
330
102
100
DictionaryVariables
280
     0
  1
96
  0
ENDSEC
  0
EOF
