  0
SECTION
  2
HEADER
  9
$ACADVER
  1
AC1014
  9
$ACADMAINTVER
 70
     9
  9
$DWGCODEPAGE
  3
ANSI_932
  9
$INSBASE
 10
0.0
 20
0.0
 30
0.0
  9
$EXTMIN
 10
44.41773900683415
 20
66.64655809839985
 30
0.0
  9
$EXTMAX
 10
1104.51600879114
 20
519.9744109531597
 30
0.0
  9
$LIMMIN
 10
0.0
 20
0.0
  9
$LIMMAX
 10
297.0
 20
210.0
  9
$ORTHOMODE
 70
     1
  9
$REGENMODE
 70
     1
  9
$FILLMODE
 70
     1
  9
$QTEXTMODE
 70
     0
  9
$MIRRTEXT
 70
     0
  9
$DRAGMODE
 70
     2
  9
$LTSCALE
 40
3.0
  9
$OSMODE
 70
    37
  9
$ATTMODE
 70
     1
  9
$TEXTSIZE
 40
2.0
  9
$TRACEWID
 40
1.0
  9
$TEXTSTYLE
  7
STANDARD
  9
$CLAYER
  8
0
  9
$CELTYPE
  6
BYLAYER
  9
$CECOLOR
 62
   256
  9
$CELTSCALE
 40
1.0
  9
$DELOBJ
 70
     1
  9
$DISPSILH
 70
     0
  9
$DIMSCALE
 40
3.0
  9
$DIMASZ
 40
1.8
  9
$DIMEXO
 40
0.625
  9
$DIMDLI
 40
3.75
  9
$DIMRND
 40
0.0
  9
$DIMDLE
 40
0.0
  9
$DIMEXE
 40
0.8
  9
$DIMTP
 40
0.0
  9
$DIMTM
 40
0.0
  9
$DIMTXT
 40
1.8
  9
$DIMCEN
 40
2.5
  9
$DIMTSZ
 40
0.0
  9
$DIMTOL
 70
     0
  9
$DIMLIM
 70
     0
  9
$DIMTIH
 70
     0
  9
$DIMTOH
 70
     0
  9
$DIMSE1
 70
     0
  9
$DIMSE2
 70
     0
  9
$DIMTAD
 70
     1
  9
$DIMZIN
 70
     8
  9
$DIMBLK
  1

  9
$DIMASO
 70
     1
  9
$DIMSHO
 70
     1
  9
$DIMPOST
  1

  9
$DIMAPOST
  1

  9
$DIMALT
 70
     0
  9
$DIMALTD
 70
     4
  9
$DIMALTF
 40
0.0394
  9
$DIMLFAC
 40
1.0
  9
$DIMTOFL
 70
     1
  9
$DIMTVP
 40
0.0
  9
$DIMTIX
 70
     0
  9
$DIMSOXD
 70
     0
  9
$DIMSAH
 70
     0
  9
$DIMBLK1
  1

  9
$DIMBLK2
  1

  9
$DIMSTYLE
  2
STANDARD
  9
$DIMCLRD
 70
     0
  9
$DIMCLRE
 70
     0
  9
$DIMCLRT
 70
     0
  9
$DIMTFAC
 40
1.0
  9
$DIMGAP
 40
0.75
  9
$DIMJUST
 70
     0
  9
$DIMSD1
 70
     0
  9
$DIMSD2
 70
     0
  9
$DIMTOLJ
 70
     1
  9
$DIMTZIN
 70
     0
  9
$DIMALTZ
 70
     0
  9
$DIMALTTZ
 70
     0
  9
$DIMFIT
 70
     3
  9
$DIMUPT
 70
     0
  9
$DIMUNIT
 70
     8
  9
$DIMDEC
 70
     2
  9
$DIMTDEC
 70
     2
  9
$DIMALTU
 70
     8
  9
$DIMALTTD
 70
     4
  9
$DIMTXSTY
  7
STANDARD
  9
$DIMAUNIT
 70
     0
  9
$LUNITS
 70
     2
  9
$LUPREC
 70
     3
  9
$SKETCHINC
 40
1.0
  9
$FILLETRAD
 40
10.0
  9
$AUNITS
 70
     0
  9
$AUPREC
 70
     2
  9
$MENU
  1
.
  9
$ELEVATION
 40
0.0
  9
$PELEVATION
 40
0.0
  9
$THICKNESS
 40
0.0
  9
$LIMCHECK
 70
     0
  9
$BLIPMODE
 70
     0
  9
$CHAMFERA
 40
0.0
  9
$CHAMFERB
 40
0.0
  9
$CHAMFERC
 40
20.0
  9
$CHAMFERD
 40
0.0
  9
$SKPOLY
 70
     0
  9
$TDCREATE
 40
2454411.413675127
  9
$TDUPDATE
 40
2454425.767026180
  9
$TDINDWG
 40
0.0217923727
  9
$TDUSRTIMER
 40
0.0217923727
  9
$USRTIMER
 70
     1
  9
$ANGBASE
 50
0.0
  9
$ANGDIR
 70
     0
  9
$PDMODE
 70
     0
  9
$PDSIZE
 40
-10.0
  9
$PLINEWID
 40
0.0
  9
$COORDS
 70
     0
  9
$SPLFRAME
 70
     0
  9
$SPLINETYPE
 70
     6
  9
$SPLINESEGS
 70
     8
  9
$ATTDIA
 70
     0
  9
$ATTREQ
 70
     1
  9
$HANDLING
 70
-16383
  9
$HANDSEED
  5
3C81
  9
$SURFTAB1
 70
     6
  9
$SURFTAB2
 70
     6
  9
$SURFTYPE
 70
     6
  9
$SURFU
 70
     6
  9
$SURFV
 70
     6
  9
$UCSNAME
  2

  9
$UCSORG
 10
0.0
 20
0.0
 30
0.0
  9
$UCSXDIR
 10
1.0
 20
0.0
 30
0.0
  9
$UCSYDIR
 10
0.0
 20
1.0
 30
0.0
  9
$PUCSNAME
  2

  9
$PUCSORG
 10
0.0
 20
0.0
 30
0.0
  9
$PUCSXDIR
 10
1.0
 20
0.0
 30
0.0
  9
$PUCSYDIR
 10
0.0
 20
1.0
 30
0.0
  9
$USERI1
 70
     0
  9
$USERI2
 70
     0
  9
$USERI3
 70
     0
  9
$USERI4
 70
     0
  9
$USERI5
 70
     0
  9
$USERR1
 40
0.0
  9
$USERR2
 40
0.0
  9
$USERR3
 40
0.0
  9
$USERR4
 40
0.0
  9
$USERR5
 40
0.0
  9
$WORLDVIEW
 70
     1
  9
$SHADEDGE
 70
     3
  9
$SHADEDIF
 70
    70
  9
$TILEMODE
 70
     1
  9
$MAXACTVP
 70
    48
  9
$PINSBASE
 10
0.0
 20
0.0
 30
0.0
  9
$PLIMCHECK
 70
     0
  9
$PEXTMIN
 10
0.0
 20
0.0
 30
0.0
  9
$PEXTMAX
 10
0.0
 20
0.0
 30
0.0
  9
$PLIMMIN
 10
0.0
 20
0.0
  9
$PLIMMAX
 10
12.0
 20
9.0
  9
$UNITMODE
 70
     0
  9
$VISRETAIN
 70
     1
  9
$PLINEGEN
 70
     0
  9
$PSLTSCALE
 70
     1
  9
$TREEDEPTH
 70
  3020
  9
$PICKSTYLE
 70
     1
  9
$CMLSTYLE
  2
STANDARD
  9
$CMLJUST
 70
     0
  9
$CMLSCALE
 40
1.0
  9
$PROXYGRAPHICS
 70
     1
  9
$MEASUREMENT
 70
     0
  0
ENDSEC
  0
SECTION
  2
CLASSES
  0
CLASS
  1
DICTIONARYVAR
  2
AcDbDictionaryVar
  3
AutoCAD 2000
 90
        0
280
     0
281
     0
  0
CLASS
  1
ACDBDICTIONARYWDFLT
  2
AcDbDictionaryWithDefault
  3
AutoCAD 2000
 90
        0
280
     0
281
     0
  0
CLASS
  1
ACDBPLACEHOLDER
  2
AcDbPlaceHolder
  3
AutoCAD 2000
 90
        0
280
     0
281
     0
  0
CLASS
  1
LAYOUT
  2
AcDbLayout
  3
AutoCAD 2000
 90
        0
280
     0
281
     0
  0
CLASS
  1
MATERIAL
  2
AcDbMaterial
  3
ObjectDBX Classes
 90
     1153
280
     0
281
     0
  0
CLASS
  1
VISUALSTYLE
  2
AcDbVisualStyle
  3
ObjectDBX Classes
 90
     4095
280
     0
281
     0
  0
CLASS
  1
TABLESTYLE
  2
AcDbTableStyle
  3
ObjectDBX Classes
 90
     4095
280
     0
281
     0
  0
CLASS
  1
SCALE
  2
AcDbScale
  3
ObjectDBX Classes
 90
     1153
280
     0
281
     0
  0
CLASS
  1
MLEADERSTYLE
  2
AcDbMLeaderStyle
  3
ACDB_MLEADERSTYLE_CLASS
 90
     4095
280
     0
281
     0
  0
CLASS
  1
CELLSTYLEMAP
  2
AcDbCellStyleMap
  3
ObjectDBX Classes
 90
     1152
280
     0
281
     0
  0
CLASS
  1
SORTENTSTABLE
  2
AcDbSortentsTable
  3
AutoCAD 2000
 90
        0
280
     0
281
     0
  0
CLASS
  1
ACAD_PROXY_OBJECT_WRAPPER
  2
AcDbProxyObjectWrapper
  3
AutoCAD 2000
 90
        0
280
     0
281
     0
  0
CLASS
  1
LONG_TRANSACTION
  2
AcDbLongTransaction
  3
AutoCAD 2000
 90
        0
280
     0
281
     0
  0
CLASS
  1
LWPOLYLINE
  2
AcDbPolyline
  3
AutoCAD 2000
 90
        0
280
     0
281
     1
  0
CLASS
  1
HATCH
  2
AcDbHatch
  3
AutoCAD 2000
 90
        0
280
     0
281
     1
  0
CLASS
  1
XRECORD
  2
AcDbXrecord
  3
AutoCAD 2000
 90
        0
280
     0
281
     0
  0
ENDSEC
  0
SECTION
  2
TABLES
  0
TABLE
  2
VPORT
  5
6E
102
{ACAD_XDICTIONARY
360
1D47
102
}
330
0
100
AcDbSymbolTable
 70
     2
  0
VPORT
  5
3C5B
330
6E
100
AcDbSymbolTableRecord
100
AcDbViewportTableRecord
  2
*ACTIVE
 70
     0
 10
0.0
 20
0.0
 11
1.0
 21
1.0
 12
637.8817266386776
 22
283.688049053629
 13
0.0
 23
0.0
 14
10.0
 24
10.0
 15
10.0
 25
10.0
 16
0.0
 26
0.0
 36
1.0
 17
0.0
 27
0.0
 37
0.0
 40
680.0923482429619
 41
1.753504672897196
 42
50.0
 43
0.0
 44
0.0
 50
0.0
 51
0.0
 71
     0
 72
   100
 73
     1
 74
     3
 75
     0
 76
     0
 77
     0
 78
     0
  0
ENDTAB
  0
TABLE
  2
LTYPE
  5
69
330
0
100
AcDbSymbolTable
 70
     5
  0
LTYPE
  5
6A
330
69
100
AcDbSymbolTableRecord
100
AcDbLinetypeTableRecord
  2
BYBLOCK
 70
     0
  3

 72
    65
 73
     0
 40
0.0
  0
LTYPE
  5
6B
330
69
100
AcDbSymbolTableRecord
100
AcDbLinetypeTableRecord
  2
BYLAYER
 70
     0
  3

 72
    65
 73
     0
 40
0.0
  0
LTYPE
  5
8
330
69
100
AcDbSymbolTableRecord
100
AcDbLinetypeTableRecord
  2
CONTINUOUS
 70
     0
  3
Solid line
 72
    65
 73
     0
 40
0.0
  0
LTYPE
  5
27C
330
69
100
AcDbSymbolTableRecord
100
AcDbLinetypeTableRecord
  2
SEKKEI_A2_
 70
     0
  3
center(A2)  ____ _ ____ _ ____ _ ____ _ ____ _ 
 72
    65
 73
     4
 40
14.28749999999999
 49
9.525
 74
     0
 49
-1.587499999999999
 74
     0
 49
1.587499999999999
 74
     0
 49
-1.587499999999999
 74
     0
  0
LTYPE
  5
7F0
330
69
100
AcDbSymbolTableRecord
100
AcDbLinetypeTableRecord
  2
HIDDEN3
 70
     0
  3
Hidden (.3x) _ _ _ _ _ _ _ _ _ _ _ _ _ _ _ _ _
 72
    65
 73
     2
 40
2.857499999999999
 49
1.905
 74
     0
 49
-0.9525
 74
     0
  0
LTYPE
  5
ADB
330
69
100
AcDbSymbolTableRecord
100
AcDbLinetypeTableRecord
  2
CENS
 70
     0
  3
(一点鎖線１)---- - ---- - ---- - ---- - ---- - 
 72
    65
 73
     4
 40
7.0
 49
4.0
 74
     0
 49
-1.0
 74
     0
 49
1.0
 74
     0
 49
-1.0
 74
     0
  0
ENDTAB
  0
TABLE
  2
LAYER
  5
66
102
{ACAD_XDICTIONARY
360
ADC
102
}
330
0
100
AcDbSymbolTable
 70
     9
  0
LAYER
  5
5E
102
{ACAD_XDICTIONARY
360
1D2D
102
}
330
66
100
AcDbSymbolTableRecord
100
AcDbLayerTableRecord
  2
0
 70
     0
 62
     7
  6
CONTINUOUS
  0
LAYER
  5
3E
102
{ACAD_XDICTIONARY
360
1D2F
102
}
330
66
100
AcDbSymbolTableRecord
100
AcDbLayerTableRecord
  2
CENTER
 70
     0
 62
     3
  6
SEKKEI_A2_
  0
LAYER
  5
2B5
102
{ACAD_XDICTIONARY
360
1D35
102
}
330
66
100
AcDbSymbolTableRecord
100
AcDbLayerTableRecord
  2
HIDS
 70
     0
 62
     1
  6
HIDDEN3
  0
LAYER
  5
2BA
102
{ACAD_XDICTIONARY
360
1D37
102
}
330
66
100
AcDbSymbolTableRecord
100
AcDbLayerTableRecord
  2
HOJO
 70
     0
 62
     4
  6
CONTINUOUS
  0
LAYER
  5
3FA
102
{ACAD_XDICTIONARY
360
1D3B
102
}
330
66
100
AcDbSymbolTableRecord
100
AcDbLayerTableRecord
  2
TITLE
 70
     0
 62
     4
  6
CONTINUOUS
  0
ENDTAB
  0
TABLE
  2
STYLE
  5
67
330
0
100
AcDbSymbolTable
 70
     1
  0
STYLE
  5
16
330
67
100
AcDbSymbolTableRecord
100
AcDbTextStyleTableRecord
  2
STANDARD
 70
     0
 40
0.0
 41
1.0
 50
0.0
 71
     0
 42
2.0
  3
simplex.shx
  4
extfont.shx
  0
ENDTAB
  0
TABLE
  2
VIEW
  5
6C
330
0
100
AcDbSymbolTable
 70
     0
  0
ENDTAB
  0
TABLE
  2
UCS
  5
6D
330
0
100
AcDbSymbolTable
 70
     0
  0
ENDTAB
  0
TABLE
  2
APPID
  5
70
330
0
100
AcDbSymbolTable
 70
     2
  0
APPID
  5
71
330
70
100
AcDbSymbolTableRecord
100
AcDbRegAppTableRecord
  2
ACAD
 70
     0
  0
APPID
  5
1680
330
70
100
AcDbSymbolTableRecord
100
AcDbRegAppTableRecord
  2
ACAD_MLEADERVER
 70
     0
  0
ENDTAB
  0
TABLE
  2
DIMSTYLE
  5
72
330
0
100
AcDbSymbolTable
 70
     1
  0
DIMSTYLE
105
73
330
72
100
AcDbSymbolTableRecord
100
AcDbDimStyleTableRecord
  2
STANDARD
 70
     0
  3

  4

  5

  6

  7

 40
3.0
 41
1.8
 42
0.625
 43
3.75
 44
0.8
 45
0.0
 46
0.0
 47
0.0
 48
0.0
140
1.8
141
2.5
142
0.0
143
0.0394
144
1.0
145
0.0
146
1.0
147
0.75
 71
     0
 72
     0
 73
     0
 74
     0
 75
     0
 76
     0
 77
     1
 78
     8
170
     0
171
     4
172
     1
173
     0
174
     0
175
     0
176
     0
177
     0
178
     0
270
     8
271
     2
272
     2
273
     8
274
     4
340
16
275
     0
280
     0
281
     0
282
     0
283
     1
284
     0
285
     0
286
     0
287
     3
288
     0
  0
ENDTAB
  0
TABLE
  2
BLOCK_RECORD
  5
1
330
0
100
AcDbSymbolTable
 70
    46
  0
BLOCK_RECORD
  5
2
102
{ACAD_XDICTIONARY
360
3C7D
102
}
330
1
100
AcDbSymbolTableRecord
100
AcDbBlockTableRecord
  2
*MODEL_SPACE
  0
BLOCK_RECORD
  5
3C56
102
{ACAD_XDICTIONARY
360
3C7F
102
}
330
1
100
AcDbSymbolTableRecord
100
AcDbBlockTableRecord
  2
*PAPER_SPACE
  0
ENDTAB
  0
ENDSEC
  0
SECTION
  2
BLOCKS
  0
BLOCK
  5
5D
330
2
100
AcDbEntity
  8
0
100
AcDbBlockBegin
  2
*MODEL_SPACE
 70
     0
 10
0.0
 20
0.0
 30
0.0
  3
*MODEL_SPACE
  1

  0
ENDBLK
  5
5F
330
2
100
AcDbEntity
  8
0
100
AcDbBlockEnd
  0
BLOCK
  5
3C58
330
3C56
100
AcDbEntity
 67
     1
  8
0
100
AcDbBlockBegin
  2
*PAPER_SPACE
 70
     0
 10
0.0
 20
0.0
 30
0.0
  3
*PAPER_SPACE
  1

  0
ENDBLK
  5
3C59
330
3C56
100
AcDbEntity
 67
     1
  8
0
100
AcDbBlockEnd
  0
ENDSEC
  0
SECTION
  2
ENTITIES
  0
TEXT
  5
EF0
330
2
100
AcDbEntity
  8
TITLE
100
AcDbText
 10
387.651463420334
 20
459.5261773309297
 30
0.0
 40
7.5
  1
AFCZ22L-7~10M750S1
100
AcDbText
  0
TEXT
  5
EF1
330
2
100
AcDbEntity
  8
TITLE
100
AcDbText
 10
387.651463420334
 20
448.0261773309297
 30
0.0
 40
7.5
  1
AFCZ22L-7~10L750S1
100
AcDbText
  0
LINE
  5
340D
330
2
100
AcDbEntity
  8
0
100
AcDbLine
 10
230.2289441888802
 20
183.146558098397
 30
0.0
 11
180.6065778247825
 21
183.1465580983974
 31
0.0
  0
ARC
  5
340E
330
2
100
AcDbEntity
  8
0
100
AcDbCircle
 10
205.4177610068286
 20
-12.35344190159685
 30
0.0
 40
200.0
100
AcDbArc
 50
84.10530161359611
 51
95.89469838640388
  0
LINE
  5
340F
330
2
100
AcDbEntity
  8
0
100
AcDbLine
 10
230.2289441888802
 20
177.646558098397
 30
0.0
 11
180.6065778247825
 21
177.6465580983974
 31
0.0
  0
LINE
  5
3410
330
2
100
AcDbEntity
  8
0
100
AcDbLine
 10
180.6065778247825
 20
90.14655809840906
 30
0.0
 11
230.2289441888802
 21
90.14655809840929
 31
0.0
  0
LINE
  5
3411
330
2
100
AcDbEntity
  8
0
100
AcDbLine
 10
180.6065778247825
 20
95.64655809840905
 30
0.0
 11
230.2289441888802
 21
95.64655809840928
 31
0.0
  0
ARC
  5
3412
330
2
100
AcDbEntity
  8
0
100
AcDbCircle
 10
205.4177610068286
 20
285.6465580984031
 30
0.0
 40
200.0
100
AcDbArc
 50
264.1053016135961
 51
275.8946983864039
  0
LINE
  5
3413
330
2
100
AcDbEntity
  8
CENTER
100
AcDbLine
 10
259.0243627246272
 20
83.03995638060724
 30
0.0
 11
151.8111592890336
 21
190.2531598162008
 31
0.0
  0
LINE
  5
3414
330
2
100
AcDbEntity
  8
CENTER
100
AcDbLine
 10
151.8111592890341
 20
83.03995638060518
 30
0.0
 11
259.0243627246327
 21
190.2531598162045
 31
0.0
  0
CIRCLE
  5
3415
330
2
100
AcDbEntity
  8
0
100
AcDbCircle
 10
205.4177610068322
 20
136.6465580984033
 30
0.0
 40
26.57735026918937
  0
CIRCLE
  5
3416
330
2
100
AcDbEntity
  8
0
100
AcDbCircle
 10
205.4177610068322
 20
136.6465580984033
 30
0.0
 40
26.0
  0
CIRCLE
  5
3417
330
2
100
AcDbEntity
  8
0
100
AcDbCircle
 10
205.4177610068322
 20
136.6465580984031
 30
0.0
 40
32.42260000000154
  0
CIRCLE
  5
3418
330
2
100
AcDbEntity
  8
0
100
AcDbCircle
 10
205.4177610068322
 20
136.6465580984031
 30
0.0
 40
35.50000000000153
  0
CIRCLE
  5
3419
330
2
100
AcDbEntity
  8
0
100
AcDbCircle
 10
205.4177610068322
 20
136.6465580984031
 30
0.0
 40
35.00000000000153
  0
CIRCLE
  5
341A
330
2
100
AcDbEntity
  8
0
100
AcDbCircle
 10
205.4177610068322
 20
136.6465580984031
 30
0.0
 40
33.00000000000153
  0
LINE
  5
341B
330
2
100
AcDbEntity
  8
CENTER
100
AcDbLine
 10
266.4177610068288
 20
136.6465580983976
 30
0.0
 11
44.41773900683415
 21
136.6465580983976
 31
0.0
  0
LINE
  5
341C
330
2
100
AcDbEntity
  8
0
100
AcDbLine
 10
177.0710439188492
 20
97.11102419247641
 30
0.0
 11
165.8822271009044
 21
108.2998410104212
 31
0.0
  0
ARC
  5
341D
330
2
100
AcDbEntity
  8
0
100
AcDbCircle
 10
129.9177390068339
 20
93.6465580984086
 30
0.0
 40
5.0
100
AcDbArc
 50
90.0
 51
180.0
  0
LINE
  5
341E
330
2
100
AcDbEntity
  8
CENTER
100
AcDbLine
 10
162.4177610068286
 20
84.8965580984027
 30
0.0
 11
162.4177610068286
 21
102.3965580984029
 31
0.0
  0
LINE
  5
341F
330
2
100
AcDbEntity
  8
0
100
AcDbLine
 10
173.1819566223234
 20
93.22193689595019
 30
0.0
 11
161.9931398043786
 21
104.4107537138952
 31
0.0
  0
CIRCLE
  5
3420
330
2
100
AcDbEntity
  8
0
100
AcDbCircle
 10
162.4177610068322
 20
93.64655809840291
 30
0.0
 40
4.307179676972509
  0
CIRCLE
  5
3421
330
2
100
AcDbEntity
  8
0
100
AcDbCircle
 10
162.4177610068322
 20
93.64655809840291
 30
0.0
 40
5.000000000000113
  0
LINE
  5
3422
330
2
100
AcDbEntity
  8
0
100
AcDbLine
 10
154.937761006829
 20
93.64655809840224
 30
0.0
 11
154.937761006829
 21
179.646558098402
 31
0.0
  0
LINE
  5
3423
330
2
100
AcDbEntity
  8
0
100
AcDbLine
 10
154.4177610068395
 20
93.64655809840838
 30
0.0
 11
154.4177610068395
 21
179.6465580984031
 31
0.0
  0
LINE
  5
3424
330
2
100
AcDbEntity
  8
0
100
AcDbLine
 10
124.9177390068339
 20
87.14655809840815
 30
0.0
 11
124.9177390068357
 21
186.1465580984088
 31
0.0
  0
LINE
  5
3425
330
2
100
AcDbEntity
  8
CENTER
100
AcDbLine
 10
205.4177610068322
 20
75.64655809840314
 30
0.0
 11
205.4177610068322
 21
197.6465580984031
 31
0.0
  0
LINE
  5
3426
330
2
100
AcDbEntity
  8
0
100
AcDbLine
 10
87.41773900683416
 20
89.90937842142512
 30
0.0
 11
87.41773900683416
 21
98.52373777537014
 31
0.0
  0
LINE
  5
3427
330
2
100
AcDbEntity
  8
0
100
AcDbLine
 10
93.41773900683415
 20
99.21655809839785
 30
0.0
 11
93.41773900683415
 21
89.21655809839785
 31
0.0
  0
LINE
  5
3428
330
2
100
AcDbEntity
  8
0
100
AcDbLine
 10
94.41773900683415
 20
89.21655809839785
 30
0.0
 11
94.41773900683415
 21
99.21655809839785
 31
0.0
  0
LINE
  5
3429
330
2
100
AcDbEntity
  8
0
100
AcDbLine
 10
93.41773900683415
 20
99.21655809839785
 30
0.0
 11
93.41773900683415
 21
89.21655809839785
 31
0.0
  0
LINE
  5
342A
330
2
100
AcDbEntity
  8
0
100
AcDbLine
 10
87.81773900683379
 20
99.21655809839785
 30
0.0
 11
87.81773900683379
 21
89.21655809839785
 31
0.0
  0
LINE
  5
342B
330
2
100
AcDbEntity
  8
0
100
AcDbLine
 10
54.41773900683415
 20
176.6465580983974
 30
0.0
 11
54.41773900683415
 21
96.64655809839814
 31
0.0
  0
LINE
  5
342C
330
2
100
AcDbEntity
  8
0
100
AcDbLine
 10
94.41773900683143
 20
186.524343870941
 30
0.0
 11
94.41773900683234
 21
86.76877232585457
 31
0.0
  0
LINE
  5
342D
330
2
100
AcDbEntity
  8
0
100
AcDbLine
 10
58.41773900683051
 20
176.7163783581102
 30
0.0
 11
58.41773900683233
 21
96.57673783868517
 31
0.0
  0
LINE
  5
342E
330
2
100
AcDbEntity
  8
0
100
AcDbLine
 10
60.41773900683051
 20
178.6465580983947
 30
0.0
 11
60.41773900683051
 21
94.6465580984011
 31
0.0
  0
LINE
  5
342F
330
2
100
AcDbEntity
  8
0
100
AcDbLine
 10
109.4177390068341
 20
85.14655809840315
 30
0.0
 11
109.4177390068341
 21
136.6465580984031
 31
0.0
  0
LINE
  5
3430
330
2
100
AcDbEntity
  8
0
100
AcDbLine
 10
109.4177390068339
 20
85.1465580984086
 30
0.0
 11
122.9177390068339
 21
85.14655809840816
 31
0.0
  0
LINE
  5
3431
330
2
100
AcDbEntity
  8
0
100
AcDbLine
 10
109.4177390068339
 20
85.64655809840861
 30
0.0
 11
122.9177390068339
 21
85.64655809840814
 31
0.0
  0
LINE
  5
3432
330
2
100
AcDbEntity
  8
0
100
AcDbLine
 10
60.41773900683415
 20
94.64655809839815
 30
0.0
 11
87.41773900683416
 21
94.48947669350218
 31
0.0
  0
LINE
  5
3433
330
2
100
AcDbEntity
  8
0
100
AcDbLine
 10
54.41773900683415
 20
96.64655809839814
 30
0.0
 11
58.41773900683233
 21
96.5767378386854
 31
0.0
  0
LINE
  5
3434
330
2
100
AcDbEntity
  8
0
100
AcDbLine
 10
58.41773900683233
 20
96.5767378386854
 30
0.0
 11
60.41773900683415
 21
94.64655809839815
 31
0.0
  0
LINE
  5
3435
330
2
100
AcDbEntity
  8
CENTER
  6
CENS
100
AcDbLine
 10
114.4177390068341
 20
94.21655809839785
 30
0.0
 11
82.41773900683416
 21
94.21655809839785
 31
0.0
  0
LINE
  5
3436
330
2
100
AcDbEntity
  8
0
100
AcDbLine
 10
109.4177390068341
 20
85.64655809839814
 30
0.0
 11
95.40901247133456
 21
85.76881040279022
 31
0.0
  0
ARC
  5
3437
330
2
100
AcDbEntity
  8
0
100
AcDbCircle
 10
95.41773900683233
 20
86.76877232585457
 30
0.0
 40
1.0
100
AcDbArc
 50
180.0
 51
269.5000000000345
  0
LINE
  5
3438
330
2
100
AcDbEntity
  8
0
100
AcDbLine
 10
93.41773900683415
 20
89.21655809839785
 30
0.0
 11
87.81773900683379
 21
89.21655809839785
 31
0.0
  0
LINE
  5
3439
330
2
100
AcDbEntity
  8
0
100
AcDbLine
 10
87.81773900683379
 20
89.21655809839762
 30
0.0
 11
87.41773900683416
 21
89.90937842142512
 31
0.0
  0
LINE
  5
343A
330
2
100
AcDbEntity
  8
0
100
AcDbLine
 10
93.41773900683415
 20
89.21655809839785
 30
0.0
 11
94.41773900683415
 21
89.21655809839785
 31
0.0
  0
LINE
  5
343B
330
2
100
AcDbEntity
  8
CENTER
100
AcDbLine
 10
153.6677610068286
 20
93.64655809840291
 30
0.0
 11
171.1677610068286
 21
93.64655809840291
 31
0.0
  0
LINE
  5
343C
330
2
100
AcDbEntity
  8
0
100
AcDbLine
 10
162.4177610068322
 20
96.53330944435106
 30
0.0
 11
164.9177610068322
 21
95.08993377137676
 31
0.0
  0
LINE
  5
343D
330
2
100
AcDbEntity
  8
0
100
AcDbLine
 10
164.9177610068322
 20
92.20318242542886
 30
0.0
 11
162.4177610068322
 21
90.75980675245478
 31
0.0
  0
LINE
  5
343E
330
2
100
AcDbEntity
  8
0
100
AcDbLine
 10
162.4177610068322
 20
85.64655809840315
 30
0.0
 11
165.4177610068322
 21
85.6465580984036
 31
0.0
  0
LINE
  5
343F
330
2
100
AcDbEntity
  8
0
100
AcDbLine
 10
162.4177610068268
 20
85.6465580984036
 30
0.0
 11
165.4177610068286
 21
85.6465580984036
 31
0.0
  0
ARC
  5
3440
330
2
100
AcDbEntity
  8
0
100
AcDbCircle
 10
122.9177390068339
 20
87.64655809840816
 30
0.0
 40
2.0
100
AcDbArc
 50
270.0
 51
0.0
  0
ARC
  5
3441
330
2
100
AcDbEntity
  8
0
100
AcDbCircle
 10
122.9177390068339
 20
87.14655809840815
 30
0.0
 40
2.0
100
AcDbArc
 50
270.0
 51
0.0
  0
ARC
  5
3442
330
2
100
AcDbEntity
  8
0
100
AcDbCircle
 10
162.4177610068322
 20
93.64655809840314
 30
0.0
 40
8.0
100
AcDbArc
 50
180.0
 51
270.0
  0
ARC
  5
3443
330
2
100
AcDbEntity
  8
0
100
AcDbCircle
 10
162.4177610068286
 20
93.64655809840883
 30
0.0
 40
8.0
100
AcDbArc
 50
180.0
 51
270.0
  0
ARC
  5
3444
330
2
100
AcDbEntity
  8
0
100
AcDbCircle
 10
162.937761006829
 20
93.64655809840224
 30
0.0
 40
8.0
100
AcDbArc
 50
179.9999999999739
 51
270.0
  0
LINE
  5
3445
330
2
100
AcDbEntity
  8
0
100
AcDbLine
 10
154.4177610068322
 20
96.64655809840565
 30
0.0
 11
154.4177610068322
 21
93.64655809840314
 31
0.0
  0
LINE
  5
3446
330
2
100
AcDbEntity
  8
0
100
AcDbLine
 10
162.4177610068322
 20
96.53330944435106
 30
0.0
 11
159.9177610068322
 21
95.08993377137699
 31
0.0
  0
LINE
  5
3447
330
2
100
AcDbEntity
  8
0
100
AcDbLine
 10
159.9177610068322
 20
92.20318242542886
 30
0.0
 11
162.4177610068322
 21
90.75980675245478
 31
0.0
  0
LINE
  5
3448
330
2
100
AcDbEntity
  8
0
100
AcDbLine
 10
159.9177610068322
 20
92.20318242542886
 30
0.0
 11
159.9177610068322
 21
95.08993377137699
 31
0.0
  0
ARC
  5
3449
330
2
100
AcDbEntity
  8
0
100
AcDbCircle
 10
178.7156320765038
 20
27.02135377641889
 30
0.0
 40
60.0
100
AcDbArc
 50
84.10530161359611
 51
101.8050678104414
  0
ARC
  5
344A
330
2
100
AcDbEntity
  8
0
100
AcDbCircle
 10
165.4177610068322
 20
90.6465580984036
 30
0.0
 40
5.0
100
AcDbArc
 50
270.0
 51
281.8050678104415
  0
ARC
  5
344B
330
2
100
AcDbEntity
  8
0
100
AcDbCircle
 10
165.4177610068286
 20
90.6465580984036
 30
0.0
 40
5.0
100
AcDbArc
 50
270.0
 51
281.8050678104415
  0
ARC
  5
344C
330
2
100
AcDbEntity
  8
0
100
AcDbCircle
 10
180.6065778247825
 20
100.646558098409
 30
0.0
 40
10.5
100
AcDbArc
 50
224.9999999999908
 51
270.0
  0
LINE
  5
344D
330
2
100
AcDbEntity
  8
0
100
AcDbLine
 10
164.9177610068322
 20
92.20318242542886
 30
0.0
 11
164.9177610068322
 21
95.08993377137676
 31
0.0
  0
ARC
  5
344E
330
2
100
AcDbEntity
  8
0
100
AcDbCircle
 10
180.6065778247825
 20
100.646558098409
 30
0.0
 40
5.0
100
AcDbArc
 50
224.9999999999908
 51
270.0
  0
LINE
  5
344F
330
2
100
AcDbEntity
  8
0
100
AcDbLine
 10
176.5884017849489
 20
90.94582300704042
 30
0.0
 11
178.6931606629564
 21
96.02716043585246
 31
0.0
  0
LINE
  5
3450
330
2
100
AcDbEntity
  8
0
100
AcDbLine
 10
164.9177610068304
 20
178.2031824254297
 30
0.0
 11
164.9177610068304
 21
181.0899337713776
 31
0.0
  0
LINE
  5
3451
330
2
100
AcDbEntity
  8
0
100
AcDbLine
 10
176.5884017849489
 20
182.3472931897658
 30
0.0
 11
178.6931606629564
 21
177.2659557609538
 31
0.0
  0
LINE
  5
3452
330
2
100
AcDbEntity
  8
0
100
AcDbLine
 10
154.4177610068322
 20
179.6465580984031
 30
0.0
 11
154.4177610068322
 21
176.6465580984056
 31
0.0
  0
LINE
  5
3453
330
2
100
AcDbEntity
  8
0
100
AcDbLine
 10
159.9177610068322
 20
178.2031824254297
 30
0.0
 11
159.9177610068322
 21
181.0899337713778
 31
0.0
  0
ARC
  5
3454
330
2
100
AcDbEntity
  8
0
100
AcDbCircle
 10
129.9177390068339
 20
179.6465580984083
 30
0.0
 40
5.0
100
AcDbArc
 50
180.0
 51
270.0
  0
LINE
  5
3455
330
2
100
AcDbEntity
  8
CENTER
100
AcDbLine
 10
162.4177610068304
 20
188.3965580984065
 30
0.0
 11
162.4177610068304
 21
170.8965580984065
 31
0.0
  0
CIRCLE
  5
3456
330
2
100
AcDbEntity
  8
0
100
AcDbCircle
 10
162.4177610068304
 20
179.6465580984038
 30
0.0
 40
4.307179676972509
  0
CIRCLE
  5
3457
330
2
100
AcDbEntity
  8
0
100
AcDbCircle
 10
162.4177610068304
 20
179.6465580984038
 30
0.0
 40
5.000000000000113
  0
LINE
  5
3458
330
2
100
AcDbEntity
  8
0
100
AcDbLine
 10
161.9931398043786
 20
168.882362482911
 30
0.0
 11
173.1819566223234
 21
180.071179300856
 31
0.0
  0
LINE
  5
3459
330
2
100
AcDbEntity
  8
CENTER
  6
CENS
100
AcDbLine
 10
68.41773900683415
 20
187.5889579719155
 30
0.0
 11
68.41773900683415
 21
164.2290319695487
 31
0.0
  0
ARC
  5
345A
330
2
100
AcDbEntity
  8
0
100
AcDbCircle
 10
63.41782193869744
 20
178.6643029634451
 30
0.0
 40
4.000000000000014
100
AcDbArc
 50
90.32999999998626
 51
180.3299999999993
  0
ARC
  5
345B
330
2
100
AcDbEntity
  8
0
100
AcDbCircle
 10
73.41765607497086
 20
178.7218985103249
 30
0.0
 40
4.000000000000014
100
AcDbArc
 50
0.3299999999992794
 51
90.32999999998626
  0
LINE
  5
345C
330
2
100
AcDbEntity
  8
0
100
AcDbLine
 10
87.41773900683416
 20
183.3837377753704
 30
0.0
 11
87.41773900683416
 21
174.7693784214254
 31
0.0
  0
LINE
  5
345D
330
2
100
AcDbEntity
  8
0
100
AcDbLine
 10
93.41773900683415
 20
174.0765580983977
 30
0.0
 11
93.41773900683415
 21
184.0765580983977
 31
0.0
  0
LINE
  5
345E
330
2
100
AcDbEntity
  8
0
100
AcDbLine
 10
94.41773900683415
 20
184.0765580983977
 30
0.0
 11
94.41773900683415
 21
174.0765580983977
 31
0.0
  0
LINE
  5
345F
330
2
100
AcDbEntity
  8
0
100
AcDbLine
 10
93.41773900683415
 20
174.0765580983977
 30
0.0
 11
93.41773900683415
 21
184.0765580983977
 31
0.0
  0
LINE
  5
3460
330
2
100
AcDbEntity
  8
0
100
AcDbLine
 10
87.81773900683379
 20
174.0765580983977
 30
0.0
 11
87.81773900683379
 21
184.0765580983977
 31
0.0
  0
LINE
  5
3461
330
2
100
AcDbEntity
  8
0
100
AcDbLine
 10
59.41789133415091
 20
178.6407411548009
 30
0.0
 11
87.41773900683416
 21
178.8036395032932
 31
0.0
  0
LINE
  5
3462
330
2
100
AcDbEntity
  8
0
100
AcDbLine
 10
109.4177390068341
 20
188.1465580984033
 30
0.0
 11
109.4177390068341
 21
136.6465580984031
 31
0.0
  0
LINE
  5
3463
330
2
100
AcDbEntity
  8
0
100
AcDbLine
 10
87.81773900683379
 20
99.21655809839785
 30
0.0
 11
93.41773900683415
 21
99.21655809839785
 31
0.0
  0
LINE
  5
3464
330
2
100
AcDbEntity
  8
0
100
AcDbLine
 10
87.81773900683379
 20
99.21655809839785
 30
0.0
 11
87.41773900683416
 21
98.52373777537014
 31
0.0
  0
LINE
  5
3465
330
2
100
AcDbEntity
  8
0
100
AcDbLine
 10
94.41773900683415
 20
99.21655809839785
 30
0.0
 11
93.41773900683415
 21
99.21655809839785
 31
0.0
  0
LINE
  5
3466
330
2
100
AcDbEntity
  8
0
100
AcDbLine
 10
54.41773900683415
 20
176.6465580983974
 30
0.0
 11
58.41773900683051
 21
176.7163783581102
 31
0.0
  0
LINE
  5
3467
330
2
100
AcDbEntity
  8
0
100
AcDbLine
 10
58.41773900683051
 20
176.7163783581102
 30
0.0
 11
60.41773900683051
 21
178.6465580983947
 31
0.0
  0
LINE
  5
3468
330
2
100
AcDbEntity
  8
0
100
AcDbLine
 10
87.81773900683379
 20
174.0765580983977
 30
0.0
 11
93.41773900683415
 21
174.0765580983977
 31
0.0
  0
LINE
  5
3469
330
2
100
AcDbEntity
  8
0
100
AcDbLine
 10
87.81773900683379
 20
174.0765580983977
 30
0.0
 11
87.41773900683416
 21
174.7693784214254
 31
0.0
  0
LINE
  5
346A
330
2
100
AcDbEntity
  8
0
100
AcDbLine
 10
94.41773900683415
 20
174.0765580983977
 30
0.0
 11
93.41773900683415
 21
174.0765580983977
 31
0.0
  0
LINE
  5
346B
330
2
100
AcDbEntity
  8
0
100
AcDbLine
 10
153.9177610068304
 20
128.9654123505435
 30
0.0
 11
153.9177610068322
 21
144.3277038462627
 31
0.0
  0
LINE
  5
346C
330
2
100
AcDbEntity
  8
0
100
AcDbLine
 10
158.9177610068377
 20
161.4577412804521
 30
0.0
 11
158.9177610068377
 21
111.8353749163541
 31
0.0
  0
LINE
  5
346D
330
2
100
AcDbEntity
  8
0
100
AcDbLine
 10
164.4177610068377
 20
161.4577412804521
 30
0.0
 11
164.4177610068377
 21
111.8353749163538
 31
0.0
  0
LINE
  5
346E
330
2
100
AcDbEntity
  8
0
100
AcDbLine
 10
133.9177390068339
 20
172.6465580984081
 30
0.0
 11
133.9177390068339
 21
100.6465580983985
 31
0.0
  0
LINE
  5
346F
330
2
100
AcDbEntity
  8
0
100
AcDbLine
 10
159.7170259154695
 20
107.8171988765209
 30
0.0
 11
164.7983633442813
 21
109.9219577545286
 31
0.0
  0
LINE
  5
3470
330
2
100
AcDbEntity
  8
0
100
AcDbLine
 10
135.7907443530416
 20
101.6465580984004
 30
0.0
 11
152.4177610068395
 21
101.6465580984001
 31
0.0
  0
LINE
  5
3471
330
2
100
AcDbEntity
  8
0
100
AcDbLine
 10
149.4177610068341
 20
106.6465580984026
 30
0.0
 11
138.9177390068321
 21
106.6465580984033
 31
0.0
  0
ARC
  5
3472
330
2
100
AcDbEntity
  8
0
100
AcDbCircle
 10
138.9177390068302
 20
101.6465580984031
 30
0.0
 40
5.0
100
AcDbArc
 50
90.0
 51
180.0
  0
LINE
  5
3473
330
2
100
AcDbEntity
  8
0
100
AcDbLine
 10
131.9177390068302
 20
98.64655809840337
 30
0.0
 11
129.9177390068339
 21
98.6465580984036
 31
0.0
  0
ARC
  5
3474
330
2
100
AcDbEntity
  8
0
100
AcDbCircle
 10
131.9177390068302
 20
100.6465580983985
 30
0.0
 40
2.0
100
AcDbArc
 50
270.0
 51
0.0
  0
ARC
  5
3475
330
2
100
AcDbEntity
  8
0
100
AcDbCircle
 10
135.7907443530416
 20
99.64655809840042
 30
0.0
 40
2.0
100
AcDbArc
 50
90.0
 51
165.5224878140405
  0
ARC
  5
3476
330
2
100
AcDbEntity
  8
0
100
AcDbCircle
 10
149.4177610068341
 20
101.6465580984026
 30
0.0
 40
5.0
100
AcDbArc
 50
0.0
 51
90.0
  0
ARC
  5
3477
330
2
100
AcDbEntity
  8
0
100
AcDbCircle
 10
169.4177610068377
 20
111.8353749163541
 30
0.0
 40
10.5
100
AcDbArc
 50
180.0
 51
224.9999999999908
  0
ARC
  5
3478
330
2
100
AcDbEntity
  8
0
100
AcDbCircle
 10
152.4177610068395
 20
99.64655809840019
 30
0.0
 40
2.0
100
AcDbArc
 50
0.0
 51
90.0
  0
LINE
  5
3479
330
2
100
AcDbEntity
  8
0
100
AcDbLine
 10
133.9177390068339
 20
128.9654123505435
 30
0.0
 11
154.4177610068377
 21
128.9654123505435
 31
0.0
  0
ARC
  5
347A
330
2
100
AcDbEntity
  8
0
100
AcDbCircle
 10
169.4177610068377
 20
111.8353749163538
 30
0.0
 40
5.0
100
AcDbArc
 50
180.0
 51
224.9999999999908
  0
LINE
  5
347B
330
2
100
AcDbEntity
  8
CENTER
100
AcDbLine
 10
154.7445559260809
 20
171.1465580984033
 30
0.0
 11
165.0909660875945
 21
171.1465580984033
 31
0.0
  0
LINE
  5
347C
330
2
100
AcDbEntity
  8
0
100
AcDbLine
 10
164.9177610068304
 20
178.2031824254297
 30
0.0
 11
162.4177610068322
 21
176.7598067524556
 31
0.0
  0
LINE
  5
347D
330
2
100
AcDbEntity
  8
0
100
AcDbLine
 10
159.7170259154695
 20
165.4759173202853
 30
0.0
 11
164.7983633442813
 21
163.3711584422774
 31
0.0
  0
LINE
  5
347E
330
2
100
AcDbEntity
  8
0
100
AcDbLine
 10
133.9177390068339
 20
144.3277038462629
 30
0.0
 11
154.4177610068377
 21
144.3277038462624
 31
0.0
  0
LINE
  5
347F
330
2
100
AcDbEntity
  8
0
100
AcDbLine
 10
135.7907443530398
 20
171.6465580984001
 30
0.0
 11
152.4177610068395
 21
171.6465580984001
 31
0.0
  0
LINE
  5
3480
330
2
100
AcDbEntity
  8
0
100
AcDbLine
 10
149.4177610068341
 20
166.6465580984031
 30
0.0
 11
138.9177390068339
 21
166.6465580984031
 31
0.0
  0
ARC
  5
3481
330
2
100
AcDbEntity
  8
0
100
AcDbCircle
 10
138.9177390068339
 20
171.6465580984031
 30
0.0
 40
5.0
100
AcDbArc
 50
180.0
 51
270.0
  0
LINE
  5
3482
330
2
100
AcDbEntity
  8
0
100
AcDbLine
 10
131.9177390068339
 20
174.646558098409
 30
0.0
 11
129.9177390068321
 21
174.6465580984095
 31
0.0
  0
ARC
  5
3483
330
2
100
AcDbEntity
  8
0
100
AcDbCircle
 10
135.7907443530398
 20
173.6465580984001
 30
0.0
 40
2.0
100
AcDbArc
 50
194.4775121859594
 51
270.0
  0
ARC
  5
3484
330
2
100
AcDbEntity
  8
0
100
AcDbCircle
 10
131.9177390068339
 20
172.6465580984081
 30
0.0
 40
2.0
100
AcDbArc
 50
0.0
 51
89.99999999994789
  0
ARC
  5
3485
330
2
100
AcDbEntity
  8
0
100
AcDbCircle
 10
149.4177610068341
 20
171.6465580984031
 30
0.0
 40
5.0
100
AcDbArc
 50
270.0
 51
0.0
  0
LINE
  5
3486
330
2
100
AcDbEntity
  8
CENTER
100
AcDbLine
 10
159.9177610068377
 20
176.3197631791604
 30
0.0
 11
159.9177610068377
 21
165.9733530176463
 31
0.0
  0
ARC
  5
3487
330
2
100
AcDbEntity
  8
0
100
AcDbCircle
 10
169.4177610068377
 20
161.4577412804521
 30
0.0
 40
10.5
100
AcDbArc
 50
135.0000000000092
 51
180.0
  0
ARC
  5
3488
330
2
100
AcDbEntity
  8
0
100
AcDbCircle
 10
152.4177610068395
 20
173.6465580984001
 30
0.0
 40
2.0
100
AcDbArc
 50
270.0
 51
0.0
  0
LINE
  5
3489
330
2
100
AcDbEntity
  8
0
100
AcDbLine
 10
159.9177610068322
 20
178.2031824254297
 30
0.0
 11
162.4177610068322
 21
176.7598067524556
 31
0.0
  0
CIRCLE
  5
348A
330
2
100
AcDbEntity
  8
0
100
AcDbCircle
 10
159.9177610068377
 20
171.1465580984033
 30
0.0
 40
1.6
  0
CIRCLE
  5
348B
330
2
100
AcDbEntity
  8
HOJO
100
AcDbCircle
 10
159.9177610068377
 20
171.1465580984033
 30
0.0
 40
2.0
  0
LINE
  5
348C
330
2
100
AcDbEntity
  8
0
100
AcDbLine
 10
165.8822271009044
 20
164.993275186385
 30
0.0
 11
177.0710439188492
 21
176.1820920043301
 31
0.0
  0
ARC
  5
348D
330
2
100
AcDbEntity
  8
0
100
AcDbCircle
 10
169.4177610068377
 20
161.4577412804521
 30
0.0
 40
5.0
100
AcDbArc
 50
135.0000000000092
 51
180.0
  0
ARC
  5
348E
330
2
100
AcDbEntity
  8
0
100
AcDbCircle
 10
180.6065778247825
 20
172.6465580983974
 30
0.0
 40
5.0
100
AcDbArc
 50
90.0
 51
135.0000000000092
  0
LINE
  5
348F
330
2
100
AcDbEntity
  8
0
100
AcDbLine
 10
109.4177390068339
 20
188.1465580984086
 30
0.0
 11
122.9177390068357
 21
188.146558098409
 31
0.0
  0
LINE
  5
3490
330
2
100
AcDbEntity
  8
0
100
AcDbLine
 10
109.4177390068339
 20
187.6465580984086
 30
0.0
 11
122.9177390068357
 21
187.646558098409
 31
0.0
  0
LINE
  5
3491
330
2
100
AcDbEntity
  8
0
100
AcDbLine
 10
63.39478371994459
 20
182.6642366179544
 30
0.0
 11
73.39461785621802
 21
182.7218321648345
 31
0.0
  0
LINE
  5
3492
330
2
100
AcDbEntity
  8
CENTER
  6
CENS
100
AcDbLine
 10
114.4177390068341
 20
179.0765580983977
 30
0.0
 11
82.41773900683416
 21
179.0765580983977
 31
0.0
  0
LINE
  5
3493
330
2
100
AcDbEntity
  8
0
100
AcDbLine
 10
109.4177390068341
 20
187.6465580983972
 30
0.0
 11
95.40901247133456
 21
187.5243057940051
 31
0.0
  0
LINE
  5
3494
330
2
100
AcDbEntity
  8
0
100
AcDbLine
 10
93.41773900683415
 20
184.0765580983977
 30
0.0
 11
87.81773900683379
 21
184.0765580983977
 31
0.0
  0
LINE
  5
3495
330
2
100
AcDbEntity
  8
0
100
AcDbLine
 10
87.81773900683379
 20
184.0765580983979
 30
0.0
 11
87.41773900683416
 21
183.3837377753704
 31
0.0
  0
LINE
  5
3496
330
2
100
AcDbEntity
  8
0
100
AcDbLine
 10
93.41773900683415
 20
184.0765580983977
 30
0.0
 11
94.41773900683415
 21
184.0765580983977
 31
0.0
  0
ARC
  5
3497
330
2
100
AcDbEntity
  8
0
100
AcDbCircle
 10
95.41773900683415
 20
186.524343870941
 30
0.0
 40
1.0
100
AcDbArc
 50
90.49999999996549
 51
180.0
  0
LINE
  5
3498
330
2
100
AcDbEntity
  8
CENTER
100
AcDbLine
 10
153.6677610068304
 20
179.6465580984065
 30
0.0
 11
171.1677610068304
 21
179.6465580984065
 31
0.0
  0
LINE
  5
3499
330
2
100
AcDbEntity
  8
0
100
AcDbLine
 10
162.4177610068304
 20
182.5333094443519
 30
0.0
 11
164.9177610068304
 21
181.0899337713776
 31
0.0
  0
LINE
  5
349A
330
2
100
AcDbEntity
  8
0
100
AcDbLine
 10
162.4177610068322
 20
187.6465580984031
 30
0.0
 11
165.4177610068322
 21
187.6465580984031
 31
0.0
  0
LINE
  5
349B
330
2
100
AcDbEntity
  8
0
100
AcDbLine
 10
165.4177610068286
 20
187.6465580984031
 30
0.0
 11
162.4177610068395
 21
187.6465580984031
 31
0.0
  0
ARC
  5
349C
330
2
100
AcDbEntity
  8
0
100
AcDbCircle
 10
122.9177390068357
 20
186.146558098409
 30
0.0
 40
2.0
100
AcDbArc
 50
0.0
 51
90.0
  0
ARC
  5
349D
330
2
100
AcDbEntity
  8
0
100
AcDbCircle
 10
122.9177390068357
 20
185.646558098409
 30
0.0
 40
2.0
100
AcDbArc
 50
0.0
 51
90.0
  0
ARC
  5
349E
330
2
100
AcDbEntity
  8
0
100
AcDbCircle
 10
162.4177610068322
 20
179.6465580984031
 30
0.0
 40
8.0
100
AcDbArc
 50
90.0
 51
180.0
  0
ARC
  5
349F
330
2
100
AcDbEntity
  8
0
100
AcDbCircle
 10
162.4177610068395
 20
179.6465580984031
 30
0.0
 40
8.0
100
AcDbArc
 50
90.0
 51
180.0
  0
ARC
  5
34A0
330
2
100
AcDbEntity
  8
0
100
AcDbCircle
 10
162.9377610068354
 20
179.646558098402
 30
0.0
 40
8.0
100
AcDbArc
 50
90.0
 51
179.9999999999739
  0
LINE
  5
34A1
330
2
100
AcDbEntity
  8
0
100
AcDbLine
 10
162.4177610068304
 20
182.5333094443519
 30
0.0
 11
159.9177610068322
 21
181.0899337713778
 31
0.0
  0
ARC
  5
34A2
330
2
100
AcDbEntity
  8
0
100
AcDbCircle
 10
178.7156320765038
 20
246.2717624203878
 30
0.0
 40
60.0
100
AcDbArc
 50
258.1949321895585
 51
275.8946983864039
  0
ARC
  5
34A3
330
2
100
AcDbEntity
  8
0
100
AcDbCircle
 10
180.6065778247825
 20
172.6465580983974
 30
0.0
 40
10.5
100
AcDbArc
 50
90.0
 51
135.0000000000092
  0
ARC
  5
34A4
330
2
100
AcDbEntity
  8
0
100
AcDbCircle
 10
165.4177610068322
 20
182.6465580984031
 30
0.0
 40
5.0
100
AcDbArc
 50
78.19493218950549
 51
90.0
  0
ARC
  5
34A5
330
2
100
AcDbEntity
  8
0
100
AcDbCircle
 10
165.4177610068286
 20
182.6465580984031
 30
0.0
 40
5.0
100
AcDbArc
 50
78.19493218955852
 51
90.0
  0
LINE
  5
34A6
330
2
100
AcDbEntity
  8
0
100
AcDbLine
 10
432.837731189506
 20
91.64655809839997
 30
0.0
 11
432.837731189506
 21
181.6465580983995
 31
0.0
  0
LINE
  5
34A7
330
2
100
AcDbEntity
  8
0
100
AcDbLine
 10
427.837731189506
 20
86.36652469114734
 30
0.0
 11
427.837731189506
 21
186.9265915056471
 31
0.0
  0
LINE
  5
34A8
330
2
100
AcDbEntity
  8
CENTER
100
AcDbLine
 10
374.8377311895005
 20
198.1465580983899
 30
0.0
 11
374.8377311895005
 21
75.14655809839098
 31
0.0
  0
LINE
  5
34AA
330
2
100
AcDbEntity
  8
HIDS
100
AcDbLine
 10
332.3377311895205
 20
96.47498522313709
 30
0.0
 11
332.3377311895078
 21
98.646558098382
 31
0.0
  0
LINE
  5
34AB
330
2
100
AcDbEntity
  8
0
100
AcDbLine
 10
330.7377311895074
 20
88.64655809838177
 30
0.0
 11
330.7377311895093
 21
98.646558098382
 31
0.0
  0
LINE
  5
34AC
330
2
100
AcDbEntity
  8
0
100
AcDbLine
 10
330.3377311895096
 20
89.33937842140972
 30
0.0
 11
330.3377311895078
 21
97.95373777535429
 31
0.0
  0
LINE
  5
34AD
330
2
100
AcDbEntity
  8
0
100
AcDbLine
 10
336.3377311895096
 20
88.64655809838177
 30
0.0
 11
336.3377311895096
 21
98.64655809838177
 31
0.0
  0
CIRCLE
  5
34AE
330
2
100
AcDbEntity
  8
0
100
AcDbCircle
 10
248.4177610068341
 20
93.64655809839996
 30
0.0
 40
4.307179676972509
  0
CIRCLE
  5
34AF
330
2
100
AcDbEntity
  8
0
100
AcDbCircle
 10
248.4177610068341
 20
93.64655809839996
 30
0.0
 40
5.000000000000113
  0
ARC
  5
34B0
330
2
100
AcDbEntity
  8
0
100
AcDbCircle
 10
251.4177610068286
 20
96.64655809840315
 30
0.0
 40
5.0
100
AcDbArc
 50
0.0
 51
11.80506781047152
  0
LINE
  5
34B1
330
2
100
AcDbEntity
  8
CENTER
100
AcDbLine
 10
248.4177610068322
 20
84.89655809839996
 30
0.0
 11
248.4177610068322
 21
102.3965580984002
 31
0.0
  0
LINE
  5
34B2
330
2
100
AcDbEntity
  8
0
100
AcDbLine
 10
248.842382209284
 20
104.410753713895
 30
0.0
 11
237.6535653913392
 21
93.22193689595042
 31
0.0
  0
LINE
  5
34B3
330
2
100
AcDbEntity
  8
0
100
AcDbLine
 10
244.9532949127583
 20
108.2998410104212
 30
0.0
 11
233.7644780948135
 21
97.11102419247641
 31
0.0
  0
LINE
  5
34B4
330
2
100
AcDbEntity
  8
CENTER
100
AcDbLine
 10
250.9177610068286
 20
96.97335301764589
 30
0.0
 11
250.9177610068286
 21
107.3197631791599
 31
0.0
  0
LINE
  5
34B5
330
2
100
AcDbEntity
  8
0
100
AcDbLine
 10
337.8377311895078
 20
185.5984843349281
 30
0.0
 11
337.8377311895078
 21
87.69463202801899
 31
0.0
  0
LINE
  5
34B6
330
2
100
AcDbEntity
  8
0
100
AcDbLine
 10
345.337731189506
 20
85.64655809839814
 30
0.0
 11
345.337731189506
 21
187.6421946645127
 31
0.0
  0
LINE
  5
34B7
330
2
100
AcDbEntity
  8
0
100
AcDbLine
 10
323.8377311895133
 20
93.56851118411624
 30
0.0
 11
323.8377311895133
 21
179.7246050126646
 31
0.0
  0
LINE
  5
34B8
330
2
100
AcDbEntity
  8
0
100
AcDbLine
 10
374.8377311895133
 20
85.14655809839087
 30
0.0
 11
417.9161587930452
 21
85.56889562391507
 31
0.0
  0
LINE
  5
34B9
330
2
100
AcDbEntity
  8
0
100
AcDbLine
 10
426.837731189506
 20
96.64655809837995
 30
0.0
 11
345.337731189506
 21
96.64655809837995
 31
0.0
  0
LINE
  5
34BA
330
2
100
AcDbEntity
  8
0
100
AcDbLine
 10
426.837731189506
 20
93.64655809838245
 30
0.0
 11
345.337731189506
 21
93.64655809838245
 31
0.0
  0
LINE
  5
34BB
330
2
100
AcDbEntity
  8
0
100
AcDbLine
 10
345.3377311895096
 20
85.64655809839814
 30
0.0
 11
427.837731189506
 21
86.36652469114734
 31
0.0
  0
LINE
  5
34BC
330
2
100
AcDbEntity
  8
0
100
AcDbLine
 10
248.4177610068341
 20
96.53330944434811
 30
0.0
 11
250.917761006834
 21
95.08993377137381
 31
0.0
  0
LINE
  5
34BD
330
2
100
AcDbEntity
  8
0
100
AcDbLine
 10
250.917761006834
 20
92.20318242542589
 30
0.0
 11
248.4177610068359
 21
90.75980675245181
 31
0.0
  0
LINE
  5
34BE
330
2
100
AcDbEntity
  8
CENTER
100
AcDbLine
 10
257.1677610068322
 20
93.64655809839996
 30
0.0
 11
239.6677610068322
 21
93.64655809839996
 31
0.0
  0
ARC
  5
34BF
330
2
100
AcDbEntity
  8
0
100
AcDbCircle
 10
248.4177610068322
 20
93.6465580984086
 30
0.0
 40
8.0
100
AcDbArc
 50
270.0
 51
0.0
  0
ARC
  5
34C0
330
2
100
AcDbEntity
  8
0
100
AcDbCircle
 10
232.1198899371534
 20
27.02135377641889
 30
0.0
 40
60.0
100
AcDbArc
 50
78.19493218955852
 51
95.89469838640388
  0
ARC
  5
34C1
330
2
100
AcDbEntity
  8
0
100
AcDbCircle
 10
245.4177610068286
 20
90.64655809840315
 30
0.0
 40
5.0
100
AcDbArc
 50
258.1949321895585
 51
270.0
  0
LINE
  5
34C2
330
2
100
AcDbEntity
  8
0
100
AcDbLine
 10
248.4177610068286
 20
85.6465580984036
 30
0.0
 11
245.4177610068286
 21
85.64655809840315
 31
0.0
  0
LINE
  5
34C3
330
2
100
AcDbEntity
  8
0
100
AcDbLine
 10
234.2471202287138
 20
90.94582300704018
 30
0.0
 11
232.1423613507063
 21
96.02716043585246
 31
0.0
  0
ARC
  5
34C4
330
2
100
AcDbEntity
  8
0
100
AcDbCircle
 10
230.2289441888802
 20
100.6465580984092
 30
0.0
 40
5.0
100
AcDbArc
 50
270.0
 51
315.0000000000092
  0
ARC
  5
34C5
330
2
100
AcDbEntity
  8
0
100
AcDbCircle
 10
230.2289441888802
 20
100.6465580984092
 30
0.0
 40
10.5
100
AcDbArc
 50
270.0
 51
315.0000000000092
  0
LINE
  5
34C6
330
2
100
AcDbEntity
  8
0
100
AcDbLine
 10
248.4177610068341
 20
96.53330944434811
 30
0.0
 11
245.9177610068359
 21
95.08993377137404
 31
0.0
  0
LINE
  5
34C7
330
2
100
AcDbEntity
  8
0
100
AcDbLine
 10
245.9177610068359
 20
92.20318242542589
 30
0.0
 11
248.4177610068359
 21
90.75980675245181
 31
0.0
  0
LINE
  5
34C8
330
2
100
AcDbEntity
  8
0
100
AcDbLine
 10
245.9177610068359
 20
92.20318242542589
 30
0.0
 11
245.9177610068359
 21
95.08993377137404
 31
0.0
  0
LINE
  5
34C9
330
2
100
AcDbEntity
  8
0
100
AcDbLine
 10
250.917761006834
 20
92.20318242542589
 30
0.0
 11
250.917761006834
 21
95.08993377137381
 31
0.0
  0
LINE
  5
34CA
330
2
100
AcDbEntity
  8
0
100
AcDbLine
 10
256.4177610068286
 20
93.64655809840337
 30
0.0
 11
256.4177610068286
 21
96.64655809840088
 31
0.0
  0
LINE
  5
34CB
330
2
100
AcDbEntity
  8
CENTER
100
AcDbLine
 10
325.3377311895096
 20
93.646558098382
 30
0.0
 11
351.4030569747706
 21
93.646558098382
 31
0.0
  0
LINE
  5
34CC
330
2
100
AcDbEntity
  8
HIDS
100
AcDbLine
 10
337.2519447518811
 20
90.73234453603459
 30
0.0
 11
332.9235176271472
 21
95.06077166076329
 31
0.0
  0
LINE
  5
34CD
330
2
100
AcDbEntity
  8
0
100
AcDbLine
 10
336.3377311895078
 20
88.64655809838177
 30
0.0
 11
337.8377311895078
 21
88.64655809838177
 31
0.0
  0
LINE
  5
34CE
330
2
100
AcDbEntity
  8
0
100
AcDbLine
 10
374.8377311895133
 20
85.14655809839087
 30
0.0
 11
331.7593035859831
 21
85.56889562391598
 31
0.0
  0
ARC
  5
34CF
330
2
100
AcDbEntity
  8
0
100
AcDbCircle
 10
331.8377311895133
 20
93.56851118411624
 30
0.0
 40
8.0
100
AcDbArc
 50
180.0
 51
269.4382946674162
  0
ARC
  5
34D0
330
2
100
AcDbEntity
  8
HIDS
100
AcDbCircle
 10
334.3377311895205
 20
96.47498522313709
 30
0.0
 40
2.0
100
AcDbArc
 50
180.0
 51
225.0000000000644
  0
LINE
  5
34D1
330
2
100
AcDbEntity
  8
0
100
AcDbLine
 10
330.7377311895093
 20
88.64655809838177
 30
0.0
 11
330.3377311895096
 21
89.33937842140972
 31
0.0
  0
LINE
  5
34D2
330
2
100
AcDbEntity
  8
0
100
AcDbLine
 10
336.3377311895096
 20
88.64655809838177
 30
0.0
 11
330.7377311895093
 21
88.64655809838177
 31
0.0
  0
ARC
  5
34D3
330
2
100
AcDbEntity
  8
0
100
AcDbCircle
 10
339.8377311895078
 20
87.69463202801899
 30
0.0
 40
2.0
100
AcDbArc
 50
180.0
 51
269.4999999999824
  0
LINE
  5
34D4
330
2
100
AcDbEntity
  8
0
100
AcDbLine
 10
339.8202781185104
 20
85.6947081818903
 30
0.0
 11
345.337731189506
 21
85.64655809839814
 31
0.0
  0
ARC
  5
34D5
330
2
100
AcDbEntity
  8
HIDS
100
AcDbCircle
 10
335.8377311895078
 20
89.31813097366079
 30
0.0
 40
2.0
100
AcDbArc
 50
0.0
 51
45.00000000006447
  0
ARC
  5
34D6
330
2
100
AcDbEntity
  8
0
100
AcDbCircle
 10
417.8377311895133
 20
93.56851118411531
 30
0.0
 40
8.0
100
AcDbArc
 50
270.5617053325316
 51
294.9148177589203
  0
LINE
  5
34D7
330
2
100
AcDbEntity
  8
0
100
AcDbLine
 10
427.837731189506
 20
91.64655809839997
 30
0.0
 11
432.837731189506
 21
91.64655809839997
 31
0.0
  0
LINE
  5
34D8
330
2
100
AcDbEntity
  8
0
100
AcDbLine
 10
374.8377311895133
 20
188.1465580983899
 30
0.0
 11
417.9161587930452
 21
187.7242205728657
 31
0.0
  0
LINE
  5
34D9
330
2
100
AcDbEntity
  8
CENTER
100
AcDbLine
 10
498.837731189506
 20
136.6465580983972
 30
0.0
 11
313.8377311895133
 21
136.6465580983972
 31
0.0
  0
LINE
  5
34DA
330
2
100
AcDbEntity
  8
0
100
AcDbLine
 10
426.837731189506
 20
116.1064589212055
 30
0.0
 11
345.337731189506
 21
116.1064589212055
 31
0.0
  0
LINE
  5
34DB
330
2
100
AcDbEntity
  8
0
100
AcDbLine
 10
426.837731189506
 20
176.6465580984145
 30
0.0
 11
345.337731189506
 21
176.6465580984145
 31
0.0
  0
LINE
  5
34DC
330
2
100
AcDbEntity
  8
0
100
AcDbLine
 10
426.837731189506
 20
179.646558098412
 30
0.0
 11
345.337731189506
 21
179.646558098412
 31
0.0
  0
LINE
  5
34DD
330
2
100
AcDbEntity
  8
0
100
AcDbLine
 10
345.3377311895042
 20
187.6465580983963
 30
0.0
 11
427.837731189506
 21
186.9265915056471
 31
0.0
  0
LINE
  5
34DE
330
2
100
AcDbEntity
  8
0
100
AcDbLine
 10
426.837731189506
 20
157.1866572755889
 30
0.0
 11
345.337731189506
 21
157.1866572755889
 31
0.0
  0
LINE
  5
34DF
330
2
100
AcDbEntity
  8
HIDS
100
AcDbLine
 10
337.2519447518811
 20
182.5607716607598
 30
0.0
 11
332.9235176271472
 21
178.2323445360311
 31
0.0
  0
LINE
  5
34E0
330
2
100
AcDbEntity
  8
0
100
AcDbLine
 10
330.7377311895074
 20
184.6465580984124
 30
0.0
 11
330.7377311895093
 21
174.6465580984124
 31
0.0
  0
LINE
  5
34E1
330
2
100
AcDbEntity
  8
0
100
AcDbLine
 10
330.3377311895096
 20
183.9537377753847
 30
0.0
 11
330.3377311895078
 21
175.3393784214401
 31
0.0
  0
LINE
  5
34E2
330
2
100
AcDbEntity
  8
0
100
AcDbLine
 10
336.3377311895096
 20
184.6465580984124
 30
0.0
 11
336.3377311895096
 21
174.6465580984127
 31
0.0
  0
LINE
  5
34E3
330
2
100
AcDbEntity
  8
0
100
AcDbLine
 10
345.337731189506
 20
152.8395728362565
 30
0.0
 11
345.3377311895042
 21
187.6465580983963
 31
0.0
  0
LINE
  5
34E4
330
2
100
AcDbEntity
  8
0
100
AcDbLine
 10
245.9177610068322
 20
178.2031824254293
 30
0.0
 11
245.9177610068322
 21
181.0899337713774
 31
0.0
  0
LINE
  5
34E5
330
2
100
AcDbEntity
  8
0
100
AcDbLine
 10
250.9177610068322
 20
178.2031824254293
 30
0.0
 11
250.9177610068322
 21
181.0899337713772
 31
0.0
  0
LINE
  5
34E6
330
2
100
AcDbEntity
  8
0
100
AcDbLine
 10
237.6535653913392
 20
180.0711793008558
 30
0.0
 11
248.842382209284
 21
168.882362482911
 31
0.0
  0
LINE
  5
34E7
330
2
100
AcDbEntity
  8
0
100
AcDbLine
 10
234.2471202287138
 20
182.3472931897658
 30
0.0
 11
232.1423613507063
 21
177.2659557609538
 31
0.0
  0
LINE
  5
34E8
330
2
100
AcDbEntity
  8
0
100
AcDbLine
 10
256.4177610068286
 20
176.6465580984008
 30
0.0
 11
256.4177610068286
 21
179.6465580984031
 31
0.0
  0
CIRCLE
  5
34E9
330
2
100
AcDbEntity
  8
0
100
AcDbCircle
 10
248.4177610068322
 20
179.6465580984033
 30
0.0
 40
4.307179676972509
  0
CIRCLE
  5
34EA
330
2
100
AcDbEntity
  8
0
100
AcDbCircle
 10
248.4177610068322
 20
179.6465580984033
 30
0.0
 40
5.000000000000113
  0
LINE
  5
34EB
330
2
100
AcDbEntity
  8
CENTER
100
AcDbLine
 10
248.4177610068322
 20
188.3965580984063
 30
0.0
 11
248.4177610068322
 21
170.8965580984063
 31
0.0
  0
LINE
  5
34EC
330
2
100
AcDbEntity
  8
0
100
AcDbLine
 10
251.917761006825
 20
111.8353749163538
 30
0.0
 11
251.917761006825
 21
161.4577412804521
 31
0.0
  0
LINE
  5
34ED
330
2
100
AcDbEntity
  8
0
100
AcDbLine
 10
246.4177610068249
 20
111.8353749163541
 30
0.0
 11
246.4177610068249
 21
161.4577412804521
 31
0.0
  0
ARC
  5
34EE
330
2
100
AcDbEntity
  8
0
100
AcDbCircle
 10
56.41776100682864
 20
136.6465580984031
 30
0.0
 40
200.0
100
AcDbArc
 50
354.1053016135961
 51
5.894698386400654
  0
LINE
  5
34EF
330
2
100
AcDbEntity
  8
0
100
AcDbLine
 10
251.118496098195
 20
107.8171988765207
 30
0.0
 11
246.0371586693813
 21
109.9219577545286
 31
0.0
  0
ARC
  5
34F0
330
2
100
AcDbEntity
  8
0
100
AcDbCircle
 10
241.417761006825
 20
111.8353749163538
 30
0.0
 40
10.5
100
AcDbArc
 50
315.0000000000092
 51
0.0
  0
LINE
  5
34F1
330
2
100
AcDbEntity
  8
CENTER
100
AcDbLine
 10
256.0909660875854
 20
102.1465580984029
 30
0.0
 11
245.7445559260718
 21
102.1465580984029
 31
0.0
  0
CIRCLE
  5
34F2
330
2
100
AcDbEntity
  8
HOJO
100
AcDbCircle
 10
250.9177610068286
 20
102.1465580984029
 30
0.0
 40
2.0
  0
CIRCLE
  5
34F3
330
2
100
AcDbEntity
  8
0
100
AcDbCircle
 10
250.9177610068286
 20
102.1465580984029
 30
0.0
 40
1.6
  0
ARC
  5
34F4
330
2
100
AcDbEntity
  8
0
100
AcDbCircle
 10
241.417761006825
 20
111.8353749163541
 30
0.0
 40
5.0
100
AcDbArc
 50
315.0000000000092
 51
0.0
  0
ARC
  5
34F5
330
2
100
AcDbEntity
  8
0
100
AcDbCircle
 10
315.0429653288133
 20
109.9444291680777
 30
0.0
 40
60.0
100
AcDbArc
 50
174.1053016135961
 51
191.8050678104714
  0
LINE
  5
34F6
330
2
100
AcDbEntity
  8
0
100
AcDbLine
 10
250.9177610068322
 20
178.2031824254293
 30
0.0
 11
248.4177610068322
 21
176.7598067524552
 31
0.0
  0
LINE
  5
34F7
330
2
100
AcDbEntity
  8
0
100
AcDbLine
 10
251.118496098195
 20
165.4759173202853
 30
0.0
 11
246.0371586693813
 21
163.3711584422774
 31
0.0
  0
ARC
  5
34F8
330
2
100
AcDbEntity
  8
0
100
AcDbCircle
 10
241.417761006825
 20
161.4577412804521
 30
0.0
 40
10.5
100
AcDbArc
 50
0.0
 51
44.99999999999078
  0
LINE
  5
34F9
330
2
100
AcDbEntity
  8
0
100
AcDbLine
 10
233.7644780948135
 20
176.1820920043298
 30
0.0
 11
244.9532949127583
 21
164.993275186385
 31
0.0
  0
ARC
  5
34FA
330
2
100
AcDbEntity
  8
0
100
AcDbCircle
 10
241.417761006825
 20
161.4577412804521
 30
0.0
 40
5.0
100
AcDbArc
 50
0.0
 51
44.99999999999078
  0
ARC
  5
34FB
330
2
100
AcDbEntity
  8
0
100
AcDbCircle
 10
230.2289441888802
 20
172.646558098397
 30
0.0
 40
5.0
100
AcDbArc
 50
44.99999999999078
 51
90.0
  0
LINE
  5
34FC
330
2
100
AcDbEntity
  8
0
100
AcDbLine
 10
245.9177610068322
 20
178.2031824254293
 30
0.0
 11
248.4177610068322
 21
176.7598067524552
 31
0.0
  0
ARC
  5
34FD
330
2
100
AcDbEntity
  8
0
100
AcDbCircle
 10
315.0429653288133
 20
163.3486870287279
 30
0.0
 40
60.0
100
AcDbArc
 50
168.1949321895284
 51
185.8946983864006
  0
ARC
  5
34FE
330
2
100
AcDbEntity
  8
0
100
AcDbCircle
 10
251.4177610068286
 20
176.6465580984031
 30
0.0
 40
5.0
100
AcDbArc
 50
348.1949321895284
 51
0.0
  0
LINE
  5
34FF
330
2
100
AcDbEntity
  8
0
100
AcDbLine
 10
328.5377311895176
 20
103.6465580983958
 30
0.0
 11
328.5377311895176
 21
169.6465580983981
 31
0.0
  0
LINE
  5
3500
330
2
100
AcDbEntity
  8
0
100
AcDbLine
 10
324.8377311895169
 20
169.646558098399
 30
0.0
 11
324.8377311895169
 21
103.6465580983931
 31
0.0
  0
LINE
  5
3501
330
2
100
AcDbEntity
  8
0
100
AcDbLine
 10
332.3377311895078
 20
174.6465580984127
 30
0.0
 11
332.3377311895078
 21
98.646558098382
 31
0.0
  0
LINE
  5
3502
330
2
100
AcDbEntity
  8
0
100
AcDbLine
 10
328.3377311895133
 20
103.8465580983963
 30
0.0
 11
328.3377311895133
 21
169.4465580983933
 31
0.0
  0
LINE
  5
3503
330
2
100
AcDbEntity
  8
0
100
AcDbLine
 10
326.3377311895096
 20
103.8465580983952
 30
0.0
 11
326.3377311897115
 21
169.4465580983978
 31
0.0
  0
LINE
  5
3504
330
2
100
AcDbEntity
  8
0
100
AcDbLine
 10
331.8377311895133
 20
101.6465580983963
 30
0.0
 11
331.8377311894951
 21
171.646558098374
 31
0.0
  0
LINE
  5
3506
330
2
100
AcDbEntity
  8
0
100
AcDbLine
 10
336.3377311895096
 20
98.646558098382
 30
0.0
 11
337.8377311895078
 21
98.646558098382
 31
0.0
  0
LINE
  5
3507
330
2
100
AcDbEntity
  8
0
100
AcDbLine
 10
323.8377311895078
 20
119.6465580983983
 30
0.0
 11
323.8377311895133
 21
104.2239083675849
 31
0.0
  0
LINE
  5
3508
330
2
100
AcDbEntity
  8
0
100
AcDbLine
 10
324.8377311895133
 20
103.6465580983954
 30
0.0
 11
326.1377311895125
 21
103.6465580983958
 31
0.0
  0
LINE
  5
3509
330
2
100
AcDbEntity
  8
0
100
AcDbLine
 10
324.8377311895133
 20
103.6465580983954
 30
0.0
 11
323.8377311895133
 21
104.2239083675849
 31
0.0
  0
ARC
  5
350A
330
2
100
AcDbEntity
  8
0
100
AcDbCircle
 10
328.1377311895125
 20
104.1465580983958
 30
0.0
 40
0.2
100
AcDbArc
 50
0.0
 51
90.0
  0
ARC
  5
350B
330
2
100
AcDbEntity
  8
0
100
AcDbCircle
 10
326.537731189514
 20
104.1465580983956
 30
0.0
 40
0.2
100
AcDbArc
 50
90.0
 51
179.9999999999218
  0
ARC
  5
350C
330
2
100
AcDbEntity
  8
0
100
AcDbCircle
 10
326.1377311895125
 20
103.8465580983956
 30
0.0
 40
0.2
100
AcDbArc
 50
270.0
 51
359.9999999999218
  0
LINE
  5
350D
330
2
100
AcDbEntity
  8
0
100
AcDbLine
 10
326.537731189514
 20
104.3465580983956
 30
0.0
 11
328.1377311895125
 21
104.3465580983959
 31
0.0
  0
LINE
  5
350E
330
2
100
AcDbEntity
  8
0
100
AcDbLine
 10
328.3377311895133
 20
103.8465580983961
 30
0.0
 11
328.537731189514
 21
103.6465580983958
 31
0.0
  0
LINE
  5
350F
330
2
100
AcDbEntity
  8
0
100
AcDbLine
 10
331.8377311895078
 20
103.6465580983963
 30
0.0
 11
331.8377311895078
 21
101.6465580984017
 31
0.0
  0
LINE
  5
3510
330
2
100
AcDbEntity
  8
0
100
AcDbLine
 10
328.537731189514
 20
103.6465580983958
 30
0.0
 11
331.8377311895133
 21
103.6465580983963
 31
0.0
  0
LINE
  5
3511
330
2
100
AcDbEntity
  8
0
100
AcDbLine
 10
330.7377311895093
 20
98.646558098382
 30
0.0
 11
330.3377311895096
 21
97.95373777535429
 31
0.0
  0
LINE
  5
3512
330
2
100
AcDbEntity
  8
0
100
AcDbLine
 10
336.3377311895096
 20
98.646558098382
 30
0.0
 11
330.7377311895093
 21
98.646558098382
 31
0.0
  0
LINE
  5
3513
330
2
100
AcDbEntity
  8
0
100
AcDbLine
 10
331.8377311895133
 20
101.6465580983963
 30
0.0
 11
332.3377311895133
 21
101.1465580983967
 31
0.0
  0
LINE
  5
3514
330
2
100
AcDbEntity
  8
0
100
AcDbLine
 10
336.3377311895096
 20
174.6465580984124
 30
0.0
 11
337.8377311895078
 21
174.6465580984124
 31
0.0
  0
LINE
  5
3515
330
2
100
AcDbEntity
  8
0
100
AcDbLine
 10
323.8377311894951
 20
169.069207829196
 30
0.0
 11
323.8377311894987
 21
153.6465580983979
 31
0.0
  0
LINE
  5
3516
330
2
100
AcDbEntity
  8
0
100
AcDbLine
 10
324.8377311895169
 20
169.646558098399
 30
0.0
 11
326.137731189518
 21
169.6465580983986
 31
0.0
  0
LINE
  5
3517
330
2
100
AcDbEntity
  8
0
100
AcDbLine
 10
324.8377311895169
 20
169.646558098399
 30
0.0
 11
323.8377311895169
 21
169.0692078292095
 31
0.0
  0
LINE
  5
3518
330
2
100
AcDbEntity
  8
HIDS
100
AcDbLine
 10
332.3377311895205
 20
176.8181309736573
 30
0.0
 11
332.3377311895078
 21
174.6465580984124
 31
0.0
  0
LINE
  5
3519
330
2
100
AcDbEntity
  8
0
100
AcDbLine
 10
330.7377311895093
 20
174.6465580984124
 30
0.0
 11
330.3377311895096
 21
175.3393784214401
 31
0.0
  0
LINE
  5
351A
330
2
100
AcDbEntity
  8
0
100
AcDbLine
 10
336.3377311895096
 20
174.6465580984124
 30
0.0
 11
330.7377311895093
 21
174.6465580984124
 31
0.0
  0
ARC
  5
351B
330
2
100
AcDbEntity
  8
0
100
AcDbCircle
 10
328.137731189518
 20
169.1465580983981
 30
0.0
 40
0.2
100
AcDbArc
 50
269.9999999999478
 51
0.0
  0
ARC
  5
351C
330
2
100
AcDbEntity
  8
0
100
AcDbCircle
 10
326.5377311895176
 20
169.1465580983986
 30
0.0
 40
0.2
100
AcDbArc
 50
180.0
 51
269.9999999999478
  0
ARC
  5
351D
330
2
100
AcDbEntity
  8
0
100
AcDbCircle
 10
326.137731189518
 20
169.4465580983983
 30
0.0
 40
0.2
100
AcDbArc
 50
0.0
 51
90.0
  0
ARC
  5
351E
330
2
100
AcDbEntity
  8
HIDS
100
AcDbCircle
 10
334.3377311895205
 20
176.8181309736573
 30
0.0
 40
2.0
100
AcDbArc
 50
134.9999999999355
 51
180.0
  0
LINE
  5
351F
330
2
100
AcDbEntity
  8
0
100
AcDbLine
 10
328.3377311895133
 20
169.4465580983933
 30
0.0
 11
328.5377311895176
 21
169.6465580983981
 31
0.0
  0
LINE
  5
3520
330
2
100
AcDbEntity
  8
0
100
AcDbLine
 10
326.5377311895176
 20
168.9465580983985
 30
0.0
 11
328.137731189518
 21
168.9465580983981
 31
0.0
  0
LINE
  5
3521
330
2
100
AcDbEntity
  8
0
100
AcDbLine
 10
331.8377311894951
 20
171.646558098374
 30
0.0
 11
332.3377311895187
 21
172.1465580983967
 31
0.0
  0
LINE
  5
3522
330
2
100
AcDbEntity
  8
0
100
AcDbLine
 10
328.5377311895176
 20
169.6465580983981
 30
0.0
 11
331.8377311895169
 21
169.6465580983972
 31
0.0
  0
LINE
  5
3523
330
2
100
AcDbEntity
  8
0
100
AcDbLine
 10
248.4177610068322
 20
182.5333094443515
 30
0.0
 11
250.9177610068322
 21
181.0899337713772
 31
0.0
  0
LINE
  5
3524
330
2
100
AcDbEntity
  8
CENTER
100
AcDbLine
 10
257.167761006834
 20
179.6465580984033
 30
0.0
 11
239.6677610068341
 21
179.6465580984033
 31
0.0
  0
ARC
  5
3525
330
2
100
AcDbEntity
  8
0
100
AcDbCircle
 10
248.4177610068322
 20
179.6465580984086
 30
0.0
 40
8.0
100
AcDbArc
 50
0.0
 51
90.0
  0
ARC
  5
3526
330
2
100
AcDbEntity
  8
0
100
AcDbCircle
 10
232.1198899371534
 20
246.2717624203873
 30
0.0
 40
60.0
100
AcDbArc
 50
264.1053016135961
 51
281.8050678104415
  0
ARC
  5
3527
330
2
100
AcDbEntity
  8
0
100
AcDbCircle
 10
230.2289441888802
 20
172.646558098397
 30
0.0
 40
10.5
100
AcDbArc
 50
44.99999999999078
 51
90.0
  0
LINE
  5
3528
330
2
100
AcDbEntity
  8
0
100
AcDbLine
 10
248.4177610068286
 20
187.6465580984031
 30
0.0
 11
245.4177610068286
 21
187.6465580984031
 31
0.0
  0
ARC
  5
3529
330
2
100
AcDbEntity
  8
0
100
AcDbCircle
 10
245.4177610068286
 20
182.6465580984026
 30
0.0
 40
5.0
100
AcDbArc
 50
90.0
 51
101.8050678104414
  0
LINE
  5
352A
330
2
100
AcDbEntity
  8
0
100
AcDbLine
 10
248.4177610068322
 20
182.5333094443515
 30
0.0
 11
245.9177610068322
 21
181.0899337713774
 31
0.0
  0
LINE
  5
352B
330
2
100
AcDbEntity
  8
0
100
AcDbLine
 10
336.3377311895078
 20
184.6465580984124
 30
0.0
 11
337.8377311895078
 21
184.6465580984124
 31
0.0
  0
LINE
  5
352C
330
2
100
AcDbEntity
  8
CENTER
100
AcDbLine
 10
325.3377311895096
 20
179.6465580984124
 30
0.0
 11
351.4030569747706
 21
179.6465580984124
 31
0.0
  0
LINE
  5
352D
330
2
100
AcDbEntity
  8
0
100
AcDbLine
 10
374.8377311895133
 20
188.1465580983899
 30
0.0
 11
331.7593035859831
 21
187.7242205728648
 31
0.0
  0
ARC
  5
352E
330
2
100
AcDbEntity
  8
0
100
AcDbCircle
 10
331.8377311895133
 20
179.7246050126646
 30
0.0
 40
8.0
100
AcDbArc
 50
90.56170533253165
 51
180.0
  0
LINE
  5
352F
330
2
100
AcDbEntity
  8
0
100
AcDbLine
 10
330.7377311895093
 20
184.6465580984124
 30
0.0
 11
330.3377311895096
 21
183.9537377753847
 31
0.0
  0
LINE
  5
3530
330
2
100
AcDbEntity
  8
0
100
AcDbLine
 10
336.3377311895096
 20
184.6465580984124
 30
0.0
 11
330.7377311895093
 21
184.6465580984124
 31
0.0
  0
ARC
  5
3531
330
2
100
AcDbEntity
  8
0
100
AcDbCircle
 10
339.8377311895078
 20
185.5984843349281
 30
0.0
 40
2.0
100
AcDbArc
 50
90.50000000001761
 51
180.0
  0
LINE
  5
3532
330
2
100
AcDbEntity
  8
0
100
AcDbLine
 10
339.8202781185104
 20
187.5984081810566
 30
0.0
 11
345.3376931118441
 21
187.64655793225
 31
0.0
  0
ARC
  5
3533
330
2
100
AcDbEntity
  8
HIDS
100
AcDbCircle
 10
335.8377311895078
 20
183.9749852231336
 30
0.0
 40
2.0
100
AcDbArc
 50
314.9999999999355
 51
0.0
  0
LINE
  5
3539
330
2
100
AcDbEntity
  8
0
100
AcDbLine
 10
456.8378367004211
 20
139.6465580983972
 30
0.0
 11
488.8378367004211
 21
139.6465580983972
 31
0.0
  0
LINE
  5
353A
330
2
100
AcDbEntity
  8
0
100
AcDbLine
 10
488.337731189506
 20
147.6466188182272
 30
0.0
 11
448.837731189506
 21
147.6466032610616
 31
0.0
  0
LINE
  5
353B
330
2
100
AcDbEntity
  8
0
100
AcDbLine
 10
456.8378367004211
 20
133.6465580983972
 30
0.0
 11
488.8378367004211
 21
133.6465580983972
 31
0.0
  0
LINE
  5
353C
330
2
100
AcDbEntity
  8
0
100
AcDbLine
 10
448.837731189506
 20
125.6466032610599
 30
0.0
 11
488.337731189506
 21
125.6466188182253
 31
0.0
  0
LINE
  5
353E
330
2
100
AcDbEntity
  8
0
100
AcDbLine
 10
447.837731189506
 20
152.8578829638025
 30
0.0
 11
447.837731189506
 21
120.4352332329921
 31
0.0
  0
ARC
  5
353F
330
2
100
AcDbEntity
  8
0
100
AcDbCircle
 10
456.8378367004211
 20
136.6465580983972
 30
0.0
 40
3.0
100
AcDbArc
 50
90.0
 51
270.0
  0
LINE
  5
3540
330
2
100
AcDbEntity
  8
0
100
AcDbLine
 10
448.837731189506
 20
148.6466032610617
 30
0.0
 11
448.8382957227981
 21
124.6466032738077
 31
0.0
  0
LINE
  5
3541
330
2
100
AcDbEntity
  8
0
100
AcDbLine
 10
446.8377311895078
 20
104.577935648012
 30
0.0
 11
446.8377311895078
 21
168.7151805487849
 31
0.0
  0
LINE
  5
3542
330
2
100
AcDbEntity
  8
0
100
AcDbLine
 10
434.7679321961027
 20
102.2250714299384
 30
0.0
 11
444.907530182913
 21
102.5791539939741
 31
0.0
  0
ARC
  5
3543
330
2
100
AcDbEntity
  8
0
100
AcDbCircle
 10
434.8377311895078
 20
100.2262897759005
 30
0.0
 40
2.0
100
AcDbArc
 50
92.00000000000361
 51
180.0
  0
ARC
  5
3544
330
2
100
AcDbEntity
  8
0
100
AcDbCircle
 10
444.8377311895078
 20
104.577935648012
 30
0.0
 40
2.0
100
AcDbArc
 50
272.0000000000035
 51
0.0
  0
LINE
  5
3545
330
2
100
AcDbEntity
  8
0
100
AcDbLine
 10
447.587731189506
 20
120.0022205310999
 30
0.0
 11
447.4358926597329
 21
119.9145565150623
 31
0.0
  0
ARC
  5
3546
330
2
100
AcDbEntity
  8
0
100
AcDbCircle
 10
446.4358926597328
 20
121.6466073226312
 30
0.0
 40
2.0
100
AcDbArc
 50
281.5907202811201
 51
300.0000000000005
  0
ARC
  5
3547
330
2
100
AcDbEntity
  8
0
100
AcDbCircle
 10
447.337731189506
 20
120.4352332329921
 30
0.0
 40
0.5
100
AcDbArc
 50
300.0000000000005
 51
0.0
  0
LINE
  5
3548
330
2
100
AcDbEntity
  8
0
100
AcDbLine
 10
448.837731189506
 20
124.6465129357329
 30
0.0
 11
447.837731189506
 21
124.0691626665433
 31
0.0
  0
LINE
  5
3549
330
2
100
AcDbEntity
  8
0
100
AcDbLine
 10
448.837731189506
 20
148.6466032610617
 30
0.0
 11
447.837731189506
 21
149.2239535302513
 31
0.0
  0
LINE
  5
354A
330
2
100
AcDbEntity
  8
0
100
AcDbLine
 10
447.587731189506
 20
153.2908956656947
 30
0.0
 11
447.4358926597329
 21
153.3785596817323
 31
0.0
  0
ARC
  5
354B
330
2
100
AcDbEntity
  8
0
100
AcDbCircle
 10
446.4358926597328
 20
151.6465088741634
 30
0.0
 40
2.0
100
AcDbArc
 50
59.99999999999946
 51
78.40927971887985
  0
ARC
  5
354C
330
2
100
AcDbEntity
  8
0
100
AcDbCircle
 10
447.337731189506
 20
152.8578829638025
 30
0.0
 40
0.5
100
AcDbArc
 50
0.0
 51
59.99999999999946
  0
LINE
  5
354D
330
2
100
AcDbEntity
  8
0
100
AcDbLine
 10
434.7679321961027
 20
171.0680447668587
 30
0.0
 11
444.907530182913
 21
170.713962202823
 31
0.0
  0
ARC
  5
354E
330
2
100
AcDbEntity
  8
0
100
AcDbCircle
 10
434.8377311895078
 20
173.0668264208966
 30
0.0
 40
2.0
100
AcDbArc
 50
180.0
 51
267.9999999999963
  0
ARC
  5
354F
330
2
100
AcDbEntity
  8
0
100
AcDbCircle
 10
444.8377311895078
 20
168.7151805487851
 30
0.0
 40
2.0
100
AcDbArc
 50
0.0
 51
0.0
  0
ARC
  5
3550
330
2
100
AcDbEntity
  8
0
100
AcDbCircle
 10
444.8377311895078
 20
168.7151805487849
 30
0.0
 40
2.0
100
AcDbArc
 50
0.0
 51
87.9999999999964
  0
LINE
  5
3551
330
2
100
AcDbEntity
  8
0
100
AcDbLine
 10
488.837731189506
 20
126.1466190151513
 30
0.0
 11
488.837731189506
 21
147.1466190151534
 31
0.0
  0
LINE
  5
3552
330
2
100
AcDbEntity
  8
0
100
AcDbLine
 10
488.337731189506
 20
133.6465580983972
 30
0.0
 11
488.337731189506
 21
125.6466188182253
 31
0.0
  0
LINE
  5
3553
330
2
100
AcDbEntity
  8
0
100
AcDbLine
 10
488.837731189506
 20
126.1466190151513
 30
0.0
 11
488.337731189506
 21
125.6466188182253
 31
0.0
  0
LINE
  5
3554
330
2
100
AcDbEntity
  8
0
100
AcDbLine
 10
488.337731189506
 20
147.6466188182272
 30
0.0
 11
488.337731189506
 21
139.6465580983972
 31
0.0
  0
LINE
  5
3555
330
2
100
AcDbEntity
  8
0
100
AcDbLine
 10
488.337731189506
 20
147.6466188182272
 30
0.0
 11
488.837731189506
 21
147.1466190151534
 31
0.0
  0
ARC
  5
3557
330
2
100
AcDbEntity
  8
0
100
AcDbCircle
 10
417.8377311895133
 20
179.7246050126655
 30
0.0
 40
8.0
100
AcDbArc
 50
65.08518224130987
 51
89.43829466741625
  0
LINE
  5
3558
330
2
100
AcDbEntity
  8
0
100
AcDbLine
 10
427.837731189506
 20
181.6465580983995
 30
0.0
 11
432.837731189506
 21
181.6465580983995
 31
0.0
  0
ARC
  5
3562
330
2
100
AcDbEntity
  8
0
100
AcDbCircle
 10
734.4759090264282
 20
93.64655809839803
 30
0.0
 40
5.0
100
AcDbArc
 50
0.0
 51
90.0
  0
LINE
  5
3563
330
2
100
AcDbEntity
  8
CENTER
100
AcDbLine
 10
701.402315897632
 20
102.2201512272068
 30
0.0
 11
701.402315897632
 21
86.22015122720711
 31
0.0
  0
ARC
  5
3564
330
2
100
AcDbEntity
  8
0
100
AcDbCircle
 10
661.5995263941272
 20
97.60655809839102
 30
0.0
 40
2.040000000002968
100
AcDbArc
 50
307.5189678668038
 51
90.0
  0
ARC
  5
3565
330
2
100
AcDbEntity
  8
0
100
AcDbCircle
 10
661.4720809641271
 20
97.47905809839096
 30
0.0
 40
0.1275000000001855
100
AcDbArc
 50
270.0
 51
90.0
  0
LINE
  5
3566
330
2
100
AcDbEntity
  8
0
100
AcDbLine
 10
659.5595263941245
 20
97.60655809839125
 30
0.0
 11
659.5595263941245
 21
93.64655809838508
 31
0.0
  0
LINE
  5
3567
330
2
100
AcDbEntity
  8
0
100
AcDbLine
 10
657.759580964122
 20
97.60655623639866
 30
0.0
 11
657.1895818951174
 21
96.46655809838911
 31
0.0
  0
LINE
  5
3568
330
2
100
AcDbEntity
  8
0
100
AcDbLine
 10
657.759580964122
 20
97.60655623639866
 30
0.0
 11
657.759580964122
 21
96.46655809838932
 31
0.0
  0
LINE
  5
3569
330
2
100
AcDbEntity
  8
0
100
AcDbLine
 10
656.6195809641207
 20
99.6465580983944
 30
0.0
 11
653.6195809641153
 21
93.64655809838575
 31
0.0
  0
CIRCLE
  5
356A
330
2
100
AcDbEntity
  8
HOJO
100
AcDbCircle
 10
701.4023158976356
 20
94.22015122720688
 30
0.0
 40
4.0
  0
LINE
  5
356B
330
2
100
AcDbEntity
  8
CENTER
100
AcDbLine
 10
658.9759090264428
 20
206.6465580983998
 30
0.0
 11
658.9759090264428
 21
66.64655809839985
 31
0.0
  0
LINE
  5
356C
330
2
100
AcDbEntity
  8
0
100
AcDbLine
 10
709.9759090264356
 20
179.6465580983914
 30
0.0
 11
709.9759090264392
 21
93.6465580983919
 31
0.0
  0
LINE
  5
356D
330
2
100
AcDbEntity
  8
0
100
AcDbLine
 10
739.4759310264412
 20
186.1465580984003
 30
0.0
 11
739.4759310264376
 21
87.14655809839985
 31
0.0
  0
ARC
  5
356E
330
2
100
AcDbEntity
  8
0
100
AcDbCircle
 10
612.9759090264411
 20
96.64655809839757
 30
0.0
 40
5.0
100
AcDbArc
 50
168.1949321895284
 51
180.0
  0
CIRCLE
  5
356F
330
2
100
AcDbEntity
  8
HOJO
100
AcDbCircle
 10
616.5495021552483
 20
94.22015122720688
 30
0.0
 40
4.0
  0
LINE
  5
3570
330
2
100
AcDbEntity
  8
CENTER
100
AcDbLine
 10
616.5495021552483
 20
102.2201512272068
 30
0.0
 11
616.5495021552483
 21
86.22015122720711
 31
0.0
  0
CIRCLE
  5
3571
330
2
100
AcDbEntity
  8
0
100
AcDbCircle
 10
658.975909026441
 20
136.6465580983998
 30
0.0
 40
45.0
  0
CIRCLE
  5
3572
330
2
100
AcDbEntity
  8
CENTER
100
AcDbCircle
 10
658.975909026441
 20
136.6465580983998
 30
0.0
 40
60.0
  0
LINE
  5
3573
330
2
100
AcDbEntity
  8
CENTER
100
AcDbLine
 10
605.3693073086451
 20
190.2531598161933
 30
0.0
 11
712.5825107442397
 21
83.03995638059735
 31
0.0
  0
LINE
  5
3574
330
2
100
AcDbEntity
  8
CENTER
100
AcDbLine
 10
712.582510744236
 20
190.2531598161942
 30
0.0
 11
605.3693073086383
 21
83.03995638059587
 31
0.0
  0
LINE
  5
357A
330
2
100
AcDbEntity
  8
0
100
AcDbLine
 10
805.975931026443
 20
96.57673783868496
 30
0.0
 11
805.975931026443
 21
136.6465580983972
 31
0.0
  0
LINE
  5
357B
330
2
100
AcDbEntity
  8
0
100
AcDbLine
 10
803.9759310264411
 20
94.64655809839769
 30
0.0
 11
803.9759310264411
 21
136.6465580983972
 31
0.0
  0
LINE
  5
357C
330
2
100
AcDbEntity
  8
0
100
AcDbLine
 10
776.9759310264412
 20
89.90937842142466
 30
0.0
 11
776.9759310264412
 21
98.52373777536968
 31
0.0
  0
LINE
  5
357D
330
2
100
AcDbEntity
  8
0
100
AcDbLine
 10
770.9759310264412
 20
99.21655809839741
 30
0.0
 11
770.9759310264412
 21
89.21655809839739
 31
0.0
  0
LINE
  5
357E
330
2
100
AcDbEntity
  8
0
100
AcDbLine
 10
769.9759310264412
 20
89.21655809839739
 30
0.0
 11
769.9759310264412
 21
99.21655809839741
 31
0.0
  0
LINE
  5
357F
330
2
100
AcDbEntity
  8
0
100
AcDbLine
 10
770.9759310264412
 20
99.21655809839741
 30
0.0
 11
770.9759310264412
 21
89.21655809839739
 31
0.0
  0
LINE
  5
3580
330
2
100
AcDbEntity
  8
0
100
AcDbLine
 10
776.5759310264416
 20
99.21655809839741
 30
0.0
 11
776.5759310264416
 21
89.21655809839739
 31
0.0
  0
LINE
  5
3581
330
2
100
AcDbEntity
  8
0
100
AcDbLine
 10
809.9759310264412
 20
176.646558098397
 30
0.0
 11
809.9759310264412
 21
96.6465580983977
 31
0.0
  0
LINE
  5
3582
330
2
100
AcDbEntity
  8
0
100
AcDbLine
 10
769.975931026443
 20
136.6465580983972
 30
0.0
 11
769.975931026443
 21
86.76877232585411
 31
0.0
  0
LINE
  5
3583
330
2
100
AcDbEntity
  8
0
100
AcDbLine
 10
754.9759310264412
 20
85.14655809839974
 30
0.0
 11
754.9759310264412
 21
188.1465580983999
 31
0.0
  0
ARC
  5
3586
330
2
100
AcDbEntity
  8
0
100
AcDbCircle
 10
658.975909026441
 20
285.6465580983973
 30
0.0
 40
200.0
100
AcDbArc
 50
264.1053016135961
 51
275.8946983863513
  0
LINE
  5
3588
330
2
100
AcDbEntity
  8
0
100
AcDbLine
 10
615.975909026441
 20
85.64655809839711
 30
0.0
 11
618.975909026441
 21
85.64655809839758
 31
0.0
  0
CIRCLE
  5
3589
330
2
100
AcDbEntity
  8
0
100
AcDbCircle
 10
616.5495021552483
 20
94.22015122720688
 30
0.0
 40
3.2
  0
LINE
  5
358A
330
2
100
AcDbEntity
  8
CENTER
100
AcDbLine
 10
624.5495021552483
 20
94.22015122720848
 30
0.0
 11
608.5495021552483
 21
94.22015122720848
 31
0.0
  0
ARC
  5
358B
330
2
100
AcDbEntity
  8
0
100
AcDbCircle
 10
615.9759090264392
 20
93.64655809839144
 30
0.0
 40
8.0
100
AcDbArc
 50
180.0
 51
270.0
  0
LINE
  5
358C
330
2
100
AcDbEntity
  8
0
100
AcDbLine
 10
607.975909026441
 20
96.64655809839985
 30
0.0
 11
607.975909026441
 21
93.64655809839758
 31
0.0
  0
ARC
  5
358D
330
2
100
AcDbEntity
  8
0
100
AcDbCircle
 10
632.2737800961144
 20
27.02135377641332
 30
0.0
 40
60.0
100
AcDbArc
 50
84.10530161364862
 51
101.8050678104414
  0
ARC
  5
358E
330
2
100
AcDbEntity
  8
0
100
AcDbCircle
 10
618.975909026441
 20
90.64655809839804
 30
0.0
 40
5.0
100
AcDbArc
 50
270.0
 51
281.8050678104415
  0
ARC
  5
358F
330
2
100
AcDbEntity
  8
0
100
AcDbCircle
 10
685.678037956764
 20
27.02135377641286
 30
0.0
 40
60.0
100
AcDbArc
 50
78.19493218950549
 51
95.89469838635137
  0
LINE
  5
3590
330
2
100
AcDbEntity
  8
0
100
AcDbLine
 10
659.8145809641241
 20
97.35155809839069
 30
0.0
 11
662.1722361577645
 21
93.64655809838529
 31
0.0
  0
LINE
  5
3591
330
2
100
AcDbEntity
  8
0
100
AcDbLine
 10
659.8145809641241
 20
97.35155809839069
 30
0.0
 11
661.4720809641271
 21
97.35155809839069
 31
0.0
  0
LINE
  5
3592
330
2
100
AcDbEntity
  8
0
100
AcDbLine
 10
657.1895818951174
 20
96.46655809838911
 30
0.0
 11
657.759580964122
 21
96.46655809838932
 31
0.0
  0
LINE
  5
3593
330
2
100
AcDbEntity
  8
0
100
AcDbLine
 10
657.759580964122
 20
94.54655809838675
 30
0.0
 11
657.759580964122
 21
93.64655809838529
 31
0.0
  0
LINE
  5
3594
330
2
100
AcDbEntity
  8
0
100
AcDbLine
 10
656.2295818951147
 20
94.54655809838698
 30
0.0
 11
657.759580964122
 21
94.54655809838675
 31
0.0
  0
LINE
  5
3595
330
2
100
AcDbEntity
  8
0
100
AcDbLine
 10
656.2295818951147
 20
94.54655809838698
 30
0.0
 11
655.7795818951158
 21
93.64655809838529
 31
0.0
  0
LINE
  5
3596
330
2
100
AcDbEntity
  8
0
100
AcDbLine
 10
657.759580964122
 20
93.64655809838529
 30
0.0
 11
659.5595263941245
 21
93.64655809838508
 31
0.0
  0
LINE
  5
3597
330
2
100
AcDbEntity
  8
0
100
AcDbLine
 10
653.6195809641153
 20
93.64655809838575
 30
0.0
 11
655.7795818951158
 21
93.64655809838529
 31
0.0
  0
LINE
  5
3598
330
2
100
AcDbEntity
  8
0
100
AcDbLine
 10
662.1722361577645
 20
93.64655809838529
 30
0.0
 11
664.3322370887631
 21
93.64655809838575
 31
0.0
  0
LINE
  5
3599
330
2
100
AcDbEntity
  8
0
100
AcDbLine
 10
662.8419354288721
 20
95.98852849717957
 30
0.0
 11
664.3322370887631
 21
93.64655809838575
 31
0.0
  0
ARC
  5
359A
330
2
100
AcDbEntity
  8
0
100
AcDbCircle
 10
701.9759090264374
 20
93.64655809839167
 30
0.0
 40
8.0
100
AcDbArc
 50
270.0
 51
0.0
  0
LINE
  5
359B
330
2
100
AcDbEntity
  8
CENTER
100
AcDbLine
 10
709.4023158976356
 20
94.22015122720688
 30
0.0
 11
693.4023158976356
 21
94.22015122720688
 31
0.0
  0
CIRCLE
  5
359C
330
2
100
AcDbEntity
  8
0
100
AcDbCircle
 10
701.4023158976356
 20
94.22015122720688
 30
0.0
 40
3.2
  0
ARC
  5
359D
330
2
100
AcDbEntity
  8
0
100
AcDbCircle
 10
698.975909026441
 20
90.64655809839734
 30
0.0
 40
5.0
100
AcDbArc
 50
258.1949321895054
 51
270.0
  0
LINE
  5
359E
330
2
100
AcDbEntity
  8
0
100
AcDbLine
 10
698.975909026441
 20
85.64655809839758
 30
0.0
 11
701.9759090264374
 21
85.64655809839758
 31
0.0
  0
LINE
  5
359F
330
2
100
AcDbEntity
  8
CENTER
  6
CENS
100
AcDbLine
 10
749.9759310264412
 20
94.21655809839739
 30
0.0
 11
781.9759310264412
 21
94.21655809839739
 31
0.0
  0
LINE
  5
35A0
330
2
100
AcDbEntity
  8
0
100
AcDbLine
 10
754.9759310264412
 20
85.64655809839768
 30
0.0
 11
768.9846575619408
 21
85.76881040278976
 31
0.0
  0
LINE
  5
35A1
330
2
100
AcDbEntity
  8
0
100
AcDbLine
 10
754.9759310264412
 20
85.14655809839984
 30
0.0
 11
741.4759310264376
 21
85.1465580983994
 31
0.0
  0
LINE
  5
35A2
330
2
100
AcDbEntity
  8
0
100
AcDbLine
 10
754.9759310264412
 20
85.64655809839985
 30
0.0
 11
741.4759310264376
 21
85.64655809839939
 31
0.0
  0
ARC
  5
35A3
330
2
100
AcDbEntity
  8
0
100
AcDbCircle
 10
741.4759310264376
 20
87.6465580983994
 30
0.0
 40
2.0
100
AcDbArc
 50
180.0
 51
270.0
  0
ARC
  5
35A4
330
2
100
AcDbEntity
  8
0
100
AcDbCircle
 10
741.4759310264376
 20
87.14655809839939
 30
0.0
 40
2.0
100
AcDbArc
 50
180.0
 51
270.0
  0
LINE
  5
35A5
330
2
100
AcDbEntity
  8
0
100
AcDbLine
 10
803.9759310264411
 20
94.64655809839769
 30
0.0
 11
776.9759310264412
 21
94.48947669350173
 31
0.0
  0
ARC
  5
35A6
330
2
100
AcDbEntity
  8
0
100
AcDbCircle
 10
768.975931026443
 20
86.76877232585411
 30
0.0
 40
1.0
100
AcDbArc
 50
270.4999999999654
 51
0.0
  0
LINE
  5
35A7
330
2
100
AcDbEntity
  8
0
100
AcDbLine
 10
776.5759310264416
 20
89.21655809839718
 30
0.0
 11
776.9759310264412
 21
89.90937842142466
 31
0.0
  0
LINE
  5
35A8
330
2
100
AcDbEntity
  8
0
100
AcDbLine
 10
770.9759310264412
 20
89.21655809839739
 30
0.0
 11
776.5759310264416
 21
89.21655809839739
 31
0.0
  0
LINE
  5
35A9
330
2
100
AcDbEntity
  8
0
100
AcDbLine
 10
770.9759310264412
 20
89.21655809839739
 30
0.0
 11
769.9759310264412
 21
89.21655809839739
 31
0.0
  0
LINE
  5
35AA
330
2
100
AcDbEntity
  8
0
100
AcDbLine
 10
809.9759310264412
 20
96.6465580983977
 30
0.0
 11
805.975931026443
 21
96.57673783868496
 31
0.0
  0
LINE
  5
35AB
330
2
100
AcDbEntity
  8
0
100
AcDbLine
 10
805.975931026443
 20
96.57673783868496
 30
0.0
 11
803.9759310264411
 21
94.64655809839769
 31
0.0
  0
LINE
  5
35AC
330
2
100
AcDbEntity
  8
0
100
AcDbLine
 10
714.9759090264374
 20
166.6465580984002
 30
0.0
 11
725.4759310264394
 21
166.6465580983996
 31
0.0
  0
LINE
  5
35AD
330
2
100
AcDbEntity
  8
0
100
AcDbLine
 10
728.6029256802298
 20
171.6465580983978
 30
0.0
 11
711.975909026441
 21
171.646558098398
 31
0.0
  0
LINE
  5
35AE
330
2
100
AcDbEntity
  8
0
100
AcDbLine
 10
711.9759090264373
 20
134.1465580983975
 30
0.0
 11
728.4759310264376
 21
134.1465580983975
 31
0.0
  0
LINE
  5
35AF
330
2
100
AcDbEntity
  8
0
100
AcDbLine
 10
711.9759090264373
 20
139.1465580983975
 30
0.0
 11
728.4759310264376
 21
139.1465580983975
 31
0.0
  0
LINE
  5
35B0
330
2
100
AcDbEntity
  8
0
100
AcDbLine
 10
714.9759090264356
 20
106.6465580983998
 30
0.0
 11
725.4759310264375
 21
106.6465580983998
 31
0.0
  0
LINE
  5
35B1
330
2
100
AcDbEntity
  8
0
100
AcDbLine
 10
728.602925680228
 20
101.6465580983975
 30
0.0
 11
711.9759090264392
 21
101.6465580983975
 31
0.0
  0
LINE
  5
35B2
330
2
100
AcDbEntity
  8
CENTER
100
AcDbLine
 10
588.975909026441
 20
136.6465580983972
 30
0.0
 11
819.9759310264411
 21
136.646558098397
 31
0.0
  0
LINE
  5
35B4
330
2
100
AcDbEntity
  8
CENTER
100
AcDbLine
 10
701.4023158976337
 20
187.0729649695928
 30
0.0
 11
701.4023158976337
 21
171.0729649695928
 31
0.0
  0
CIRCLE
  5
35B5
330
2
100
AcDbEntity
  8
HOJO
100
AcDbCircle
 10
701.4023158976337
 20
179.0729649695928
 30
0.0
 40
4.0
  0
CIRCLE
  5
35B6
330
2
100
AcDbEntity
  8
0
100
AcDbCircle
 10
701.4023158976337
 20
179.0729649695928
 30
0.0
 40
3.2
  0
LINE
  5
35B7
330
2
100
AcDbEntity
  8
0
100
AcDbLine
 10
607.975909026441
 20
179.6465580983973
 30
0.0
 11
607.975909026441
 21
176.6465580983998
 31
0.0
  0
CIRCLE
  5
35B8
330
2
100
AcDbEntity
  8
0
100
AcDbCircle
 10
616.5495021552483
 20
179.0729649695926
 30
0.0
 40
3.2
  0
CIRCLE
  5
35B9
330
2
100
AcDbEntity
  8
HOJO
100
AcDbCircle
 10
616.5495021552483
 20
179.0729649695926
 30
0.0
 40
4.0
  0
LINE
  5
35BA
330
2
100
AcDbEntity
  8
CENTER
100
AcDbLine
 10
616.5495021552446
 20
187.0729649695926
 30
0.0
 11
616.5495021552446
 21
171.0729649695925
 31
0.0
  0
CIRCLE
  5
35BC
330
2
100
AcDbEntity
  8
0
100
AcDbCircle
 10
658.975909026441
 20
136.6465580983998
 30
0.0
 40
26.0
  0
CIRCLE
  5
35BD
330
2
100
AcDbEntity
  8
0
100
AcDbCircle
 10
658.975909026441
 20
136.6465580983998
 30
0.0
 40
34.0
  0
ARC
  5
35BE
330
2
100
AcDbEntity
  8
0
100
AcDbCircle
 10
807.975909026441
 20
136.6465580983975
 30
0.0
 40
200.0
100
AcDbArc
 50
174.1053016135961
 51
185.8946983864006
  0
ARC
  5
35BF
330
2
100
AcDbEntity
  8
0
100
AcDbCircle
 10
549.3507047044545
 20
109.9444291680728
 30
0.0
 40
60.0
100
AcDbArc
 50
348.1949321895284
 51
5.894698386400654
  0
ARC
  5
35C0
330
2
100
AcDbEntity
  8
0
100
AcDbCircle
 10
549.3507047044545
 20
163.348687028723
 30
0.0
 40
60.0
100
AcDbArc
 50
354.1053016135961
 51
11.80506781047152
  0
ARC
  5
35C1
330
2
100
AcDbEntity
  8
0
100
AcDbCircle
 10
612.9759090264411
 20
176.6465580983975
 30
0.0
 40
5.0
100
AcDbArc
 50
180.0
 51
191.8050678104714
  0
CIRCLE
  5
35C2
330
2
100
AcDbEntity
  8
0
100
AcDbCircle
 10
658.9759090264392
 20
136.6465580983949
 30
0.0
 40
16.99995077575704
  0
ARC
  5
35C3
330
2
100
AcDbEntity
  8
0
100
AcDbCircle
 10
658.9759090264392
 20
136.6465580983949
 30
0.0
 40
12.57739543185027
100
AcDbArc
 50
193.7993919727373
 51
166.2006080272626
  0
LINE
  5
35C4
330
2
100
AcDbEntity
  8
0
100
AcDbLine
 10
645.4759697462654
 20
139.6465580983949
 30
0.0
 11
645.4759697462654
 21
133.6465580983949
 31
0.0
  0
LINE
  5
35C5
330
2
100
AcDbEntity
  8
0
100
AcDbLine
 10
651.4759697462655
 20
139.6465580983949
 30
0.0
 11
651.4759697462655
 21
133.6465580983949
 31
0.0
  0
ARC
  5
35C6
330
2
100
AcDbEntity
  8
0
100
AcDbCircle
 10
658.9759090264392
 20
136.6465580983949
 30
0.0
 40
12.00004516266062
100
AcDbArc
 50
194.4774565092195
 51
165.5225434907804
  0
ARC
  5
35C7
330
2
100
AcDbEntity
  8
0
100
AcDbCircle
 10
658.9759090264392
 20
136.6465580983949
 30
0.0
 40
11.00006071982613
100
AcDbArc
 50
195.8265304777667
 51
164.1734695222332
  0
LINE
  5
35C8
330
2
100
AcDbEntity
  8
0
100
AcDbLine
 10
656.6195809641207
 20
99.6465580983944
 30
0.0
 11
661.5995263941272
 21
99.6465580983944
 31
0.0
  0
LINE
  5
35C9
330
2
100
AcDbEntity
  8
0
100
AcDbLine
 10
659.5595263941245
 20
97.60655809839125
 30
0.0
 11
661.4720809641271
 21
97.60655809839125
 31
0.0
  0
LINE
  5
35CA
330
2
100
AcDbEntity
  8
0
100
AcDbLine
 10
645.4759697462654
 20
133.6465580983949
 30
0.0
 11
651.4759697462655
 21
133.6465580983949
 31
0.0
  0
ARC
  5
35CB
330
2
100
AcDbEntity
  8
0
100
AcDbCircle
 10
714.9759090264356
 20
101.6465580983998
 30
0.0
 40
5.0
100
AcDbArc
 50
90.0
 51
180.0
  0
ARC
  5
35CC
330
2
100
AcDbEntity
  8
0
100
AcDbCircle
 10
711.9759090264392
 20
99.64655809839758
 30
0.0
 40
2.0
100
AcDbArc
 50
90.0
 51
180.0
  0
ARC
  5
35CD
330
2
100
AcDbEntity
  8
0
100
AcDbCircle
 10
711.9759090264373
 20
132.1465580983975
 30
0.0
 40
2.0
100
AcDbArc
 50
90.0
 51
180.0
  0
LINE
  5
35CE
330
2
100
AcDbEntity
  8
0
100
AcDbLine
 10
645.4759697462654
 20
139.6465580983949
 30
0.0
 11
651.4759697462655
 21
139.6465580983949
 31
0.0
  0
ARC
  5
35CF
330
2
100
AcDbEntity
  8
0
100
AcDbCircle
 10
711.9759090264373
 20
141.1465580983975
 30
0.0
 40
2.0
100
AcDbArc
 50
180.0
 51
270.0
  0
ARC
  5
35D0
330
2
100
AcDbEntity
  8
0
100
AcDbCircle
 10
714.9759090264374
 20
171.6465580984003
 30
0.0
 40
5.0
100
AcDbArc
 50
180.0
 51
270.0
  0
ARC
  5
35D1
330
2
100
AcDbEntity
  8
0
100
AcDbCircle
 10
711.975909026441
 20
173.646558098398
 30
0.0
 40
2.0
100
AcDbArc
 50
180.0
 51
270.0
  0
ARC
  5
35D2
330
2
100
AcDbEntity
  8
0
100
AcDbCircle
 10
658.975909026441
 20
-12.35344190160287
 30
0.0
 40
200.0
100
AcDbArc
 50
84.10530161364862
 51
95.89469838635137
  0
LINE
  5
35D3
330
2
100
AcDbEntity
  8
0
100
AcDbLine
 10
615.975909026441
 20
187.6465580983973
 30
0.0
 11
618.975909026441
 21
187.6465580983973
 31
0.0
  0
LINE
  5
35D4
330
2
100
AcDbEntity
  8
CENTER
100
AcDbLine
 10
624.5495021552483
 20
179.0729649695926
 30
0.0
 11
608.5495021552483
 21
179.0729649695926
 31
0.0
  0
ARC
  5
35D5
330
2
100
AcDbEntity
  8
0
100
AcDbCircle
 10
615.9759090264392
 20
179.6465580983912
 30
0.0
 40
8.0
100
AcDbArc
 50
90.0
 51
180.0
  0
ARC
  5
35D6
330
2
100
AcDbEntity
  8
0
100
AcDbCircle
 10
632.2737800961144
 20
246.271762420382
 30
0.0
 40
60.0
100
AcDbArc
 50
258.1949321895054
 51
275.8946983863513
  0
ARC
  5
35D7
330
2
100
AcDbEntity
  8
0
100
AcDbCircle
 10
618.975909026441
 20
182.6465580983973
 30
0.0
 40
5.0
100
AcDbArc
 50
78.19493218950549
 51
90.0
  0
ARC
  5
35D8
330
2
100
AcDbEntity
  8
0
100
AcDbCircle
 10
685.6780379567658
 20
246.2717624203818
 30
0.0
 40
60.0
100
AcDbArc
 50
264.1053016135961
 51
281.8050678104415
  0
ARC
  5
35D9
330
2
100
AcDbEntity
  8
0
100
AcDbCircle
 10
701.9759090264429
 20
179.6465580983912
 30
0.0
 40
8.0
100
AcDbArc
 50
0.0
 51
90.0
  0
LINE
  5
35DA
330
2
100
AcDbEntity
  8
CENTER
100
AcDbLine
 10
709.4023158976337
 20
179.0729649695923
 30
0.0
 11
693.4023158976337
 21
179.0729649695923
 31
0.0
  0
ARC
  5
35DB
330
2
100
AcDbEntity
  8
0
100
AcDbCircle
 10
698.975909026441
 20
182.6465580983968
 30
0.0
 40
5.0
100
AcDbArc
 50
90.0
 51
101.8050678104414
  0
LINE
  5
35DC
330
2
100
AcDbEntity
  8
0
100
AcDbLine
 10
701.975909026441
 20
187.6465580983971
 30
0.0
 11
698.975909026441
 21
187.6465580983968
 31
0.0
  0
ARC
  5
35DD
330
2
100
AcDbEntity
  8
0
100
AcDbCircle
 10
734.4759090264392
 20
179.6465580983975
 30
0.0
 40
5.0
100
AcDbArc
 50
270.0
 51
0.0
  0
LINE
  5
35E0
330
2
100
AcDbEntity
  8
CENTER
  6
CENS
100
AcDbLine
 10
795.9759310264412
 20
187.588957971915
 30
0.0
 11
795.9759310264412
 21
164.2290319695482
 31
0.0
  0
ARC
  5
35E1
330
2
100
AcDbEntity
  8
0
100
AcDbCircle
 10
800.9758480945778
 20
178.6643029634447
 30
0.0
 40
4.000000000000014
100
AcDbArc
 50
359.6700000000007
 51
89.67000000001375
  0
ARC
  5
35E2
330
2
100
AcDbEntity
  8
0
100
AcDbCircle
 10
790.9760139583045
 20
178.7218985103245
 30
0.0
 40
4.000000000000014
100
AcDbArc
 50
89.67000000001375
 51
179.6700000000007
  0
LINE
  5
35E3
330
2
100
AcDbEntity
  8
0
100
AcDbLine
 10
776.9759310264412
 20
183.38373777537
 30
0.0
 11
776.9759310264412
 21
174.769378421425
 31
0.0
  0
LINE
  5
35E4
330
2
100
AcDbEntity
  8
0
100
AcDbLine
 10
770.9759310264412
 20
174.0765580983973
 30
0.0
 11
770.9759310264412
 21
184.0765580983973
 31
0.0
  0
LINE
  5
35E5
330
2
100
AcDbEntity
  8
0
100
AcDbLine
 10
769.9759310264412
 20
184.0765580983973
 30
0.0
 11
769.9759310264412
 21
174.0765580983973
 31
0.0
  0
LINE
  5
35E6
330
2
100
AcDbEntity
  8
0
100
AcDbLine
 10
770.9759310264412
 20
174.0765580983973
 30
0.0
 11
770.9759310264412
 21
184.0765580983973
 31
0.0
  0
LINE
  5
35E7
330
2
100
AcDbEntity
  8
0
100
AcDbLine
 10
776.5759310264416
 20
174.0765580983973
 30
0.0
 11
776.5759310264416
 21
184.0765580983973
 31
0.0
  0
LINE
  5
35E8
330
2
100
AcDbEntity
  8
0
100
AcDbLine
 10
804.9757786991245
 20
178.6407411548004
 30
0.0
 11
776.9759310264412
 21
178.8036395032927
 31
0.0
  0
LINE
  5
35E9
330
2
100
AcDbEntity
  8
0
100
AcDbLine
 10
769.9759310264412
 20
186.5243438709405
 30
0.0
 11
769.975931026443
 21
147.6892591038808
 31
0.0
  0
LINE
  5
35EC
330
2
100
AcDbEntity
  8
0
100
AcDbLine
 10
730.4759090264374
 20
172.6465580983978
 30
0.0
 11
730.4759090264355
 21
100.646558098398
 31
0.0
  0
SPLINE
  5
35ED
330
2
100
AcDbEntity
  8
HOJO
100
AcDbSpline
210
0.0
220
0.0
230
1.0
 70
     8
 71
     3
 72
    20
 73
    16
 74
     0
 42
0.0000000001
 43
0.0000000001
 40
1.221331719906463
 40
1.221331719906463
 40
1.221331719906463
 40
1.221331719906463
 40
5.647385924430076
 40
9.759277458584113
 40
14.59638394258456
 40
18.6386056126129
 40
22.25598020257161
 40
26.57819511411361
 40
31.00332353479096
 40
40.39337194914635
 40
45.49899296170218
 40
52.02718752358933
 40
57.17041693382338
 40
65.63449353306062
 40
69.3611614947018
 40
69.3611614947018
 40
69.3611614947018
 40
69.3611614947018
 10
806.2764135834708
 20
176.711133415567
 30
0.0
 10
804.9092533798789
 20
175.8758602023285
 30
0.0
 10
802.4535816489473
 20
174.3472375567655
 30
0.0
 10
801.1442832204698
 20
169.8228953691964
 30
0.0
 10
799.9943738949219
 20
166.4313258746779
 30
0.0
 10
796.506617482933
 20
162.7575606634336
 30
0.0
 10
794.83478230657
 20
159.2322005334544
 30
0.0
 10
792.8575357461154
 20
155.6814838359596
 30
0.0
 10
789.4697544335517
 20
150.0924392475055
 30
0.0
 10
781.9453953892366
 20
150.2680156950968
 30
0.0
 10
775.217056032588
 20
149.1216451615992
 30
0.0
 10
769.8737894871806
 20
147.4030330571185
 30
0.0
 10
762.8750089727941
 20
147.0668617723952
 30
0.0
 10
759.1602761735698
 20
141.5808674404402
 30
0.0
 10
757.8384347347742
 20
137.8109609472639
 30
0.0
 10
757.4257619616651
 20
136.6465580983972
 30
0.0
  0
LINE
  5
35EE
330
2
100
AcDbEntity
  8
0
100
AcDbLine
 10
765.4759310264412
 20
144.1465580983972
 30
0.0
 11
761.145804007519
 21
136.6465580983972
 31
0.0
  0
LINE
  5
35EF
330
2
100
AcDbEntity
  8
0
100
AcDbLine
 10
800.9759310264412
 20
144.6465580983972
 30
0.0
 11
800.9759310264412
 21
136.6465580983972
 31
0.0
  0
LINE
  5
35F0
330
2
100
AcDbEntity
  8
0
100
AcDbLine
 10
789.9759310264412
 20
151.975701659474
 30
0.0
 11
789.9759310264412
 21
136.6465580983972
 31
0.0
  0
LINE
  5
35F1
330
2
100
AcDbEntity
  8
0
100
AcDbLine
 10
787.9759310264412
 20
150.9219683190924
 30
0.0
 11
787.9759310264412
 21
136.6465580983972
 31
0.0
  0
LINE
  5
35F2
330
2
100
AcDbEntity
  8
0
100
AcDbLine
 10
765.4759310264412
 20
144.8965580983972
 30
0.0
 11
765.4759310264412
 21
136.6465580983972
 31
0.0
  0
LINE
  5
35F3
330
2
100
AcDbEntity
  8
0
100
AcDbLine
 10
771.4759310264412
 20
144.8965580983972
 30
0.0
 11
771.4759310264412
 21
136.6465580983974
 31
0.0
  0
LINE
  5
35F4
330
2
100
AcDbEntity
  8
0
100
AcDbLine
 10
802.9759310264411
 20
156.3965580983972
 30
0.0
 11
802.9759310264431
 21
136.6465580983972
 31
0.0
  0
LINE
  5
35F5
330
2
100
AcDbEntity
  8
0
100
AcDbLine
 10
802.9759310264411
 20
171.6465580983972
 30
0.0
 11
802.9759310264411
 21
136.6465580983972
 31
0.0
  0
ARC
  5
35F6
330
2
100
AcDbEntity
  8
0
100
AcDbCircle
 10
725.4759310264375
 20
101.6465580983998
 30
0.0
 40
5.0
100
AcDbArc
 50
0.0
 51
90.0
  0
ARC
  5
35F7
330
2
100
AcDbEntity
  8
0
100
AcDbCircle
 10
732.4759090264356
 20
100.646558098398
 30
0.0
 40
2.0
100
AcDbArc
 50
180.0
 51
270.0
  0
LINE
  5
35F8
330
2
100
AcDbEntity
  8
0
100
AcDbLine
 10
734.4759090264282
 20
98.64655809839803
 30
0.0
 11
732.4759090264356
 21
98.64655809839803
 31
0.0
  0
ARC
  5
35F9
330
2
100
AcDbEntity
  8
0
100
AcDbCircle
 10
728.602925680228
 20
99.64655809839758
 30
0.0
 40
2.0
100
AcDbArc
 50
14.47751218595946
 51
90.0
  0
ARC
  5
35FA
330
2
100
AcDbEntity
  8
0
100
AcDbCircle
 10
728.4759310264376
 20
132.1465580983975
 30
0.0
 40
2.0
100
AcDbArc
 50
0.0
 51
90.0
  0
LINE
  5
35FB
330
2
100
AcDbEntity
  8
0
100
AcDbLine
 10
776.5759310264416
 20
99.21655809839741
 30
0.0
 11
770.9759310264412
 21
99.21655809839741
 31
0.0
  0
LINE
  5
35FC
330
2
100
AcDbEntity
  8
0
100
AcDbLine
 10
769.9759310264412
 20
99.21655809839741
 30
0.0
 11
770.9759310264412
 21
99.21655809839741
 31
0.0
  0
LINE
  5
35FD
330
2
100
AcDbEntity
  8
0
100
AcDbLine
 10
776.5759310264416
 20
99.21655809839741
 30
0.0
 11
776.9759310264412
 21
98.52373777536968
 31
0.0
  0
LINE
  5
35FE
330
2
100
AcDbEntity
  8
0
100
AcDbLine
 10
771.4759310264412
 20
144.8965580983972
 30
0.0
 11
765.4759310264412
 21
144.8965580983972
 31
0.0
  0
ARC
  5
35FF
330
2
100
AcDbEntity
  8
0
100
AcDbCircle
 10
728.4759310264376
 20
141.1465580983975
 30
0.0
 40
2.0
100
AcDbArc
 50
270.0
 51
0.0
  0
ARC
  5
3600
330
2
100
AcDbEntity
  8
0
100
AcDbCircle
 10
725.4759310264394
 20
171.6465580983998
 30
0.0
 40
5.0
100
AcDbArc
 50
270.0
 51
0.0
  0
ARC
  5
3601
330
2
100
AcDbEntity
  8
0
100
AcDbCircle
 10
728.6029256802298
 20
173.6465580983975
 30
0.0
 40
2.0
100
AcDbArc
 50
270.0
 51
345.5224878140406
  0
ARC
  5
3602
330
2
100
AcDbEntity
  8
0
100
AcDbCircle
 10
732.4759090264373
 20
172.6465580983978
 30
0.0
 40
2.0
100
AcDbArc
 50
90.0
 51
180.0
  0
LINE
  5
3603
330
2
100
AcDbEntity
  8
0
100
AcDbLine
 10
734.4759090264392
 20
174.6465580983975
 30
0.0
 11
732.4759090264373
 21
174.6465580983977
 31
0.0
  0
LINE
  5
3604
330
2
100
AcDbEntity
  8
0
100
AcDbLine
 10
787.9759310264412
 20
144.6465580983974
 30
0.0
 11
771.4759310264412
 21
144.6465580983972
 31
0.0
  0
LINE
  5
3605
330
2
100
AcDbEntity
  8
0
100
AcDbLine
 10
800.9759310264412
 20
144.6465580983972
 30
0.0
 11
789.9759310264412
 21
144.6465580983974
 31
0.0
  0
LINE
  5
3606
330
2
100
AcDbEntity
  8
0
100
AcDbLine
 10
802.9759310264411
 20
145.8012586367767
 30
0.0
 11
800.9759310264412
 21
144.6465580983972
 31
0.0
  0
LINE
  5
3607
330
2
100
AcDbEntity
  8
0
100
AcDbLine
 10
802.9759310264411
 20
156.3965580983972
 30
0.0
 11
793.2381264559239
 21
156.3965580983972
 31
0.0
  0
LINE
  5
3608
330
2
100
AcDbEntity
  8
0
100
AcDbLine
 10
776.5759310264416
 20
174.0765580983973
 30
0.0
 11
770.9759310264412
 21
174.0765580983973
 31
0.0
  0
LINE
  5
3609
330
2
100
AcDbEntity
  8
0
100
AcDbLine
 10
769.9759310264412
 20
174.0765580983973
 30
0.0
 11
770.9759310264412
 21
174.0765580983973
 31
0.0
  0
LINE
  5
360A
330
2
100
AcDbEntity
  8
0
100
AcDbLine
 10
776.5759310264416
 20
174.0765580983973
 30
0.0
 11
776.9759310264412
 21
174.769378421425
 31
0.0
  0
LINE
  5
360B
330
2
100
AcDbEntity
  8
0
100
AcDbLine
 10
802.9759310264411
 20
165.646558098397
 30
0.0
 11
799.0662776776548
 21
165.6465580983972
 31
0.0
  0
LINE
  5
360C
330
2
100
AcDbEntity
  8
0
100
AcDbLine
 10
809.9759310264412
 20
171.6465580983974
 30
0.0
 11
802.9759310264411
 21
171.6465580983972
 31
0.0
  0
LINE
  5
360D
330
2
100
AcDbEntity
  8
0
100
AcDbLine
 10
809.9759310264412
 20
176.646558098397
 30
0.0
 11
805.9759310264448
 21
176.7163783581097
 31
0.0
  0
LINE
  5
360E
330
2
100
AcDbEntity
  8
0
100
AcDbLine
 10
805.9759310264448
 20
176.7163783581097
 30
0.0
 11
803.9759310264448
 21
178.6465580983942
 31
0.0
  0
LINE
  5
360F
330
2
100
AcDbEntity
  8
0
100
AcDbLine
 10
805.9759310264448
 20
176.7163783581097
 30
0.0
 11
805.9759310264448
 21
176.5270665849613
 31
0.0
  0
LINE
  5
3610
330
2
100
AcDbEntity
  8
0
100
AcDbLine
 10
803.9759310264448
 20
178.6465580983942
 30
0.0
 11
803.9759310264448
 21
175.14585841393
 31
0.0
  0
LINE
  5
3611
330
2
100
AcDbEntity
  8
CENTER
  6
CENS
100
AcDbLine
 10
749.9759310264412
 20
179.0765580983973
 30
0.0
 11
781.9759310264412
 21
179.0765580983973
 31
0.0
  0
LINE
  5
3612
330
2
100
AcDbEntity
  8
0
100
AcDbLine
 10
754.9759310264412
 20
187.6465580983967
 30
0.0
 11
768.9846575619408
 21
187.5243057940046
 31
0.0
  0
LINE
  5
3613
330
2
100
AcDbEntity
  8
0
100
AcDbLine
 10
754.9759310264412
 20
188.1465580983998
 30
0.0
 11
741.4759310264412
 21
188.1465580984
 31
0.0
  0
LINE
  5
3614
330
2
100
AcDbEntity
  8
0
100
AcDbLine
 10
754.9759310264412
 20
187.6465580983998
 30
0.0
 11
741.4759310264412
 21
187.6465580984
 31
0.0
  0
ARC
  5
3615
330
2
100
AcDbEntity
  8
0
100
AcDbCircle
 10
741.4759310264412
 20
186.1465580984
 30
0.0
 40
2.0
100
AcDbArc
 50
90.0
 51
180.0
  0
ARC
  5
3616
330
2
100
AcDbEntity
  8
0
100
AcDbCircle
 10
741.4759310264412
 20
185.6465580984
 30
0.0
 40
2.0
100
AcDbArc
 50
90.0
 51
180.0
  0
LINE
  5
3617
330
2
100
AcDbEntity
  8
0
100
AcDbLine
 10
776.5759310264416
 20
184.0765580983975
 30
0.0
 11
776.9759310264412
 21
183.38373777537
 31
0.0
  0
LINE
  5
3618
330
2
100
AcDbEntity
  8
0
100
AcDbLine
 10
770.9759310264412
 20
184.0765580983973
 30
0.0
 11
776.5759310264416
 21
184.0765580983973
 31
0.0
  0
LINE
  5
3619
330
2
100
AcDbEntity
  8
0
100
AcDbLine
 10
770.9759310264412
 20
184.0765580983973
 30
0.0
 11
769.9759310264412
 21
184.0765580983973
 31
0.0
  0
ARC
  5
361A
330
2
100
AcDbEntity
  8
0
100
AcDbCircle
 10
768.9759310264412
 20
186.5243438709405
 30
0.0
 40
1.0
100
AcDbArc
 50
0.0
 51
89.5000000000345
  0
LINE
  5
361B
330
2
100
AcDbEntity
  8
0
100
AcDbLine
 10
800.9988863133308
 20
182.6642366179539
 30
0.0
 11
790.9990521770573
 21
182.721832164834
 31
0.0
  0
CIRCLE
  5
361E
330
2
100
AcDbEntity
  8
0
100
AcDbCircle
 10
1001.086008791141
 20
94.21655809839739
 30
0.0
 40
4.307179676972423
  0
CIRCLE
  5
361F
330
2
100
AcDbEntity
  8
0
100
AcDbCircle
 10
1001.086008791141
 20
94.21655809839739
 30
0.0
 40
5.0
  0
CIRCLE
  5
3620
330
2
100
AcDbEntity
  8
0
100
AcDbCircle
 10
1085.946008791141
 20
94.21655809839739
 30
0.0
 40
4.307179676972423
  0
CIRCLE
  5
3621
330
2
100
AcDbEntity
  8
0
100
AcDbCircle
 10
1085.946008791141
 20
94.21655809839739
 30
0.0
 40
5.0
  0
CIRCLE
  5
3622
330
2
100
AcDbEntity
  8
CENTER
100
AcDbCircle
 10
1043.516008791141
 20
136.6465580983972
 30
0.0
 40
45.0
  0
LINE
  5
3623
330
2
100
AcDbEntity
  8
CENTER
100
AcDbLine
 10
1085.946008791141
 20
85.71655809839739
 30
0.0
 11
1085.946008791141
 21
102.7165580983973
 31
0.0
  0
LINE
  5
3624
330
2
100
AcDbEntity
  8
CENTER
100
AcDbLine
 10
1001.086008791141
 20
85.71655809839739
 30
0.0
 11
1001.086008791141
 21
102.7165580983973
 31
0.0
  0
ARC
  5
3625
330
2
100
AcDbEntity
  8
0
100
AcDbCircle
 10
1016.516008791141
 20
109.6465580983972
 30
0.0
 40
13.0
100
AcDbArc
 50
180.0
 51
270.0
  0
ARC
  5
3626
330
2
100
AcDbEntity
  8
0
100
AcDbCircle
 10
1016.516008791141
 20
109.6465580983972
 30
0.0
 40
15.0
100
AcDbArc
 50
180.0
 51
270.0
  0
LINE
  5
3627
330
2
100
AcDbEntity
  8
CENTER
100
AcDbLine
 10
1011.696203637746
 20
97.32675294500268
 30
0.0
 11
1011.696203637746
 21
112.3267529450026
 31
0.0
  0
LINE
  5
3628
330
2
100
AcDbEntity
  8
CENTER
100
AcDbLine
 10
1075.335813944535
 20
97.32675294500268
 30
0.0
 11
1075.335813944535
 21
112.3267529450026
 31
0.0
  0
ARC
  5
3629
330
2
100
AcDbEntity
  8
0
100
AcDbCircle
 10
1070.516008791139
 20
109.6465580983972
 30
0.0
 40
13.0
100
AcDbArc
 50
270.0
 51
0.0
  0
ARC
  5
362A
330
2
100
AcDbEntity
  8
0
100
AcDbCircle
 10
1070.516008791141
 20
109.6465580983972
 30
0.0
 40
15.0
100
AcDbArc
 50
270.0
 51
0.0
  0
LINE
  5
362B
330
2
100
AcDbEntity
  8
CENTER
100
AcDbLine
 10
1043.516008791141
 20
198.1465580984049
 30
0.0
 11
1043.516008791141
 21
75.14655809840587
 31
0.0
  0
LINE
  5
362C
330
2
100
AcDbEntity
  8
0
100
AcDbLine
 10
992.5160087911413
 20
179.7246050126805
 30
0.0
 11
992.5160087911413
 21
93.56851118413032
 31
0.0
  0
LINE
  5
362D
330
2
100
AcDbEntity
  8
0
100
AcDbLine
 10
1094.516008791141
 20
179.7246050126796
 30
0.0
 11
1094.516008791141
 21
93.56851118413123
 31
0.0
  0
LINE
  5
362E
330
2
100
AcDbEntity
  8
0
100
AcDbLine
 10
985.5160087911485
 20
181.6465580983958
 30
0.0
 11
985.5160087911485
 21
91.64655809839633
 31
0.0
  0
LINE
  5
362F
330
2
100
AcDbEntity
  8
0
100
AcDbLine
 10
990.5160087911486
 20
186.9222280717658
 30
0.0
 11
990.5160087911486
 21
86.37088812503225
 31
0.0
  0
LINE
  5
3630
330
2
100
AcDbEntity
  8
0
100
AcDbLine
 10
1016.516008791141
 20
96.64655809839723
 30
0.0
 11
1070.516008791139
 21
96.64655809839723
 31
0.0
  0
LINE
  5
3631
330
2
100
AcDbEntity
  8
0
100
AcDbLine
 10
1016.516008791141
 20
94.64655809839724
 30
0.0
 11
1070.516008791141
 21
94.64655809839724
 31
0.0
  0
LINE
  5
3632
330
2
100
AcDbEntity
  8
0
100
AcDbLine
 10
1000.516008791141
 20
85.64655809839724
 30
0.0
 11
1086.516008791141
 21
85.64655809839724
 31
0.0
  0
LINE
  5
3633
330
2
100
AcDbEntity
  8
0
100
AcDbLine
 10
1043.516008791141
 20
85.14655809840588
 30
0.0
 11
1086.594436394673
 21
85.56889562393099
 31
0.0
  0
LINE
  5
3635
330
2
100
AcDbEntity
  8
0
100
AcDbLine
 10
1043.516008791141
 20
85.14655809840588
 30
0.0
 11
1000.437581187611
 21
85.56889562393008
 31
0.0
  0
LINE
  5
3636
330
2
100
AcDbEntity
  8
CENTER
100
AcDbLine
 10
1009.586008791141
 20
94.21655809839739
 30
0.0
 11
992.5860087911409
 21
94.21655809839739
 31
0.0
  0
ARC
  5
3637
330
2
100
AcDbEntity
  8
0
100
AcDbCircle
 10
1000.516008791141
 20
93.64655809839723
 30
0.0
 40
8.0
100
AcDbArc
 50
180.0
 51
270.0
  0
ARC
  5
3638
330
2
100
AcDbEntity
  8
0
100
AcDbCircle
 10
1000.516008791141
 20
93.56851118413032
 30
0.0
 40
8.0
100
AcDbArc
 50
180.0
 51
269.4382946674683
  0
LINE
  5
3639
330
2
100
AcDbEntity
  8
0
100
AcDbLine
 10
997.1458457686734
 20
86.31303041425416
 30
0.0
 11
990.5160087911486
 21
86.37088812503225
 31
0.0
  0
LINE
  5
363A
330
2
100
AcDbEntity
  8
0
100
AcDbLine
 10
990.5160087911486
 20
91.64655809839633
 30
0.0
 11
985.5160087911485
 21
91.64655809839633
 31
0.0
  0
LWPOLYLINE
  5
363B
330
2
100
AcDbEntity
  8
0
100
AcDbPolyline
 90
        6
 70
     1
 43
0.0
 10
1003.586008791141
 20
95.65993377137147
 10
1001.086008791141
 20
97.10330944434554
 10
998.586008791141
 20
95.65993377137147
 10
998.586008791141
 20
92.77318242542333
 10
1001.086008791141
 20
91.32980675244926
 10
1003.586008791141
 20
92.77318242542333
  0
CIRCLE
  5
363C
330
2
100
AcDbEntity
  8
0
100
AcDbCircle
 10
1001.086008791141
 20
94.21655809839739
 30
0.0
 40
2.886751345948113
  0
ARC
  5
363D
330
2
100
AcDbEntity
  8
0
100
AcDbCircle
 10
1086.516008791141
 20
93.64655809839723
 30
0.0
 40
8.0
100
AcDbArc
 50
270.0
 51
0.0
  0
LINE
  5
363E
330
2
100
AcDbEntity
  8
CENTER
100
AcDbLine
 10
1077.446008791141
 20
94.21655809839739
 30
0.0
 11
1094.446008791141
 21
94.21655809839739
 31
0.0
  0
ARC
  5
363F
330
2
100
AcDbEntity
  8
0
100
AcDbCircle
 10
1086.516008791141
 20
93.56851118413123
 30
0.0
 40
8.0
100
AcDbArc
 50
270.5617053325316
 51
0.0
  0
LWPOLYLINE
  5
3640
330
2
100
AcDbEntity
  8
0
100
AcDbPolyline
 90
        6
 70
     1
 43
0.0
 10
1088.446008791141
 20
95.65993377137147
 10
1085.946008791141
 20
97.10330944434554
 10
1083.446008791141
 20
95.65993377137147
 10
1083.446008791141
 20
92.77318242542333
 10
1085.946008791141
 20
91.32980675244926
 10
1088.446008791141
 20
92.77318242542333
  0
CIRCLE
  5
3641
330
2
100
AcDbEntity
  8
0
100
AcDbCircle
 10
1085.946008791141
 20
94.21655809839739
 30
0.0
 40
2.886751345948113
  0
CIRCLE
  5
3642
330
2
100
AcDbEntity
  8
0
100
AcDbCircle
 10
1043.516008791141
 20
136.6465580983972
 30
0.0
 40
29.0
  0
CIRCLE
  5
3643
330
2
100
AcDbEntity
  8
0
100
AcDbCircle
 10
1043.516008791141
 20
136.6465580983972
 30
0.0
 40
34.99999999953029
  0
LINE
  5
3644
330
2
100
AcDbEntity
  8
CENTER
100
AcDbLine
 10
1067.835813944536
 20
168.466363251792
 30
0.0
 11
1082.835813944535
 21
168.466363251792
 31
0.0
  0
LINE
  5
3645
330
2
100
AcDbEntity
  8
0
100
AcDbLine
 10
1016.516008791141
 20
176.6465580983972
 30
0.0
 11
1070.516008791139
 21
176.6465580983972
 31
0.0
  0
LINE
  5
3646
330
2
100
AcDbEntity
  8
0
100
AcDbLine
 10
1016.516008791141
 20
178.6465580983972
 30
0.0
 11
1070.516008791141
 21
178.6465580983972
 31
0.0
  0
LINE
  5
3647
330
2
100
AcDbEntity
  8
CENTER
100
AcDbLine
 10
1067.835813944536
 20
104.8267529450026
 30
0.0
 11
1082.835813944535
 21
104.8267529450026
 31
0.0
  0
LINE
  5
3648
330
2
100
AcDbEntity
  8
0
100
AcDbLine
 10
1000.516008791143
 20
187.6465580983972
 30
0.0
 11
1086.516008791141
 21
187.6465580983972
 31
0.0
  0
LINE
  5
3649
330
2
100
AcDbEntity
  8
CENTER
100
AcDbLine
 10
919.5160087911355
 20
136.6465580983972
 30
0.0
 11
1104.51600879114
 21
136.6465580983972
 31
0.0
  0
LINE
  5
364A
330
2
100
AcDbEntity
  8
0
100
AcDbLine
 10
1043.516008791141
 20
188.1465580984049
 30
0.0
 11
1086.594436394673
 21
187.7242205728798
 31
0.0
  0
ARC
  5
364C
330
2
100
AcDbEntity
  8
0
100
AcDbCircle
 10
1033.141009814593
 20
178.471832164834
 30
0.0
 40
4.25
100
AcDbArc
 50
2.356207251540278
 51
90.0
  0
ARC
  5
364D
330
2
100
AcDbEntity
  8
0
100
AcDbCircle
 10
1023.641009814593
 20
178.471832164834
 30
0.0
 40
4.25
100
AcDbArc
 50
90.0
 51
177.6437927484597
  0
LINE
  5
364E
330
2
100
AcDbEntity
  8
CENTER
  6
CENS
100
AcDbLine
 10
1028.516008791141
 20
187.588957971915
 30
0.0
 11
1028.516008791141
 21
120.7988929408677
 31
0.0
  0
LWPOLYLINE
  5
364F
330
2
100
AcDbEntity
  8
0
100
AcDbPolyline
 90
        6
 70
     1
 43
0.0
 10
1003.586008791141
 20
180.5199337713716
 10
1001.086008791141
 20
181.9633094443456
 10
998.586008791141
 20
180.5199337713716
 10
998.586008791141
 20
177.6331824254234
 10
1001.086008791141
 20
176.1898067524493
 10
1003.586008791141
 20
177.6331824254234
  0
CIRCLE
  5
3650
330
2
100
AcDbEntity
  8
0
100
AcDbCircle
 10
1001.086008791141
 20
179.0765580983975
 30
0.0
 40
2.886751345948113
  0
CIRCLE
  5
3651
330
2
100
AcDbEntity
  8
0
100
AcDbCircle
 10
1001.086008791141
 20
179.0765580983975
 30
0.0
 40
4.307179676972423
  0
CIRCLE
  5
3652
330
2
100
AcDbEntity
  8
0
100
AcDbCircle
 10
1001.086008791141
 20
179.0765580983975
 30
0.0
 40
5.0
  0
ARC
  5
3653
330
2
100
AcDbEntity
  8
0
100
AcDbCircle
 10
1016.516008791141
 20
163.6465580983972
 30
0.0
 40
13.0
100
AcDbArc
 50
90.0
 51
180.0
  0
ARC
  5
3654
330
2
100
AcDbEntity
  8
0
100
AcDbCircle
 10
1016.516008791141
 20
163.6465580983972
 30
0.0
 40
15.0
100
AcDbArc
 50
90.0
 51
180.0
  0
LINE
  5
3655
330
2
100
AcDbEntity
  8
CENTER
100
AcDbLine
 10
1001.086008791141
 20
187.5765580983975
 30
0.0
 11
1001.086008791141
 21
170.5765580983975
 31
0.0
  0
ARC
  5
3656
330
2
100
AcDbEntity
  8
0
100
AcDbCircle
 10
983.5160087911486
 20
100.2262897758992
 30
0.0
 40
2.0
100
AcDbArc
 50
0.0
 51
87.9999999999964
  0
ARC
  5
3657
330
2
100
AcDbEntity
  8
0
100
AcDbCircle
 10
983.5160087911486
 20
173.0668264208952
 30
0.0
 40
2.0
100
AcDbArc
 50
272.0000000000035
 51
0.0
  0
LINE
  5
3658
330
2
100
AcDbEntity
  8
0
100
AcDbLine
 10
970.5160087911504
 20
120.4352332329922
 30
0.0
 11
970.5160087911504
 21
152.8578829638031
 31
0.0
  0
LINE
  5
3659
330
2
100
AcDbEntity
  8
0
100
AcDbLine
 10
930.0160087911503
 20
125.6464973785673
 30
0.0
 11
930.0160087911494
 21
147.646497378581
 31
0.0
  0
LINE
  5
365A
330
2
100
AcDbEntity
  8
0
100
AcDbLine
 10
929.5160087911504
 20
147.1464971816549
 30
0.0
 11
929.5160087911504
 21
126.1464971816417
 31
0.0
  0
LINE
  5
365B
330
2
100
AcDbEntity
  8
0
100
AcDbLine
 10
969.5160087911503
 20
124.6465129357334
 30
0.0
 11
969.5154442578582
 21
148.6465129229868
 31
0.0
  0
LINE
  5
365C
330
2
100
AcDbEntity
  8
0
100
AcDbLine
 10
971.5160087911485
 20
168.7151805487838
 30
0.0
 11
971.5160087911485
 21
104.5779356480106
 31
0.0
  0
LINE
  5
365D
330
2
100
AcDbEntity
  8
0
100
AcDbLine
 10
930.0160087911503
 20
125.6464973785673
 30
0.0
 11
969.5160087911503
 21
125.6465129357334
 31
0.0
  0
LINE
  5
365E
330
2
100
AcDbEntity
  8
0
100
AcDbLine
 10
930.0160087911503
 20
125.6464973785673
 30
0.0
 11
929.5160087911504
 21
126.1464971816417
 31
0.0
  0
ARC
  5
365F
330
2
100
AcDbEntity
  8
0
100
AcDbCircle
 10
973.5160087911486
 20
104.5779356480106
 30
0.0
 40
2.0
100
AcDbArc
 50
180.0
 51
267.9999999999963
  0
LINE
  5
3660
330
2
100
AcDbEntity
  8
0
100
AcDbLine
 10
983.5858077845538
 20
102.225071429937
 30
0.0
 11
973.4462097977434
 21
102.5791539939727
 31
0.0
  0
LINE
  5
3661
330
2
100
AcDbEntity
  8
0
100
AcDbLine
 10
970.7660087911504
 20
120.0022205311001
 30
0.0
 11
970.9178473209234
 21
119.9145565150624
 31
0.0
  0
LINE
  5
3662
330
2
100
AcDbEntity
  8
0
100
AcDbLine
 10
969.5160087911503
 20
124.6465129357334
 30
0.0
 11
970.5160087911504
 21
124.0691626665434
 31
0.0
  0
ARC
  5
3663
330
2
100
AcDbEntity
  8
0
100
AcDbCircle
 10
971.9178473209236
 20
121.6466073226315
 30
0.0
 40
2.0
100
AcDbArc
 50
239.9999999999994
 51
258.4092797188798
  0
ARC
  5
3664
330
2
100
AcDbEntity
  8
0
100
AcDbCircle
 10
971.0160087911503
 20
120.4352332329922
 30
0.0
 40
0.5
100
AcDbArc
 50
180.0
 51
239.9999999999994
  0
LINE
  5
3665
330
2
100
AcDbEntity
  8
0
100
AcDbLine
 10
969.5160087911503
 20
147.6465129357352
 30
0.0
 11
930.0160087911503
 21
147.646497378581
 31
0.0
  0
LINE
  5
3666
330
2
100
AcDbEntity
  8
0
100
AcDbLine
 10
930.0160087911503
 20
147.646497378581
 30
0.0
 11
929.5160087911504
 21
147.1464971816549
 31
0.0
  0
LINE
  5
3667
330
2
100
AcDbEntity
  8
0
100
AcDbLine
 10
969.5160087911503
 20
148.6466032610619
 30
0.0
 11
970.5160087911504
 21
149.223953530251
 31
0.0
  0
LINE
  5
3668
330
2
100
AcDbEntity
  8
0
100
AcDbLine
 10
970.7660087911504
 20
153.2908956656951
 30
0.0
 11
970.9178473209234
 21
153.3785596817329
 31
0.0
  0
ARC
  5
3669
330
2
100
AcDbEntity
  8
0
100
AcDbCircle
 10
971.9178473209236
 20
151.6465088741638
 30
0.0
 40
2.0
100
AcDbArc
 50
101.5907202811201
 51
120.0000000000005
  0
ARC
  5
366A
330
2
100
AcDbEntity
  8
0
100
AcDbCircle
 10
971.0160087911503
 20
152.8578829638031
 30
0.0
 40
0.5
100
AcDbArc
 50
120.0000000000005
 51
180.0
  0
ARC
  5
366B
330
2
100
AcDbEntity
  8
0
100
AcDbCircle
 10
973.5160087911486
 20
168.7151805487838
 30
0.0
 40
2.0
100
AcDbArc
 50
92.00000000000361
 51
180.0
  0
LINE
  5
366C
330
2
100
AcDbEntity
  8
0
100
AcDbLine
 10
983.5858077845518
 20
171.0680447668574
 30
0.0
 11
973.4462097977434
 21
170.7139622028216
 31
0.0
  0
ARC
  5
366D
330
2
100
AcDbEntity
  8
0
100
AcDbCircle
 10
1043.516008791141
 20
136.6465580983972
 30
0.0
 40
9.154700538379415
100
AcDbArc
 50
4.699230675936508
 51
175.3007693240634
  0
CIRCLE
  5
366E
330
2
100
AcDbEntity
  8
0
100
AcDbCircle
 10
1043.516008791141
 20
136.6465580983972
 30
0.0
 40
19.75
  0
LINE
  5
366F
330
2
100
AcDbEntity
  8
HIDS
100
AcDbLine
 10
1026.016008791141
 20
141.6465580983972
 30
0.0
 11
1026.016008791141
 21
137.3965580983972
 31
0.0
  0
LINE
  5
3670
330
2
100
AcDbEntity
  8
HIDS
100
AcDbLine
 10
1026.432675457807
 20
139.5632247650639
 30
0.0
 11
1026.432675457807
 21
137.3965580983972
 31
0.0
  0
LINE
  5
3671
330
2
100
AcDbEntity
  8
HIDS
100
AcDbLine
 10
1030.599342124475
 20
139.5632247650639
 30
0.0
 11
1030.599342124475
 21
137.3965580983972
 31
0.0
  0
LINE
  5
3672
330
2
100
AcDbEntity
  8
HIDS
100
AcDbLine
 10
1031.016008791141
 20
141.6465580983972
 30
0.0
 11
1031.016008791141
 21
137.3965580983972
 31
0.0
  0
LINE
  5
3673
330
2
100
AcDbEntity
  8
HIDS
100
AcDbLine
 10
1025.516008791141
 20
141.6465580983972
 30
0.0
 11
1025.516008791141
 21
137.3965580983972
 31
0.0
  0
LINE
  5
3674
330
2
100
AcDbEntity
  8
HIDS
100
AcDbLine
 10
1031.516008791141
 20
141.6465580983972
 30
0.0
 11
1031.516008791141
 21
137.3965580983972
 31
0.0
  0
CIRCLE
  5
3675
330
2
100
AcDbEntity
  8
0
100
AcDbCircle
 10
1043.516008791141
 20
136.6465580983972
 30
0.0
 40
8.0
  0
LINE
  5
3676
330
2
100
AcDbEntity
  8
0
100
AcDbLine
 10
1001.516008791141
 20
163.6465580983972
 30
0.0
 11
1001.516008791141
 21
109.6465580983972
 31
0.0
  0
LINE
  5
3677
330
2
100
AcDbEntity
  8
0
100
AcDbLine
 10
1003.516008791141
 20
163.6465580983972
 30
0.0
 11
1003.516008791141
 21
109.6465580983972
 31
0.0
  0
LINE
  5
3678
330
2
100
AcDbEntity
  8
HIDS
100
AcDbLine
 10
1031.016008791141
 20
127.6465580983972
 30
0.0
 11
1026.016008791141
 21
127.6465580983972
 31
0.0
  0
LINE
  5
3679
330
2
100
AcDbEntity
  8
HIDS
100
AcDbLine
 10
1026.016008791141
 20
127.6465580983972
 30
0.0
 11
1027.016008791141
 21
126.6465580983972
 31
0.0
  0
LINE
  5
367A
330
2
100
AcDbEntity
  8
0
100
AcDbLine
 10
1023.780254435151
 20
137.3965580983972
 30
0.0
 11
1035.551242630103
 21
137.3965580983972
 31
0.0
  0
LINE
  5
367B
330
2
100
AcDbEntity
  8
0
100
AcDbLine
 10
1023.780254435151
 20
135.8965580983972
 30
0.0
 11
1035.551242630103
 21
135.8965580983972
 31
0.0
  0
LINE
  5
367C
330
2
100
AcDbEntity
  8
CENTER
100
AcDbLine
 10
1019.196203637746
 20
104.8267529450026
 30
0.0
 11
1004.196203637746
 21
104.8267529450026
 31
0.0
  0
CIRCLE
  5
367D
330
2
100
AcDbEntity
  8
HOJO
100
AcDbCircle
 10
1011.696203637746
 20
104.8267529450026
 30
0.0
 40
3.0
  0
CIRCLE
  5
367E
330
2
100
AcDbEntity
  8
0
100
AcDbCircle
 10
1011.696203637746
 20
104.8267529450026
 30
0.0
 40
2.5
  0
LINE
  5
367F
330
2
100
AcDbEntity
  8
HIDS
100
AcDbLine
 10
1026.432675457807
 20
135.8965580983972
 30
0.0
 11
1026.432675457807
 21
127.2298914317307
 31
0.0
  0
LINE
  5
3680
330
2
100
AcDbEntity
  8
HIDS
100
AcDbLine
 10
1026.016008791141
 20
135.8965580983972
 30
0.0
 11
1026.016008791141
 21
127.6465580983972
 31
0.0
  0
LINE
  5
3681
330
2
100
AcDbEntity
  8
HIDS
100
AcDbLine
 10
1026.016008791141
 20
135.8965580983972
 30
0.0
 11
1026.016008791141
 21
127.4916413865971
 31
0.0
  0
LINE
  5
3682
330
2
100
AcDbEntity
  8
HIDS
100
AcDbLine
 10
1026.432675457807
 20
135.8965580983972
 30
0.0
 11
1026.432675457807
 21
126.7358456001848
 31
0.0
  0
LINE
  5
3683
330
2
100
AcDbEntity
  8
0
100
AcDbLine
 10
1026.016008791141
 20
137.3965580983972
 30
0.0
 11
1026.016008791141
 21
135.8965580983972
 31
0.0
  0
LINE
  5
3684
330
2
100
AcDbEntity
  8
HOJO
100
AcDbLine
 10
1026.432675457807
 20
137.3965580983972
 30
0.0
 11
1026.432675457807
 21
135.8965580983974
 31
0.0
  0
ARC
  5
3685
330
2
100
AcDbEntity
  8
0
100
AcDbCircle
 10
1043.516008791141
 20
136.6465580983972
 30
0.0
 40
9.154700538379415
100
AcDbArc
 50
184.6992306759365
 51
355.3007693240634
  0
LINE
  5
3686
330
2
100
AcDbEntity
  8
HIDS
100
AcDbLine
 10
1030.599342124475
 20
135.8965580983972
 30
0.0
 11
1030.599342124475
 21
121.7059348777206
 31
0.0
  0
LINE
  5
3687
330
2
100
AcDbEntity
  8
HIDS
100
AcDbLine
 10
1031.016008791141
 20
135.8965580983972
 30
0.0
 11
1031.016008791141
 21
121.3556294150244
 31
0.0
  0
LINE
  5
3688
330
2
100
AcDbEntity
  8
HIDS
100
AcDbLine
 10
1030.016008791141
 20
126.6465580983972
 30
0.0
 11
1027.016008791141
 21
126.6465580983972
 31
0.0
  0
LINE
  5
3689
330
2
100
AcDbEntity
  8
HIDS
100
AcDbLine
 10
1031.016008791141
 20
127.6465580983972
 30
0.0
 11
1030.016008791141
 21
126.6465580983972
 31
0.0
  0
LINE
  5
368A
330
2
100
AcDbEntity
  8
HOJO
100
AcDbLine
 10
1030.599342124475
 20
137.3965580983972
 30
0.0
 11
1030.599342124475
 21
135.8965580983974
 31
0.0
  0
LINE
  5
368B
330
2
100
AcDbEntity
  8
0
100
AcDbLine
 10
1031.016008791141
 20
137.3965580983972
 30
0.0
 11
1031.016008791141
 21
135.8965580983974
 31
0.0
  0
LINE
  5
368C
330
2
100
AcDbEntity
  8
0
100
AcDbLine
 10
1051.480774952179
 20
137.3965580983972
 30
0.0
 11
1060.71600879114
 21
137.3965580983972
 31
0.0
  0
LINE
  5
368D
330
2
100
AcDbEntity
  8
0
100
AcDbLine
 10
1051.480774952179
 20
135.8965580983972
 30
0.0
 11
1060.71600879114
 21
135.8965580983972
 31
0.0
  0
LINE
  5
368E
330
2
100
AcDbEntity
  8
0
100
AcDbLine
 10
1060.71600879114
 20
135.8965580983972
 30
0.0
 11
1060.71600879114
 21
137.3965580983972
 31
0.0
  0
LINE
  5
368F
330
2
100
AcDbEntity
  8
HIDS
100
AcDbLine
 10
1026.312157478136
 20
146.3465580983972
 30
0.0
 11
1032.766008791141
 21
146.3465580983975
 31
0.0
  0
LINE
  5
3690
330
2
100
AcDbEntity
  8
HIDS
100
AcDbLine
 10
1024.409399986857
 20
141.6465580983972
 30
0.0
 11
1033.516008791141
 21
141.6465580983972
 31
0.0
  0
LINE
  5
3691
330
2
100
AcDbEntity
  8
HIDS
100
AcDbLine
 10
1032.246393548871
 20
146.6465580983972
 30
0.0
 11
1026.48478746089
 21
146.6465580983972
 31
0.0
  0
LINE
  5
3692
330
2
100
AcDbEntity
  8
HIDS
100
AcDbLine
 10
1031.016008791141
 20
139.5632247650639
 30
0.0
 11
1026.016008791141
 21
139.5632247650639
 31
0.0
  0
LINE
  5
3693
330
2
100
AcDbEntity
  8
HIDS
100
AcDbLine
 10
1022.266008791141
 20
178.6465580983972
 30
0.0
 11
1022.266008791141
 21
156.3807289702631
 31
0.0
  0
LINE
  5
3694
330
2
100
AcDbEntity
  8
0
100
AcDbLine
 10
1026.48478746089
 20
146.6465580983972
 30
0.0
 11
1024.785624033411
 21
146.6465580983972
 31
0.0
  0
LINE
  5
3695
330
2
100
AcDbEntity
  8
0
100
AcDbLine
 10
1024.266008791141
 20
146.3465580983972
 30
0.0
 11
1024.785624033411
 21
146.6465580983972
 31
0.0
  0
LINE
  5
3696
330
2
100
AcDbEntity
  8
0
100
AcDbLine
 10
1024.266008791141
 20
146.3465580983972
 30
0.0
 11
1026.312157478136
 21
146.3465580983972
 31
0.0
  0
LINE
  5
3697
330
2
100
AcDbEntity
  8
HIDS
100
AcDbLine
 10
1026.016008791141
 20
141.6465580983972
 30
0.0
 11
1026.432675457807
 21
139.5632247650639
 31
0.0
  0
LINE
  5
3698
330
2
100
AcDbEntity
  8
0
100
AcDbLine
 10
1024.266008791141
 20
141.6465580983972
 30
0.0
 11
1024.409399986857
 21
141.6465580983972
 31
0.0
  0
LINE
  5
3699
330
2
100
AcDbEntity
  8
0
100
AcDbLine
 10
1024.266008791141
 20
146.3465580983972
 30
0.0
 11
1024.266008791141
 21
141.6465580983972
 31
0.0
  0
LINE
  5
369A
330
2
100
AcDbEntity
  8
CENTER
100
AcDbLine
 10
1019.196203637746
 20
168.466363251792
 30
0.0
 11
1004.196203637746
 21
168.466363251792
 31
0.0
  0
CIRCLE
  5
369B
330
2
100
AcDbEntity
  8
0
100
AcDbCircle
 10
1011.696203637746
 20
168.466363251792
 30
0.0
 40
2.5
  0
CIRCLE
  5
369C
330
2
100
AcDbEntity
  8
HOJO
100
AcDbCircle
 10
1011.696203637746
 20
168.466363251792
 30
0.0
 40
3.0
  0
LINE
  5
369D
330
2
100
AcDbEntity
  8
CENTER
100
AcDbLine
 10
1011.696203637746
 20
175.966363251792
 30
0.0
 11
1011.696203637746
 21
160.966363251792
 31
0.0
  0
LINE
  5
369E
330
2
100
AcDbEntity
  8
HIDS
100
AcDbLine
 10
1033.516008791141
 20
141.6465580983972
 30
0.0
 11
1033.516008791142
 21
153.6777794286488
 31
0.0
  0
LINE
  5
369F
330
2
100
AcDbEntity
  8
HIDS
100
AcDbLine
 10
1032.246393548871
 20
146.6465580983972
 30
0.0
 11
1032.766008791141
 21
146.3465580983972
 31
0.0
  0
LINE
  5
36A0
330
2
100
AcDbEntity
  8
HIDS
100
AcDbLine
 10
1031.016008791141
 20
141.6465580983972
 30
0.0
 11
1030.599342124475
 21
139.5632247650639
 31
0.0
  0
LINE
  5
36A1
330
2
100
AcDbEntity
  8
HIDS
100
AcDbLine
 10
1032.766008791141
 20
141.6465580983972
 30
0.0
 11
1032.766008791141
 21
146.3465580983972
 31
0.0
  0
LINE
  5
36A2
330
2
100
AcDbEntity
  8
HIDS
100
AcDbLine
 10
1034.766008791141
 20
178.6465580983972
 30
0.0
 11
1034.766008791142
 21
164.2950209851476
 31
0.0
  0
LINE
  5
36A4
330
2
100
AcDbEntity
  8
0
100
AcDbLine
 10
1023.641009814593
 20
182.721832164834
 30
0.0
 11
1033.391009814593
 21
182.721832164834
 31
0.0
  0
LINE
  5
36A5
330
2
100
AcDbEntity
  8
0
100
AcDbLine
 10
1043.516008791141
 20
188.1465580984049
 30
0.0
 11
1000.437581187611
 21
187.7242205728807
 31
0.0
  0
LINE
  5
36A6
330
2
100
AcDbEntity
  8
CENTER
100
AcDbLine
 10
1009.586008791141
 20
179.0765580983975
 30
0.0
 11
992.5860087911409
 21
179.0765580983975
 31
0.0
  0
ARC
  5
36A7
330
2
100
AcDbEntity
  8
0
100
AcDbCircle
 10
1000.516008791143
 20
179.6465580983972
 30
0.0
 40
8.0
100
AcDbArc
 50
90.0
 51
180.0
  0
ARC
  5
36A8
330
2
100
AcDbEntity
  8
0
100
AcDbCircle
 10
1000.516008791141
 20
179.7246050126805
 30
0.0
 40
8.0
100
AcDbArc
 50
90.56170533253165
 51
180.0
  0
LINE
  5
36A9
330
2
100
AcDbEntity
  8
0
100
AcDbLine
 10
997.1458457686734
 20
186.9800857825439
 30
0.0
 11
990.5160087911486
 21
186.9222280717658
 31
0.0
  0
LINE
  5
36AA
330
2
100
AcDbEntity
  8
0
100
AcDbLine
 10
990.5160087911486
 20
181.6465580983958
 30
0.0
 11
985.5160087911485
 21
181.6465580983958
 31
0.0
  0
LWPOLYLINE
  5
36AC
330
2
100
AcDbEntity
  8
0
100
AcDbPolyline
 90
        6
 70
     1
 43
0.0
 10
1088.446008791141
 20
180.5199337713716
 10
1085.946008791141
 20
181.9633094443456
 10
1083.446008791141
 20
180.5199337713716
 10
1083.446008791141
 20
177.6331824254234
 10
1085.946008791141
 20
176.1898067524493
 10
1088.446008791141
 20
177.6331824254234
  0
CIRCLE
  5
36AD
330
2
100
AcDbEntity
  8
0
100
AcDbCircle
 10
1085.946008791141
 20
179.0765580983975
 30
0.0
 40
2.886751345948113
  0
CIRCLE
  5
36AE
330
2
100
AcDbEntity
  8
0
100
AcDbCircle
 10
1085.946008791141
 20
179.0765580983975
 30
0.0
 40
4.307179676972423
  0
CIRCLE
  5
36AF
330
2
100
AcDbEntity
  8
0
100
AcDbCircle
 10
1085.946008791141
 20
179.0765580983975
 30
0.0
 40
5.0
  0
LINE
  5
36B0
330
2
100
AcDbEntity
  8
CENTER
100
AcDbLine
 10
1085.946008791141
 20
187.5765580983975
 30
0.0
 11
1085.946008791141
 21
170.5765580983975
 31
0.0
  0
ARC
  5
36B1
330
2
100
AcDbEntity
  8
0
100
AcDbCircle
 10
1070.516008791141
 20
163.6465580983972
 30
0.0
 40
15.0
100
AcDbArc
 50
0.0
 51
90.0
  0
ARC
  5
36B2
330
2
100
AcDbEntity
  8
0
100
AcDbCircle
 10
1070.516008791139
 20
163.6465580983972
 30
0.0
 40
13.0
100
AcDbArc
 50
0.0
 51
90.0
  0
LINE
  5
36B3
330
2
100
AcDbEntity
  8
0
100
AcDbLine
 10
1085.516008791141
 20
163.6465580983972
 30
0.0
 11
1085.516008791141
 21
109.6465580983972
 31
0.0
  0
LINE
  5
36B4
330
2
100
AcDbEntity
  8
0
100
AcDbLine
 10
1083.516008791139
 20
163.6465580983972
 30
0.0
 11
1083.516008791139
 21
109.6465580983972
 31
0.0
  0
CIRCLE
  5
36B5
330
2
100
AcDbEntity
  8
HOJO
100
AcDbCircle
 10
1075.335813944535
 20
104.8267529450026
 30
0.0
 40
3.0
  0
CIRCLE
  5
36B6
330
2
100
AcDbEntity
  8
0
100
AcDbCircle
 10
1075.335813944535
 20
104.8267529450026
 30
0.0
 40
2.5
  0
CIRCLE
  5
36B7
330
2
100
AcDbEntity
  8
0
100
AcDbCircle
 10
1075.335813944535
 20
168.466363251792
 30
0.0
 40
2.5
  0
CIRCLE
  5
36B8
330
2
100
AcDbEntity
  8
HOJO
100
AcDbCircle
 10
1075.335813944535
 20
168.466363251792
 30
0.0
 40
3.0
  0
LINE
  5
36B9
330
2
100
AcDbEntity
  8
CENTER
100
AcDbLine
 10
1075.335813944535
 20
175.966363251792
 30
0.0
 11
1075.335813944535
 21
160.966363251792
 31
0.0
  0
ARC
  5
36BA
330
2
100
AcDbEntity
  8
0
100
AcDbCircle
 10
1086.516008791141
 20
179.6465580983972
 30
0.0
 40
8.0
100
AcDbArc
 50
0.0
 51
90.0
  0
LINE
  5
36BB
330
2
100
AcDbEntity
  8
CENTER
100
AcDbLine
 10
1077.446008791141
 20
179.0765580983975
 30
0.0
 11
1094.446008791141
 21
179.0765580983975
 31
0.0
  0
ARC
  5
36BC
330
2
100
AcDbEntity
  8
0
100
AcDbCircle
 10
1086.516008791141
 20
179.7246050126796
 30
0.0
 40
8.0
100
AcDbArc
 50
0.0
 51
89.43829466741625
  0
ARC
  5
36BD
330
2
100
AcDbEntity
  8
0
100
AcDbCircle
 10
728.5512394220745
 20
421.9744109531557
 30
0.0
 40
2.0
100
AcDbArc
 50
14.47751218589944
 51
90.0
  0
ARC
  5
36BE
330
2
100
AcDbEntity
  8
0
100
AcDbCircle
 10
732.4242227682839
 20
422.9744109531552
 30
0.0
 40
2.0
100
AcDbArc
 50
181.5000000000157
 51
270.0
  0
ARC
  5
36BF
330
2
100
AcDbEntity
  8
0
100
AcDbCircle
 10
711.3930910749563
 20
421.9744109531552
 30
0.0
 40
2.0
100
AcDbArc
 50
90.0
 51
179.5000000000084
  0
LINE
  5
36C0
330
2
100
AcDbEntity
  8
0
100
AcDbLine
 10
638.4358098492661
 20
487.9744109531552
 30
0.0
 11
638.4358098492661
 21
407.474410953157
 31
0.0
  0
LINE
  5
36C1
330
2
100
AcDbEntity
  8
0
100
AcDbLine
 10
739.4759310264412
 20
507.9744109531577
 30
0.0
 11
739.4759310264376
 21
409.9744109531573
 31
0.0
  0
LINE
  5
36C2
330
2
100
AcDbEntity
  8
0
100
AcDbLine
 10
701.7141029926965
 20
488.4656844176577
 30
0.0
 11
701.7141029926965
 21
407.474410953157
 31
0.0
  0
LINE
  5
36C3
330
2
100
AcDbEntity
  8
0
100
AcDbLine
 10
679.5160082036159
 20
487.9744109531552
 30
0.0
 11
679.5160082036122
 21
407.474410953157
 31
0.0
  0
LINE
  5
36C4
330
2
100
AcDbEntity
  8
0
100
AcDbLine
 10
698.975909026441
 20
458.9744109531552
 30
0.0
 11
698.975909026441
 21
407.474410953157
 31
0.0
  0
LINE
  5
36C5
330
2
100
AcDbEntity
  8
0
100
AcDbLine
 10
709.7159090264399
 20
458.9744109531552
 30
0.0
 11
709.2533850335317
 21
405.9744109531552
 31
0.0
  0
LINE
  5
36C6
330
2
100
AcDbEntity
  8
0
100
AcDbLine
 10
618.975909026441
 20
487.9744109531552
 30
0.0
 11
618.9759090264392
 21
407.474410953157
 31
0.0
  0
LINE
  5
36C7
330
2
100
AcDbEntity
  8
0
100
AcDbLine
 10
615.9759090264392
 20
487.9744109531552
 30
0.0
 11
615.9759090264373
 21
407.474410953157
 31
0.0
  0
LINE
  5
36C8
330
2
100
AcDbEntity
  8
0
100
AcDbLine
 10
607.975909026441
 20
488.4744109531552
 30
0.0
 11
608.6958756191793
 21
405.9744109531552
 31
0.0
  0
LINE
  5
36C9
330
2
100
AcDbEntity
  8
CENTER
100
AcDbLine
 10
658.9759090264396
 20
519.9744109531597
 30
0.0
 11
658.9759090264419
 21
334.9744109531497
 31
0.0
  0
LINE
  5
36CA
330
2
100
AcDbEntity
  8
0
100
AcDbLine
 10
809.9759310264412
 20
418.9744109531557
 30
0.0
 11
809.9759310264412
 21
498.9744109531548
 31
0.0
  0
LINE
  5
36CB
330
2
100
AcDbEntity
  8
0
100
AcDbLine
 10
769.9759310264412
 20
409.0966251806118
 30
0.0
 11
769.975931026443
 21
508.8521967256983
 31
0.0
  0
LINE
  5
36CC
330
2
100
AcDbEntity
  8
0
100
AcDbLine
 10
805.9759310264448
 20
418.9045906934427
 30
0.0
 11
805.975931026443
 21
499.0442312128675
 31
0.0
  0
LINE
  5
36CD
330
2
100
AcDbEntity
  8
0
100
AcDbLine
 10
803.9759310264448
 20
416.9744109531584
 30
0.0
 11
803.9759310264448
 21
439.8513053275428
 31
0.0
  0
LINE
  5
36CE
330
2
100
AcDbEntity
  8
0
100
AcDbLine
 10
754.9759310264412
 20
407.9744109531572
 30
0.0
 11
754.9759310264412
 21
509.9744109531575
 31
0.0
  0
LINE
  5
36CF
330
2
100
AcDbEntity
  8
0
100
AcDbLine
 10
626.9072865760531
 20
386.9744109531538
 30
0.0
 11
691.0445314768272
 21
386.9744109531538
 31
0.0
  0
LINE
  5
36D0
330
2
100
AcDbEntity
  8
0
100
AcDbLine
 10
608.6958756191793
 20
405.9744109531552
 30
0.0
 11
709.2533850335317
 21
405.9744109531552
 31
0.0
  0
LINE
  5
36D1
330
2
100
AcDbEntity
  8
0
100
AcDbLine
 10
613.975909026441
 20
400.9744109531552
 30
0.0
 11
703.9759090264411
 21
400.9744109531552
 31
0.0
  0
LINE
  5
36D2
330
2
100
AcDbEntity
  8
0
100
AcDbLine
 10
613.975909026441
 20
405.9744109531552
 30
0.0
 11
613.975909026441
 21
400.9744109531552
 31
0.0
  0
LINE
  5
36D3
330
2
100
AcDbEntity
  8
0
100
AcDbLine
 10
624.5544223579813
 20
399.0442099465585
 30
0.0
 11
624.9085049220152
 21
388.9046119597492
 31
0.0
  0
ARC
  5
36D4
330
2
100
AcDbEntity
  8
0
100
AcDbCircle
 10
626.9072865760531
 20
388.9744109531538
 30
0.0
 40
2.0
100
AcDbArc
 50
182.0000000000037
 51
270.0
  0
ARC
  5
36D5
330
2
100
AcDbEntity
  8
0
100
AcDbCircle
 10
622.5556407039435
 20
398.9744109531538
 30
0.0
 40
2.0
100
AcDbArc
 50
2.000000000003725
 51
90.0
  0
LINE
  5
36D6
330
2
100
AcDbEntity
  8
0
100
AcDbLine
 10
647.9759541891032
 20
384.9744109531556
 30
0.0
 11
647.9759561584049
 21
379.9743054422406
 31
0.0
  0
LINE
  5
36D7
330
2
100
AcDbEntity
  8
0
100
AcDbLine
 10
669.9759697462711
 20
345.4744109531556
 30
0.0
 11
669.9759541891051
 21
384.9744109531556
 31
0.0
  0
LINE
  5
36D8
330
2
100
AcDbEntity
  8
0
100
AcDbLine
 10
648.392840669874
 20
376.9743054422406
 30
0.0
 11
648.392840669874
 21
344.9744109531557
 31
0.0
  0
LINE
  5
36D9
330
2
100
AcDbEntity
  8
0
100
AcDbLine
 10
645.4759697462711
 20
379.9743054422406
 30
0.0
 11
645.4759697462711
 21
344.9744109531557
 31
0.0
  0
LINE
  5
36DA
330
2
100
AcDbEntity
  8
0
100
AcDbLine
 10
669.9759697462711
 20
345.4744109531556
 30
0.0
 11
648.392840669874
 21
345.4744109531556
 31
0.0
  0
LINE
  5
36DB
330
2
100
AcDbEntity
  8
0
100
AcDbLine
 10
645.4759697462711
 20
344.9744109531557
 30
0.0
 11
669.4759699431967
 21
344.9744109531557
 31
0.0
  0
LINE
  5
36DC
330
2
100
AcDbEntity
  8
0
100
AcDbLine
 10
669.9759697462711
 20
345.4744109531556
 30
0.0
 11
669.4759699431967
 21
344.9744109531557
 31
0.0
  0
LINE
  5
36DD
330
2
100
AcDbEntity
  8
0
100
AcDbLine
 10
647.9759561584066
 20
379.9743054422406
 30
0.0
 11
648.392840669874
 21
376.9743054422406
 31
0.0
  0
LINE
  5
36DE
330
2
100
AcDbEntity
  8
0
100
AcDbLine
 10
647.9759561584075
 20
379.9743054422406
 30
0.0
 11
645.4759697462711
 21
379.9743054422406
 31
0.0
  0
LINE
  5
36DF
330
2
100
AcDbEntity
  8
0
100
AcDbLine
 10
670.9759541891051
 20
384.9744109531556
 30
0.0
 11
646.9759542018516
 21
384.9738464198635
 31
0.0
  0
LINE
  5
36E0
330
2
100
AcDbEntity
  8
0
100
AcDbLine
 10
675.1872338918462
 20
385.9744109531557
 30
0.0
 11
642.7645841610353
 21
385.9744109531557
 31
0.0
  0
ARC
  5
36E1
330
2
100
AcDbEntity
  8
0
100
AcDbCircle
 10
643.9759582506747
 20
387.3762494829288
 30
0.0
 40
2.0
100
AcDbArc
 50
191.5907202811233
 51
210.0000000000207
  0
LINE
  5
36E2
330
2
100
AcDbEntity
  8
0
100
AcDbLine
 10
642.3315714591433
 20
386.2244109531557
 30
0.0
 11
642.2439074431056
 21
386.3762494829288
 31
0.0
  0
ARC
  5
36E3
330
2
100
AcDbEntity
  8
0
100
AcDbCircle
 10
642.7645841610353
 20
386.4744109531557
 30
0.0
 40
0.5
100
AcDbArc
 50
210.0000000000207
 51
270.0
  0
LINE
  5
36E4
330
2
100
AcDbEntity
  8
0
100
AcDbLine
 10
646.9758638637765
 20
384.9744109531556
 30
0.0
 11
646.3985135945875
 21
385.9744109531557
 31
0.0
  0
ARC
  5
36E5
330
2
100
AcDbEntity
  8
0
100
AcDbCircle
 10
673.975859802207
 20
387.3762494829288
 30
0.0
 40
2.0
100
AcDbArc
 50
329.9999999999792
 51
348.4092797188766
  0
LINE
  5
36E6
330
2
100
AcDbEntity
  8
0
100
AcDbLine
 10
675.6202465937383
 20
386.2244109531557
 30
0.0
 11
675.707910609776
 21
386.3762494829288
 31
0.0
  0
ARC
  5
36E7
330
2
100
AcDbEntity
  8
0
100
AcDbCircle
 10
675.1872338918462
 20
386.4744109531557
 30
0.0
 40
0.5
100
AcDbArc
 50
270.0
 51
329.9999999999792
  0
LINE
  5
36E8
330
2
100
AcDbEntity
  8
0
100
AcDbLine
 10
670.9759541891051
 20
384.9744109531556
 30
0.0
 11
671.5533044582951
 21
385.9744109531557
 31
0.0
  0
LINE
  5
36E9
330
2
100
AcDbEntity
  8
0
100
AcDbLine
 10
703.9759090264411
 20
405.9744109531552
 30
0.0
 11
703.9759090264411
 21
400.9744109531552
 31
0.0
  0
LINE
  5
36EA
330
2
100
AcDbEntity
  8
0
100
AcDbLine
 10
693.3973956949007
 20
399.044209946559
 30
0.0
 11
693.043313130865
 21
388.9046119597492
 31
0.0
  0
ARC
  5
36EB
330
2
100
AcDbEntity
  8
0
100
AcDbCircle
 10
691.0445314768272
 20
388.9744109531538
 30
0.0
 40
2.0
100
AcDbArc
 50
270.0
 51
357.9999999999962
  0
ARC
  5
36EC
330
2
100
AcDbEntity
  8
0
100
AcDbCircle
 10
695.3961773489386
 20
398.9744109531538
 30
0.0
 40
2.0
100
AcDbArc
 50
90.0
 51
177.9999999999962
  0
LINE
  5
36ED
330
2
100
AcDbEntity
  8
CENTER
  6
CENS
100
AcDbLine
 10
749.9759310264412
 20
416.5444109531554
 30
0.0
 11
781.9759310264412
 21
416.5444109531554
 31
0.0
  0
LINE
  5
36EE
330
2
100
AcDbEntity
  8
0
100
AcDbLine
 10
754.9759310264412
 20
407.9744109531556
 30
0.0
 11
768.9846575619408
 21
408.0966632575478
 31
0.0
  0
LINE
  5
36EF
330
2
100
AcDbEntity
  8
0
100
AcDbLine
 10
754.9759310264412
 20
407.9744109531572
 30
0.0
 11
741.4759310264376
 21
407.9744109531571
 31
0.0
  0
ARC
  5
36F0
330
2
100
AcDbEntity
  8
0
100
AcDbCircle
 10
741.4759310264376
 20
409.974410953157
 30
0.0
 40
2.0
100
AcDbArc
 50
180.0
 51
270.0
  0
ARC
  5
36F1
330
2
100
AcDbEntity
  8
0
100
AcDbCircle
 10
734.2647076914322
 20
415.9744109531552
 30
0.0
 40
5.0
100
AcDbArc
 50
1.499999999989629
 51
90.0
  0
LINE
  5
36F2
330
2
100
AcDbEntity
  8
0
100
AcDbLine
 10
732.4242227682839
 20
420.9744109531552
 30
0.0
 11
734.2647076914322
 21
420.9744109531552
 31
0.0
  0
LINE
  5
36F3
330
2
100
AcDbEntity
  8
0
100
AcDbLine
 10
803.9759310264431
 20
416.9744109531556
 30
0.0
 11
776.9759310264412
 21
416.8173295482597
 31
0.0
  0
LINE
  5
36F4
330
2
100
AcDbEntity
  8
0
100
AcDbLine
 10
776.9759310264412
 20
412.2372312761826
 30
0.0
 11
776.9759310264412
 21
420.8515906301276
 31
0.0
  0
LINE
  5
36F5
330
2
100
AcDbEntity
  8
0
100
AcDbLine
 10
770.9759310264412
 20
421.5444109531554
 30
0.0
 11
770.9759310264412
 21
411.5444109531554
 31
0.0
  0
LINE
  5
36F6
330
2
100
AcDbEntity
  8
0
100
AcDbLine
 10
769.9759310264412
 20
411.5444109531554
 30
0.0
 11
769.9759310264412
 21
421.5444109531554
 31
0.0
  0
LINE
  5
36F7
330
2
100
AcDbEntity
  8
0
100
AcDbLine
 10
770.9759310264412
 20
421.5444109531554
 30
0.0
 11
770.9759310264412
 21
411.5444109531554
 31
0.0
  0
LINE
  5
36F8
330
2
100
AcDbEntity
  8
0
100
AcDbLine
 10
776.5759310264416
 20
421.5444109531554
 30
0.0
 11
776.5759310264416
 21
411.5444109531554
 31
0.0
  0
LINE
  5
36F9
330
2
100
AcDbEntity
  8
0
100
AcDbLine
 10
776.5759310264416
 20
411.544410953155
 30
0.0
 11
776.9759310264412
 21
412.2372312761826
 31
0.0
  0
LINE
  5
36FA
330
2
100
AcDbEntity
  8
0
100
AcDbLine
 10
770.9759310264412
 20
411.5444109531554
 30
0.0
 11
776.5759310264416
 21
411.5444109531554
 31
0.0
  0
LINE
  5
36FB
330
2
100
AcDbEntity
  8
0
100
AcDbLine
 10
770.9759310264412
 20
411.5444109531554
 30
0.0
 11
769.9759310264412
 21
411.5444109531554
 31
0.0
  0
ARC
  5
36FC
330
2
100
AcDbEntity
  8
0
100
AcDbCircle
 10
768.9759310264412
 20
409.0966251806118
 30
0.0
 40
1.0
100
AcDbArc
 50
270.4999999999654
 51
0.0
  0
LINE
  5
36FD
330
2
100
AcDbEntity
  8
0
100
AcDbLine
 10
776.5759310264416
 20
421.5444109531554
 30
0.0
 11
770.9759310264412
 21
421.5444109531554
 31
0.0
  0
LINE
  5
36FE
330
2
100
AcDbEntity
  8
0
100
AcDbLine
 10
769.9759310264412
 20
421.5444109531554
 30
0.0
 11
770.9759310264412
 21
421.5444109531554
 31
0.0
  0
LINE
  5
36FF
330
2
100
AcDbEntity
  8
0
100
AcDbLine
 10
776.5759310264416
 20
421.5444109531554
 30
0.0
 11
776.9759310264412
 21
420.8515906301276
 31
0.0
  0
LINE
  5
3700
330
2
100
AcDbEntity
  8
0
100
AcDbLine
 10
809.9759310264412
 20
418.9744109531557
 30
0.0
 11
805.9759310264448
 21
418.9045906934427
 31
0.0
  0
LINE
  5
3701
330
2
100
AcDbEntity
  8
0
100
AcDbLine
 10
805.9759310264448
 20
418.9045906934427
 30
0.0
 11
803.9759310264448
 21
416.9744109531584
 31
0.0
  0
LINE
  5
3702
330
2
100
AcDbEntity
  8
0
100
AcDbLine
 10
725.3694513777113
 20
487.9744109531593
 30
0.0
 11
709.958466426609
 21
487.9744109531593
 31
0.0
  0
LINE
  5
3703
330
2
100
AcDbEntity
  8
0
100
AcDbLine
 10
711.6767142781541
 20
456.4744109531554
 30
0.0
 11
727.597995068892
 21
456.4744109531554
 31
0.0
  0
LINE
  5
3704
330
2
100
AcDbEntity
  8
0
100
AcDbLine
 10
711.7578134884402
 20
461.4744109531552
 30
0.0
 11
727.5979950688865
 21
461.4744109531552
 31
0.0
  0
LINE
  5
3705
330
2
100
AcDbEntity
  8
0
100
AcDbLine
 10
714.4106590456945
 20
428.9744109531552
 30
0.0
 11
725.3956372992793
 21
428.9744109531555
 31
0.0
  0
LINE
  5
3706
330
2
100
AcDbEntity
  8
0
100
AcDbLine
 10
711.3930910749563
 20
423.9744109531552
 30
0.0
 11
728.5512394220745
 21
423.9744109531557
 31
0.0
  0
LINE
  5
3707
330
2
100
AcDbEntity
  8
CENTER
100
AcDbLine
 10
598.2333516262688
 20
458.9744109531552
 30
0.0
 11
819.9759310264411
 21
458.9744109531552
 31
0.0
  0
LINE
  5
3708
330
2
100
AcDbEntity
  8
CENTER
100
AcDbLine
 10
701.9759090264556
 20
508.4744109531595
 30
0.0
 11
701.9759090264556
 21
474.909085167895
 31
0.0
  0
LINE
  5
3709
330
2
100
AcDbEntity
  8
0
100
AcDbLine
 10
691.9759090264411
 20
505.2744109531459
 30
0.0
 11
691.9759090264392
 21
501.9744109531461
 31
0.0
  0
LINE
  5
370A
330
2
100
AcDbEntity
  8
0
100
AcDbLine
 10
625.9759090264392
 20
505.2744109531499
 30
0.0
 11
625.9759090264392
 21
501.9744109531502
 31
0.0
  0
LINE
  5
370B
330
2
100
AcDbEntity
  8
CENTER
100
AcDbLine
 10
615.9759090264246
 20
508.474410953155
 30
0.0
 11
615.9759090264246
 21
474.909085167895
 31
0.0
  0
LINE
  5
370C
330
2
100
AcDbEntity
  8
0
100
AcDbLine
 10
696.9759090264556
 20
501.4744109531553
 30
0.0
 11
620.9759090264246
 21
501.4744109531553
 31
0.0
  0
LINE
  5
370D
330
2
100
AcDbEntity
  8
0
100
AcDbLine
 10
607.975909026441
 20
488.4744109531543
 30
0.0
 11
709.4584664266071
 21
488.4744109531598
 31
0.0
  0
LINE
  5
370E
330
2
100
AcDbEntity
  8
0
100
AcDbLine
 10
623.9759090264392
 20
501.9744109531497
 30
0.0
 11
693.9759090264192
 21
501.9744109531662
 31
0.0
  0
LINE
  5
370F
330
2
100
AcDbEntity
  8
0
100
AcDbLine
 10
607.9802724603228
 20
488.4744109531575
 30
0.0
 11
709.4584664266117
 21
488.474410953157
 31
0.0
  0
LINE
  5
3710
330
2
100
AcDbEntity
  8
0
100
AcDbLine
 10
610.1206156843013
 20
495.974410953153
 30
0.0
 11
707.3621986968532
 21
495.9744109531575
 31
0.0
  0
LINE
  5
3711
330
2
100
AcDbEntity
  8
HIDS
100
AcDbLine
 10
613.0616954640768
 20
496.5601973907828
 30
0.0
 11
617.3901225888053
 21
500.8886245155158
 31
0.0
  0
LINE
  5
3712
330
2
100
AcDbEntity
  8
0
100
AcDbLine
 10
610.9759090264247
 20
503.0744109531552
 30
0.0
 11
620.9759090264246
 21
503.0744109531546
 31
0.0
  0
LINE
  5
3713
330
2
100
AcDbEntity
  8
0
100
AcDbLine
 10
611.668729349452
 20
503.4744109531548
 30
0.0
 11
620.2830887033974
 21
503.4744109531552
 31
0.0
  0
LINE
  5
3714
330
2
100
AcDbEntity
  8
0
100
AcDbLine
 10
610.9759090264247
 20
497.4744109531548
 30
0.0
 11
620.9759090264246
 21
497.4744109531548
 31
0.0
  0
LINE
  5
3715
330
2
100
AcDbEntity
  8
0
100
AcDbLine
 10
608.1213010343503
 20
494.0267648497711
 30
0.0
 11
607.9759075306896
 21
488.4744109531543
 31
0.0
  0
ARC
  5
3716
330
2
100
AcDbEntity
  8
HIDS
100
AcDbCircle
 10
611.6474819017034
 20
497.9744109531552
 30
0.0
 40
2.0
100
AcDbArc
 50
270.0
 51
315.0000000000092
  0
LINE
  5
3717
330
2
100
AcDbEntity
  8
0
100
AcDbLine
 10
610.9759090264247
 20
497.4744109531552
 30
0.0
 11
610.9759090264247
 21
495.9744109531552
 31
0.0
  0
LINE
  5
3718
330
2
100
AcDbEntity
  8
0
100
AcDbLine
 10
610.9759090264247
 20
503.0744109531546
 30
0.0
 11
611.668729349452
 21
503.4744109531548
 31
0.0
  0
LINE
  5
3719
330
2
100
AcDbEntity
  8
0
100
AcDbLine
 10
610.9759090264247
 20
497.4744109531548
 30
0.0
 11
610.9759090264247
 21
503.0744109531546
 31
0.0
  0
ARC
  5
371A
330
2
100
AcDbEntity
  8
0
100
AcDbCircle
 10
610.1206156843013
 20
493.9744109531552
 30
0.0
 40
2.0
100
AcDbArc
 50
90.0
 51
178.5000000000103
  0
LINE
  5
371B
330
2
100
AcDbEntity
  8
HIDS
100
AcDbLine
 10
618.8043361511804
 20
501.4744109531434
 30
0.0
 11
620.9759090264246
 21
501.4744109531553
 31
0.0
  0
ARC
  5
371C
330
2
100
AcDbEntity
  8
HIDS
100
AcDbCircle
 10
618.8043361511804
 20
499.4744109531434
 30
0.0
 40
2.0
100
AcDbArc
 50
90.0
 51
135.0000000000092
  0
LINE
  5
371D
330
2
100
AcDbEntity
  8
0
100
AcDbLine
 10
620.9759090264246
 20
497.4744109531548
 30
0.0
 11
620.9759090264246
 21
495.9744109531552
 31
0.0
  0
LINE
  5
371E
330
2
100
AcDbEntity
  8
0
100
AcDbLine
 10
620.9759090264246
 20
503.0744109531546
 30
0.0
 11
620.2830887033974
 21
503.4744109531548
 31
0.0
  0
LINE
  5
371F
330
2
100
AcDbEntity
  8
0
100
AcDbLine
 10
620.9759090264246
 20
497.4744109531548
 30
0.0
 11
620.9759090264246
 21
503.0744109531546
 31
0.0
  0
LINE
  5
3720
330
2
100
AcDbEntity
  8
0
100
AcDbLine
 10
625.9759090264392
 20
501.9744109531552
 30
0.0
 11
623.9759090264446
 21
501.9744109531552
 31
0.0
  0
LINE
  5
3721
330
2
100
AcDbEntity
  8
0
100
AcDbLine
 10
623.9759090264392
 20
501.9744109531497
 30
0.0
 11
623.4759090264392
 21
501.4744109531497
 31
0.0
  0
ARC
  5
3722
330
2
100
AcDbEntity
  8
0
100
AcDbCircle
 10
711.7578134884402
 20
463.4744109531552
 30
0.0
 40
2.0
100
AcDbArc
 50
179.5000000000084
 51
270.0
  0
LINE
  5
3723
330
2
100
AcDbEntity
  8
0
100
AcDbLine
 10
709.7159090264399
 20
458.9744109531552
 30
0.0
 11
709.4584664266135
 21
488.474410953157
 31
0.0
  0
LINE
  5
3724
330
2
100
AcDbEntity
  8
0
100
AcDbLine
 10
698.9890019872232
 20
488.4744109531588
 30
0.0
 11
699.7359862194603
 21
459.9482340048475
 31
0.0
  0
ARC
  5
3725
330
2
100
AcDbEntity
  8
0
100
AcDbCircle
 10
714.4106590456945
 20
423.9744109531552
 30
0.0
 40
5.0
100
AcDbArc
 50
90.0
 51
179.5000000000084
  0
LINE
  5
3726
330
2
100
AcDbEntity
  8
0
100
AcDbLine
 10
700.7356435444376
 20
458.9744109531554
 30
0.0
 11
709.7159090264399
 21
458.9744109531552
 31
0.0
  0
LINE
  5
3727
330
2
100
AcDbEntity
  8
0
100
AcDbLine
 10
700.7356435444376
 20
458.9744109531554
 30
0.0
 11
700.7356435444357
 21
458.9744109531554
 31
0.0
  0
ARC
  5
3728
330
2
100
AcDbEntity
  8
0
100
AcDbCircle
 10
700.7356435444357
 20
459.9744109531554
 30
0.0
 40
1.0
100
AcDbArc
 50
181.5000000000157
 51
270.0
  0
ARC
  5
3729
330
2
100
AcDbEntity
  8
0
100
AcDbCircle
 10
711.6767142781541
 20
454.4744109531555
 30
0.0
 40
2.0
100
AcDbArc
 50
90.0
 51
179.5000000000084
  0
LINE
  5
372A
330
2
100
AcDbEntity
  8
0
100
AcDbLine
 10
706.9759090264556
 20
503.0744109531552
 30
0.0
 11
696.9759090264556
 21
503.0744109531546
 31
0.0
  0
LINE
  5
372B
330
2
100
AcDbEntity
  8
0
100
AcDbLine
 10
706.2830887034283
 20
503.4744109531548
 30
0.0
 11
697.6687293494828
 21
503.4744109531552
 31
0.0
  0
LINE
  5
372C
330
2
100
AcDbEntity
  8
0
100
AcDbLine
 10
706.9759090264556
 20
497.4744109531548
 30
0.0
 11
696.9759090264556
 21
497.4744109531548
 31
0.0
  0
LINE
  5
372D
330
2
100
AcDbEntity
  8
HIDS
100
AcDbLine
 10
704.8901225888035
 20
496.5601973907828
 30
0.0
 11
700.5616954640731
 21
500.8886245155158
 31
0.0
  0
LINE
  5
372E
330
2
100
AcDbEntity
  8
0
100
AcDbLine
 10
693.9759090264192
 20
501.9744109531662
 30
0.0
 11
694.4759090264392
 21
501.4744109531452
 31
0.0
  0
LINE
  5
372F
330
2
100
AcDbEntity
  8
HIDS
100
AcDbLine
 10
699.1474819016998
 20
501.4744109531434
 30
0.0
 11
696.9759090264556
 21
501.4744109531553
 31
0.0
  0
LINE
  5
3730
330
2
100
AcDbEntity
  8
0
100
AcDbLine
 10
696.9759090264556
 20
497.4744109531548
 30
0.0
 11
696.9759090264556
 21
495.9744109531552
 31
0.0
  0
LINE
  5
3731
330
2
100
AcDbEntity
  8
0
100
AcDbLine
 10
696.9759090264556
 20
503.0744109531546
 30
0.0
 11
697.6687293494828
 21
503.4744109531548
 31
0.0
  0
LINE
  5
3732
330
2
100
AcDbEntity
  8
0
100
AcDbLine
 10
696.9759090264556
 20
497.4744109531548
 30
0.0
 11
696.9759090264556
 21
503.0744109531546
 31
0.0
  0
ARC
  5
3733
330
2
100
AcDbEntity
  8
HIDS
100
AcDbCircle
 10
699.1474819016998
 20
499.4744109531434
 30
0.0
 40
2.0
100
AcDbArc
 50
44.99999999999078
 51
90.0
  0
LINE
  5
3734
330
2
100
AcDbEntity
  8
0
100
AcDbLine
 10
709.362122542982
 20
493.9918640241549
 30
0.0
 11
709.410272626475
 21
488.4744109531598
 31
0.0
  0
LINE
  5
3735
330
2
100
AcDbEntity
  8
0
100
AcDbLine
 10
709.958466426609
 20
487.9744109531593
 30
0.0
 11
709.458466426608
 21
488.4744109531598
 31
0.0
  0
LINE
  5
3736
330
2
100
AcDbEntity
  8
0
100
AcDbLine
 10
706.9759090264556
 20
497.4744109531552
 30
0.0
 11
706.9759090264556
 21
495.9744109531552
 31
0.0
  0
LINE
  5
3737
330
2
100
AcDbEntity
  8
0
100
AcDbLine
 10
706.9759090264556
 20
503.0744109531546
 30
0.0
 11
706.2830887034283
 21
503.4744109531548
 31
0.0
  0
LINE
  5
3738
330
2
100
AcDbEntity
  8
0
100
AcDbLine
 10
706.9759090264556
 20
497.4744109531548
 30
0.0
 11
706.9759090264556
 21
503.0744109531546
 31
0.0
  0
ARC
  5
3739
330
2
100
AcDbEntity
  8
HIDS
100
AcDbCircle
 10
706.3043361511768
 20
497.9744109531552
 30
0.0
 40
2.0
100
AcDbArc
 50
224.9999999999908
 51
270.0
  0
ARC
  5
373A
330
2
100
AcDbEntity
  8
0
100
AcDbCircle
 10
707.3621986968532
 20
493.9744109531575
 30
0.0
 40
2.0
100
AcDbArc
 50
0.5000000000176293
 51
90.0
  0
LINE
  5
373B
330
2
100
AcDbEntity
  8
0
100
AcDbLine
 10
625.9759090264392
 20
505.2744109531499
 30
0.0
 11
691.9759090264411
 21
505.2744109531459
 31
0.0
  0
LINE
  5
373C
330
2
100
AcDbEntity
  8
0
100
AcDbLine
 10
691.9759090264411
 20
508.9744109531461
 30
0.0
 11
625.9759090264374
 21
508.9744109531507
 31
0.0
  0
LINE
  5
373D
330
2
100
AcDbEntity
  8
0
100
AcDbLine
 10
626.1759090264381
 20
505.4744109531506
 30
0.0
 11
691.7759090264366
 21
505.4744109531506
 31
0.0
  0
LINE
  5
373E
330
2
100
AcDbEntity
  8
0
100
AcDbLine
 10
626.1759090264381
 20
507.4744109531507
 30
0.0
 11
691.7759090264403
 21
507.4744109529519
 31
0.0
  0
LINE
  5
373F
330
2
100
AcDbEntity
  8
0
100
AcDbLine
 10
691.3985587572383
 20
509.9744109531688
 30
0.0
 11
626.5532592956274
 21
509.9744109531506
 31
0.0
  0
ARC
  5
3740
330
2
100
AcDbEntity
  8
0
100
AcDbCircle
 10
626.4759090264392
 20
505.6744109531505
 30
0.0
 40
0.2
100
AcDbArc
 50
270.0
 51
0.0
  0
ARC
  5
3741
330
2
100
AcDbEntity
  8
0
100
AcDbCircle
 10
626.4759090264374
 20
507.2744109531499
 30
0.0
 40
0.2
100
AcDbArc
 50
0.0
 51
89.99999999989578
  0
ARC
  5
3742
330
2
100
AcDbEntity
  8
0
100
AcDbCircle
 10
626.1759090264381
 20
507.6744109531505
 30
0.0
 40
0.2
100
AcDbArc
 50
180.0
 51
269.9999999998957
  0
LINE
  5
3743
330
2
100
AcDbEntity
  8
0
100
AcDbLine
 10
626.6759090264381
 20
507.2744109531499
 30
0.0
 11
626.6759090264381
 21
505.6744109531505
 31
0.0
  0
LINE
  5
3744
330
2
100
AcDbEntity
  8
0
100
AcDbLine
 10
626.1759090264381
 20
505.4744109531506
 30
0.0
 11
625.9759090264392
 21
505.2744109531499
 31
0.0
  0
LINE
  5
3745
330
2
100
AcDbEntity
  8
0
100
AcDbLine
 10
625.9759090264374
 20
508.9744109531502
 30
0.0
 11
626.5532592956274
 21
509.9744109531506
 31
0.0
  0
LINE
  5
3746
330
2
100
AcDbEntity
  8
0
100
AcDbLine
 10
625.9759090264374
 20
508.9744109531507
 30
0.0
 11
625.9759090264392
 21
507.6744109531505
 31
0.0
  0
ARC
  5
3747
330
2
100
AcDbEntity
  8
0
100
AcDbCircle
 10
691.4759090264411
 20
505.6744109531459
 30
0.0
 40
0.2
100
AcDbArc
 50
179.9999999999479
 51
270.0
  0
ARC
  5
3748
330
2
100
AcDbEntity
  8
0
100
AcDbCircle
 10
691.4759090264411
 20
507.2744109531458
 30
0.0
 40
0.2
100
AcDbArc
 50
90.0
 51
179.9999999999479
  0
ARC
  5
3749
330
2
100
AcDbEntity
  8
0
100
AcDbCircle
 10
691.7759090264403
 20
507.674410953146
 30
0.0
 40
0.2
100
AcDbArc
 50
270.0
 51
0.0
  0
LINE
  5
374A
330
2
100
AcDbEntity
  8
0
100
AcDbLine
 10
691.9759090264411
 20
508.9744109531461
 30
0.0
 11
691.9759090264411
 21
507.674410953146
 31
0.0
  0
LINE
  5
374B
330
2
100
AcDbEntity
  8
0
100
AcDbLine
 10
691.9759090264411
 20
508.9744109531461
 30
0.0
 11
691.3985587572528
 21
509.9744109531461
 31
0.0
  0
LINE
  5
374C
330
2
100
AcDbEntity
  8
0
100
AcDbLine
 10
691.7759090264366
 20
505.4744109531506
 30
0.0
 11
691.9759090264411
 21
505.2744109531459
 31
0.0
  0
LINE
  5
374D
330
2
100
AcDbEntity
  8
0
100
AcDbLine
 10
691.2759090264403
 20
507.2744109531463
 30
0.0
 11
691.2759090264403
 21
505.6744109531459
 31
0.0
  0
LINE
  5
374E
330
2
100
AcDbEntity
  8
0
100
AcDbLine
 10
776.9759310264412
 20
505.7115906301278
 30
0.0
 11
776.9759310264412
 21
497.0972312761828
 31
0.0
  0
LINE
  5
374F
330
2
100
AcDbEntity
  8
0
100
AcDbLine
 10
770.9759310264412
 20
496.4044109531551
 30
0.0
 11
770.9759310264412
 21
506.404410953155
 31
0.0
  0
LINE
  5
3750
330
2
100
AcDbEntity
  8
0
100
AcDbLine
 10
769.9759310264412
 20
506.404410953155
 30
0.0
 11
769.9759310264412
 21
496.4044109531551
 31
0.0
  0
LINE
  5
3751
330
2
100
AcDbEntity
  8
0
100
AcDbLine
 10
770.9759310264412
 20
496.4044109531551
 30
0.0
 11
770.9759310264412
 21
506.404410953155
 31
0.0
  0
LINE
  5
3752
330
2
100
AcDbEntity
  8
0
100
AcDbLine
 10
776.5759310264416
 20
496.4044109531551
 30
0.0
 11
776.5759310264416
 21
506.404410953155
 31
0.0
  0
ARC
  5
3753
330
2
100
AcDbEntity
  8
0
100
AcDbCircle
 10
727.5979950688865
 20
463.4744109531552
 30
0.0
 40
2.0
100
AcDbArc
 50
270.0
 51
358.4999999999843
  0
LINE
  5
3754
330
2
100
AcDbEntity
  8
0
100
AcDbLine
 10
729.4808440068059
 20
458.9744109531552
 30
0.0
 11
730.4249081183329
 21
495.0267648497709
 31
0.0
  0
LINE
  5
3755
330
2
100
AcDbEntity
  8
0
100
AcDbLine
 10
803.9759310264448
 20
448.0975165787676
 30
0.0
 11
803.9759310264448
 21
500.9744109531521
 31
0.0
  0
LINE
  5
3756
330
2
100
AcDbEntity
  8
0
100
AcDbLine
 10
729.4808440068114
 20
458.9744109531552
 30
0.0
 11
730.4249081183329
 21
422.9220570565393
 31
0.0
  0
ARC
  5
3757
330
2
100
AcDbEntity
  8
0
100
AcDbCircle
 10
725.3956372992793
 20
423.9744109531555
 30
0.0
 40
5.0
100
AcDbArc
 50
1.500000000015675
 51
90.0
  0
ARC
  5
3758
330
2
100
AcDbEntity
  8
0
100
AcDbCircle
 10
727.597995068892
 20
454.4744109531555
 30
0.0
 40
2.0
100
AcDbArc
 50
1.500000000015675
 51
90.0
  0
LINE
  5
3759
330
2
100
AcDbEntity
  8
CENTER
  6
CENS
100
AcDbLine
 10
795.9759310264375
 20
432.0954810541612
 30
0.0
 11
795.9759310264375
 21
455.8533408521493
 31
0.0
  0
CIRCLE
  5
375A
330
2
100
AcDbEntity
  8
0
100
AcDbCircle
 10
795.9759310264412
 20
443.9744109531552
 30
0.0
 40
9.0
  0
LINE
  5
375B
330
2
100
AcDbEntity
  8
CENTER
  6
CENS
100
AcDbLine
 10
807.8548609254317
 20
443.9744109531552
 30
0.0
 11
784.0970011274435
 21
443.9744109531552
 31
0.0
  0
LINE
  5
375C
330
2
100
AcDbEntity
  8
CENTER
  6
CENS
100
AcDbLine
 10
749.9759310264412
 20
501.4044109531551
 30
0.0
 11
781.9759310264412
 21
501.4044109531551
 31
0.0
  0
ARC
  5
375D
330
2
100
AcDbEntity
  8
0
100
AcDbCircle
 10
725.3694513777113
 20
492.9744109531593
 30
0.0
 40
5.0
100
AcDbArc
 50
270.0
 51
358.4999999999843
  0
ARC
  5
375E
330
2
100
AcDbEntity
  8
0
100
AcDbCircle
 10
734.2647076914322
 20
501.9744109531557
 30
0.0
 40
5.0
100
AcDbArc
 50
270.0
 51
358.4999999999843
  0
ARC
  5
375F
330
2
100
AcDbEntity
  8
0
100
AcDbCircle
 10
732.4242227682839
 20
494.9744109531552
 30
0.0
 40
2.0
100
AcDbArc
 50
90.0
 51
178.5000000000103
  0
LINE
  5
3760
330
2
100
AcDbEntity
  8
0
100
AcDbLine
 10
732.4242227682839
 20
496.9744109531553
 30
0.0
 11
734.2647076914322
 21
496.9744109531553
 31
0.0
  0
LINE
  5
3761
330
2
100
AcDbEntity
  8
0
100
AcDbLine
 10
803.9759310264411
 20
500.9744109531547
 30
0.0
 11
776.9759310264412
 21
501.1314923580507
 31
0.0
  0
LINE
  5
3762
330
2
100
AcDbEntity
  8
0
100
AcDbLine
 10
776.5759310264416
 20
496.4044109531551
 30
0.0
 11
770.9759310264412
 21
496.4044109531551
 31
0.0
  0
LINE
  5
3763
330
2
100
AcDbEntity
  8
0
100
AcDbLine
 10
769.9759310264412
 20
496.4044109531551
 30
0.0
 11
770.9759310264412
 21
496.4044109531551
 31
0.0
  0
LINE
  5
3764
330
2
100
AcDbEntity
  8
0
100
AcDbLine
 10
776.5759310264416
 20
496.4044109531551
 30
0.0
 11
776.9759310264412
 21
497.0972312761828
 31
0.0
  0
LINE
  5
3765
330
2
100
AcDbEntity
  8
0
100
AcDbLine
 10
809.9759310264412
 20
498.9744109531548
 30
0.0
 11
805.975931026443
 21
499.0442312128675
 31
0.0
  0
LINE
  5
3766
330
2
100
AcDbEntity
  8
0
100
AcDbLine
 10
805.975931026443
 20
499.0442312128675
 30
0.0
 11
803.9759310264411
 21
500.9744109531547
 31
0.0
  0
LINE
  5
3767
330
2
100
AcDbEntity
  8
0
100
AcDbLine
 10
754.9759310264412
 20
509.9744109531548
 30
0.0
 11
768.9846575619408
 21
509.8521586487627
 31
0.0
  0
LINE
  5
3768
330
2
100
AcDbEntity
  8
0
100
AcDbLine
 10
754.9759310264412
 20
509.9744109531575
 30
0.0
 11
741.4759310264412
 21
509.9744109531577
 31
0.0
  0
ARC
  5
3769
330
2
100
AcDbEntity
  8
0
100
AcDbCircle
 10
741.4759310264412
 20
507.9744109531577
 30
0.0
 40
2.0
100
AcDbArc
 50
90.0
 51
180.0
  0
LINE
  5
376A
330
2
100
AcDbEntity
  8
0
100
AcDbLine
 10
776.5759310264416
 20
506.4044109531555
 30
0.0
 11
776.9759310264412
 21
505.7115906301278
 31
0.0
  0
LINE
  5
376B
330
2
100
AcDbEntity
  8
0
100
AcDbLine
 10
770.9759310264412
 20
506.404410953155
 30
0.0
 11
776.5759310264416
 21
506.404410953155
 31
0.0
  0
LINE
  5
376C
330
2
100
AcDbEntity
  8
0
100
AcDbLine
 10
770.9759310264412
 20
506.404410953155
 30
0.0
 11
769.9759310264412
 21
506.404410953155
 31
0.0
  0
ARC
  5
376D
330
2
100
AcDbEntity
  8
0
100
AcDbCircle
 10
768.975931026443
 20
508.8521967256983
 30
0.0
 40
1.0
100
AcDbArc
 50
0.0
 51
89.5000000000345
  0
LINE
  5
3BF0
330
2
100
AcDbEntity
  8
0
100
AcDbLine
 10
345.337731189506
 20
157.1866572755888
 30
0.0
 11
339.8202781185104
 21
157.1866572755888
 31
0.0
  0
LINE
  5
3BF1
330
2
100
AcDbEntity
  8
0
100
AcDbLine
 10
345.337731189506
 20
116.1064589212054
 30
0.0
 11
339.8202781185104
 21
116.1064589212054
 31
0.0
  0
LINE
  5
3BF2
330
2
100
AcDbEntity
  8
0
100
AcDbLine
 10
345.337731189506
 20
96.64655809837984
 30
0.0
 11
339.8202781185104
 21
96.64655809837984
 31
0.0
  0
LINE
  5
3BF3
330
2
100
AcDbEntity
  8
0
100
AcDbLine
 10
345.3377311895051
 20
176.6465580984144
 30
0.0
 11
339.8202781185104
 21
176.6465580984144
 31
0.0
  0
LINE
  5
3BF4
330
2
100
AcDbEntity
  8
0
100
AcDbLine
 10
345.3377311895042
 20
179.6465580984119
 30
0.0
 11
339.8202781185104
 21
179.6465580984119
 31
0.0
  0
LINE
  5
3BF5
330
2
100
AcDbEntity
  8
0
100
AcDbLine
 10
345.337731189506
 20
93.64655809838234
 30
0.0
 11
339.8202781185104
 21
93.64655809838234
 31
0.0
  0
CIRCLE
  5
3C1B
330
2
100
AcDbEntity
  8
0
100
AcDbCircle
 10
658.9759090264347
 20
136.6465580984006
 30
0.0
 40
26.57735026918937
  0
ENDSEC
  0
SECTION
  2
OBJECTS
  0
DICTIONARY
  5
7
330
0
100
AcDbDictionary
  3
ACAD_COLOR
350
1CFA
  3
ACAD_GROUP
350
75
  3
ACAD_LAYOUT
350
61
  3
ACAD_MATERIAL
350
1CD0
  3
ACAD_MLEADERSTYLE
350
1D1F
  3
ACAD_MLINESTYLE
350
76
  3
ACAD_PLOTSETTINGS
350
77
  3
ACAD_PLOTSTYLENAME
350
6
  3
ACAD_SCALELIST
350
1CFD
  3
ACAD_TABLESTYLE
350
1CFB
  3
ACAD_VISUALSTYLE
350
1CE9
  3
ACADDIM
350
480
  3
ACDB_RECOMPOSE_DATA
350
1D3F
  3
ACDBHEADERROUNDTRIPXREC
350
3C5C
  3
ACDBVARIABLEDICTIONARY
350
102
  3
DWGPROPS
350
3C29
  0
DICTIONARY
  5
1D47
330
6E
100
AcDbDictionary
280
     1
  3
ACAD_XREC_ROUNDTRIP
360
3C30
  0
DICTIONARY
  5
ADC
330
66
100
AcDbDictionary
280
     1
  3
ACAD_LAYERSTATES
360
ADD
  0
DICTIONARY
  5
1D2D
330
5E
100
AcDbDictionary
280
     1
  3
ACAD_XREC_ROUNDTRIP
360
3C2C
  3
ADSK_XREC_LAYER_RECONCILED
360
1D2E
  0
DICTIONARY
  5
1D2F
330
3E
100
AcDbDictionary
280
     1
  3
ACAD_XREC_ROUNDTRIP
360
3C2B
  3
ADSK_XREC_LAYER_RECONCILED
360
1D30
  0
DICTIONARY
  5
1D35
330
2B5
100
AcDbDictionary
280
     1
  3
ACAD_XREC_ROUNDTRIP
360
3C36
  3
ADSK_XREC_LAYER_RECONCILED
360
1D36
  0
DICTIONARY
  5
1D37
330
2BA
100
AcDbDictionary
280
     1
  3
ACAD_XREC_ROUNDTRIP
360
3C37
  3
ADSK_XREC_LAYER_RECONCILED
360
1D38
  0
DICTIONARY
  5
1D3B
330
3FA
100
AcDbDictionary
280
     1
  3
ACAD_XREC_ROUNDTRIP
360
3C39
  3
ADSK_XREC_LAYER_RECONCILED
360
1D3C
  0
DICTIONARY
  5
3C7D
330
2
100
AcDbDictionary
280
     1
  3
ACAD_LAYOUTSELFREF
360
3C7E
  0
DICTIONARY
  5
3C7F
330
3C56
100
AcDbDictionary
280
     1
  3
ACAD_LAYOUTSELFREF
360
3C80
  0
DICTIONARY
  5
1CFA
102
{ACAD_REACTORS
330
7
102
}
330
7
100
AcDbDictionary
  0
DICTIONARY
  5
75
102
{ACAD_REACTORS
330
7
102
}
330
7
100
AcDbDictionary
  0
DICTIONARY
  5
61
102
{ACAD_REACTORS
330
7
102
}
330
7
100
AcDbDictionary
  0
DICTIONARY
  5
1CD0
102
{ACAD_REACTORS
330
7
102
}
330
7
100
AcDbDictionary
  3
BYBLOCK
350
1CD9
  3
BYLAYER
350
1CD1
  3
GLOBAL
350
1CE1
  0
DICTIONARY
  5
1D1F
102
{ACAD_REACTORS
330
7
102
}
330
7
100
AcDbDictionary
  3
STANDARD
350
1D20
  0
DICTIONARY
  5
76
102
{ACAD_REACTORS
330
7
102
}
330
7
100
AcDbDictionary
  3
STANDARD
350
78
  0
DICTIONARY
  5
77
102
{ACAD_REACTORS
330
7
102
}
330
7
100
AcDbDictionary
  0
ACDBDICTIONARYWDFLT
  5
6
102
{ACAD_REACTORS
330
7
102
}
330
7
100
AcDbDictionary
281
     1
  3
Normal
350
5
100
AcDbDictionaryWithDefault
340
5
  0
DICTIONARY
  5
1CFD
102
{ACAD_REACTORS
330
7
102
}
330
7
100
AcDbDictionary
  3
A0
350
1CFE
  3
A1
350
1CFF
  3
A2
350
1D00
  3
A3
350
1D01
  3
A4
350
1D02
  3
A5
350
1D03
  3
A6
350
1D04
  3
A7
350
1D05
  3
A8
350
1D06
  3
A9
350
1D07
  3
B0
350
1D08
  3
B1
350
1D09
  3
B2
350
1D0A
  3
B3
350
1D0B
  3
B4
350
1D0C
  3
B5
350
1D0D
  3
B6
350
1D0E
  3
B7
350
1D0F
  3
B8
350
1D10
  3
B9
350
1D11
  3
C0
350
1D12
  3
C1
350
1D13
  3
C2
350
1D14
  3
C3
350
1D15
  3
C4
350
1D16
  3
C5
350
1D17
  3
C6
350
1D18
  3
C7
350
1D19
  3
C8
350
1D1A
  3
C9
350
1D1B
  3
D0
350
1D1C
  3
D1
350
1D1D
  3
D2
350
1D1E
  0
DICTIONARY
  5
1CFB
102
{ACAD_REACTORS
330
7
102
}
330
7
100
AcDbDictionary
  3
STANDARD
350
1CFC
  0
DICTIONARY
  5
1CE9
102
{ACAD_REACTORS
330
7
102
}
330
7
100
AcDbDictionary
  3
2DWIREFRAME
350
1CEF
  3
3D_HIDDEN
350
1CF1
  3
3DWIREFRAME
350
1CF0
  3
BASIC
350
1CEE
  3
BRIGHTEN
350
1CF5
  3
COLORCHANGE
350
1CF9
  3
CONCEPTUAL
350
1CF2
  3
DIM
350
1CF4
  3
FACEPATTERN
350
1CF8
  3
FLAT
350
1CEA
  3
FLATWITHEDGES
350
1CEB
  3
GOURAUD
350
1CEC
  3
GOURAUDWITHEDGES
350
1CED
  3
LINEPATTERN
350
1CF7
  3
REALISTIC
350
1CF3
  3
THICKEN
350
1CF6
  0
XRECORD
  5
480
102
{ACAD_REACTORS
330
7
102
}
330
7
100
AcDbXrecord
 90
   990106
  3

 60
     0
 61
     0
 62
     1
 63
     3
 64
     1
 65
     0
 66
     0
 67
     3
 68
     1
 69
     0
 70
     0
 71
     0
 72
     0
 40
0.0
170
     2
340
0
  0
XRECORD
  5
1D3F
102
{ACAD_REACTORS
330
7
102
}
330
7
100
AcDbXrecord
 90
        1
330
1CFC
  0
DICTIONARY
  5
3C5C
102
{ACAD_REACTORS
330
7
102
}
330
7
100
AcDbDictionary
  3
CEPSNTYPE
350
3C66
  3
DIMSTYLEDATA
350
3C6A
  3
FINGERPRINTGUID
350
3C67
  3
HYPERLINKBASE
350
3C5F
  3
INSUNITS
350
3C65
  3
LAYOUTDICT
350
3C61
  3
LWETCUNION
350
3C64
  3
PLOTSETDICT
350
3C62
  3
PLOTSTYLNAMDICT
350
3C63
  3
PSVPSCALE
350
3C69
  3
PUCSBASE
350
3C6D
  3
PUCSORGBACK
350
3C73
  3
PUCSORGBOTTOM
350
3C6F
  3
PUCSORGFRONT
350
3C72
  3
PUCSORGLEFT
350
3C70
  3
PUCSORGRIGHT
350
3C71
  3
PUCSORGTOP
350
3C6E
  3
PUCSORTHOREF
350
3C6B
  3
PUCSORTHOVIEW
350
3C6C
  3
STYLESHEET
350
3C60
  3
TSTACKALIGN
350
3C5D
  3
TSTACKSIZE
350
3C5E
  3
UCSBASE
350
3C76
  3
UCSORGBACK
350
3C7C
  3
UCSORGBOTTOM
350
3C78
  3
UCSORGFRONT
350
3C7B
  3
UCSORGLEFT
350
3C79
  3
UCSORGRIGHT
350
3C7A
  3
UCSORGTOP
350
3C77
  3
UCSORTHOREF
350
3C74
  3
UCSORTHOVIEW
350
3C75
  3
VERSIONGUID
350
3C68
  0
DICTIONARY
  5
102
102
{ACAD_REACTORS
330
7
102
}
330
7
100
AcDbDictionary
  3
CANNOSCALE
350
1D5F
  3
CMLEADERSTYLE
350
1D5E
  3
CTABLESTYLE
350
1D5D
  3
DIMASSOC
350
103
  3
INDEXCTL
350
1D60
  3
SORTENTS
350
549
  0
XRECORD
  5
3C29
102
{ACAD_REACTORS
330
7
102
}
330
7
100
AcDbXrecord
  1
DWGPROPS COOKIE
  2

  3

  4

  6

  7

  8
ymorima
  9

300
=
301
=
302
=
303
=
304
=
305
=
306
=
307
=
308
=
309
=
 40
0.021608275462963
 41
2454411.413675127
 42
2454425.758725405
  1

 90
        0
  0
XRECORD
  5
3C30
102
{ACAD_REACTORS
330
1D47
102
}
330
1D47
100
AcDbXrecord
102
VTR_0.000_0.000_1.000_1.000_VISUALSTYLE
340
1CEF
102
VTR_0.000_0.000_1.000_1.000_GRIDDISPLAY
 70
     3
102
VTR_0.000_0.000_1.000_1.000_GRIDMAJOR
 70
     5
102
VTR_0.000_0.000_1.000_1.000_DEFAULTLIGHTING
280
     1
102
VTR_0.000_0.000_1.000_1.000_DEFAULTLIGHTINGTYPE
 70
     1
102
VTR_0.000_0.000_1.000_1.000_BRIGHTNESS
141
0.0
102
VTR_0.000_0.000_1.000_1.000_CONTRAST
142
0.0
  0
DICTIONARY
  5
ADD
102
{ACAD_REACTORS
330
ADC
102
}
330
ADC
100
AcDbDictionary
  0
XRECORD
  5
3C2C
102
{ACAD_REACTORS
330
1D2D
102
}
330
1D2D
100
AcDbXrecord
102
MATERIAL
340
1CE1
  0
XRECORD
  5
1D2E
102
{ACAD_REACTORS
330
1D2D
102
}
330
1D2D
100
AcDbXrecord
290
     1
  0
XRECORD
  5
3C2B
102
{ACAD_REACTORS
330
1D2F
102
}
330
1D2F
100
AcDbXrecord
102
MATERIAL
340
1CE1
  0
XRECORD
  5
1D30
102
{ACAD_REACTORS
330
1D2F
102
}
330
1D2F
100
AcDbXrecord
290
     1
  0
XRECORD
  5
3C36
102
{ACAD_REACTORS
330
1D35
102
}
330
1D35
100
AcDbXrecord
102
MATERIAL
340
1CE1
  0
XRECORD
  5
1D36
102
{ACAD_REACTORS
330
1D35
102
}
330
1D35
100
AcDbXrecord
290
     1
  0
XRECORD
  5
3C37
102
{ACAD_REACTORS
330
1D37
102
}
330
1D37
100
AcDbXrecord
102
MATERIAL
340
1CE1
  0
XRECORD
  5
1D38
102
{ACAD_REACTORS
330
1D37
102
}
330
1D37
100
AcDbXrecord
290
     1
  0
XRECORD
  5
3C39
102
{ACAD_REACTORS
330
1D3B
102
}
330
1D3B
100
AcDbXrecord
102
MATERIAL
340
1CE1
  0
XRECORD
  5
1D3C
102
{ACAD_REACTORS
330
1D3B
102
}
330
1D3B
100
AcDbXrecord
290
     1
  0
XRECORD
  5
3C7E
102
{ACAD_REACTORS
330
3C7D
102
}
330
3C7D
100
AcDbXrecord
340
2
  0
XRECORD
  5
3C80
102
{ACAD_REACTORS
330
3C7F
102
}
330
3C7F
100
AcDbXrecord
340
3C56
  0
ACAD_PROXY_OBJECT
  5
1CD9
102
{ACAD_XDICTIONARY
360
1CDA
102
}
102
{ACAD_REACTORS
330
1CD0
102
}
330
1CD0
100
AcDbProxyObject
 90
      499
 91
      511
 93
     1340
310
42109E509B1BD8DAC02004014080404555555555555953FAA155555555555654FEA9AA400014080404555555555555953FAA155555555555654FEA9AA400000000000000E03F4080404555555555555953FAA155555555555654FEA9AA4014080404555555555555953FAA155555555555654FEA9AA4010201011555555555
310
55654FEA8555555555555953FAA6A9005020101155555555555654FEA8555555555555953FAA6A9001
 94
        0
1001
ACAD
1000
AcadProxyRoundTripData
1071
      504
1071
   655383
1070
     0
  0
ACAD_PROXY_OBJECT
  5
1CD1
102
{ACAD_XDICTIONARY
360
1CD2
102
}
102
{ACAD_REACTORS
330
1CD0
102
}
330
1CD0
100
AcDbProxyObject
 90
      499
 91
      511
 93
     1340
310
42109E53185E595C802004014080404555555555555953FAA155555555555654FEA9AA400014080404555555555555953FAA155555555555654FEA9AA400000000000000E03F4080404555555555555953FAA155555555555654FEA9AA4014080404555555555555953FAA155555555555654FEA9AA4010201011555555555
310
55654FEA8555555555555953FAA6A9005020101155555555555654FEA8555555555555953FAA6A9001
 94
        0
1001
ACAD
1000
AcadProxyRoundTripData
1071
      504
1071
   655383
1070
     0
  0
ACAD_PROXY_OBJECT
  5
1CE1
102
{ACAD_XDICTIONARY
360
1CE2
102
}
102
{ACAD_REACTORS
330
1CD0
102
}
330
1CD0
100
AcDbProxyObject
 90
      499
 91
      511
 93
     1332
310
41D1DB1BD8985B002004014080404555555555555953FAA155555555555654FEA9AA400014080404555555555555953FAA155555555555654FEA9AA400000000000000E03F4080404555555555555953FAA155555555555654FEA9AA4014080404555555555555953FAA155555555555654FEA9AA401020101155555555555
310
654FEA8555555555555953FAA6A9005020101155555555555654FEA8555555555555953FAA6A9000
 94
        0
1001
ACAD
1000
AcadProxyRoundTripData
1071
      504
1071
   655383
1070
     0
  0
ACAD_PROXY_OBJECT
  5
1D20
102
{ACAD_REACTORS
330
1D1F
102
}
330
1D1F
100
AcDbProxyObject
 90
      499
 91
      511
 93
      618
310
40901902A4063FBFFFFFE056BD1B81E855B9FC0AD7A3703D0AD73F4254DD185B99185C990000AD7A3703D0AC73F90141901A02B5E8DC0F42B1CFC02B5E8DC0F42B1CFE5764000000000000300FC6
340
6A
340
0
340
16
340
0
 94
        0
1001
ACAD_MLEADERVER
1070
     2
1001
ACAD
1000
AcadProxyRoundTripData
1071
      508
1071
   655383
1070
     0
  0
MLINESTYLE
  5
78
102
{ACAD_REACTORS
330
76
102
}
330
76
100
AcDbMlineStyle
  2
STANDARD
 70
     0
  3

 62
     0
 51
90.0
 52
90.0
 71
     2
 49
0.5
 62
   256
  6
BYLAYER
 49
-0.5
 62
   256
  6
BYLAYER
  0
ACDBPLACEHOLDER
  5
5
102
{ACAD_REACTORS
330
6
102
}
330
6
100
AcDbPlaceHolder
280
     0
  0
ACAD_PROXY_OBJECT
  5
1CFE
102
{ACAD_REACTORS
330
1CFD
102
}
330
1CFD
100
AcDbProxyObject
 90
      499
 91
      511
 93
       49
310
904313A3100598
 94
        0
1001
ACAD
1000
AcadProxyRoundTripData
1071
      507
1071
   655383
1070
     0
  0
ACAD_PROXY_OBJECT
  5
1CFF
102
{ACAD_REACTORS
330
1CFD
102
}
330
1CFD
100
AcDbProxyObject
 90
      499
 91
      511
 93
      113
310
904313A3200400000000000000406B
 94
        0
1001
ACAD
1000
AcadProxyRoundTripData
1071
      507
1071
   655383
1070
     0
  0
ACAD_PROXY_OBJECT
  5
1D00
102
{ACAD_REACTORS
330
1CFD
102
}
330
1CFD
100
AcDbProxyObject
 90
      499
 91
      511
 93
      113
310
904313A3400400000000000010406B
 94
        0
1001
ACAD
1000
AcadProxyRoundTripData
1071
      507
1071
   655383
1070
     0
  0
ACAD_PROXY_OBJECT
  5
1D01
102
{ACAD_REACTORS
330
1CFD
102
}
330
1CFD
100
AcDbProxyObject
 90
      499
 91
      511
 93
      113
310
904313A3500400000000000014406B
 94
        0
1001
ACAD
1000
AcadProxyRoundTripData
1071
      507
1071
   655383
1070
     0
  0
ACAD_PROXY_OBJECT
  5
1D02
102
{ACAD_REACTORS
330
1CFD
102
}
330
1CFD
100
AcDbProxyObject
 90
      499
 91
      511
 93
      113
310
904313A3800400000000000020406B
 94
        0
1001
ACAD
1000
AcadProxyRoundTripData
1071
      507
1071
   655383
1070
     0
  0
ACAD_PROXY_OBJECT
  5
1D03
102
{ACAD_REACTORS
330
1CFD
102
}
330
1CFD
100
AcDbProxyObject
 90
      499
 91
      511
 93
      121
310
905313A3130004000000000000244051
 94
        0
1001
ACAD
1000
AcadProxyRoundTripData
1071
      507
1071
   655383
1070
     0
  0
ACAD_PROXY_OBJECT
  5
1D04
102
{ACAD_REACTORS
330
1CFD
102
}
330
1CFD
100
AcDbProxyObject
 90
      499
 91
      511
 93
      121
310
905313A3136004000000000000304051
 94
        0
1001
ACAD
1000
AcadProxyRoundTripData
1071
      507
1071
   655383
1070
     0
  0
ACAD_PROXY_OBJECT
  5
1D05
102
{ACAD_REACTORS
330
1CFD
102
}
330
1CFD
100
AcDbProxyObject
 90
      499
 91
      511
 93
      121
310
905313A3230004000000000000344051
 94
        0
1001
ACAD
1000
AcadProxyRoundTripData
1071
      507
1071
   655383
1070
     0
  0
ACAD_PROXY_OBJECT
  5
1D06
102
{ACAD_REACTORS
330
1CFD
102
}
330
1CFD
100
AcDbProxyObject
 90
      499
 91
      511
 93
      121
310
905313A33300040000000000003E4051
 94
        0
1001
ACAD
1000
AcadProxyRoundTripData
1071
      507
1071
   655383
1070
     0
  0
ACAD_PROXY_OBJECT
  5
1D07
102
{ACAD_REACTORS
330
1CFD
102
}
330
1CFD
100
AcDbProxyObject
 90
      499
 91
      511
 93
      121
310
905313A3430004000000000000444051
 94
        0
1001
ACAD
1000
AcadProxyRoundTripData
1071
      507
1071
   655383
1070
     0
  0
ACAD_PROXY_OBJECT
  5
1D08
102
{ACAD_REACTORS
330
1CFD
102
}
330
1CFD
100
AcDbProxyObject
 90
      499
 91
      511
 93
      121
310
905313A3530004000000000000494051
 94
        0
1001
ACAD
1000
AcadProxyRoundTripData
1071
      507
1071
   655383
1070
     0
  0
ACAD_PROXY_OBJECT
  5
1D09
102
{ACAD_REACTORS
330
1CFD
102
}
330
1CFD
100
AcDbProxyObject
 90
      499
 91
      511
 93
      129
310
906313A313030004000000000000594038
 94
        0
1001
ACAD
1000
AcadProxyRoundTripData
1071
      507
1071
   655383
1070
     0
  0
ACAD_PROXY_OBJECT
  5
1D0A
102
{ACAD_REACTORS
330
1CFD
102
}
330
1CFD
100
AcDbProxyObject
 90
      499
 91
      511
 93
      113
310
904323A31000000000000000010159
 94
        0
1001
ACAD
1000
AcadProxyRoundTripData
1071
      507
1071
   655383
1070
     0
  0
ACAD_PROXY_OBJECT
  5
1D0B
102
{ACAD_REACTORS
330
1CFD
102
}
330
1CFD
100
AcDbProxyObject
 90
      499
 91
      511
 93
      113
310
904343A31000000000000000410159
 94
        0
1001
ACAD
1000
AcadProxyRoundTripData
1071
      507
1071
   655383
1070
     0
  0
ACAD_PROXY_OBJECT
  5
1D0C
102
{ACAD_REACTORS
330
1CFD
102
}
330
1CFD
100
AcDbProxyObject
 90
      499
 91
      511
 93
      113
310
904383A31000000000000000810159
 94
        0
1001
ACAD
1000
AcadProxyRoundTripData
1071
      507
1071
   655383
1070
     0
  0
ACAD_PROXY_OBJECT
  5
1D0D
102
{ACAD_REACTORS
330
1CFD
102
}
330
1CFD
100
AcDbProxyObject
 90
      499
 91
      511
 93
      121
310
90531303A31000000000000000910140
 94
        0
1001
ACAD
1000
AcadProxyRoundTripData
1071
      507
1071
   655383
1070
     0
  0
ACAD_PROXY_OBJECT
  5
1D0E
102
{ACAD_REACTORS
330
1CFD
102
}
330
1CFD
100
AcDbProxyObject
 90
      499
 91
      511
 93
      129
310
9063130303A31000000000000001650138
 94
        0
1001
ACAD
1000
AcadProxyRoundTripData
1071
      507
1071
   655383
1070
     0
  0
ACAD_PROXY_OBJECT
  5
1D0F
102
{ACAD_REACTORS
330
1CFD
102
}
330
1CFD
100
AcDbProxyObject
 90
      499
 91
      511
 93
      265
310
90F312F31323822203D2031272D302200000000000000200FC00000000000028402B
 94
        0
1001
ACAD
1000
AcadProxyRoundTripData
1071
      507
1071
   655383
1070
     0
  0
ACAD_PROXY_OBJECT
  5
1D10
102
{ACAD_REACTORS
330
1CFD
102
}
330
1CFD
100
AcDbProxyObject
 90
      499
 91
      511
 93
      257
310
90E312F363422203D2031272D302200000000000000240FC000000000000284040
 94
        0
1001
ACAD
1000
AcadProxyRoundTripData
1071
      507
1071
   655383
1070
     0
  0
ACAD_PROXY_OBJECT
  5
1D11
102
{ACAD_REACTORS
330
1CFD
102
}
330
1CFD
100
AcDbProxyObject
 90
      499
 91
      511
 93
      257
310
90E312F333222203D2031272D302200000000000000280FC000000000000284040
 94
        0
1001
ACAD
1000
AcadProxyRoundTripData
1071
      507
1071
   655383
1070
     0
  0
ACAD_PROXY_OBJECT
  5
1D12
102
{ACAD_REACTORS
330
1CFD
102
}
330
1CFD
100
AcDbProxyObject
 90
      499
 91
      511
 93
      257
310
90E312F313622203D2031272D3022000000000000002C0FC000000000000284040
 94
        0
1001
ACAD
1000
AcadProxyRoundTripData
1071
      507
1071
   655383
1070
     0
  0
ACAD_PROXY_OBJECT
  5
1D13
102
{ACAD_REACTORS
330
1CFD
102
}
330
1CFD
100
AcDbProxyObject
 90
      499
 91
      511
 93
      257
310
90E332F333222203D2031272D3022000000000000002E0FC000000000000284040
 94
        0
1001
ACAD
1000
AcadProxyRoundTripData
1071
      507
1071
   655383
1070
     0
  0
ACAD_PROXY_OBJECT
  5
1D14
102
{ACAD_REACTORS
330
1CFD
102
}
330
1CFD
100
AcDbProxyObject
 90
      499
 91
      511
 93
      249
310
90D312F3822203D2031272D302200000000000000300FC000000000000284040
 94
        0
1001
ACAD
1000
AcadProxyRoundTripData
1071
      507
1071
   655383
1070
     0
  0
ACAD_PROXY_OBJECT
  5
1D15
102
{ACAD_REACTORS
330
1CFD
102
}
330
1CFD
100
AcDbProxyObject
 90
      499
 91
      511
 93
      257
310
90E332F313622203D2031272D302200000000000000320FC000000000000284040
 94
        0
1001
ACAD
1000
AcadProxyRoundTripData
1071
      507
1071
   655383
1070
     0
  0
ACAD_PROXY_OBJECT
  5
1D16
102
{ACAD_REACTORS
330
1CFD
102
}
330
1CFD
100
AcDbProxyObject
 90
      499
 91
      511
 93
      249
310
90D312F3422203D2031272D302200000000000000340FC000000000000284040
 94
        0
1001
ACAD
1000
AcadProxyRoundTripData
1071
      507
1071
   655383
1070
     0
  0
ACAD_PROXY_OBJECT
  5
1D17
102
{ACAD_REACTORS
330
1CFD
102
}
330
1CFD
100
AcDbProxyObject
 90
      499
 91
      511
 93
      249
310
90D332F3822203D2031272D302200000000000000360FC000000000000284040
 94
        0
1001
ACAD
1000
AcadProxyRoundTripData
1071
      507
1071
   655383
1070
     0
  0
ACAD_PROXY_OBJECT
  5
1D18
102
{ACAD_REACTORS
330
1CFD
102
}
330
1CFD
100
AcDbProxyObject
 90
      499
 91
      511
 93
      249
310
90D312F3222203D2031272D302200000000000000380FC000000000000284040
 94
        0
1001
ACAD
1000
AcadProxyRoundTripData
1071
      507
1071
   655383
1070
     0
  0
ACAD_PROXY_OBJECT
  5
1D19
102
{ACAD_REACTORS
330
1CFD
102
}
330
1CFD
100
AcDbProxyObject
 90
      499
 91
      511
 93
      249
310
90D332F3422203D2031272D3022000000000000003A0FC000000000000284040
 94
        0
1001
ACAD
1000
AcadProxyRoundTripData
1071
      507
1071
   655383
1070
     0
  0
ACAD_PROXY_OBJECT
  5
1D1A
102
{ACAD_REACTORS
330
1CFD
102
}
330
1CFD
100
AcDbProxyObject
 90
      499
 91
      511
 93
      169
310
90B3122203D2031272D3022004000000000000284020
 94
        0
1001
ACAD
1000
AcadProxyRoundTripData
1071
      507
1071
   655383
1070
     0
  0
ACAD_PROXY_OBJECT
  5
1D1B
102
{ACAD_REACTORS
330
1CFD
102
}
330
1CFD
100
AcDbProxyObject
 90
      499
 91
      511
 93
      265
310
90F312D312F3222203D2031272D3022000000000000003E0FC00000000000028402B
 94
        0
1001
ACAD
1000
AcadProxyRoundTripData
1071
      507
1071
   655383
1070
     0
  0
ACAD_PROXY_OBJECT
  5
1D1C
102
{ACAD_REACTORS
330
1CFD
102
}
330
1CFD
100
AcDbProxyObject
 90
      499
 91
      511
 93
      233
310
90B3322203D2031272D30220000000000000002100000000000000284000
 94
        0
1001
ACAD
1000
AcadProxyRoundTripData
1071
      507
1071
   655383
1070
     0
  0
ACAD_PROXY_OBJECT
  5
1D1D
102
{ACAD_REACTORS
330
1CFD
102
}
330
1CFD
100
AcDbProxyObject
 90
      499
 91
      511
 93
      233
310
90B3622203D2031272D30220000000000000006100000000000000284000
 94
        0
1001
ACAD
1000
AcadProxyRoundTripData
1071
      507
1071
   655383
1070
     0
  0
ACAD_PROXY_OBJECT
  5
1D1E
102
{ACAD_REACTORS
330
1CFD
102
}
330
1CFD
100
AcDbProxyObject
 90
      499
 91
      511
 93
      257
310
90E31272D3022203D2031272D3022000000000000000A100000000000000284040
 94
        0
1001
ACAD
1000
AcadProxyRoundTripData
1071
      507
1071
   655383
1070
     0
  0
ACAD_PROXY_OBJECT
  5
1CFC
102
{ACAD_XDICTIONARY
360
1D3D
102
}
102
{ACAD_REACTORS
330
1CFB
102
}
330
1CFB
100
AcDbProxyObject
 90
      499
 91
      511
 93
     1849
310
4254DD185B99185C990028B81E85EB51B8AE3F2E07A17AD46E2B8FC02B5E8DC0F42B1CFD028000000C1008070000C3001FDFF8000000C1003FBFF000000182007F7FE00000030400FEFFC00000060801FDFF8000000C1003FBFF00000018200000000000000681FA0B0000001820100E000186003FBFF000000182007F7FE0
310
0000030400FEFFC00000060801FDFF8000000C1003FBFF000000182007F7FE000000304000AD7A3703D0AC73F4160000003040201C00030C007F7FE00000030400FEFFC00000060801FDFF8000000C1003FBFF000000182007F7FE00000030400FEFFC00000060804D
340
16
340
16
340
16
 94
        0
1001
ACAD
1000
AcadProxyRoundTripData
1071
      506
1071
   655383
1070
     0
  0
ACAD_PROXY_OBJECT
  5
1CEF
102
{ACAD_REACTORS
330
1CE9
102
}
330
1CE9
100
AcDbProxyObject
 90
      499
 91
      511
 93
      444
310
430C9915DA5C99599C985B59401049028333333333333E3BF0000000000000FB0107901411070040501600405405064090741402480A0340
 94
        0
1001
ACAD
1000
AcDbSavedByObjectVersion
1070
     0
1000
AcadProxyRoundTripData
1071
      505
1071
   655383
1070
     0
  0
ACAD_PROXY_OBJECT
  5
1CF1
102
{ACAD_REACTORS
330
1CE9
102
}
330
1CE9
100
AcDbProxyObject
 90
      499
 91
      511
 93
      508
310
428CD108121A5919195B8010640502408333333333333E3BF0000000000000FB01079024090700405020000000000001110200405405064090740C02480A0340
 94
        0
1001
ACAD
1000
AcDbSavedByObjectVersion
1070
     0
1000
AcadProxyRoundTripData
1071
      505
1071
   655383
1070
     0
  0
ACAD_PROXY_OBJECT
  5
1CF0
102
{ACAD_REACTORS
330
1CE9
102
}
330
1CE9
100
AcDbProxyObject
 90
      499
 91
      511
 93
      444
310
430CD915DA5C99599C985B59401059028333333333333E3BF0000000000000FB0107901411070040501600405405064090741402480A0340
 94
        0
1001
ACAD
1000
AcDbSavedByObjectVersion
1070
     0
1000
AcadProxyRoundTripData
1071
      505
1071
   655383
1070
     0
  0
ACAD_PROXY_OBJECT
  5
1CEE
102
{ACAD_REACTORS
330
1CE9
102
}
330
1CE9
100
AcDbProxyObject
 90
      499
 91
      511
 93
      396
310
4190985CDA58C0107406404333333333333E3BF0000000000000FB0107A41107004050150841D405064090741402480A0356
 94
        0
1001
ACAD
1000
AcDbSavedByObjectVersion
1070
     0
1000
AcadProxyRoundTripData
1071
      505
1071
   655383
1070
     0
  0
ACAD_PROXY_OBJECT
  5
1CF5
102
{ACAD_REACTORS
330
1CE9
102
}
330
1CE9
100
AcDbProxyObject
 90
      499
 91
      511
 93
      436
310
42509C9A59DA1D195B8010C409028333333333333E3BF0000000000000FB010790141107004050150841D405064090741402480A029956
 94
        0
1001
ACAD
1000
AcDbSavedByObjectVersion
1070
     0
1000
AcadProxyRoundTripData
1071
      505
1071
   655383
1070
     0
  0
ACAD_PROXY_OBJECT
  5
1CF9
102
{ACAD_REACTORS
330
1CE9
102
}
330
1CE9
100
AcDbProxyObject
 90
      499
 91
      511
 93
      460
310
4310DBDB1BDC90DA185B99D9401104090240C333333333333E3BF0000000000000FB0108901411070040501508421405064090741402480A0354
 94
        0
1001
ACAD
1000
AcDbSavedByObjectVersion
1070
     0
1000
AcadProxyRoundTripData
1071
      505
1071
   655383
1070
     0
  0
ACAD_PROXY_OBJECT
  5
1CF2
102
{ACAD_REACTORS
330
1CE9
102
}
330
1CE9
100
AcDbProxyObject
 90
      499
 91
      511
 93
      508
310
42D0DBDB98D95C1D1D585B0010940D028333333333333E3BF0000000000000FB0107902409070040501000000000000111010841D405064090740C02480A0340
 94
        0
1001
ACAD
1000
AcDbSavedByObjectVersion
1070
     0
1000
AcadProxyRoundTripData
1071
      505
1071
   655383
1070
     0
  0
ACAD_PROXY_OBJECT
  5
1CF4
102
{ACAD_REACTORS
330
1CE9
102
}
330
1CE9
100
AcDbProxyObject
 90
      499
 91
      511
 93
      420
310
41111A5B4010B409028333333333333E3BF0000000000000FB010790141107004050150841D405064090741402480A02677FFFFFDB
 94
        0
1001
ACAD
1000
AcDbSavedByObjectVersion
1070
     0
1000
AcadProxyRoundTripData
1071
      505
1071
   655383
1070
     0
  0
ACAD_PROXY_OBJECT
  5
1CF8
102
{ACAD_REACTORS
330
1CE9
102
}
330
1CE9
100
AcDbProxyObject
 90
      499
 91
      511
 93
      452
310
43119858D95C185D1D195C9B8010F409028333333333333E3BF0000000000000FB010790141107004050150841D405064090741402480A0350
 94
        0
1001
ACAD
1000
AcDbSavedByObjectVersion
1070
     0
1000
AcadProxyRoundTripData
1071
      505
1071
   655383
1070
     0
  0
ACAD_PROXY_OBJECT
  5
1CEA
102
{ACAD_REACTORS
330
1CE9
102
}
330
1CE9
100
AcDbProxyObject
 90
      499
 91
      511
 93
      396
310
41519B185D00240901404333333333333E3BF0000000000000F9010740A41107004050150841D405064090741402480A1B55
 94
        0
1001
ACAD
1000
AcDbSavedByObjectVersion
1070
     0
1000
AcadProxyRoundTripData
1071
      505
1071
   655383
1070
     0
  0
ACAD_PROXY_OBJECT
  5
1CEB
102
{ACAD_REACTORS
330
1CE9
102
}
330
1CE9
100
AcDbProxyObject
 90
      499
 91
      511
 93
      484
310
43919B185D15DA5D1A115919D95CC010140901404333333333333E3BF0000000000000F9010740901411070040501600405405064090741402480A1B50
 94
        0
1001
ACAD
1000
AcDbSavedByObjectVersion
1070
     0
1000
AcadProxyRoundTripData
1071
      505
1071
   655383
1070
     0
  0
ACAD_PROXY_OBJECT
  5
1CEC
102
{ACAD_REACTORS
330
1CE9
102
}
330
1CE9
100
AcDbProxyObject
 90
      499
 91
      511
 93
      420
310
4211DBDD5C985D590010240902404333333333333E3BF0000000000000F9010740A411070040501641D405064090741402480A1B50
 94
        0
1001
ACAD
1000
AcDbSavedByObjectVersion
1070
     0
1000
AcadProxyRoundTripData
1071
      505
1071
   655383
1070
     0
  0
ACAD_PROXY_OBJECT
  5
1CED
102
{ACAD_REACTORS
330
1CE9
102
}
330
1CE9
100
AcDbProxyObject
 90
      499
 91
      511
 93
      508
310
4451DBDD5C985D5915DA5D1A115919D95CC010340902404333333333333E3BF0000000000000F9010740901411070040501600405405064090741402480A1B50
 94
        0
1001
ACAD
1000
AcDbSavedByObjectVersion
1070
     0
1000
AcadProxyRoundTripData
1071
      505
1071
   655383
1070
     0
  0
ACAD_PROXY_OBJECT
  5
1CF7
102
{ACAD_REACTORS
330
1CE9
102
}
330
1CE9
100
AcDbProxyObject
 90
      499
 91
      511
 93
      452
310
43131A5B995C185D1D195C9B8010E409028333333333333E3BF0000000000000FB010790141107004050750841D405064090741402483A0350
 94
        0
1001
ACAD
1000
AcDbSavedByObjectVersion
1070
     0
1000
AcadProxyRoundTripData
1071
      505
1071
   655383
1070
     0
  0
ACAD_PROXY_OBJECT
  5
1CF3
102
{ACAD_REACTORS
330
1CE9
102
}
330
1CE9
100
AcDbProxyObject
 90
      499
 91
      511
 93
      428
310
429499585B1A5CDD1A58C0108409028333333333333E3BF0000000000000FB01079019070040501508421405064090741402480A1B45
 94
        0
1001
ACAD
1000
AcDbSavedByObjectVersion
1070
     0
1000
AcadProxyRoundTripData
1071
      505
1071
   655383
1070
     0
  0
ACAD_PROXY_OBJECT
  5
1CF6
102
{ACAD_REACTORS
330
1CE9
102
}
330
1CE9
100
AcDbProxyObject
 90
      499
 91
      511
 93
      420
310
42151A1A58DAD95B8010D409028333333333333E3BF0000000000000FB010790141107004050150C41D405064090741402480A0352
 94
        0
1001
ACAD
1000
AcDbSavedByObjectVersion
1070
     0
1000
AcadProxyRoundTripData
1071
      505
1071
   655383
1070
     0
  0
XRECORD
  5
3C66
102
{ACAD_REACTORS
330
3C5C
102
}
330
3C5C
100
AcDbXrecord
 90
        0
  0
XRECORD
  5
3C6A
102
{ACAD_REACTORS
330
3C5C
102
}
330
3C5C
100
AcDbXrecord
1000
DSTYLE
1002
{
1070
   179
 70
     2
1070
   277
 70
     6
1002
}
  0
XRECORD
  5
3C67
102
{ACAD_REACTORS
330
3C5C
102
}
330
3C5C
100
AcDbXrecord
  1
{6385560B-F4B1-4644-A7C2-A3E32AC3D232}
  0
XRECORD
  5
3C5F
102
{ACAD_REACTORS
330
3C5C
102
}
330
3C5C
100
AcDbXrecord
  1

  0
XRECORD
  5
3C65
102
{ACAD_REACTORS
330
3C5C
102
}
330
3C5C
100
AcDbXrecord
 90
        0
  0
XRECORD
  5
3C61
102
{ACAD_REACTORS
330
3C5C
102
}
330
3C5C
100
AcDbXrecord
340
61
  0
XRECORD
  5
3C64
102
{ACAD_REACTORS
330
3C5C
102
}
330
3C5C
100
AcDbXrecord
 90
    10781
  0
XRECORD
  5
3C62
102
{ACAD_REACTORS
330
3C5C
102
}
330
3C5C
100
AcDbXrecord
340
77
  0
XRECORD
  5
3C63
102
{ACAD_REACTORS
330
3C5C
102
}
330
3C5C
100
AcDbXrecord
340
6
  0
XRECORD
  5
3C69
102
{ACAD_REACTORS
330
3C5C
102
}
330
3C5C
100
AcDbXrecord
 40
0.0
  0
XRECORD
  5
3C6D
102
{ACAD_REACTORS
330
3C5C
102
}
330
3C5C
100
AcDbXrecord
340
0
  0
XRECORD
  5
3C73
102
{ACAD_REACTORS
330
3C5C
102
}
330
3C5C
100
AcDbXrecord
 10
0.0
 20
0.0
 30
0.0
  0
XRECORD
  5
3C6F
102
{ACAD_REACTORS
330
3C5C
102
}
330
3C5C
100
AcDbXrecord
 10
0.0
 20
0.0
 30
0.0
  0
XRECORD
  5
3C72
102
{ACAD_REACTORS
330
3C5C
102
}
330
3C5C
100
AcDbXrecord
 10
0.0
 20
0.0
 30
0.0
  0
XRECORD
  5
3C70
102
{ACAD_REACTORS
330
3C5C
102
}
330
3C5C
100
AcDbXrecord
 10
0.0
 20
0.0
 30
0.0
  0
XRECORD
  5
3C71
102
{ACAD_REACTORS
330
3C5C
102
}
330
3C5C
100
AcDbXrecord
 10
0.0
 20
0.0
 30
0.0
  0
XRECORD
  5
3C6E
102
{ACAD_REACTORS
330
3C5C
102
}
330
3C5C
100
AcDbXrecord
 10
0.0
 20
0.0
 30
0.0
  0
XRECORD
  5
3C6B
102
{ACAD_REACTORS
330
3C5C
102
}
330
3C5C
100
AcDbXrecord
340
0
  0
XRECORD
  5
3C6C
102
{ACAD_REACTORS
330
3C5C
102
}
330
3C5C
100
AcDbXrecord
 70
     0
  0
XRECORD
  5
3C60
102
{ACAD_REACTORS
330
3C5C
102
}
330
3C5C
100
AcDbXrecord
  1
Sekkei.ctb
  0
XRECORD
  5
3C5D
102
{ACAD_REACTORS
330
3C5C
102
}
330
3C5C
100
AcDbXrecord
 90
        1
  0
XRECORD
  5
3C5E
102
{ACAD_REACTORS
330
3C5C
102
}
330
3C5C
100
AcDbXrecord
 90
       70
  0
XRECORD
  5
3C76
102
{ACAD_REACTORS
330
3C5C
102
}
330
3C5C
100
AcDbXrecord
340
0
  0
XRECORD
  5
3C7C
102
{ACAD_REACTORS
330
3C5C
102
}
330
3C5C
100
AcDbXrecord
 10
0.0
 20
0.0
 30
0.0
  0
XRECORD
  5
3C78
102
{ACAD_REACTORS
330
3C5C
102
}
330
3C5C
100
AcDbXrecord
 10
0.0
 20
0.0
 30
0.0
  0
XRECORD
  5
3C7B
102
{ACAD_REACTORS
330
3C5C
102
}
330
3C5C
100
AcDbXrecord
 10
0.0
 20
0.0
 30
0.0
  0
XRECORD
  5
3C79
102
{ACAD_REACTORS
330
3C5C
102
}
330
3C5C
100
AcDbXrecord
 10
0.0
 20
0.0
 30
0.0
  0
XRECORD
  5
3C7A
102
{ACAD_REACTORS
330
3C5C
102
}
330
3C5C
100
AcDbXrecord
 10
0.0
 20
0.0
 30
0.0
  0
XRECORD
  5
3C77
102
{ACAD_REACTORS
330
3C5C
102
}
330
3C5C
100
AcDbXrecord
 10
0.0
 20
0.0
 30
0.0
  0
XRECORD
  5
3C74
102
{ACAD_REACTORS
330
3C5C
102
}
330
3C5C
100
AcDbXrecord
340
0
  0
XRECORD
  5
3C75
102
{ACAD_REACTORS
330
3C5C
102
}
330
3C5C
100
AcDbXrecord
 70
     0
  0
XRECORD
  5
3C68
102
{ACAD_REACTORS
330
3C5C
102
}
330
3C5C
100
AcDbXrecord
  1
{1416B7DF-8178-4411-9921-B20163F14107}
  0
DICTIONARYVAR
  5
1D5F
102
{ACAD_REACTORS
330
102
102
}
330
102
100
DictionaryVariables
280
     0
  1
1:1
  0
DICTIONARYVAR
  5
1D5E
102
{ACAD_REACTORS
330
102
102
}
330
102
100
DictionaryVariables
280
     0
  1
STANDARD
  0
DICTIONARYVAR
  5
1D5D
102
{ACAD_REACTORS
330
102
102
}
330
102
100
DictionaryVariables
280
     0
  1
STANDARD
  0
DICTIONARYVAR
  5
103
102
{ACAD_REACTORS
330
102
102
}
330
102
100
DictionaryVariables
280
     0
  1
1
  0
DICTIONARYVAR
  5
1D60
102
{ACAD_REACTORS
330
102
102
}
330
102
100
DictionaryVariables
280
     0
  1
0
  0
DICTIONARYVAR
  5
549
102
{ACAD_REACTORS
330
102
102
}
330
102
100
DictionaryVariables
280
     0
  1
96
  0
DICTIONARY
  5
1CDA
330
1CD9
100
AcDbDictionary
280
     1
  3
ACAD_XREC_ROUNDTRIP
360
3C3D
  3
BUMPTILE
360
1CDC
  3
DIFFUSETILE
360
1CDB
  3
OPACITYTILE
360
1CDF
  3
REFLECTIONTILE
360
1CDE
  3
REFRACTIONTILE
360
1CE0
  3
SPECULARTILE
360
1CDD
  0
DICTIONARY
  5
1CD2
330
1CD1
100
AcDbDictionary
280
     1
  3
ACAD_XREC_ROUNDTRIP
360
3C3C
  3
BUMPTILE
360
1CD4
  3
DIFFUSETILE
360
1CD3
  3
OPACITYTILE
360
1CD7
  3
REFLECTIONTILE
360
1CD6
  3
REFRACTIONTILE
360
1CD8
  3
SPECULARTILE
360
1CD5
  0
DICTIONARY
  5
1CE2
330
1CE1
100
AcDbDictionary
280
     1
  3
ACAD_XREC_ROUNDTRIP
360
3C3E
  3
BUMPTILE
360
1CE4
  3
DIFFUSETILE
360
1CE3
  3
OPACITYTILE
360
1CE7
  3
REFLECTIONTILE
360
1CE6
  3
REFRACTIONTILE
360
1CE8
  3
SPECULARTILE
360
1CE5
  0
DICTIONARY
  5
1D3D
330
1CFC
100
AcDbDictionary
280
     1
  3
ACAD_ROUNDTRIP_2008_TABLES
360
3C28
  3
ACAD_XREC_ROUNDTRIP
360
3C3F
  0
XRECORD
  5
3C3D
102
{ACAD_REACTORS
330
1CDA
102
}
330
1CDA
100
AcDbXrecord
102
MATERIAL
148
0.0
149
0.0
149
0.0
 93
        0
 94
      127
282
     0
 72
     0
 77
     0
171
     0
175
     0
179
     0
273
     0
  0
XRECORD
  5
1CDC
102
{ACAD_REACTORS
330
1CDA
102
}
330
1CDA
100
AcDbXrecord
270
     1
271
     1
  0
XRECORD
  5
1CDB
102
{ACAD_REACTORS
330
1CDA
102
}
330
1CDA
100
AcDbXrecord
270
     1
271
     1
  0
XRECORD
  5
1CDF
102
{ACAD_REACTORS
330
1CDA
102
}
330
1CDA
100
AcDbXrecord
270
     1
271
     1
  0
XRECORD
  5
1CDE
102
{ACAD_REACTORS
330
1CDA
102
}
330
1CDA
100
AcDbXrecord
270
     1
271
     1
  0
XRECORD
  5
1CE0
102
{ACAD_REACTORS
330
1CDA
102
}
330
1CDA
100
AcDbXrecord
270
     1
271
     1
  0
XRECORD
  5
1CDD
102
{ACAD_REACTORS
330
1CDA
102
}
330
1CDA
100
AcDbXrecord
270
     1
271
     1
  0
XRECORD
  5
3C3C
102
{ACAD_REACTORS
330
1CD2
102
}
330
1CD2
100
AcDbXrecord
102
MATERIAL
148
0.0
149
0.0
149
0.0
 93
        0
 94
      127
282
     0
 72
     0
 77
     0
171
     0
175
     0
179
     0
273
     0
  0
XRECORD
  5
1CD4
102
{ACAD_REACTORS
330
1CD2
102
}
330
1CD2
100
AcDbXrecord
270
     1
271
     1
  0
XRECORD
  5
1CD3
102
{ACAD_REACTORS
330
1CD2
102
}
330
1CD2
100
AcDbXrecord
270
     1
271
     1
  0
XRECORD
  5
1CD7
102
{ACAD_REACTORS
330
1CD2
102
}
330
1CD2
100
AcDbXrecord
270
     1
271
     1
  0
XRECORD
  5
1CD6
102
{ACAD_REACTORS
330
1CD2
102
}
330
1CD2
100
AcDbXrecord
270
     1
271
     1
  0
XRECORD
  5
1CD8
102
{ACAD_REACTORS
330
1CD2
102
}
330
1CD2
100
AcDbXrecord
270
     1
271
     1
  0
XRECORD
  5
1CD5
102
{ACAD_REACTORS
330
1CD2
102
}
330
1CD2
100
AcDbXrecord
270
     1
271
     1
  0
XRECORD
  5
3C3E
102
{ACAD_REACTORS
330
1CE2
102
}
330
1CE2
100
AcDbXrecord
102
MATERIAL
148
0.0
149
0.0
149
0.0
 93
        0
 94
      127
282
     0
 72
     0
 77
     0
171
     0
175
     0
179
     0
273
     0
  0
XRECORD
  5
1CE4
102
{ACAD_REACTORS
330
1CE2
102
}
330
1CE2
100
AcDbXrecord
270
     1
271
     1
  0
XRECORD
  5
1CE3
102
{ACAD_REACTORS
330
1CE2
102
}
330
1CE2
100
AcDbXrecord
270
     1
271
     1
  0
XRECORD
  5
1CE7
102
{ACAD_REACTORS
330
1CE2
102
}
330
1CE2
100
AcDbXrecord
270
     1
271
     1
  0
XRECORD
  5
1CE6
102
{ACAD_REACTORS
330
1CE2
102
}
330
1CE2
100
AcDbXrecord
270
     1
271
     1
  0
XRECORD
  5
1CE8
102
{ACAD_REACTORS
330
1CE2
102
}
330
1CE2
100
AcDbXrecord
270
     1
271
     1
  0
XRECORD
  5
1CE5
102
{ACAD_REACTORS
330
1CE2
102
}
330
1CE2
100
AcDbXrecord
270
     1
271
     1
  0
ACAD_PROXY_OBJECT
  5
3C28
102
{ACAD_REACTORS
330
1D3D
102
}
330
1D3D
100
AcDbProxyObject
 90
      499
 91
      511
 93
     5304
310
40D054060020000020000003200101A000080002A5058000000C100000000000000340FD012E07A17AD46E2B8FCB81E85EB51B8AE3F2E07A17AD46E2B8FCB81E85EB51B8AE3F02B5E8DC0F42B1CFC0AD7A3703D0AC73F419019018000000C1003FBFFFFFE02B5E8DC0F42A9CFD029018000000C1003FBFFFFFE02B5E8DC0F4
310
2A9CFD049018000000C1003FBFFFFFE02B5E8DC0F42A9CFD089018000000C1003FBFFFFFE02B5E8DC0F42A9CFD109018000000C1003FBFFFFFE02B5E8DC0F42A9CFD209018000000C1003FBFFFFFE02B5E8DC0F42A9CFD01405075F5449544C450041501A8000000C800406800020000A9416000000304000AD7A3703D0AC7
310
3F404B81E85EB51B8AE3F2E07A17AD46E2B8FCB81E85EB51B8AE3F2E07A17AD46E2B8FC0AD7A3703D0AC73F02B5E8DC0F42B1CFD0640640600000030400FEFFFFFF80AD7A3703D0AA73F40A40600000030400FEFFFFFF80AD7A3703D0AA73F41240600000030400FEFFFFFF80AD7A3703D0AA73F42240600000030400FEFFF
310
FFF80AD7A3703D0AA73F44240600000030400FEFFFFFF80AD7A3703D0AA73F48240600000030400FEFFFFFF80AD7A3703D0AA73F409014217D2115051115480105406A0000003200101A000080002A5028000000C10002B5E8DC0F42B1CFD012E07A17AD46E2B8FCB81E85EB51B8AE3F2E07A17AD46E2B8FCB81E85EB51B8A
310
E3F02B5E8DC0F42B1CFC0AD7A3703D0AC73F419019018000000C1003FBFFFFFE02B5E8DC0F42A9CFD029018000000C1003FBFFFFFE02B5E8DC0F42A9CFD049018000000C1003FBFFFFFE02B5E8DC0F42A9CFD089018000000C1003FBFFFFFE02B5E8DC0F42A9CFD109018000000C1003FBFFFFFE02B5E8DC0F42A9CFD20901
310
8000000C1003FBFFFFFE02B5E8DC0F42A9CFD03409065F444154410001
340
16
340
0
340
0
340
0
340
0
340
0
340
0
340
16
340
0
340
0
340
0
340
0
340
0
340
0
340
16
340
0
340
0
340
0
340
0
340
0
340
0
 94
        0
1001
ACAD
1000
AcadProxyRoundTripData
1071
      509
1071
   655383
1070
     0
  0
XRECORD
  5
3C3F
102
{ACAD_REACTORS
330
1D3D
102
}
330
1D3D
100
AcDbXrecord
102
ACAD_ROUNDTRIP_PRE2007_TABLESTYLE
 90
      512
 91
        0
  1

 92
      512
 93
        0
  2

 94
      512
 95
        0
  3

  0
ENDSEC
  0
EOF
