  0
SECTION
  2
HEADER
  9
$ACADVER
  1
AC1014
  9
$ACADMAINTVER
 70
     9
  9
$DWGCODEPAGE
  3
ANSI_932
  9
$INSBASE
 10
0.0
 20
0.0
 30
0.0
  9
$EXTMIN
 10
44.41773900683847
 20
66.64655809839962
 30
0.0
  9
$EXTMAX
 10
1104.516008791141
 20
519.9744109531597
 30
0.0
  9
$LIMMIN
 10
0.0
 20
0.0
  9
$LIMMAX
 10
297.0
 20
210.0
  9
$ORTHOMODE
 70
     1
  9
$REGENMODE
 70
     1
  9
$FILLMODE
 70
     1
  9
$QTEXTMODE
 70
     0
  9
$MIRRTEXT
 70
     0
  9
$DRAGMODE
 70
     2
  9
$LTSCALE
 40
3.0
  9
$OSMODE
 70
    37
  9
$ATTMODE
 70
     1
  9
$TEXTSIZE
 40
2.0
  9
$TRACEWID
 40
1.0
  9
$TEXTSTYLE
  7
STANDARD
  9
$CLAYER
  8
0
  9
$CELTYPE
  6
BYLAYER
  9
$CECOLOR
 62
   256
  9
$CELTSCALE
 40
1.0
  9
$DELOBJ
 70
     1
  9
$DISPSILH
 70
     0
  9
$DIMSCALE
 40
3.0
  9
$DIMASZ
 40
1.8
  9
$DIMEXO
 40
0.625
  9
$DIMDLI
 40
3.75
  9
$DIMRND
 40
0.0
  9
$DIMDLE
 40
0.0
  9
$DIMEXE
 40
0.8
  9
$DIMTP
 40
0.0
  9
$DIMTM
 40
0.0
  9
$DIMTXT
 40
1.8
  9
$DIMCEN
 40
2.5
  9
$DIMTSZ
 40
0.0
  9
$DIMTOL
 70
     0
  9
$DIMLIM
 70
     0
  9
$DIMTIH
 70
     0
  9
$DIMTOH
 70
     0
  9
$DIMSE1
 70
     0
  9
$DIMSE2
 70
     0
  9
$DIMTAD
 70
     1
  9
$DIMZIN
 70
     8
  9
$DIMBLK
  1

  9
$DIMASO
 70
     1
  9
$DIMSHO
 70
     1
  9
$DIMPOST
  1

  9
$DIMAPOST
  1

  9
$DIMALT
 70
     0
  9
$DIMALTD
 70
     4
  9
$DIMALTF
 40
0.0394
  9
$DIMLFAC
 40
1.0
  9
$DIMTOFL
 70
     1
  9
$DIMTVP
 40
0.0
  9
$DIMTIX
 70
     0
  9
$DIMSOXD
 70
     0
  9
$DIMSAH
 70
     0
  9
$DIMBLK1
  1

  9
$DIMBLK2
  1

  9
$DIMSTYLE
  2
STANDARD
  9
$DIMCLRD
 70
     0
  9
$DIMCLRE
 70
     0
  9
$DIMCLRT
 70
     0
  9
$DIMTFAC
 40
1.0
  9
$DIMGAP
 40
0.75
  9
$DIMJUST
 70
     0
  9
$DIMSD1
 70
     0
  9
$DIMSD2
 70
     0
  9
$DIMTOLJ
 70
     1
  9
$DIMTZIN
 70
     0
  9
$DIMALTZ
 70
     0
  9
$DIMALTTZ
 70
     0
  9
$DIMFIT
 70
     3
  9
$DIMUPT
 70
     0
  9
$DIMUNIT
 70
     8
  9
$DIMDEC
 70
     2
  9
$DIMTDEC
 70
     2
  9
$DIMALTU
 70
     8
  9
$DIMALTTD
 70
     4
  9
$DIMTXSTY
  7
STANDARD
  9
$DIMAUNIT
 70
     0
  9
$LUNITS
 70
     2
  9
$LUPREC
 70
     3
  9
$SKETCHINC
 40
1.0
  9
$FILLETRAD
 40
10.0
  9
$AUNITS
 70
     0
  9
$AUPREC
 70
     2
  9
$MENU
  1
.
  9
$ELEVATION
 40
0.0
  9
$PELEVATION
 40
0.0
  9
$THICKNESS
 40
0.0
  9
$LIMCHECK
 70
     0
  9
$BLIPMODE
 70
     0
  9
$CHAMFERA
 40
0.0
  9
$CHAMFERB
 40
0.0
  9
$CHAMFERC
 40
20.0
  9
$CHAMFERD
 40
0.0
  9
$SKPOLY
 70
     0
  9
$TDCREATE
 40
2454411.434690023
  9
$TDUPDATE
 40
2454425.767225474
  9
$TDINDWG
 40
0.0348820602
  9
$TDUSRTIMER
 40
0.0348820602
  9
$USRTIMER
 70
     1
  9
$ANGBASE
 50
0.0
  9
$ANGDIR
 70
     0
  9
$PDMODE
 70
     0
  9
$PDSIZE
 40
-10.0
  9
$PLINEWID
 40
0.0
  9
$COORDS
 70
     0
  9
$SPLFRAME
 70
     0
  9
$SPLINETYPE
 70
     6
  9
$SPLINESEGS
 70
     8
  9
$ATTDIA
 70
     0
  9
$ATTREQ
 70
     1
  9
$HANDLING
 70
-16383
  9
$HANDSEED
  5
34C4
  9
$SURFTAB1
 70
     6
  9
$SURFTAB2
 70
     6
  9
$SURFTYPE
 70
     6
  9
$SURFU
 70
     6
  9
$SURFV
 70
     6
  9
$UCSNAME
  2

  9
$UCSORG
 10
0.0
 20
0.0
 30
0.0
  9
$UCSXDIR
 10
1.0
 20
0.0
 30
0.0
  9
$UCSYDIR
 10
0.0
 20
1.0
 30
0.0
  9
$PUCSNAME
  2

  9
$PUCSORG
 10
0.0
 20
0.0
 30
0.0
  9
$PUCSXDIR
 10
1.0
 20
0.0
 30
0.0
  9
$PUCSYDIR
 10
0.0
 20
1.0
 30
0.0
  9
$USERI1
 70
     0
  9
$USERI2
 70
     0
  9
$USERI3
 70
     0
  9
$USERI4
 70
     0
  9
$USERI5
 70
     0
  9
$USERR1
 40
0.0
  9
$USERR2
 40
0.0
  9
$USERR3
 40
0.0
  9
$USERR4
 40
0.0
  9
$USERR5
 40
0.0
  9
$WORLDVIEW
 70
     1
  9
$SHADEDGE
 70
     3
  9
$SHADEDIF
 70
    70
  9
$TILEMODE
 70
     1
  9
$MAXACTVP
 70
    48
  9
$PINSBASE
 10
0.0
 20
0.0
 30
0.0
  9
$PLIMCHECK
 70
     0
  9
$PEXTMIN
 10
0.0
 20
0.0
 30
0.0
  9
$PEXTMAX
 10
0.0
 20
0.0
 30
0.0
  9
$PLIMMIN
 10
0.0
 20
0.0
  9
$PLIMMAX
 10
12.0
 20
9.0
  9
$UNITMODE
 70
     0
  9
$VISRETAIN
 70
     1
  9
$PLINEGEN
 70
     0
  9
$PSLTSCALE
 70
     1
  9
$TREEDEPTH
 70
  3020
  9
$PICKSTYLE
 70
     1
  9
$CMLSTYLE
  2
STANDARD
  9
$CMLJUST
 70
     0
  9
$CMLSCALE
 40
1.0
  9
$PROXYGRAPHICS
 70
     1
  9
$MEASUREMENT
 70
     0
  0
ENDSEC
  0
SECTION
  2
CLASSES
  0
CLASS
  1
DICTIONARYVAR
  2
AcDbDictionaryVar
  3
AutoCAD 2000
 90
        0
280
     0
281
     0
  0
CLASS
  1
ACDBDICTIONARYWDFLT
  2
AcDbDictionaryWithDefault
  3
AutoCAD 2000
 90
        0
280
     0
281
     0
  0
CLASS
  1
ACDBPLACEHOLDER
  2
AcDbPlaceHolder
  3
AutoCAD 2000
 90
        0
280
     0
281
     0
  0
CLASS
  1
LAYOUT
  2
AcDbLayout
  3
AutoCAD 2000
 90
        0
280
     0
281
     0
  0
CLASS
  1
MATERIAL
  2
AcDbMaterial
  3
ObjectDBX Classes
 90
     1153
280
     0
281
     0
  0
CLASS
  1
VISUALSTYLE
  2
AcDbVisualStyle
  3
ObjectDBX Classes
 90
     4095
280
     0
281
     0
  0
CLASS
  1
TABLESTYLE
  2
AcDbTableStyle
  3
ObjectDBX Classes
 90
     4095
280
     0
281
     0
  0
CLASS
  1
SCALE
  2
AcDbScale
  3
ObjectDBX Classes
 90
     1153
280
     0
281
     0
  0
CLASS
  1
MLEADERSTYLE
  2
AcDbMLeaderStyle
  3
ACDB_MLEADERSTYLE_CLASS
 90
     4095
280
     0
281
     0
  0
CLASS
  1
CELLSTYLEMAP
  2
AcDbCellStyleMap
  3
ObjectDBX Classes
 90
     1152
280
     0
281
     0
  0
CLASS
  1
SORTENTSTABLE
  2
AcDbSortentsTable
  3
AutoCAD 2000
 90
        0
280
     0
281
     0
  0
CLASS
  1
ACAD_PROXY_OBJECT_WRAPPER
  2
AcDbProxyObjectWrapper
  3
AutoCAD 2000
 90
        0
280
     0
281
     0
  0
CLASS
  1
LONG_TRANSACTION
  2
AcDbLongTransaction
  3
AutoCAD 2000
 90
        0
280
     0
281
     0
  0
CLASS
  1
LWPOLYLINE
  2
AcDbPolyline
  3
AutoCAD 2000
 90
        0
280
     0
281
     1
  0
CLASS
  1
HATCH
  2
AcDbHatch
  3
AutoCAD 2000
 90
        0
280
     0
281
     1
  0
CLASS
  1
XRECORD
  2
AcDbXrecord
  3
AutoCAD 2000
 90
        0
280
     0
281
     0
  0
ENDSEC
  0
SECTION
  2
TABLES
  0
TABLE
  2
VPORT
  5
6E
102
{ACAD_XDICTIONARY
360
1E79
102
}
330
0
100
AcDbSymbolTable
 70
     2
  0
VPORT
  5
349E
330
6E
100
AcDbSymbolTableRecord
100
AcDbViewportTableRecord
  2
*ACTIVE
 70
     0
 10
0.0
 20
0.0
 11
1.0
 21
1.0
 12
637.8801970107316
 22
283.688049053629
 13
0.0
 23
0.0
 14
10.0
 24
10.0
 15
10.0
 25
10.0
 16
0.0
 26
0.0
 36
1.0
 17
0.0
 27
0.0
 37
0.0
 40
679.9684471526944
 41
1.753504672897196
 42
50.0
 43
0.0
 44
0.0
 50
0.0
 51
0.0
 71
     0
 72
   100
 73
     1
 74
     3
 75
     0
 76
     0
 77
     0
 78
     0
  0
ENDTAB
  0
TABLE
  2
LTYPE
  5
69
330
0
100
AcDbSymbolTable
 70
     5
  0
LTYPE
  5
6A
330
69
100
AcDbSymbolTableRecord
100
AcDbLinetypeTableRecord
  2
BYBLOCK
 70
     0
  3

 72
    65
 73
     0
 40
0.0
  0
LTYPE
  5
6B
330
69
100
AcDbSymbolTableRecord
100
AcDbLinetypeTableRecord
  2
BYLAYER
 70
     0
  3

 72
    65
 73
     0
 40
0.0
  0
LTYPE
  5
8
330
69
100
AcDbSymbolTableRecord
100
AcDbLinetypeTableRecord
  2
CONTINUOUS
 70
     0
  3
Solid line
 72
    65
 73
     0
 40
0.0
  0
LTYPE
  5
27C
330
69
100
AcDbSymbolTableRecord
100
AcDbLinetypeTableRecord
  2
SEKKEI_A2_
 70
     0
  3
center(A2)  ____ _ ____ _ ____ _ ____ _ ____ _ 
 72
    65
 73
     4
 40
14.28749999999999
 49
9.525
 74
     0
 49
-1.587499999999999
 74
     0
 49
1.587499999999999
 74
     0
 49
-1.587499999999999
 74
     0
  0
LTYPE
  5
7F0
330
69
100
AcDbSymbolTableRecord
100
AcDbLinetypeTableRecord
  2
HIDDEN3
 70
     0
  3
Hidden (.3x) _ _ _ _ _ _ _ _ _ _ _ _ _ _ _ _ _
 72
    65
 73
     2
 40
2.857499999999999
 49
1.905
 74
     0
 49
-0.9525
 74
     0
  0
LTYPE
  5
ADB
330
69
100
AcDbSymbolTableRecord
100
AcDbLinetypeTableRecord
  2
CENS
 70
     0
  3
(一点鎖線１)---- - ---- - ---- - ---- - ---- - 
 72
    65
 73
     4
 40
7.0
 49
4.0
 74
     0
 49
-1.0
 74
     0
 49
1.0
 74
     0
 49
-1.0
 74
     0
  0
ENDTAB
  0
TABLE
  2
LAYER
  5
66
102
{ACAD_XDICTIONARY
360
ADC
102
}
330
0
100
AcDbSymbolTable
 70
     9
  0
LAYER
  5
5E
102
{ACAD_XDICTIONARY
360
1E5E
102
}
330
66
100
AcDbSymbolTableRecord
100
AcDbLayerTableRecord
  2
0
 70
     0
 62
     7
  6
CONTINUOUS
  0
LAYER
  5
3E
102
{ACAD_XDICTIONARY
360
1E60
102
}
330
66
100
AcDbSymbolTableRecord
100
AcDbLayerTableRecord
  2
CENTER
 70
     0
 62
     3
  6
SEKKEI_A2_
  0
LAYER
  5
2B5
102
{ACAD_XDICTIONARY
360
1E66
102
}
330
66
100
AcDbSymbolTableRecord
100
AcDbLayerTableRecord
  2
HIDS
 70
     0
 62
     1
  6
HIDDEN3
  0
LAYER
  5
2BA
102
{ACAD_XDICTIONARY
360
1E68
102
}
330
66
100
AcDbSymbolTableRecord
100
AcDbLayerTableRecord
  2
HOJO
 70
     0
 62
     4
  6
CONTINUOUS
  0
LAYER
  5
3FA
102
{ACAD_XDICTIONARY
360
1E6C
102
}
330
66
100
AcDbSymbolTableRecord
100
AcDbLayerTableRecord
  2
TITLE
 70
     0
 62
     4
  6
CONTINUOUS
  0
ENDTAB
  0
TABLE
  2
STYLE
  5
67
330
0
100
AcDbSymbolTable
 70
     1
  0
STYLE
  5
16
330
67
100
AcDbSymbolTableRecord
100
AcDbTextStyleTableRecord
  2
STANDARD
 70
     0
 40
0.0
 41
1.0
 50
0.0
 71
     0
 42
2.0
  3
simplex.shx
  4
extfont.shx
  0
ENDTAB
  0
TABLE
  2
VIEW
  5
6C
330
0
100
AcDbSymbolTable
 70
     0
  0
ENDTAB
  0
TABLE
  2
UCS
  5
6D
330
0
100
AcDbSymbolTable
 70
     0
  0
ENDTAB
  0
TABLE
  2
APPID
  5
70
330
0
100
AcDbSymbolTable
 70
     3
  0
APPID
  5
71
330
70
100
AcDbSymbolTableRecord
100
AcDbRegAppTableRecord
  2
ACAD
 70
     0
  0
APPID
  5
1E5A
330
70
100
AcDbSymbolTableRecord
100
AcDbRegAppTableRecord
  2
ACAD_MLEADERVER
 70
     0
  0
APPID
  5
1E5D
330
70
100
AcDbSymbolTableRecord
100
AcDbRegAppTableRecord
  2
ACAD_DSTYLE_DIMRADIAL_EXTENSION
 70
     0
  0
ENDTAB
  0
TABLE
  2
DIMSTYLE
  5
72
330
0
100
AcDbSymbolTable
 70
     1
  0
DIMSTYLE
105
73
330
72
100
AcDbSymbolTableRecord
100
AcDbDimStyleTableRecord
  2
STANDARD
 70
     0
  3

  4

  5

  6

  7

 40
3.0
 41
1.8
 42
0.625
 43
3.75
 44
0.8
 45
0.0
 46
0.0
 47
0.0
 48
0.0
140
1.8
141
2.5
142
0.0
143
0.0394
144
1.0
145
0.0
146
1.0
147
0.75
 71
     0
 72
     0
 73
     0
 74
     0
 75
     0
 76
     0
 77
     1
 78
     8
170
     0
171
     4
172
     1
173
     0
174
     0
175
     0
176
     0
177
     0
178
     0
270
     8
271
     2
272
     2
273
     8
274
     4
340
16
275
     0
280
     0
281
     0
282
     0
283
     1
284
     0
285
     0
286
     0
287
     3
288
     0
  0
ENDTAB
  0
TABLE
  2
BLOCK_RECORD
  5
1
330
0
100
AcDbSymbolTable
 70
    46
  0
BLOCK_RECORD
  5
2
102
{ACAD_XDICTIONARY
360
34C0
102
}
330
1
100
AcDbSymbolTableRecord
100
AcDbBlockTableRecord
  2
*MODEL_SPACE
  0
BLOCK_RECORD
  5
3499
102
{ACAD_XDICTIONARY
360
34C2
102
}
330
1
100
AcDbSymbolTableRecord
100
AcDbBlockTableRecord
  2
*PAPER_SPACE
  0
ENDTAB
  0
ENDSEC
  0
SECTION
  2
BLOCKS
  0
BLOCK
  5
5D
330
2
100
AcDbEntity
  8
0
100
AcDbBlockBegin
  2
*MODEL_SPACE
 70
     0
 10
0.0
 20
0.0
 30
0.0
  3
*MODEL_SPACE
  1

  0
ENDBLK
  5
5F
330
2
100
AcDbEntity
  8
0
100
AcDbBlockEnd
  0
BLOCK
  5
349B
330
3499
100
AcDbEntity
 67
     1
  8
0
100
AcDbBlockBegin
  2
*PAPER_SPACE
 70
     0
 10
0.0
 20
0.0
 30
0.0
  3
*PAPER_SPACE
  1

  0
ENDBLK
  5
349C
330
3499
100
AcDbEntity
 67
     1
  8
0
100
AcDbBlockEnd
  0
ENDSEC
  0
SECTION
  2
ENTITIES
  0
TEXT
  5
EF2
330
2
100
AcDbEntity
  8
TITLE
100
AcDbText
 10
360.6820235882276
 20
453.653711798496
 30
0.0
 40
7.5
  1
AFCZ22L-7~10M750S3
100
AcDbText
  0
TEXT
  5
EF3
330
2
100
AcDbEntity
  8
TITLE
100
AcDbText
 10
360.6820235882276
 20
442.153711798496
 30
0.0
 40
7.5
  1
AFCZ22L-7~10L750S3
100
AcDbText
  0
LINE
  5
2C4E
330
2
100
AcDbEntity
  8
0
100
AcDbLine
 10
230.2289441888842
 20
183.1465580983909
 30
0.0
 11
180.6065778247866
 21
183.1465580983914
 31
0.0
  0
ARC
  5
2C4F
330
2
100
AcDbEntity
  8
0
100
AcDbCircle
 10
205.4177610068327
 20
-12.35344190160287
 30
0.0
 40
200.0
100
AcDbArc
 50
84.10530161359611
 51
95.89469838640388
  0
LINE
  5
2C50
330
2
100
AcDbEntity
  8
0
100
AcDbLine
 10
230.2289441888842
 20
177.6465580983909
 30
0.0
 11
180.6065778247866
 21
177.6465580983914
 31
0.0
  0
LINE
  5
2C51
330
2
100
AcDbEntity
  8
0
100
AcDbLine
 10
180.6065778247866
 20
90.14655809840304
 30
0.0
 11
230.2289441888842
 21
90.14655809840325
 31
0.0
  0
LINE
  5
2C52
330
2
100
AcDbEntity
  8
0
100
AcDbLine
 10
180.6065778247866
 20
95.64655809840303
 30
0.0
 11
230.2289441888842
 21
95.64655809840326
 31
0.0
  0
ARC
  5
2C53
330
2
100
AcDbEntity
  8
0
100
AcDbCircle
 10
205.4177610068327
 20
285.6465580983971
 30
0.0
 40
200.0
100
AcDbArc
 50
264.1053016135961
 51
275.8946983864039
  0
LINE
  5
2C54
330
2
100
AcDbEntity
  8
CENTER
100
AcDbLine
 10
259.0243627246313
 20
83.0399563806012
 30
0.0
 11
151.8111592890377
 21
190.2531598161947
 31
0.0
  0
LINE
  5
2C55
330
2
100
AcDbEntity
  8
CENTER
100
AcDbLine
 10
151.8111592890381
 20
83.03995638059916
 30
0.0
 11
259.0243627246368
 21
190.2531598161983
 31
0.0
  0
CIRCLE
  5
2C56
330
2
100
AcDbEntity
  8
0
100
AcDbCircle
 10
205.4177610068363
 20
136.6465580983973
 30
0.0
 40
26.57735026918937
  0
CIRCLE
  5
2C57
330
2
100
AcDbEntity
  8
0
100
AcDbCircle
 10
205.4177610068363
 20
136.6465580983973
 30
0.0
 40
26.0
  0
CIRCLE
  5
2C58
330
2
100
AcDbEntity
  8
0
100
AcDbCircle
 10
205.4177610068363
 20
136.6465580983971
 30
0.0
 40
32.42260000000154
  0
CIRCLE
  5
2C59
330
2
100
AcDbEntity
  8
0
100
AcDbCircle
 10
205.4177610068363
 20
136.6465580983971
 30
0.0
 40
35.50000000000153
  0
CIRCLE
  5
2C5A
330
2
100
AcDbEntity
  8
0
100
AcDbCircle
 10
205.4177610068363
 20
136.6465580983971
 30
0.0
 40
35.00000000000153
  0
CIRCLE
  5
2C5B
330
2
100
AcDbEntity
  8
0
100
AcDbCircle
 10
205.4177610068363
 20
136.6465580983971
 30
0.0
 40
33.00000000000153
  0
LINE
  5
2C5C
330
2
100
AcDbEntity
  8
CENTER
100
AcDbLine
 10
266.4177610068331
 20
136.646558098397
 30
0.0
 11
44.41773900683847
 21
136.646558098397
 31
0.0
  0
LINE
  5
2C5D
330
2
100
AcDbEntity
  8
0
100
AcDbLine
 10
177.0710439188533
 20
97.11102419247039
 30
0.0
 11
165.8822271009085
 21
108.2998410104152
 31
0.0
  0
ARC
  5
2C5E
330
2
100
AcDbEntity
  8
0
100
AcDbCircle
 10
129.917739006838
 20
93.64655809840257
 30
0.0
 40
5.0
100
AcDbArc
 50
90.0
 51
180.0
  0
LINE
  5
2C5F
330
2
100
AcDbEntity
  8
CENTER
100
AcDbLine
 10
162.4177610068327
 20
84.89655809839666
 30
0.0
 11
162.4177610068327
 21
102.3965580983968
 31
0.0
  0
LINE
  5
2C60
330
2
100
AcDbEntity
  8
0
100
AcDbLine
 10
173.1819566223275
 20
93.22193689594417
 30
0.0
 11
161.9931398043827
 21
104.4107537138892
 31
0.0
  0
CIRCLE
  5
2C61
330
2
100
AcDbEntity
  8
0
100
AcDbCircle
 10
162.4177610068363
 20
93.64655809839689
 30
0.0
 40
4.307179676972509
  0
CIRCLE
  5
2C62
330
2
100
AcDbEntity
  8
0
100
AcDbCircle
 10
162.4177610068363
 20
93.64655809839689
 30
0.0
 40
5.000000000000113
  0
LINE
  5
2C63
330
2
100
AcDbEntity
  8
0
100
AcDbLine
 10
154.9377610068331
 20
93.64655809839621
 30
0.0
 11
154.9377610068331
 21
179.6465580983959
 31
0.0
  0
LINE
  5
2C64
330
2
100
AcDbEntity
  8
0
100
AcDbLine
 10
154.4177610068436
 20
93.64655809840234
 30
0.0
 11
154.4177610068436
 21
179.6465580983971
 31
0.0
  0
LINE
  5
2C65
330
2
100
AcDbEntity
  8
0
100
AcDbLine
 10
124.917739006838
 20
87.14655809840213
 30
0.0
 11
124.9177390068398
 21
186.1465580984028
 31
0.0
  0
LINE
  5
2C66
330
2
100
AcDbEntity
  8
CENTER
100
AcDbLine
 10
205.4177610068363
 20
75.64655809839712
 30
0.0
 11
205.4177610068363
 21
197.6465580983971
 31
0.0
  0
LINE
  5
2C67
330
2
100
AcDbEntity
  8
0
100
AcDbLine
 10
87.41773900683847
 20
89.90937842142489
 30
0.0
 11
87.41773900683847
 21
98.52373777536946
 31
0.0
  0
LINE
  5
2C68
330
2
100
AcDbEntity
  8
0
100
AcDbLine
 10
93.41773900683847
 20
99.21655809839762
 30
0.0
 11
93.41773900683847
 21
89.21655809839762
 31
0.0
  0
LINE
  5
2C69
330
2
100
AcDbEntity
  8
0
100
AcDbLine
 10
94.41773900683847
 20
89.21655809839762
 30
0.0
 11
94.41773900683847
 21
99.21655809839762
 31
0.0
  0
LINE
  5
2C6A
330
2
100
AcDbEntity
  8
0
100
AcDbLine
 10
93.41773900683847
 20
99.21655809839762
 30
0.0
 11
93.41773900683847
 21
89.21655809839762
 31
0.0
  0
LINE
  5
2C6B
330
2
100
AcDbEntity
  8
0
100
AcDbLine
 10
87.81773900683811
 20
99.21655809839762
 30
0.0
 11
87.81773900683811
 21
89.21655809839762
 31
0.0
  0
LINE
  5
2C6C
330
2
100
AcDbEntity
  8
0
100
AcDbLine
 10
54.41773900683847
 20
176.646558098397
 30
0.0
 11
54.41773900683847
 21
96.64655809839793
 31
0.0
  0
LINE
  5
2C6D
330
2
100
AcDbEntity
  8
0
100
AcDbLine
 10
94.41773900683575
 20
186.5243438709405
 30
0.0
 11
94.41773900683665
 21
86.76877232585434
 31
0.0
  0
LINE
  5
2C6E
330
2
100
AcDbEntity
  8
0
100
AcDbLine
 10
58.41773900683484
 20
176.7163783581097
 30
0.0
 11
58.41773900683666
 21
96.57673783868473
 31
0.0
  0
LINE
  5
2C6F
330
2
100
AcDbEntity
  8
0
100
AcDbLine
 10
60.41773900683484
 20
178.6465580983942
 30
0.0
 11
60.41773900683484
 21
94.64655809840065
 31
0.0
  0
LINE
  5
2C70
330
2
100
AcDbEntity
  8
0
100
AcDbLine
 10
109.4177390068384
 20
85.14655809840247
 30
0.0
 11
109.4177390068384
 21
136.6465580984024
 31
0.0
  0
LINE
  5
2C71
330
2
100
AcDbEntity
  8
0
100
AcDbLine
 10
109.417739006838
 20
85.14655809840258
 30
0.0
 11
122.917739006838
 21
85.14655809840212
 31
0.0
  0
LINE
  5
2C72
330
2
100
AcDbEntity
  8
0
100
AcDbLine
 10
109.417739006838
 20
85.64655809840258
 30
0.0
 11
122.917739006838
 21
85.64655809840212
 31
0.0
  0
LINE
  5
2C73
330
2
100
AcDbEntity
  8
0
100
AcDbLine
 10
60.41773900683847
 20
94.64655809839792
 30
0.0
 11
87.41773900683847
 21
94.4894766935015
 31
0.0
  0
LINE
  5
2C74
330
2
100
AcDbEntity
  8
0
100
AcDbLine
 10
54.41773900683847
 20
96.64655809839793
 30
0.0
 11
58.41773900683666
 21
96.57673783868473
 31
0.0
  0
LINE
  5
2C75
330
2
100
AcDbEntity
  8
0
100
AcDbLine
 10
58.41773900683666
 20
96.57673783868473
 30
0.0
 11
60.41773900683847
 21
94.64655809839792
 31
0.0
  0
LINE
  5
2C76
330
2
100
AcDbEntity
  8
CENTER
  6
CENS
100
AcDbLine
 10
114.4177390068384
 20
94.21655809839762
 30
0.0
 11
82.41773900683847
 21
94.21655809839762
 31
0.0
  0
LINE
  5
2C77
330
2
100
AcDbEntity
  8
0
100
AcDbLine
 10
109.4177390068384
 20
85.64655809839791
 30
0.0
 11
95.40901247133888
 21
85.76881040278953
 31
0.0
  0
ARC
  5
2C78
330
2
100
AcDbEntity
  8
0
100
AcDbCircle
 10
95.41773900683665
 20
86.76877232585434
 30
0.0
 40
1.0
100
AcDbArc
 50
180.0
 51
269.5000000000344
  0
LINE
  5
2C79
330
2
100
AcDbEntity
  8
0
100
AcDbLine
 10
93.41773900683847
 20
89.21655809839762
 30
0.0
 11
87.81773900683811
 21
89.21655809839762
 31
0.0
  0
LINE
  5
2C7A
330
2
100
AcDbEntity
  8
0
100
AcDbLine
 10
87.81773900683811
 20
89.21655809839718
 30
0.0
 11
87.41773900683847
 21
89.90937842142489
 31
0.0
  0
LINE
  5
2C7B
330
2
100
AcDbEntity
  8
0
100
AcDbLine
 10
93.41773900683847
 20
89.21655809839762
 30
0.0
 11
94.41773900683847
 21
89.21655809839762
 31
0.0
  0
LINE
  5
2C7C
330
2
100
AcDbEntity
  8
CENTER
100
AcDbLine
 10
153.6677610068327
 20
93.64655809839689
 30
0.0
 11
171.1677610068327
 21
93.64655809839689
 31
0.0
  0
LINE
  5
2C7D
330
2
100
AcDbEntity
  8
0
100
AcDbLine
 10
162.4177610068363
 20
96.53330944434504
 30
0.0
 11
164.9177610068363
 21
95.08993377137073
 31
0.0
  0
LINE
  5
2C7E
330
2
100
AcDbEntity
  8
0
100
AcDbLine
 10
164.9177610068363
 20
92.20318242542282
 30
0.0
 11
162.4177610068363
 21
90.75980675244876
 31
0.0
  0
LINE
  5
2C7F
330
2
100
AcDbEntity
  8
0
100
AcDbLine
 10
162.4177610068363
 20
85.64655809839711
 30
0.0
 11
165.4177610068363
 21
85.64655809839758
 31
0.0
  0
LINE
  5
2C80
330
2
100
AcDbEntity
  8
0
100
AcDbLine
 10
162.4177610068309
 20
85.64655809839758
 30
0.0
 11
165.4177610068327
 21
85.64655809839758
 31
0.0
  0
ARC
  5
2C81
330
2
100
AcDbEntity
  8
0
100
AcDbCircle
 10
122.917739006838
 20
87.64655809840212
 30
0.0
 40
2.0
100
AcDbArc
 50
270.0
 51
0.0
  0
ARC
  5
2C82
330
2
100
AcDbEntity
  8
0
100
AcDbCircle
 10
122.917739006838
 20
87.14655809840213
 30
0.0
 40
2.0
100
AcDbArc
 50
270.0
 51
0.0
  0
ARC
  5
2C83
330
2
100
AcDbEntity
  8
0
100
AcDbCircle
 10
162.4177610068363
 20
93.64655809839712
 30
0.0
 40
8.0
100
AcDbArc
 50
180.0
 51
270.0
  0
ARC
  5
2C84
330
2
100
AcDbEntity
  8
0
100
AcDbCircle
 10
162.4177610068327
 20
93.64655809840281
 30
0.0
 40
8.0
100
AcDbArc
 50
180.0
 51
270.0
  0
ARC
  5
2C85
330
2
100
AcDbEntity
  8
0
100
AcDbCircle
 10
162.9377610068331
 20
93.64655809839621
 30
0.0
 40
8.0
100
AcDbArc
 50
179.9999999999739
 51
270.0
  0
LINE
  5
2C86
330
2
100
AcDbEntity
  8
0
100
AcDbLine
 10
154.4177610068363
 20
96.64655809839963
 30
0.0
 11
154.4177610068363
 21
93.64655809839712
 31
0.0
  0
LINE
  5
2C87
330
2
100
AcDbEntity
  8
0
100
AcDbLine
 10
162.4177610068363
 20
96.53330944434504
 30
0.0
 11
159.9177610068363
 21
95.08993377137096
 31
0.0
  0
LINE
  5
2C88
330
2
100
AcDbEntity
  8
0
100
AcDbLine
 10
159.9177610068363
 20
92.20318242542282
 30
0.0
 11
162.4177610068363
 21
90.75980675244876
 31
0.0
  0
LINE
  5
2C89
330
2
100
AcDbEntity
  8
0
100
AcDbLine
 10
159.9177610068363
 20
92.20318242542282
 30
0.0
 11
159.9177610068363
 21
95.08993377137096
 31
0.0
  0
ARC
  5
2C8A
330
2
100
AcDbEntity
  8
0
100
AcDbCircle
 10
178.7156320765079
 20
27.02135377641286
 30
0.0
 40
60.0
100
AcDbArc
 50
84.10530161359611
 51
101.8050678104414
  0
ARC
  5
2C8B
330
2
100
AcDbEntity
  8
0
100
AcDbCircle
 10
165.4177610068363
 20
90.64655809839758
 30
0.0
 40
5.0
100
AcDbArc
 50
270.0
 51
281.8050678104415
  0
ARC
  5
2C8C
330
2
100
AcDbEntity
  8
0
100
AcDbCircle
 10
165.4177610068327
 20
90.64655809839758
 30
0.0
 40
5.0
100
AcDbArc
 50
270.0
 51
281.8050678104415
  0
ARC
  5
2C8D
330
2
100
AcDbEntity
  8
0
100
AcDbCircle
 10
180.6065778247866
 20
100.646558098403
 30
0.0
 40
10.5
100
AcDbArc
 50
224.9999999999908
 51
270.0
  0
LINE
  5
2C8E
330
2
100
AcDbEntity
  8
0
100
AcDbLine
 10
164.9177610068363
 20
92.20318242542282
 30
0.0
 11
164.9177610068363
 21
95.08993377137073
 31
0.0
  0
ARC
  5
2C8F
330
2
100
AcDbEntity
  8
0
100
AcDbCircle
 10
180.6065778247866
 20
100.646558098403
 30
0.0
 40
5.0
100
AcDbArc
 50
224.9999999999908
 51
270.0
  0
LINE
  5
2C90
330
2
100
AcDbEntity
  8
0
100
AcDbLine
 10
176.588401784953
 20
90.94582300703439
 30
0.0
 11
178.6931606629605
 21
96.02716043584644
 31
0.0
  0
LINE
  5
2C91
330
2
100
AcDbEntity
  8
0
100
AcDbLine
 10
164.9177610068345
 20
178.2031824254237
 30
0.0
 11
164.9177610068345
 21
181.0899337713716
 31
0.0
  0
LINE
  5
2C92
330
2
100
AcDbEntity
  8
0
100
AcDbLine
 10
176.588401784953
 20
182.3472931897598
 30
0.0
 11
178.6931606629605
 21
177.2659557609478
 31
0.0
  0
LINE
  5
2C93
330
2
100
AcDbEntity
  8
0
100
AcDbLine
 10
154.4177610068363
 20
179.6465580983971
 30
0.0
 11
154.4177610068363
 21
176.6465580983996
 31
0.0
  0
LINE
  5
2C94
330
2
100
AcDbEntity
  8
0
100
AcDbLine
 10
159.9177610068363
 20
178.2031824254237
 30
0.0
 11
159.9177610068363
 21
181.0899337713718
 31
0.0
  0
ARC
  5
2C95
330
2
100
AcDbEntity
  8
0
100
AcDbCircle
 10
129.917739006838
 20
179.6465580984023
 30
0.0
 40
5.0
100
AcDbArc
 50
180.0
 51
270.0
  0
LINE
  5
2C96
330
2
100
AcDbEntity
  8
CENTER
100
AcDbLine
 10
162.4177610068345
 20
188.3965580984005
 30
0.0
 11
162.4177610068345
 21
170.8965580984005
 31
0.0
  0
CIRCLE
  5
2C97
330
2
100
AcDbEntity
  8
0
100
AcDbCircle
 10
162.4177610068345
 20
179.6465580983977
 30
0.0
 40
4.307179676972509
  0
CIRCLE
  5
2C98
330
2
100
AcDbEntity
  8
0
100
AcDbCircle
 10
162.4177610068345
 20
179.6465580983977
 30
0.0
 40
5.000000000000113
  0
LINE
  5
2C99
330
2
100
AcDbEntity
  8
0
100
AcDbLine
 10
161.9931398043827
 20
168.882362482905
 30
0.0
 11
173.1819566223275
 21
180.07117930085
 31
0.0
  0
LINE
  5
2C9A
330
2
100
AcDbEntity
  8
CENTER
  6
CENS
100
AcDbLine
 10
68.41773900683847
 20
187.5889579719153
 30
0.0
 11
68.41773900683847
 21
164.2290319695485
 31
0.0
  0
ARC
  5
2C9B
330
2
100
AcDbEntity
  8
0
100
AcDbCircle
 10
63.41782193870177
 20
178.6643029634444
 30
0.0
 40
4.000000000000014
100
AcDbArc
 50
90.32999999998626
 51
180.3299999999992
  0
LINE
  5
2C9C
330
2
100
AcDbEntity
  8
0
100
AcDbLine
 10
87.41773900683847
 20
183.38373777537
 30
0.0
 11
87.41773900683847
 21
174.769378421425
 31
0.0
  0
LINE
  5
2C9D
330
2
100
AcDbEntity
  8
0
100
AcDbLine
 10
93.41773900683847
 20
174.0765580983973
 30
0.0
 11
93.41773900683847
 21
184.0765580983973
 31
0.0
  0
LINE
  5
2C9E
330
2
100
AcDbEntity
  8
0
100
AcDbLine
 10
94.41773900683847
 20
184.0765580983973
 30
0.0
 11
94.41773900683847
 21
174.0765580983973
 31
0.0
  0
LINE
  5
2C9F
330
2
100
AcDbEntity
  8
0
100
AcDbLine
 10
93.41773900683847
 20
174.0765580983973
 30
0.0
 11
93.41773900683847
 21
184.0765580983973
 31
0.0
  0
LINE
  5
2CA0
330
2
100
AcDbEntity
  8
0
100
AcDbLine
 10
87.81773900683811
 20
174.0765580983973
 30
0.0
 11
87.81773900683811
 21
184.0765580983973
 31
0.0
  0
LINE
  5
2CA1
330
2
100
AcDbEntity
  8
0
100
AcDbLine
 10
59.41789133415523
 20
178.6407411548004
 30
0.0
 11
87.41773900683847
 21
178.8036395032925
 31
0.0
  0
LINE
  5
2CA2
330
2
100
AcDbEntity
  8
0
100
AcDbLine
 10
109.4177390068384
 20
188.1465580984027
 30
0.0
 11
109.4177390068384
 21
136.6465580984024
 31
0.0
  0
LINE
  5
2CA3
330
2
100
AcDbEntity
  8
0
100
AcDbLine
 10
87.81773900683811
 20
99.21655809839762
 30
0.0
 11
93.41773900683847
 21
99.21655809839762
 31
0.0
  0
LINE
  5
2CA4
330
2
100
AcDbEntity
  8
0
100
AcDbLine
 10
87.81773900683811
 20
99.21655809839762
 30
0.0
 11
87.41773900683847
 21
98.52373777536946
 31
0.0
  0
LINE
  5
2CA5
330
2
100
AcDbEntity
  8
0
100
AcDbLine
 10
94.41773900683847
 20
99.21655809839762
 30
0.0
 11
93.41773900683847
 21
99.21655809839762
 31
0.0
  0
LINE
  5
2CA6
330
2
100
AcDbEntity
  8
0
100
AcDbLine
 10
54.41773900683847
 20
176.646558098397
 30
0.0
 11
58.41773900683484
 21
176.7163783581097
 31
0.0
  0
LINE
  5
2CA7
330
2
100
AcDbEntity
  8
0
100
AcDbLine
 10
58.41773900683484
 20
176.7163783581097
 30
0.0
 11
60.41773900683484
 21
178.6465580983942
 31
0.0
  0
LINE
  5
2CA8
330
2
100
AcDbEntity
  8
0
100
AcDbLine
 10
87.81773900683811
 20
174.0765580983973
 30
0.0
 11
93.41773900683847
 21
174.0765580983973
 31
0.0
  0
LINE
  5
2CA9
330
2
100
AcDbEntity
  8
0
100
AcDbLine
 10
87.81773900683811
 20
174.0765580983973
 30
0.0
 11
87.41773900683847
 21
174.769378421425
 31
0.0
  0
LINE
  5
2CAA
330
2
100
AcDbEntity
  8
0
100
AcDbLine
 10
94.41773900683847
 20
174.0765580983973
 30
0.0
 11
93.41773900683847
 21
174.0765580983973
 31
0.0
  0
LINE
  5
2CAB
330
2
100
AcDbEntity
  8
0
100
AcDbLine
 10
153.9177610068345
 20
128.9654123505375
 30
0.0
 11
153.9177610068363
 21
144.3277038462566
 31
0.0
  0
LINE
  5
2CAC
330
2
100
AcDbEntity
  8
0
100
AcDbLine
 10
158.9177610068418
 20
161.4577412804461
 30
0.0
 11
158.9177610068418
 21
111.835374916348
 31
0.0
  0
LINE
  5
2CAD
330
2
100
AcDbEntity
  8
0
100
AcDbLine
 10
164.4177610068418
 20
161.4577412804461
 30
0.0
 11
164.4177610068418
 21
111.8353749163478
 31
0.0
  0
LINE
  5
2CAE
330
2
100
AcDbEntity
  8
0
100
AcDbLine
 10
133.917739006838
 20
172.6465580984021
 30
0.0
 11
133.917739006838
 21
100.6465580983925
 31
0.0
  0
LINE
  5
2CAF
330
2
100
AcDbEntity
  8
0
100
AcDbLine
 10
159.7170259154736
 20
107.8171988765149
 30
0.0
 11
164.7983633442854
 21
109.9219577545226
 31
0.0
  0
LINE
  5
2CB0
330
2
100
AcDbEntity
  8
0
100
AcDbLine
 10
135.7907443530457
 20
101.6465580983944
 30
0.0
 11
152.4177610068436
 21
101.6465580983941
 31
0.0
  0
LINE
  5
2CB1
330
2
100
AcDbEntity
  8
0
100
AcDbLine
 10
149.4177610068381
 20
106.6465580983966
 30
0.0
 11
138.9177390068361
 21
106.6465580983973
 31
0.0
  0
ARC
  5
2CB2
330
2
100
AcDbEntity
  8
0
100
AcDbCircle
 10
138.9177390068343
 20
101.6465580983971
 30
0.0
 40
5.0
100
AcDbArc
 50
90.0
 51
180.0
  0
LINE
  5
2CB3
330
2
100
AcDbEntity
  8
0
100
AcDbLine
 10
131.9177390068343
 20
98.64655809839735
 30
0.0
 11
129.917739006838
 21
98.64655809839758
 31
0.0
  0
ARC
  5
2CB4
330
2
100
AcDbEntity
  8
0
100
AcDbCircle
 10
131.9177390068343
 20
100.6465580983925
 30
0.0
 40
2.0
100
AcDbArc
 50
270.0
 51
0.0
  0
ARC
  5
2CB5
330
2
100
AcDbEntity
  8
0
100
AcDbCircle
 10
135.7907443530457
 20
99.6465580983944
 30
0.0
 40
2.0
100
AcDbArc
 50
90.0
 51
165.5224878140357
  0
ARC
  5
2CB6
330
2
100
AcDbEntity
  8
0
100
AcDbCircle
 10
149.4177610068381
 20
101.6465580983966
 30
0.0
 40
5.0
100
AcDbArc
 50
0.0
 51
90.0
  0
ARC
  5
2CB7
330
2
100
AcDbEntity
  8
0
100
AcDbCircle
 10
169.4177610068418
 20
111.835374916348
 30
0.0
 40
10.5
100
AcDbArc
 50
180.0
 51
224.9999999999908
  0
ARC
  5
2CB8
330
2
100
AcDbEntity
  8
0
100
AcDbCircle
 10
152.4177610068436
 20
99.64655809839417
 30
0.0
 40
2.0
100
AcDbArc
 50
0.0
 51
90.0
  0
LINE
  5
2CB9
330
2
100
AcDbEntity
  8
0
100
AcDbLine
 10
133.917739006838
 20
128.9654123505375
 30
0.0
 11
154.4177610068418
 21
128.9654123505375
 31
0.0
  0
ARC
  5
2CBA
330
2
100
AcDbEntity
  8
0
100
AcDbCircle
 10
169.4177610068418
 20
111.8353749163478
 30
0.0
 40
5.0
100
AcDbArc
 50
180.0
 51
224.9999999999908
  0
LINE
  5
2CBB
330
2
100
AcDbEntity
  8
CENTER
100
AcDbLine
 10
154.744555926085
 20
171.1465580983973
 30
0.0
 11
165.0909660875986
 21
171.1465580983973
 31
0.0
  0
LINE
  5
2CBC
330
2
100
AcDbEntity
  8
0
100
AcDbLine
 10
164.9177610068345
 20
178.2031824254237
 30
0.0
 11
162.4177610068363
 21
176.7598067524496
 31
0.0
  0
LINE
  5
2CBD
330
2
100
AcDbEntity
  8
0
100
AcDbLine
 10
159.7170259154736
 20
165.4759173202793
 30
0.0
 11
164.7983633442854
 21
163.3711584422713
 31
0.0
  0
LINE
  5
2CBE
330
2
100
AcDbEntity
  8
0
100
AcDbLine
 10
133.917739006838
 20
144.3277038462569
 30
0.0
 11
154.4177610068418
 21
144.3277038462564
 31
0.0
  0
LINE
  5
2CBF
330
2
100
AcDbEntity
  8
0
100
AcDbLine
 10
135.7907443530439
 20
171.6465580983941
 30
0.0
 11
152.4177610068436
 21
171.6465580983941
 31
0.0
  0
LINE
  5
2CC0
330
2
100
AcDbEntity
  8
0
100
AcDbLine
 10
149.4177610068381
 20
166.6465580983971
 30
0.0
 11
138.917739006838
 21
166.6465580983971
 31
0.0
  0
ARC
  5
2CC1
330
2
100
AcDbEntity
  8
0
100
AcDbCircle
 10
138.917739006838
 20
171.6465580983971
 30
0.0
 40
5.0
100
AcDbArc
 50
180.0
 51
270.0
  0
LINE
  5
2CC2
330
2
100
AcDbEntity
  8
0
100
AcDbLine
 10
131.917739006838
 20
174.646558098403
 30
0.0
 11
129.9177390068362
 21
174.6465580984034
 31
0.0
  0
ARC
  5
2CC3
330
2
100
AcDbEntity
  8
0
100
AcDbCircle
 10
135.7907443530439
 20
173.6465580983941
 30
0.0
 40
2.0
100
AcDbArc
 50
194.4775121859642
 51
270.0
  0
ARC
  5
2CC4
330
2
100
AcDbEntity
  8
0
100
AcDbCircle
 10
131.917739006838
 20
172.6465580984021
 30
0.0
 40
2.0
100
AcDbArc
 50
0.0
 51
89.99999999994789
  0
ARC
  5
2CC5
330
2
100
AcDbEntity
  8
0
100
AcDbCircle
 10
149.4177610068381
 20
171.6465580983971
 30
0.0
 40
5.0
100
AcDbArc
 50
270.0
 51
0.0
  0
LINE
  5
2CC6
330
2
100
AcDbEntity
  8
CENTER
100
AcDbLine
 10
159.9177610068418
 20
176.3197631791543
 30
0.0
 11
159.9177610068418
 21
165.9733530176403
 31
0.0
  0
ARC
  5
2CC7
330
2
100
AcDbEntity
  8
0
100
AcDbCircle
 10
169.4177610068418
 20
161.4577412804461
 30
0.0
 40
10.5
100
AcDbArc
 50
135.0000000000092
 51
180.0
  0
ARC
  5
2CC8
330
2
100
AcDbEntity
  8
0
100
AcDbCircle
 10
152.4177610068436
 20
173.6465580983941
 30
0.0
 40
2.0
100
AcDbArc
 50
270.0
 51
0.0
  0
LINE
  5
2CC9
330
2
100
AcDbEntity
  8
0
100
AcDbLine
 10
159.9177610068363
 20
178.2031824254237
 30
0.0
 11
162.4177610068363
 21
176.7598067524496
 31
0.0
  0
CIRCLE
  5
2CCA
330
2
100
AcDbEntity
  8
0
100
AcDbCircle
 10
159.9177610068418
 20
171.1465580983973
 30
0.0
 40
1.6
  0
CIRCLE
  5
2CCB
330
2
100
AcDbEntity
  8
HOJO
100
AcDbCircle
 10
159.9177610068418
 20
171.1465580983973
 30
0.0
 40
2.0
  0
LINE
  5
2CCC
330
2
100
AcDbEntity
  8
0
100
AcDbLine
 10
165.8822271009085
 20
164.993275186379
 30
0.0
 11
177.0710439188533
 21
176.182092004324
 31
0.0
  0
ARC
  5
2CCD
330
2
100
AcDbEntity
  8
0
100
AcDbCircle
 10
169.4177610068418
 20
161.4577412804461
 30
0.0
 40
5.0
100
AcDbArc
 50
135.0000000000092
 51
180.0
  0
ARC
  5
2CCE
330
2
100
AcDbEntity
  8
0
100
AcDbCircle
 10
180.6065778247866
 20
172.6465580983914
 30
0.0
 40
5.0
100
AcDbArc
 50
90.0
 51
135.0000000000092
  0
LINE
  5
2CCF
330
2
100
AcDbEntity
  8
0
100
AcDbLine
 10
109.417739006838
 20
188.1465580984025
 30
0.0
 11
122.9177390068398
 21
188.146558098403
 31
0.0
  0
LINE
  5
2CD0
330
2
100
AcDbEntity
  8
0
100
AcDbLine
 10
109.417739006838
 20
187.6465580984025
 30
0.0
 11
122.9177390068398
 21
187.646558098403
 31
0.0
  0
ARC
  5
2CD1
330
2
100
AcDbEntity
  8
0
100
AcDbCircle
 10
73.41765607497518
 20
178.7218985103247
 30
0.0
 40
4.000000000000014
100
AcDbArc
 50
0.3299999999992419
 51
90.32999999998626
  0
LINE
  5
2CD2
330
2
100
AcDbEntity
  8
0
100
AcDbLine
 10
63.39478371994892
 20
182.6642366179542
 30
0.0
 11
73.39461785622233
 21
182.721832164834
 31
0.0
  0
LINE
  5
2CD3
330
2
100
AcDbEntity
  8
CENTER
  6
CENS
100
AcDbLine
 10
114.4177390068384
 20
179.0765580983973
 30
0.0
 11
82.41773900683847
 21
179.0765580983973
 31
0.0
  0
LINE
  5
2CD4
330
2
100
AcDbEntity
  8
0
100
AcDbLine
 10
109.4177390068384
 20
187.646558098397
 30
0.0
 11
95.40901247133888
 21
187.5243057940044
 31
0.0
  0
LINE
  5
2CD5
330
2
100
AcDbEntity
  8
0
100
AcDbLine
 10
93.41773900683847
 20
184.0765580983973
 30
0.0
 11
87.81773900683811
 21
184.0765580983973
 31
0.0
  0
LINE
  5
2CD6
330
2
100
AcDbEntity
  8
0
100
AcDbLine
 10
87.81773900683811
 20
184.0765580983973
 30
0.0
 11
87.41773900683847
 21
183.38373777537
 31
0.0
  0
LINE
  5
2CD7
330
2
100
AcDbEntity
  8
0
100
AcDbLine
 10
93.41773900683847
 20
184.0765580983973
 30
0.0
 11
94.41773900683847
 21
184.0765580983973
 31
0.0
  0
ARC
  5
2CD8
330
2
100
AcDbEntity
  8
0
100
AcDbCircle
 10
95.41773900683848
 20
186.5243438709405
 30
0.0
 40
1.0
100
AcDbArc
 50
90.49999999996552
 51
180.0
  0
LINE
  5
2CD9
330
2
100
AcDbEntity
  8
CENTER
100
AcDbLine
 10
153.6677610068345
 20
179.6465580984005
 30
0.0
 11
171.1677610068345
 21
179.6465580984005
 31
0.0
  0
LINE
  5
2CDA
330
2
100
AcDbEntity
  8
0
100
AcDbLine
 10
162.4177610068345
 20
182.5333094443459
 30
0.0
 11
164.9177610068345
 21
181.0899337713716
 31
0.0
  0
LINE
  5
2CDB
330
2
100
AcDbEntity
  8
0
100
AcDbLine
 10
162.4177610068363
 20
187.6465580983971
 30
0.0
 11
165.4177610068363
 21
187.6465580983971
 31
0.0
  0
LINE
  5
2CDC
330
2
100
AcDbEntity
  8
0
100
AcDbLine
 10
165.4177610068327
 20
187.6465580983971
 30
0.0
 11
162.4177610068436
 21
187.6465580983971
 31
0.0
  0
ARC
  5
2CDD
330
2
100
AcDbEntity
  8
0
100
AcDbCircle
 10
122.9177390068398
 20
186.146558098403
 30
0.0
 40
2.0
100
AcDbArc
 50
0.0
 51
90.0
  0
ARC
  5
2CDE
330
2
100
AcDbEntity
  8
0
100
AcDbCircle
 10
122.9177390068398
 20
185.646558098403
 30
0.0
 40
2.0
100
AcDbArc
 50
0.0
 51
90.0
  0
ARC
  5
2CDF
330
2
100
AcDbEntity
  8
0
100
AcDbCircle
 10
162.4177610068363
 20
179.6465580983971
 30
0.0
 40
8.0
100
AcDbArc
 50
90.0
 51
180.0
  0
ARC
  5
2CE0
330
2
100
AcDbEntity
  8
0
100
AcDbCircle
 10
162.4177610068436
 20
179.6465580983971
 30
0.0
 40
8.0
100
AcDbArc
 50
90.0
 51
180.0
  0
ARC
  5
2CE1
330
2
100
AcDbEntity
  8
0
100
AcDbCircle
 10
162.9377610068395
 20
179.6465580983959
 30
0.0
 40
8.0
100
AcDbArc
 50
90.0
 51
179.9999999999739
  0
LINE
  5
2CE2
330
2
100
AcDbEntity
  8
0
100
AcDbLine
 10
162.4177610068345
 20
182.5333094443459
 30
0.0
 11
159.9177610068363
 21
181.0899337713718
 31
0.0
  0
ARC
  5
2CE3
330
2
100
AcDbEntity
  8
0
100
AcDbCircle
 10
178.7156320765079
 20
246.2717624203818
 30
0.0
 40
60.0
100
AcDbArc
 50
258.1949321895585
 51
275.8946983864039
  0
ARC
  5
2CE4
330
2
100
AcDbEntity
  8
0
100
AcDbCircle
 10
180.6065778247866
 20
172.6465580983914
 30
0.0
 40
10.5
100
AcDbArc
 50
90.0
 51
135.0000000000092
  0
ARC
  5
2CE5
330
2
100
AcDbEntity
  8
0
100
AcDbCircle
 10
165.4177610068363
 20
182.6465580983971
 30
0.0
 40
5.0
100
AcDbArc
 50
78.19493218950483
 51
90.0
  0
ARC
  5
2CE6
330
2
100
AcDbEntity
  8
0
100
AcDbCircle
 10
165.4177610068327
 20
182.6465580983971
 30
0.0
 40
5.0
100
AcDbArc
 50
78.19493218955852
 51
90.0
  0
LINE
  5
2CE7
330
2
100
AcDbEntity
  8
0
100
AcDbLine
 10
432.837731189506
 20
91.64655809839997
 30
0.0
 11
432.837731189506
 21
181.6465580983995
 31
0.0
  0
LINE
  5
2CE8
330
2
100
AcDbEntity
  8
0
100
AcDbLine
 10
427.837731189506
 20
86.36652469114734
 30
0.0
 11
427.837731189506
 21
186.9265915056471
 31
0.0
  0
LINE
  5
2CE9
330
2
100
AcDbEntity
  8
CENTER
100
AcDbLine
 10
374.8377311895005
 20
198.1465580983898
 30
0.0
 11
374.8377311895005
 21
75.14655809839098
 31
0.0
  0
LINE
  5
2CEB
330
2
100
AcDbEntity
  8
HIDS
100
AcDbLine
 10
332.3377311895205
 20
96.47498522313709
 30
0.0
 11
332.3377311895078
 21
98.646558098382
 31
0.0
  0
LINE
  5
2CEC
330
2
100
AcDbEntity
  8
0
100
AcDbLine
 10
330.7377311895074
 20
88.64655809838177
 30
0.0
 11
330.7377311895093
 21
98.646558098382
 31
0.0
  0
LINE
  5
2CED
330
2
100
AcDbEntity
  8
0
100
AcDbLine
 10
330.3377311895096
 20
89.33937842140972
 30
0.0
 11
330.3377311895078
 21
97.95373777535429
 31
0.0
  0
LINE
  5
2CEE
330
2
100
AcDbEntity
  8
0
100
AcDbLine
 10
336.3377311895096
 20
88.64655809838177
 30
0.0
 11
336.3377311895096
 21
98.64655809838177
 31
0.0
  0
CIRCLE
  5
2CEF
330
2
100
AcDbEntity
  8
0
100
AcDbCircle
 10
248.4177610068381
 20
93.64655809839394
 30
0.0
 40
4.307179676972509
  0
CIRCLE
  5
2CF0
330
2
100
AcDbEntity
  8
0
100
AcDbCircle
 10
248.4177610068381
 20
93.64655809839394
 30
0.0
 40
5.000000000000113
  0
ARC
  5
2CF1
330
2
100
AcDbEntity
  8
0
100
AcDbCircle
 10
251.4177610068327
 20
96.64655809839713
 30
0.0
 40
5.0
100
AcDbArc
 50
0.0
 51
11.805067810467
  0
LINE
  5
2CF2
330
2
100
AcDbEntity
  8
CENTER
100
AcDbLine
 10
248.4177610068363
 20
84.89655809839394
 30
0.0
 11
248.4177610068363
 21
102.3965580983941
 31
0.0
  0
LINE
  5
2CF3
330
2
100
AcDbEntity
  8
0
100
AcDbLine
 10
248.8423822092881
 20
104.4107537138889
 30
0.0
 11
237.6535653913433
 21
93.2219368959444
 31
0.0
  0
LINE
  5
2CF4
330
2
100
AcDbEntity
  8
0
100
AcDbLine
 10
244.9532949127624
 20
108.2998410104152
 30
0.0
 11
233.7644780948175
 21
97.11102419247039
 31
0.0
  0
LINE
  5
2CF5
330
2
100
AcDbEntity
  8
CENTER
100
AcDbLine
 10
250.9177610068327
 20
96.97335301763985
 30
0.0
 11
250.9177610068327
 21
107.3197631791539
 31
0.0
  0
LINE
  5
2CF6
330
2
100
AcDbEntity
  8
0
100
AcDbLine
 10
337.8377311895078
 20
185.5984843349281
 30
0.0
 11
337.8377311895078
 21
87.69463202801899
 31
0.0
  0
LINE
  5
2CF7
330
2
100
AcDbEntity
  8
0
100
AcDbLine
 10
345.337731189506
 20
85.64655809839814
 30
0.0
 11
345.337731189506
 21
187.6421946645127
 31
0.0
  0
LINE
  5
2CF8
330
2
100
AcDbEntity
  8
0
100
AcDbLine
 10
323.8377311895133
 20
93.56851118411624
 30
0.0
 11
323.8377311895133
 21
179.7246050126646
 31
0.0
  0
LINE
  5
2CF9
330
2
100
AcDbEntity
  8
0
100
AcDbLine
 10
374.8377311895133
 20
85.14655809839087
 30
0.0
 11
417.9161587930452
 21
85.56889562391507
 31
0.0
  0
LINE
  5
2CFA
330
2
100
AcDbEntity
  8
0
100
AcDbLine
 10
426.837731189506
 20
96.64655809837995
 30
0.0
 11
345.337731189506
 21
96.64655809837995
 31
0.0
  0
LINE
  5
2CFB
330
2
100
AcDbEntity
  8
0
100
AcDbLine
 10
426.837731189506
 20
93.64655809838245
 30
0.0
 11
345.337731189506
 21
93.64655809838245
 31
0.0
  0
LINE
  5
2CFC
330
2
100
AcDbEntity
  8
0
100
AcDbLine
 10
345.3377311895096
 20
85.64655809839814
 30
0.0
 11
427.837731189506
 21
86.36652469114734
 31
0.0
  0
LINE
  5
2CFD
330
2
100
AcDbEntity
  8
0
100
AcDbLine
 10
248.4177610068381
 20
96.53330944434209
 30
0.0
 11
250.9177610068381
 21
95.08993377136778
 31
0.0
  0
LINE
  5
2CFE
330
2
100
AcDbEntity
  8
0
100
AcDbLine
 10
250.9177610068381
 20
92.20318242541987
 30
0.0
 11
248.41776100684
 21
90.75980675244579
 31
0.0
  0
LINE
  5
2CFF
330
2
100
AcDbEntity
  8
CENTER
100
AcDbLine
 10
257.1677610068363
 20
93.64655809839394
 30
0.0
 11
239.6677610068363
 21
93.64655809839394
 31
0.0
  0
ARC
  5
2D00
330
2
100
AcDbEntity
  8
0
100
AcDbCircle
 10
248.4177610068363
 20
93.64655809840257
 30
0.0
 40
8.0
100
AcDbArc
 50
270.0
 51
0.0
  0
ARC
  5
2D01
330
2
100
AcDbEntity
  8
0
100
AcDbCircle
 10
232.1198899371574
 20
27.02135377641286
 30
0.0
 40
60.0
100
AcDbArc
 50
78.19493218955852
 51
95.89469838640388
  0
ARC
  5
2D02
330
2
100
AcDbEntity
  8
0
100
AcDbCircle
 10
245.4177610068327
 20
90.64655809839711
 30
0.0
 40
5.0
100
AcDbArc
 50
258.1949321895585
 51
270.0
  0
LINE
  5
2D03
330
2
100
AcDbEntity
  8
0
100
AcDbLine
 10
248.4177610068327
 20
85.64655809839758
 30
0.0
 11
245.4177610068327
 21
85.64655809839711
 31
0.0
  0
LINE
  5
2D04
330
2
100
AcDbEntity
  8
0
100
AcDbLine
 10
234.2471202287179
 20
90.94582300703416
 30
0.0
 11
232.1423613507104
 21
96.02716043584644
 31
0.0
  0
ARC
  5
2D05
330
2
100
AcDbEntity
  8
0
100
AcDbCircle
 10
230.2289441888842
 20
100.6465580984032
 30
0.0
 40
5.0
100
AcDbArc
 50
270.0
 51
315.0000000000092
  0
ARC
  5
2D06
330
2
100
AcDbEntity
  8
0
100
AcDbCircle
 10
230.2289441888842
 20
100.6465580984032
 30
0.0
 40
10.5
100
AcDbArc
 50
270.0
 51
315.0000000000092
  0
LINE
  5
2D07
330
2
100
AcDbEntity
  8
0
100
AcDbLine
 10
248.4177610068381
 20
96.53330944434209
 30
0.0
 11
245.91776100684
 21
95.08993377136802
 31
0.0
  0
LINE
  5
2D08
330
2
100
AcDbEntity
  8
0
100
AcDbLine
 10
245.91776100684
 20
92.20318242541987
 30
0.0
 11
248.41776100684
 21
90.75980675244579
 31
0.0
  0
LINE
  5
2D09
330
2
100
AcDbEntity
  8
0
100
AcDbLine
 10
245.91776100684
 20
92.20318242541987
 30
0.0
 11
245.91776100684
 21
95.08993377136802
 31
0.0
  0
LINE
  5
2D0A
330
2
100
AcDbEntity
  8
0
100
AcDbLine
 10
250.9177610068381
 20
92.20318242541987
 30
0.0
 11
250.9177610068381
 21
95.08993377136778
 31
0.0
  0
LINE
  5
2D0B
330
2
100
AcDbEntity
  8
0
100
AcDbLine
 10
256.4177610068327
 20
93.64655809839735
 30
0.0
 11
256.4177610068327
 21
96.64655809839485
 31
0.0
  0
LINE
  5
2D0C
330
2
100
AcDbEntity
  8
CENTER
100
AcDbLine
 10
325.3377311895096
 20
93.646558098382
 30
0.0
 11
351.4030569747706
 21
93.646558098382
 31
0.0
  0
LINE
  5
2D0D
330
2
100
AcDbEntity
  8
HIDS
100
AcDbLine
 10
337.2519447518811
 20
90.73234453603459
 30
0.0
 11
332.9235176271472
 21
95.06077166076329
 31
0.0
  0
LINE
  5
2D0E
330
2
100
AcDbEntity
  8
0
100
AcDbLine
 10
336.3377311895078
 20
88.64655809838177
 30
0.0
 11
337.8377311895078
 21
88.64655809838177
 31
0.0
  0
LINE
  5
2D0F
330
2
100
AcDbEntity
  8
0
100
AcDbLine
 10
374.8377311895133
 20
85.14655809839087
 30
0.0
 11
331.7593035859831
 21
85.56889562391598
 31
0.0
  0
ARC
  5
2D10
330
2
100
AcDbEntity
  8
0
100
AcDbCircle
 10
331.8377311895133
 20
93.56851118411624
 30
0.0
 40
8.0
100
AcDbArc
 50
180.0
 51
269.4382946674161
  0
ARC
  5
2D11
330
2
100
AcDbEntity
  8
HIDS
100
AcDbCircle
 10
334.3377311895205
 20
96.47498522313709
 30
0.0
 40
2.0
100
AcDbArc
 50
180.0
 51
225.0000000000644
  0
LINE
  5
2D12
330
2
100
AcDbEntity
  8
0
100
AcDbLine
 10
330.7377311895093
 20
88.64655809838177
 30
0.0
 11
330.3377311895096
 21
89.33937842140972
 31
0.0
  0
LINE
  5
2D13
330
2
100
AcDbEntity
  8
0
100
AcDbLine
 10
336.3377311895096
 20
88.64655809838177
 30
0.0
 11
330.7377311895093
 21
88.64655809838177
 31
0.0
  0
ARC
  5
2D14
330
2
100
AcDbEntity
  8
0
100
AcDbCircle
 10
339.8377311895078
 20
87.69463202801899
 30
0.0
 40
2.0
100
AcDbArc
 50
180.0
 51
269.4999999999823
  0
LINE
  5
2D15
330
2
100
AcDbEntity
  8
0
100
AcDbLine
 10
339.8202781185104
 20
85.6947081818903
 30
0.0
 11
345.337731189506
 21
85.64655809839814
 31
0.0
  0
ARC
  5
2D16
330
2
100
AcDbEntity
  8
HIDS
100
AcDbCircle
 10
335.8377311895078
 20
89.31813097366079
 30
0.0
 40
2.0
100
AcDbArc
 50
0.0
 51
45.00000000006447
  0
ARC
  5
2D17
330
2
100
AcDbEntity
  8
0
100
AcDbCircle
 10
417.8377311895133
 20
93.56851118411531
 30
0.0
 40
8.0
100
AcDbArc
 50
270.5617053325316
 51
294.9148177589203
  0
LINE
  5
2D18
330
2
100
AcDbEntity
  8
0
100
AcDbLine
 10
427.837731189506
 20
91.64655809839997
 30
0.0
 11
432.837731189506
 21
91.64655809839997
 31
0.0
  0
LINE
  5
2D19
330
2
100
AcDbEntity
  8
0
100
AcDbLine
 10
374.8377311895133
 20
188.1465580983899
 30
0.0
 11
417.9161587930452
 21
187.7242205728657
 31
0.0
  0
LINE
  5
2D1A
330
2
100
AcDbEntity
  8
CENTER
100
AcDbLine
 10
498.837731189506
 20
136.6465580983972
 30
0.0
 11
313.8377311895133
 21
136.6465580983972
 31
0.0
  0
LINE
  5
2D1B
330
2
100
AcDbEntity
  8
0
100
AcDbLine
 10
426.837731189506
 20
116.1064589212055
 30
0.0
 11
345.337731189506
 21
116.1064589212055
 31
0.0
  0
LINE
  5
2D1C
330
2
100
AcDbEntity
  8
0
100
AcDbLine
 10
426.837731189506
 20
176.6465580984145
 30
0.0
 11
345.337731189506
 21
176.6465580984145
 31
0.0
  0
LINE
  5
2D1D
330
2
100
AcDbEntity
  8
0
100
AcDbLine
 10
426.837731189506
 20
179.646558098412
 30
0.0
 11
345.337731189506
 21
179.646558098412
 31
0.0
  0
LINE
  5
2D1E
330
2
100
AcDbEntity
  8
0
100
AcDbLine
 10
345.3377311895042
 20
187.6465580983963
 30
0.0
 11
427.837731189506
 21
186.9265915056471
 31
0.0
  0
LINE
  5
2D1F
330
2
100
AcDbEntity
  8
0
100
AcDbLine
 10
426.837731189506
 20
157.1866572755889
 30
0.0
 11
345.337731189506
 21
157.1866572755889
 31
0.0
  0
LINE
  5
2D20
330
2
100
AcDbEntity
  8
HIDS
100
AcDbLine
 10
337.2519447518811
 20
182.5607716607598
 30
0.0
 11
332.9235176271472
 21
178.2323445360311
 31
0.0
  0
LINE
  5
2D21
330
2
100
AcDbEntity
  8
0
100
AcDbLine
 10
330.7377311895074
 20
184.6465580984124
 30
0.0
 11
330.7377311895093
 21
174.6465580984124
 31
0.0
  0
LINE
  5
2D22
330
2
100
AcDbEntity
  8
0
100
AcDbLine
 10
330.3377311895096
 20
183.9537377753847
 30
0.0
 11
330.3377311895078
 21
175.3393784214401
 31
0.0
  0
LINE
  5
2D23
330
2
100
AcDbEntity
  8
0
100
AcDbLine
 10
336.3377311895096
 20
184.6465580984124
 30
0.0
 11
336.3377311895096
 21
174.6465580984127
 31
0.0
  0
LINE
  5
2D24
330
2
100
AcDbEntity
  8
0
100
AcDbLine
 10
345.337731189506
 20
152.8395728362565
 30
0.0
 11
345.3377311895042
 21
187.6465580983963
 31
0.0
  0
LINE
  5
2D25
330
2
100
AcDbEntity
  8
0
100
AcDbLine
 10
245.9177610068363
 20
178.2031824254232
 30
0.0
 11
245.9177610068363
 21
181.0899337713714
 31
0.0
  0
LINE
  5
2D26
330
2
100
AcDbEntity
  8
0
100
AcDbLine
 10
250.9177610068363
 20
178.2031824254232
 30
0.0
 11
250.9177610068363
 21
181.0899337713711
 31
0.0
  0
LINE
  5
2D27
330
2
100
AcDbEntity
  8
0
100
AcDbLine
 10
237.6535653913433
 20
180.0711793008498
 30
0.0
 11
248.8423822092881
 21
168.882362482905
 31
0.0
  0
LINE
  5
2D28
330
2
100
AcDbEntity
  8
0
100
AcDbLine
 10
234.2471202287179
 20
182.3472931897598
 30
0.0
 11
232.1423613507104
 21
177.2659557609478
 31
0.0
  0
LINE
  5
2D29
330
2
100
AcDbEntity
  8
0
100
AcDbLine
 10
256.4177610068327
 20
176.6465580983948
 30
0.0
 11
256.4177610068327
 21
179.6465580983971
 31
0.0
  0
CIRCLE
  5
2D2A
330
2
100
AcDbEntity
  8
0
100
AcDbCircle
 10
248.4177610068363
 20
179.6465580983973
 30
0.0
 40
4.307179676972509
  0
CIRCLE
  5
2D2B
330
2
100
AcDbEntity
  8
0
100
AcDbCircle
 10
248.4177610068363
 20
179.6465580983973
 30
0.0
 40
5.000000000000113
  0
LINE
  5
2D2C
330
2
100
AcDbEntity
  8
CENTER
100
AcDbLine
 10
248.4177610068363
 20
188.3965580984003
 30
0.0
 11
248.4177610068363
 21
170.8965580984003
 31
0.0
  0
LINE
  5
2D2D
330
2
100
AcDbEntity
  8
0
100
AcDbLine
 10
251.917761006829
 20
111.8353749163478
 30
0.0
 11
251.917761006829
 21
161.4577412804461
 31
0.0
  0
LINE
  5
2D2E
330
2
100
AcDbEntity
  8
0
100
AcDbLine
 10
246.417761006829
 20
111.835374916348
 30
0.0
 11
246.417761006829
 21
161.4577412804461
 31
0.0
  0
ARC
  5
2D2F
330
2
100
AcDbEntity
  8
0
100
AcDbCircle
 10
56.41776100683273
 20
136.6465580983971
 30
0.0
 40
200.0
100
AcDbArc
 50
354.1053016135961
 51
5.894698386397414
  0
LINE
  5
2D30
330
2
100
AcDbEntity
  8
0
100
AcDbLine
 10
251.118496098199
 20
107.8171988765146
 30
0.0
 11
246.0371586693854
 21
109.9219577545226
 31
0.0
  0
ARC
  5
2D31
330
2
100
AcDbEntity
  8
0
100
AcDbCircle
 10
241.4177610068291
 20
111.8353749163478
 30
0.0
 40
10.5
100
AcDbArc
 50
315.0000000000092
 51
0.0
  0
LINE
  5
2D32
330
2
100
AcDbEntity
  8
CENTER
100
AcDbLine
 10
256.0909660875895
 20
102.1465580983969
 30
0.0
 11
245.7445559260759
 21
102.1465580983969
 31
0.0
  0
CIRCLE
  5
2D33
330
2
100
AcDbEntity
  8
HOJO
100
AcDbCircle
 10
250.9177610068327
 20
102.1465580983969
 30
0.0
 40
2.0
  0
CIRCLE
  5
2D34
330
2
100
AcDbEntity
  8
0
100
AcDbCircle
 10
250.9177610068327
 20
102.1465580983969
 30
0.0
 40
1.6
  0
ARC
  5
2D35
330
2
100
AcDbEntity
  8
0
100
AcDbCircle
 10
241.4177610068291
 20
111.835374916348
 30
0.0
 40
5.0
100
AcDbArc
 50
315.0000000000092
 51
0.0
  0
ARC
  5
2D36
330
2
100
AcDbEntity
  8
0
100
AcDbCircle
 10
315.0429653288174
 20
109.9444291680716
 30
0.0
 40
60.0
100
AcDbArc
 50
174.1053016135961
 51
191.805067810467
  0
LINE
  5
2D37
330
2
100
AcDbEntity
  8
0
100
AcDbLine
 10
250.9177610068363
 20
178.2031824254232
 30
0.0
 11
248.4177610068363
 21
176.7598067524492
 31
0.0
  0
LINE
  5
2D38
330
2
100
AcDbEntity
  8
0
100
AcDbLine
 10
251.118496098199
 20
165.4759173202793
 30
0.0
 11
246.0371586693854
 21
163.3711584422713
 31
0.0
  0
ARC
  5
2D39
330
2
100
AcDbEntity
  8
0
100
AcDbCircle
 10
241.4177610068291
 20
161.4577412804461
 30
0.0
 40
10.5
100
AcDbArc
 50
0.0
 51
44.99999999999078
  0
LINE
  5
2D3A
330
2
100
AcDbEntity
  8
0
100
AcDbLine
 10
233.7644780948175
 20
176.1820920043238
 30
0.0
 11
244.9532949127624
 21
164.993275186379
 31
0.0
  0
ARC
  5
2D3B
330
2
100
AcDbEntity
  8
0
100
AcDbCircle
 10
241.4177610068291
 20
161.4577412804461
 30
0.0
 40
5.0
100
AcDbArc
 50
0.0
 51
44.99999999999078
  0
ARC
  5
2D3C
330
2
100
AcDbEntity
  8
0
100
AcDbCircle
 10
230.2289441888842
 20
172.6465580983909
 30
0.0
 40
5.0
100
AcDbArc
 50
44.99999999999078
 51
90.0
  0
LINE
  5
2D3D
330
2
100
AcDbEntity
  8
0
100
AcDbLine
 10
245.9177610068363
 20
178.2031824254232
 30
0.0
 11
248.4177610068363
 21
176.7598067524492
 31
0.0
  0
ARC
  5
2D3E
330
2
100
AcDbEntity
  8
0
100
AcDbCircle
 10
315.0429653288174
 20
163.3486870287218
 30
0.0
 40
60.0
100
AcDbArc
 50
168.194932189533
 51
185.8946983863973
  0
ARC
  5
2D3F
330
2
100
AcDbEntity
  8
0
100
AcDbCircle
 10
251.4177610068327
 20
176.6465580983971
 30
0.0
 40
5.0
100
AcDbArc
 50
348.194932189533
 51
0.0
  0
LINE
  5
2D40
330
2
100
AcDbEntity
  8
0
100
AcDbLine
 10
328.5377311895176
 20
103.6465580983958
 30
0.0
 11
328.5377311895176
 21
169.6465580983981
 31
0.0
  0
LINE
  5
2D41
330
2
100
AcDbEntity
  8
0
100
AcDbLine
 10
324.8377311895169
 20
169.646558098399
 30
0.0
 11
324.8377311895169
 21
103.6465580983931
 31
0.0
  0
LINE
  5
2D42
330
2
100
AcDbEntity
  8
0
100
AcDbLine
 10
332.3377311895078
 20
174.6465580984127
 30
0.0
 11
332.3377311895078
 21
98.646558098382
 31
0.0
  0
LINE
  5
2D43
330
2
100
AcDbEntity
  8
0
100
AcDbLine
 10
328.3377311895133
 20
103.8465580983963
 30
0.0
 11
328.3377311895133
 21
169.4465580983933
 31
0.0
  0
LINE
  5
2D44
330
2
100
AcDbEntity
  8
0
100
AcDbLine
 10
326.3377311895096
 20
103.8465580983952
 30
0.0
 11
326.3377311897115
 21
169.4465580983978
 31
0.0
  0
LINE
  5
2D45
330
2
100
AcDbEntity
  8
0
100
AcDbLine
 10
331.8377311895133
 20
101.6465580983963
 30
0.0
 11
331.8377311894951
 21
171.646558098374
 31
0.0
  0
LINE
  5
2D47
330
2
100
AcDbEntity
  8
0
100
AcDbLine
 10
336.3377311895096
 20
98.646558098382
 30
0.0
 11
337.8377311895078
 21
98.646558098382
 31
0.0
  0
LINE
  5
2D48
330
2
100
AcDbEntity
  8
0
100
AcDbLine
 10
323.8377311895078
 20
119.6465580983983
 30
0.0
 11
323.8377311895133
 21
104.2239083675849
 31
0.0
  0
LINE
  5
2D49
330
2
100
AcDbEntity
  8
0
100
AcDbLine
 10
324.8377311895133
 20
103.6465580983954
 30
0.0
 11
326.1377311895125
 21
103.6465580983958
 31
0.0
  0
LINE
  5
2D4A
330
2
100
AcDbEntity
  8
0
100
AcDbLine
 10
324.8377311895133
 20
103.6465580983954
 30
0.0
 11
323.8377311895133
 21
104.2239083675849
 31
0.0
  0
ARC
  5
2D4B
330
2
100
AcDbEntity
  8
0
100
AcDbCircle
 10
328.1377311895125
 20
104.1465580983958
 30
0.0
 40
0.2
100
AcDbArc
 50
0.0
 51
90.0
  0
ARC
  5
2D4C
330
2
100
AcDbEntity
  8
0
100
AcDbCircle
 10
326.537731189514
 20
104.1465580983956
 30
0.0
 40
0.2
100
AcDbArc
 50
90.0
 51
179.9999999999218
  0
ARC
  5
2D4D
330
2
100
AcDbEntity
  8
0
100
AcDbCircle
 10
326.1377311895125
 20
103.8465580983956
 30
0.0
 40
0.2
100
AcDbArc
 50
270.0
 51
359.9999999999218
  0
LINE
  5
2D4E
330
2
100
AcDbEntity
  8
0
100
AcDbLine
 10
326.537731189514
 20
104.3465580983956
 30
0.0
 11
328.1377311895125
 21
104.3465580983959
 31
0.0
  0
LINE
  5
2D4F
330
2
100
AcDbEntity
  8
0
100
AcDbLine
 10
328.3377311895133
 20
103.8465580983961
 30
0.0
 11
328.537731189514
 21
103.6465580983958
 31
0.0
  0
LINE
  5
2D50
330
2
100
AcDbEntity
  8
0
100
AcDbLine
 10
331.8377311895078
 20
103.6465580983963
 30
0.0
 11
331.8377311895078
 21
101.6465580984017
 31
0.0
  0
LINE
  5
2D51
330
2
100
AcDbEntity
  8
0
100
AcDbLine
 10
328.537731189514
 20
103.6465580983958
 30
0.0
 11
331.8377311895133
 21
103.6465580983963
 31
0.0
  0
LINE
  5
2D52
330
2
100
AcDbEntity
  8
0
100
AcDbLine
 10
330.7377311895093
 20
98.646558098382
 30
0.0
 11
330.3377311895096
 21
97.95373777535429
 31
0.0
  0
LINE
  5
2D53
330
2
100
AcDbEntity
  8
0
100
AcDbLine
 10
336.3377311895096
 20
98.646558098382
 30
0.0
 11
330.7377311895093
 21
98.646558098382
 31
0.0
  0
LINE
  5
2D54
330
2
100
AcDbEntity
  8
0
100
AcDbLine
 10
331.8377311895133
 20
101.6465580983963
 30
0.0
 11
332.3377311895133
 21
101.1465580983967
 31
0.0
  0
LINE
  5
2D55
330
2
100
AcDbEntity
  8
0
100
AcDbLine
 10
336.3377311895096
 20
174.6465580984124
 30
0.0
 11
337.8377311895078
 21
174.6465580984124
 31
0.0
  0
LINE
  5
2D56
330
2
100
AcDbEntity
  8
0
100
AcDbLine
 10
323.8377311894951
 20
169.069207829196
 30
0.0
 11
323.8377311894987
 21
153.6465580983979
 31
0.0
  0
LINE
  5
2D57
330
2
100
AcDbEntity
  8
0
100
AcDbLine
 10
324.8377311895169
 20
169.646558098399
 30
0.0
 11
326.137731189518
 21
169.6465580983986
 31
0.0
  0
LINE
  5
2D58
330
2
100
AcDbEntity
  8
0
100
AcDbLine
 10
324.8377311895169
 20
169.646558098399
 30
0.0
 11
323.8377311895169
 21
169.0692078292095
 31
0.0
  0
LINE
  5
2D59
330
2
100
AcDbEntity
  8
HIDS
100
AcDbLine
 10
332.3377311895205
 20
176.8181309736573
 30
0.0
 11
332.3377311895078
 21
174.6465580984124
 31
0.0
  0
LINE
  5
2D5A
330
2
100
AcDbEntity
  8
0
100
AcDbLine
 10
330.7377311895093
 20
174.6465580984124
 30
0.0
 11
330.3377311895096
 21
175.3393784214401
 31
0.0
  0
LINE
  5
2D5B
330
2
100
AcDbEntity
  8
0
100
AcDbLine
 10
336.3377311895096
 20
174.6465580984124
 30
0.0
 11
330.7377311895093
 21
174.6465580984124
 31
0.0
  0
ARC
  5
2D5C
330
2
100
AcDbEntity
  8
0
100
AcDbCircle
 10
328.137731189518
 20
169.1465580983981
 30
0.0
 40
0.2
100
AcDbArc
 50
269.9999999999478
 51
0.0
  0
ARC
  5
2D5D
330
2
100
AcDbEntity
  8
0
100
AcDbCircle
 10
326.5377311895176
 20
169.1465580983986
 30
0.0
 40
0.2
100
AcDbArc
 50
180.0
 51
269.9999999999478
  0
ARC
  5
2D5E
330
2
100
AcDbEntity
  8
0
100
AcDbCircle
 10
326.137731189518
 20
169.4465580983983
 30
0.0
 40
0.2
100
AcDbArc
 50
0.0
 51
90.0
  0
ARC
  5
2D5F
330
2
100
AcDbEntity
  8
HIDS
100
AcDbCircle
 10
334.3377311895205
 20
176.8181309736573
 30
0.0
 40
2.0
100
AcDbArc
 50
134.9999999999355
 51
180.0
  0
LINE
  5
2D60
330
2
100
AcDbEntity
  8
0
100
AcDbLine
 10
328.3377311895133
 20
169.4465580983933
 30
0.0
 11
328.5377311895176
 21
169.6465580983981
 31
0.0
  0
LINE
  5
2D61
330
2
100
AcDbEntity
  8
0
100
AcDbLine
 10
326.5377311895176
 20
168.9465580983985
 30
0.0
 11
328.137731189518
 21
168.9465580983981
 31
0.0
  0
LINE
  5
2D62
330
2
100
AcDbEntity
  8
0
100
AcDbLine
 10
331.8377311894951
 20
171.646558098374
 30
0.0
 11
332.3377311895187
 21
172.1465580983967
 31
0.0
  0
LINE
  5
2D63
330
2
100
AcDbEntity
  8
0
100
AcDbLine
 10
328.5377311895176
 20
169.6465580983981
 30
0.0
 11
331.8377311895169
 21
169.6465580983972
 31
0.0
  0
LINE
  5
2D64
330
2
100
AcDbEntity
  8
0
100
AcDbLine
 10
248.4177610068363
 20
182.5333094443454
 30
0.0
 11
250.9177610068363
 21
181.0899337713711
 31
0.0
  0
LINE
  5
2D65
330
2
100
AcDbEntity
  8
CENTER
100
AcDbLine
 10
257.1677610068381
 20
179.6465580983973
 30
0.0
 11
239.6677610068381
 21
179.6465580983973
 31
0.0
  0
ARC
  5
2D66
330
2
100
AcDbEntity
  8
0
100
AcDbCircle
 10
248.4177610068363
 20
179.6465580984025
 30
0.0
 40
8.0
100
AcDbArc
 50
0.0
 51
90.0
  0
ARC
  5
2D67
330
2
100
AcDbEntity
  8
0
100
AcDbCircle
 10
232.1198899371574
 20
246.2717624203814
 30
0.0
 40
60.0
100
AcDbArc
 50
264.1053016135961
 51
281.8050678104415
  0
ARC
  5
2D68
330
2
100
AcDbEntity
  8
0
100
AcDbCircle
 10
230.2289441888842
 20
172.6465580983909
 30
0.0
 40
10.5
100
AcDbArc
 50
44.99999999999078
 51
90.0
  0
LINE
  5
2D69
330
2
100
AcDbEntity
  8
0
100
AcDbLine
 10
248.4177610068327
 20
187.6465580983971
 30
0.0
 11
245.4177610068327
 21
187.6465580983971
 31
0.0
  0
ARC
  5
2D6A
330
2
100
AcDbEntity
  8
0
100
AcDbCircle
 10
245.4177610068327
 20
182.6465580983966
 30
0.0
 40
5.0
100
AcDbArc
 50
90.0
 51
101.8050678104414
  0
LINE
  5
2D6B
330
2
100
AcDbEntity
  8
0
100
AcDbLine
 10
248.4177610068363
 20
182.5333094443454
 30
0.0
 11
245.9177610068363
 21
181.0899337713714
 31
0.0
  0
LINE
  5
2D6C
330
2
100
AcDbEntity
  8
0
100
AcDbLine
 10
336.3377311895078
 20
184.6465580984124
 30
0.0
 11
337.8377311895078
 21
184.6465580984124
 31
0.0
  0
LINE
  5
2D6D
330
2
100
AcDbEntity
  8
CENTER
100
AcDbLine
 10
325.3377311895096
 20
179.6465580984124
 30
0.0
 11
351.4030569747706
 21
179.6465580984124
 31
0.0
  0
LINE
  5
2D6E
330
2
100
AcDbEntity
  8
0
100
AcDbLine
 10
374.8377311895133
 20
188.1465580983899
 30
0.0
 11
331.7593035859831
 21
187.7242205728648
 31
0.0
  0
ARC
  5
2D6F
330
2
100
AcDbEntity
  8
0
100
AcDbCircle
 10
331.8377311895133
 20
179.7246050126646
 30
0.0
 40
8.0
100
AcDbArc
 50
90.56170533253167
 51
180.0
  0
LINE
  5
2D70
330
2
100
AcDbEntity
  8
0
100
AcDbLine
 10
330.7377311895093
 20
184.6465580984124
 30
0.0
 11
330.3377311895096
 21
183.9537377753847
 31
0.0
  0
LINE
  5
2D71
330
2
100
AcDbEntity
  8
0
100
AcDbLine
 10
336.3377311895096
 20
184.6465580984124
 30
0.0
 11
330.7377311895093
 21
184.6465580984124
 31
0.0
  0
ARC
  5
2D72
330
2
100
AcDbEntity
  8
0
100
AcDbCircle
 10
339.8377311895078
 20
185.5984843349281
 30
0.0
 40
2.0
100
AcDbArc
 50
90.50000000001762
 51
180.0
  0
LINE
  5
2D73
330
2
100
AcDbEntity
  8
0
100
AcDbLine
 10
339.8202781185104
 20
187.5984081810566
 30
0.0
 11
345.3376931118441
 21
187.64655793225
 31
0.0
  0
ARC
  5
2D74
330
2
100
AcDbEntity
  8
HIDS
100
AcDbCircle
 10
335.8377311895078
 20
183.9749852231336
 30
0.0
 40
2.0
100
AcDbArc
 50
314.9999999999355
 51
0.0
  0
LINE
  5
2D7A
330
2
100
AcDbEntity
  8
0
100
AcDbLine
 10
456.8378367004211
 20
139.6465580983971
 30
0.0
 11
488.8378367004211
 21
139.6465580983971
 31
0.0
  0
LINE
  5
2D7B
330
2
100
AcDbEntity
  8
0
100
AcDbLine
 10
488.337731189506
 20
147.6466188182271
 30
0.0
 11
448.837731189506
 21
147.6466032610614
 31
0.0
  0
LINE
  5
2D7C
330
2
100
AcDbEntity
  8
0
100
AcDbLine
 10
456.8378367004211
 20
133.6465580983971
 30
0.0
 11
488.8378367004211
 21
133.6465580983971
 31
0.0
  0
LINE
  5
2D7D
330
2
100
AcDbEntity
  8
0
100
AcDbLine
 10
448.837731189506
 20
125.6466032610598
 30
0.0
 11
488.337731189506
 21
125.6466188182251
 31
0.0
  0
LINE
  5
2D7F
330
2
100
AcDbEntity
  8
0
100
AcDbLine
 10
447.837731189506
 20
152.8578829638024
 30
0.0
 11
447.837731189506
 21
120.435233232992
 31
0.0
  0
ARC
  5
2D80
330
2
100
AcDbEntity
  8
0
100
AcDbCircle
 10
456.8378367004211
 20
136.6465580983971
 30
0.0
 40
3.0
100
AcDbArc
 50
90.0
 51
270.0
  0
LINE
  5
2D81
330
2
100
AcDbEntity
  8
0
100
AcDbLine
 10
448.837731189506
 20
148.6466032610616
 30
0.0
 11
448.8382957227981
 21
124.6466032738076
 31
0.0
  0
LINE
  5
2D82
330
2
100
AcDbEntity
  8
0
100
AcDbLine
 10
446.8377311895078
 20
104.577935648012
 30
0.0
 11
446.8377311895078
 21
168.7151805487849
 31
0.0
  0
LINE
  5
2D83
330
2
100
AcDbEntity
  8
0
100
AcDbLine
 10
434.7679321961027
 20
102.2250714299384
 30
0.0
 11
444.907530182913
 21
102.5791539939741
 31
0.0
  0
ARC
  5
2D84
330
2
100
AcDbEntity
  8
0
100
AcDbCircle
 10
434.8377311895078
 20
100.2262897759005
 30
0.0
 40
2.0
100
AcDbArc
 50
92.0000000000037
 51
180.0
  0
ARC
  5
2D85
330
2
100
AcDbEntity
  8
0
100
AcDbCircle
 10
444.8377311895078
 20
104.577935648012
 30
0.0
 40
2.0
100
AcDbArc
 50
272.0000000000037
 51
0.0
  0
LINE
  5
2D86
330
2
100
AcDbEntity
  8
0
100
AcDbLine
 10
447.587731189506
 20
120.0022205310998
 30
0.0
 11
447.4358926597329
 21
119.9145565150622
 31
0.0
  0
ARC
  5
2D87
330
2
100
AcDbEntity
  8
0
100
AcDbCircle
 10
446.4358926597328
 20
121.6466073226311
 30
0.0
 40
2.0
100
AcDbArc
 50
281.5907202811201
 51
300.0000000000005
  0
ARC
  5
2D88
330
2
100
AcDbEntity
  8
0
100
AcDbCircle
 10
447.337731189506
 20
120.435233232992
 30
0.0
 40
0.5
100
AcDbArc
 50
300.0000000000005
 51
0.0
  0
LINE
  5
2D89
330
2
100
AcDbEntity
  8
0
100
AcDbLine
 10
448.837731189506
 20
124.6465129357328
 30
0.0
 11
447.837731189506
 21
124.0691626665432
 31
0.0
  0
LINE
  5
2D8A
330
2
100
AcDbEntity
  8
0
100
AcDbLine
 10
448.837731189506
 20
148.6466032610616
 30
0.0
 11
447.837731189506
 21
149.2239535302512
 31
0.0
  0
LINE
  5
2D8B
330
2
100
AcDbEntity
  8
0
100
AcDbLine
 10
447.587731189506
 20
153.2908956656946
 30
0.0
 11
447.4358926597329
 21
153.3785596817322
 31
0.0
  0
ARC
  5
2D8C
330
2
100
AcDbEntity
  8
0
100
AcDbCircle
 10
446.4358926597328
 20
151.6465088741633
 30
0.0
 40
2.0
100
AcDbArc
 50
59.99999999999946
 51
78.40927971887985
  0
ARC
  5
2D8D
330
2
100
AcDbEntity
  8
0
100
AcDbCircle
 10
447.337731189506
 20
152.8578829638024
 30
0.0
 40
0.5
100
AcDbArc
 50
0.0
 51
59.99999999999946
  0
LINE
  5
2D8E
330
2
100
AcDbEntity
  8
0
100
AcDbLine
 10
434.7679321961027
 20
171.0680447668587
 30
0.0
 11
444.907530182913
 21
170.713962202823
 31
0.0
  0
ARC
  5
2D8F
330
2
100
AcDbEntity
  8
0
100
AcDbCircle
 10
434.8377311895078
 20
173.0668264208966
 30
0.0
 40
2.0
100
AcDbArc
 50
180.0
 51
267.9999999999963
  0
ARC
  5
2D90
330
2
100
AcDbEntity
  8
0
100
AcDbCircle
 10
444.8377311895078
 20
168.7151805487851
 30
0.0
 40
2.0
100
AcDbArc
 50
0.0
 51
0.0
  0
ARC
  5
2D91
330
2
100
AcDbEntity
  8
0
100
AcDbCircle
 10
444.8377311895078
 20
168.7151805487849
 30
0.0
 40
2.0
100
AcDbArc
 50
0.0
 51
87.99999999999627
  0
LINE
  5
2D92
330
2
100
AcDbEntity
  8
0
100
AcDbLine
 10
488.837731189506
 20
126.1466190151512
 30
0.0
 11
488.837731189506
 21
147.1466190151533
 31
0.0
  0
LINE
  5
2D93
330
2
100
AcDbEntity
  8
0
100
AcDbLine
 10
488.337731189506
 20
133.6465580983971
 30
0.0
 11
488.337731189506
 21
125.6466188182251
 31
0.0
  0
LINE
  5
2D94
330
2
100
AcDbEntity
  8
0
100
AcDbLine
 10
488.837731189506
 20
126.1466190151512
 30
0.0
 11
488.337731189506
 21
125.6466188182251
 31
0.0
  0
LINE
  5
2D95
330
2
100
AcDbEntity
  8
0
100
AcDbLine
 10
488.337731189506
 20
147.6466188182271
 30
0.0
 11
488.337731189506
 21
139.6465580983971
 31
0.0
  0
LINE
  5
2D96
330
2
100
AcDbEntity
  8
0
100
AcDbLine
 10
488.337731189506
 20
147.6466188182271
 30
0.0
 11
488.837731189506
 21
147.1466190151533
 31
0.0
  0
ARC
  5
2D98
330
2
100
AcDbEntity
  8
0
100
AcDbCircle
 10
417.8377311895133
 20
179.7246050126655
 30
0.0
 40
8.0
100
AcDbArc
 50
65.08518224130987
 51
89.43829466741622
  0
LINE
  5
2D99
330
2
100
AcDbEntity
  8
0
100
AcDbLine
 10
427.837731189506
 20
181.6465580983995
 30
0.0
 11
432.837731189506
 21
181.6465580983995
 31
0.0
  0
ARC
  5
2DA1
330
2
100
AcDbEntity
  8
0
100
AcDbCircle
 10
734.4759090264282
 20
93.6465580983978
 30
0.0
 40
5.0
100
AcDbArc
 50
0.0
 51
90.0
  0
LINE
  5
2DA2
330
2
100
AcDbEntity
  8
CENTER
100
AcDbLine
 10
701.402315897632
 20
102.2201512272066
 30
0.0
 11
701.402315897632
 21
86.22015122720688
 31
0.0
  0
ARC
  5
2DA3
330
2
100
AcDbEntity
  8
0
100
AcDbCircle
 10
661.5995263941272
 20
97.60655809839079
 30
0.0
 40
2.040000000002968
100
AcDbArc
 50
307.5189678668038
 51
90.0
  0
ARC
  5
2DA4
330
2
100
AcDbEntity
  8
0
100
AcDbCircle
 10
661.4720809641271
 20
97.47905809839075
 30
0.0
 40
0.1275000000001855
100
AcDbArc
 50
270.0
 51
90.0
  0
LINE
  5
2DA5
330
2
100
AcDbEntity
  8
0
100
AcDbLine
 10
659.5595263941245
 20
97.60655809839102
 30
0.0
 11
659.5595263941245
 21
93.64655809838485
 31
0.0
  0
LINE
  5
2DA6
330
2
100
AcDbEntity
  8
0
100
AcDbLine
 10
657.759580964122
 20
97.60655623639843
 30
0.0
 11
657.1895818951174
 21
96.46655809838888
 31
0.0
  0
LINE
  5
2DA7
330
2
100
AcDbEntity
  8
0
100
AcDbLine
 10
657.759580964122
 20
97.60655623639843
 30
0.0
 11
657.759580964122
 21
96.46655809838911
 31
0.0
  0
LINE
  5
2DA8
330
2
100
AcDbEntity
  8
0
100
AcDbLine
 10
656.6195809641207
 20
99.64655809839417
 30
0.0
 11
653.6195809641153
 21
93.64655809838552
 31
0.0
  0
CIRCLE
  5
2DA9
330
2
100
AcDbEntity
  8
HOJO
100
AcDbCircle
 10
701.4023158976356
 20
94.22015122720665
 30
0.0
 40
4.0
  0
LINE
  5
2DAA
330
2
100
AcDbEntity
  8
CENTER
100
AcDbLine
 10
658.9759090264428
 20
206.6465580983996
 30
0.0
 11
658.9759090264428
 21
66.64655809839962
 31
0.0
  0
LINE
  5
2DAB
330
2
100
AcDbEntity
  8
0
100
AcDbLine
 10
709.9759090264356
 20
179.6465580983912
 30
0.0
 11
709.9759090264392
 21
93.64655809839167
 31
0.0
  0
LINE
  5
2DAC
330
2
100
AcDbEntity
  8
0
100
AcDbLine
 10
739.4759310264412
 20
186.1465580984
 30
0.0
 11
739.4759310264376
 21
87.14655809839962
 31
0.0
  0
ARC
  5
2DAD
330
2
100
AcDbEntity
  8
0
100
AcDbCircle
 10
612.9759090264411
 20
96.64655809839736
 30
0.0
 40
5.0
100
AcDbArc
 50
168.194932189533
 51
180.0
  0
CIRCLE
  5
2DAE
330
2
100
AcDbEntity
  8
HOJO
100
AcDbCircle
 10
616.5495021552483
 20
94.22015122720665
 30
0.0
 40
4.0
  0
LINE
  5
2DAF
330
2
100
AcDbEntity
  8
CENTER
100
AcDbLine
 10
616.5495021552483
 20
102.2201512272066
 30
0.0
 11
616.5495021552483
 21
86.22015122720688
 31
0.0
  0
CIRCLE
  5
2DB0
330
2
100
AcDbEntity
  8
0
100
AcDbCircle
 10
658.975909026441
 20
136.6465580983996
 30
0.0
 40
45.0
  0
CIRCLE
  5
2DB1
330
2
100
AcDbEntity
  8
CENTER
100
AcDbCircle
 10
658.975909026441
 20
136.6465580983996
 30
0.0
 40
60.0
  0
LINE
  5
2DB2
330
2
100
AcDbEntity
  8
CENTER
100
AcDbLine
 10
605.3693073086451
 20
190.2531598161931
 30
0.0
 11
712.5825107442397
 21
83.03995638059712
 31
0.0
  0
LINE
  5
2DB3
330
2
100
AcDbEntity
  8
CENTER
100
AcDbLine
 10
712.582510744236
 20
190.253159816194
 30
0.0
 11
605.3693073086383
 21
83.03995638059564
 31
0.0
  0
LINE
  5
2DB5
330
2
100
AcDbEntity
  8
0
100
AcDbLine
 10
805.975931026443
 20
96.57673783868517
 30
0.0
 11
805.975931026443
 21
136.6465580983974
 31
0.0
  0
LINE
  5
2DB6
330
2
100
AcDbEntity
  8
0
100
AcDbLine
 10
803.9759310264411
 20
94.64655809839792
 30
0.0
 11
803.9759310264411
 21
136.6465580983974
 31
0.0
  0
LINE
  5
2DB7
330
2
100
AcDbEntity
  8
0
100
AcDbLine
 10
776.9759310264412
 20
89.90937842142489
 30
0.0
 11
776.9759310264412
 21
98.52373777536946
 31
0.0
  0
LINE
  5
2DB8
330
2
100
AcDbEntity
  8
0
100
AcDbLine
 10
770.9759310264412
 20
99.21655809839762
 30
0.0
 11
770.9759310264412
 21
89.21655809839762
 31
0.0
  0
LINE
  5
2DB9
330
2
100
AcDbEntity
  8
0
100
AcDbLine
 10
769.9759310264412
 20
89.21655809839762
 30
0.0
 11
769.9759310264412
 21
99.21655809839762
 31
0.0
  0
LINE
  5
2DBA
330
2
100
AcDbEntity
  8
0
100
AcDbLine
 10
770.9759310264412
 20
99.21655809839762
 30
0.0
 11
770.9759310264412
 21
89.21655809839762
 31
0.0
  0
LINE
  5
2DBB
330
2
100
AcDbEntity
  8
0
100
AcDbLine
 10
776.5759310264416
 20
99.21655809839762
 30
0.0
 11
776.5759310264416
 21
89.21655809839762
 31
0.0
  0
LINE
  5
2DBC
330
2
100
AcDbEntity
  8
0
100
AcDbLine
 10
809.9759310264412
 20
176.646558098397
 30
0.0
 11
809.9759310264412
 21
96.64655809839793
 31
0.0
  0
LINE
  5
2DBD
330
2
100
AcDbEntity
  8
0
100
AcDbLine
 10
769.975931026443
 20
136.646558098397
 30
0.0
 11
769.975931026443
 21
86.76877232585434
 31
0.0
  0
LINE
  5
2DC2
330
2
100
AcDbEntity
  8
0
100
AcDbLine
 10
754.9759310264412
 20
85.14655809839963
 30
0.0
 11
754.9759310264412
 21
188.1465580983998
 31
0.0
  0
ARC
  5
2DC5
330
2
100
AcDbEntity
  8
0
100
AcDbCircle
 10
658.975909026441
 20
285.6465580983971
 30
0.0
 40
200.0
100
AcDbArc
 50
264.1053016135961
 51
275.8946983863513
  0
LINE
  5
2DC7
330
2
100
AcDbEntity
  8
0
100
AcDbLine
 10
615.975909026441
 20
85.6465580983969
 30
0.0
 11
618.975909026441
 21
85.64655809839734
 31
0.0
  0
CIRCLE
  5
2DC8
330
2
100
AcDbEntity
  8
0
100
AcDbCircle
 10
616.5495021552483
 20
94.22015122720665
 30
0.0
 40
3.2
  0
LINE
  5
2DC9
330
2
100
AcDbEntity
  8
CENTER
100
AcDbLine
 10
624.5495021552483
 20
94.22015122720825
 30
0.0
 11
608.5495021552483
 21
94.22015122720825
 31
0.0
  0
ARC
  5
2DCA
330
2
100
AcDbEntity
  8
0
100
AcDbCircle
 10
615.9759090264392
 20
93.64655809839121
 30
0.0
 40
8.0
100
AcDbArc
 50
180.0
 51
270.0
  0
LINE
  5
2DCB
330
2
100
AcDbEntity
  8
0
100
AcDbLine
 10
607.975909026441
 20
96.64655809839963
 30
0.0
 11
607.975909026441
 21
93.64655809839735
 31
0.0
  0
ARC
  5
2DCC
330
2
100
AcDbEntity
  8
0
100
AcDbCircle
 10
632.2737800961144
 20
27.02135377641309
 30
0.0
 40
60.0
100
AcDbArc
 50
84.10530161364862
 51
101.8050678104414
  0
ARC
  5
2DCD
330
2
100
AcDbEntity
  8
0
100
AcDbCircle
 10
618.975909026441
 20
90.64655809839781
 30
0.0
 40
5.0
100
AcDbArc
 50
270.0
 51
281.8050678104415
  0
ARC
  5
2DCE
330
2
100
AcDbEntity
  8
0
100
AcDbCircle
 10
685.678037956764
 20
27.02135377641264
 30
0.0
 40
60.0
100
AcDbArc
 50
78.19493218950483
 51
95.89469838635137
  0
LINE
  5
2DCF
330
2
100
AcDbEntity
  8
0
100
AcDbLine
 10
659.8145809641241
 20
97.35155809839046
 30
0.0
 11
662.1722361577645
 21
93.64655809838508
 31
0.0
  0
LINE
  5
2DD0
330
2
100
AcDbEntity
  8
0
100
AcDbLine
 10
659.8145809641241
 20
97.35155809839046
 30
0.0
 11
661.4720809641271
 21
97.35155809839046
 31
0.0
  0
LINE
  5
2DD1
330
2
100
AcDbEntity
  8
0
100
AcDbLine
 10
657.1895818951174
 20
96.46655809838888
 30
0.0
 11
657.759580964122
 21
96.46655809838911
 31
0.0
  0
LINE
  5
2DD2
330
2
100
AcDbEntity
  8
0
100
AcDbLine
 10
657.759580964122
 20
94.54655809838653
 30
0.0
 11
657.759580964122
 21
93.64655809838508
 31
0.0
  0
LINE
  5
2DD3
330
2
100
AcDbEntity
  8
0
100
AcDbLine
 10
656.2295818951147
 20
94.54655809838675
 30
0.0
 11
657.759580964122
 21
94.54655809838653
 31
0.0
  0
LINE
  5
2DD4
330
2
100
AcDbEntity
  8
0
100
AcDbLine
 10
656.2295818951147
 20
94.54655809838675
 30
0.0
 11
655.7795818951158
 21
93.64655809838508
 31
0.0
  0
LINE
  5
2DD5
330
2
100
AcDbEntity
  8
0
100
AcDbLine
 10
657.759580964122
 20
93.64655809838508
 30
0.0
 11
659.5595263941245
 21
93.64655809838485
 31
0.0
  0
LINE
  5
2DD6
330
2
100
AcDbEntity
  8
0
100
AcDbLine
 10
653.6195809641153
 20
93.64655809838552
 30
0.0
 11
655.7795818951158
 21
93.64655809838508
 31
0.0
  0
LINE
  5
2DD7
330
2
100
AcDbEntity
  8
0
100
AcDbLine
 10
662.1722361577645
 20
93.64655809838508
 30
0.0
 11
664.3322370887631
 21
93.64655809838552
 31
0.0
  0
LINE
  5
2DD8
330
2
100
AcDbEntity
  8
0
100
AcDbLine
 10
662.8419354288721
 20
95.98852849717934
 30
0.0
 11
664.3322370887631
 21
93.64655809838552
 31
0.0
  0
ARC
  5
2DD9
330
2
100
AcDbEntity
  8
0
100
AcDbCircle
 10
701.9759090264374
 20
93.64655809839144
 30
0.0
 40
8.0
100
AcDbArc
 50
270.0
 51
0.0
  0
LINE
  5
2DDA
330
2
100
AcDbEntity
  8
CENTER
100
AcDbLine
 10
709.4023158976356
 20
94.22015122720665
 30
0.0
 11
693.4023158976356
 21
94.22015122720665
 31
0.0
  0
CIRCLE
  5
2DDB
330
2
100
AcDbEntity
  8
0
100
AcDbCircle
 10
701.4023158976356
 20
94.22015122720665
 30
0.0
 40
3.2
  0
ARC
  5
2DDC
330
2
100
AcDbEntity
  8
0
100
AcDbCircle
 10
698.975909026441
 20
90.64655809839711
 30
0.0
 40
5.0
100
AcDbArc
 50
258.1949321895048
 51
270.0
  0
LINE
  5
2DDD
330
2
100
AcDbEntity
  8
0
100
AcDbLine
 10
698.975909026441
 20
85.64655809839734
 30
0.0
 11
701.9759090264374
 21
85.64655809839734
 31
0.0
  0
LINE
  5
2DDE
330
2
100
AcDbEntity
  8
CENTER
  6
CENS
100
AcDbLine
 10
749.9759310264412
 20
94.21655809839762
 30
0.0
 11
781.9759310264412
 21
94.21655809839762
 31
0.0
  0
LINE
  5
2DDF
330
2
100
AcDbEntity
  8
0
100
AcDbLine
 10
754.9759310264412
 20
85.64655809839791
 30
0.0
 11
768.9846575619408
 21
85.76881040278953
 31
0.0
  0
LINE
  5
2DE0
330
2
100
AcDbEntity
  8
0
100
AcDbLine
 10
754.9759310264412
 20
85.14655809839963
 30
0.0
 11
741.4759310264376
 21
85.14655809839917
 31
0.0
  0
LINE
  5
2DE1
330
2
100
AcDbEntity
  8
0
100
AcDbLine
 10
754.9759310264412
 20
85.64655809839962
 30
0.0
 11
741.4759310264376
 21
85.64655809839917
 31
0.0
  0
ARC
  5
2DE2
330
2
100
AcDbEntity
  8
0
100
AcDbCircle
 10
741.4759310264376
 20
87.64655809839917
 30
0.0
 40
2.0
100
AcDbArc
 50
180.0
 51
270.0
  0
ARC
  5
2DE3
330
2
100
AcDbEntity
  8
0
100
AcDbCircle
 10
741.4759310264376
 20
87.14655809839916
 30
0.0
 40
2.0
100
AcDbArc
 50
180.0
 51
270.0
  0
LINE
  5
2DE4
330
2
100
AcDbEntity
  8
0
100
AcDbLine
 10
803.9759310264411
 20
94.64655809839792
 30
0.0
 11
776.9759310264412
 21
94.4894766935015
 31
0.0
  0
ARC
  5
2DE5
330
2
100
AcDbEntity
  8
0
100
AcDbCircle
 10
768.975931026443
 20
86.76877232585434
 30
0.0
 40
1.0
100
AcDbArc
 50
270.4999999999655
 51
0.0
  0
LINE
  5
2DE6
330
2
100
AcDbEntity
  8
0
100
AcDbLine
 10
776.5759310264416
 20
89.21655809839718
 30
0.0
 11
776.9759310264412
 21
89.90937842142489
 31
0.0
  0
LINE
  5
2DE7
330
2
100
AcDbEntity
  8
0
100
AcDbLine
 10
770.9759310264412
 20
89.21655809839762
 30
0.0
 11
776.5759310264416
 21
89.21655809839762
 31
0.0
  0
LINE
  5
2DE8
330
2
100
AcDbEntity
  8
0
100
AcDbLine
 10
770.9759310264412
 20
89.21655809839762
 30
0.0
 11
769.9759310264412
 21
89.21655809839762
 31
0.0
  0
LINE
  5
2DE9
330
2
100
AcDbEntity
  8
0
100
AcDbLine
 10
809.9759310264412
 20
96.64655809839793
 30
0.0
 11
805.975931026443
 21
96.57673783868473
 31
0.0
  0
LINE
  5
2DEA
330
2
100
AcDbEntity
  8
0
100
AcDbLine
 10
805.975931026443
 20
96.57673783868473
 30
0.0
 11
803.9759310264411
 21
94.64655809839792
 31
0.0
  0
LINE
  5
2DEB
330
2
100
AcDbEntity
  8
0
100
AcDbLine
 10
714.9759090264374
 20
166.6465580984
 30
0.0
 11
725.4759310264394
 21
166.6465580983993
 31
0.0
  0
LINE
  5
2DEC
330
2
100
AcDbEntity
  8
0
100
AcDbLine
 10
728.6029256802298
 20
171.6465580983975
 30
0.0
 11
711.975909026441
 21
171.6465580983978
 31
0.0
  0
LINE
  5
2DED
330
2
100
AcDbEntity
  8
0
100
AcDbLine
 10
711.9759090264373
 20
134.1465580983973
 30
0.0
 11
728.4759310264376
 21
134.1465580983973
 31
0.0
  0
LINE
  5
2DEE
330
2
100
AcDbEntity
  8
0
100
AcDbLine
 10
711.9759090264373
 20
139.1465580983973
 30
0.0
 11
728.4759310264376
 21
139.1465580983973
 31
0.0
  0
LINE
  5
2DEF
330
2
100
AcDbEntity
  8
0
100
AcDbLine
 10
714.9759090264356
 20
106.6465580983996
 30
0.0
 11
725.4759310264375
 21
106.6465580983996
 31
0.0
  0
LINE
  5
2DF0
330
2
100
AcDbEntity
  8
0
100
AcDbLine
 10
728.602925680228
 20
101.6465580983973
 30
0.0
 11
711.9759090264392
 21
101.6465580983973
 31
0.0
  0
LINE
  5
2DF1
330
2
100
AcDbEntity
  8
CENTER
100
AcDbLine
 10
588.975909026441
 20
136.6465580983971
 30
0.0
 11
819.9759310264411
 21
136.6465580983968
 31
0.0
  0
LINE
  5
2DF3
330
2
100
AcDbEntity
  8
CENTER
100
AcDbLine
 10
701.4023158976337
 20
187.0729649695926
 30
0.0
 11
701.4023158976337
 21
171.0729649695925
 31
0.0
  0
CIRCLE
  5
2DF4
330
2
100
AcDbEntity
  8
HOJO
100
AcDbCircle
 10
701.4023158976337
 20
179.0729649695926
 30
0.0
 40
4.0
  0
CIRCLE
  5
2DF5
330
2
100
AcDbEntity
  8
0
100
AcDbCircle
 10
701.4023158976337
 20
179.0729649695926
 30
0.0
 40
3.2
  0
LINE
  5
2DF6
330
2
100
AcDbEntity
  8
0
100
AcDbLine
 10
607.975909026441
 20
179.6465580983971
 30
0.0
 11
607.975909026441
 21
176.6465580983996
 31
0.0
  0
CIRCLE
  5
2DF7
330
2
100
AcDbEntity
  8
0
100
AcDbCircle
 10
616.5495021552483
 20
179.0729649695923
 30
0.0
 40
3.2
  0
CIRCLE
  5
2DF8
330
2
100
AcDbEntity
  8
HOJO
100
AcDbCircle
 10
616.5495021552483
 20
179.0729649695923
 30
0.0
 40
4.0
  0
LINE
  5
2DF9
330
2
100
AcDbEntity
  8
CENTER
100
AcDbLine
 10
616.5495021552446
 20
187.0729649695923
 30
0.0
 11
616.5495021552446
 21
171.0729649695923
 31
0.0
  0
CIRCLE
  5
2DFB
330
2
100
AcDbEntity
  8
0
100
AcDbCircle
 10
658.975909026441
 20
136.6465580983996
 30
0.0
 40
26.0
  0
CIRCLE
  5
2DFC
330
2
100
AcDbEntity
  8
0
100
AcDbCircle
 10
658.975909026441
 20
136.6465580983996
 30
0.0
 40
34.0
  0
ARC
  5
2DFD
330
2
100
AcDbEntity
  8
0
100
AcDbCircle
 10
807.975909026441
 20
136.6465580983973
 30
0.0
 40
200.0
100
AcDbArc
 50
174.1053016135961
 51
185.8946983863973
  0
ARC
  5
2DFE
330
2
100
AcDbEntity
  8
0
100
AcDbCircle
 10
549.3507047044545
 20
109.9444291680725
 30
0.0
 40
60.0
100
AcDbArc
 50
348.194932189533
 51
5.894698386397414
  0
ARC
  5
2DFF
330
2
100
AcDbEntity
  8
0
100
AcDbCircle
 10
549.3507047044545
 20
163.3486870287228
 30
0.0
 40
60.0
100
AcDbArc
 50
354.1053016135961
 51
11.805067810467
  0
ARC
  5
2E00
330
2
100
AcDbEntity
  8
0
100
AcDbCircle
 10
612.9759090264411
 20
176.6465580983973
 30
0.0
 40
5.0
100
AcDbArc
 50
180.0
 51
191.805067810467
  0
CIRCLE
  5
2E01
330
2
100
AcDbEntity
  8
0
100
AcDbCircle
 10
658.9759090264355
 20
136.646558098397
 30
0.0
 40
16.99995077575704
  0
ARC
  5
2E02
330
2
100
AcDbEntity
  8
0
100
AcDbCircle
 10
658.9759090264355
 20
136.646558098397
 30
0.0
 40
12.57739543185027
100
AcDbArc
 50
193.7993919727373
 51
166.2006080272626
  0
LINE
  5
2E03
330
2
100
AcDbEntity
  8
0
100
AcDbLine
 10
645.4759697462618
 20
139.646558098397
 30
0.0
 11
645.4759697462618
 21
133.646558098397
 31
0.0
  0
LINE
  5
2E04
330
2
100
AcDbEntity
  8
0
100
AcDbLine
 10
651.4759697462618
 20
139.646558098397
 30
0.0
 11
651.4759697462618
 21
133.646558098397
 31
0.0
  0
ARC
  5
2E05
330
2
100
AcDbEntity
  8
0
100
AcDbCircle
 10
658.9759090264355
 20
136.646558098397
 30
0.0
 40
12.00004516266062
100
AcDbArc
 50
194.477456509218
 51
165.5225434907819
  0
ARC
  5
2E06
330
2
100
AcDbEntity
  8
0
100
AcDbCircle
 10
658.9759090264355
 20
136.646558098397
 30
0.0
 40
11.00006071982613
100
AcDbArc
 50
195.8265304777649
 51
164.1734695222349
  0
LINE
  5
2E07
330
2
100
AcDbEntity
  8
0
100
AcDbLine
 10
656.6195809641207
 20
99.64655809839417
 30
0.0
 11
661.5995263941272
 21
99.64655809839417
 31
0.0
  0
LINE
  5
2E08
330
2
100
AcDbEntity
  8
0
100
AcDbLine
 10
659.5595263941245
 20
97.60655809839102
 30
0.0
 11
661.4720809641271
 21
97.60655809839102
 31
0.0
  0
LINE
  5
2E09
330
2
100
AcDbEntity
  8
0
100
AcDbLine
 10
645.4759697462618
 20
133.646558098397
 30
0.0
 11
651.4759697462618
 21
133.646558098397
 31
0.0
  0
ARC
  5
2E0A
330
2
100
AcDbEntity
  8
0
100
AcDbCircle
 10
714.9759090264356
 20
101.6465580983996
 30
0.0
 40
5.0
100
AcDbArc
 50
90.0
 51
180.0
  0
ARC
  5
2E0B
330
2
100
AcDbEntity
  8
0
100
AcDbCircle
 10
711.9759090264392
 20
99.64655809839735
 30
0.0
 40
2.0
100
AcDbArc
 50
90.0
 51
180.0
  0
ARC
  5
2E0C
330
2
100
AcDbEntity
  8
0
100
AcDbCircle
 10
711.9759090264373
 20
132.1465580983973
 30
0.0
 40
2.0
100
AcDbArc
 50
90.0
 51
180.0
  0
LINE
  5
2E0D
330
2
100
AcDbEntity
  8
0
100
AcDbLine
 10
645.4759697462618
 20
139.646558098397
 30
0.0
 11
651.4759697462618
 21
139.646558098397
 31
0.0
  0
ARC
  5
2E0E
330
2
100
AcDbEntity
  8
0
100
AcDbCircle
 10
711.9759090264373
 20
141.1465580983973
 30
0.0
 40
2.0
100
AcDbArc
 50
180.0
 51
270.0
  0
ARC
  5
2E0F
330
2
100
AcDbEntity
  8
0
100
AcDbCircle
 10
714.9759090264374
 20
171.6465580984
 30
0.0
 40
5.0
100
AcDbArc
 50
180.0
 51
270.0
  0
ARC
  5
2E10
330
2
100
AcDbEntity
  8
0
100
AcDbCircle
 10
711.975909026441
 20
173.6465580983978
 30
0.0
 40
2.0
100
AcDbArc
 50
180.0
 51
270.0
  0
ARC
  5
2E11
330
2
100
AcDbEntity
  8
0
100
AcDbCircle
 10
658.975909026441
 20
-12.3534419016031
 30
0.0
 40
200.0
100
AcDbArc
 50
84.10530161364862
 51
95.89469838635137
  0
LINE
  5
2E12
330
2
100
AcDbEntity
  8
0
100
AcDbLine
 10
615.975909026441
 20
187.6465580983971
 30
0.0
 11
618.975909026441
 21
187.6465580983971
 31
0.0
  0
LINE
  5
2E13
330
2
100
AcDbEntity
  8
CENTER
100
AcDbLine
 10
624.5495021552483
 20
179.0729649695923
 30
0.0
 11
608.5495021552483
 21
179.0729649695923
 31
0.0
  0
ARC
  5
2E14
330
2
100
AcDbEntity
  8
0
100
AcDbCircle
 10
615.9759090264392
 20
179.6465580983909
 30
0.0
 40
8.0
100
AcDbArc
 50
90.0
 51
180.0
  0
ARC
  5
2E15
330
2
100
AcDbEntity
  8
0
100
AcDbCircle
 10
632.2737800961144
 20
246.2717624203818
 30
0.0
 40
60.0
100
AcDbArc
 50
258.1949321895048
 51
275.8946983863513
  0
ARC
  5
2E16
330
2
100
AcDbEntity
  8
0
100
AcDbCircle
 10
618.975909026441
 20
182.6465580983971
 30
0.0
 40
5.0
100
AcDbArc
 50
78.19493218950483
 51
90.0
  0
ARC
  5
2E17
330
2
100
AcDbEntity
  8
0
100
AcDbCircle
 10
685.6780379567658
 20
246.2717624203816
 30
0.0
 40
60.0
100
AcDbArc
 50
264.1053016135961
 51
281.8050678104415
  0
ARC
  5
2E18
330
2
100
AcDbEntity
  8
0
100
AcDbCircle
 10
701.9759090264429
 20
179.6465580983909
 30
0.0
 40
8.0
100
AcDbArc
 50
0.0
 51
90.0
  0
LINE
  5
2E19
330
2
100
AcDbEntity
  8
CENTER
100
AcDbLine
 10
709.4023158976337
 20
179.0729649695921
 30
0.0
 11
693.4023158976337
 21
179.0729649695921
 31
0.0
  0
ARC
  5
2E1A
330
2
100
AcDbEntity
  8
0
100
AcDbCircle
 10
698.975909026441
 20
182.6465580983966
 30
0.0
 40
5.0
100
AcDbArc
 50
90.0
 51
101.8050678104414
  0
LINE
  5
2E1B
330
2
100
AcDbEntity
  8
0
100
AcDbLine
 10
701.975909026441
 20
187.6465580983968
 30
0.0
 11
698.975909026441
 21
187.6465580983966
 31
0.0
  0
ARC
  5
2E1C
330
2
100
AcDbEntity
  8
0
100
AcDbCircle
 10
734.4759090264392
 20
179.6465580983973
 30
0.0
 40
5.0
100
AcDbArc
 50
270.0
 51
0.0
  0
LINE
  5
2E1D
330
2
100
AcDbEntity
  8
CENTER
  6
CENS
100
AcDbLine
 10
795.9759310264412
 20
187.5889579719153
 30
0.0
 11
795.9759310264412
 21
164.2290319695485
 31
0.0
  0
ARC
  5
2E1E
330
2
100
AcDbEntity
  8
0
100
AcDbCircle
 10
800.9758480945778
 20
178.6643029634444
 30
0.0
 40
4.000000000000014
100
AcDbArc
 50
359.6700000000007
 51
89.67000000001375
  0
LINE
  5
2E1F
330
2
100
AcDbEntity
  8
0
100
AcDbLine
 10
776.9759310264412
 20
183.38373777537
 30
0.0
 11
776.9759310264412
 21
174.769378421425
 31
0.0
  0
LINE
  5
2E20
330
2
100
AcDbEntity
  8
0
100
AcDbLine
 10
770.9759310264412
 20
174.0765580983973
 30
0.0
 11
770.9759310264412
 21
184.0765580983973
 31
0.0
  0
LINE
  5
2E21
330
2
100
AcDbEntity
  8
0
100
AcDbLine
 10
769.9759310264412
 20
184.0765580983973
 30
0.0
 11
769.9759310264412
 21
174.0765580983973
 31
0.0
  0
LINE
  5
2E22
330
2
100
AcDbEntity
  8
0
100
AcDbLine
 10
770.9759310264412
 20
174.0765580983973
 30
0.0
 11
770.9759310264412
 21
184.0765580983973
 31
0.0
  0
LINE
  5
2E23
330
2
100
AcDbEntity
  8
0
100
AcDbLine
 10
776.5759310264416
 20
174.0765580983973
 30
0.0
 11
776.5759310264416
 21
184.0765580983973
 31
0.0
  0
LINE
  5
2E24
330
2
100
AcDbEntity
  8
0
100
AcDbLine
 10
804.9757786991245
 20
178.6407411548004
 30
0.0
 11
776.9759310264412
 21
178.8036395032925
 31
0.0
  0
LINE
  5
2E25
330
2
100
AcDbEntity
  8
0
100
AcDbLine
 10
769.9759310264412
 20
186.5243438709405
 30
0.0
 11
769.975931026443
 21
147.6892591038806
 31
0.0
  0
LINE
  5
2E2A
330
2
100
AcDbEntity
  8
0
100
AcDbLine
 10
730.4759090264374
 20
172.6465580983975
 30
0.0
 11
730.4759090264355
 21
100.6465580983977
 31
0.0
  0
LINE
  5
2E2B
330
2
100
AcDbEntity
  8
0
100
AcDbLine
 10
765.4759310264412
 20
145.646558098397
 30
0.0
 11
760.2797786037331
 21
136.646558098397
 31
0.0
  0
LINE
  5
2E2C
330
2
100
AcDbEntity
  8
0
100
AcDbLine
 10
800.9759310264412
 20
146.146558098397
 30
0.0
 11
800.9759310264394
 21
136.646558098397
 31
0.0
  0
LINE
  5
2E2D
330
2
100
AcDbEntity
  8
0
100
AcDbLine
 10
789.9759310264412
 20
151.9757016594742
 30
0.0
 11
789.9759310264412
 21
136.646558098397
 31
0.0
  0
LINE
  5
2E2E
330
2
100
AcDbEntity
  8
0
100
AcDbLine
 10
787.9759310264412
 20
150.9219683190924
 30
0.0
 11
787.9759310264412
 21
136.646558098397
 31
0.0
  0
LINE
  5
2E2F
330
2
100
AcDbEntity
  8
0
100
AcDbLine
 10
765.4759310264412
 20
146.396558098397
 30
0.0
 11
765.4759310264412
 21
136.646558098397
 31
0.0
  0
LINE
  5
2E30
330
2
100
AcDbEntity
  8
0
100
AcDbLine
 10
771.4759310264412
 20
146.396558098397
 30
0.0
 11
771.4759310264412
 21
136.646558098397
 31
0.0
  0
LINE
  5
2E31
330
2
100
AcDbEntity
  8
0
100
AcDbLine
 10
802.9759310264411
 20
156.396558098397
 30
0.0
 11
802.9759310264411
 21
136.646558098397
 31
0.0
  0
LINE
  5
2E32
330
2
100
AcDbEntity
  8
0
100
AcDbLine
 10
802.9759310264411
 20
171.646558098397
 30
0.0
 11
802.9759310264411
 21
136.646558098397
 31
0.0
  0
SPLINE
  5
2E33
330
2
100
AcDbEntity
  8
HOJO
100
AcDbSpline
210
0.0
220
0.0
230
1.0
 70
     8
 71
     3
 72
    20
 73
    16
 74
     0
 42
0.0000000001
 43
0.0000000001
 40
1.221331719906463
 40
1.221331719906463
 40
1.221331719906463
 40
1.221331719906463
 40
5.647385924430076
 40
9.759277458584113
 40
14.59638394258456
 40
18.6386056126129
 40
22.25598020257161
 40
26.57819511411361
 40
31.00332353479096
 40
40.39337194914635
 40
45.49899296170218
 40
52.02718752358933
 40
57.17041693382338
 40
65.63449353306062
 40
69.3611614947018
 40
69.3611614947018
 40
69.3611614947018
 40
69.3611614947018
 10
806.2764135834708
 20
176.7111334155672
 30
0.0
 10
804.9092533798789
 20
175.8758602023283
 30
0.0
 10
802.4535816489473
 20
174.3472375567655
 30
0.0
 10
801.1442832204698
 20
169.8228953691962
 30
0.0
 10
799.9943738949219
 20
166.4313258746781
 30
0.0
 10
796.506617482933
 20
162.7575606634338
 30
0.0
 10
794.83478230657
 20
159.2322005334547
 30
0.0
 10
792.8575357461154
 20
155.6814838359598
 30
0.0
 10
789.4697544335517
 20
150.0924392475055
 30
0.0
 10
781.9453953892366
 20
150.2680156950966
 30
0.0
 10
775.217056032588
 20
149.1216451615994
 30
0.0
 10
769.8737894871806
 20
147.4030330571188
 30
0.0
 10
762.8750089727941
 20
147.0668617723952
 30
0.0
 10
759.1602761735698
 20
141.5808674404399
 30
0.0
 10
757.8384347347742
 20
137.8109609472642
 30
0.0
 10
757.4257619616651
 20
136.646558098397
 30
0.0
  0
LINE
  5
2E34
330
2
100
AcDbEntity
  8
0
100
AcDbLine
 10
802.9759310264411
 20
156.396558098397
 30
0.0
 11
802.9759310264431
 21
136.646558098397
 31
0.0
  0
LINE
  5
2E35
330
2
100
AcDbEntity
  8
0
100
AcDbLine
 10
802.9759310264411
 20
171.646558098397
 30
0.0
 11
802.9759310264411
 21
136.646558098397
 31
0.0
  0
ARC
  5
2E36
330
2
100
AcDbEntity
  8
0
100
AcDbCircle
 10
725.4759310264375
 20
101.6465580983996
 30
0.0
 40
5.0
100
AcDbArc
 50
0.0
 51
90.0
  0
ARC
  5
2E37
330
2
100
AcDbEntity
  8
0
100
AcDbCircle
 10
732.4759090264356
 20
100.6465580983977
 30
0.0
 40
2.0
100
AcDbArc
 50
180.0
 51
270.0
  0
LINE
  5
2E38
330
2
100
AcDbEntity
  8
0
100
AcDbLine
 10
734.4759090264282
 20
98.64655809839781
 30
0.0
 11
732.4759090264356
 21
98.64655809839781
 31
0.0
  0
ARC
  5
2E39
330
2
100
AcDbEntity
  8
0
100
AcDbCircle
 10
728.602925680228
 20
99.64655809839735
 30
0.0
 40
2.0
100
AcDbArc
 50
14.47751218596424
 51
90.0
  0
ARC
  5
2E3A
330
2
100
AcDbEntity
  8
0
100
AcDbCircle
 10
728.4759310264376
 20
132.1465580983973
 30
0.0
 40
2.0
100
AcDbArc
 50
0.0
 51
90.0
  0
LINE
  5
2E3B
330
2
100
AcDbEntity
  8
0
100
AcDbLine
 10
776.5759310264416
 20
99.21655809839762
 30
0.0
 11
770.9759310264412
 21
99.21655809839762
 31
0.0
  0
LINE
  5
2E3C
330
2
100
AcDbEntity
  8
0
100
AcDbLine
 10
769.9759310264412
 20
99.21655809839762
 30
0.0
 11
770.9759310264412
 21
99.21655809839762
 31
0.0
  0
LINE
  5
2E3D
330
2
100
AcDbEntity
  8
0
100
AcDbLine
 10
776.5759310264416
 20
99.21655809839762
 30
0.0
 11
776.9759310264412
 21
98.52373777536946
 31
0.0
  0
LINE
  5
2E3E
330
2
100
AcDbEntity
  8
0
100
AcDbLine
 10
771.4759310264412
 20
146.396558098397
 30
0.0
 11
765.4759310264412
 21
146.396558098397
 31
0.0
  0
ARC
  5
2E3F
330
2
100
AcDbEntity
  8
0
100
AcDbCircle
 10
728.4759310264376
 20
141.1465580983973
 30
0.0
 40
2.0
100
AcDbArc
 50
270.0
 51
0.0
  0
ARC
  5
2E40
330
2
100
AcDbEntity
  8
0
100
AcDbCircle
 10
725.4759310264394
 20
171.6465580983996
 30
0.0
 40
5.0
100
AcDbArc
 50
270.0
 51
0.0
  0
ARC
  5
2E41
330
2
100
AcDbEntity
  8
0
100
AcDbCircle
 10
728.6029256802298
 20
173.6465580983973
 30
0.0
 40
2.0
100
AcDbArc
 50
270.0
 51
345.5224878140357
  0
ARC
  5
2E42
330
2
100
AcDbEntity
  8
0
100
AcDbCircle
 10
732.4759090264373
 20
172.6465580983975
 30
0.0
 40
2.0
100
AcDbArc
 50
90.0
 51
180.0
  0
LINE
  5
2E43
330
2
100
AcDbEntity
  8
0
100
AcDbLine
 10
734.4759090264392
 20
174.6465580983973
 30
0.0
 11
732.4759090264373
 21
174.6465580983975
 31
0.0
  0
LINE
  5
2E44
330
2
100
AcDbEntity
  8
0
100
AcDbLine
 10
787.9759310264412
 20
146.1465580983974
 30
0.0
 11
771.4759310264412
 21
146.146558098397
 31
0.0
  0
LINE
  5
2E45
330
2
100
AcDbEntity
  8
0
100
AcDbLine
 10
800.9759310264412
 20
146.146558098397
 30
0.0
 11
789.9759310264412
 21
146.1465580983974
 31
0.0
  0
LINE
  5
2E46
330
2
100
AcDbEntity
  8
0
100
AcDbLine
 10
802.9759310264411
 20
147.3012586367769
 30
0.0
 11
800.9759310264412
 21
146.146558098397
 31
0.0
  0
LINE
  5
2E47
330
2
100
AcDbEntity
  8
0
100
AcDbLine
 10
802.9759310264411
 20
156.396558098397
 30
0.0
 11
793.2381264559239
 21
156.396558098397
 31
0.0
  0
LINE
  5
2E48
330
2
100
AcDbEntity
  8
0
100
AcDbLine
 10
776.5759310264416
 20
174.0765580983973
 30
0.0
 11
770.9759310264412
 21
174.0765580983973
 31
0.0
  0
LINE
  5
2E49
330
2
100
AcDbEntity
  8
0
100
AcDbLine
 10
769.9759310264412
 20
174.0765580983973
 30
0.0
 11
770.9759310264412
 21
174.0765580983973
 31
0.0
  0
LINE
  5
2E4A
330
2
100
AcDbEntity
  8
0
100
AcDbLine
 10
776.5759310264416
 20
174.0765580983973
 30
0.0
 11
776.9759310264412
 21
174.769378421425
 31
0.0
  0
LINE
  5
2E4B
330
2
100
AcDbEntity
  8
0
100
AcDbLine
 10
802.9759310264411
 20
165.646558098397
 30
0.0
 11
799.0662776776548
 21
165.646558098397
 31
0.0
  0
LINE
  5
2E4C
330
2
100
AcDbEntity
  8
0
100
AcDbLine
 10
809.9759310264412
 20
171.6465580983974
 30
0.0
 11
802.9759310264411
 21
171.646558098397
 31
0.0
  0
LINE
  5
2E4D
330
2
100
AcDbEntity
  8
0
100
AcDbLine
 10
809.9759310264412
 20
176.646558098397
 30
0.0
 11
805.9759310264448
 21
176.7163783581097
 31
0.0
  0
LINE
  5
2E4E
330
2
100
AcDbEntity
  8
0
100
AcDbLine
 10
805.9759310264448
 20
176.7163783581097
 30
0.0
 11
803.9759310264448
 21
178.6465580983942
 31
0.0
  0
LINE
  5
2E4F
330
2
100
AcDbEntity
  8
0
100
AcDbLine
 10
805.9759310264448
 20
176.7163783581097
 30
0.0
 11
805.9759310264448
 21
176.5270665849613
 31
0.0
  0
LINE
  5
2E50
330
2
100
AcDbEntity
  8
0
100
AcDbLine
 10
803.9759310264448
 20
178.6465580983942
 30
0.0
 11
803.9759310264448
 21
175.1458584139302
 31
0.0
  0
LINE
  5
2E51
330
2
100
AcDbEntity
  8
CENTER
  6
CENS
100
AcDbLine
 10
749.9759310264412
 20
179.0765580983973
 30
0.0
 11
781.9759310264412
 21
179.0765580983973
 31
0.0
  0
LINE
  5
2E52
330
2
100
AcDbEntity
  8
0
100
AcDbLine
 10
754.9759310264412
 20
187.646558098397
 30
0.0
 11
768.9846575619408
 21
187.5243057940044
 31
0.0
  0
LINE
  5
2E53
330
2
100
AcDbEntity
  8
0
100
AcDbLine
 10
754.9759310264412
 20
188.1465580983996
 30
0.0
 11
741.4759310264412
 21
188.1465580983998
 31
0.0
  0
LINE
  5
2E54
330
2
100
AcDbEntity
  8
0
100
AcDbLine
 10
754.9759310264412
 20
187.6465580983996
 30
0.0
 11
741.4759310264412
 21
187.6465580983998
 31
0.0
  0
ARC
  5
2E55
330
2
100
AcDbEntity
  8
0
100
AcDbCircle
 10
741.4759310264412
 20
186.1465580983998
 30
0.0
 40
2.0
100
AcDbArc
 50
90.0
 51
180.0
  0
ARC
  5
2E56
330
2
100
AcDbEntity
  8
0
100
AcDbCircle
 10
741.4759310264412
 20
185.6465580983998
 30
0.0
 40
2.0
100
AcDbArc
 50
90.0
 51
180.0
  0
ARC
  5
2E57
330
2
100
AcDbEntity
  8
0
100
AcDbCircle
 10
790.9760139583045
 20
178.7218985103247
 30
0.0
 40
4.000000000000014
100
AcDbArc
 50
89.67000000001375
 51
179.6700000000007
  0
LINE
  5
2E58
330
2
100
AcDbEntity
  8
0
100
AcDbLine
 10
776.5759310264416
 20
184.0765580983973
 30
0.0
 11
776.9759310264412
 21
183.38373777537
 31
0.0
  0
LINE
  5
2E59
330
2
100
AcDbEntity
  8
0
100
AcDbLine
 10
770.9759310264412
 20
184.0765580983973
 30
0.0
 11
776.5759310264416
 21
184.0765580983973
 31
0.0
  0
LINE
  5
2E5A
330
2
100
AcDbEntity
  8
0
100
AcDbLine
 10
770.9759310264412
 20
184.0765580983973
 30
0.0
 11
769.9759310264412
 21
184.0765580983973
 31
0.0
  0
ARC
  5
2E5B
330
2
100
AcDbEntity
  8
0
100
AcDbCircle
 10
768.9759310264412
 20
186.5243438709405
 30
0.0
 40
1.0
100
AcDbArc
 50
0.0
 51
89.50000000003447
  0
LINE
  5
2E5C
330
2
100
AcDbEntity
  8
0
100
AcDbLine
 10
800.9988863133308
 20
182.6642366179542
 30
0.0
 11
790.9990521770573
 21
182.721832164834
 31
0.0
  0
CIRCLE
  5
2E5D
330
2
100
AcDbEntity
  8
0
100
AcDbCircle
 10
1001.086008791141
 20
94.21655809839785
 30
0.0
 40
4.307179676972423
  0
CIRCLE
  5
2E5E
330
2
100
AcDbEntity
  8
0
100
AcDbCircle
 10
1001.086008791141
 20
94.21655809839785
 30
0.0
 40
5.0
  0
CIRCLE
  5
2E5F
330
2
100
AcDbEntity
  8
0
100
AcDbCircle
 10
1085.946008791141
 20
94.21655809839785
 30
0.0
 40
4.307179676972423
  0
CIRCLE
  5
2E60
330
2
100
AcDbEntity
  8
0
100
AcDbCircle
 10
1085.946008791141
 20
94.21655809839785
 30
0.0
 40
5.0
  0
CIRCLE
  5
2E61
330
2
100
AcDbEntity
  8
CENTER
100
AcDbCircle
 10
1043.516008791141
 20
136.6465580983972
 30
0.0
 40
45.0
  0
LINE
  5
2E62
330
2
100
AcDbEntity
  8
CENTER
100
AcDbLine
 10
1085.946008791141
 20
85.71655809839786
 30
0.0
 11
1085.946008791141
 21
102.7165580983978
 31
0.0
  0
LINE
  5
2E63
330
2
100
AcDbEntity
  8
CENTER
100
AcDbLine
 10
1001.086008791141
 20
85.71655809839786
 30
0.0
 11
1001.086008791141
 21
102.7165580983978
 31
0.0
  0
ARC
  5
2E64
330
2
100
AcDbEntity
  8
0
100
AcDbCircle
 10
1016.516008791141
 20
109.6465580983972
 30
0.0
 40
13.0
100
AcDbArc
 50
180.0
 51
270.0
  0
ARC
  5
2E65
330
2
100
AcDbEntity
  8
0
100
AcDbCircle
 10
1016.516008791141
 20
109.6465580983972
 30
0.0
 40
15.0
100
AcDbArc
 50
180.0
 51
270.0
  0
LINE
  5
2E66
330
2
100
AcDbEntity
  8
CENTER
100
AcDbLine
 10
1011.696203637746
 20
97.32675294500268
 30
0.0
 11
1011.696203637746
 21
112.3267529450026
 31
0.0
  0
LINE
  5
2E67
330
2
100
AcDbEntity
  8
CENTER
100
AcDbLine
 10
1075.335813944535
 20
97.32675294500268
 30
0.0
 11
1075.335813944535
 21
112.3267529450026
 31
0.0
  0
ARC
  5
2E68
330
2
100
AcDbEntity
  8
0
100
AcDbCircle
 10
1070.516008791139
 20
109.6465580983972
 30
0.0
 40
13.0
100
AcDbArc
 50
270.0
 51
0.0
  0
ARC
  5
2E69
330
2
100
AcDbEntity
  8
0
100
AcDbCircle
 10
1070.516008791141
 20
109.6465580983972
 30
0.0
 40
15.0
100
AcDbArc
 50
270.0
 51
0.0
  0
LINE
  5
2E6A
330
2
100
AcDbEntity
  8
CENTER
100
AcDbLine
 10
1043.516008791141
 20
198.1465580984049
 30
0.0
 11
1043.516008791141
 21
75.14655809840587
 31
0.0
  0
LINE
  5
2E6B
330
2
100
AcDbEntity
  8
0
100
AcDbLine
 10
992.5160087911413
 20
179.7246050126805
 30
0.0
 11
992.5160087911413
 21
93.56851118413032
 31
0.0
  0
LINE
  5
2E6C
330
2
100
AcDbEntity
  8
0
100
AcDbLine
 10
1094.516008791141
 20
179.7246050126796
 30
0.0
 11
1094.516008791141
 21
93.56851118413123
 31
0.0
  0
LINE
  5
2E6D
330
2
100
AcDbEntity
  8
0
100
AcDbLine
 10
985.5160087911485
 20
181.6465580983958
 30
0.0
 11
985.5160087911485
 21
91.64655809839633
 31
0.0
  0
LINE
  5
2E6E
330
2
100
AcDbEntity
  8
0
100
AcDbLine
 10
990.5160087911486
 20
186.9222280717658
 30
0.0
 11
990.5160087911486
 21
86.37088812503225
 31
0.0
  0
LINE
  5
2E71
330
2
100
AcDbEntity
  8
0
100
AcDbLine
 10
1016.516008791141
 20
96.64655809839723
 30
0.0
 11
1070.516008791139
 21
96.64655809839723
 31
0.0
  0
LINE
  5
2E72
330
2
100
AcDbEntity
  8
0
100
AcDbLine
 10
1016.516008791141
 20
94.64655809839724
 30
0.0
 11
1070.516008791141
 21
94.64655809839724
 31
0.0
  0
LINE
  5
2E73
330
2
100
AcDbEntity
  8
0
100
AcDbLine
 10
1000.516008791141
 20
85.64655809839724
 30
0.0
 11
1086.516008791141
 21
85.64655809839724
 31
0.0
  0
LINE
  5
2E74
330
2
100
AcDbEntity
  8
0
100
AcDbLine
 10
1043.516008791141
 20
85.14655809840588
 30
0.0
 11
1086.594436394673
 21
85.56889562393099
 31
0.0
  0
LINE
  5
2E76
330
2
100
AcDbEntity
  8
0
100
AcDbLine
 10
1043.516008791141
 20
85.14655809840588
 30
0.0
 11
1000.437581187611
 21
85.56889562393008
 31
0.0
  0
LINE
  5
2E77
330
2
100
AcDbEntity
  8
CENTER
100
AcDbLine
 10
1009.586008791141
 20
94.21655809839785
 30
0.0
 11
992.5860087911409
 21
94.21655809839785
 31
0.0
  0
ARC
  5
2E78
330
2
100
AcDbEntity
  8
0
100
AcDbCircle
 10
1000.516008791141
 20
93.64655809839723
 30
0.0
 40
8.0
100
AcDbArc
 50
180.0
 51
270.0
  0
ARC
  5
2E79
330
2
100
AcDbEntity
  8
0
100
AcDbCircle
 10
1000.516008791141
 20
93.56851118413032
 30
0.0
 40
8.0
100
AcDbArc
 50
180.0
 51
269.4382946674683
  0
LINE
  5
2E7A
330
2
100
AcDbEntity
  8
0
100
AcDbLine
 10
997.1458457686734
 20
86.31303041425416
 30
0.0
 11
990.5160087911486
 21
86.37088812503225
 31
0.0
  0
LINE
  5
2E7B
330
2
100
AcDbEntity
  8
0
100
AcDbLine
 10
990.5160087911486
 20
91.64655809839633
 30
0.0
 11
985.5160087911485
 21
91.64655809839633
 31
0.0
  0
LWPOLYLINE
  5
2E7C
330
2
100
AcDbEntity
  8
0
100
AcDbPolyline
 90
        6
 70
     1
 43
0.0
 10
1003.586008791141
 20
95.65993377137193
 10
1001.086008791141
 20
97.103309444346
 10
998.586008791141
 20
95.65993377137193
 10
998.586008791141
 20
92.77318242542378
 10
1001.086008791141
 20
91.3298067524497
 10
1003.586008791141
 20
92.77318242542378
  0
CIRCLE
  5
2E7D
330
2
100
AcDbEntity
  8
0
100
AcDbCircle
 10
1001.086008791141
 20
94.21655809839785
 30
0.0
 40
2.886751345948113
  0
ARC
  5
2E7E
330
2
100
AcDbEntity
  8
0
100
AcDbCircle
 10
1086.516008791141
 20
93.64655809839723
 30
0.0
 40
8.0
100
AcDbArc
 50
270.0
 51
0.0
  0
LINE
  5
2E7F
330
2
100
AcDbEntity
  8
CENTER
100
AcDbLine
 10
1077.446008791141
 20
94.21655809839785
 30
0.0
 11
1094.446008791141
 21
94.21655809839785
 31
0.0
  0
ARC
  5
2E80
330
2
100
AcDbEntity
  8
0
100
AcDbCircle
 10
1086.516008791141
 20
93.56851118413123
 30
0.0
 40
8.0
100
AcDbArc
 50
270.5617053325316
 51
0.0
  0
LWPOLYLINE
  5
2E81
330
2
100
AcDbEntity
  8
0
100
AcDbPolyline
 90
        6
 70
     1
 43
0.0
 10
1088.446008791141
 20
95.65993377137193
 10
1085.946008791141
 20
97.103309444346
 10
1083.446008791141
 20
95.65993377137193
 10
1083.446008791141
 20
92.77318242542378
 10
1085.946008791141
 20
91.3298067524497
 10
1088.446008791141
 20
92.77318242542378
  0
CIRCLE
  5
2E82
330
2
100
AcDbEntity
  8
0
100
AcDbCircle
 10
1085.946008791141
 20
94.21655809839785
 30
0.0
 40
2.886751345948113
  0
CIRCLE
  5
2E83
330
2
100
AcDbEntity
  8
0
100
AcDbCircle
 10
1043.516008791141
 20
136.6465580983972
 30
0.0
 40
29.0
  0
CIRCLE
  5
2E84
330
2
100
AcDbEntity
  8
0
100
AcDbCircle
 10
1043.516008791141
 20
136.6465580983972
 30
0.0
 40
34.99999999953029
  0
LINE
  5
2E85
330
2
100
AcDbEntity
  8
CENTER
100
AcDbLine
 10
1067.835813944536
 20
168.4663632517922
 30
0.0
 11
1082.835813944535
 21
168.4663632517922
 31
0.0
  0
LINE
  5
2E86
330
2
100
AcDbEntity
  8
0
100
AcDbLine
 10
1016.516008791141
 20
176.6465580983972
 30
0.0
 11
1070.516008791139
 21
176.6465580983972
 31
0.0
  0
LINE
  5
2E87
330
2
100
AcDbEntity
  8
0
100
AcDbLine
 10
1016.516008791141
 20
178.6465580983972
 30
0.0
 11
1070.516008791141
 21
178.6465580983972
 31
0.0
  0
LINE
  5
2E88
330
2
100
AcDbEntity
  8
CENTER
100
AcDbLine
 10
1067.835813944536
 20
104.8267529450026
 30
0.0
 11
1082.835813944535
 21
104.8267529450026
 31
0.0
  0
LINE
  5
2E89
330
2
100
AcDbEntity
  8
0
100
AcDbLine
 10
1000.516008791143
 20
187.6465580983972
 30
0.0
 11
1086.516008791141
 21
187.6465580983972
 31
0.0
  0
LINE
  5
2E8A
330
2
100
AcDbEntity
  8
CENTER
100
AcDbLine
 10
919.5160087911355
 20
136.6465580983972
 30
0.0
 11
1104.516008791141
 21
136.6465580983972
 31
0.0
  0
LINE
  5
2E8B
330
2
100
AcDbEntity
  8
0
100
AcDbLine
 10
1043.516008791141
 20
188.1465580984049
 30
0.0
 11
1086.594436394673
 21
187.7242205728798
 31
0.0
  0
ARC
  5
2E8C
330
2
100
AcDbEntity
  8
0
100
AcDbCircle
 10
1033.141009814593
 20
178.4718321648342
 30
0.0
 40
4.25
100
AcDbArc
 50
2.356207251533502
 51
90.0
  0
ARC
  5
2E8D
330
2
100
AcDbEntity
  8
0
100
AcDbCircle
 10
1023.641009814593
 20
178.4718321648342
 30
0.0
 40
4.25
100
AcDbArc
 50
90.0
 51
177.6437927484664
  0
LINE
  5
2E8E
330
2
100
AcDbEntity
  8
CENTER
  6
CENS
100
AcDbLine
 10
1028.516008791141
 20
187.5889579719155
 30
0.0
 11
1028.516008791141
 21
120.7988929408679
 31
0.0
  0
LWPOLYLINE
  5
2E8F
330
2
100
AcDbEntity
  8
0
100
AcDbPolyline
 90
        6
 70
     1
 43
0.0
 10
1003.586008791141
 20
180.5199337713716
 10
1001.086008791141
 20
181.9633094443456
 10
998.586008791141
 20
180.5199337713716
 10
998.586008791141
 20
177.6331824254234
 10
1001.086008791141
 20
176.1898067524493
 10
1003.586008791141
 20
177.6331824254234
  0
CIRCLE
  5
2E90
330
2
100
AcDbEntity
  8
0
100
AcDbCircle
 10
1001.086008791141
 20
179.0765580983975
 30
0.0
 40
2.886751345948113
  0
CIRCLE
  5
2E91
330
2
100
AcDbEntity
  8
0
100
AcDbCircle
 10
1001.086008791141
 20
179.0765580983975
 30
0.0
 40
4.307179676972423
  0
CIRCLE
  5
2E92
330
2
100
AcDbEntity
  8
0
100
AcDbCircle
 10
1001.086008791141
 20
179.0765580983975
 30
0.0
 40
5.0
  0
ARC
  5
2E93
330
2
100
AcDbEntity
  8
0
100
AcDbCircle
 10
1016.516008791141
 20
163.6465580983972
 30
0.0
 40
13.0
100
AcDbArc
 50
90.0
 51
180.0
  0
ARC
  5
2E94
330
2
100
AcDbEntity
  8
0
100
AcDbCircle
 10
1016.516008791141
 20
163.6465580983972
 30
0.0
 40
15.0
100
AcDbArc
 50
90.0
 51
180.0
  0
LINE
  5
2E95
330
2
100
AcDbEntity
  8
CENTER
100
AcDbLine
 10
1001.086008791141
 20
187.5765580983975
 30
0.0
 11
1001.086008791141
 21
170.5765580983975
 31
0.0
  0
ARC
  5
2E97
330
2
100
AcDbEntity
  8
0
100
AcDbCircle
 10
983.5160087911486
 20
100.2262897758992
 30
0.0
 40
2.0
100
AcDbArc
 50
0.0
 51
87.99999999999627
  0
ARC
  5
2E98
330
2
100
AcDbEntity
  8
0
100
AcDbCircle
 10
983.5160087911486
 20
173.0668264208952
 30
0.0
 40
2.0
100
AcDbArc
 50
272.0000000000037
 51
0.0
  0
LINE
  5
2E99
330
2
100
AcDbEntity
  8
0
100
AcDbLine
 10
970.5160087911504
 20
120.4352332329922
 30
0.0
 11
970.5160087911504
 21
152.8578829638031
 31
0.0
  0
LINE
  5
2E9A
330
2
100
AcDbEntity
  8
0
100
AcDbLine
 10
930.0160087911503
 20
125.6464973785673
 30
0.0
 11
930.0160087911494
 21
147.646497378581
 31
0.0
  0
LINE
  5
2E9B
330
2
100
AcDbEntity
  8
0
100
AcDbLine
 10
929.5160087911504
 20
147.1464971816549
 30
0.0
 11
929.5160087911504
 21
126.1464971816417
 31
0.0
  0
LINE
  5
2E9C
330
2
100
AcDbEntity
  8
0
100
AcDbLine
 10
969.5160087911503
 20
124.6465129357334
 30
0.0
 11
969.5154442578582
 21
148.6465129229868
 31
0.0
  0
LINE
  5
2E9D
330
2
100
AcDbEntity
  8
0
100
AcDbLine
 10
971.5160087911485
 20
168.7151805487838
 30
0.0
 11
971.5160087911485
 21
104.5779356480106
 31
0.0
  0
LINE
  5
2E9E
330
2
100
AcDbEntity
  8
0
100
AcDbLine
 10
930.0160087911503
 20
125.6464973785673
 30
0.0
 11
969.5160087911503
 21
125.6465129357334
 31
0.0
  0
LINE
  5
2E9F
330
2
100
AcDbEntity
  8
0
100
AcDbLine
 10
930.0160087911503
 20
125.6464973785673
 30
0.0
 11
929.5160087911504
 21
126.1464971816417
 31
0.0
  0
ARC
  5
2EA0
330
2
100
AcDbEntity
  8
0
100
AcDbCircle
 10
973.5160087911486
 20
104.5779356480106
 30
0.0
 40
2.0
100
AcDbArc
 50
180.0
 51
267.9999999999963
  0
LINE
  5
2EA1
330
2
100
AcDbEntity
  8
0
100
AcDbLine
 10
983.5858077845538
 20
102.225071429937
 30
0.0
 11
973.4462097977434
 21
102.5791539939727
 31
0.0
  0
LINE
  5
2EA2
330
2
100
AcDbEntity
  8
0
100
AcDbLine
 10
970.7660087911504
 20
120.0022205311001
 30
0.0
 11
970.9178473209234
 21
119.9145565150624
 31
0.0
  0
LINE
  5
2EA3
330
2
100
AcDbEntity
  8
0
100
AcDbLine
 10
969.5160087911503
 20
124.6465129357334
 30
0.0
 11
970.5160087911504
 21
124.0691626665434
 31
0.0
  0
ARC
  5
2EA4
330
2
100
AcDbEntity
  8
0
100
AcDbCircle
 10
971.9178473209236
 20
121.6466073226315
 30
0.0
 40
2.0
100
AcDbArc
 50
239.9999999999994
 51
258.4092797188798
  0
ARC
  5
2EA5
330
2
100
AcDbEntity
  8
0
100
AcDbCircle
 10
971.0160087911503
 20
120.4352332329922
 30
0.0
 40
0.5
100
AcDbArc
 50
180.0
 51
239.9999999999994
  0
LINE
  5
2EA6
330
2
100
AcDbEntity
  8
0
100
AcDbLine
 10
969.5160087911503
 20
147.6465129357352
 30
0.0
 11
930.0160087911503
 21
147.646497378581
 31
0.0
  0
LINE
  5
2EA7
330
2
100
AcDbEntity
  8
0
100
AcDbLine
 10
930.0160087911503
 20
147.646497378581
 30
0.0
 11
929.5160087911504
 21
147.1464971816549
 31
0.0
  0
LINE
  5
2EA8
330
2
100
AcDbEntity
  8
0
100
AcDbLine
 10
969.5160087911503
 20
148.6466032610619
 30
0.0
 11
970.5160087911504
 21
149.223953530251
 31
0.0
  0
LINE
  5
2EA9
330
2
100
AcDbEntity
  8
0
100
AcDbLine
 10
970.7660087911504
 20
153.2908956656951
 30
0.0
 11
970.9178473209234
 21
153.3785596817329
 31
0.0
  0
ARC
  5
2EAA
330
2
100
AcDbEntity
  8
0
100
AcDbCircle
 10
971.9178473209236
 20
151.6465088741638
 30
0.0
 40
2.0
100
AcDbArc
 50
101.5907202811201
 51
120.0000000000005
  0
ARC
  5
2EAB
330
2
100
AcDbEntity
  8
0
100
AcDbCircle
 10
971.0160087911503
 20
152.8578829638031
 30
0.0
 40
0.5
100
AcDbArc
 50
120.0000000000005
 51
180.0
  0
ARC
  5
2EAC
330
2
100
AcDbEntity
  8
0
100
AcDbCircle
 10
973.5160087911486
 20
168.7151805487838
 30
0.0
 40
2.0
100
AcDbArc
 50
92.0000000000037
 51
180.0
  0
LINE
  5
2EAD
330
2
100
AcDbEntity
  8
0
100
AcDbLine
 10
983.5858077845518
 20
171.0680447668574
 30
0.0
 11
973.4462097977434
 21
170.7139622028216
 31
0.0
  0
CIRCLE
  5
2EAE
330
2
100
AcDbEntity
  8
0
100
AcDbCircle
 10
1043.516008791141
 20
136.6465580983972
 30
0.0
 40
9.5
  0
ARC
  5
2EAF
330
2
100
AcDbEntity
  8
0
100
AcDbCircle
 10
1043.516008791141
 20
136.6465580983972
 30
0.0
 40
10.6547005383793
100
AcDbArc
 50
4.036472082730397
 51
175.9635279172696
  0
CIRCLE
  5
2EB0
330
2
100
AcDbEntity
  8
0
100
AcDbCircle
 10
1043.516008791141
 20
136.6465580983972
 30
0.0
 40
19.75
  0
LINE
  5
2EB1
330
2
100
AcDbEntity
  8
HIDS
100
AcDbLine
 10
1026.016008791141
 20
141.6465580983972
 30
0.0
 11
1026.016008791141
 21
137.3965580983972
 31
0.0
  0
LINE
  5
2EB2
330
2
100
AcDbEntity
  8
HIDS
100
AcDbLine
 10
1026.432675457807
 20
139.5632247650641
 30
0.0
 11
1026.432675457807
 21
137.3965580983972
 31
0.0
  0
LINE
  5
2EB3
330
2
100
AcDbEntity
  8
HIDS
100
AcDbLine
 10
1030.599342124475
 20
139.5632247650641
 30
0.0
 11
1030.599342124475
 21
137.3965580983972
 31
0.0
  0
LINE
  5
2EB4
330
2
100
AcDbEntity
  8
HIDS
100
AcDbLine
 10
1031.016008791141
 20
141.6465580983972
 30
0.0
 11
1031.016008791141
 21
137.3965580983972
 31
0.0
  0
LINE
  5
2EB5
330
2
100
AcDbEntity
  8
HIDS
100
AcDbLine
 10
1025.516008791141
 20
141.6465580983972
 30
0.0
 11
1025.516008791141
 21
137.3965580983972
 31
0.0
  0
LINE
  5
2EB6
330
2
100
AcDbEntity
  8
HIDS
100
AcDbLine
 10
1031.516008791141
 20
141.6465580983972
 30
0.0
 11
1031.516008791141
 21
137.3965580983972
 31
0.0
  0
LINE
  5
2EB7
330
2
100
AcDbEntity
  8
0
100
AcDbLine
 10
1001.516008791141
 20
163.6465580983972
 30
0.0
 11
1001.516008791141
 21
109.6465580983972
 31
0.0
  0
LINE
  5
2EB8
330
2
100
AcDbEntity
  8
0
100
AcDbLine
 10
1003.516008791141
 20
163.6465580983972
 30
0.0
 11
1003.516008791141
 21
109.6465580983972
 31
0.0
  0
LINE
  5
2EB9
330
2
100
AcDbEntity
  8
HIDS
100
AcDbLine
 10
1031.016008791141
 20
127.6465580983972
 30
0.0
 11
1026.016008791141
 21
127.6465580983972
 31
0.0
  0
LINE
  5
2EBA
330
2
100
AcDbEntity
  8
HIDS
100
AcDbLine
 10
1026.016008791141
 20
127.6465580983972
 30
0.0
 11
1027.016008791141
 21
126.6465580983972
 31
0.0
  0
LINE
  5
2EBB
330
2
100
AcDbEntity
  8
0
100
AcDbLine
 10
1023.780254435151
 20
137.3965580983972
 30
0.0
 11
1034.045660328703
 21
137.3965580983977
 31
0.0
  0
LINE
  5
2EBC
330
2
100
AcDbEntity
  8
0
100
AcDbLine
 10
1023.780254435151
 20
135.8965580983972
 30
0.0
 11
1034.045660328703
 21
135.8965580983972
 31
0.0
  0
LINE
  5
2EBD
330
2
100
AcDbEntity
  8
CENTER
100
AcDbLine
 10
1019.196203637746
 20
104.8267529450026
 30
0.0
 11
1004.196203637746
 21
104.8267529450026
 31
0.0
  0
CIRCLE
  5
2EBE
330
2
100
AcDbEntity
  8
HOJO
100
AcDbCircle
 10
1011.696203637745
 20
104.8267529450031
 30
0.0
 40
2.5
  0
CIRCLE
  5
2EBF
330
2
100
AcDbEntity
  8
0
100
AcDbCircle
 10
1011.696203637745
 20
104.8267529450031
 30
0.0
 40
2.0
  0
LINE
  5
2EC0
330
2
100
AcDbEntity
  8
HIDS
100
AcDbLine
 10
1026.432675457807
 20
135.8965580983972
 30
0.0
 11
1026.432675457807
 21
127.2298914317311
 31
0.0
  0
LINE
  5
2EC1
330
2
100
AcDbEntity
  8
HIDS
100
AcDbLine
 10
1026.016008791141
 20
135.8965580983972
 30
0.0
 11
1026.016008791141
 21
127.6465580983972
 31
0.0
  0
LINE
  5
2EC2
330
2
100
AcDbEntity
  8
HIDS
100
AcDbLine
 10
1026.016008791141
 20
135.8965580983972
 30
0.0
 11
1026.016008791141
 21
127.4916413865971
 31
0.0
  0
LINE
  5
2EC3
330
2
100
AcDbEntity
  8
HIDS
100
AcDbLine
 10
1026.432675457807
 20
135.8965580983972
 30
0.0
 11
1026.432675457807
 21
126.7358456001852
 31
0.0
  0
LINE
  5
2EC4
330
2
100
AcDbEntity
  8
0
100
AcDbLine
 10
1026.016008791141
 20
137.3965580983972
 30
0.0
 11
1026.016008791141
 21
135.8965580983972
 31
0.0
  0
LINE
  5
2EC5
330
2
100
AcDbEntity
  8
HOJO
100
AcDbLine
 10
1026.432675457807
 20
137.3965580983972
 30
0.0
 11
1026.432675457807
 21
135.8965580983976
 31
0.0
  0
ARC
  5
2EC6
330
2
100
AcDbEntity
  8
0
100
AcDbCircle
 10
1043.516008791141
 20
136.6465580983972
 30
0.0
 40
10.6547005383793
100
AcDbArc
 50
184.0364720827303
 51
355.963527917263
  0
LINE
  5
2EC7
330
2
100
AcDbEntity
  8
HIDS
100
AcDbLine
 10
1031.016008791141
 20
135.8965580983972
 30
0.0
 11
1031.016008791141
 21
127.6465580983972
 31
0.0
  0
LINE
  5
2EC8
330
2
100
AcDbEntity
  8
HIDS
100
AcDbLine
 10
1030.599342124475
 20
135.8965580983972
 30
0.0
 11
1030.599342124475
 21
121.7059348777206
 31
0.0
  0
LINE
  5
2EC9
330
2
100
AcDbEntity
  8
HIDS
100
AcDbLine
 10
1030.016008791141
 20
126.6465580983972
 30
0.0
 11
1027.016008791141
 21
126.6465580983972
 31
0.0
  0
LINE
  5
2ECA
330
2
100
AcDbEntity
  8
HIDS
100
AcDbLine
 10
1031.016008791141
 20
127.6465580983972
 30
0.0
 11
1030.016008791141
 21
126.6465580983972
 31
0.0
  0
LINE
  5
2ECB
330
2
100
AcDbEntity
  8
HOJO
100
AcDbLine
 10
1030.599342124475
 20
137.3965580983972
 30
0.0
 11
1030.599342124475
 21
135.8965580983976
 31
0.0
  0
LINE
  5
2ECC
330
2
100
AcDbEntity
  8
0
100
AcDbLine
 10
1031.016008791141
 20
137.3965580983972
 30
0.0
 11
1031.016008791141
 21
135.8965580983976
 31
0.0
  0
LINE
  5
2ECD
330
2
100
AcDbEntity
  8
0
100
AcDbLine
 10
1052.986357253579
 20
137.3965580983972
 30
0.0
 11
1060.71600879114
 21
137.3965580983972
 31
0.0
  0
LINE
  5
2ECE
330
2
100
AcDbEntity
  8
0
100
AcDbLine
 10
1052.986357253579
 20
135.8965580983972
 30
0.0
 11
1060.71600879114
 21
135.8965580983972
 31
0.0
  0
LINE
  5
2ECF
330
2
100
AcDbEntity
  8
0
100
AcDbLine
 10
1060.71600879114
 20
135.8965580983972
 30
0.0
 11
1060.71600879114
 21
137.3965580983972
 31
0.0
  0
LINE
  5
2ED0
330
2
100
AcDbEntity
  8
HIDS
100
AcDbLine
 10
1026.312157478136
 20
146.3465580983975
 30
0.0
 11
1032.766008791141
 21
146.3465580983979
 31
0.0
  0
LINE
  5
2ED1
330
2
100
AcDbEntity
  8
HIDS
100
AcDbLine
 10
1024.409399986857
 20
141.6465580983972
 30
0.0
 11
1033.516008791141
 21
141.6465580983972
 31
0.0
  0
LINE
  5
2ED2
330
2
100
AcDbEntity
  8
HIDS
100
AcDbLine
 10
1032.246393548871
 20
146.6465580983972
 30
0.0
 11
1026.48478746089
 21
146.6465580983972
 31
0.0
  0
LINE
  5
2ED3
330
2
100
AcDbEntity
  8
HIDS
100
AcDbLine
 10
1031.016008791141
 20
139.5632247650641
 30
0.0
 11
1026.016008791141
 21
139.5632247650641
 31
0.0
  0
LINE
  5
2ED4
330
2
100
AcDbEntity
  8
HIDS
100
AcDbLine
 10
1022.266008791141
 20
178.6465580983972
 30
0.0
 11
1022.266008791141
 21
156.3807289702631
 31
0.0
  0
LINE
  5
2ED5
330
2
100
AcDbEntity
  8
0
100
AcDbLine
 10
1026.48478746089
 20
146.6465580983972
 30
0.0
 11
1024.785624033411
 21
146.6465580983972
 31
0.0
  0
LINE
  5
2ED6
330
2
100
AcDbEntity
  8
0
100
AcDbLine
 10
1024.266008791141
 20
146.3465580983975
 30
0.0
 11
1024.785624033411
 21
146.6465580983972
 31
0.0
  0
LINE
  5
2ED7
330
2
100
AcDbEntity
  8
0
100
AcDbLine
 10
1024.266008791141
 20
146.3465580983975
 30
0.0
 11
1026.312157478136
 21
146.3465580983975
 31
0.0
  0
LINE
  5
2ED8
330
2
100
AcDbEntity
  8
HIDS
100
AcDbLine
 10
1026.016008791141
 20
141.6465580983972
 30
0.0
 11
1026.432675457807
 21
139.5632247650641
 31
0.0
  0
LINE
  5
2ED9
330
2
100
AcDbEntity
  8
0
100
AcDbLine
 10
1024.266008791141
 20
141.6465580983972
 30
0.0
 11
1024.409399986857
 21
141.6465580983972
 31
0.0
  0
LINE
  5
2EDA
330
2
100
AcDbEntity
  8
0
100
AcDbLine
 10
1024.266008791141
 20
146.3465580983975
 30
0.0
 11
1024.266008791141
 21
141.6465580983972
 31
0.0
  0
LINE
  5
2EDB
330
2
100
AcDbEntity
  8
CENTER
100
AcDbLine
 10
1019.196203637746
 20
168.4663632517922
 30
0.0
 11
1004.196203637746
 21
168.4663632517922
 31
0.0
  0
CIRCLE
  5
2EDC
330
2
100
AcDbEntity
  8
HOJO
100
AcDbCircle
 10
1011.696203637746
 20
168.4663632517922
 30
0.0
 40
2.5
  0
CIRCLE
  5
2EDD
330
2
100
AcDbEntity
  8
0
100
AcDbCircle
 10
1011.696203637746
 20
168.4663632517922
 30
0.0
 40
2.0
  0
LINE
  5
2EDE
330
2
100
AcDbEntity
  8
CENTER
100
AcDbLine
 10
1011.696203637746
 20
175.9663632517922
 30
0.0
 11
1011.696203637746
 21
160.9663632517922
 31
0.0
  0
LINE
  5
2EDF
330
2
100
AcDbEntity
  8
HIDS
100
AcDbLine
 10
1033.516008791141
 20
141.6465580983972
 30
0.0
 11
1033.516008791142
 21
153.677779428649
 31
0.0
  0
LINE
  5
2EE0
330
2
100
AcDbEntity
  8
HIDS
100
AcDbLine
 10
1032.246393548871
 20
146.6465580983972
 30
0.0
 11
1032.766008791141
 21
146.3465580983975
 31
0.0
  0
LINE
  5
2EE1
330
2
100
AcDbEntity
  8
HIDS
100
AcDbLine
 10
1031.016008791141
 20
141.6465580983972
 30
0.0
 11
1030.599342124475
 21
139.5632247650641
 31
0.0
  0
LINE
  5
2EE2
330
2
100
AcDbEntity
  8
HIDS
100
AcDbLine
 10
1032.766008791141
 20
141.6465580983972
 30
0.0
 11
1032.766008791141
 21
146.3465580983975
 31
0.0
  0
LINE
  5
2EE3
330
2
100
AcDbEntity
  8
HIDS
100
AcDbLine
 10
1034.766008791141
 20
178.6465580983972
 30
0.0
 11
1034.766008791142
 21
164.2950209851474
 31
0.0
  0
LINE
  5
2EE5
330
2
100
AcDbEntity
  8
0
100
AcDbLine
 10
1023.641009814593
 20
182.7218321648342
 30
0.0
 11
1033.391009814593
 21
182.7218321648342
 31
0.0
  0
LINE
  5
2EE6
330
2
100
AcDbEntity
  8
0
100
AcDbLine
 10
1043.516008791141
 20
188.1465580984049
 30
0.0
 11
1000.437581187611
 21
187.7242205728807
 31
0.0
  0
LINE
  5
2EE7
330
2
100
AcDbEntity
  8
CENTER
100
AcDbLine
 10
1009.586008791141
 20
179.0765580983975
 30
0.0
 11
992.5860087911409
 21
179.0765580983975
 31
0.0
  0
ARC
  5
2EE8
330
2
100
AcDbEntity
  8
0
100
AcDbCircle
 10
1000.516008791143
 20
179.6465580983972
 30
0.0
 40
8.0
100
AcDbArc
 50
90.0
 51
180.0
  0
ARC
  5
2EE9
330
2
100
AcDbEntity
  8
0
100
AcDbCircle
 10
1000.516008791141
 20
179.7246050126805
 30
0.0
 40
8.0
100
AcDbArc
 50
90.56170533253167
 51
180.0
  0
LINE
  5
2EEA
330
2
100
AcDbEntity
  8
0
100
AcDbLine
 10
997.1458457686734
 20
186.9800857825439
 30
0.0
 11
990.5160087911486
 21
186.9222280717658
 31
0.0
  0
LINE
  5
2EEB
330
2
100
AcDbEntity
  8
0
100
AcDbLine
 10
990.5160087911486
 20
181.6465580983958
 30
0.0
 11
985.5160087911485
 21
181.6465580983958
 31
0.0
  0
LWPOLYLINE
  5
2EED
330
2
100
AcDbEntity
  8
0
100
AcDbPolyline
 90
        6
 70
     1
 43
0.0
 10
1088.446008791141
 20
180.5199337713716
 10
1085.946008791141
 20
181.9633094443456
 10
1083.446008791141
 20
180.5199337713716
 10
1083.446008791141
 20
177.6331824254234
 10
1085.946008791141
 20
176.1898067524493
 10
1088.446008791141
 20
177.6331824254234
  0
CIRCLE
  5
2EEE
330
2
100
AcDbEntity
  8
0
100
AcDbCircle
 10
1085.946008791141
 20
179.0765580983975
 30
0.0
 40
2.886751345948113
  0
CIRCLE
  5
2EEF
330
2
100
AcDbEntity
  8
0
100
AcDbCircle
 10
1085.946008791141
 20
179.0765580983975
 30
0.0
 40
4.307179676972423
  0
CIRCLE
  5
2EF0
330
2
100
AcDbEntity
  8
0
100
AcDbCircle
 10
1085.946008791141
 20
179.0765580983975
 30
0.0
 40
5.0
  0
LINE
  5
2EF1
330
2
100
AcDbEntity
  8
CENTER
100
AcDbLine
 10
1085.946008791141
 20
187.5765580983975
 30
0.0
 11
1085.946008791141
 21
170.5765580983975
 31
0.0
  0
ARC
  5
2EF2
330
2
100
AcDbEntity
  8
0
100
AcDbCircle
 10
1070.516008791141
 20
163.6465580983972
 30
0.0
 40
15.0
100
AcDbArc
 50
0.0
 51
90.0
  0
ARC
  5
2EF3
330
2
100
AcDbEntity
  8
0
100
AcDbCircle
 10
1070.516008791139
 20
163.6465580983972
 30
0.0
 40
13.0
100
AcDbArc
 50
0.0
 51
90.0
  0
LINE
  5
2EF4
330
2
100
AcDbEntity
  8
0
100
AcDbLine
 10
1085.516008791141
 20
163.6465580983972
 30
0.0
 11
1085.516008791141
 21
109.6465580983972
 31
0.0
  0
LINE
  5
2EF5
330
2
100
AcDbEntity
  8
0
100
AcDbLine
 10
1083.516008791139
 20
163.6465580983972
 30
0.0
 11
1083.516008791139
 21
109.6465580983972
 31
0.0
  0
CIRCLE
  5
2EF6
330
2
100
AcDbEntity
  8
HOJO
100
AcDbCircle
 10
1075.335813944535
 20
104.8267529450026
 30
0.0
 40
2.5
  0
CIRCLE
  5
2EF7
330
2
100
AcDbEntity
  8
0
100
AcDbCircle
 10
1075.335813944535
 20
104.8267529450026
 30
0.0
 40
2.0
  0
CIRCLE
  5
2EF8
330
2
100
AcDbEntity
  8
HOJO
100
AcDbCircle
 10
1075.335813944535
 20
168.4663632517922
 30
0.0
 40
2.5
  0
CIRCLE
  5
2EF9
330
2
100
AcDbEntity
  8
0
100
AcDbCircle
 10
1075.335813944535
 20
168.4663632517922
 30
0.0
 40
2.0
  0
LINE
  5
2EFA
330
2
100
AcDbEntity
  8
CENTER
100
AcDbLine
 10
1075.335813944535
 20
175.9663632517922
 30
0.0
 11
1075.335813944535
 21
160.9663632517922
 31
0.0
  0
ARC
  5
2EFB
330
2
100
AcDbEntity
  8
0
100
AcDbCircle
 10
1086.516008791141
 20
179.6465580983972
 30
0.0
 40
8.0
100
AcDbArc
 50
0.0
 51
90.0
  0
LINE
  5
2EFC
330
2
100
AcDbEntity
  8
CENTER
100
AcDbLine
 10
1077.446008791141
 20
179.0765580983975
 30
0.0
 11
1094.446008791141
 21
179.0765580983975
 31
0.0
  0
ARC
  5
2EFD
330
2
100
AcDbEntity
  8
0
100
AcDbCircle
 10
1086.516008791141
 20
179.7246050126796
 30
0.0
 40
8.0
100
AcDbArc
 50
0.0
 51
89.43829466741622
  0
ARC
  5
2EFE
330
2
100
AcDbEntity
  8
0
100
AcDbCircle
 10
728.551239422075
 20
421.9744109531557
 30
0.0
 40
2.0
100
AcDbArc
 50
14.47751218589792
 51
90.0
  0
ARC
  5
2EFF
330
2
100
AcDbEntity
  8
0
100
AcDbCircle
 10
732.4242227682844
 20
422.9744109531552
 30
0.0
 40
2.0
100
AcDbArc
 50
181.5000000000157
 51
270.0
  0
ARC
  5
2F00
330
2
100
AcDbEntity
  8
0
100
AcDbCircle
 10
711.3930910749568
 20
421.9744109531552
 30
0.0
 40
2.0
100
AcDbArc
 50
90.0
 51
179.5000000000084
  0
LINE
  5
2F01
330
2
100
AcDbEntity
  8
0
100
AcDbLine
 10
638.4358098492667
 20
487.9744109531552
 30
0.0
 11
638.4358098492667
 21
407.474410953157
 31
0.0
  0
LINE
  5
2F02
330
2
100
AcDbEntity
  8
0
100
AcDbLine
 10
739.4759310264417
 20
507.9744109531577
 30
0.0
 11
739.475931026438
 21
409.9744109531573
 31
0.0
  0
LINE
  5
2F03
330
2
100
AcDbEntity
  8
0
100
AcDbLine
 10
701.7141029926969
 20
488.4656844176577
 30
0.0
 11
701.7141029926969
 21
407.474410953157
 31
0.0
  0
LINE
  5
2F04
330
2
100
AcDbEntity
  8
0
100
AcDbLine
 10
679.5160082036163
 20
487.9744109531552
 30
0.0
 11
679.5160082036127
 21
407.474410953157
 31
0.0
  0
LINE
  5
2F05
330
2
100
AcDbEntity
  8
0
100
AcDbLine
 10
698.9759090264414
 20
458.9744109531552
 30
0.0
 11
698.9759090264414
 21
407.474410953157
 31
0.0
  0
LINE
  5
2F06
330
2
100
AcDbEntity
  8
0
100
AcDbLine
 10
709.7159090264404
 20
458.9744109531552
 30
0.0
 11
709.2533850335321
 21
405.9744109531552
 31
0.0
  0
LINE
  5
2F07
330
2
100
AcDbEntity
  8
0
100
AcDbLine
 10
618.9759090264415
 20
487.9744109531552
 30
0.0
 11
618.9759090264397
 21
407.474410953157
 31
0.0
  0
LINE
  5
2F08
330
2
100
AcDbEntity
  8
0
100
AcDbLine
 10
615.9759090264397
 20
487.9744109531552
 30
0.0
 11
615.9759090264379
 21
407.474410953157
 31
0.0
  0
LINE
  5
2F09
330
2
100
AcDbEntity
  8
0
100
AcDbLine
 10
607.9759090264415
 20
488.4744109531552
 30
0.0
 11
608.6958756191798
 21
405.9744109531552
 31
0.0
  0
LINE
  5
2F0A
330
2
100
AcDbEntity
  8
CENTER
100
AcDbLine
 10
658.9759090264401
 20
519.9744109531597
 30
0.0
 11
658.9759090264424
 21
334.9744109531497
 31
0.0
  0
LINE
  5
2F0B
330
2
100
AcDbEntity
  8
0
100
AcDbLine
 10
809.9759310264417
 20
418.9744109531557
 30
0.0
 11
809.9759310264417
 21
498.9744109531548
 31
0.0
  0
LINE
  5
2F0C
330
2
100
AcDbEntity
  8
0
100
AcDbLine
 10
769.9759310264417
 20
409.0966251806121
 30
0.0
 11
769.9759310264434
 21
508.8521967256983
 31
0.0
  0
LINE
  5
2F0D
330
2
100
AcDbEntity
  8
0
100
AcDbLine
 10
805.9759310264453
 20
418.9045906934425
 30
0.0
 11
805.9759310264436
 21
499.0442312128675
 31
0.0
  0
LINE
  5
2F0E
330
2
100
AcDbEntity
  8
0
100
AcDbLine
 10
803.9759310264454
 20
416.9744109531584
 30
0.0
 11
803.9759310264454
 21
439.8513053275428
 31
0.0
  0
LINE
  5
2F0F
330
2
100
AcDbEntity
  8
0
100
AcDbLine
 10
754.9759310264416
 20
407.9744109531572
 30
0.0
 11
754.9759310264416
 21
509.9744109531575
 31
0.0
  0
LINE
  5
2F10
330
2
100
AcDbEntity
  8
0
100
AcDbLine
 10
626.9072865760535
 20
386.9744109531538
 30
0.0
 11
691.0445314768276
 21
386.9744109531538
 31
0.0
  0
LINE
  5
2F11
330
2
100
AcDbEntity
  8
0
100
AcDbLine
 10
608.6958756191798
 20
405.9744109531552
 30
0.0
 11
709.2533850335321
 21
405.9744109531552
 31
0.0
  0
LINE
  5
2F12
330
2
100
AcDbEntity
  8
0
100
AcDbLine
 10
613.9759090264415
 20
400.9744109531552
 30
0.0
 11
703.9759090264415
 21
400.9744109531552
 31
0.0
  0
LINE
  5
2F13
330
2
100
AcDbEntity
  8
0
100
AcDbLine
 10
613.9759090264415
 20
405.9744109531552
 30
0.0
 11
613.9759090264415
 21
400.9744109531552
 31
0.0
  0
LINE
  5
2F14
330
2
100
AcDbEntity
  8
0
100
AcDbLine
 10
624.5544223579818
 20
399.0442099465585
 30
0.0
 11
624.9085049220156
 21
388.9046119597492
 31
0.0
  0
ARC
  5
2F15
330
2
100
AcDbEntity
  8
0
100
AcDbCircle
 10
626.9072865760535
 20
388.9744109531538
 30
0.0
 40
2.0
100
AcDbArc
 50
182.0000000000034
 51
270.0
  0
ARC
  5
2F16
330
2
100
AcDbEntity
  8
0
100
AcDbCircle
 10
622.5556407039439
 20
398.9744109531538
 30
0.0
 40
2.0
100
AcDbArc
 50
2.000000000003498
 51
90.0
  0
LINE
  5
2F17
330
2
100
AcDbEntity
  8
0
100
AcDbLine
 10
647.975954189104
 20
384.9744109531556
 30
0.0
 11
647.9759561584055
 21
379.9743054422406
 31
0.0
  0
LINE
  5
2F18
330
2
100
AcDbEntity
  8
0
100
AcDbLine
 10
669.9759697462718
 20
345.4744109531556
 30
0.0
 11
669.9759541891057
 21
384.9744109531556
 31
0.0
  0
LINE
  5
2F19
330
2
100
AcDbEntity
  8
0
100
AcDbLine
 10
648.3928406698746
 20
376.9743054422406
 30
0.0
 11
648.3928406698746
 21
344.9744109531557
 31
0.0
  0
LINE
  5
2F1A
330
2
100
AcDbEntity
  8
0
100
AcDbLine
 10
645.4759697462718
 20
379.9743054422406
 30
0.0
 11
645.4759697462718
 21
344.9744109531557
 31
0.0
  0
LINE
  5
2F1B
330
2
100
AcDbEntity
  8
0
100
AcDbLine
 10
669.9759697462718
 20
345.4744109531556
 30
0.0
 11
648.3928406698746
 21
345.4744109531556
 31
0.0
  0
LINE
  5
2F1C
330
2
100
AcDbEntity
  8
0
100
AcDbLine
 10
645.4759697462718
 20
344.9744109531557
 30
0.0
 11
669.4759699431974
 21
344.9744109531557
 31
0.0
  0
LINE
  5
2F1D
330
2
100
AcDbEntity
  8
0
100
AcDbLine
 10
669.9759697462718
 20
345.4744109531556
 30
0.0
 11
669.4759699431974
 21
344.9744109531557
 31
0.0
  0
LINE
  5
2F1E
330
2
100
AcDbEntity
  8
0
100
AcDbLine
 10
647.9759561584073
 20
379.9743054422406
 30
0.0
 11
648.3928406698746
 21
376.9743054422406
 31
0.0
  0
LINE
  5
2F1F
330
2
100
AcDbEntity
  8
0
100
AcDbLine
 10
647.9759561584082
 20
379.9743054422406
 30
0.0
 11
645.4759697462718
 21
379.9743054422406
 31
0.0
  0
LINE
  5
2F20
330
2
100
AcDbEntity
  8
0
100
AcDbLine
 10
670.9759541891058
 20
384.9744109531556
 30
0.0
 11
646.9759542018523
 21
384.9738464198635
 31
0.0
  0
LINE
  5
2F21
330
2
100
AcDbEntity
  8
0
100
AcDbLine
 10
675.1872338918469
 20
385.9744109531557
 30
0.0
 11
642.7645841610361
 21
385.9744109531557
 31
0.0
  0
ARC
  5
2F22
330
2
100
AcDbEntity
  8
0
100
AcDbCircle
 10
643.9759582506753
 20
387.3762494829288
 30
0.0
 40
2.0
100
AcDbArc
 50
191.5907202811214
 51
210.0000000000207
  0
LINE
  5
2F23
330
2
100
AcDbEntity
  8
0
100
AcDbLine
 10
642.3315714591439
 20
386.2244109531557
 30
0.0
 11
642.2439074431062
 21
386.3762494829288
 31
0.0
  0
ARC
  5
2F24
330
2
100
AcDbEntity
  8
0
100
AcDbCircle
 10
642.7645841610361
 20
386.4744109531557
 30
0.0
 40
0.5
100
AcDbArc
 50
210.0000000000207
 51
270.0
  0
LINE
  5
2F25
330
2
100
AcDbEntity
  8
0
100
AcDbLine
 10
646.9758638637772
 20
384.9744109531556
 30
0.0
 11
646.3985135945882
 21
385.9744109531557
 31
0.0
  0
ARC
  5
2F26
330
2
100
AcDbEntity
  8
0
100
AcDbCircle
 10
673.9758598022076
 20
387.3762494829288
 30
0.0
 40
2.0
100
AcDbArc
 50
329.9999999999792
 51
348.4092797188785
  0
LINE
  5
2F27
330
2
100
AcDbEntity
  8
0
100
AcDbLine
 10
675.620246593739
 20
386.2244109531557
 30
0.0
 11
675.7079106097767
 21
386.3762494829288
 31
0.0
  0
ARC
  5
2F28
330
2
100
AcDbEntity
  8
0
100
AcDbCircle
 10
675.1872338918469
 20
386.4744109531557
 30
0.0
 40
0.5
100
AcDbArc
 50
270.0
 51
329.9999999999792
  0
LINE
  5
2F29
330
2
100
AcDbEntity
  8
0
100
AcDbLine
 10
670.9759541891058
 20
384.9744109531556
 30
0.0
 11
671.5533044582957
 21
385.9744109531557
 31
0.0
  0
LINE
  5
2F2A
330
2
100
AcDbEntity
  8
0
100
AcDbLine
 10
703.9759090264415
 20
405.9744109531552
 30
0.0
 11
703.9759090264415
 21
400.9744109531552
 31
0.0
  0
LINE
  5
2F2B
330
2
100
AcDbEntity
  8
0
100
AcDbLine
 10
693.3973956949012
 20
399.044209946559
 30
0.0
 11
693.0433131308655
 21
388.9046119597492
 31
0.0
  0
ARC
  5
2F2C
330
2
100
AcDbEntity
  8
0
100
AcDbCircle
 10
691.0445314768276
 20
388.9744109531538
 30
0.0
 40
2.0
100
AcDbArc
 50
270.0
 51
357.9999999999965
  0
ARC
  5
2F2D
330
2
100
AcDbEntity
  8
0
100
AcDbCircle
 10
695.3961773489391
 20
398.9744109531538
 30
0.0
 40
2.0
100
AcDbArc
 50
90.0
 51
177.9999999999965
  0
LINE
  5
2F2E
330
2
100
AcDbEntity
  8
CENTER
  6
CENS
100
AcDbLine
 10
749.9759310264416
 20
416.5444109531554
 30
0.0
 11
781.9759310264417
 21
416.5444109531554
 31
0.0
  0
LINE
  5
2F2F
330
2
100
AcDbEntity
  8
0
100
AcDbLine
 10
754.9759310264416
 20
407.9744109531556
 30
0.0
 11
768.9846575619412
 21
408.0966632575478
 31
0.0
  0
LINE
  5
2F30
330
2
100
AcDbEntity
  8
0
100
AcDbLine
 10
754.9759310264416
 20
407.9744109531572
 30
0.0
 11
741.475931026438
 21
407.9744109531571
 31
0.0
  0
ARC
  5
2F31
330
2
100
AcDbEntity
  8
0
100
AcDbCircle
 10
741.475931026438
 20
409.974410953157
 30
0.0
 40
2.0
100
AcDbArc
 50
180.0
 51
270.0
  0
ARC
  5
2F32
330
2
100
AcDbEntity
  8
0
100
AcDbCircle
 10
734.2647076914326
 20
415.9744109531552
 30
0.0
 40
5.0
100
AcDbArc
 50
1.4999999999898
 51
90.0
  0
LINE
  5
2F33
330
2
100
AcDbEntity
  8
0
100
AcDbLine
 10
732.4242227682844
 20
420.9744109531552
 30
0.0
 11
734.2647076914326
 21
420.9744109531552
 31
0.0
  0
LINE
  5
2F34
330
2
100
AcDbEntity
  8
0
100
AcDbLine
 10
803.9759310264434
 20
416.9744109531556
 30
0.0
 11
776.9759310264417
 21
416.8173295482597
 31
0.0
  0
LINE
  5
2F35
330
2
100
AcDbEntity
  8
0
100
AcDbLine
 10
776.9759310264417
 20
412.2372312761826
 30
0.0
 11
776.9759310264417
 21
420.8515906301276
 31
0.0
  0
LINE
  5
2F36
330
2
100
AcDbEntity
  8
0
100
AcDbLine
 10
770.9759310264416
 20
421.5444109531554
 30
0.0
 11
770.9759310264416
 21
411.5444109531554
 31
0.0
  0
LINE
  5
2F37
330
2
100
AcDbEntity
  8
0
100
AcDbLine
 10
769.9759310264417
 20
411.5444109531554
 30
0.0
 11
769.9759310264417
 21
421.5444109531554
 31
0.0
  0
LINE
  5
2F38
330
2
100
AcDbEntity
  8
0
100
AcDbLine
 10
770.9759310264416
 20
421.5444109531554
 30
0.0
 11
770.9759310264416
 21
411.5444109531554
 31
0.0
  0
LINE
  5
2F39
330
2
100
AcDbEntity
  8
0
100
AcDbLine
 10
776.575931026442
 20
421.5444109531554
 30
0.0
 11
776.575931026442
 21
411.5444109531554
 31
0.0
  0
LINE
  5
2F3A
330
2
100
AcDbEntity
  8
0
100
AcDbLine
 10
776.575931026442
 20
411.544410953155
 30
0.0
 11
776.9759310264417
 21
412.2372312761826
 31
0.0
  0
LINE
  5
2F3B
330
2
100
AcDbEntity
  8
0
100
AcDbLine
 10
770.9759310264416
 20
411.5444109531554
 30
0.0
 11
776.575931026442
 21
411.5444109531554
 31
0.0
  0
LINE
  5
2F3C
330
2
100
AcDbEntity
  8
0
100
AcDbLine
 10
770.9759310264416
 20
411.5444109531554
 30
0.0
 11
769.9759310264417
 21
411.5444109531554
 31
0.0
  0
ARC
  5
2F3D
330
2
100
AcDbEntity
  8
0
100
AcDbCircle
 10
768.9759310264417
 20
409.0966251806121
 30
0.0
 40
1.0
100
AcDbArc
 50
270.4999999999655
 51
0.0
  0
LINE
  5
2F3E
330
2
100
AcDbEntity
  8
0
100
AcDbLine
 10
776.575931026442
 20
421.5444109531554
 30
0.0
 11
770.9759310264416
 21
421.5444109531554
 31
0.0
  0
LINE
  5
2F3F
330
2
100
AcDbEntity
  8
0
100
AcDbLine
 10
769.9759310264417
 20
421.5444109531554
 30
0.0
 11
770.9759310264416
 21
421.5444109531554
 31
0.0
  0
LINE
  5
2F40
330
2
100
AcDbEntity
  8
0
100
AcDbLine
 10
776.575931026442
 20
421.5444109531554
 30
0.0
 11
776.9759310264417
 21
420.8515906301276
 31
0.0
  0
LINE
  5
2F41
330
2
100
AcDbEntity
  8
0
100
AcDbLine
 10
809.9759310264417
 20
418.9744109531557
 30
0.0
 11
805.9759310264453
 21
418.9045906934425
 31
0.0
  0
LINE
  5
2F42
330
2
100
AcDbEntity
  8
0
100
AcDbLine
 10
805.9759310264453
 20
418.9045906934425
 30
0.0
 11
803.9759310264454
 21
416.9744109531584
 31
0.0
  0
LINE
  5
2F43
330
2
100
AcDbEntity
  8
0
100
AcDbLine
 10
725.3694513777118
 20
487.9744109531593
 30
0.0
 11
709.9584664266094
 21
487.9744109531593
 31
0.0
  0
LINE
  5
2F44
330
2
100
AcDbEntity
  8
0
100
AcDbLine
 10
711.6767142781545
 20
456.4744109531554
 30
0.0
 11
727.5979950688925
 21
456.4744109531554
 31
0.0
  0
LINE
  5
2F45
330
2
100
AcDbEntity
  8
0
100
AcDbLine
 10
711.7578134884406
 20
461.4744109531552
 30
0.0
 11
727.597995068887
 21
461.4744109531552
 31
0.0
  0
LINE
  5
2F46
330
2
100
AcDbEntity
  8
0
100
AcDbLine
 10
714.4106590456949
 20
428.9744109531552
 30
0.0
 11
725.3956372992798
 21
428.9744109531555
 31
0.0
  0
LINE
  5
2F47
330
2
100
AcDbEntity
  8
0
100
AcDbLine
 10
711.3930910749568
 20
423.9744109531552
 30
0.0
 11
728.551239422075
 21
423.9744109531557
 31
0.0
  0
LINE
  5
2F48
330
2
100
AcDbEntity
  8
CENTER
100
AcDbLine
 10
598.2333516262692
 20
458.9744109531552
 30
0.0
 11
819.9759310264417
 21
458.9744109531552
 31
0.0
  0
LINE
  5
2F49
330
2
100
AcDbEntity
  8
CENTER
100
AcDbLine
 10
701.975909026456
 20
508.4744109531595
 30
0.0
 11
701.975909026456
 21
474.909085167895
 31
0.0
  0
LINE
  5
2F4A
330
2
100
AcDbEntity
  8
0
100
AcDbLine
 10
691.9759090264415
 20
505.2744109531459
 30
0.0
 11
691.9759090264396
 21
501.9744109531461
 31
0.0
  0
LINE
  5
2F4B
330
2
100
AcDbEntity
  8
0
100
AcDbLine
 10
625.9759090264396
 20
505.2744109531499
 30
0.0
 11
625.9759090264396
 21
501.9744109531502
 31
0.0
  0
LINE
  5
2F4C
330
2
100
AcDbEntity
  8
CENTER
100
AcDbLine
 10
615.9759090264251
 20
508.474410953155
 30
0.0
 11
615.9759090264251
 21
474.909085167895
 31
0.0
  0
LINE
  5
2F4D
330
2
100
AcDbEntity
  8
0
100
AcDbLine
 10
696.975909026456
 20
501.4744109531553
 30
0.0
 11
620.9759090264251
 21
501.4744109531553
 31
0.0
  0
LINE
  5
2F4E
330
2
100
AcDbEntity
  8
0
100
AcDbLine
 10
607.9759090264415
 20
488.4744109531543
 30
0.0
 11
709.4584664266076
 21
488.4744109531598
 31
0.0
  0
LINE
  5
2F4F
330
2
100
AcDbEntity
  8
0
100
AcDbLine
 10
623.9759090264397
 20
501.9744109531497
 30
0.0
 11
693.9759090264196
 21
501.9744109531662
 31
0.0
  0
LINE
  5
2F50
330
2
100
AcDbEntity
  8
0
100
AcDbLine
 10
607.9802724603232
 20
488.4744109531575
 30
0.0
 11
709.4584664266122
 21
488.474410953157
 31
0.0
  0
LINE
  5
2F51
330
2
100
AcDbEntity
  8
0
100
AcDbLine
 10
610.1206156843018
 20
495.974410953153
 30
0.0
 11
707.3621986968537
 21
495.9744109531575
 31
0.0
  0
LINE
  5
2F52
330
2
100
AcDbEntity
  8
HIDS
100
AcDbLine
 10
613.0616954640772
 20
496.5601973907828
 30
0.0
 11
617.3901225888057
 21
500.8886245155158
 31
0.0
  0
LINE
  5
2F53
330
2
100
AcDbEntity
  8
0
100
AcDbLine
 10
610.9759090264251
 20
503.0744109531552
 30
0.0
 11
620.9759090264251
 21
503.0744109531546
 31
0.0
  0
LINE
  5
2F54
330
2
100
AcDbEntity
  8
0
100
AcDbLine
 10
611.6687293494524
 20
503.4744109531548
 30
0.0
 11
620.2830887033979
 21
503.4744109531552
 31
0.0
  0
LINE
  5
2F55
330
2
100
AcDbEntity
  8
0
100
AcDbLine
 10
610.9759090264251
 20
497.4744109531548
 30
0.0
 11
620.9759090264251
 21
497.4744109531548
 31
0.0
  0
LINE
  5
2F56
330
2
100
AcDbEntity
  8
0
100
AcDbLine
 10
608.1213010343508
 20
494.0267648497711
 30
0.0
 11
607.9759075306902
 21
488.4744109531543
 31
0.0
  0
ARC
  5
2F57
330
2
100
AcDbEntity
  8
HIDS
100
AcDbCircle
 10
611.6474819017039
 20
497.9744109531552
 30
0.0
 40
2.0
100
AcDbArc
 50
270.0
 51
315.0000000000092
  0
LINE
  5
2F58
330
2
100
AcDbEntity
  8
0
100
AcDbLine
 10
610.9759090264251
 20
497.4744109531552
 30
0.0
 11
610.9759090264251
 21
495.9744109531552
 31
0.0
  0
LINE
  5
2F59
330
2
100
AcDbEntity
  8
0
100
AcDbLine
 10
610.9759090264251
 20
503.0744109531546
 30
0.0
 11
611.6687293494524
 21
503.4744109531548
 31
0.0
  0
LINE
  5
2F5A
330
2
100
AcDbEntity
  8
0
100
AcDbLine
 10
610.9759090264251
 20
497.4744109531548
 30
0.0
 11
610.9759090264251
 21
503.0744109531546
 31
0.0
  0
ARC
  5
2F5B
330
2
100
AcDbEntity
  8
0
100
AcDbCircle
 10
610.1206156843018
 20
493.9744109531552
 30
0.0
 40
2.0
100
AcDbArc
 50
90.0
 51
178.5000000000102
  0
LINE
  5
2F5C
330
2
100
AcDbEntity
  8
HIDS
100
AcDbLine
 10
618.8043361511809
 20
501.4744109531434
 30
0.0
 11
620.9759090264251
 21
501.4744109531553
 31
0.0
  0
ARC
  5
2F5D
330
2
100
AcDbEntity
  8
HIDS
100
AcDbCircle
 10
618.8043361511809
 20
499.4744109531434
 30
0.0
 40
2.0
100
AcDbArc
 50
90.0
 51
135.0000000000092
  0
LINE
  5
2F5E
330
2
100
AcDbEntity
  8
0
100
AcDbLine
 10
620.9759090264251
 20
497.4744109531548
 30
0.0
 11
620.9759090264251
 21
495.9744109531552
 31
0.0
  0
LINE
  5
2F5F
330
2
100
AcDbEntity
  8
0
100
AcDbLine
 10
620.9759090264251
 20
503.0744109531546
 30
0.0
 11
620.2830887033979
 21
503.4744109531548
 31
0.0
  0
LINE
  5
2F60
330
2
100
AcDbEntity
  8
0
100
AcDbLine
 10
620.9759090264251
 20
497.4744109531548
 30
0.0
 11
620.9759090264251
 21
503.0744109531546
 31
0.0
  0
LINE
  5
2F61
330
2
100
AcDbEntity
  8
0
100
AcDbLine
 10
625.9759090264396
 20
501.9744109531552
 30
0.0
 11
623.9759090264451
 21
501.9744109531552
 31
0.0
  0
LINE
  5
2F62
330
2
100
AcDbEntity
  8
0
100
AcDbLine
 10
623.9759090264397
 20
501.9744109531497
 30
0.0
 11
623.4759090264397
 21
501.4744109531497
 31
0.0
  0
ARC
  5
2F63
330
2
100
AcDbEntity
  8
0
100
AcDbCircle
 10
711.7578134884406
 20
463.4744109531552
 30
0.0
 40
2.0
100
AcDbArc
 50
179.5000000000084
 51
270.0
  0
LINE
  5
2F64
330
2
100
AcDbEntity
  8
0
100
AcDbLine
 10
709.7159090264404
 20
458.9744109531552
 30
0.0
 11
709.458466426614
 21
488.474410953157
 31
0.0
  0
LINE
  5
2F65
330
2
100
AcDbEntity
  8
0
100
AcDbLine
 10
698.9890019872237
 20
488.4744109531588
 30
0.0
 11
699.7359862194607
 21
459.9482340048475
 31
0.0
  0
ARC
  5
2F66
330
2
100
AcDbEntity
  8
0
100
AcDbCircle
 10
714.4106590456949
 20
423.9744109531552
 30
0.0
 40
5.0
100
AcDbArc
 50
90.0
 51
179.5000000000084
  0
LINE
  5
2F67
330
2
100
AcDbEntity
  8
0
100
AcDbLine
 10
700.735643544438
 20
458.9744109531554
 30
0.0
 11
709.7159090264404
 21
458.9744109531552
 31
0.0
  0
LINE
  5
2F68
330
2
100
AcDbEntity
  8
0
100
AcDbLine
 10
700.735643544438
 20
458.9744109531554
 30
0.0
 11
700.7356435444362
 21
458.9744109531554
 31
0.0
  0
ARC
  5
2F69
330
2
100
AcDbEntity
  8
0
100
AcDbCircle
 10
700.7356435444362
 20
459.9744109531554
 30
0.0
 40
1.0
100
AcDbArc
 50
181.5000000000157
 51
270.0
  0
ARC
  5
2F6A
330
2
100
AcDbEntity
  8
0
100
AcDbCircle
 10
711.6767142781545
 20
454.4744109531555
 30
0.0
 40
2.0
100
AcDbArc
 50
90.0
 51
179.5000000000084
  0
LINE
  5
2F6B
330
2
100
AcDbEntity
  8
0
100
AcDbLine
 10
706.975909026456
 20
503.0744109531552
 30
0.0
 11
696.975909026456
 21
503.0744109531546
 31
0.0
  0
LINE
  5
2F6C
330
2
100
AcDbEntity
  8
0
100
AcDbLine
 10
706.2830887034287
 20
503.4744109531548
 30
0.0
 11
697.6687293494833
 21
503.4744109531552
 31
0.0
  0
LINE
  5
2F6D
330
2
100
AcDbEntity
  8
0
100
AcDbLine
 10
706.975909026456
 20
497.4744109531548
 30
0.0
 11
696.975909026456
 21
497.4744109531548
 31
0.0
  0
LINE
  5
2F6E
330
2
100
AcDbEntity
  8
HIDS
100
AcDbLine
 10
704.8901225888039
 20
496.5601973907828
 30
0.0
 11
700.5616954640736
 21
500.8886245155158
 31
0.0
  0
LINE
  5
2F6F
330
2
100
AcDbEntity
  8
0
100
AcDbLine
 10
693.9759090264196
 20
501.9744109531662
 30
0.0
 11
694.4759090264397
 21
501.4744109531452
 31
0.0
  0
LINE
  5
2F70
330
2
100
AcDbEntity
  8
HIDS
100
AcDbLine
 10
699.1474819017002
 20
501.4744109531434
 30
0.0
 11
696.975909026456
 21
501.4744109531553
 31
0.0
  0
LINE
  5
2F71
330
2
100
AcDbEntity
  8
0
100
AcDbLine
 10
696.975909026456
 20
497.4744109531548
 30
0.0
 11
696.975909026456
 21
495.9744109531552
 31
0.0
  0
LINE
  5
2F72
330
2
100
AcDbEntity
  8
0
100
AcDbLine
 10
696.975909026456
 20
503.0744109531546
 30
0.0
 11
697.6687293494833
 21
503.4744109531548
 31
0.0
  0
LINE
  5
2F73
330
2
100
AcDbEntity
  8
0
100
AcDbLine
 10
696.975909026456
 20
497.4744109531548
 30
0.0
 11
696.975909026456
 21
503.0744109531546
 31
0.0
  0
ARC
  5
2F74
330
2
100
AcDbEntity
  8
HIDS
100
AcDbCircle
 10
699.1474819017002
 20
499.4744109531434
 30
0.0
 40
2.0
100
AcDbArc
 50
44.99999999999078
 51
90.0
  0
LINE
  5
2F75
330
2
100
AcDbEntity
  8
0
100
AcDbLine
 10
709.3621225429824
 20
493.9918640241549
 30
0.0
 11
709.4102726264755
 21
488.4744109531598
 31
0.0
  0
LINE
  5
2F76
330
2
100
AcDbEntity
  8
0
100
AcDbLine
 10
709.9584664266094
 20
487.9744109531593
 30
0.0
 11
709.4584664266085
 21
488.4744109531598
 31
0.0
  0
LINE
  5
2F77
330
2
100
AcDbEntity
  8
0
100
AcDbLine
 10
706.975909026456
 20
497.4744109531552
 30
0.0
 11
706.975909026456
 21
495.9744109531552
 31
0.0
  0
LINE
  5
2F78
330
2
100
AcDbEntity
  8
0
100
AcDbLine
 10
706.975909026456
 20
503.0744109531546
 30
0.0
 11
706.2830887034287
 21
503.4744109531548
 31
0.0
  0
LINE
  5
2F79
330
2
100
AcDbEntity
  8
0
100
AcDbLine
 10
706.975909026456
 20
497.4744109531548
 30
0.0
 11
706.975909026456
 21
503.0744109531546
 31
0.0
  0
ARC
  5
2F7A
330
2
100
AcDbEntity
  8
HIDS
100
AcDbCircle
 10
706.3043361511772
 20
497.9744109531552
 30
0.0
 40
2.0
100
AcDbArc
 50
224.9999999999908
 51
270.0
  0
ARC
  5
2F7B
330
2
100
AcDbEntity
  8
0
100
AcDbCircle
 10
707.3621986968537
 20
493.9744109531575
 30
0.0
 40
2.0
100
AcDbArc
 50
0.5000000000176293
 51
90.0
  0
LINE
  5
2F7C
330
2
100
AcDbEntity
  8
0
100
AcDbLine
 10
625.9759090264396
 20
505.2744109531499
 30
0.0
 11
691.9759090264415
 21
505.2744109531459
 31
0.0
  0
LINE
  5
2F7D
330
2
100
AcDbEntity
  8
0
100
AcDbLine
 10
691.9759090264415
 20
508.9744109531461
 30
0.0
 11
625.9759090264378
 21
508.9744109531507
 31
0.0
  0
LINE
  5
2F7E
330
2
100
AcDbEntity
  8
0
100
AcDbLine
 10
626.1759090264385
 20
505.4744109531506
 30
0.0
 11
691.7759090264371
 21
505.4744109531506
 31
0.0
  0
LINE
  5
2F7F
330
2
100
AcDbEntity
  8
0
100
AcDbLine
 10
626.1759090264385
 20
507.4744109531507
 30
0.0
 11
691.7759090264407
 21
507.4744109529519
 31
0.0
  0
LINE
  5
2F80
330
2
100
AcDbEntity
  8
0
100
AcDbLine
 10
691.3985587572388
 20
509.9744109531688
 30
0.0
 11
626.5532592956279
 21
509.9744109531506
 31
0.0
  0
ARC
  5
2F81
330
2
100
AcDbEntity
  8
0
100
AcDbCircle
 10
626.4759090264397
 20
505.6744109531505
 30
0.0
 40
0.2
100
AcDbArc
 50
270.0
 51
0.0
  0
ARC
  5
2F82
330
2
100
AcDbEntity
  8
0
100
AcDbCircle
 10
626.4759090264378
 20
507.2744109531499
 30
0.0
 40
0.2
100
AcDbArc
 50
0.0
 51
89.99999999989578
  0
ARC
  5
2F83
330
2
100
AcDbEntity
  8
0
100
AcDbCircle
 10
626.1759090264385
 20
507.6744109531505
 30
0.0
 40
0.2
100
AcDbArc
 50
180.0
 51
269.9999999998957
  0
LINE
  5
2F84
330
2
100
AcDbEntity
  8
0
100
AcDbLine
 10
626.6759090264386
 20
507.2744109531499
 30
0.0
 11
626.6759090264386
 21
505.6744109531505
 31
0.0
  0
LINE
  5
2F85
330
2
100
AcDbEntity
  8
0
100
AcDbLine
 10
626.1759090264385
 20
505.4744109531506
 30
0.0
 11
625.9759090264396
 21
505.2744109531499
 31
0.0
  0
LINE
  5
2F86
330
2
100
AcDbEntity
  8
0
100
AcDbLine
 10
625.9759090264378
 20
508.9744109531502
 30
0.0
 11
626.5532592956279
 21
509.9744109531506
 31
0.0
  0
LINE
  5
2F87
330
2
100
AcDbEntity
  8
0
100
AcDbLine
 10
625.9759090264378
 20
508.9744109531507
 30
0.0
 11
625.9759090264396
 21
507.6744109531505
 31
0.0
  0
ARC
  5
2F88
330
2
100
AcDbEntity
  8
0
100
AcDbCircle
 10
691.4759090264415
 20
505.6744109531459
 30
0.0
 40
0.2
100
AcDbArc
 50
179.9999999999479
 51
270.0
  0
ARC
  5
2F89
330
2
100
AcDbEntity
  8
0
100
AcDbCircle
 10
691.4759090264415
 20
507.2744109531458
 30
0.0
 40
0.2
100
AcDbArc
 50
90.0
 51
179.9999999999479
  0
ARC
  5
2F8A
330
2
100
AcDbEntity
  8
0
100
AcDbCircle
 10
691.7759090264407
 20
507.674410953146
 30
0.0
 40
0.2
100
AcDbArc
 50
270.0
 51
0.0
  0
LINE
  5
2F8B
330
2
100
AcDbEntity
  8
0
100
AcDbLine
 10
691.9759090264415
 20
508.9744109531461
 30
0.0
 11
691.9759090264415
 21
507.674410953146
 31
0.0
  0
LINE
  5
2F8C
330
2
100
AcDbEntity
  8
0
100
AcDbLine
 10
691.9759090264415
 20
508.9744109531461
 30
0.0
 11
691.3985587572533
 21
509.9744109531461
 31
0.0
  0
LINE
  5
2F8D
330
2
100
AcDbEntity
  8
0
100
AcDbLine
 10
691.7759090264371
 20
505.4744109531506
 30
0.0
 11
691.9759090264415
 21
505.2744109531459
 31
0.0
  0
LINE
  5
2F8E
330
2
100
AcDbEntity
  8
0
100
AcDbLine
 10
691.2759090264407
 20
507.2744109531463
 30
0.0
 11
691.2759090264407
 21
505.6744109531459
 31
0.0
  0
LINE
  5
2F8F
330
2
100
AcDbEntity
  8
0
100
AcDbLine
 10
776.9759310264417
 20
505.7115906301278
 30
0.0
 11
776.9759310264417
 21
497.0972312761828
 31
0.0
  0
LINE
  5
2F90
330
2
100
AcDbEntity
  8
0
100
AcDbLine
 10
770.9759310264416
 20
496.4044109531551
 30
0.0
 11
770.9759310264416
 21
506.404410953155
 31
0.0
  0
LINE
  5
2F91
330
2
100
AcDbEntity
  8
0
100
AcDbLine
 10
769.9759310264417
 20
506.404410953155
 30
0.0
 11
769.9759310264417
 21
496.4044109531551
 31
0.0
  0
LINE
  5
2F92
330
2
100
AcDbEntity
  8
0
100
AcDbLine
 10
770.9759310264416
 20
496.4044109531551
 30
0.0
 11
770.9759310264416
 21
506.404410953155
 31
0.0
  0
LINE
  5
2F93
330
2
100
AcDbEntity
  8
0
100
AcDbLine
 10
776.575931026442
 20
496.4044109531551
 30
0.0
 11
776.575931026442
 21
506.404410953155
 31
0.0
  0
ARC
  5
2F94
330
2
100
AcDbEntity
  8
0
100
AcDbCircle
 10
727.597995068887
 20
463.4744109531552
 30
0.0
 40
2.0
100
AcDbArc
 50
270.0
 51
358.4999999999841
  0
LINE
  5
2F95
330
2
100
AcDbEntity
  8
0
100
AcDbLine
 10
729.4808440068063
 20
458.9744109531552
 30
0.0
 11
730.4249081183334
 21
495.0267648497709
 31
0.0
  0
LINE
  5
2F96
330
2
100
AcDbEntity
  8
0
100
AcDbLine
 10
803.9759310264454
 20
448.0975165787676
 30
0.0
 11
803.9759310264454
 21
500.9744109531521
 31
0.0
  0
LINE
  5
2F97
330
2
100
AcDbEntity
  8
0
100
AcDbLine
 10
729.4808440068118
 20
458.9744109531552
 30
0.0
 11
730.4249081183334
 21
422.9220570565393
 31
0.0
  0
ARC
  5
2F98
330
2
100
AcDbEntity
  8
0
100
AcDbCircle
 10
725.3956372992798
 20
423.9744109531555
 30
0.0
 40
5.0
100
AcDbArc
 50
1.500000000015846
 51
90.0
  0
ARC
  5
2F99
330
2
100
AcDbEntity
  8
0
100
AcDbCircle
 10
727.5979950688925
 20
454.4744109531555
 30
0.0
 40
2.0
100
AcDbArc
 50
1.500000000015846
 51
90.0
  0
LINE
  5
2F9A
330
2
100
AcDbEntity
  8
CENTER
  6
CENS
100
AcDbLine
 10
795.975931026438
 20
432.0954810541612
 30
0.0
 11
795.975931026438
 21
455.8533408521493
 31
0.0
  0
CIRCLE
  5
2F9B
330
2
100
AcDbEntity
  8
0
100
AcDbCircle
 10
795.9759310264416
 20
443.9744109531552
 30
0.0
 40
9.0
  0
LINE
  5
2F9C
330
2
100
AcDbEntity
  8
CENTER
  6
CENS
100
AcDbLine
 10
807.8548609254321
 20
443.9744109531552
 30
0.0
 11
784.0970011274439
 21
443.9744109531552
 31
0.0
  0
LINE
  5
2F9D
330
2
100
AcDbEntity
  8
CENTER
  6
CENS
100
AcDbLine
 10
749.9759310264416
 20
501.4044109531551
 30
0.0
 11
781.9759310264417
 21
501.4044109531551
 31
0.0
  0
ARC
  5
2F9E
330
2
100
AcDbEntity
  8
0
100
AcDbCircle
 10
725.3694513777118
 20
492.9744109531593
 30
0.0
 40
5.0
100
AcDbArc
 50
270.0
 51
358.4999999999841
  0
ARC
  5
2F9F
330
2
100
AcDbEntity
  8
0
100
AcDbCircle
 10
734.2647076914326
 20
501.9744109531557
 30
0.0
 40
5.0
100
AcDbArc
 50
270.0
 51
358.4999999999841
  0
ARC
  5
2FA0
330
2
100
AcDbEntity
  8
0
100
AcDbCircle
 10
732.4242227682844
 20
494.9744109531552
 30
0.0
 40
2.0
100
AcDbArc
 50
90.0
 51
178.5000000000102
  0
LINE
  5
2FA1
330
2
100
AcDbEntity
  8
0
100
AcDbLine
 10
732.4242227682844
 20
496.9744109531553
 30
0.0
 11
734.2647076914326
 21
496.9744109531553
 31
0.0
  0
LINE
  5
2FA2
330
2
100
AcDbEntity
  8
0
100
AcDbLine
 10
803.9759310264416
 20
500.9744109531547
 30
0.0
 11
776.9759310264417
 21
501.1314923580507
 31
0.0
  0
LINE
  5
2FA3
330
2
100
AcDbEntity
  8
0
100
AcDbLine
 10
776.575931026442
 20
496.4044109531551
 30
0.0
 11
770.9759310264416
 21
496.4044109531551
 31
0.0
  0
LINE
  5
2FA4
330
2
100
AcDbEntity
  8
0
100
AcDbLine
 10
769.9759310264417
 20
496.4044109531551
 30
0.0
 11
770.9759310264416
 21
496.4044109531551
 31
0.0
  0
LINE
  5
2FA5
330
2
100
AcDbEntity
  8
0
100
AcDbLine
 10
776.575931026442
 20
496.4044109531551
 30
0.0
 11
776.9759310264417
 21
497.0972312761828
 31
0.0
  0
LINE
  5
2FA6
330
2
100
AcDbEntity
  8
0
100
AcDbLine
 10
809.9759310264417
 20
498.9744109531548
 30
0.0
 11
805.9759310264436
 21
499.0442312128675
 31
0.0
  0
LINE
  5
2FA7
330
2
100
AcDbEntity
  8
0
100
AcDbLine
 10
805.9759310264436
 20
499.0442312128675
 30
0.0
 11
803.9759310264416
 21
500.9744109531547
 31
0.0
  0
LINE
  5
2FA8
330
2
100
AcDbEntity
  8
0
100
AcDbLine
 10
754.9759310264416
 20
509.9744109531548
 30
0.0
 11
768.9846575619412
 21
509.8521586487627
 31
0.0
  0
LINE
  5
2FA9
330
2
100
AcDbEntity
  8
0
100
AcDbLine
 10
754.9759310264416
 20
509.9744109531575
 30
0.0
 11
741.4759310264416
 21
509.9744109531577
 31
0.0
  0
ARC
  5
2FAA
330
2
100
AcDbEntity
  8
0
100
AcDbCircle
 10
741.4759310264416
 20
507.9744109531577
 30
0.0
 40
2.0
100
AcDbArc
 50
90.0
 51
180.0
  0
LINE
  5
2FAB
330
2
100
AcDbEntity
  8
0
100
AcDbLine
 10
776.575931026442
 20
506.4044109531555
 30
0.0
 11
776.9759310264417
 21
505.7115906301278
 31
0.0
  0
LINE
  5
2FAC
330
2
100
AcDbEntity
  8
0
100
AcDbLine
 10
770.9759310264416
 20
506.404410953155
 30
0.0
 11
776.575931026442
 21
506.404410953155
 31
0.0
  0
LINE
  5
2FAD
330
2
100
AcDbEntity
  8
0
100
AcDbLine
 10
770.9759310264416
 20
506.404410953155
 30
0.0
 11
769.9759310264417
 21
506.404410953155
 31
0.0
  0
ARC
  5
2FAE
330
2
100
AcDbEntity
  8
0
100
AcDbCircle
 10
768.9759310264435
 20
508.8521967256983
 30
0.0
 40
1.0
100
AcDbArc
 50
0.0
 51
89.50000000003447
  0
LINE
  5
3431
330
2
100
AcDbEntity
  8
0
100
AcDbLine
 10
345.337731189506
 20
157.1866572755888
 30
0.0
 11
339.8202781185104
 21
157.1866572755888
 31
0.0
  0
LINE
  5
3432
330
2
100
AcDbEntity
  8
0
100
AcDbLine
 10
345.337731189506
 20
116.1064589212054
 30
0.0
 11
339.8202781185104
 21
116.1064589212054
 31
0.0
  0
LINE
  5
3433
330
2
100
AcDbEntity
  8
0
100
AcDbLine
 10
345.337731189506
 20
96.64655809837984
 30
0.0
 11
339.8202781185104
 21
96.64655809837984
 31
0.0
  0
LINE
  5
3434
330
2
100
AcDbEntity
  8
0
100
AcDbLine
 10
345.3377311895051
 20
176.6465580984144
 30
0.0
 11
339.8202781185104
 21
176.6465580984144
 31
0.0
  0
LINE
  5
3435
330
2
100
AcDbEntity
  8
0
100
AcDbLine
 10
345.3377311895042
 20
179.6465580984119
 30
0.0
 11
339.8202781185104
 21
179.6465580984119
 31
0.0
  0
LINE
  5
3436
330
2
100
AcDbEntity
  8
0
100
AcDbLine
 10
345.337731189506
 20
93.64655809838234
 30
0.0
 11
339.8202781185104
 21
93.64655809838234
 31
0.0
  0
CIRCLE
  5
345C
330
2
100
AcDbEntity
  8
0
100
AcDbCircle
 10
658.975909026431
 20
136.6465580984026
 30
0.0
 40
26.57735026918937
  0
ENDSEC
  0
SECTION
  2
OBJECTS
  0
DICTIONARY
  5
7
330
0
100
AcDbDictionary
  3
ACAD_COLOR
350
1E33
  3
ACAD_GROUP
350
75
  3
ACAD_LAYOUT
350
61
  3
ACAD_MATERIAL
350
1E09
  3
ACAD_MLEADERSTYLE
350
1E58
  3
ACAD_MLINESTYLE
350
76
  3
ACAD_PLOTSETTINGS
350
77
  3
ACAD_PLOTSTYLENAME
350
6
  3
ACAD_SCALELIST
350
1E36
  3
ACAD_TABLESTYLE
350
1E34
  3
ACAD_VISUALSTYLE
350
1E22
  3
ACADDIM
350
480
  3
ACDB_RECOMPOSE_DATA
350
1E70
  3
ACDBHEADERROUNDTRIPXREC
350
349F
  3
ACDBVARIABLEDICTIONARY
350
102
  3
DWGPROPS
350
346C
  0
DICTIONARY
  5
1E79
330
6E
100
AcDbDictionary
280
     1
  3
ACAD_XREC_ROUNDTRIP
360
3473
  0
DICTIONARY
  5
ADC
330
66
100
AcDbDictionary
280
     1
  3
ACAD_LAYERSTATES
360
ADD
  0
DICTIONARY
  5
1E5E
330
5E
100
AcDbDictionary
280
     1
  3
ACAD_XREC_ROUNDTRIP
360
346F
  3
ADSK_XREC_LAYER_RECONCILED
360
1E5F
  0
DICTIONARY
  5
1E60
330
3E
100
AcDbDictionary
280
     1
  3
ACAD_XREC_ROUNDTRIP
360
346E
  3
ADSK_XREC_LAYER_RECONCILED
360
1E61
  0
DICTIONARY
  5
1E66
330
2B5
100
AcDbDictionary
280
     1
  3
ACAD_XREC_ROUNDTRIP
360
3479
  3
ADSK_XREC_LAYER_RECONCILED
360
1E67
  0
DICTIONARY
  5
1E68
330
2BA
100
AcDbDictionary
280
     1
  3
ACAD_XREC_ROUNDTRIP
360
347A
  3
ADSK_XREC_LAYER_RECONCILED
360
1E69
  0
DICTIONARY
  5
1E6C
330
3FA
100
AcDbDictionary
280
     1
  3
ACAD_XREC_ROUNDTRIP
360
347C
  3
ADSK_XREC_LAYER_RECONCILED
360
1E6D
  0
DICTIONARY
  5
34C0
330
2
100
AcDbDictionary
280
     1
  3
ACAD_LAYOUTSELFREF
360
34C1
  0
DICTIONARY
  5
34C2
330
3499
100
AcDbDictionary
280
     1
  3
ACAD_LAYOUTSELFREF
360
34C3
  0
DICTIONARY
  5
1E33
102
{ACAD_REACTORS
330
7
102
}
330
7
100
AcDbDictionary
  0
DICTIONARY
  5
75
102
{ACAD_REACTORS
330
7
102
}
330
7
100
AcDbDictionary
  0
DICTIONARY
  5
61
102
{ACAD_REACTORS
330
7
102
}
330
7
100
AcDbDictionary
  0
DICTIONARY
  5
1E09
102
{ACAD_REACTORS
330
7
102
}
330
7
100
AcDbDictionary
  3
BYBLOCK
350
1E12
  3
BYLAYER
350
1E0A
  3
GLOBAL
350
1E1A
  0
DICTIONARY
  5
1E58
102
{ACAD_REACTORS
330
7
102
}
330
7
100
AcDbDictionary
  3
STANDARD
350
1E59
  0
DICTIONARY
  5
76
102
{ACAD_REACTORS
330
7
102
}
330
7
100
AcDbDictionary
  3
STANDARD
350
78
  0
DICTIONARY
  5
77
102
{ACAD_REACTORS
330
7
102
}
330
7
100
AcDbDictionary
  0
ACDBDICTIONARYWDFLT
  5
6
102
{ACAD_REACTORS
330
7
102
}
330
7
100
AcDbDictionary
281
     1
  3
Normal
350
5
100
AcDbDictionaryWithDefault
340
5
  0
DICTIONARY
  5
1E36
102
{ACAD_REACTORS
330
7
102
}
330
7
100
AcDbDictionary
  3
A0
350
1E37
  3
A1
350
1E38
  3
A2
350
1E39
  3
A3
350
1E3A
  3
A4
350
1E3B
  3
A5
350
1E3C
  3
A6
350
1E3D
  3
A7
350
1E3E
  3
A8
350
1E3F
  3
A9
350
1E40
  3
B0
350
1E41
  3
B1
350
1E42
  3
B2
350
1E43
  3
B3
350
1E44
  3
B4
350
1E45
  3
B5
350
1E46
  3
B6
350
1E47
  3
B7
350
1E48
  3
B8
350
1E49
  3
B9
350
1E4A
  3
C0
350
1E4B
  3
C1
350
1E4C
  3
C2
350
1E4D
  3
C3
350
1E4E
  3
C4
350
1E4F
  3
C5
350
1E50
  3
C6
350
1E51
  3
C7
350
1E52
  3
C8
350
1E53
  3
C9
350
1E54
  3
D0
350
1E55
  3
D1
350
1E56
  3
D2
350
1E57
  0
DICTIONARY
  5
1E34
102
{ACAD_REACTORS
330
7
102
}
330
7
100
AcDbDictionary
  3
STANDARD
350
1E35
  0
DICTIONARY
  5
1E22
102
{ACAD_REACTORS
330
7
102
}
330
7
100
AcDbDictionary
  3
2DWIREFRAME
350
1E28
  3
3D_HIDDEN
350
1E2A
  3
3DWIREFRAME
350
1E29
  3
BASIC
350
1E27
  3
BRIGHTEN
350
1E2E
  3
COLORCHANGE
350
1E32
  3
CONCEPTUAL
350
1E2B
  3
DIM
350
1E2D
  3
FACEPATTERN
350
1E31
  3
FLAT
350
1E23
  3
FLATWITHEDGES
350
1E24
  3
GOURAUD
350
1E25
  3
GOURAUDWITHEDGES
350
1E26
  3
LINEPATTERN
350
1E30
  3
REALISTIC
350
1E2C
  3
THICKEN
350
1E2F
  0
XRECORD
  5
480
102
{ACAD_REACTORS
330
7
102
}
330
7
100
AcDbXrecord
 90
   990106
  3

 60
     0
 61
     0
 62
     1
 63
     3
 64
     1
 65
     0
 66
     0
 67
     3
 68
     1
 69
     0
 70
     0
 71
     0
 72
     0
 40
0.0
170
     2
340
0
  0
XRECORD
  5
1E70
102
{ACAD_REACTORS
330
7
102
}
330
7
100
AcDbXrecord
 90
        1
330
1E35
  0
DICTIONARY
  5
349F
102
{ACAD_REACTORS
330
7
102
}
330
7
100
AcDbDictionary
  3
CEPSNTYPE
350
34A9
  3
DIMSTYLEDATA
350
34AD
  3
FINGERPRINTGUID
350
34AA
  3
HYPERLINKBASE
350
34A2
  3
INSUNITS
350
34A8
  3
LAYOUTDICT
350
34A4
  3
LWETCUNION
350
34A7
  3
PLOTSETDICT
350
34A5
  3
PLOTSTYLNAMDICT
350
34A6
  3
PSVPSCALE
350
34AC
  3
PUCSBASE
350
34B0
  3
PUCSORGBACK
350
34B6
  3
PUCSORGBOTTOM
350
34B2
  3
PUCSORGFRONT
350
34B5
  3
PUCSORGLEFT
350
34B3
  3
PUCSORGRIGHT
350
34B4
  3
PUCSORGTOP
350
34B1
  3
PUCSORTHOREF
350
34AE
  3
PUCSORTHOVIEW
350
34AF
  3
STYLESHEET
350
34A3
  3
TSTACKALIGN
350
34A0
  3
TSTACKSIZE
350
34A1
  3
UCSBASE
350
34B9
  3
UCSORGBACK
350
34BF
  3
UCSORGBOTTOM
350
34BB
  3
UCSORGFRONT
350
34BE
  3
UCSORGLEFT
350
34BC
  3
UCSORGRIGHT
350
34BD
  3
UCSORGTOP
350
34BA
  3
UCSORTHOREF
350
34B7
  3
UCSORTHOVIEW
350
34B8
  3
VERSIONGUID
350
34AB
  0
DICTIONARY
  5
102
102
{ACAD_REACTORS
330
7
102
}
330
7
100
AcDbDictionary
  3
CANNOSCALE
350
1E91
  3
CMLEADERSTYLE
350
1E90
  3
CTABLESTYLE
350
1E8F
  3
DIMASSOC
350
103
  3
INDEXCTL
350
1E92
  3
SORTENTS
350
549
  0
XRECORD
  5
346C
102
{ACAD_REACTORS
330
7
102
}
330
7
100
AcDbXrecord
  1
DWGPROPS COOKIE
  2

  3

  4

  6

  7

  8
ymorima
  9

300
=
301
=
302
=
303
=
304
=
305
=
306
=
307
=
308
=
309
=
 40
0.0346977777777778
 41
2454411.434690023
 42
2454425.759271909
  1

 90
        0
  0
XRECORD
  5
3473
102
{ACAD_REACTORS
330
1E79
102
}
330
1E79
100
AcDbXrecord
102
VTR_0.000_0.000_1.000_1.000_VISUALSTYLE
340
1E28
102
VTR_0.000_0.000_1.000_1.000_GRIDDISPLAY
 70
     3
102
VTR_0.000_0.000_1.000_1.000_GRIDMAJOR
 70
     5
102
VTR_0.000_0.000_1.000_1.000_DEFAULTLIGHTING
280
     1
102
VTR_0.000_0.000_1.000_1.000_DEFAULTLIGHTINGTYPE
 70
     1
102
VTR_0.000_0.000_1.000_1.000_BRIGHTNESS
141
0.0
102
VTR_0.000_0.000_1.000_1.000_CONTRAST
142
0.0
  0
DICTIONARY
  5
ADD
102
{ACAD_REACTORS
330
ADC
102
}
330
ADC
100
AcDbDictionary
  0
XRECORD
  5
346F
102
{ACAD_REACTORS
330
1E5E
102
}
330
1E5E
100
AcDbXrecord
102
MATERIAL
340
1E1A
  0
XRECORD
  5
1E5F
102
{ACAD_REACTORS
330
1E5E
102
}
330
1E5E
100
AcDbXrecord
290
     1
  0
XRECORD
  5
346E
102
{ACAD_REACTORS
330
1E60
102
}
330
1E60
100
AcDbXrecord
102
MATERIAL
340
1E1A
  0
XRECORD
  5
1E61
102
{ACAD_REACTORS
330
1E60
102
}
330
1E60
100
AcDbXrecord
290
     1
  0
XRECORD
  5
3479
102
{ACAD_REACTORS
330
1E66
102
}
330
1E66
100
AcDbXrecord
102
MATERIAL
340
1E1A
  0
XRECORD
  5
1E67
102
{ACAD_REACTORS
330
1E66
102
}
330
1E66
100
AcDbXrecord
290
     1
  0
XRECORD
  5
347A
102
{ACAD_REACTORS
330
1E68
102
}
330
1E68
100
AcDbXrecord
102
MATERIAL
340
1E1A
  0
XRECORD
  5
1E69
102
{ACAD_REACTORS
330
1E68
102
}
330
1E68
100
AcDbXrecord
290
     1
  0
XRECORD
  5
347C
102
{ACAD_REACTORS
330
1E6C
102
}
330
1E6C
100
AcDbXrecord
102
MATERIAL
340
1E1A
  0
XRECORD
  5
1E6D
102
{ACAD_REACTORS
330
1E6C
102
}
330
1E6C
100
AcDbXrecord
290
     1
  0
XRECORD
  5
34C1
102
{ACAD_REACTORS
330
34C0
102
}
330
34C0
100
AcDbXrecord
340
2
  0
XRECORD
  5
34C3
102
{ACAD_REACTORS
330
34C2
102
}
330
34C2
100
AcDbXrecord
340
3499
  0
ACAD_PROXY_OBJECT
  5
1E12
102
{ACAD_XDICTIONARY
360
1E13
102
}
102
{ACAD_REACTORS
330
1E09
102
}
330
1E09
100
AcDbProxyObject
 90
      499
 91
      511
 93
     1340
310
42109E509B1BD8DAC02004014080404555555555555953FAA155555555555654FEA9AA400014080404555555555555953FAA155555555555654FEA9AA400000000000000E03F4080404555555555555953FAA155555555555654FEA9AA4014080404555555555555953FAA155555555555654FEA9AA4010201011555555555
310
55654FEA8555555555555953FAA6A9005020101155555555555654FEA8555555555555953FAA6A9000
 94
        0
1001
ACAD
1000
AcadProxyRoundTripData
1071
      504
1071
   655383
1070
     0
  0
ACAD_PROXY_OBJECT
  5
1E0A
102
{ACAD_XDICTIONARY
360
1E0B
102
}
102
{ACAD_REACTORS
330
1E09
102
}
330
1E09
100
AcDbProxyObject
 90
      499
 91
      511
 93
     1340
310
42109E53185E595C802004014080404555555555555953FAA155555555555654FEA9AA400014080404555555555555953FAA155555555555654FEA9AA400000000000000E03F4080404555555555555953FAA155555555555654FEA9AA4014080404555555555555953FAA155555555555654FEA9AA4010201011555555555
310
55654FEA8555555555555953FAA6A9005020101155555555555654FEA8555555555555953FAA6A9000
 94
        0
1001
ACAD
1000
AcadProxyRoundTripData
1071
      504
1071
   655383
1070
     0
  0
ACAD_PROXY_OBJECT
  5
1E1A
102
{ACAD_XDICTIONARY
360
1E1B
102
}
102
{ACAD_REACTORS
330
1E09
102
}
330
1E09
100
AcDbProxyObject
 90
      499
 91
      511
 93
     1332
310
41D1DB1BD8985B002004014080404555555555555953FAA155555555555654FEA9AA400014080404555555555555953FAA155555555555654FEA9AA400000000000000E03F4080404555555555555953FAA155555555555654FEA9AA4014080404555555555555953FAA155555555555654FEA9AA401020101155555555555
310
654FEA8555555555555953FAA6A9005020101155555555555654FEA8555555555555953FAA6A9000
 94
        0
1001
ACAD
1000
AcadProxyRoundTripData
1071
      504
1071
   655383
1070
     0
  0
ACAD_PROXY_OBJECT
  5
1E59
102
{ACAD_REACTORS
330
1E58
102
}
330
1E58
100
AcDbProxyObject
 90
      499
 91
      511
 93
      618
310
40901902A4063FBFFFFFE056BD1B81E855B9FC0AD7A3703D0AD73F4254DD185B99185C990000AD7A3703D0AC73F90141901A02B5E8DC0F42B1CFC02B5E8DC0F42B1CFE5764000000000000300FC6
340
6A
340
0
340
16
340
0
 94
        0
1001
ACAD_MLEADERVER
1070
     2
1001
ACAD
1000
AcadProxyRoundTripData
1071
      508
1071
   655383
1070
     0
  0
MLINESTYLE
  5
78
102
{ACAD_REACTORS
330
76
102
}
330
76
100
AcDbMlineStyle
  2
STANDARD
 70
     0
  3

 62
     0
 51
90.0
 52
90.0
 71
     2
 49
0.5
 62
   256
  6
BYLAYER
 49
-0.5
 62
   256
  6
BYLAYER
  0
ACDBPLACEHOLDER
  5
5
102
{ACAD_REACTORS
330
6
102
}
330
6
100
AcDbPlaceHolder
280
     0
  0
ACAD_PROXY_OBJECT
  5
1E37
102
{ACAD_REACTORS
330
1E36
102
}
330
1E36
100
AcDbProxyObject
 90
      499
 91
      511
 93
       49
310
904313A3100598
 94
        0
1001
ACAD
1000
AcadProxyRoundTripData
1071
      507
1071
   655383
1070
     0
  0
ACAD_PROXY_OBJECT
  5
1E38
102
{ACAD_REACTORS
330
1E36
102
}
330
1E36
100
AcDbProxyObject
 90
      499
 91
      511
 93
      113
310
904313A3200400000000000000406B
 94
        0
1001
ACAD
1000
AcadProxyRoundTripData
1071
      507
1071
   655383
1070
     0
  0
ACAD_PROXY_OBJECT
  5
1E39
102
{ACAD_REACTORS
330
1E36
102
}
330
1E36
100
AcDbProxyObject
 90
      499
 91
      511
 93
      113
310
904313A3400400000000000010406B
 94
        0
1001
ACAD
1000
AcadProxyRoundTripData
1071
      507
1071
   655383
1070
     0
  0
ACAD_PROXY_OBJECT
  5
1E3A
102
{ACAD_REACTORS
330
1E36
102
}
330
1E36
100
AcDbProxyObject
 90
      499
 91
      511
 93
      113
310
904313A3500400000000000014406B
 94
        0
1001
ACAD
1000
AcadProxyRoundTripData
1071
      507
1071
   655383
1070
     0
  0
ACAD_PROXY_OBJECT
  5
1E3B
102
{ACAD_REACTORS
330
1E36
102
}
330
1E36
100
AcDbProxyObject
 90
      499
 91
      511
 93
      113
310
904313A3800400000000000020406B
 94
        0
1001
ACAD
1000
AcadProxyRoundTripData
1071
      507
1071
   655383
1070
     0
  0
ACAD_PROXY_OBJECT
  5
1E3C
102
{ACAD_REACTORS
330
1E36
102
}
330
1E36
100
AcDbProxyObject
 90
      499
 91
      511
 93
      121
310
905313A3130004000000000000244051
 94
        0
1001
ACAD
1000
AcadProxyRoundTripData
1071
      507
1071
   655383
1070
     0
  0
ACAD_PROXY_OBJECT
  5
1E3D
102
{ACAD_REACTORS
330
1E36
102
}
330
1E36
100
AcDbProxyObject
 90
      499
 91
      511
 93
      121
310
905313A3136004000000000000304051
 94
        0
1001
ACAD
1000
AcadProxyRoundTripData
1071
      507
1071
   655383
1070
     0
  0
ACAD_PROXY_OBJECT
  5
1E3E
102
{ACAD_REACTORS
330
1E36
102
}
330
1E36
100
AcDbProxyObject
 90
      499
 91
      511
 93
      121
310
905313A3230004000000000000344051
 94
        0
1001
ACAD
1000
AcadProxyRoundTripData
1071
      507
1071
   655383
1070
     0
  0
ACAD_PROXY_OBJECT
  5
1E3F
102
{ACAD_REACTORS
330
1E36
102
}
330
1E36
100
AcDbProxyObject
 90
      499
 91
      511
 93
      121
310
905313A33300040000000000003E4051
 94
        0
1001
ACAD
1000
AcadProxyRoundTripData
1071
      507
1071
   655383
1070
     0
  0
ACAD_PROXY_OBJECT
  5
1E40
102
{ACAD_REACTORS
330
1E36
102
}
330
1E36
100
AcDbProxyObject
 90
      499
 91
      511
 93
      121
310
905313A3430004000000000000444051
 94
        0
1001
ACAD
1000
AcadProxyRoundTripData
1071
      507
1071
   655383
1070
     0
  0
ACAD_PROXY_OBJECT
  5
1E41
102
{ACAD_REACTORS
330
1E36
102
}
330
1E36
100
AcDbProxyObject
 90
      499
 91
      511
 93
      121
310
905313A3530004000000000000494051
 94
        0
1001
ACAD
1000
AcadProxyRoundTripData
1071
      507
1071
   655383
1070
     0
  0
ACAD_PROXY_OBJECT
  5
1E42
102
{ACAD_REACTORS
330
1E36
102
}
330
1E36
100
AcDbProxyObject
 90
      499
 91
      511
 93
      129
310
906313A313030004000000000000594038
 94
        0
1001
ACAD
1000
AcadProxyRoundTripData
1071
      507
1071
   655383
1070
     0
  0
ACAD_PROXY_OBJECT
  5
1E43
102
{ACAD_REACTORS
330
1E36
102
}
330
1E36
100
AcDbProxyObject
 90
      499
 91
      511
 93
      113
310
904323A31000000000000000010159
 94
        0
1001
ACAD
1000
AcadProxyRoundTripData
1071
      507
1071
   655383
1070
     0
  0
ACAD_PROXY_OBJECT
  5
1E44
102
{ACAD_REACTORS
330
1E36
102
}
330
1E36
100
AcDbProxyObject
 90
      499
 91
      511
 93
      113
310
904343A31000000000000000410159
 94
        0
1001
ACAD
1000
AcadProxyRoundTripData
1071
      507
1071
   655383
1070
     0
  0
ACAD_PROXY_OBJECT
  5
1E45
102
{ACAD_REACTORS
330
1E36
102
}
330
1E36
100
AcDbProxyObject
 90
      499
 91
      511
 93
      113
310
904383A31000000000000000810159
 94
        0
1001
ACAD
1000
AcadProxyRoundTripData
1071
      507
1071
   655383
1070
     0
  0
ACAD_PROXY_OBJECT
  5
1E46
102
{ACAD_REACTORS
330
1E36
102
}
330
1E36
100
AcDbProxyObject
 90
      499
 91
      511
 93
      121
310
90531303A31000000000000000910140
 94
        0
1001
ACAD
1000
AcadProxyRoundTripData
1071
      507
1071
   655383
1070
     0
  0
ACAD_PROXY_OBJECT
  5
1E47
102
{ACAD_REACTORS
330
1E36
102
}
330
1E36
100
AcDbProxyObject
 90
      499
 91
      511
 93
      129
310
9063130303A31000000000000001650138
 94
        0
1001
ACAD
1000
AcadProxyRoundTripData
1071
      507
1071
   655383
1070
     0
  0
ACAD_PROXY_OBJECT
  5
1E48
102
{ACAD_REACTORS
330
1E36
102
}
330
1E36
100
AcDbProxyObject
 90
      499
 91
      511
 93
      265
310
90F312F31323822203D2031272D302200000000000000200FC00000000000028402B
 94
        0
1001
ACAD
1000
AcadProxyRoundTripData
1071
      507
1071
   655383
1070
     0
  0
ACAD_PROXY_OBJECT
  5
1E49
102
{ACAD_REACTORS
330
1E36
102
}
330
1E36
100
AcDbProxyObject
 90
      499
 91
      511
 93
      257
310
90E312F363422203D2031272D302200000000000000240FC000000000000284040
 94
        0
1001
ACAD
1000
AcadProxyRoundTripData
1071
      507
1071
   655383
1070
     0
  0
ACAD_PROXY_OBJECT
  5
1E4A
102
{ACAD_REACTORS
330
1E36
102
}
330
1E36
100
AcDbProxyObject
 90
      499
 91
      511
 93
      257
310
90E312F333222203D2031272D302200000000000000280FC000000000000284040
 94
        0
1001
ACAD
1000
AcadProxyRoundTripData
1071
      507
1071
   655383
1070
     0
  0
ACAD_PROXY_OBJECT
  5
1E4B
102
{ACAD_REACTORS
330
1E36
102
}
330
1E36
100
AcDbProxyObject
 90
      499
 91
      511
 93
      257
310
90E312F313622203D2031272D3022000000000000002C0FC000000000000284040
 94
        0
1001
ACAD
1000
AcadProxyRoundTripData
1071
      507
1071
   655383
1070
     0
  0
ACAD_PROXY_OBJECT
  5
1E4C
102
{ACAD_REACTORS
330
1E36
102
}
330
1E36
100
AcDbProxyObject
 90
      499
 91
      511
 93
      257
310
90E332F333222203D2031272D3022000000000000002E0FC000000000000284040
 94
        0
1001
ACAD
1000
AcadProxyRoundTripData
1071
      507
1071
   655383
1070
     0
  0
ACAD_PROXY_OBJECT
  5
1E4D
102
{ACAD_REACTORS
330
1E36
102
}
330
1E36
100
AcDbProxyObject
 90
      499
 91
      511
 93
      249
310
90D312F3822203D2031272D302200000000000000300FC000000000000284040
 94
        0
1001
ACAD
1000
AcadProxyRoundTripData
1071
      507
1071
   655383
1070
     0
  0
ACAD_PROXY_OBJECT
  5
1E4E
102
{ACAD_REACTORS
330
1E36
102
}
330
1E36
100
AcDbProxyObject
 90
      499
 91
      511
 93
      257
310
90E332F313622203D2031272D302200000000000000320FC000000000000284040
 94
        0
1001
ACAD
1000
AcadProxyRoundTripData
1071
      507
1071
   655383
1070
     0
  0
ACAD_PROXY_OBJECT
  5
1E4F
102
{ACAD_REACTORS
330
1E36
102
}
330
1E36
100
AcDbProxyObject
 90
      499
 91
      511
 93
      249
310
90D312F3422203D2031272D302200000000000000340FC000000000000284040
 94
        0
1001
ACAD
1000
AcadProxyRoundTripData
1071
      507
1071
   655383
1070
     0
  0
ACAD_PROXY_OBJECT
  5
1E50
102
{ACAD_REACTORS
330
1E36
102
}
330
1E36
100
AcDbProxyObject
 90
      499
 91
      511
 93
      249
310
90D332F3822203D2031272D302200000000000000360FC000000000000284040
 94
        0
1001
ACAD
1000
AcadProxyRoundTripData
1071
      507
1071
   655383
1070
     0
  0
ACAD_PROXY_OBJECT
  5
1E51
102
{ACAD_REACTORS
330
1E36
102
}
330
1E36
100
AcDbProxyObject
 90
      499
 91
      511
 93
      249
310
90D312F3222203D2031272D302200000000000000380FC000000000000284040
 94
        0
1001
ACAD
1000
AcadProxyRoundTripData
1071
      507
1071
   655383
1070
     0
  0
ACAD_PROXY_OBJECT
  5
1E52
102
{ACAD_REACTORS
330
1E36
102
}
330
1E36
100
AcDbProxyObject
 90
      499
 91
      511
 93
      249
310
90D332F3422203D2031272D3022000000000000003A0FC000000000000284040
 94
        0
1001
ACAD
1000
AcadProxyRoundTripData
1071
      507
1071
   655383
1070
     0
  0
ACAD_PROXY_OBJECT
  5
1E53
102
{ACAD_REACTORS
330
1E36
102
}
330
1E36
100
AcDbProxyObject
 90
      499
 91
      511
 93
      169
310
90B3122203D2031272D3022004000000000000284020
 94
        0
1001
ACAD
1000
AcadProxyRoundTripData
1071
      507
1071
   655383
1070
     0
  0
ACAD_PROXY_OBJECT
  5
1E54
102
{ACAD_REACTORS
330
1E36
102
}
330
1E36
100
AcDbProxyObject
 90
      499
 91
      511
 93
      265
310
90F312D312F3222203D2031272D3022000000000000003E0FC00000000000028402B
 94
        0
1001
ACAD
1000
AcadProxyRoundTripData
1071
      507
1071
   655383
1070
     0
  0
ACAD_PROXY_OBJECT
  5
1E55
102
{ACAD_REACTORS
330
1E36
102
}
330
1E36
100
AcDbProxyObject
 90
      499
 91
      511
 93
      233
310
90B3322203D2031272D30220000000000000002100000000000000284000
 94
        0
1001
ACAD
1000
AcadProxyRoundTripData
1071
      507
1071
   655383
1070
     0
  0
ACAD_PROXY_OBJECT
  5
1E56
102
{ACAD_REACTORS
330
1E36
102
}
330
1E36
100
AcDbProxyObject
 90
      499
 91
      511
 93
      233
310
90B3622203D2031272D30220000000000000006100000000000000284000
 94
        0
1001
ACAD
1000
AcadProxyRoundTripData
1071
      507
1071
   655383
1070
     0
  0
ACAD_PROXY_OBJECT
  5
1E57
102
{ACAD_REACTORS
330
1E36
102
}
330
1E36
100
AcDbProxyObject
 90
      499
 91
      511
 93
      257
310
90E31272D3022203D2031272D3022000000000000000A100000000000000284040
 94
        0
1001
ACAD
1000
AcadProxyRoundTripData
1071
      507
1071
   655383
1070
     0
  0
ACAD_PROXY_OBJECT
  5
1E35
102
{ACAD_XDICTIONARY
360
1E6E
102
}
102
{ACAD_REACTORS
330
1E34
102
}
330
1E34
100
AcDbProxyObject
 90
      499
 91
      511
 93
     1849
310
4254DD185B99185C990028B81E85EB51B8AE3F2E07A17AD46E2B8FC02B5E8DC0F42B1CFD028000000C1008070000C3001FDFF8000000C1003FBFF000000182007F7FE00000030400FEFFC00000060801FDFF8000000C1003FBFF00000018200000000000000681FA0B0000001820100E000186003FBFF000000182007F7FE0
310
0000030400FEFFC00000060801FDFF8000000C1003FBFF000000182007F7FE000000304000AD7A3703D0AC73F4160000003040201C00030C007F7FE00000030400FEFFC00000060801FDFF8000000C1003FBFF000000182007F7FE00000030400FEFFC000000608000
340
16
340
16
340
16
 94
        0
1001
ACAD
1000
AcadProxyRoundTripData
1071
      506
1071
   655383
1070
     0
  0
ACAD_PROXY_OBJECT
  5
1E28
102
{ACAD_REACTORS
330
1E22
102
}
330
1E22
100
AcDbProxyObject
 90
      499
 91
      511
 93
      444
310
430C9915DA5C99599C985B59401049028333333333333E3BF0000000000000FB0107901411070040501600405405064090741402480A0340
 94
        0
1001
ACAD
1000
AcDbSavedByObjectVersion
1070
     0
1000
AcadProxyRoundTripData
1071
      505
1071
   655383
1070
     0
  0
ACAD_PROXY_OBJECT
  5
1E2A
102
{ACAD_REACTORS
330
1E22
102
}
330
1E22
100
AcDbProxyObject
 90
      499
 91
      511
 93
      508
310
428CD108121A5919195B8010640502408333333333333E3BF0000000000000FB01079024090700405020000000000001110200405405064090740C02480A0340
 94
        0
1001
ACAD
1000
AcDbSavedByObjectVersion
1070
     0
1000
AcadProxyRoundTripData
1071
      505
1071
   655383
1070
     0
  0
ACAD_PROXY_OBJECT
  5
1E29
102
{ACAD_REACTORS
330
1E22
102
}
330
1E22
100
AcDbProxyObject
 90
      499
 91
      511
 93
      444
310
430CD915DA5C99599C985B59401059028333333333333E3BF0000000000000FB0107901411070040501600405405064090741402480A0340
 94
        0
1001
ACAD
1000
AcDbSavedByObjectVersion
1070
     0
1000
AcadProxyRoundTripData
1071
      505
1071
   655383
1070
     0
  0
ACAD_PROXY_OBJECT
  5
1E27
102
{ACAD_REACTORS
330
1E22
102
}
330
1E22
100
AcDbProxyObject
 90
      499
 91
      511
 93
      396
310
4190985CDA58C0107406404333333333333E3BF0000000000000FB0107A41107004050150841D405064090741402480A0356
 94
        0
1001
ACAD
1000
AcDbSavedByObjectVersion
1070
     0
1000
AcadProxyRoundTripData
1071
      505
1071
   655383
1070
     0
  0
ACAD_PROXY_OBJECT
  5
1E2E
102
{ACAD_REACTORS
330
1E22
102
}
330
1E22
100
AcDbProxyObject
 90
      499
 91
      511
 93
      436
310
42509C9A59DA1D195B8010C409028333333333333E3BF0000000000000FB010790141107004050150841D405064090741402480A029956
 94
        0
1001
ACAD
1000
AcDbSavedByObjectVersion
1070
     0
1000
AcadProxyRoundTripData
1071
      505
1071
   655383
1070
     0
  0
ACAD_PROXY_OBJECT
  5
1E32
102
{ACAD_REACTORS
330
1E22
102
}
330
1E22
100
AcDbProxyObject
 90
      499
 91
      511
 93
      460
310
4310DBDB1BDC90DA185B99D9401104090240C333333333333E3BF0000000000000FB0108901411070040501508421405064090741402480A0354
 94
        0
1001
ACAD
1000
AcDbSavedByObjectVersion
1070
     0
1000
AcadProxyRoundTripData
1071
      505
1071
   655383
1070
     0
  0
ACAD_PROXY_OBJECT
  5
1E2B
102
{ACAD_REACTORS
330
1E22
102
}
330
1E22
100
AcDbProxyObject
 90
      499
 91
      511
 93
      508
310
42D0DBDB98D95C1D1D585B0010940D028333333333333E3BF0000000000000FB0107902409070040501000000000000111010841D405064090740C02480A0340
 94
        0
1001
ACAD
1000
AcDbSavedByObjectVersion
1070
     0
1000
AcadProxyRoundTripData
1071
      505
1071
   655383
1070
     0
  0
ACAD_PROXY_OBJECT
  5
1E2D
102
{ACAD_REACTORS
330
1E22
102
}
330
1E22
100
AcDbProxyObject
 90
      499
 91
      511
 93
      420
310
41111A5B4010B409028333333333333E3BF0000000000000FB010790141107004050150841D405064090741402480A02677FFFFFDB
 94
        0
1001
ACAD
1000
AcDbSavedByObjectVersion
1070
     0
1000
AcadProxyRoundTripData
1071
      505
1071
   655383
1070
     0
  0
ACAD_PROXY_OBJECT
  5
1E31
102
{ACAD_REACTORS
330
1E22
102
}
330
1E22
100
AcDbProxyObject
 90
      499
 91
      511
 93
      452
310
43119858D95C185D1D195C9B8010F409028333333333333E3BF0000000000000FB010790141107004050150841D405064090741402480A0350
 94
        0
1001
ACAD
1000
AcDbSavedByObjectVersion
1070
     0
1000
AcadProxyRoundTripData
1071
      505
1071
   655383
1070
     0
  0
ACAD_PROXY_OBJECT
  5
1E23
102
{ACAD_REACTORS
330
1E22
102
}
330
1E22
100
AcDbProxyObject
 90
      499
 91
      511
 93
      396
310
41519B185D00240901404333333333333E3BF0000000000000F9010740A41107004050150841D405064090741402480A1B55
 94
        0
1001
ACAD
1000
AcDbSavedByObjectVersion
1070
     0
1000
AcadProxyRoundTripData
1071
      505
1071
   655383
1070
     0
  0
ACAD_PROXY_OBJECT
  5
1E24
102
{ACAD_REACTORS
330
1E22
102
}
330
1E22
100
AcDbProxyObject
 90
      499
 91
      511
 93
      484
310
43919B185D15DA5D1A115919D95CC010140901404333333333333E3BF0000000000000F9010740901411070040501600405405064090741402480A1B50
 94
        0
1001
ACAD
1000
AcDbSavedByObjectVersion
1070
     0
1000
AcadProxyRoundTripData
1071
      505
1071
   655383
1070
     0
  0
ACAD_PROXY_OBJECT
  5
1E25
102
{ACAD_REACTORS
330
1E22
102
}
330
1E22
100
AcDbProxyObject
 90
      499
 91
      511
 93
      420
310
4211DBDD5C985D590010240902404333333333333E3BF0000000000000F9010740A411070040501641D405064090741402480A1B50
 94
        0
1001
ACAD
1000
AcDbSavedByObjectVersion
1070
     0
1000
AcadProxyRoundTripData
1071
      505
1071
   655383
1070
     0
  0
ACAD_PROXY_OBJECT
  5
1E26
102
{ACAD_REACTORS
330
1E22
102
}
330
1E22
100
AcDbProxyObject
 90
      499
 91
      511
 93
      508
310
4451DBDD5C985D5915DA5D1A115919D95CC010340902404333333333333E3BF0000000000000F9010740901411070040501600405405064090741402480A1B50
 94
        0
1001
ACAD
1000
AcDbSavedByObjectVersion
1070
     0
1000
AcadProxyRoundTripData
1071
      505
1071
   655383
1070
     0
  0
ACAD_PROXY_OBJECT
  5
1E30
102
{ACAD_REACTORS
330
1E22
102
}
330
1E22
100
AcDbProxyObject
 90
      499
 91
      511
 93
      452
310
43131A5B995C185D1D195C9B8010E409028333333333333E3BF0000000000000FB010790141107004050750841D405064090741402483A0350
 94
        0
1001
ACAD
1000
AcDbSavedByObjectVersion
1070
     0
1000
AcadProxyRoundTripData
1071
      505
1071
   655383
1070
     0
  0
ACAD_PROXY_OBJECT
  5
1E2C
102
{ACAD_REACTORS
330
1E22
102
}
330
1E22
100
AcDbProxyObject
 90
      499
 91
      511
 93
      428
310
429499585B1A5CDD1A58C0108409028333333333333E3BF0000000000000FB01079019070040501508421405064090741402480A1B45
 94
        0
1001
ACAD
1000
AcDbSavedByObjectVersion
1070
     0
1000
AcadProxyRoundTripData
1071
      505
1071
   655383
1070
     0
  0
ACAD_PROXY_OBJECT
  5
1E2F
102
{ACAD_REACTORS
330
1E22
102
}
330
1E22
100
AcDbProxyObject
 90
      499
 91
      511
 93
      420
310
42151A1A58DAD95B8010D409028333333333333E3BF0000000000000FB010790141107004050150C41D405064090741402480A0352
 94
        0
1001
ACAD
1000
AcDbSavedByObjectVersion
1070
     0
1000
AcadProxyRoundTripData
1071
      505
1071
   655383
1070
     0
  0
XRECORD
  5
34A9
102
{ACAD_REACTORS
330
349F
102
}
330
349F
100
AcDbXrecord
 90
        0
  0
XRECORD
  5
34AD
102
{ACAD_REACTORS
330
349F
102
}
330
349F
100
AcDbXrecord
1000
DSTYLE
1002
{
1070
   179
 70
     2
1070
   277
 70
     6
1002
}
  0
XRECORD
  5
34AA
102
{ACAD_REACTORS
330
349F
102
}
330
349F
100
AcDbXrecord
  1
{6385560B-F4B1-4644-A7C2-A3E32AC3D232}
  0
XRECORD
  5
34A2
102
{ACAD_REACTORS
330
349F
102
}
330
349F
100
AcDbXrecord
  1

  0
XRECORD
  5
34A8
102
{ACAD_REACTORS
330
349F
102
}
330
349F
100
AcDbXrecord
 90
        0
  0
XRECORD
  5
34A4
102
{ACAD_REACTORS
330
349F
102
}
330
349F
100
AcDbXrecord
340
61
  0
XRECORD
  5
34A7
102
{ACAD_REACTORS
330
349F
102
}
330
349F
100
AcDbXrecord
 90
    10781
  0
XRECORD
  5
34A5
102
{ACAD_REACTORS
330
349F
102
}
330
349F
100
AcDbXrecord
340
77
  0
XRECORD
  5
34A6
102
{ACAD_REACTORS
330
349F
102
}
330
349F
100
AcDbXrecord
340
6
  0
XRECORD
  5
34AC
102
{ACAD_REACTORS
330
349F
102
}
330
349F
100
AcDbXrecord
 40
0.0
  0
XRECORD
  5
34B0
102
{ACAD_REACTORS
330
349F
102
}
330
349F
100
AcDbXrecord
340
0
  0
XRECORD
  5
34B6
102
{ACAD_REACTORS
330
349F
102
}
330
349F
100
AcDbXrecord
 10
0.0
 20
0.0
 30
0.0
  0
XRECORD
  5
34B2
102
{ACAD_REACTORS
330
349F
102
}
330
349F
100
AcDbXrecord
 10
0.0
 20
0.0
 30
0.0
  0
XRECORD
  5
34B5
102
{ACAD_REACTORS
330
349F
102
}
330
349F
100
AcDbXrecord
 10
0.0
 20
0.0
 30
0.0
  0
XRECORD
  5
34B3
102
{ACAD_REACTORS
330
349F
102
}
330
349F
100
AcDbXrecord
 10
0.0
 20
0.0
 30
0.0
  0
XRECORD
  5
34B4
102
{ACAD_REACTORS
330
349F
102
}
330
349F
100
AcDbXrecord
 10
0.0
 20
0.0
 30
0.0
  0
XRECORD
  5
34B1
102
{ACAD_REACTORS
330
349F
102
}
330
349F
100
AcDbXrecord
 10
0.0
 20
0.0
 30
0.0
  0
XRECORD
  5
34AE
102
{ACAD_REACTORS
330
349F
102
}
330
349F
100
AcDbXrecord
340
0
  0
XRECORD
  5
34AF
102
{ACAD_REACTORS
330
349F
102
}
330
349F
100
AcDbXrecord
 70
     0
  0
XRECORD
  5
34A3
102
{ACAD_REACTORS
330
349F
102
}
330
349F
100
AcDbXrecord
  1
Sekkei.ctb
  0
XRECORD
  5
34A0
102
{ACAD_REACTORS
330
349F
102
}
330
349F
100
AcDbXrecord
 90
        1
  0
XRECORD
  5
34A1
102
{ACAD_REACTORS
330
349F
102
}
330
349F
100
AcDbXrecord
 90
       70
  0
XRECORD
  5
34B9
102
{ACAD_REACTORS
330
349F
102
}
330
349F
100
AcDbXrecord
340
0
  0
XRECORD
  5
34BF
102
{ACAD_REACTORS
330
349F
102
}
330
349F
100
AcDbXrecord
 10
0.0
 20
0.0
 30
0.0
  0
XRECORD
  5
34BB
102
{ACAD_REACTORS
330
349F
102
}
330
349F
100
AcDbXrecord
 10
0.0
 20
0.0
 30
0.0
  0
XRECORD
  5
34BE
102
{ACAD_REACTORS
330
349F
102
}
330
349F
100
AcDbXrecord
 10
0.0
 20
0.0
 30
0.0
  0
XRECORD
  5
34BC
102
{ACAD_REACTORS
330
349F
102
}
330
349F
100
AcDbXrecord
 10
0.0
 20
0.0
 30
0.0
  0
XRECORD
  5
34BD
102
{ACAD_REACTORS
330
349F
102
}
330
349F
100
AcDbXrecord
 10
0.0
 20
0.0
 30
0.0
  0
XRECORD
  5
34BA
102
{ACAD_REACTORS
330
349F
102
}
330
349F
100
AcDbXrecord
 10
0.0
 20
0.0
 30
0.0
  0
XRECORD
  5
34B7
102
{ACAD_REACTORS
330
349F
102
}
330
349F
100
AcDbXrecord
340
0
  0
XRECORD
  5
34B8
102
{ACAD_REACTORS
330
349F
102
}
330
349F
100
AcDbXrecord
 70
     0
  0
XRECORD
  5
34AB
102
{ACAD_REACTORS
330
349F
102
}
330
349F
100
AcDbXrecord
  1
{B465EA36-BA33-4937-BE7A-AC72D84A479A}
  0
DICTIONARYVAR
  5
1E91
102
{ACAD_REACTORS
330
102
102
}
330
102
100
DictionaryVariables
280
     0
  1
1:1
  0
DICTIONARYVAR
  5
1E90
102
{ACAD_REACTORS
330
102
102
}
330
102
100
DictionaryVariables
280
     0
  1
STANDARD
  0
DICTIONARYVAR
  5
1E8F
102
{ACAD_REACTORS
330
102
102
}
330
102
100
DictionaryVariables
280
     0
  1
STANDARD
  0
DICTIONARYVAR
  5
103
102
{ACAD_REACTORS
330
102
102
}
330
102
100
DictionaryVariables
280
     0
  1
1
  0
DICTIONARYVAR
  5
1E92
102
{ACAD_REACTORS
330
102
102
}
330
102
100
DictionaryVariables
280
     0
  1
0
  0
DICTIONARYVAR
  5
549
102
{ACAD_REACTORS
330
102
102
}
330
102
100
DictionaryVariables
280
     0
  1
96
  0
DICTIONARY
  5
1E13
330
1E12
100
AcDbDictionary
280
     1
  3
ACAD_XREC_ROUNDTRIP
360
3480
  3
BUMPTILE
360
1E15
  3
DIFFUSETILE
360
1E14
  3
OPACITYTILE
360
1E18
  3
REFLECTIONTILE
360
1E17
  3
REFRACTIONTILE
360
1E19
  3
SPECULARTILE
360
1E16
  0
DICTIONARY
  5
1E0B
330
1E0A
100
AcDbDictionary
280
     1
  3
ACAD_XREC_ROUNDTRIP
360
347F
  3
BUMPTILE
360
1E0D
  3
DIFFUSETILE
360
1E0C
  3
OPACITYTILE
360
1E10
  3
REFLECTIONTILE
360
1E0F
  3
REFRACTIONTILE
360
1E11
  3
SPECULARTILE
360
1E0E
  0
DICTIONARY
  5
1E1B
330
1E1A
100
AcDbDictionary
280
     1
  3
ACAD_XREC_ROUNDTRIP
360
3481
  3
BUMPTILE
360
1E1D
  3
DIFFUSETILE
360
1E1C
  3
OPACITYTILE
360
1E20
  3
REFLECTIONTILE
360
1E1F
  3
REFRACTIONTILE
360
1E21
  3
SPECULARTILE
360
1E1E
  0
DICTIONARY
  5
1E6E
330
1E35
100
AcDbDictionary
280
     1
  3
ACAD_ROUNDTRIP_2008_TABLES
360
346B
  3
ACAD_XREC_ROUNDTRIP
360
3482
  0
XRECORD
  5
3480
102
{ACAD_REACTORS
330
1E13
102
}
330
1E13
100
AcDbXrecord
102
MATERIAL
148
0.0
149
0.0
149
0.0
 93
        0
 94
      127
282
     0
 72
     0
 77
     0
171
     0
175
     0
179
     0
273
     0
  0
XRECORD
  5
1E15
102
{ACAD_REACTORS
330
1E13
102
}
330
1E13
100
AcDbXrecord
270
     1
271
     1
  0
XRECORD
  5
1E14
102
{ACAD_REACTORS
330
1E13
102
}
330
1E13
100
AcDbXrecord
270
     1
271
     1
  0
XRECORD
  5
1E18
102
{ACAD_REACTORS
330
1E13
102
}
330
1E13
100
AcDbXrecord
270
     1
271
     1
  0
XRECORD
  5
1E17
102
{ACAD_REACTORS
330
1E13
102
}
330
1E13
100
AcDbXrecord
270
     1
271
     1
  0
XRECORD
  5
1E19
102
{ACAD_REACTORS
330
1E13
102
}
330
1E13
100
AcDbXrecord
270
     1
271
     1
  0
XRECORD
  5
1E16
102
{ACAD_REACTORS
330
1E13
102
}
330
1E13
100
AcDbXrecord
270
     1
271
     1
  0
XRECORD
  5
347F
102
{ACAD_REACTORS
330
1E0B
102
}
330
1E0B
100
AcDbXrecord
102
MATERIAL
148
0.0
149
0.0
149
0.0
 93
        0
 94
      127
282
     0
 72
     0
 77
     0
171
     0
175
     0
179
     0
273
     0
  0
XRECORD
  5
1E0D
102
{ACAD_REACTORS
330
1E0B
102
}
330
1E0B
100
AcDbXrecord
270
     1
271
     1
  0
XRECORD
  5
1E0C
102
{ACAD_REACTORS
330
1E0B
102
}
330
1E0B
100
AcDbXrecord
270
     1
271
     1
  0
XRECORD
  5
1E10
102
{ACAD_REACTORS
330
1E0B
102
}
330
1E0B
100
AcDbXrecord
270
     1
271
     1
  0
XRECORD
  5
1E0F
102
{ACAD_REACTORS
330
1E0B
102
}
330
1E0B
100
AcDbXrecord
270
     1
271
     1
  0
XRECORD
  5
1E11
102
{ACAD_REACTORS
330
1E0B
102
}
330
1E0B
100
AcDbXrecord
270
     1
271
     1
  0
XRECORD
  5
1E0E
102
{ACAD_REACTORS
330
1E0B
102
}
330
1E0B
100
AcDbXrecord
270
     1
271
     1
  0
XRECORD
  5
3481
102
{ACAD_REACTORS
330
1E1B
102
}
330
1E1B
100
AcDbXrecord
102
MATERIAL
148
0.0
149
0.0
149
0.0
 93
        0
 94
      127
282
     0
 72
     0
 77
     0
171
     0
175
     0
179
     0
273
     0
  0
XRECORD
  5
1E1D
102
{ACAD_REACTORS
330
1E1B
102
}
330
1E1B
100
AcDbXrecord
270
     1
271
     1
  0
XRECORD
  5
1E1C
102
{ACAD_REACTORS
330
1E1B
102
}
330
1E1B
100
AcDbXrecord
270
     1
271
     1
  0
XRECORD
  5
1E20
102
{ACAD_REACTORS
330
1E1B
102
}
330
1E1B
100
AcDbXrecord
270
     1
271
     1
  0
XRECORD
  5
1E1F
102
{ACAD_REACTORS
330
1E1B
102
}
330
1E1B
100
AcDbXrecord
270
     1
271
     1
  0
XRECORD
  5
1E21
102
{ACAD_REACTORS
330
1E1B
102
}
330
1E1B
100
AcDbXrecord
270
     1
271
     1
  0
XRECORD
  5
1E1E
102
{ACAD_REACTORS
330
1E1B
102
}
330
1E1B
100
AcDbXrecord
270
     1
271
     1
  0
ACAD_PROXY_OBJECT
  5
346B
102
{ACAD_REACTORS
330
1E6E
102
}
330
1E6E
100
AcDbProxyObject
 90
      499
 91
      511
 93
     5304
310
40D054060020000020000003200101A000080002A5058000000C100000000000000340FD012E07A17AD46E2B8FCB81E85EB51B8AE3F2E07A17AD46E2B8FCB81E85EB51B8AE3F02B5E8DC0F42B1CFC0AD7A3703D0AC73F419019018000000C1003FBFFFFFE02B5E8DC0F42A9CFD029018000000C1003FBFFFFFE02B5E8DC0F4
310
2A9CFD049018000000C1003FBFFFFFE02B5E8DC0F42A9CFD089018000000C1003FBFFFFFE02B5E8DC0F42A9CFD109018000000C1003FBFFFFFE02B5E8DC0F42A9CFD209018000000C1003FBFFFFFE02B5E8DC0F42A9CFD01405075F5449544C450041501A8000000C800406800020000A9416000000304000AD7A3703D0AC7
310
3F404B81E85EB51B8AE3F2E07A17AD46E2B8FCB81E85EB51B8AE3F2E07A17AD46E2B8FC0AD7A3703D0AC73F02B5E8DC0F42B1CFD0640640600000030400FEFFFFFF80AD7A3703D0AA73F40A40600000030400FEFFFFFF80AD7A3703D0AA73F41240600000030400FEFFFFFF80AD7A3703D0AA73F42240600000030400FEFFF
310
FFF80AD7A3703D0AA73F44240600000030400FEFFFFFF80AD7A3703D0AA73F48240600000030400FEFFFFFF80AD7A3703D0AA73F409014217D2115051115480105406A0000003200101A000080002A5028000000C10002B5E8DC0F42B1CFD012E07A17AD46E2B8FCB81E85EB51B8AE3F2E07A17AD46E2B8FCB81E85EB51B8A
310
E3F02B5E8DC0F42B1CFC0AD7A3703D0AC73F419019018000000C1003FBFFFFFE02B5E8DC0F42A9CFD029018000000C1003FBFFFFFE02B5E8DC0F42A9CFD049018000000C1003FBFFFFFE02B5E8DC0F42A9CFD089018000000C1003FBFFFFFE02B5E8DC0F42A9CFD109018000000C1003FBFFFFFE02B5E8DC0F42A9CFD20901
310
8000000C1003FBFFFFFE02B5E8DC0F42A9CFD03409065F444154410000
340
16
340
0
340
0
340
0
340
0
340
0
340
0
340
16
340
0
340
0
340
0
340
0
340
0
340
0
340
16
340
0
340
0
340
0
340
0
340
0
340
0
 94
        0
1001
ACAD
1000
AcadProxyRoundTripData
1071
      509
1071
   655383
1070
     0
  0
XRECORD
  5
3482
102
{ACAD_REACTORS
330
1E6E
102
}
330
1E6E
100
AcDbXrecord
102
ACAD_ROUNDTRIP_PRE2007_TABLESTYLE
 90
      512
 91
        0
  1

 92
      512
 93
        0
  2

 94
      512
 95
        0
  3

  0
ENDSEC
  0
EOF
