  0
SECTION
  2
HEADER
  9
$ACADVER
  1
AC1014
  9
$ACADMAINTVER
 70
     9
  9
$DWGCODEPAGE
  3
ANSI_932
  9
$INSBASE
 10
0.0
 20
0.0
 30
0.0
  9
$EXTMIN
 10
44.41773900683839
 20
66.64655809839968
 30
0.0
  9
$EXTMAX
 10
1104.516008791141
 20
519.9744109531597
 30
0.0
  9
$LIMMIN
 10
0.0
 20
0.0
  9
$LIMMAX
 10
297.0
 20
210.0
  9
$ORTHOMODE
 70
     1
  9
$REGENMODE
 70
     1
  9
$FILLMODE
 70
     1
  9
$QTEXTMODE
 70
     0
  9
$MIRRTEXT
 70
     0
  9
$DRAGMODE
 70
     2
  9
$LTSCALE
 40
3.0
  9
$OSMODE
 70
    37
  9
$ATTMODE
 70
     1
  9
$TEXTSIZE
 40
2.0
  9
$TRACEWID
 40
1.0
  9
$TEXTSTYLE
  7
STANDARD
  9
$CLAYER
  8
0
  9
$CELTYPE
  6
BYLAYER
  9
$CECOLOR
 62
   256
  9
$CELTSCALE
 40
1.0
  9
$DELOBJ
 70
     1
  9
$DISPSILH
 70
     0
  9
$DIMSCALE
 40
3.0
  9
$DIMASZ
 40
1.8
  9
$DIMEXO
 40
0.625
  9
$DIMDLI
 40
3.75
  9
$DIMRND
 40
0.0
  9
$DIMDLE
 40
0.0
  9
$DIMEXE
 40
0.8
  9
$DIMTP
 40
0.0
  9
$DIMTM
 40
0.0
  9
$DIMTXT
 40
1.8
  9
$DIMCEN
 40
2.5
  9
$DIMTSZ
 40
0.0
  9
$DIMTOL
 70
     0
  9
$DIMLIM
 70
     0
  9
$DIMTIH
 70
     0
  9
$DIMTOH
 70
     0
  9
$DIMSE1
 70
     0
  9
$DIMSE2
 70
     0
  9
$DIMTAD
 70
     1
  9
$DIMZIN
 70
     8
  9
$DIMBLK
  1

  9
$DIMASO
 70
     1
  9
$DIMSHO
 70
     1
  9
$DIMPOST
  1

  9
$DIMAPOST
  1

  9
$DIMALT
 70
     0
  9
$DIMALTD
 70
     4
  9
$DIMALTF
 40
0.0394
  9
$DIMLFAC
 40
1.0
  9
$DIMTOFL
 70
     1
  9
$DIMTVP
 40
0.0
  9
$DIMTIX
 70
     0
  9
$DIMSOXD
 70
     0
  9
$DIMSAH
 70
     0
  9
$DIMBLK1
  1

  9
$DIMBLK2
  1

  9
$DIMSTYLE
  2
STANDARD
  9
$DIMCLRD
 70
     0
  9
$DIMCLRE
 70
     0
  9
$DIMCLRT
 70
     0
  9
$DIMTFAC
 40
1.0
  9
$DIMGAP
 40
0.75
  9
$DIMJUST
 70
     0
  9
$DIMSD1
 70
     0
  9
$DIMSD2
 70
     0
  9
$DIMTOLJ
 70
     1
  9
$DIMTZIN
 70
     0
  9
$DIMALTZ
 70
     0
  9
$DIMALTTZ
 70
     0
  9
$DIMFIT
 70
     3
  9
$DIMUPT
 70
     0
  9
$DIMUNIT
 70
     8
  9
$DIMDEC
 70
     2
  9
$DIMTDEC
 70
     2
  9
$DIMALTU
 70
     8
  9
$DIMALTTD
 70
     4
  9
$DIMTXSTY
  7
STANDARD
  9
$DIMAUNIT
 70
     0
  9
$LUNITS
 70
     2
  9
$LUPREC
 70
     3
  9
$SKETCHINC
 40
1.0
  9
$FILLETRAD
 40
10.0
  9
$AUNITS
 70
     0
  9
$AUPREC
 70
     2
  9
$MENU
  1
.
  9
$ELEVATION
 40
0.0
  9
$PELEVATION
 40
0.0
  9
$THICKNESS
 40
0.0
  9
$LIMCHECK
 70
     0
  9
$BLIPMODE
 70
     0
  9
$CHAMFERA
 40
0.0
  9
$CHAMFERB
 40
0.0
  9
$CHAMFERC
 40
20.0
  9
$CHAMFERD
 40
0.0
  9
$SKPOLY
 70
     0
  9
$TDCREATE
 40
2454411.436245833
  9
$TDUPDATE
 40
2454425.767424583
  9
$TDINDWG
 40
0.0427828356
  9
$TDUSRTIMER
 40
0.0427828356
  9
$USRTIMER
 70
     1
  9
$ANGBASE
 50
0.0
  9
$ANGDIR
 70
     0
  9
$PDMODE
 70
     0
  9
$PDSIZE
 40
-10.0
  9
$PLINEWID
 40
0.0
  9
$COORDS
 70
     0
  9
$SPLFRAME
 70
     0
  9
$SPLINETYPE
 70
     6
  9
$SPLINESEGS
 70
     8
  9
$ATTDIA
 70
     0
  9
$ATTREQ
 70
     1
  9
$HANDLING
 70
-16383
  9
$HANDSEED
  5
29DF
  9
$SURFTAB1
 70
     6
  9
$SURFTAB2
 70
     6
  9
$SURFTYPE
 70
     6
  9
$SURFU
 70
     6
  9
$SURFV
 70
     6
  9
$UCSNAME
  2

  9
$UCSORG
 10
0.0
 20
0.0
 30
0.0
  9
$UCSXDIR
 10
1.0
 20
0.0
 30
0.0
  9
$UCSYDIR
 10
0.0
 20
1.0
 30
0.0
  9
$PUCSNAME
  2

  9
$PUCSORG
 10
0.0
 20
0.0
 30
0.0
  9
$PUCSXDIR
 10
1.0
 20
0.0
 30
0.0
  9
$PUCSYDIR
 10
0.0
 20
1.0
 30
0.0
  9
$USERI1
 70
     0
  9
$USERI2
 70
     0
  9
$USERI3
 70
     0
  9
$USERI4
 70
     0
  9
$USERI5
 70
     0
  9
$USERR1
 40
0.0
  9
$USERR2
 40
0.0
  9
$USERR3
 40
0.0
  9
$USERR4
 40
0.0
  9
$USERR5
 40
0.0
  9
$WORLDVIEW
 70
     1
  9
$SHADEDGE
 70
     3
  9
$SHADEDIF
 70
    70
  9
$TILEMODE
 70
     1
  9
$MAXACTVP
 70
    48
  9
$PINSBASE
 10
0.0
 20
0.0
 30
0.0
  9
$PLIMCHECK
 70
     0
  9
$PEXTMIN
 10
0.0
 20
0.0
 30
0.0
  9
$PEXTMAX
 10
0.0
 20
0.0
 30
0.0
  9
$PLIMMIN
 10
0.0
 20
0.0
  9
$PLIMMAX
 10
12.0
 20
9.0
  9
$UNITMODE
 70
     0
  9
$VISRETAIN
 70
     1
  9
$PLINEGEN
 70
     0
  9
$PSLTSCALE
 70
     1
  9
$TREEDEPTH
 70
  3020
  9
$PICKSTYLE
 70
     1
  9
$CMLSTYLE
  2
STANDARD
  9
$CMLJUST
 70
     0
  9
$CMLSCALE
 40
1.0
  9
$PROXYGRAPHICS
 70
     1
  9
$MEASUREMENT
 70
     0
  0
ENDSEC
  0
SECTION
  2
CLASSES
  0
CLASS
  1
DICTIONARYVAR
  2
AcDbDictionaryVar
  3
AutoCAD 2000
 90
        0
280
     0
281
     0
  0
CLASS
  1
ACDBDICTIONARYWDFLT
  2
AcDbDictionaryWithDefault
  3
AutoCAD 2000
 90
        0
280
     0
281
     0
  0
CLASS
  1
ACDBPLACEHOLDER
  2
AcDbPlaceHolder
  3
AutoCAD 2000
 90
        0
280
     0
281
     0
  0
CLASS
  1
LAYOUT
  2
AcDbLayout
  3
AutoCAD 2000
 90
        0
280
     0
281
     0
  0
CLASS
  1
MATERIAL
  2
AcDbMaterial
  3
ObjectDBX Classes
 90
     1153
280
     0
281
     0
  0
CLASS
  1
VISUALSTYLE
  2
AcDbVisualStyle
  3
ObjectDBX Classes
 90
     4095
280
     0
281
     0
  0
CLASS
  1
TABLESTYLE
  2
AcDbTableStyle
  3
ObjectDBX Classes
 90
     4095
280
     0
281
     0
  0
CLASS
  1
SCALE
  2
AcDbScale
  3
ObjectDBX Classes
 90
     1153
280
     0
281
     0
  0
CLASS
  1
MLEADERSTYLE
  2
AcDbMLeaderStyle
  3
ACDB_MLEADERSTYLE_CLASS
 90
     4095
280
     0
281
     0
  0
CLASS
  1
CELLSTYLEMAP
  2
AcDbCellStyleMap
  3
ObjectDBX Classes
 90
     1152
280
     0
281
     0
  0
CLASS
  1
SORTENTSTABLE
  2
AcDbSortentsTable
  3
AutoCAD 2000
 90
        0
280
     0
281
     0
  0
CLASS
  1
ACAD_PROXY_OBJECT_WRAPPER
  2
AcDbProxyObjectWrapper
  3
AutoCAD 2000
 90
        0
280
     0
281
     0
  0
CLASS
  1
LONG_TRANSACTION
  2
AcDbLongTransaction
  3
AutoCAD 2000
 90
        0
280
     0
281
     0
  0
CLASS
  1
LWPOLYLINE
  2
AcDbPolyline
  3
AutoCAD 2000
 90
        0
280
     0
281
     1
  0
CLASS
  1
HATCH
  2
AcDbHatch
  3
AutoCAD 2000
 90
        0
280
     0
281
     1
  0
CLASS
  1
XRECORD
  2
AcDbXrecord
  3
AutoCAD 2000
 90
        0
280
     0
281
     0
  0
ENDSEC
  0
SECTION
  2
TABLES
  0
TABLE
  2
VPORT
  5
6E
102
{ACAD_XDICTIONARY
360
1D2B
102
}
330
0
100
AcDbSymbolTable
 70
     2
  0
VPORT
  5
29B9
330
6E
100
AcDbSymbolTableRecord
100
AcDbViewportTableRecord
  2
*ACTIVE
 70
     0
 10
0.0
 20
0.0
 11
1.0
 21
1.0
 12
637.8787934030132
 22
283.6905690305468
 13
0.0
 23
0.0
 14
10.0
 24
10.0
 15
10.0
 25
10.0
 16
0.0
 26
0.0
 36
1.0
 17
0.0
 27
0.0
 37
0.0
 40
679.9403986944069
 41
1.753504672897196
 42
50.0
 43
0.0
 44
0.0
 50
0.0
 51
0.0
 71
     0
 72
   100
 73
     1
 74
     3
 75
     0
 76
     0
 77
     0
 78
     0
  0
ENDTAB
  0
TABLE
  2
LTYPE
  5
69
330
0
100
AcDbSymbolTable
 70
     5
  0
LTYPE
  5
6A
330
69
100
AcDbSymbolTableRecord
100
AcDbLinetypeTableRecord
  2
BYBLOCK
 70
     0
  3

 72
    65
 73
     0
 40
0.0
  0
LTYPE
  5
6B
330
69
100
AcDbSymbolTableRecord
100
AcDbLinetypeTableRecord
  2
BYLAYER
 70
     0
  3

 72
    65
 73
     0
 40
0.0
  0
LTYPE
  5
8
330
69
100
AcDbSymbolTableRecord
100
AcDbLinetypeTableRecord
  2
CONTINUOUS
 70
     0
  3
Solid line
 72
    65
 73
     0
 40
0.0
  0
LTYPE
  5
27C
330
69
100
AcDbSymbolTableRecord
100
AcDbLinetypeTableRecord
  2
SEKKEI_A2_
 70
     0
  3
center(A2)  ____ _ ____ _ ____ _ ____ _ ____ _ 
 72
    65
 73
     4
 40
14.28749999999999
 49
9.525
 74
     0
 49
-1.587499999999999
 74
     0
 49
1.587499999999999
 74
     0
 49
-1.587499999999999
 74
     0
  0
LTYPE
  5
7F0
330
69
100
AcDbSymbolTableRecord
100
AcDbLinetypeTableRecord
  2
HIDDEN3
 70
     0
  3
Hidden (.3x) _ _ _ _ _ _ _ _ _ _ _ _ _ _ _ _ _
 72
    65
 73
     2
 40
2.857499999999999
 49
1.905
 74
     0
 49
-0.9525
 74
     0
  0
LTYPE
  5
ADB
330
69
100
AcDbSymbolTableRecord
100
AcDbLinetypeTableRecord
  2
CENS
 70
     0
  3
(一点鎖線１)---- - ---- - ---- - ---- - ---- - 
 72
    65
 73
     4
 40
7.0
 49
4.0
 74
     0
 49
-1.0
 74
     0
 49
1.0
 74
     0
 49
-1.0
 74
     0
  0
ENDTAB
  0
TABLE
  2
LAYER
  5
66
102
{ACAD_XDICTIONARY
360
ADC
102
}
330
0
100
AcDbSymbolTable
 70
     9
  0
LAYER
  5
5E
102
{ACAD_XDICTIONARY
360
1D10
102
}
330
66
100
AcDbSymbolTableRecord
100
AcDbLayerTableRecord
  2
0
 70
     0
 62
     7
  6
CONTINUOUS
  0
LAYER
  5
3E
102
{ACAD_XDICTIONARY
360
1D12
102
}
330
66
100
AcDbSymbolTableRecord
100
AcDbLayerTableRecord
  2
CENTER
 70
     0
 62
     3
  6
SEKKEI_A2_
  0
LAYER
  5
2B5
102
{ACAD_XDICTIONARY
360
1D18
102
}
330
66
100
AcDbSymbolTableRecord
100
AcDbLayerTableRecord
  2
HIDS
 70
     0
 62
     1
  6
HIDDEN3
  0
LAYER
  5
2BA
102
{ACAD_XDICTIONARY
360
1D1A
102
}
330
66
100
AcDbSymbolTableRecord
100
AcDbLayerTableRecord
  2
HOJO
 70
     0
 62
     4
  6
CONTINUOUS
  0
LAYER
  5
3FA
102
{ACAD_XDICTIONARY
360
1D1E
102
}
330
66
100
AcDbSymbolTableRecord
100
AcDbLayerTableRecord
  2
TITLE
 70
     0
 62
     4
  6
CONTINUOUS
  0
ENDTAB
  0
TABLE
  2
STYLE
  5
67
330
0
100
AcDbSymbolTable
 70
     1
  0
STYLE
  5
16
330
67
100
AcDbSymbolTableRecord
100
AcDbTextStyleTableRecord
  2
STANDARD
 70
     0
 40
0.0
 41
1.0
 50
0.0
 71
     0
 42
2.0
  3
simplex.shx
  4
extfont.shx
  0
ENDTAB
  0
TABLE
  2
VIEW
  5
6C
330
0
100
AcDbSymbolTable
 70
     0
  0
ENDTAB
  0
TABLE
  2
UCS
  5
6D
330
0
100
AcDbSymbolTable
 70
     0
  0
ENDTAB
  0
TABLE
  2
APPID
  5
70
330
0
100
AcDbSymbolTable
 70
     2
  0
APPID
  5
71
330
70
100
AcDbSymbolTableRecord
100
AcDbRegAppTableRecord
  2
ACAD
 70
     0
  0
APPID
  5
1CE6
330
70
100
AcDbSymbolTableRecord
100
AcDbRegAppTableRecord
  2
ACAD_MLEADERVER
 70
     0
  0
ENDTAB
  0
TABLE
  2
DIMSTYLE
  5
72
330
0
100
AcDbSymbolTable
 70
     1
  0
DIMSTYLE
105
73
330
72
100
AcDbSymbolTableRecord
100
AcDbDimStyleTableRecord
  2
STANDARD
 70
     0
  3

  4

  5

  6

  7

 40
3.0
 41
1.8
 42
0.625
 43
3.75
 44
0.8
 45
0.0
 46
0.0
 47
0.0
 48
0.0
140
1.8
141
2.5
142
0.0
143
0.0394
144
1.0
145
0.0
146
1.0
147
0.75
 71
     0
 72
     0
 73
     0
 74
     0
 75
     0
 76
     0
 77
     1
 78
     8
170
     0
171
     4
172
     1
173
     0
174
     0
175
     0
176
     0
177
     0
178
     0
270
     8
271
     2
272
     2
273
     8
274
     4
340
16
275
     0
280
     0
281
     0
282
     0
283
     1
284
     0
285
     0
286
     0
287
     3
288
     0
  0
ENDTAB
  0
TABLE
  2
BLOCK_RECORD
  5
1
330
0
100
AcDbSymbolTable
 70
    46
  0
BLOCK_RECORD
  5
2
102
{ACAD_XDICTIONARY
360
29DB
102
}
330
1
100
AcDbSymbolTableRecord
100
AcDbBlockTableRecord
  2
*MODEL_SPACE
  0
BLOCK_RECORD
  5
29B4
102
{ACAD_XDICTIONARY
360
29DD
102
}
330
1
100
AcDbSymbolTableRecord
100
AcDbBlockTableRecord
  2
*PAPER_SPACE
  0
ENDTAB
  0
ENDSEC
  0
SECTION
  2
BLOCKS
  0
BLOCK
  5
5D
330
2
100
AcDbEntity
  8
0
100
AcDbBlockBegin
  2
*MODEL_SPACE
 70
     0
 10
0.0
 20
0.0
 30
0.0
  3
*MODEL_SPACE
  1

  0
ENDBLK
  5
5F
330
2
100
AcDbEntity
  8
0
100
AcDbBlockEnd
  0
BLOCK
  5
29B6
330
29B4
100
AcDbEntity
 67
     1
  8
0
100
AcDbBlockBegin
  2
*PAPER_SPACE
 70
     0
 10
0.0
 20
0.0
 30
0.0
  3
*PAPER_SPACE
  1

  0
ENDBLK
  5
29B7
330
29B4
100
AcDbEntity
 67
     1
  8
0
100
AcDbBlockEnd
  0
ENDSEC
  0
SECTION
  2
ENTITIES
  0
TEXT
  5
EF0
330
2
100
AcDbEntity
  8
TITLE
100
AcDbText
 10
358.9897791741482
 20
454.0988945944698
 30
0.0
 40
7.5
  1
AFCZ22L-7~10M750S4
100
AcDbText
  0
TEXT
  5
EF1
330
2
100
AcDbEntity
  8
TITLE
100
AcDbText
 10
358.9897791741482
 20
442.5988945944697
 30
0.0
 40
7.5
  1
AFCZ22L-7~10L750S4
100
AcDbText
  0
LINE
  5
EF4
330
2
100
AcDbEntity
  8
CENTER
100
AcDbLine
 10
266.417761006833
 20
136.646558098397
 30
0.0
 11
44.41773900683839
 21
136.646558098397
 31
0.0
  0
LINE
  5
EF8
330
2
100
AcDbEntity
  8
CENTER
100
AcDbLine
 10
598.2333516262693
 20
458.9744109531552
 30
0.0
 11
819.9759310264418
 21
458.9744109531552
 31
0.0
  0
LINE
  5
F0A
330
2
100
AcDbEntity
  8
0
100
AcDbLine
 10
754.9759310264412
 20
85.14655809839963
 30
0.0
 11
754.9759310264412
 21
188.1465580983998
 31
0.0
  0
LINE
  5
F24
330
2
100
AcDbEntity
  8
0
100
AcDbLine
 10
109.4177390068383
 20
188.1465580984027
 30
0.0
 11
109.4177390068383
 21
136.6465580984025
 31
0.0
  0
LINE
  5
F27
330
2
100
AcDbEntity
  8
0
100
AcDbLine
 10
109.4177390068383
 20
85.14655809840252
 30
0.0
 11
109.4177390068383
 21
136.6465580984025
 31
0.0
  0
LINE
  5
FC6
330
2
100
AcDbEntity
  8
0
100
AcDbLine
 10
754.9759310264418
 20
407.9744109531572
 30
0.0
 11
754.9759310264418
 21
509.9744109531575
 31
0.0
  0
LINE
  5
FCC
330
2
100
AcDbEntity
  8
CENTER
100
AcDbLine
 10
588.975909026441
 20
136.6465580983971
 30
0.0
 11
819.9759310264411
 21
136.6465580983968
 31
0.0
  0
LINE
  5
11DB
330
2
100
AcDbEntity
  8
0
100
AcDbLine
 10
990.5160087911486
 20
186.9222280717658
 30
0.0
 11
990.5160087911486
 21
86.37088812503231
 31
0.0
  0
LINE
  5
11DC
330
2
100
AcDbEntity
  8
0
100
AcDbLine
 10
985.5160087911485
 20
181.6465580983959
 30
0.0
 11
985.5160087911485
 21
91.64655809839638
 31
0.0
  0
LINE
  5
11DD
330
2
100
AcDbEntity
  8
0
100
AcDbLine
 10
990.5160087911486
 20
181.6465580983959
 30
0.0
 11
985.5160087911485
 21
181.6465580983959
 31
0.0
  0
LINE
  5
11DE
330
2
100
AcDbEntity
  8
0
100
AcDbLine
 10
990.5160087911486
 20
91.64655809839638
 30
0.0
 11
985.5160087911485
 21
91.64655809839638
 31
0.0
  0
LINE
  5
11DF
330
2
100
AcDbEntity
  8
0
100
AcDbLine
 10
971.5160087911485
 20
168.7151805487838
 30
0.0
 11
971.5160087911485
 21
104.5779356480107
 31
0.0
  0
LINE
  5
11E0
330
2
100
AcDbEntity
  8
0
100
AcDbLine
 10
983.5858077845518
 20
171.0680447668574
 30
0.0
 11
973.4462097977434
 21
170.7139622028217
 31
0.0
  0
ARC
  5
11E1
330
2
100
AcDbEntity
  8
0
100
AcDbCircle
 10
983.5160087911486
 20
173.0668264208953
 30
0.0
 40
2.0
100
AcDbArc
 50
272.0000000000036
 51
0.0
  0
ARC
  5
11E2
330
2
100
AcDbEntity
  8
0
100
AcDbCircle
 10
973.5160087911486
 20
168.7151805487838
 30
0.0
 40
2.0
100
AcDbArc
 50
92.00000000000365
 51
180.0
  0
LINE
  5
11E3
330
2
100
AcDbEntity
  8
0
100
AcDbLine
 10
983.5858077845538
 20
102.2250714299371
 30
0.0
 11
973.4462097977434
 21
102.5791539939728
 31
0.0
  0
ARC
  5
11E4
330
2
100
AcDbEntity
  8
0
100
AcDbCircle
 10
983.5160087911486
 20
100.2262897758992
 30
0.0
 40
2.0
100
AcDbArc
 50
0.0
 51
87.99999999999636
  0
ARC
  5
11E5
330
2
100
AcDbEntity
  8
0
100
AcDbCircle
 10
973.5160087911486
 20
104.5779356480107
 30
0.0
 40
2.0
100
AcDbArc
 50
180.0
 51
267.9999999999963
  0
LINE
  5
11E6
330
2
100
AcDbEntity
  8
0
100
AcDbLine
 10
1094.516008791141
 20
179.7246050126796
 30
0.0
 11
1094.516008791141
 21
93.5685111841313
 31
0.0
  0
LINE
  5
11E7
330
2
100
AcDbEntity
  8
0
100
AcDbLine
 10
992.5160087911413
 20
179.7246050126805
 30
0.0
 11
992.5160087911413
 21
93.56851118413038
 31
0.0
  0
ARC
  5
11E8
330
2
100
AcDbEntity
  8
0
100
AcDbCircle
 10
1000.516008791141
 20
93.56851118413038
 30
0.0
 40
8.0
100
AcDbArc
 50
180.0
 51
269.4382946674683
  0
LINE
  5
11E9
330
2
100
AcDbEntity
  8
0
100
AcDbLine
 10
1043.516008791141
 20
188.1465580984049
 30
0.0
 11
1086.594436394673
 21
187.7242205728798
 31
0.0
  0
ARC
  5
11EA
330
2
100
AcDbEntity
  8
0
100
AcDbCircle
 10
1086.516008791141
 20
179.7246050126796
 30
0.0
 40
8.0
100
AcDbArc
 50
0.0
 51
89.43829466741624
  0
LINE
  5
11EB
330
2
100
AcDbEntity
  8
0
100
AcDbLine
 10
1043.516008791141
 20
188.1465580984049
 30
0.0
 11
1000.437581187611
 21
187.7242205728807
 31
0.0
  0
ARC
  5
11EC
330
2
100
AcDbEntity
  8
0
100
AcDbCircle
 10
1000.516008791141
 20
179.7246050126805
 30
0.0
 40
8.0
100
AcDbArc
 50
90.56170533253165
 51
180.0
  0
LINE
  5
11ED
330
2
100
AcDbEntity
  8
0
100
AcDbLine
 10
1043.516008791141
 20
85.14655809840594
 30
0.0
 11
1086.594436394673
 21
85.56889562393104
 31
0.0
  0
ARC
  5
11EE
330
2
100
AcDbEntity
  8
0
100
AcDbCircle
 10
1086.516008791141
 20
93.5685111841313
 30
0.0
 40
8.0
100
AcDbArc
 50
270.5617053325316
 51
0.0
  0
LINE
  5
11EF
330
2
100
AcDbEntity
  8
0
100
AcDbLine
 10
1043.516008791141
 20
85.14655809840594
 30
0.0
 11
1000.437581187611
 21
85.56889562393013
 31
0.0
  0
LINE
  5
11F0
330
2
100
AcDbEntity
  8
0
100
AcDbLine
 10
997.1458457686734
 20
186.9800857825439
 30
0.0
 11
990.5160087911486
 21
186.9222280717658
 31
0.0
  0
LINE
  5
11F1
330
2
100
AcDbEntity
  8
0
100
AcDbLine
 10
997.1458457686734
 20
86.31303041425423
 30
0.0
 11
990.5160087911486
 21
86.37088812503231
 31
0.0
  0
LINE
  5
11F2
330
2
100
AcDbEntity
  8
CENTER
100
AcDbLine
 10
1043.516008791141
 20
198.1465580984049
 30
0.0
 11
1043.516008791141
 21
75.14655809840594
 31
0.0
  0
LINE
  5
11F3
330
2
100
AcDbEntity
  8
CENTER
100
AcDbLine
 10
919.5160087911355
 20
136.6465580983972
 30
0.0
 11
1104.516008791141
 21
136.6465580983972
 31
0.0
  0
LINE
  5
11FA
330
2
100
AcDbEntity
  8
CENTER
100
AcDbLine
 10
1077.446008791141
 20
179.0765580983975
 30
0.0
 11
1094.446008791141
 21
179.0765580983975
 31
0.0
  0
LINE
  5
11FB
330
2
100
AcDbEntity
  8
0
100
AcDbLine
 10
1000.516008791143
 20
187.6465580983972
 30
0.0
 11
1086.516008791141
 21
187.6465580983972
 31
0.0
  0
LINE
  5
11FC
330
2
100
AcDbEntity
  8
CENTER
100
AcDbLine
 10
1077.446008791141
 20
94.21655809839746
 30
0.0
 11
1094.446008791141
 21
94.21655809839746
 31
0.0
  0
ARC
  5
11FD
330
2
100
AcDbEntity
  8
0
100
AcDbCircle
 10
1070.516008791141
 20
109.6465580983972
 30
0.0
 40
15.0
100
AcDbArc
 50
270.0
 51
0.0
  0
ARC
  5
11FE
330
2
100
AcDbEntity
  8
0
100
AcDbCircle
 10
1070.516008791139
 20
109.6465580983972
 30
0.0
 40
13.0
100
AcDbArc
 50
270.0
 51
0.0
  0
LINE
  5
11FF
330
2
100
AcDbEntity
  8
0
100
AcDbLine
 10
1000.516008791141
 20
85.64655809839729
 30
0.0
 11
1086.516008791141
 21
85.64655809839729
 31
0.0
  0
ARC
  5
1200
330
2
100
AcDbEntity
  8
0
100
AcDbCircle
 10
1070.516008791139
 20
163.6465580983973
 30
0.0
 40
13.0
100
AcDbArc
 50
0.0
 51
90.0
  0
ARC
  5
1201
330
2
100
AcDbEntity
  8
0
100
AcDbCircle
 10
1070.516008791141
 20
163.6465580983973
 30
0.0
 40
15.0
100
AcDbArc
 50
0.0
 51
90.0
  0
LINE
  5
1202
330
2
100
AcDbEntity
  8
0
100
AcDbLine
 10
1083.516008791139
 20
163.6465580983973
 30
0.0
 11
1083.516008791139
 21
109.6465580983972
 31
0.0
  0
LINE
  5
1203
330
2
100
AcDbEntity
  8
0
100
AcDbLine
 10
1003.516008791141
 20
163.6465580983973
 30
0.0
 11
1003.516008791141
 21
109.6465580983972
 31
0.0
  0
LINE
  5
1204
330
2
100
AcDbEntity
  8
0
100
AcDbLine
 10
1001.516008791141
 20
163.6465580983973
 30
0.0
 11
1001.516008791141
 21
109.6465580983972
 31
0.0
  0
LINE
  5
1205
330
2
100
AcDbEntity
  8
CENTER
100
AcDbLine
 10
1075.335813944535
 20
97.32675294500275
 30
0.0
 11
1075.335813944535
 21
112.3267529450027
 31
0.0
  0
LINE
  5
1206
330
2
100
AcDbEntity
  8
CENTER
100
AcDbLine
 10
1011.696203637746
 20
97.32675294500275
 30
0.0
 11
1011.696203637746
 21
112.3267529450027
 31
0.0
  0
ARC
  5
1207
330
2
100
AcDbEntity
  8
0
100
AcDbCircle
 10
1016.516008791141
 20
109.6465580983972
 30
0.0
 40
15.0
100
AcDbArc
 50
180.0
 51
270.0
  0
ARC
  5
1208
330
2
100
AcDbEntity
  8
0
100
AcDbCircle
 10
1016.516008791141
 20
109.6465580983972
 30
0.0
 40
13.0
100
AcDbArc
 50
180.0
 51
270.0
  0
LINE
  5
1209
330
2
100
AcDbEntity
  8
0
100
AcDbLine
 10
1016.516008791141
 20
94.64655809839729
 30
0.0
 11
1070.516008791141
 21
94.64655809839729
 31
0.0
  0
LINE
  5
120A
330
2
100
AcDbEntity
  8
0
100
AcDbLine
 10
1016.516008791141
 20
96.64655809839729
 30
0.0
 11
1070.516008791139
 21
96.64655809839729
 31
0.0
  0
ARC
  5
120B
330
2
100
AcDbEntity
  8
0
100
AcDbCircle
 10
1000.516008791141
 20
93.6465580983973
 30
0.0
 40
8.0
100
AcDbArc
 50
180.0
 51
270.0
  0
LINE
  5
120C
330
2
100
AcDbEntity
  8
CENTER
100
AcDbLine
 10
1001.086008791141
 20
85.71655809839745
 30
0.0
 11
1001.086008791141
 21
102.7165580983974
 31
0.0
  0
LINE
  5
120D
330
2
100
AcDbEntity
  8
CENTER
100
AcDbLine
 10
1009.586008791141
 20
94.21655809839746
 30
0.0
 11
992.5860087911409
 21
94.21655809839746
 31
0.0
  0
LINE
  5
120E
330
2
100
AcDbEntity
  8
CENTER
100
AcDbLine
 10
1019.196203637746
 20
104.8267529450027
 30
0.0
 11
1004.196203637746
 21
104.8267529450027
 31
0.0
  0
LINE
  5
120F
330
2
100
AcDbEntity
  8
CENTER
100
AcDbLine
 10
1067.835813944536
 20
104.8267529450027
 30
0.0
 11
1082.835813944535
 21
104.8267529450027
 31
0.0
  0
LINE
  5
1210
330
2
100
AcDbEntity
  8
0
100
AcDbLine
 10
1016.516008791141
 20
178.6465580983972
 30
0.0
 11
1070.516008791141
 21
178.6465580983972
 31
0.0
  0
LINE
  5
1211
330
2
100
AcDbEntity
  8
0
100
AcDbLine
 10
1016.516008791141
 20
176.6465580983972
 30
0.0
 11
1070.516008791139
 21
176.6465580983972
 31
0.0
  0
ARC
  5
1212
330
2
100
AcDbEntity
  8
0
100
AcDbCircle
 10
1000.516008791143
 20
179.6465580983972
 30
0.0
 40
8.0
100
AcDbArc
 50
90.0
 51
180.0
  0
LINE
  5
1213
330
2
100
AcDbEntity
  8
CENTER
100
AcDbLine
 10
1001.086008791141
 20
187.5765580983975
 30
0.0
 11
1001.086008791141
 21
170.5765580983975
 31
0.0
  0
ARC
  5
1214
330
2
100
AcDbEntity
  8
0
100
AcDbCircle
 10
1016.516008791141
 20
163.6465580983973
 30
0.0
 40
15.0
100
AcDbArc
 50
90.0
 51
180.0
  0
LINE
  5
1215
330
2
100
AcDbEntity
  8
CENTER
100
AcDbLine
 10
1019.196203637746
 20
168.4663632517922
 30
0.0
 11
1004.196203637746
 21
168.4663632517922
 31
0.0
  0
ARC
  5
1216
330
2
100
AcDbEntity
  8
0
100
AcDbCircle
 10
1016.516008791141
 20
163.6465580983973
 30
0.0
 40
13.0
100
AcDbArc
 50
90.0
 51
180.0
  0
LINE
  5
1217
330
2
100
AcDbEntity
  8
CENTER
100
AcDbLine
 10
1011.696203637746
 20
175.9663632517923
 30
0.0
 11
1011.696203637746
 21
160.9663632517922
 31
0.0
  0
LINE
  5
1218
330
2
100
AcDbEntity
  8
CENTER
100
AcDbLine
 10
1009.586008791141
 20
179.0765580983975
 30
0.0
 11
992.5860087911409
 21
179.0765580983975
 31
0.0
  0
LINE
  5
1219
330
2
100
AcDbEntity
  8
CENTER
100
AcDbLine
 10
1075.335813944535
 20
175.9663632517923
 30
0.0
 11
1075.335813944535
 21
160.9663632517922
 31
0.0
  0
LINE
  5
121A
330
2
100
AcDbEntity
  8
CENTER
100
AcDbLine
 10
1067.835813944536
 20
168.4663632517922
 30
0.0
 11
1082.835813944535
 21
168.4663632517922
 31
0.0
  0
LINE
  5
121B
330
2
100
AcDbEntity
  8
0
100
AcDbLine
 10
1085.516008791141
 20
163.6465580983973
 30
0.0
 11
1085.516008791141
 21
109.6465580983972
 31
0.0
  0
ARC
  5
121C
330
2
100
AcDbEntity
  8
0
100
AcDbCircle
 10
1086.516008791141
 20
93.6465580983973
 30
0.0
 40
8.0
100
AcDbArc
 50
270.0
 51
0.0
  0
LINE
  5
121D
330
2
100
AcDbEntity
  8
CENTER
100
AcDbLine
 10
1085.946008791141
 20
85.71655809839745
 30
0.0
 11
1085.946008791141
 21
102.7165580983974
 31
0.0
  0
ARC
  5
121E
330
2
100
AcDbEntity
  8
0
100
AcDbCircle
 10
1086.516008791141
 20
179.6465580983972
 30
0.0
 40
8.0
100
AcDbArc
 50
0.0
 51
90.0
  0
LINE
  5
121F
330
2
100
AcDbEntity
  8
CENTER
100
AcDbLine
 10
1085.946008791141
 20
187.5765580983975
 30
0.0
 11
1085.946008791141
 21
170.5765580983975
 31
0.0
  0
LINE
  5
1220
330
2
100
AcDbEntity
  8
0
100
AcDbLine
 10
803.9759310264454
 20
416.9744109531579
 30
0.0
 11
803.9759310264454
 21
439.8513053275423
 31
0.0
  0
LINE
  5
1221
330
2
100
AcDbEntity
  8
0
100
AcDbLine
 10
803.9759310264454
 20
448.0975165787672
 30
0.0
 11
803.9759310264454
 21
500.9744109531516
 31
0.0
  0
LINE
  5
1222
330
2
100
AcDbEntity
  8
0
100
AcDbLine
 10
805.9759310264453
 20
418.9045906934425
 30
0.0
 11
805.9759310264436
 21
499.0442312128675
 31
0.0
  0
LINE
  5
1223
330
2
100
AcDbEntity
  8
0
100
AcDbLine
 10
769.9759310264417
 20
409.0966251806117
 30
0.0
 11
769.9759310264436
 21
508.8521967256979
 31
0.0
  0
LINE
  5
1224
330
2
100
AcDbEntity
  8
0
100
AcDbLine
 10
805.9759310264436
 20
499.0442312128675
 30
0.0
 11
803.9759310264418
 21
500.9744109531543
 31
0.0
  0
LINE
  5
1225
330
2
100
AcDbEntity
  8
0
100
AcDbLine
 10
809.9759310264417
 20
498.9744109531543
 30
0.0
 11
805.9759310264436
 21
499.0442312128675
 31
0.0
  0
LINE
  5
1226
330
2
100
AcDbEntity
  8
0
100
AcDbLine
 10
754.9759310264418
 20
509.9744109531543
 30
0.0
 11
768.9846575619413
 21
509.8521586487627
 31
0.0
  0
LINE
  5
1227
330
2
100
AcDbEntity
  8
0
100
AcDbLine
 10
803.9759310264418
 20
500.9744109531543
 30
0.0
 11
776.9759310264418
 21
501.1314923580507
 31
0.0
  0
LINE
  5
1228
330
2
100
AcDbEntity
  8
0
100
AcDbLine
 10
805.9759310264453
 20
418.9045906934425
 30
0.0
 11
803.9759310264454
 21
416.9744109531579
 31
0.0
  0
LINE
  5
1229
330
2
100
AcDbEntity
  8
0
100
AcDbLine
 10
809.9759310264417
 20
418.9744109531552
 30
0.0
 11
805.9759310264453
 21
418.9045906934425
 31
0.0
  0
LINE
  5
122A
330
2
100
AcDbEntity
  8
0
100
AcDbLine
 10
754.9759310264418
 20
407.9744109531552
 30
0.0
 11
768.9846575619413
 21
408.0966632575478
 31
0.0
  0
LINE
  5
122B
330
2
100
AcDbEntity
  8
0
100
AcDbLine
 10
803.9759310264436
 20
416.9744109531552
 30
0.0
 11
776.9759310264418
 21
416.8173295482597
 31
0.0
  0
CIRCLE
  5
122C
330
2
100
AcDbEntity
  8
0
100
AcDbCircle
 10
1043.516008791141
 20
136.6465580983972
 30
0.0
 40
34.99999999953029
  0
ARC
  5
122D
330
2
100
AcDbEntity
  8
0
100
AcDbCircle
 10
768.9759310264418
 20
409.0966251806117
 30
0.0
 40
1.0
100
AcDbArc
 50
270.4999999999654
 51
0.0
  0
ARC
  5
122E
330
2
100
AcDbEntity
  8
0
100
AcDbCircle
 10
768.9759310264435
 20
508.8521967256979
 30
0.0
 40
1.0
100
AcDbArc
 50
0.0
 51
89.5000000000345
  0
LINE
  5
122F
330
2
100
AcDbEntity
  8
0
100
AcDbLine
 10
809.9759310264417
 20
418.9744109531552
 30
0.0
 11
809.9759310264417
 21
498.9744109531543
 31
0.0
  0
CIRCLE
  5
1230
330
2
100
AcDbEntity
  8
CENTER
100
AcDbCircle
 10
1043.516008791141
 20
136.6465580983972
 30
0.0
 40
45.0
  0
LINE
  5
1231
330
2
100
AcDbEntity
  8
HIDS
100
AcDbLine
 10
1034.766008791141
 20
178.6465580983972
 30
0.0
 11
1034.766008791142
 21
164.2950209851474
 31
0.0
  0
LINE
  5
1232
330
2
100
AcDbEntity
  8
HIDS
100
AcDbLine
 10
1022.266008791141
 20
178.6465580983972
 30
0.0
 11
1022.266008791141
 21
156.3807289702636
 31
0.0
  0
LINE
  5
1233
330
2
100
AcDbEntity
  8
0
100
AcDbLine
 10
803.9759310264448
 20
178.6465580983938
 30
0.0
 11
803.9759310264448
 21
175.1458584139297
 31
0.0
  0
LINE
  5
1234
330
2
100
AcDbEntity
  8
0
100
AcDbLine
 10
805.9759310264448
 20
176.7163783581097
 30
0.0
 11
805.9759310264448
 21
176.5270665849609
 31
0.0
  0
LINE
  5
1235
330
2
100
AcDbEntity
  8
0
100
AcDbLine
 10
769.9759310264412
 20
186.5243438709401
 30
0.0
 11
769.975931026443
 21
147.6892591038806
 31
0.0
  0
LINE
  5
1236
330
2
100
AcDbEntity
  8
0
100
AcDbLine
 10
769.975931026443
 20
136.646558098397
 30
0.0
 11
769.975931026443
 21
86.76877232585388
 31
0.0
  0
LINE
  5
1237
330
2
100
AcDbEntity
  8
0
100
AcDbLine
 10
805.975931026443
 20
96.57673783868473
 30
0.0
 11
803.9759310264411
 21
94.64655809839745
 31
0.0
  0
LINE
  5
1238
330
2
100
AcDbEntity
  8
0
100
AcDbLine
 10
809.9759310264412
 20
96.64655809839747
 30
0.0
 11
805.975931026443
 21
96.57673783868473
 31
0.0
  0
LINE
  5
1239
330
2
100
AcDbEntity
  8
0
100
AcDbLine
 10
754.9759310264412
 20
85.64655809839747
 30
0.0
 11
768.9846575619408
 21
85.76881040278953
 31
0.0
  0
LINE
  5
123A
330
2
100
AcDbEntity
  8
0
100
AcDbLine
 10
803.9759310264411
 20
94.64655809839745
 30
0.0
 11
776.9759310264412
 21
94.4894766935015
 31
0.0
  0
LINE
  5
123B
330
2
100
AcDbEntity
  8
0
100
AcDbLine
 10
805.9759310264448
 20
176.7163783581097
 30
0.0
 11
803.9759310264448
 21
178.6465580983938
 31
0.0
  0
LINE
  5
123C
330
2
100
AcDbEntity
  8
0
100
AcDbLine
 10
809.9759310264412
 20
176.6465580983965
 30
0.0
 11
805.9759310264448
 21
176.7163783581097
 31
0.0
  0
LINE
  5
123D
330
2
100
AcDbEntity
  8
0
100
AcDbLine
 10
754.9759310264412
 20
187.6465580983966
 30
0.0
 11
768.9846575619408
 21
187.5243057940045
 31
0.0
  0
LINE
  5
123E
330
2
100
AcDbEntity
  8
0
100
AcDbLine
 10
804.9757786991245
 20
178.6407411548004
 30
0.0
 11
776.9759310264412
 21
178.8036395032925
 31
0.0
  0
ARC
  5
123F
330
2
100
AcDbEntity
  8
0
100
AcDbCircle
 10
768.9759310264412
 20
186.5243438709401
 30
0.0
 40
1.0
100
AcDbArc
 50
0.0
 51
89.5000000000345
  0
ARC
  5
1240
330
2
100
AcDbEntity
  8
0
100
AcDbCircle
 10
768.975931026443
 20
86.76877232585388
 30
0.0
 40
1.0
100
AcDbArc
 50
270.4999999999654
 51
0.0
  0
LINE
  5
1241
330
2
100
AcDbEntity
  8
0
100
AcDbLine
 10
809.9759310264412
 20
176.6465580983965
 30
0.0
 11
809.9759310264412
 21
96.64655809839747
 31
0.0
  0
CIRCLE
  5
1242
330
2
100
AcDbEntity
  8
0
100
AcDbCircle
 10
1001.086008791141
 20
179.0765580983975
 30
0.0
 40
5.0
  0
CIRCLE
  5
1243
330
2
100
AcDbEntity
  8
0
100
AcDbCircle
 10
1001.086008791141
 20
179.0765580983975
 30
0.0
 40
4.307179676972423
  0
CIRCLE
  5
1244
330
2
100
AcDbEntity
  8
0
100
AcDbCircle
 10
1001.086008791141
 20
179.0765580983975
 30
0.0
 40
2.886751345948113
  0
LWPOLYLINE
  5
1245
330
2
100
AcDbEntity
  8
0
100
AcDbPolyline
 90
        6
 70
     1
 43
0.0
 10
1003.586008791141
 20
180.5199337713716
 10
1001.086008791141
 20
181.9633094443457
 10
998.586008791141
 20
180.5199337713716
 10
998.586008791141
 20
177.6331824254235
 10
1001.086008791141
 20
176.1898067524494
 10
1003.586008791141
 20
177.6331824254235
  0
CIRCLE
  5
1246
330
2
100
AcDbEntity
  8
0
100
AcDbCircle
 10
1085.946008791141
 20
179.0765580983975
 30
0.0
 40
5.0
  0
CIRCLE
  5
1247
330
2
100
AcDbEntity
  8
0
100
AcDbCircle
 10
1085.946008791141
 20
179.0765580983975
 30
0.0
 40
4.307179676972423
  0
CIRCLE
  5
1248
330
2
100
AcDbEntity
  8
0
100
AcDbCircle
 10
1085.946008791141
 20
179.0765580983975
 30
0.0
 40
2.886751345948113
  0
LWPOLYLINE
  5
1249
330
2
100
AcDbEntity
  8
0
100
AcDbPolyline
 90
        6
 70
     1
 43
0.0
 10
1088.446008791141
 20
180.5199337713716
 10
1085.946008791141
 20
181.9633094443457
 10
1083.446008791141
 20
180.5199337713716
 10
1083.446008791141
 20
177.6331824254235
 10
1085.946008791141
 20
176.1898067524494
 10
1088.446008791141
 20
177.6331824254235
  0
CIRCLE
  5
124A
330
2
100
AcDbEntity
  8
0
100
AcDbCircle
 10
1085.946008791141
 20
94.21655809839746
 30
0.0
 40
5.0
  0
CIRCLE
  5
124B
330
2
100
AcDbEntity
  8
0
100
AcDbCircle
 10
1085.946008791141
 20
94.21655809839746
 30
0.0
 40
4.307179676972423
  0
CIRCLE
  5
124C
330
2
100
AcDbEntity
  8
0
100
AcDbCircle
 10
1085.946008791141
 20
94.21655809839746
 30
0.0
 40
2.886751345948113
  0
LWPOLYLINE
  5
124D
330
2
100
AcDbEntity
  8
0
100
AcDbPolyline
 90
        6
 70
     1
 43
0.0
 10
1088.446008791141
 20
95.65993377137152
 10
1085.946008791141
 20
97.10330944434559
 10
1083.446008791141
 20
95.65993377137152
 10
1083.446008791141
 20
92.77318242542339
 10
1085.946008791141
 20
91.32980675244931
 10
1088.446008791141
 20
92.77318242542339
  0
CIRCLE
  5
124E
330
2
100
AcDbEntity
  8
0
100
AcDbCircle
 10
1001.086008791141
 20
94.21655809839746
 30
0.0
 40
5.0
  0
CIRCLE
  5
124F
330
2
100
AcDbEntity
  8
0
100
AcDbCircle
 10
1001.086008791141
 20
94.21655809839746
 30
0.0
 40
4.307179676972423
  0
CIRCLE
  5
1250
330
2
100
AcDbEntity
  8
0
100
AcDbCircle
 10
1001.086008791141
 20
94.21655809839746
 30
0.0
 40
2.886751345948113
  0
LWPOLYLINE
  5
1251
330
2
100
AcDbEntity
  8
0
100
AcDbPolyline
 90
        6
 70
     1
 43
0.0
 10
1003.586008791141
 20
95.65993377137152
 10
1001.086008791141
 20
97.10330944434559
 10
998.586008791141
 20
95.65993377137152
 10
998.586008791141
 20
92.77318242542339
 10
1001.086008791141
 20
91.32980675244931
 10
1003.586008791141
 20
92.77318242542339
  0
LINE
  5
1252
330
2
100
AcDbEntity
  8
0
100
AcDbLine
 10
776.5759310264416
 20
174.0765580983968
 30
0.0
 11
776.9759310264412
 21
174.769378421425
 31
0.0
  0
LINE
  5
1253
330
2
100
AcDbEntity
  8
0
100
AcDbLine
 10
776.5759310264416
 20
174.0765580983968
 30
0.0
 11
776.5759310264416
 21
184.0765580983968
 31
0.0
  0
LINE
  5
1254
330
2
100
AcDbEntity
  8
0
100
AcDbLine
 10
770.9759310264412
 20
174.0765580983968
 30
0.0
 11
770.9759310264412
 21
184.0765580983968
 31
0.0
  0
LINE
  5
1255
330
2
100
AcDbEntity
  8
0
100
AcDbLine
 10
770.9759310264412
 20
184.0765580983968
 30
0.0
 11
769.9759310264412
 21
184.0765580983968
 31
0.0
  0
LINE
  5
1256
330
2
100
AcDbEntity
  8
0
100
AcDbLine
 10
769.9759310264412
 20
184.0765580983968
 30
0.0
 11
769.9759310264412
 21
174.0765580983968
 31
0.0
  0
LINE
  5
1257
330
2
100
AcDbEntity
  8
0
100
AcDbLine
 10
769.9759310264412
 20
174.0765580983968
 30
0.0
 11
770.9759310264412
 21
174.0765580983968
 31
0.0
  0
LINE
  5
1258
330
2
100
AcDbEntity
  8
0
100
AcDbLine
 10
770.9759310264412
 20
174.0765580983968
 30
0.0
 11
770.9759310264412
 21
184.0765580983968
 31
0.0
  0
LINE
  5
1259
330
2
100
AcDbEntity
  8
0
100
AcDbLine
 10
776.5759310264416
 20
174.0765580983968
 30
0.0
 11
770.9759310264412
 21
174.0765580983968
 31
0.0
  0
LINE
  5
125A
330
2
100
AcDbEntity
  8
0
100
AcDbLine
 10
776.9759310264412
 20
183.3837377753695
 30
0.0
 11
776.9759310264412
 21
174.769378421425
 31
0.0
  0
LINE
  5
125B
330
2
100
AcDbEntity
  8
0
100
AcDbLine
 10
770.9759310264412
 20
184.0765580983968
 30
0.0
 11
776.5759310264416
 21
184.0765580983968
 31
0.0
  0
LINE
  5
125C
330
2
100
AcDbEntity
  8
0
100
AcDbLine
 10
776.5759310264416
 20
184.0765580983973
 30
0.0
 11
776.9759310264412
 21
183.3837377753695
 31
0.0
  0
LINE
  5
125D
330
2
100
AcDbEntity
  8
CENTER
  6
CENS
100
AcDbLine
 10
749.9759310264412
 20
179.0765580983968
 30
0.0
 11
781.9759310264412
 21
179.0765580983968
 31
0.0
  0
LINE
  5
125E
330
2
100
AcDbEntity
  8
0
100
AcDbLine
 10
776.5759310264416
 20
99.21655809839718
 30
0.0
 11
776.9759310264412
 21
98.52373777536946
 31
0.0
  0
LINE
  5
125F
330
2
100
AcDbEntity
  8
0
100
AcDbLine
 10
776.5759310264416
 20
99.21655809839718
 30
0.0
 11
776.5759310264416
 21
89.21655809839718
 31
0.0
  0
LINE
  5
1260
330
2
100
AcDbEntity
  8
0
100
AcDbLine
 10
770.9759310264412
 20
99.21655809839718
 30
0.0
 11
770.9759310264412
 21
89.21655809839718
 31
0.0
  0
LINE
  5
1261
330
2
100
AcDbEntity
  8
0
100
AcDbLine
 10
770.9759310264412
 20
89.21655809839718
 30
0.0
 11
769.9759310264412
 21
89.21655809839718
 31
0.0
  0
LINE
  5
1262
330
2
100
AcDbEntity
  8
0
100
AcDbLine
 10
769.9759310264412
 20
89.21655809839718
 30
0.0
 11
769.9759310264412
 21
99.21655809839718
 31
0.0
  0
LINE
  5
1263
330
2
100
AcDbEntity
  8
0
100
AcDbLine
 10
769.9759310264412
 20
99.21655809839718
 30
0.0
 11
770.9759310264412
 21
99.21655809839718
 31
0.0
  0
LINE
  5
1264
330
2
100
AcDbEntity
  8
0
100
AcDbLine
 10
770.9759310264412
 20
99.21655809839718
 30
0.0
 11
770.9759310264412
 21
89.21655809839718
 31
0.0
  0
LINE
  5
1265
330
2
100
AcDbEntity
  8
0
100
AcDbLine
 10
776.5759310264416
 20
99.21655809839718
 30
0.0
 11
770.9759310264412
 21
99.21655809839718
 31
0.0
  0
LINE
  5
1266
330
2
100
AcDbEntity
  8
0
100
AcDbLine
 10
776.9759310264412
 20
89.90937842142443
 30
0.0
 11
776.9759310264412
 21
98.52373777536946
 31
0.0
  0
LINE
  5
1267
330
2
100
AcDbEntity
  8
0
100
AcDbLine
 10
770.9759310264412
 20
89.21655809839718
 30
0.0
 11
776.5759310264416
 21
89.21655809839718
 31
0.0
  0
LINE
  5
1268
330
2
100
AcDbEntity
  8
0
100
AcDbLine
 10
776.5759310264416
 20
89.21655809839718
 30
0.0
 11
776.9759310264412
 21
89.90937842142443
 31
0.0
  0
LINE
  5
1269
330
2
100
AcDbEntity
  8
CENTER
  6
CENS
100
AcDbLine
 10
749.9759310264412
 20
94.21655809839718
 30
0.0
 11
781.9759310264412
 21
94.21655809839718
 31
0.0
  0
LINE
  5
126A
330
2
100
AcDbEntity
  8
0
100
AcDbLine
 10
776.5759310264422
 20
421.5444109531549
 30
0.0
 11
776.9759310264418
 21
420.8515906301276
 31
0.0
  0
LINE
  5
126B
330
2
100
AcDbEntity
  8
0
100
AcDbLine
 10
776.5759310264422
 20
421.5444109531549
 30
0.0
 11
776.5759310264422
 21
411.544410953155
 31
0.0
  0
LINE
  5
126C
330
2
100
AcDbEntity
  8
0
100
AcDbLine
 10
770.9759310264417
 20
421.5444109531549
 30
0.0
 11
770.9759310264417
 21
411.544410953155
 31
0.0
  0
LINE
  5
126D
330
2
100
AcDbEntity
  8
0
100
AcDbLine
 10
770.9759310264417
 20
411.544410953155
 30
0.0
 11
769.9759310264417
 21
411.544410953155
 31
0.0
  0
LINE
  5
126E
330
2
100
AcDbEntity
  8
0
100
AcDbLine
 10
769.9759310264417
 20
411.544410953155
 30
0.0
 11
769.9759310264417
 21
421.5444109531549
 31
0.0
  0
LINE
  5
126F
330
2
100
AcDbEntity
  8
0
100
AcDbLine
 10
769.9759310264417
 20
421.5444109531549
 30
0.0
 11
770.9759310264417
 21
421.5444109531549
 31
0.0
  0
LINE
  5
1270
330
2
100
AcDbEntity
  8
0
100
AcDbLine
 10
770.9759310264417
 20
421.5444109531549
 30
0.0
 11
770.9759310264417
 21
411.544410953155
 31
0.0
  0
LINE
  5
1271
330
2
100
AcDbEntity
  8
0
100
AcDbLine
 10
776.5759310264422
 20
421.5444109531549
 30
0.0
 11
770.9759310264417
 21
421.5444109531549
 31
0.0
  0
LINE
  5
1272
330
2
100
AcDbEntity
  8
0
100
AcDbLine
 10
776.9759310264418
 20
412.2372312761822
 30
0.0
 11
776.9759310264418
 21
420.8515906301276
 31
0.0
  0
LINE
  5
1273
330
2
100
AcDbEntity
  8
0
100
AcDbLine
 10
770.9759310264417
 20
411.544410953155
 30
0.0
 11
776.5759310264422
 21
411.544410953155
 31
0.0
  0
LINE
  5
1274
330
2
100
AcDbEntity
  8
0
100
AcDbLine
 10
776.5759310264422
 20
411.544410953155
 30
0.0
 11
776.9759310264418
 21
412.2372312761822
 31
0.0
  0
LINE
  5
1275
330
2
100
AcDbEntity
  8
CENTER
  6
CENS
100
AcDbLine
 10
749.9759310264417
 20
416.5444109531549
 30
0.0
 11
781.9759310264418
 21
416.5444109531549
 31
0.0
  0
LINE
  5
1276
330
2
100
AcDbEntity
  8
0
100
AcDbLine
 10
776.5759310264422
 20
496.4044109531546
 30
0.0
 11
776.9759310264418
 21
497.0972312761828
 31
0.0
  0
LINE
  5
1277
330
2
100
AcDbEntity
  8
0
100
AcDbLine
 10
776.5759310264422
 20
496.4044109531546
 30
0.0
 11
776.5759310264422
 21
506.4044109531546
 31
0.0
  0
LINE
  5
1278
330
2
100
AcDbEntity
  8
0
100
AcDbLine
 10
770.9759310264417
 20
496.4044109531546
 30
0.0
 11
770.9759310264417
 21
506.4044109531546
 31
0.0
  0
LINE
  5
1279
330
2
100
AcDbEntity
  8
0
100
AcDbLine
 10
770.9759310264417
 20
506.4044109531546
 30
0.0
 11
769.9759310264417
 21
506.4044109531546
 31
0.0
  0
LINE
  5
127A
330
2
100
AcDbEntity
  8
0
100
AcDbLine
 10
769.9759310264417
 20
506.4044109531546
 30
0.0
 11
769.9759310264417
 21
496.4044109531546
 31
0.0
  0
LINE
  5
127B
330
2
100
AcDbEntity
  8
0
100
AcDbLine
 10
769.9759310264417
 20
496.4044109531546
 30
0.0
 11
770.9759310264417
 21
496.4044109531546
 31
0.0
  0
LINE
  5
127C
330
2
100
AcDbEntity
  8
0
100
AcDbLine
 10
770.9759310264417
 20
496.4044109531546
 30
0.0
 11
770.9759310264417
 21
506.4044109531546
 31
0.0
  0
LINE
  5
127D
330
2
100
AcDbEntity
  8
0
100
AcDbLine
 10
776.5759310264422
 20
496.4044109531546
 30
0.0
 11
770.9759310264417
 21
496.4044109531546
 31
0.0
  0
LINE
  5
127E
330
2
100
AcDbEntity
  8
0
100
AcDbLine
 10
776.9759310264418
 20
505.7115906301273
 30
0.0
 11
776.9759310264418
 21
497.0972312761828
 31
0.0
  0
LINE
  5
127F
330
2
100
AcDbEntity
  8
0
100
AcDbLine
 10
770.9759310264417
 20
506.4044109531546
 30
0.0
 11
776.5759310264422
 21
506.4044109531546
 31
0.0
  0
LINE
  5
1280
330
2
100
AcDbEntity
  8
0
100
AcDbLine
 10
776.5759310264422
 20
506.4044109531555
 30
0.0
 11
776.9759310264418
 21
505.7115906301273
 31
0.0
  0
LINE
  5
1281
330
2
100
AcDbEntity
  8
CENTER
  6
CENS
100
AcDbLine
 10
749.9759310264417
 20
501.4044109531546
 30
0.0
 11
781.9759310264418
 21
501.4044109531546
 31
0.0
  0
LINE
  5
1282
330
2
100
AcDbEntity
  8
0
100
AcDbLine
 10
800.9988863133308
 20
182.6642366179537
 30
0.0
 11
790.9990521770573
 21
182.721832164834
 31
0.0
  0
ARC
  5
1283
330
2
100
AcDbEntity
  8
0
100
AcDbCircle
 10
790.9760139583045
 20
178.7218985103243
 30
0.0
 40
4.000000000000014
100
AcDbArc
 50
89.67000000001375
 51
179.6700000000007
  0
ARC
  5
1284
330
2
100
AcDbEntity
  8
0
100
AcDbCircle
 10
800.9758480945778
 20
178.6643029634444
 30
0.0
 40
4.000000000000014
100
AcDbArc
 50
359.6700000000007
 51
89.67000000001375
  0
LINE
  5
1285
330
2
100
AcDbEntity
  8
CENTER
  6
CENS
100
AcDbLine
 10
795.9759310264412
 20
187.5889579719149
 30
0.0
 11
795.9759310264412
 21
164.229031969548
 31
0.0
  0
CIRCLE
  5
1286
330
2
100
AcDbEntity
  8
0
100
AcDbCircle
 10
795.9759310264417
 20
443.9744109531552
 30
0.0
 40
9.0
  0
LINE
  5
1287
330
2
100
AcDbEntity
  8
CENTER
  6
CENS
100
AcDbLine
 10
795.9759310264382
 20
432.0954810541612
 30
0.0
 11
795.9759310264382
 21
455.8533408521493
 31
0.0
  0
LINE
  5
1288
330
2
100
AcDbEntity
  8
CENTER
  6
CENS
100
AcDbLine
 10
807.8548609254323
 20
443.9744109531552
 30
0.0
 11
784.097001127444
 21
443.9744109531552
 31
0.0
  0
LINE
  5
1289
330
2
100
AcDbEntity
  8
0
100
AcDbLine
 10
809.9759310264412
 20
171.6465580983974
 30
0.0
 11
802.9759310264411
 21
171.646558098397
 31
0.0
  0
LINE
  5
128A
330
2
100
AcDbEntity
  8
0
100
AcDbLine
 10
802.9759310264411
 20
171.646558098397
 30
0.0
 11
802.9759310264411
 21
136.646558098397
 31
0.0
  0
LINE
  5
128B
330
2
100
AcDbEntity
  8
0
100
AcDbLine
 10
802.9759310264411
 20
156.396558098397
 30
0.0
 11
802.9759310264431
 21
136.646558098397
 31
0.0
  0
LINE
  5
128C
330
2
100
AcDbEntity
  8
0
100
AcDbLine
 10
802.9759310264411
 20
156.396558098397
 30
0.0
 11
793.2381264559239
 21
156.396558098397
 31
0.0
  0
LINE
  5
128D
330
2
100
AcDbEntity
  8
0
100
AcDbLine
 10
800.9759310264412
 20
144.646558098397
 30
0.0
 11
789.9759310264412
 21
144.6465580983974
 31
0.0
  0
LINE
  5
128E
330
2
100
AcDbEntity
  8
0
100
AcDbLine
 10
771.4759310264412
 20
144.896558098397
 30
0.0
 11
771.4759310264412
 21
136.6465580983974
 31
0.0
  0
LINE
  5
128F
330
2
100
AcDbEntity
  8
0
100
AcDbLine
 10
771.4759310264412
 20
144.896558098397
 30
0.0
 11
765.4759310264412
 21
144.896558098397
 31
0.0
  0
LINE
  5
1290
330
2
100
AcDbEntity
  8
0
100
AcDbLine
 10
765.4759310264412
 20
144.896558098397
 30
0.0
 11
765.4759310264412
 21
136.646558098397
 31
0.0
  0
LINE
  5
1291
330
2
100
AcDbEntity
  8
0
100
AcDbLine
 10
787.9759310264412
 20
150.921968319092
 30
0.0
 11
787.9759310264412
 21
136.646558098397
 31
0.0
  0
LINE
  5
1292
330
2
100
AcDbEntity
  8
0
100
AcDbLine
 10
789.9759310264412
 20
151.9757016594737
 30
0.0
 11
789.9759310264412
 21
136.646558098397
 31
0.0
  0
LINE
  5
1293
330
2
100
AcDbEntity
  8
0
100
AcDbLine
 10
787.9759310264412
 20
144.6465580983974
 30
0.0
 11
771.4759310264412
 21
144.646558098397
 31
0.0
  0
LINE
  5
1294
330
2
100
AcDbEntity
  8
0
100
AcDbLine
 10
802.9759310264411
 20
145.8012586367765
 30
0.0
 11
800.9759310264412
 21
144.646558098397
 31
0.0
  0
LINE
  5
1295
330
2
100
AcDbEntity
  8
0
100
AcDbLine
 10
800.9759310264412
 20
144.646558098397
 30
0.0
 11
800.9759310264412
 21
136.646558098397
 31
0.0
  0
LINE
  5
1296
330
2
100
AcDbEntity
  8
0
100
AcDbLine
 10
765.4759310264412
 20
144.146558098397
 30
0.0
 11
761.145804007519
 21
136.646558098397
 31
0.0
  0
SPLINE
  5
1297
330
2
100
AcDbEntity
  8
HOJO
100
AcDbSpline
210
0.0
220
0.0
230
1.0
 70
     8
 71
     3
 72
    20
 73
    16
 74
     0
 42
0.0000000001
 43
0.0000000001
 40
1.221331719906463
 40
1.221331719906463
 40
1.221331719906463
 40
1.221331719906463
 40
5.647385924430076
 40
9.759277458584113
 40
14.59638394258456
 40
18.6386056126129
 40
22.25598020257161
 40
26.57819511411361
 40
31.00332353479096
 40
40.39337194914635
 40
45.49899296170218
 40
52.02718752358933
 40
57.17041693382338
 40
65.63449353306062
 40
69.3611614947018
 40
69.3611614947018
 40
69.3611614947018
 40
69.3611614947018
 10
806.2764135834708
 20
176.7111334155667
 30
0.0
 10
804.9092533798789
 20
175.8758602023283
 30
0.0
 10
802.4535816489473
 20
174.347237556765
 30
0.0
 10
801.1442832204698
 20
169.8228953691962
 30
0.0
 10
799.9943738949219
 20
166.4313258746776
 30
0.0
 10
796.506617482933
 20
162.7575606634334
 30
0.0
 10
794.83478230657
 20
159.2322005334542
 30
0.0
 10
792.8575357461154
 20
155.6814838359594
 30
0.0
 10
789.4697544335517
 20
150.0924392475051
 30
0.0
 10
781.9453953892366
 20
150.2680156950966
 30
0.0
 10
775.217056032588
 20
149.1216451615989
 30
0.0
 10
769.8737894871806
 20
147.4030330571183
 30
0.0
 10
762.8750089727941
 20
147.0668617723947
 30
0.0
 10
759.1602761735698
 20
141.5808674404399
 30
0.0
 10
757.8384347347742
 20
137.8109609472637
 30
0.0
 10
757.4257619616651
 20
136.646558098397
 30
0.0
  0
LINE
  5
1298
330
2
100
AcDbEntity
  8
CENTER
  6
CENS
100
AcDbLine
 10
1028.516008791141
 20
187.588957971915
 30
0.0
 11
1028.516008791141
 21
120.7988929408675
 31
0.0
  0
LINE
  5
1299
330
2
100
AcDbEntity
  8
0
100
AcDbLine
 10
1023.780254435151
 20
135.8965580983972
 30
0.0
 11
1035.551242630103
 21
135.8965580983972
 31
0.0
  0
LINE
  5
129A
330
2
100
AcDbEntity
  8
0
100
AcDbLine
 10
1023.780254435151
 20
137.3965580983973
 30
0.0
 11
1035.551242630103
 21
137.3965580983973
 31
0.0
  0
CIRCLE
  5
129B
330
2
100
AcDbEntity
  8
0
100
AcDbCircle
 10
1043.516008791141
 20
136.6465580983972
 30
0.0
 40
8.0
  0
LINE
  5
129C
330
2
100
AcDbEntity
  8
0
100
AcDbLine
 10
1060.71600879114
 20
135.8965580983972
 30
0.0
 11
1060.71600879114
 21
137.3965580983973
 31
0.0
  0
LINE
  5
129D
330
2
100
AcDbEntity
  8
0
100
AcDbLine
 10
1051.480774952179
 20
135.8965580983972
 30
0.0
 11
1060.71600879114
 21
135.8965580983972
 31
0.0
  0
LINE
  5
129E
330
2
100
AcDbEntity
  8
0
100
AcDbLine
 10
1051.480774952179
 20
137.3965580983973
 30
0.0
 11
1060.71600879114
 21
137.3965580983973
 31
0.0
  0
LINE
  5
129F
330
2
100
AcDbEntity
  8
HIDS
100
AcDbLine
 10
1031.016008791141
 20
135.8965580983972
 30
0.0
 11
1031.016008791141
 21
121.3556294150244
 31
0.0
  0
LINE
  5
12A0
330
2
100
AcDbEntity
  8
HIDS
100
AcDbLine
 10
1030.599342124475
 20
135.8965580983972
 30
0.0
 11
1030.599342124475
 21
121.7059348777207
 31
0.0
  0
LINE
  5
12A1
330
2
100
AcDbEntity
  8
HIDS
100
AcDbLine
 10
1026.432675457807
 20
135.8965580983972
 30
0.0
 11
1026.432675457807
 21
126.7358456001848
 31
0.0
  0
LINE
  5
12A2
330
2
100
AcDbEntity
  8
HIDS
100
AcDbLine
 10
1026.016008791141
 20
135.8965580983972
 30
0.0
 11
1026.016008791141
 21
127.4916413865972
 31
0.0
  0
LINE
  5
12A3
330
2
100
AcDbEntity
  8
HIDS
100
AcDbLine
 10
1031.516008791141
 20
141.6465580983973
 30
0.0
 11
1031.516008791141
 21
137.3965580983973
 31
0.0
  0
LINE
  5
12A4
330
2
100
AcDbEntity
  8
HIDS
100
AcDbLine
 10
1025.516008791141
 20
141.6465580983973
 30
0.0
 11
1025.516008791141
 21
137.3965580983973
 31
0.0
  0
LINE
  5
12A5
330
2
100
AcDbEntity
  8
HIDS
100
AcDbLine
 10
1024.409399986857
 20
141.6465580983973
 30
0.0
 11
1033.516008791141
 21
141.6465580983973
 31
0.0
  0
LINE
  5
12A6
330
2
100
AcDbEntity
  8
HIDS
100
AcDbLine
 10
1032.766008791141
 20
141.6465580983973
 30
0.0
 11
1032.766008791141
 21
146.3465580983975
 31
0.0
  0
LINE
  5
12A7
330
2
100
AcDbEntity
  8
0
100
AcDbLine
 10
1024.266008791141
 20
146.3465580983975
 30
0.0
 11
1024.266008791141
 21
141.6465580983973
 31
0.0
  0
LINE
  5
12A8
330
2
100
AcDbEntity
  8
HIDS
100
AcDbLine
 10
1031.016008791141
 20
127.6465580983972
 30
0.0
 11
1030.016008791141
 21
126.6465580983972
 31
0.0
  0
LINE
  5
12A9
330
2
100
AcDbEntity
  8
HIDS
100
AcDbLine
 10
1026.016008791141
 20
127.6465580983972
 30
0.0
 11
1027.016008791141
 21
126.6465580983972
 31
0.0
  0
LINE
  5
12AA
330
2
100
AcDbEntity
  8
HIDS
100
AcDbLine
 10
1030.016008791141
 20
126.6465580983972
 30
0.0
 11
1027.016008791141
 21
126.6465580983972
 31
0.0
  0
LINE
  5
12AB
330
2
100
AcDbEntity
  8
HIDS
100
AcDbLine
 10
1031.016008791141
 20
141.6465580983973
 30
0.0
 11
1031.016008791141
 21
137.3965580983973
 31
0.0
  0
LINE
  5
12AC
330
2
100
AcDbEntity
  8
HIDS
100
AcDbLine
 10
1030.599342124475
 20
139.5632247650638
 30
0.0
 11
1030.599342124475
 21
137.3965580983973
 31
0.0
  0
LINE
  5
12AD
330
2
100
AcDbEntity
  8
HIDS
100
AcDbLine
 10
1026.432675457807
 20
139.5632247650638
 30
0.0
 11
1026.432675457807
 21
137.3965580983973
 31
0.0
  0
LINE
  5
12AE
330
2
100
AcDbEntity
  8
HIDS
100
AcDbLine
 10
1026.016008791141
 20
141.6465580983973
 30
0.0
 11
1026.016008791141
 21
137.3965580983973
 31
0.0
  0
LINE
  5
12AF
330
2
100
AcDbEntity
  8
HIDS
100
AcDbLine
 10
1031.016008791141
 20
127.6465580983972
 30
0.0
 11
1026.016008791141
 21
127.6465580983972
 31
0.0
  0
LINE
  5
12B0
330
2
100
AcDbEntity
  8
HIDS
100
AcDbLine
 10
1031.016008791141
 20
139.5632247650638
 30
0.0
 11
1026.016008791141
 21
139.5632247650638
 31
0.0
  0
LINE
  5
12B1
330
2
100
AcDbEntity
  8
0
100
AcDbLine
 10
1024.266008791141
 20
141.6465580983973
 30
0.0
 11
1024.409399986857
 21
141.6465580983973
 31
0.0
  0
LINE
  5
12B2
330
2
100
AcDbEntity
  8
HIDS
100
AcDbLine
 10
1026.016008791141
 20
141.6465580983973
 30
0.0
 11
1026.432675457807
 21
139.5632247650638
 31
0.0
  0
LINE
  5
12B3
330
2
100
AcDbEntity
  8
HIDS
100
AcDbLine
 10
1031.016008791141
 20
141.6465580983973
 30
0.0
 11
1030.599342124475
 21
139.5632247650638
 31
0.0
  0
LINE
  5
12B4
330
2
100
AcDbEntity
  8
0
100
AcDbLine
 10
1024.266008791141
 20
146.3465580983975
 30
0.0
 11
1026.312157478136
 21
146.3465580983975
 31
0.0
  0
LINE
  5
12B5
330
2
100
AcDbEntity
  8
HIDS
100
AcDbLine
 10
1032.246393548871
 20
146.6465580983973
 30
0.0
 11
1026.48478746089
 21
146.6465580983973
 31
0.0
  0
LINE
  5
12B6
330
2
100
AcDbEntity
  8
0
100
AcDbLine
 10
1024.266008791141
 20
146.3465580983975
 30
0.0
 11
1024.785624033411
 21
146.6465580983973
 31
0.0
  0
LINE
  5
12B7
330
2
100
AcDbEntity
  8
HIDS
100
AcDbLine
 10
1032.246393548871
 20
146.6465580983973
 30
0.0
 11
1032.766008791141
 21
146.3465580983975
 31
0.0
  0
LINE
  5
12B8
330
2
100
AcDbEntity
  8
0
100
AcDbLine
 10
1026.48478746089
 20
146.6465580983973
 30
0.0
 11
1024.785624033411
 21
146.6465580983973
 31
0.0
  0
LINE
  5
12B9
330
2
100
AcDbEntity
  8
HIDS
100
AcDbLine
 10
1026.312157478136
 20
146.3465580983975
 30
0.0
 11
1032.766008791141
 21
146.3465580983975
 31
0.0
  0
LINE
  5
12BA
330
2
100
AcDbEntity
  8
0
100
AcDbLine
 10
1031.016008791141
 20
137.3965580983973
 30
0.0
 11
1031.016008791141
 21
135.8965580983977
 31
0.0
  0
LINE
  5
12BB
330
2
100
AcDbEntity
  8
HOJO
100
AcDbLine
 10
1030.599342124475
 20
137.3965580983973
 30
0.0
 11
1030.599342124475
 21
135.8965580983977
 31
0.0
  0
LINE
  5
12BC
330
2
100
AcDbEntity
  8
HOJO
100
AcDbLine
 10
1026.432675457807
 20
137.3965580983973
 30
0.0
 11
1026.432675457807
 21
135.8965580983977
 31
0.0
  0
LINE
  5
12BD
330
2
100
AcDbEntity
  8
0
100
AcDbLine
 10
1026.016008791141
 20
137.3965580983973
 30
0.0
 11
1026.016008791141
 21
135.8965580983972
 31
0.0
  0
LINE
  5
12BE
330
2
100
AcDbEntity
  8
HIDS
100
AcDbLine
 10
1026.016008791141
 20
135.8965580983972
 30
0.0
 11
1026.016008791141
 21
127.6465580983972
 31
0.0
  0
LINE
  5
12BF
330
2
100
AcDbEntity
  8
HIDS
100
AcDbLine
 10
1026.432675457807
 20
135.8965580983972
 30
0.0
 11
1026.432675457807
 21
127.2298914317307
 31
0.0
  0
CIRCLE
  5
12C0
330
2
100
AcDbEntity
  8
0
100
AcDbCircle
 10
1043.516008791141
 20
136.6465580983972
 30
0.0
 40
19.75
  0
ARC
  5
12C1
330
2
100
AcDbEntity
  8
0
100
AcDbCircle
 10
1043.516008791141
 20
136.6465580983972
 30
0.0
 40
9.154700538379415
100
AcDbArc
 50
4.699230675929105
 51
175.3007693240709
  0
ARC
  5
12C2
330
2
100
AcDbEntity
  8
0
100
AcDbCircle
 10
1043.516008791141
 20
136.6465580983972
 30
0.0
 40
9.154700538379415
100
AcDbArc
 50
184.6992306759291
 51
355.3007693240708
  0
LINE
  5
12C4
330
2
100
AcDbEntity
  8
0
100
AcDbLine
 10
1023.641009814593
 20
182.7218321648343
 30
0.0
 11
1033.391009814593
 21
182.7218321648343
 31
0.0
  0
ARC
  5
12C5
330
2
100
AcDbEntity
  8
0
100
AcDbCircle
 10
1023.641009814593
 20
178.4718321648343
 30
0.0
 40
4.25
100
AcDbArc
 50
90.0
 51
177.6437927484639
  0
ARC
  5
12C6
330
2
100
AcDbEntity
  8
0
100
AcDbCircle
 10
1033.141009814593
 20
178.4718321648343
 30
0.0
 40
4.25
100
AcDbArc
 50
2.356207251536093
 51
90.0
  0
LINE
  5
12C7
330
2
100
AcDbEntity
  8
0
100
AcDbLine
 10
60.41773900683475
 20
178.6465580983993
 30
0.0
 11
60.41773900683475
 21
94.6465580984057
 31
0.0
  0
LINE
  5
12C8
330
2
100
AcDbEntity
  8
0
100
AcDbLine
 10
58.41773900683475
 20
176.7163783581152
 30
0.0
 11
58.41773900683657
 21
96.57673783868979
 31
0.0
  0
LINE
  5
12C9
330
2
100
AcDbEntity
  8
0
100
AcDbLine
 10
94.41773900683566
 20
186.5243438709455
 30
0.0
 11
94.41773900683656
 21
86.7687723258594
 31
0.0
  0
LINE
  5
12CA
330
2
100
AcDbEntity
  8
0
100
AcDbLine
 10
58.41773900683657
 20
96.57673783869023
 30
0.0
 11
60.41773900683839
 21
94.64655809840298
 31
0.0
  0
LINE
  5
12CB
330
2
100
AcDbEntity
  8
0
100
AcDbLine
 10
54.41773900683839
 20
96.64655809840297
 30
0.0
 11
58.41773900683657
 21
96.57673783869023
 31
0.0
  0
LINE
  5
12CC
330
2
100
AcDbEntity
  8
0
100
AcDbLine
 10
109.4177390068383
 20
85.64655809840298
 30
0.0
 11
95.40901247133879
 21
85.76881040279506
 31
0.0
  0
LINE
  5
12CD
330
2
100
AcDbEntity
  8
0
100
AcDbLine
 10
60.41773900683839
 20
94.64655809840298
 30
0.0
 11
87.41773900683838
 21
94.48947669350701
 31
0.0
  0
LINE
  5
12CE
330
2
100
AcDbEntity
  8
0
100
AcDbLine
 10
58.41773900683475
 20
176.7163783581152
 30
0.0
 11
60.41773900683475
 21
178.6465580983993
 31
0.0
  0
LINE
  5
12CF
330
2
100
AcDbEntity
  8
0
100
AcDbLine
 10
54.41773900683839
 20
176.646558098402
 30
0.0
 11
58.41773900683475
 21
176.7163783581152
 31
0.0
  0
LINE
  5
12D0
330
2
100
AcDbEntity
  8
0
100
AcDbLine
 10
109.4177390068383
 20
187.6465580984019
 30
0.0
 11
95.40901247133879
 21
187.5243057940099
 31
0.0
  0
LINE
  5
12D1
330
2
100
AcDbEntity
  8
0
100
AcDbLine
 10
59.41789133415515
 20
178.6407411548059
 30
0.0
 11
87.41773900683838
 21
178.803639503298
 31
0.0
  0
ARC
  5
12D2
330
2
100
AcDbEntity
  8
0
100
AcDbCircle
 10
95.41773900683839
 20
186.5243438709455
 30
0.0
 40
1.0
100
AcDbArc
 50
90.49999999996549
 51
180.0
  0
ARC
  5
12D3
330
2
100
AcDbEntity
  8
0
100
AcDbCircle
 10
95.41773900683656
 20
86.7687723258594
 30
0.0
 40
1.0
100
AcDbArc
 50
180.0
 51
269.5000000000345
  0
LINE
  5
12D4
330
2
100
AcDbEntity
  8
0
100
AcDbLine
 10
54.41773900683839
 20
176.646558098402
 30
0.0
 11
54.41773900683839
 21
96.64655809840297
 31
0.0
  0
LINE
  5
12D5
330
2
100
AcDbEntity
  8
0
100
AcDbLine
 10
87.81773900683802
 20
174.0765580984023
 30
0.0
 11
87.41773900683838
 21
174.7693784214305
 31
0.0
  0
LINE
  5
12D6
330
2
100
AcDbEntity
  8
0
100
AcDbLine
 10
87.81773900683802
 20
174.0765580984023
 30
0.0
 11
87.81773900683802
 21
184.0765580984023
 31
0.0
  0
LINE
  5
12D7
330
2
100
AcDbEntity
  8
0
100
AcDbLine
 10
93.41773900683838
 20
174.0765580984023
 30
0.0
 11
93.41773900683838
 21
184.0765580984023
 31
0.0
  0
LINE
  5
12D8
330
2
100
AcDbEntity
  8
0
100
AcDbLine
 10
93.41773900683838
 20
184.0765580984023
 30
0.0
 11
94.41773900683839
 21
184.0765580984023
 31
0.0
  0
LINE
  5
12D9
330
2
100
AcDbEntity
  8
0
100
AcDbLine
 10
94.41773900683839
 20
184.0765580984023
 30
0.0
 11
94.41773900683839
 21
174.0765580984023
 31
0.0
  0
LINE
  5
12DA
330
2
100
AcDbEntity
  8
0
100
AcDbLine
 10
94.41773900683839
 20
174.0765580984023
 30
0.0
 11
93.41773900683838
 21
174.0765580984023
 31
0.0
  0
LINE
  5
12DB
330
2
100
AcDbEntity
  8
0
100
AcDbLine
 10
93.41773900683838
 20
174.0765580984023
 30
0.0
 11
93.41773900683838
 21
184.0765580984023
 31
0.0
  0
LINE
  5
12DC
330
2
100
AcDbEntity
  8
0
100
AcDbLine
 10
87.81773900683802
 20
174.0765580984023
 30
0.0
 11
93.41773900683838
 21
174.0765580984023
 31
0.0
  0
LINE
  5
12DD
330
2
100
AcDbEntity
  8
0
100
AcDbLine
 10
87.41773900683838
 20
183.383737775375
 30
0.0
 11
87.41773900683838
 21
174.7693784214305
 31
0.0
  0
LINE
  5
12DE
330
2
100
AcDbEntity
  8
0
100
AcDbLine
 10
93.41773900683838
 20
184.0765580984023
 30
0.0
 11
87.81773900683802
 21
184.0765580984023
 31
0.0
  0
LINE
  5
12DF
330
2
100
AcDbEntity
  8
0
100
AcDbLine
 10
87.81773900683802
 20
184.0765580984028
 30
0.0
 11
87.41773900683838
 21
183.383737775375
 31
0.0
  0
LINE
  5
12E0
330
2
100
AcDbEntity
  8
CENTER
  6
CENS
100
AcDbLine
 10
114.4177390068383
 20
179.0765580984023
 30
0.0
 11
82.41773900683838
 21
179.0765580984023
 31
0.0
  0
LINE
  5
12E1
330
2
100
AcDbEntity
  8
0
100
AcDbLine
 10
87.81773900683802
 20
99.21655809840268
 30
0.0
 11
87.41773900683838
 21
98.52373777537497
 31
0.0
  0
LINE
  5
12E2
330
2
100
AcDbEntity
  8
0
100
AcDbLine
 10
87.81773900683802
 20
99.21655809840268
 30
0.0
 11
87.81773900683802
 21
89.21655809840268
 31
0.0
  0
LINE
  5
12E3
330
2
100
AcDbEntity
  8
0
100
AcDbLine
 10
93.41773900683838
 20
99.21655809840268
 30
0.0
 11
93.41773900683838
 21
89.21655809840268
 31
0.0
  0
LINE
  5
12E4
330
2
100
AcDbEntity
  8
0
100
AcDbLine
 10
93.41773900683838
 20
89.21655809840268
 30
0.0
 11
94.41773900683839
 21
89.21655809840268
 31
0.0
  0
LINE
  5
12E5
330
2
100
AcDbEntity
  8
0
100
AcDbLine
 10
94.41773900683839
 20
89.21655809840268
 30
0.0
 11
94.41773900683839
 21
99.21655809840268
 31
0.0
  0
LINE
  5
12E6
330
2
100
AcDbEntity
  8
0
100
AcDbLine
 10
94.41773900683839
 20
99.21655809840268
 30
0.0
 11
93.41773900683838
 21
99.21655809840268
 31
0.0
  0
LINE
  5
12E7
330
2
100
AcDbEntity
  8
0
100
AcDbLine
 10
93.41773900683838
 20
99.21655809840268
 30
0.0
 11
93.41773900683838
 21
89.21655809840268
 31
0.0
  0
LINE
  5
12E8
330
2
100
AcDbEntity
  8
0
100
AcDbLine
 10
87.81773900683802
 20
99.21655809840268
 30
0.0
 11
93.41773900683838
 21
99.21655809840268
 31
0.0
  0
LINE
  5
12E9
330
2
100
AcDbEntity
  8
0
100
AcDbLine
 10
87.41773900683838
 20
89.90937842142995
 30
0.0
 11
87.41773900683838
 21
98.52373777537497
 31
0.0
  0
LINE
  5
12EA
330
2
100
AcDbEntity
  8
0
100
AcDbLine
 10
93.41773900683838
 20
89.21655809840268
 30
0.0
 11
87.81773900683802
 21
89.21655809840268
 31
0.0
  0
LINE
  5
12EB
330
2
100
AcDbEntity
  8
0
100
AcDbLine
 10
87.81773900683802
 20
89.21655809840268
 30
0.0
 11
87.41773900683838
 21
89.90937842142995
 31
0.0
  0
LINE
  5
12EC
330
2
100
AcDbEntity
  8
CENTER
  6
CENS
100
AcDbLine
 10
114.4177390068383
 20
94.21655809840268
 30
0.0
 11
82.41773900683838
 21
94.21655809840268
 31
0.0
  0
LINE
  5
12ED
330
2
100
AcDbEntity
  8
0
100
AcDbLine
 10
63.39478371994883
 20
182.6642366179592
 30
0.0
 11
73.39461785622225
 21
182.7218321648395
 31
0.0
  0
ARC
  5
12EE
330
2
100
AcDbEntity
  8
0
100
AcDbCircle
 10
73.4176560749751
 20
178.7218985103298
 30
0.0
 40
4.000000000000014
100
AcDbArc
 50
0.32999999999927
 51
90.32999999998624
  0
ARC
  5
12EF
330
2
100
AcDbEntity
  8
0
100
AcDbCircle
 10
63.41782193870168
 20
178.6643029634499
 30
0.0
 40
4.000000000000014
100
AcDbArc
 50
90.32999999998624
 51
180.3299999999993
  0
LINE
  5
12F0
330
2
100
AcDbEntity
  8
CENTER
  6
CENS
100
AcDbLine
 10
68.41773900683839
 20
187.5889579719203
 30
0.0
 11
68.41773900683839
 21
164.2290319695535
 31
0.0
  0
LINE
  5
12F1
330
2
100
AcDbEntity
  8
0
100
AcDbLine
 10
803.9759310264411
 20
94.64655809839745
 30
0.0
 11
803.9759310264411
 21
136.646558098397
 31
0.0
  0
LINE
  5
12F2
330
2
100
AcDbEntity
  8
0
100
AcDbLine
 10
805.975931026443
 20
96.57673783868473
 30
0.0
 11
805.975931026443
 21
136.646558098397
 31
0.0
  0
LINE
  5
12F3
330
2
100
AcDbEntity
  8
HIDS
100
AcDbLine
 10
1033.516008791141
 20
141.6465580983973
 30
0.0
 11
1033.516008791141
 21
153.6777794286486
 31
0.0
  0
CIRCLE
  5
12F4
330
2
100
AcDbEntity
  8
0
100
AcDbCircle
 10
1075.335813944535
 20
104.8267529450027
 30
0.0
 40
2.0
  0
CIRCLE
  5
12F5
330
2
100
AcDbEntity
  8
HOJO
100
AcDbCircle
 10
1075.335813944535
 20
104.8267529450027
 30
0.0
 40
2.5
  0
CIRCLE
  5
12F6
330
2
100
AcDbEntity
  8
0
100
AcDbCircle
 10
1075.335813944535
 20
168.4663632517918
 30
0.0
 40
2.0
  0
CIRCLE
  5
12F7
330
2
100
AcDbEntity
  8
HOJO
100
AcDbCircle
 10
1075.335813944535
 20
168.4663632517918
 30
0.0
 40
2.5
  0
CIRCLE
  5
12F8
330
2
100
AcDbEntity
  8
0
100
AcDbCircle
 10
1011.696203637746
 20
104.8267529450027
 30
0.0
 40
2.0
  0
CIRCLE
  5
12F9
330
2
100
AcDbEntity
  8
HOJO
100
AcDbCircle
 10
1011.696203637746
 20
104.8267529450027
 30
0.0
 40
2.5
  0
CIRCLE
  5
12FA
330
2
100
AcDbEntity
  8
0
100
AcDbCircle
 10
1011.696203637746
 20
168.4663632517918
 30
0.0
 40
2.0
  0
CIRCLE
  5
12FB
330
2
100
AcDbEntity
  8
HOJO
100
AcDbCircle
 10
1011.696203637746
 20
168.4663632517918
 30
0.0
 40
2.5
  0
LINE
  5
12FC
330
2
100
AcDbEntity
  8
0
100
AcDbLine
 10
802.9759310264411
 20
165.6465580983965
 30
0.0
 11
799.0662776776548
 21
165.646558098397
 31
0.0
  0
CIRCLE
  5
12FD
330
2
100
AcDbEntity
  8
0
100
AcDbCircle
 10
1043.516008791141
 20
136.6465580983972
 30
0.0
 40
29.0
  0
LINE
  5
2139
330
2
100
AcDbEntity
  8
0
100
AcDbLine
 10
374.8377311895133
 20
188.1465580983899
 30
0.0
 11
331.7593035859831
 21
187.7242205728648
 31
0.0
  0
LINE
  5
213A
330
2
100
AcDbEntity
  8
0
100
AcDbLine
 10
426.837731189506
 20
157.1866572755889
 30
0.0
 11
345.337731189506
 21
157.1866572755889
 31
0.0
  0
LINE
  5
213B
330
2
100
AcDbEntity
  8
0
100
AcDbLine
 10
345.3377311895042
 20
187.6465580983963
 30
0.0
 11
427.837731189506
 21
186.9265915056471
 31
0.0
  0
LINE
  5
213C
330
2
100
AcDbEntity
  8
0
100
AcDbLine
 10
426.837731189506
 20
179.646558098412
 30
0.0
 11
345.337731189506
 21
179.646558098412
 31
0.0
  0
LINE
  5
213D
330
2
100
AcDbEntity
  8
0
100
AcDbLine
 10
426.837731189506
 20
176.6465580984145
 30
0.0
 11
345.337731189506
 21
176.6465580984145
 31
0.0
  0
LINE
  5
213E
330
2
100
AcDbEntity
  8
0
100
AcDbLine
 10
374.8377311895133
 20
85.14655809839087
 30
0.0
 11
331.7593035859831
 21
85.56889562391598
 31
0.0
  0
LINE
  5
213F
330
2
100
AcDbEntity
  8
0
100
AcDbLine
 10
345.3377311895096
 20
85.64655809839814
 30
0.0
 11
427.837731189506
 21
86.36652469114734
 31
0.0
  0
LINE
  5
2140
330
2
100
AcDbEntity
  8
0
100
AcDbLine
 10
426.837731189506
 20
93.64655809838245
 30
0.0
 11
345.337731189506
 21
93.64655809838245
 31
0.0
  0
LINE
  5
2141
330
2
100
AcDbEntity
  8
0
100
AcDbLine
 10
426.837731189506
 20
96.64655809837995
 30
0.0
 11
345.337731189506
 21
96.64655809837995
 31
0.0
  0
LINE
  5
2142
330
2
100
AcDbEntity
  8
0
100
AcDbLine
 10
426.837731189506
 20
116.1064589212055
 30
0.0
 11
345.337731189506
 21
116.1064589212055
 31
0.0
  0
LINE
  5
2143
330
2
100
AcDbEntity
  8
CENTER
100
AcDbLine
 10
498.837731189506
 20
136.6465580983971
 30
0.0
 11
313.8377311895133
 21
136.6465580983972
 31
0.0
  0
LINE
  5
2146
330
2
100
AcDbEntity
  8
0
100
AcDbLine
 10
323.8377311895133
 20
93.56851118411624
 30
0.0
 11
323.8377311895133
 21
179.7246050126646
 31
0.0
  0
LINE
  5
2147
330
2
100
AcDbEntity
  8
0
100
AcDbLine
 10
345.337731189506
 20
85.64655809839814
 30
0.0
 11
345.337731189506
 21
187.6421946645127
 31
0.0
  0
LINE
  5
2148
330
2
100
AcDbEntity
  8
0
100
AcDbLine
 10
331.8377311895133
 20
101.6465580983963
 30
0.0
 11
331.8377311894951
 21
171.646558098374
 31
0.0
  0
LINE
  5
2149
330
2
100
AcDbEntity
  8
0
100
AcDbLine
 10
326.3377311895096
 20
103.8465580983952
 30
0.0
 11
326.3377311897115
 21
169.4465580983978
 31
0.0
  0
LINE
  5
214A
330
2
100
AcDbEntity
  8
0
100
AcDbLine
 10
328.3377311895133
 20
103.8465580983963
 30
0.0
 11
328.3377311895133
 21
169.4465580983933
 31
0.0
  0
LINE
  5
214B
330
2
100
AcDbEntity
  8
0
100
AcDbLine
 10
337.8377311895078
 20
185.5984843349281
 30
0.0
 11
337.8377311895078
 21
87.69463202801899
 31
0.0
  0
LINE
  5
214C
330
2
100
AcDbEntity
  8
0
100
AcDbLine
 10
332.3377311895078
 20
174.6465580984127
 30
0.0
 11
332.3377311895078
 21
98.646558098382
 31
0.0
  0
LINE
  5
214D
330
2
100
AcDbEntity
  8
0
100
AcDbLine
 10
324.8377311895169
 20
169.646558098399
 30
0.0
 11
324.8377311895169
 21
103.6465580983931
 31
0.0
  0
LINE
  5
214E
330
2
100
AcDbEntity
  8
0
100
AcDbLine
 10
328.5377311895176
 20
103.6465580983958
 30
0.0
 11
328.5377311895176
 21
169.6465580983981
 31
0.0
  0
LINE
  5
214F
330
2
100
AcDbEntity
  8
CENTER
100
AcDbLine
 10
205.4177610068365
 20
75.64655809840252
 30
0.0
 11
205.4177610068365
 21
197.6465580984025
 31
0.0
  0
CIRCLE
  5
2150
330
2
100
AcDbEntity
  8
0
100
AcDbCircle
 10
205.4177610068365
 20
136.6465580984025
 30
0.0
 40
33.00000000000153
  0
CIRCLE
  5
2151
330
2
100
AcDbEntity
  8
0
100
AcDbCircle
 10
205.4177610068365
 20
136.6465580984025
 30
0.0
 40
35.00000000000153
  0
CIRCLE
  5
2152
330
2
100
AcDbEntity
  8
0
100
AcDbCircle
 10
205.4177610068365
 20
136.6465580984025
 30
0.0
 40
35.50000000000153
  0
CIRCLE
  5
2153
330
2
100
AcDbEntity
  8
0
100
AcDbCircle
 10
205.4177610068365
 20
136.6465580984025
 30
0.0
 40
32.42260000000154
  0
CIRCLE
  5
2154
330
2
100
AcDbEntity
  8
0
100
AcDbCircle
 10
205.4177610068365
 20
136.6465580984027
 30
0.0
 40
26.0
  0
CIRCLE
  5
2155
330
2
100
AcDbEntity
  8
0
100
AcDbCircle
 10
205.4177610068365
 20
136.6465580984027
 30
0.0
 40
26.57735026918937
  0
LINE
  5
2156
330
2
100
AcDbEntity
  8
CENTER
100
AcDbLine
 10
151.8111592890383
 20
83.03995638060456
 30
0.0
 11
259.0243627246369
 21
190.2531598162037
 31
0.0
  0
LINE
  5
2157
330
2
100
AcDbEntity
  8
CENTER
100
AcDbLine
 10
259.0243627246314
 20
83.0399563806066
 30
0.0
 11
151.8111592890378
 21
190.2531598162001
 31
0.0
  0
LINE
  5
2158
330
2
100
AcDbEntity
  8
0
100
AcDbLine
 10
124.9177390068381
 20
87.14655809840753
 30
0.0
 11
124.9177390068399
 21
186.1465580984082
 31
0.0
  0
LINE
  5
2159
330
2
100
AcDbEntity
  8
0
100
AcDbLine
 10
154.4177610068437
 20
93.64655809840774
 30
0.0
 11
154.4177610068437
 21
179.6465580984025
 31
0.0
  0
LINE
  5
215A
330
2
100
AcDbEntity
  8
0
100
AcDbLine
 10
133.9177390068381
 20
172.6465580984075
 30
0.0
 11
133.9177390068381
 21
100.6465580983979
 31
0.0
  0
LINE
  5
215B
330
2
100
AcDbEntity
  8
0
100
AcDbLine
 10
154.9377610068333
 20
93.64655809840161
 30
0.0
 11
154.9377610068333
 21
179.6465580984014
 31
0.0
  0
LINE
  5
215C
330
2
100
AcDbEntity
  8
0
100
AcDbLine
 10
164.4177610068419
 20
161.4577412804515
 30
0.0
 11
164.4177610068419
 21
111.8353749163532
 31
0.0
  0
LINE
  5
215D
330
2
100
AcDbEntity
  8
0
100
AcDbLine
 10
158.9177610068419
 20
161.4577412804515
 30
0.0
 11
158.9177610068419
 21
111.8353749163534
 31
0.0
  0
LINE
  5
215E
330
2
100
AcDbEntity
  8
0
100
AcDbLine
 10
153.9177610068346
 20
128.9654123505429
 30
0.0
 11
153.9177610068365
 21
144.327703846262
 31
0.0
  0
ARC
  5
215F
330
2
100
AcDbEntity
  8
0
100
AcDbCircle
 10
56.41776100683287
 20
136.6465580984025
 30
0.0
 40
200.0
100
AcDbArc
 50
354.1053016135961
 51
5.894698386400319
  0
LINE
  5
2160
330
2
100
AcDbEntity
  8
0
100
AcDbLine
 10
246.4177610068292
 20
111.8353749163534
 30
0.0
 11
246.4177610068292
 21
161.4577412804515
 31
0.0
  0
LINE
  5
2161
330
2
100
AcDbEntity
  8
0
100
AcDbLine
 10
251.9177610068292
 20
111.8353749163532
 30
0.0
 11
251.9177610068292
 21
161.4577412804515
 31
0.0
  0
ARC
  5
2162
330
2
100
AcDbEntity
  8
0
100
AcDbCircle
 10
232.1198899371576
 20
27.02135377641826
 30
0.0
 40
60.0
100
AcDbArc
 50
78.19493218955852
 51
95.89469838640388
  0
ARC
  5
2163
330
2
100
AcDbEntity
  8
0
100
AcDbCircle
 10
230.2289441888844
 20
100.6465580984086
 30
0.0
 40
10.5
100
AcDbArc
 50
270.0
 51
315.0000000000092
  0
ARC
  5
2164
330
2
100
AcDbEntity
  8
0
100
AcDbCircle
 10
230.2289441888844
 20
100.6465580984086
 30
0.0
 40
5.0
100
AcDbArc
 50
270.0
 51
315.0000000000092
  0
LINE
  5
2167
330
2
100
AcDbEntity
  8
0
100
AcDbLine
 10
159.7170259154737
 20
107.8171988765203
 30
0.0
 11
164.7983633442856
 21
109.921957754528
 31
0.0
  0
LINE
  5
2168
330
2
100
AcDbEntity
  8
0
100
AcDbLine
 10
162.417761006831
 20
85.64655809840298
 30
0.0
 11
165.4177610068328
 21
85.64655809840298
 31
0.0
  0
LINE
  5
2169
330
2
100
AcDbEntity
  8
0
100
AcDbLine
 10
162.4177610068365
 20
85.64655809840251
 30
0.0
 11
165.4177610068365
 21
85.64655809840298
 31
0.0
  0
CIRCLE
  5
216A
330
2
100
AcDbEntity
  8
0
100
AcDbCircle
 10
162.4177610068365
 20
93.64655809840229
 30
0.0
 40
5.000000000000113
  0
CIRCLE
  5
216B
330
2
100
AcDbEntity
  8
0
100
AcDbCircle
 10
162.4177610068365
 20
93.64655809840229
 30
0.0
 40
4.307179676972509
  0
LINE
  5
216C
330
2
100
AcDbEntity
  8
0
100
AcDbLine
 10
164.9177610068365
 20
92.20318242542822
 30
0.0
 11
162.4177610068365
 21
90.75980675245416
 31
0.0
  0
LINE
  5
216D
330
2
100
AcDbEntity
  8
0
100
AcDbLine
 10
162.4177610068365
 20
96.53330944435044
 30
0.0
 11
164.9177610068365
 21
95.08993377137613
 31
0.0
  0
LINE
  5
216E
330
2
100
AcDbEntity
  8
CENTER
100
AcDbLine
 10
153.6677610068328
 20
93.64655809840229
 30
0.0
 11
171.1677610068328
 21
93.64655809840229
 31
0.0
  0
ARC
  5
216F
330
2
100
AcDbEntity
  8
0
100
AcDbCircle
 10
162.9377610068333
 20
93.64655809840161
 30
0.0
 40
8.0
100
AcDbArc
 50
179.9999999999739
 51
270.0
  0
LINE
  5
2170
330
2
100
AcDbEntity
  8
0
100
AcDbLine
 10
173.1819566223277
 20
93.22193689594957
 30
0.0
 11
161.9931398043828
 21
104.4107537138946
 31
0.0
  0
ARC
  5
2171
330
2
100
AcDbEntity
  8
0
100
AcDbCircle
 10
135.7907443530458
 20
99.6465580983998
 30
0.0
 40
2.0
100
AcDbArc
 50
90.0
 51
165.5224878140397
  0
ARC
  5
2172
330
2
100
AcDbEntity
  8
0
100
AcDbCircle
 10
152.4177610068437
 20
99.64655809839957
 30
0.0
 40
2.0
100
AcDbArc
 50
0.0
 51
90.0
  0
LINE
  5
2173
330
2
100
AcDbEntity
  8
CENTER
100
AcDbLine
 10
162.4177610068328
 20
84.89655809840206
 30
0.0
 11
162.4177610068328
 21
102.3965580984022
 31
0.0
  0
ARC
  5
2174
330
2
100
AcDbEntity
  8
0
100
AcDbCircle
 10
129.9177390068381
 20
93.64655809840797
 30
0.0
 40
5.0
100
AcDbArc
 50
90.0
 51
180.0
  0
ARC
  5
2175
330
2
100
AcDbEntity
  8
0
100
AcDbCircle
 10
122.9177390068381
 20
87.64655809840752
 30
0.0
 40
2.0
100
AcDbArc
 50
270.0
 51
0.0
  0
ARC
  5
2176
330
2
100
AcDbEntity
  8
0
100
AcDbCircle
 10
122.9177390068381
 20
87.14655809840753
 30
0.0
 40
2.0
100
AcDbArc
 50
270.0
 51
0.0
  0
LINE
  5
2177
330
2
100
AcDbEntity
  8
0
100
AcDbLine
 10
109.4177390068381
 20
85.64655809840798
 30
0.0
 11
122.9177390068381
 21
85.64655809840752
 31
0.0
  0
LINE
  5
2178
330
2
100
AcDbEntity
  8
0
100
AcDbLine
 10
109.4177390068381
 20
85.14655809840798
 30
0.0
 11
122.9177390068381
 21
85.14655809840752
 31
0.0
  0
LINE
  5
2179
330
2
100
AcDbEntity
  8
0
100
AcDbLine
 10
159.9177610068365
 20
92.20318242542822
 30
0.0
 11
159.9177610068365
 21
95.08993377137636
 31
0.0
  0
LINE
  5
217A
330
2
100
AcDbEntity
  8
0
100
AcDbLine
 10
159.9177610068365
 20
92.20318242542822
 30
0.0
 11
162.4177610068365
 21
90.75980675245416
 31
0.0
  0
LINE
  5
217B
330
2
100
AcDbEntity
  8
0
100
AcDbLine
 10
162.4177610068365
 20
96.53330944435044
 30
0.0
 11
159.9177610068365
 21
95.08993377137636
 31
0.0
  0
LINE
  5
217C
330
2
100
AcDbEntity
  8
0
100
AcDbLine
 10
131.9177390068345
 20
98.64655809840275
 30
0.0
 11
129.9177390068381
 21
98.64655809840298
 31
0.0
  0
ARC
  5
217D
330
2
100
AcDbEntity
  8
0
100
AcDbCircle
 10
131.9177390068345
 20
100.6465580983979
 30
0.0
 40
2.0
100
AcDbArc
 50
270.0
 51
0.0
  0
LINE
  5
217E
330
2
100
AcDbEntity
  8
0
100
AcDbLine
 10
154.4177610068365
 20
96.64655809840503
 30
0.0
 11
154.4177610068365
 21
93.64655809840252
 31
0.0
  0
ARC
  5
217F
330
2
100
AcDbEntity
  8
0
100
AcDbCircle
 10
162.4177610068328
 20
93.64655809840821
 30
0.0
 40
8.0
100
AcDbArc
 50
180.0
 51
270.0
  0
ARC
  5
2180
330
2
100
AcDbEntity
  8
0
100
AcDbCircle
 10
162.4177610068365
 20
93.64655809840252
 30
0.0
 40
8.0
100
AcDbArc
 50
180.0
 51
270.0
  0
ARC
  5
2181
330
2
100
AcDbEntity
  8
0
100
AcDbCircle
 10
169.4177610068419
 20
111.8353749163534
 30
0.0
 40
10.5
100
AcDbArc
 50
180.0
 51
224.9999999999908
  0
LINE
  5
2182
330
2
100
AcDbEntity
  8
0
100
AcDbLine
 10
149.4177610068383
 20
106.646558098402
 30
0.0
 11
138.9177390068363
 21
106.6465580984027
 31
0.0
  0
ARC
  5
2183
330
2
100
AcDbEntity
  8
0
100
AcDbCircle
 10
138.9177390068345
 20
101.6465580984025
 30
0.0
 40
5.0
100
AcDbArc
 50
90.0
 51
180.0
  0
LINE
  5
2184
330
2
100
AcDbEntity
  8
0
100
AcDbLine
 10
135.7907443530458
 20
101.6465580983997
 30
0.0
 11
152.4177610068437
 21
101.6465580983995
 31
0.0
  0
LINE
  5
2185
330
2
100
AcDbEntity
  8
0
100
AcDbLine
 10
133.9177390068381
 20
128.9654123505429
 30
0.0
 11
154.4177610068419
 21
128.9654123505429
 31
0.0
  0
ARC
  5
2186
330
2
100
AcDbEntity
  8
0
100
AcDbCircle
 10
149.4177610068383
 20
101.646558098402
 30
0.0
 40
5.0
100
AcDbArc
 50
0.0
 51
90.0
  0
LINE
  5
2187
330
2
100
AcDbEntity
  8
0
100
AcDbLine
 10
177.0710439188534
 20
97.11102419247579
 30
0.0
 11
165.8822271009086
 21
108.2998410104206
 31
0.0
  0
ARC
  5
2188
330
2
100
AcDbEntity
  8
0
100
AcDbCircle
 10
205.4177610068328
 20
285.6465580984025
 30
0.0
 40
200.0
100
AcDbArc
 50
264.1053016135961
 51
275.8946983864039
  0
LINE
  5
2189
330
2
100
AcDbEntity
  8
0
100
AcDbLine
 10
180.6065778247868
 20
95.64655809840843
 30
0.0
 11
230.2289441888844
 21
95.64655809840866
 31
0.0
  0
LINE
  5
218A
330
2
100
AcDbEntity
  8
0
100
AcDbLine
 10
180.6065778247868
 20
90.14655809840844
 30
0.0
 11
230.2289441888844
 21
90.14655809840865
 31
0.0
  0
ARC
  5
218B
330
2
100
AcDbEntity
  8
0
100
AcDbCircle
 10
178.7156320765081
 20
27.02135377641826
 30
0.0
 40
60.0
100
AcDbArc
 50
84.10530161359611
 51
101.8050678104414
  0
ARC
  5
218C
330
2
100
AcDbEntity
  8
0
100
AcDbCircle
 10
165.4177610068328
 20
90.64655809840298
 30
0.0
 40
5.0
100
AcDbArc
 50
270.0
 51
281.8050678104415
  0
ARC
  5
218D
330
2
100
AcDbEntity
  8
0
100
AcDbCircle
 10
165.4177610068365
 20
90.64655809840298
 30
0.0
 40
5.0
100
AcDbArc
 50
270.0
 51
281.8050678104415
  0
LINE
  5
218E
330
2
100
AcDbEntity
  8
0
100
AcDbLine
 10
176.5884017849531
 20
90.94582300703979
 30
0.0
 11
178.6931606629606
 21
96.02716043585184
 31
0.0
  0
ARC
  5
218F
330
2
100
AcDbEntity
  8
0
100
AcDbCircle
 10
180.6065778247868
 20
100.6465580984084
 30
0.0
 40
10.5
100
AcDbArc
 50
224.9999999999908
 51
270.0
  0
ARC
  5
2190
330
2
100
AcDbEntity
  8
0
100
AcDbCircle
 10
180.6065778247868
 20
100.6465580984084
 30
0.0
 40
5.0
100
AcDbArc
 50
224.9999999999908
 51
270.0
  0
LINE
  5
2191
330
2
100
AcDbEntity
  8
0
100
AcDbLine
 10
164.9177610068365
 20
92.20318242542822
 30
0.0
 11
164.9177610068365
 21
95.08993377137613
 31
0.0
  0
ARC
  5
2192
330
2
100
AcDbEntity
  8
0
100
AcDbCircle
 10
169.4177610068419
 20
111.8353749163532
 30
0.0
 40
5.0
100
AcDbArc
 50
180.0
 51
224.9999999999908
  0
ARC
  5
2193
330
2
100
AcDbEntity
  8
0
100
AcDbCircle
 10
315.0429653288175
 20
109.944429168077
 30
0.0
 40
60.0
100
AcDbArc
 50
174.1053016135961
 51
191.8050678104683
  0
CIRCLE
  5
2194
330
2
100
AcDbEntity
  8
0
100
AcDbCircle
 10
250.9177610068328
 20
102.1465580984022
 30
0.0
 40
1.6
  0
CIRCLE
  5
2195
330
2
100
AcDbEntity
  8
HOJO
100
AcDbCircle
 10
250.9177610068328
 20
102.1465580984022
 30
0.0
 40
2.0
  0
LINE
  5
2196
330
2
100
AcDbEntity
  8
CENTER
100
AcDbLine
 10
250.9177610068328
 20
96.97335301764525
 30
0.0
 11
250.9177610068328
 21
107.3197631791593
 31
0.0
  0
LINE
  5
2197
330
2
100
AcDbEntity
  8
0
100
AcDbLine
 10
244.9532949127625
 20
108.2998410104206
 30
0.0
 11
233.7644780948177
 21
97.11102419247579
 31
0.0
  0
LINE
  5
2198
330
2
100
AcDbEntity
  8
0
100
AcDbLine
 10
248.8423822092883
 20
104.4107537138943
 30
0.0
 11
237.6535653913435
 21
93.2219368959498
 31
0.0
  0
LINE
  5
2199
330
2
100
AcDbEntity
  8
CENTER
100
AcDbLine
 10
248.4177610068365
 20
84.89655809839934
 30
0.0
 11
248.4177610068365
 21
102.3965580983995
 31
0.0
  0
LINE
  5
219A
330
2
100
AcDbEntity
  8
0
100
AcDbLine
 10
248.4177610068328
 20
85.64655809840298
 30
0.0
 11
245.4177610068328
 21
85.64655809840251
 31
0.0
  0
ARC
  5
219B
330
2
100
AcDbEntity
  8
0
100
AcDbCircle
 10
245.4177610068328
 20
90.64655809840251
 30
0.0
 40
5.0
100
AcDbArc
 50
258.1949321895585
 51
270.0
  0
ARC
  5
219C
330
2
100
AcDbEntity
  8
0
100
AcDbCircle
 10
251.4177610068328
 20
96.64655809840253
 30
0.0
 40
5.0
100
AcDbArc
 50
0.0
 51
11.80506781046833
  0
LINE
  5
219D
330
2
100
AcDbEntity
  8
0
100
AcDbLine
 10
256.4177610068328
 20
93.64655809840275
 30
0.0
 11
256.4177610068328
 21
96.64655809840025
 31
0.0
  0
ARC
  5
219E
330
2
100
AcDbEntity
  8
0
100
AcDbCircle
 10
248.4177610068365
 20
93.64655809840797
 30
0.0
 40
8.0
100
AcDbArc
 50
270.0
 51
0.0
  0
LINE
  5
219F
330
2
100
AcDbEntity
  8
CENTER
100
AcDbLine
 10
257.1677610068364
 20
93.64655809839934
 30
0.0
 11
239.6677610068365
 21
93.64655809839934
 31
0.0
  0
LINE
  5
21A0
330
2
100
AcDbEntity
  8
0
100
AcDbLine
 10
234.247120228718
 20
90.94582300703956
 30
0.0
 11
232.1423613507105
 21
96.02716043585184
 31
0.0
  0
CIRCLE
  5
21A1
330
2
100
AcDbEntity
  8
0
100
AcDbCircle
 10
248.4177610068383
 20
93.64655809839934
 30
0.0
 40
5.000000000000113
  0
LINE
  5
21A2
330
2
100
AcDbEntity
  8
0
100
AcDbLine
 10
250.9177610068383
 20
92.20318242542527
 30
0.0
 11
250.9177610068383
 21
95.08993377137318
 31
0.0
  0
LINE
  5
21A3
330
2
100
AcDbEntity
  8
0
100
AcDbLine
 10
245.9177610068401
 20
92.20318242542527
 30
0.0
 11
245.9177610068401
 21
95.08993377137342
 31
0.0
  0
CIRCLE
  5
21A4
330
2
100
AcDbEntity
  8
0
100
AcDbCircle
 10
248.4177610068383
 20
93.64655809839934
 30
0.0
 40
4.307179676972509
  0
LINE
  5
21A5
330
2
100
AcDbEntity
  8
0
100
AcDbLine
 10
245.9177610068401
 20
92.20318242542527
 30
0.0
 11
248.4177610068401
 21
90.75980675245119
 31
0.0
  0
LINE
  5
21A6
330
2
100
AcDbEntity
  8
0
100
AcDbLine
 10
250.9177610068383
 20
92.20318242542527
 30
0.0
 11
248.4177610068401
 21
90.75980675245119
 31
0.0
  0
LINE
  5
21A7
330
2
100
AcDbEntity
  8
0
100
AcDbLine
 10
248.4177610068383
 20
96.53330944434749
 30
0.0
 11
245.9177610068401
 21
95.08993377137342
 31
0.0
  0
LINE
  5
21A8
330
2
100
AcDbEntity
  8
0
100
AcDbLine
 10
248.4177610068383
 20
96.53330944434749
 30
0.0
 11
250.9177610068383
 21
95.08993377137318
 31
0.0
  0
LINE
  5
21A9
330
2
100
AcDbEntity
  8
CENTER
100
AcDbLine
 10
256.0909660875896
 20
102.1465580984022
 30
0.0
 11
245.744555926076
 21
102.1465580984022
 31
0.0
  0
ARC
  5
21AA
330
2
100
AcDbEntity
  8
0
100
AcDbCircle
 10
241.4177610068292
 20
111.8353749163532
 30
0.0
 40
10.5
100
AcDbArc
 50
315.0000000000092
 51
0.0
  0
LINE
  5
21AB
330
2
100
AcDbEntity
  8
0
100
AcDbLine
 10
251.1184960981992
 20
107.81719887652
 30
0.0
 11
246.0371586693856
 21
109.921957754528
 31
0.0
  0
ARC
  5
21AC
330
2
100
AcDbEntity
  8
0
100
AcDbCircle
 10
241.4177610068292
 20
111.8353749163534
 30
0.0
 40
5.0
100
AcDbArc
 50
315.0000000000092
 51
0.0
  0
LINE
  5
21AD
330
2
100
AcDbEntity
  8
0
100
AcDbLine
 10
331.8377311895133
 20
101.6465580983963
 30
0.0
 11
332.3377311895133
 21
101.1465580983967
 31
0.0
  0
ARC
  5
21AE
330
2
100
AcDbEntity
  8
0
100
AcDbCircle
 10
331.8377311895133
 20
93.56851118411624
 30
0.0
 40
8.0
100
AcDbArc
 50
180.0
 51
269.4382946674162
  0
LINE
  5
21AF
330
2
100
AcDbEntity
  8
0
100
AcDbLine
 10
339.8202781185104
 20
85.6947081818903
 30
0.0
 11
345.337731189506
 21
85.64655809839814
 31
0.0
  0
ARC
  5
21B0
330
2
100
AcDbEntity
  8
0
100
AcDbCircle
 10
339.8377311895078
 20
87.69463202801899
 30
0.0
 40
2.0
100
AcDbArc
 50
180.0
 51
269.4999999999824
  0
LINE
  5
21B1
330
2
100
AcDbEntity
  8
0
100
AcDbLine
 10
336.3377311895096
 20
98.646558098382
 30
0.0
 11
330.7377311895093
 21
98.646558098382
 31
0.0
  0
LINE
  5
21B2
330
2
100
AcDbEntity
  8
0
100
AcDbLine
 10
336.3377311895096
 20
88.64655809838177
 30
0.0
 11
330.7377311895093
 21
88.64655809838177
 31
0.0
  0
LINE
  5
21B3
330
2
100
AcDbEntity
  8
0
100
AcDbLine
 10
336.3377311895096
 20
88.64655809838177
 30
0.0
 11
336.3377311895096
 21
98.64655809838177
 31
0.0
  0
LINE
  5
21B4
330
2
100
AcDbEntity
  8
0
100
AcDbLine
 10
330.3377311895096
 20
89.33937842140972
 30
0.0
 11
330.3377311895078
 21
97.95373777535429
 31
0.0
  0
LINE
  5
21B5
330
2
100
AcDbEntity
  8
0
100
AcDbLine
 10
330.7377311895074
 20
88.64655809838177
 30
0.0
 11
330.7377311895093
 21
98.646558098382
 31
0.0
  0
LINE
  5
21B6
330
2
100
AcDbEntity
  8
0
100
AcDbLine
 10
330.7377311895093
 20
88.64655809838177
 30
0.0
 11
330.3377311895096
 21
89.33937842140972
 31
0.0
  0
LINE
  5
21B7
330
2
100
AcDbEntity
  8
0
100
AcDbLine
 10
330.7377311895093
 20
98.646558098382
 30
0.0
 11
330.3377311895096
 21
97.95373777535429
 31
0.0
  0
LINE
  5
21B8
330
2
100
AcDbEntity
  8
0
100
AcDbLine
 10
336.3377311895078
 20
88.64655809838177
 30
0.0
 11
337.8377311895078
 21
88.64655809838177
 31
0.0
  0
LINE
  5
21B9
330
2
100
AcDbEntity
  8
0
100
AcDbLine
 10
336.3377311895096
 20
98.646558098382
 30
0.0
 11
337.8377311895078
 21
98.646558098382
 31
0.0
  0
LINE
  5
21BA
330
2
100
AcDbEntity
  8
HIDS
100
AcDbLine
 10
337.2519447518811
 20
90.73234453603459
 30
0.0
 11
332.9235176271472
 21
95.06077166076329
 31
0.0
  0
ARC
  5
21BB
330
2
100
AcDbEntity
  8
HIDS
100
AcDbCircle
 10
335.8377311895078
 20
89.31813097366079
 30
0.0
 40
2.0
100
AcDbArc
 50
0.0
 51
45.00000000006447
  0
ARC
  5
21BC
330
2
100
AcDbEntity
  8
HIDS
100
AcDbCircle
 10
334.3377311895205
 20
96.47498522313709
 30
0.0
 40
2.0
100
AcDbArc
 50
180.0
 51
225.0000000000644
  0
LINE
  5
21BD
330
2
100
AcDbEntity
  8
HIDS
100
AcDbLine
 10
332.3377311895205
 20
96.47498522313709
 30
0.0
 11
332.3377311895078
 21
98.646558098382
 31
0.0
  0
LINE
  5
21BE
330
2
100
AcDbEntity
  8
CENTER
100
AcDbLine
 10
325.3377311895096
 20
93.646558098382
 30
0.0
 11
351.4030569747706
 21
93.646558098382
 31
0.0
  0
LINE
  5
21BF
330
2
100
AcDbEntity
  8
0
100
AcDbLine
 10
328.537731189514
 20
103.6465580983958
 30
0.0
 11
331.8377311895133
 21
103.6465580983963
 31
0.0
  0
LINE
  5
21C0
330
2
100
AcDbEntity
  8
0
100
AcDbLine
 10
331.8377311895078
 20
103.6465580983963
 30
0.0
 11
331.8377311895078
 21
101.6465580984017
 31
0.0
  0
LINE
  5
21C1
330
2
100
AcDbEntity
  8
0
100
AcDbLine
 10
323.8377311895078
 20
119.6465580983983
 30
0.0
 11
323.8377311895133
 21
104.2239083675849
 31
0.0
  0
LINE
  5
21C2
330
2
100
AcDbEntity
  8
0
100
AcDbLine
 10
324.8377311895133
 20
103.6465580983954
 30
0.0
 11
326.1377311895125
 21
103.6465580983958
 31
0.0
  0
LINE
  5
21C3
330
2
100
AcDbEntity
  8
0
100
AcDbLine
 10
324.8377311895133
 20
103.6465580983954
 30
0.0
 11
323.8377311895133
 21
104.2239083675849
 31
0.0
  0
LINE
  5
21C4
330
2
100
AcDbEntity
  8
0
100
AcDbLine
 10
328.3377311895133
 20
103.8465580983961
 30
0.0
 11
328.537731189514
 21
103.6465580983958
 31
0.0
  0
LINE
  5
21C5
330
2
100
AcDbEntity
  8
0
100
AcDbLine
 10
326.537731189514
 20
104.3465580983956
 30
0.0
 11
328.1377311895125
 21
104.3465580983959
 31
0.0
  0
ARC
  5
21C6
330
2
100
AcDbEntity
  8
0
100
AcDbCircle
 10
326.1377311895125
 20
103.8465580983956
 30
0.0
 40
0.2
100
AcDbArc
 50
270.0
 51
359.9999999999218
  0
ARC
  5
21C7
330
2
100
AcDbEntity
  8
0
100
AcDbCircle
 10
326.537731189514
 20
104.1465580983956
 30
0.0
 40
0.2
100
AcDbArc
 50
90.0
 51
179.9999999999218
  0
ARC
  5
21C8
330
2
100
AcDbEntity
  8
0
100
AcDbCircle
 10
328.1377311895125
 20
104.1465580983958
 30
0.0
 40
0.2
100
AcDbArc
 50
0.0
 51
90.0
  0
ARC
  5
21C9
330
2
100
AcDbEntity
  8
0
100
AcDbCircle
 10
232.1198899371576
 20
246.2717624203867
 30
0.0
 40
60.0
100
AcDbArc
 50
264.1053016135961
 51
281.8050678104415
  0
ARC
  5
21CA
330
2
100
AcDbEntity
  8
0
100
AcDbCircle
 10
230.2289441888844
 20
172.6465580983964
 30
0.0
 40
5.0
100
AcDbArc
 50
44.99999999999078
 51
90.0
  0
ARC
  5
21CB
330
2
100
AcDbEntity
  8
0
100
AcDbCircle
 10
230.2289441888844
 20
172.6465580983964
 30
0.0
 40
10.5
100
AcDbArc
 50
44.99999999999078
 51
90.0
  0
LINE
  5
21CC
330
2
100
AcDbEntity
  8
0
100
AcDbLine
 10
165.4177610068328
 20
187.6465580984025
 30
0.0
 11
162.4177610068437
 21
187.6465580984025
 31
0.0
  0
LINE
  5
21CD
330
2
100
AcDbEntity
  8
0
100
AcDbLine
 10
162.4177610068365
 20
187.6465580984025
 30
0.0
 11
165.4177610068365
 21
187.6465580984025
 31
0.0
  0
LINE
  5
21CE
330
2
100
AcDbEntity
  8
0
100
AcDbLine
 10
161.9931398043828
 20
168.8823624829104
 30
0.0
 11
173.1819566223277
 21
180.0711793008554
 31
0.0
  0
LINE
  5
21CF
330
2
100
AcDbEntity
  8
0
100
AcDbLine
 10
159.7170259154737
 20
165.4759173202847
 30
0.0
 11
164.7983633442856
 21
163.3711584422767
 31
0.0
  0
LINE
  5
21D0
330
2
100
AcDbEntity
  8
0
100
AcDbLine
 10
164.9177610068347
 20
178.2031824254291
 30
0.0
 11
162.4177610068365
 21
176.759806752455
 31
0.0
  0
LINE
  5
21D1
330
2
100
AcDbEntity
  8
0
100
AcDbLine
 10
162.4177610068346
 20
182.5333094443513
 30
0.0
 11
164.9177610068347
 21
181.089933771377
 31
0.0
  0
LINE
  5
21D2
330
2
100
AcDbEntity
  8
CENTER
100
AcDbLine
 10
153.6677610068347
 20
179.6465580984059
 30
0.0
 11
171.1677610068347
 21
179.6465580984059
 31
0.0
  0
LINE
  5
21D3
330
2
100
AcDbEntity
  8
CENTER
100
AcDbLine
 10
154.7445559260851
 20
171.1465580984027
 30
0.0
 11
165.0909660875987
 21
171.1465580984027
 31
0.0
  0
ARC
  5
21D4
330
2
100
AcDbEntity
  8
0
100
AcDbCircle
 10
162.9377610068396
 20
179.6465580984014
 30
0.0
 40
8.0
100
AcDbArc
 50
90.0
 51
179.9999999999739
  0
CIRCLE
  5
21D5
330
2
100
AcDbEntity
  8
0
100
AcDbCircle
 10
162.4177610068346
 20
179.6465580984031
 30
0.0
 40
5.000000000000113
  0
CIRCLE
  5
21D6
330
2
100
AcDbEntity
  8
0
100
AcDbCircle
 10
162.4177610068346
 20
179.6465580984031
 30
0.0
 40
4.307179676972509
  0
ARC
  5
21D7
330
2
100
AcDbEntity
  8
0
100
AcDbCircle
 10
162.4177610068437
 20
179.6465580984025
 30
0.0
 40
8.0
100
AcDbArc
 50
90.0
 51
180.0
  0
ARC
  5
21D8
330
2
100
AcDbEntity
  8
0
100
AcDbCircle
 10
162.4177610068365
 20
179.6465580984025
 30
0.0
 40
8.0
100
AcDbArc
 50
90.0
 51
180.0
  0
LINE
  5
21D9
330
2
100
AcDbEntity
  8
CENTER
100
AcDbLine
 10
162.4177610068346
 20
188.3965580984059
 30
0.0
 11
162.4177610068346
 21
170.8965580984059
 31
0.0
  0
ARC
  5
21DA
330
2
100
AcDbEntity
  8
0
100
AcDbCircle
 10
129.9177390068381
 20
179.6465580984077
 30
0.0
 40
5.0
100
AcDbArc
 50
180.0
 51
270.0
  0
ARC
  5
21DB
330
2
100
AcDbEntity
  8
0
100
AcDbCircle
 10
169.4177610068419
 20
161.4577412804515
 30
0.0
 40
10.5
100
AcDbArc
 50
135.0000000000092
 51
180.0
  0
CIRCLE
  5
21DC
330
2
100
AcDbEntity
  8
HOJO
100
AcDbCircle
 10
159.9177610068419
 20
171.1465580984027
 30
0.0
 40
2.0
  0
LINE
  5
21DD
330
2
100
AcDbEntity
  8
CENTER
100
AcDbLine
 10
159.9177610068419
 20
176.3197631791598
 30
0.0
 11
159.9177610068419
 21
165.9733530176457
 31
0.0
  0
CIRCLE
  5
21DE
330
2
100
AcDbEntity
  8
0
100
AcDbCircle
 10
159.9177610068419
 20
171.1465580984027
 30
0.0
 40
1.6
  0
LINE
  5
21DF
330
2
100
AcDbEntity
  8
0
100
AcDbLine
 10
159.9177610068365
 20
178.2031824254291
 30
0.0
 11
159.9177610068365
 21
181.0899337713772
 31
0.0
  0
LINE
  5
21E0
330
2
100
AcDbEntity
  8
0
100
AcDbLine
 10
159.9177610068365
 20
178.2031824254291
 30
0.0
 11
162.4177610068365
 21
176.759806752455
 31
0.0
  0
LINE
  5
21E1
330
2
100
AcDbEntity
  8
0
100
AcDbLine
 10
162.4177610068346
 20
182.5333094443513
 30
0.0
 11
159.9177610068365
 21
181.0899337713772
 31
0.0
  0
LINE
  5
21E2
330
2
100
AcDbEntity
  8
0
100
AcDbLine
 10
133.9177390068381
 20
144.3277038462623
 30
0.0
 11
154.4177610068419
 21
144.3277038462618
 31
0.0
  0
LINE
  5
21E3
330
2
100
AcDbEntity
  8
0
100
AcDbLine
 10
131.9177390068381
 20
174.6465580984084
 30
0.0
 11
129.9177390068363
 21
174.6465580984088
 31
0.0
  0
LINE
  5
21E4
330
2
100
AcDbEntity
  8
0
100
AcDbLine
 10
149.4177610068383
 20
166.6465580984025
 30
0.0
 11
138.9177390068381
 21
166.6465580984025
 31
0.0
  0
ARC
  5
21E5
330
2
100
AcDbEntity
  8
0
100
AcDbCircle
 10
138.9177390068381
 20
171.6465580984025
 30
0.0
 40
5.0
100
AcDbArc
 50
180.0
 51
270.0
  0
ARC
  5
21E6
330
2
100
AcDbEntity
  8
0
100
AcDbCircle
 10
131.9177390068381
 20
172.6465580984075
 30
0.0
 40
2.0
100
AcDbArc
 50
0.0
 51
89.99999999994789
  0
LINE
  5
21E7
330
2
100
AcDbEntity
  8
0
100
AcDbLine
 10
135.790744353044
 20
171.6465580983995
 30
0.0
 11
152.4177610068437
 21
171.6465580983995
 31
0.0
  0
ARC
  5
21E8
330
2
100
AcDbEntity
  8
0
100
AcDbCircle
 10
135.790744353044
 20
173.6465580983995
 30
0.0
 40
2.0
100
AcDbArc
 50
194.4775121859602
 51
270.0
  0
ARC
  5
21E9
330
2
100
AcDbEntity
  8
0
100
AcDbCircle
 10
152.4177610068437
 20
173.6465580983995
 30
0.0
 40
2.0
100
AcDbArc
 50
270.0
 51
0.0
  0
LINE
  5
21EA
330
2
100
AcDbEntity
  8
0
100
AcDbLine
 10
154.4177610068365
 20
179.6465580984025
 30
0.0
 11
154.4177610068365
 21
176.646558098405
 31
0.0
  0
ARC
  5
21EB
330
2
100
AcDbEntity
  8
0
100
AcDbCircle
 10
149.4177610068383
 20
171.6465580984025
 30
0.0
 40
5.0
100
AcDbArc
 50
270.0
 51
0.0
  0
ARC
  5
21EC
330
2
100
AcDbEntity
  8
0
100
AcDbCircle
 10
122.9177390068399
 20
185.6465580984084
 30
0.0
 40
2.0
100
AcDbArc
 50
0.0
 51
90.0
  0
ARC
  5
21ED
330
2
100
AcDbEntity
  8
0
100
AcDbCircle
 10
122.9177390068399
 20
186.1465580984084
 30
0.0
 40
2.0
100
AcDbArc
 50
0.0
 51
90.0
  0
LINE
  5
21EE
330
2
100
AcDbEntity
  8
0
100
AcDbLine
 10
109.4177390068381
 20
187.6465580984079
 30
0.0
 11
122.9177390068399
 21
187.6465580984084
 31
0.0
  0
LINE
  5
21EF
330
2
100
AcDbEntity
  8
0
100
AcDbLine
 10
109.4177390068381
 20
188.1465580984079
 30
0.0
 11
122.9177390068399
 21
188.1465580984084
 31
0.0
  0
ARC
  5
21F0
330
2
100
AcDbEntity
  8
0
100
AcDbCircle
 10
180.6065778247868
 20
172.6465580983968
 30
0.0
 40
10.5
100
AcDbArc
 50
90.0
 51
135.0000000000092
  0
LINE
  5
21F1
330
2
100
AcDbEntity
  8
0
100
AcDbLine
 10
230.2289441888844
 20
177.6465580983963
 30
0.0
 11
180.6065778247868
 21
177.6465580983968
 31
0.0
  0
ARC
  5
21F2
330
2
100
AcDbEntity
  8
0
100
AcDbCircle
 10
169.4177610068419
 20
161.4577412804515
 30
0.0
 40
5.0
100
AcDbArc
 50
135.0000000000092
 51
180.0
  0
LINE
  5
21F3
330
2
100
AcDbEntity
  8
0
100
AcDbLine
 10
165.8822271009086
 20
164.9932751863844
 30
0.0
 11
177.0710439188534
 21
176.1820920043295
 31
0.0
  0
LINE
  5
21F4
330
2
100
AcDbEntity
  8
0
100
AcDbLine
 10
176.5884017849531
 20
182.3472931897652
 30
0.0
 11
178.6931606629606
 21
177.2659557609532
 31
0.0
  0
ARC
  5
21F5
330
2
100
AcDbEntity
  8
0
100
AcDbCircle
 10
180.6065778247868
 20
172.6465580983968
 30
0.0
 40
5.0
100
AcDbArc
 50
90.0
 51
135.0000000000092
  0
LINE
  5
21F6
330
2
100
AcDbEntity
  8
0
100
AcDbLine
 10
164.9177610068347
 20
178.2031824254291
 30
0.0
 11
164.9177610068347
 21
181.089933771377
 31
0.0
  0
ARC
  5
21F7
330
2
100
AcDbEntity
  8
0
100
AcDbCircle
 10
205.4177610068328
 20
-12.35344190159747
 30
0.0
 40
200.0
100
AcDbArc
 50
84.10530161359611
 51
95.89469838640388
  0
LINE
  5
21F8
330
2
100
AcDbEntity
  8
0
100
AcDbLine
 10
230.2289441888844
 20
183.1465580983963
 30
0.0
 11
180.6065778247868
 21
183.1465580983968
 31
0.0
  0
ARC
  5
21F9
330
2
100
AcDbEntity
  8
0
100
AcDbCircle
 10
178.7156320765081
 20
246.2717624203872
 30
0.0
 40
60.0
100
AcDbArc
 50
258.1949321895585
 51
275.8946983864039
  0
ARC
  5
21FA
330
2
100
AcDbEntity
  8
0
100
AcDbCircle
 10
165.4177610068328
 20
182.6465580984025
 30
0.0
 40
5.0
100
AcDbArc
 50
78.19493218955852
 51
90.0
  0
ARC
  5
21FB
330
2
100
AcDbEntity
  8
0
100
AcDbCircle
 10
165.4177610068365
 20
182.6465580984025
 30
0.0
 40
5.0
100
AcDbArc
 50
78.19493218950549
 51
90.0
  0
ARC
  5
21FD
330
2
100
AcDbEntity
  8
0
100
AcDbCircle
 10
248.4177610068365
 20
179.6465580984079
 30
0.0
 40
8.0
100
AcDbArc
 50
0.0
 51
90.0
  0
LINE
  5
21FE
330
2
100
AcDbEntity
  8
CENTER
100
AcDbLine
 10
248.4177610068365
 20
188.3965580984057
 30
0.0
 11
248.4177610068365
 21
170.8965580984057
 31
0.0
  0
CIRCLE
  5
21FF
330
2
100
AcDbEntity
  8
0
100
AcDbCircle
 10
248.4177610068365
 20
179.6465580984027
 30
0.0
 40
5.000000000000113
  0
CIRCLE
  5
2200
330
2
100
AcDbEntity
  8
0
100
AcDbCircle
 10
248.4177610068365
 20
179.6465580984027
 30
0.0
 40
4.307179676972509
  0
ARC
  5
2201
330
2
100
AcDbEntity
  8
0
100
AcDbCircle
 10
315.0429653288175
 20
163.3486870287272
 30
0.0
 40
60.0
100
AcDbArc
 50
168.1949321895316
 51
185.8946983864003
  0
ARC
  5
2202
330
2
100
AcDbEntity
  8
0
100
AcDbCircle
 10
241.4177610068292
 20
161.4577412804515
 30
0.0
 40
10.5
100
AcDbArc
 50
0.0
 51
44.99999999999078
  0
ARC
  5
2203
330
2
100
AcDbEntity
  8
0
100
AcDbCircle
 10
241.4177610068292
 20
161.4577412804515
 30
0.0
 40
5.0
100
AcDbArc
 50
0.0
 51
44.99999999999078
  0
ARC
  5
2204
330
2
100
AcDbEntity
  8
0
100
AcDbCircle
 10
251.4177610068328
 20
176.6465580984025
 30
0.0
 40
5.0
100
AcDbArc
 50
348.1949321895317
 51
0.0
  0
LINE
  5
2205
330
2
100
AcDbEntity
  8
0
100
AcDbLine
 10
256.4177610068328
 20
176.6465580984002
 30
0.0
 11
256.4177610068328
 21
179.6465580984025
 31
0.0
  0
LINE
  5
2206
330
2
100
AcDbEntity
  8
CENTER
100
AcDbLine
 10
257.1677610068383
 20
179.6465580984027
 30
0.0
 11
239.6677610068383
 21
179.6465580984027
 31
0.0
  0
LINE
  5
2207
330
2
100
AcDbEntity
  8
0
100
AcDbLine
 10
233.7644780948177
 20
176.1820920043292
 30
0.0
 11
244.9532949127625
 21
164.9932751863844
 31
0.0
  0
LINE
  5
2208
330
2
100
AcDbEntity
  8
0
100
AcDbLine
 10
234.247120228718
 20
182.3472931897652
 30
0.0
 11
232.1423613507105
 21
177.2659557609532
 31
0.0
  0
LINE
  5
2209
330
2
100
AcDbEntity
  8
0
100
AcDbLine
 10
237.6535653913435
 20
180.0711793008552
 30
0.0
 11
248.8423822092883
 21
168.8823624829104
 31
0.0
  0
LINE
  5
220A
330
2
100
AcDbEntity
  8
0
100
AcDbLine
 10
251.1184960981992
 20
165.4759173202847
 30
0.0
 11
246.0371586693856
 21
163.3711584422767
 31
0.0
  0
LINE
  5
220B
330
2
100
AcDbEntity
  8
0
100
AcDbLine
 10
250.9177610068365
 20
178.2031824254286
 30
0.0
 11
250.9177610068365
 21
181.0899337713765
 31
0.0
  0
LINE
  5
220C
330
2
100
AcDbEntity
  8
0
100
AcDbLine
 10
245.9177610068365
 20
178.2031824254286
 30
0.0
 11
245.9177610068365
 21
181.0899337713768
 31
0.0
  0
LINE
  5
220D
330
2
100
AcDbEntity
  8
0
100
AcDbLine
 10
245.9177610068365
 20
178.2031824254286
 30
0.0
 11
248.4177610068365
 21
176.7598067524546
 31
0.0
  0
LINE
  5
220E
330
2
100
AcDbEntity
  8
0
100
AcDbLine
 10
250.9177610068365
 20
178.2031824254286
 30
0.0
 11
248.4177610068365
 21
176.7598067524546
 31
0.0
  0
LINE
  5
220F
330
2
100
AcDbEntity
  8
0
100
AcDbLine
 10
248.4177610068365
 20
182.5333094443508
 30
0.0
 11
245.9177610068365
 21
181.0899337713768
 31
0.0
  0
LINE
  5
2210
330
2
100
AcDbEntity
  8
0
100
AcDbLine
 10
248.4177610068365
 20
182.5333094443508
 30
0.0
 11
250.9177610068365
 21
181.0899337713765
 31
0.0
  0
ARC
  5
2211
330
2
100
AcDbEntity
  8
0
100
AcDbCircle
 10
245.4177610068328
 20
182.646558098402
 30
0.0
 40
5.0
100
AcDbArc
 50
90.0
 51
101.8050678104414
  0
LINE
  5
2212
330
2
100
AcDbEntity
  8
0
100
AcDbLine
 10
248.4177610068328
 20
187.6465580984025
 30
0.0
 11
245.4177610068328
 21
187.6465580984025
 31
0.0
  0
LINE
  5
2213
330
2
100
AcDbEntity
  8
0
100
AcDbLine
 10
345.337731189506
 20
152.8395728362565
 30
0.0
 11
345.3377311895042
 21
187.6465580983963
 31
0.0
  0
ARC
  5
2214
330
2
100
AcDbEntity
  8
0
100
AcDbCircle
 10
331.8377311895133
 20
179.7246050126646
 30
0.0
 40
8.0
100
AcDbArc
 50
90.56170533253165
 51
180.0
  0
ARC
  5
2215
330
2
100
AcDbEntity
  8
HIDS
100
AcDbCircle
 10
335.8377311895078
 20
183.9749852231336
 30
0.0
 40
2.0
100
AcDbArc
 50
314.9999999999355
 51
0.0
  0
LINE
  5
2216
330
2
100
AcDbEntity
  8
0
100
AcDbLine
 10
336.3377311895096
 20
184.6465580984124
 30
0.0
 11
336.3377311895096
 21
174.6465580984127
 31
0.0
  0
LINE
  5
2217
330
2
100
AcDbEntity
  8
0
100
AcDbLine
 10
330.3377311895096
 20
183.9537377753847
 30
0.0
 11
330.3377311895078
 21
175.3393784214401
 31
0.0
  0
LINE
  5
2218
330
2
100
AcDbEntity
  8
0
100
AcDbLine
 10
330.7377311895074
 20
184.6465580984124
 30
0.0
 11
330.7377311895093
 21
174.6465580984124
 31
0.0
  0
LINE
  5
2219
330
2
100
AcDbEntity
  8
0
100
AcDbLine
 10
323.8377311894951
 20
169.069207829196
 30
0.0
 11
323.8377311894987
 21
153.6465580983979
 31
0.0
  0
LINE
  5
221A
330
2
100
AcDbEntity
  8
0
100
AcDbLine
 10
328.5377311895176
 20
169.6465580983981
 30
0.0
 11
331.8377311895169
 21
169.6465580983972
 31
0.0
  0
LINE
  5
221B
330
2
100
AcDbEntity
  8
HIDS
100
AcDbLine
 10
337.2519447518811
 20
182.5607716607598
 30
0.0
 11
332.9235176271472
 21
178.2323445360311
 31
0.0
  0
LINE
  5
221C
330
2
100
AcDbEntity
  8
0
100
AcDbLine
 10
331.8377311894951
 20
171.646558098374
 30
0.0
 11
332.3377311895187
 21
172.1465580983967
 31
0.0
  0
LINE
  5
221D
330
2
100
AcDbEntity
  8
0
100
AcDbLine
 10
326.5377311895176
 20
168.9465580983985
 30
0.0
 11
328.137731189518
 21
168.9465580983981
 31
0.0
  0
LINE
  5
221E
330
2
100
AcDbEntity
  8
0
100
AcDbLine
 10
328.3377311895133
 20
169.4465580983933
 30
0.0
 11
328.5377311895176
 21
169.6465580983981
 31
0.0
  0
LINE
  5
221F
330
2
100
AcDbEntity
  8
0
100
AcDbLine
 10
324.8377311895169
 20
169.646558098399
 30
0.0
 11
323.8377311895169
 21
169.0692078292095
 31
0.0
  0
LINE
  5
2220
330
2
100
AcDbEntity
  8
0
100
AcDbLine
 10
324.8377311895169
 20
169.646558098399
 30
0.0
 11
326.137731189518
 21
169.6465580983986
 31
0.0
  0
ARC
  5
2221
330
2
100
AcDbEntity
  8
HIDS
100
AcDbCircle
 10
334.3377311895205
 20
176.8181309736573
 30
0.0
 40
2.0
100
AcDbArc
 50
134.9999999999355
 51
180.0
  0
ARC
  5
2222
330
2
100
AcDbEntity
  8
0
100
AcDbCircle
 10
326.137731189518
 20
169.4465580983983
 30
0.0
 40
0.2
100
AcDbArc
 50
0.0
 51
90.0
  0
ARC
  5
2223
330
2
100
AcDbEntity
  8
0
100
AcDbCircle
 10
326.5377311895176
 20
169.1465580983986
 30
0.0
 40
0.2
100
AcDbArc
 50
180.0
 51
269.9999999999478
  0
ARC
  5
2224
330
2
100
AcDbEntity
  8
0
100
AcDbCircle
 10
328.137731189518
 20
169.1465580983981
 30
0.0
 40
0.2
100
AcDbArc
 50
269.9999999999478
 51
0.0
  0
LINE
  5
2225
330
2
100
AcDbEntity
  8
0
100
AcDbLine
 10
336.3377311895096
 20
174.6465580984124
 30
0.0
 11
330.7377311895093
 21
174.6465580984124
 31
0.0
  0
LINE
  5
2226
330
2
100
AcDbEntity
  8
0
100
AcDbLine
 10
330.7377311895093
 20
174.6465580984124
 30
0.0
 11
330.3377311895096
 21
175.3393784214401
 31
0.0
  0
LINE
  5
2227
330
2
100
AcDbEntity
  8
0
100
AcDbLine
 10
336.3377311895096
 20
174.6465580984124
 30
0.0
 11
337.8377311895078
 21
174.6465580984124
 31
0.0
  0
LINE
  5
2228
330
2
100
AcDbEntity
  8
HIDS
100
AcDbLine
 10
332.3377311895205
 20
176.8181309736573
 30
0.0
 11
332.3377311895078
 21
174.6465580984124
 31
0.0
  0
LINE
  5
2229
330
2
100
AcDbEntity
  8
CENTER
100
AcDbLine
 10
325.3377311895096
 20
179.6465580984124
 30
0.0
 11
351.4030569747706
 21
179.6465580984124
 31
0.0
  0
LINE
  5
222A
330
2
100
AcDbEntity
  8
0
100
AcDbLine
 10
339.8202781185104
 20
187.5984081810566
 30
0.0
 11
345.3376931118441
 21
187.64655793225
 31
0.0
  0
ARC
  5
222B
330
2
100
AcDbEntity
  8
0
100
AcDbCircle
 10
339.8377311895078
 20
185.5984843349281
 30
0.0
 40
2.0
100
AcDbArc
 50
90.50000000001761
 51
180.0
  0
LINE
  5
222C
330
2
100
AcDbEntity
  8
0
100
AcDbLine
 10
336.3377311895096
 20
184.6465580984124
 30
0.0
 11
330.7377311895093
 21
184.6465580984124
 31
0.0
  0
LINE
  5
222D
330
2
100
AcDbEntity
  8
0
100
AcDbLine
 10
330.7377311895093
 20
184.6465580984124
 30
0.0
 11
330.3377311895096
 21
183.9537377753847
 31
0.0
  0
LINE
  5
222E
330
2
100
AcDbEntity
  8
0
100
AcDbLine
 10
336.3377311895078
 20
184.6465580984124
 30
0.0
 11
337.8377311895078
 21
184.6465580984124
 31
0.0
  0
ARC
  5
2232
330
2
100
AcDbEntity
  8
0
100
AcDbCircle
 10
632.2737800961144
 20
246.2717624203818
 30
0.0
 40
60.0
100
AcDbArc
 50
258.1949321895054
 51
275.8946983863513
  0
ARC
  5
2233
330
2
100
AcDbEntity
  8
0
100
AcDbCircle
 10
632.2737800961144
 20
27.02135377641315
 30
0.0
 40
60.0
100
AcDbArc
 50
84.10530161364862
 51
101.8050678104414
  0
LINE
  5
2234
330
2
100
AcDbEntity
  8
CENTER
100
AcDbLine
 10
712.582510744236
 20
190.2531598161941
 30
0.0
 11
605.3693073086383
 21
83.0399563805957
 31
0.0
  0
LINE
  5
2235
330
2
100
AcDbEntity
  8
CENTER
100
AcDbLine
 10
605.3693073086451
 20
190.2531598161932
 30
0.0
 11
712.5825107442397
 21
83.03995638059717
 31
0.0
  0
CIRCLE
  5
2236
330
2
100
AcDbEntity
  8
CENTER
100
AcDbCircle
 10
658.975909026441
 20
136.6465580983996
 30
0.0
 40
60.0
  0
CIRCLE
  5
2237
330
2
100
AcDbEntity
  8
0
100
AcDbCircle
 10
658.975909026441
 20
136.6465580983996
 30
0.0
 40
34.0
  0
CIRCLE
  5
2238
330
2
100
AcDbEntity
  8
0
100
AcDbCircle
 10
658.975909026441
 20
136.6465580983996
 30
0.0
 40
45.0
  0
ARC
  5
223E
330
2
100
AcDbEntity
  8
0
100
AcDbCircle
 10
807.975909026441
 20
136.6465580983974
 30
0.0
 40
200.0
100
AcDbArc
 50
174.1053016135961
 51
185.8946983864003
  0
LINE
  5
223F
330
2
100
AcDbEntity
  8
CENTER
100
AcDbLine
 10
374.8377311895005
 20
198.1465580983898
 30
0.0
 11
374.8377311895005
 21
75.14655809839098
 31
0.0
  0
LINE
  5
2240
330
2
100
AcDbEntity
  8
0
100
AcDbLine
 10
427.837731189506
 20
86.36652469114734
 30
0.0
 11
427.837731189506
 21
186.9265915056471
 31
0.0
  0
LINE
  5
2241
330
2
100
AcDbEntity
  8
0
100
AcDbLine
 10
432.837731189506
 20
91.64655809839997
 30
0.0
 11
432.837731189506
 21
181.6465580983995
 31
0.0
  0
LINE
  5
2242
330
2
100
AcDbEntity
  8
0
100
AcDbLine
 10
446.8377311895078
 20
104.577935648012
 30
0.0
 11
446.8377311895078
 21
168.7151805487849
 31
0.0
  0
LINE
  5
2247
330
2
100
AcDbEntity
  8
0
100
AcDbLine
 10
374.8377311895133
 20
85.14655809839087
 30
0.0
 11
417.9161587930452
 21
85.56889562391507
 31
0.0
  0
ARC
  5
2248
330
2
100
AcDbEntity
  8
0
100
AcDbCircle
 10
417.8377311895133
 20
93.56851118411531
 30
0.0
 40
8.0
100
AcDbArc
 50
270.5617053325316
 51
294.9148177589203
  0
ARC
  5
2249
330
2
100
AcDbEntity
  8
0
100
AcDbCircle
 10
434.8377311895078
 20
100.2262897759005
 30
0.0
 40
2.0
100
AcDbArc
 50
92.00000000000361
 51
180.0
  0
LINE
  5
224A
330
2
100
AcDbEntity
  8
0
100
AcDbLine
 10
427.837731189506
 20
91.64655809839997
 30
0.0
 11
432.837731189506
 21
91.64655809839997
 31
0.0
  0
LINE
  5
224C
330
2
100
AcDbEntity
  8
0
100
AcDbLine
 10
434.7679321961027
 20
102.2250714299384
 30
0.0
 11
444.907530182913
 21
102.5791539939741
 31
0.0
  0
ARC
  5
224D
330
2
100
AcDbEntity
  8
0
100
AcDbCircle
 10
444.8377311895078
 20
104.577935648012
 30
0.0
 40
2.0
100
AcDbArc
 50
272.0000000000035
 51
0.0
  0
LINE
  5
2253
330
2
100
AcDbEntity
  8
CENTER
100
AcDbLine
 10
616.5495021552483
 20
102.2201512272067
 30
0.0
 11
616.5495021552483
 21
86.22015122720695
 31
0.0
  0
ARC
  5
2254
330
2
100
AcDbEntity
  8
0
100
AcDbCircle
 10
549.3507047044545
 20
109.9444291680726
 30
0.0
 40
60.0
100
AcDbArc
 50
348.1949321895317
 51
5.894698386400319
  0
LINE
  5
2255
330
2
100
AcDbEntity
  8
CENTER
100
AcDbLine
 10
624.5495021552483
 20
94.2201512272083
 30
0.0
 11
608.5495021552483
 21
94.2201512272083
 31
0.0
  0
CIRCLE
  5
2256
330
2
100
AcDbEntity
  8
HOJO
100
AcDbCircle
 10
616.5495021552483
 20
94.2201512272067
 30
0.0
 40
4.0
  0
CIRCLE
  5
2257
330
2
100
AcDbEntity
  8
0
100
AcDbCircle
 10
616.5495021552483
 20
94.2201512272067
 30
0.0
 40
3.2
  0
ARC
  5
2258
330
2
100
AcDbEntity
  8
0
100
AcDbCircle
 10
612.9759090264411
 20
96.64655809839741
 30
0.0
 40
5.0
100
AcDbArc
 50
168.1949321895316
 51
180.0
  0
LINE
  5
2259
330
2
100
AcDbEntity
  8
0
100
AcDbLine
 10
607.975909026441
 20
96.64655809839969
 30
0.0
 11
607.975909026441
 21
93.6465580983974
 31
0.0
  0
ARC
  5
225A
330
2
100
AcDbEntity
  8
0
100
AcDbCircle
 10
618.975909026441
 20
90.64655809839786
 30
0.0
 40
5.0
100
AcDbArc
 50
270.0
 51
281.8050678104415
  0
LINE
  5
225B
330
2
100
AcDbEntity
  8
0
100
AcDbLine
 10
615.975909026441
 20
85.64655809839695
 30
0.0
 11
618.975909026441
 21
85.6465580983974
 31
0.0
  0
ARC
  5
225C
330
2
100
AcDbEntity
  8
0
100
AcDbCircle
 10
615.9759090264392
 20
93.64655809839126
 30
0.0
 40
8.0
100
AcDbArc
 50
180.0
 51
270.0
  0
LINE
  5
2262
330
2
100
AcDbEntity
  8
0
100
AcDbLine
 10
374.8377311895133
 20
188.1465580983899
 30
0.0
 11
417.9161587930452
 21
187.7242205728657
 31
0.0
  0
ARC
  5
2263
330
2
100
AcDbEntity
  8
0
100
AcDbCircle
 10
417.8377311895133
 20
179.7246050126655
 30
0.0
 40
8.0
100
AcDbArc
 50
65.08518224130987
 51
89.43829466741625
  0
LINE
  5
226A
330
2
100
AcDbEntity
  8
0
100
AcDbLine
 10
427.837731189506
 20
181.6465580983995
 30
0.0
 11
432.837731189506
 21
181.6465580983995
 31
0.0
  0
ARC
  5
226B
330
2
100
AcDbEntity
  8
0
100
AcDbCircle
 10
444.8377311895078
 20
168.7151805487849
 30
0.0
 40
2.0
100
AcDbArc
 50
0.0
 51
87.9999999999964
  0
LINE
  5
226C
330
2
100
AcDbEntity
  8
0
100
AcDbLine
 10
434.7679321961027
 20
171.0680447668587
 30
0.0
 11
444.907530182913
 21
170.713962202823
 31
0.0
  0
ARC
  5
226D
330
2
100
AcDbEntity
  8
0
100
AcDbCircle
 10
434.8377311895078
 20
173.0668264208966
 30
0.0
 40
2.0
100
AcDbArc
 50
180.0
 51
267.9999999999963
  0
ARC
  5
226E
330
2
100
AcDbEntity
  8
0
100
AcDbCircle
 10
444.8377311895078
 20
168.7151805487851
 30
0.0
 40
2.0
100
AcDbArc
 50
0.0
 51
0.0
  0
LINE
  5
2270
330
2
100
AcDbEntity
  8
CENTER
100
AcDbLine
 10
616.5495021552446
 20
187.0729649695924
 30
0.0
 11
616.5495021552446
 21
171.0729649695924
 31
0.0
  0
ARC
  5
2271
330
2
100
AcDbEntity
  8
0
100
AcDbCircle
 10
615.9759090264392
 20
179.646558098391
 30
0.0
 40
8.0
100
AcDbArc
 50
90.0
 51
180.0
  0
ARC
  5
2272
330
2
100
AcDbEntity
  8
0
100
AcDbCircle
 10
549.3507047044545
 20
163.3486870287228
 30
0.0
 40
60.0
100
AcDbArc
 50
354.1053016135961
 51
11.80506781046833
  0
LINE
  5
2273
330
2
100
AcDbEntity
  8
CENTER
100
AcDbLine
 10
624.5495021552483
 20
179.0729649695924
 30
0.0
 11
608.5495021552483
 21
179.0729649695924
 31
0.0
  0
CIRCLE
  5
2274
330
2
100
AcDbEntity
  8
HOJO
100
AcDbCircle
 10
616.5495021552483
 20
179.0729649695924
 30
0.0
 40
4.0
  0
CIRCLE
  5
2275
330
2
100
AcDbEntity
  8
0
100
AcDbCircle
 10
616.5495021552483
 20
179.0729649695924
 30
0.0
 40
3.2
  0
ARC
  5
2276
330
2
100
AcDbEntity
  8
0
100
AcDbCircle
 10
612.9759090264411
 20
176.6465580983973
 30
0.0
 40
5.0
100
AcDbArc
 50
180.0
 51
191.8050678104683
  0
LINE
  5
2277
330
2
100
AcDbEntity
  8
0
100
AcDbLine
 10
607.975909026441
 20
179.6465580983971
 30
0.0
 11
607.975909026441
 21
176.6465580983996
 31
0.0
  0
LINE
  5
2278
330
2
100
AcDbEntity
  8
0
100
AcDbLine
 10
615.975909026441
 20
187.6465580983971
 30
0.0
 11
618.975909026441
 21
187.6465580983971
 31
0.0
  0
ARC
  5
2279
330
2
100
AcDbEntity
  8
0
100
AcDbCircle
 10
618.975909026441
 20
182.6465580983971
 30
0.0
 40
5.0
100
AcDbArc
 50
78.19493218950549
 51
90.0
  0
LINE
  5
227A
330
2
100
AcDbEntity
  8
0
100
AcDbLine
 10
739.4759310264412
 20
186.1465580984001
 30
0.0
 11
739.4759310264376
 21
87.14655809839968
 31
0.0
  0
LINE
  5
227C
330
2
100
AcDbEntity
  8
0
100
AcDbLine
 10
709.9759090264356
 20
179.6465580983912
 30
0.0
 11
709.9759090264392
 21
93.64655809839172
 31
0.0
  0
LINE
  5
227D
330
2
100
AcDbEntity
  8
0
100
AcDbLine
 10
730.4759090264374
 20
172.6465580983976
 30
0.0
 11
730.4759090264355
 21
100.6465580983978
 31
0.0
  0
LINE
  5
2286
330
2
100
AcDbEntity
  8
CENTER
100
AcDbLine
 10
658.9759090264428
 20
206.6465580983996
 30
0.0
 11
658.9759090264428
 21
66.64655809839968
 31
0.0
  0
CIRCLE
  5
2287
330
2
100
AcDbEntity
  8
0
100
AcDbCircle
 10
658.975909026441
 20
136.6465580983996
 30
0.0
 40
26.0
  0
CIRCLE
  5
228C
330
2
100
AcDbEntity
  8
0
100
AcDbCircle
 10
701.4023158976356
 20
94.2201512272067
 30
0.0
 40
3.2
  0
CIRCLE
  5
228D
330
2
100
AcDbEntity
  8
HOJO
100
AcDbCircle
 10
701.4023158976356
 20
94.2201512272067
 30
0.0
 40
4.0
  0
LINE
  5
228E
330
2
100
AcDbEntity
  8
0
100
AcDbLine
 10
698.975909026441
 20
85.6465580983974
 30
0.0
 11
701.9759090264374
 21
85.6465580983974
 31
0.0
  0
LINE
  5
228F
330
2
100
AcDbEntity
  8
CENTER
100
AcDbLine
 10
709.4023158976356
 20
94.2201512272067
 30
0.0
 11
693.4023158976356
 21
94.2201512272067
 31
0.0
  0
ARC
  5
2290
330
2
100
AcDbEntity
  8
0
100
AcDbCircle
 10
658.975909026441
 20
285.6465580983971
 30
0.0
 40
200.0
100
AcDbArc
 50
264.1053016135961
 51
275.8946983863513
  0
LINE
  5
2291
330
2
100
AcDbEntity
  8
0
100
AcDbLine
 10
662.8419354288721
 20
95.98852849717941
 30
0.0
 11
664.3322370887631
 21
93.64655809838557
 31
0.0
  0
LINE
  5
2292
330
2
100
AcDbEntity
  8
0
100
AcDbLine
 10
662.1722361577645
 20
93.64655809838513
 30
0.0
 11
664.3322370887631
 21
93.64655809838557
 31
0.0
  0
LINE
  5
2293
330
2
100
AcDbEntity
  8
0
100
AcDbLine
 10
653.6195809641153
 20
93.64655809838557
 30
0.0
 11
655.7795818951158
 21
93.64655809838513
 31
0.0
  0
LINE
  5
2294
330
2
100
AcDbEntity
  8
0
100
AcDbLine
 10
656.6195809641207
 20
99.64655809839422
 30
0.0
 11
653.6195809641153
 21
93.64655809838557
 31
0.0
  0
LINE
  5
2295
330
2
100
AcDbEntity
  8
0
100
AcDbLine
 10
657.759580964122
 20
93.64655809838513
 30
0.0
 11
659.5595263941245
 21
93.6465580983849
 31
0.0
  0
LINE
  5
2296
330
2
100
AcDbEntity
  8
0
100
AcDbLine
 10
656.2295818951147
 20
94.54655809838682
 30
0.0
 11
655.7795818951158
 21
93.64655809838513
 31
0.0
  0
LINE
  5
2297
330
2
100
AcDbEntity
  8
0
100
AcDbLine
 10
656.2295818951147
 20
94.54655809838682
 30
0.0
 11
657.759580964122
 21
94.54655809838659
 31
0.0
  0
LINE
  5
2298
330
2
100
AcDbEntity
  8
0
100
AcDbLine
 10
657.759580964122
 20
94.54655809838659
 30
0.0
 11
657.759580964122
 21
93.64655809838513
 31
0.0
  0
LINE
  5
2299
330
2
100
AcDbEntity
  8
0
100
AcDbLine
 10
657.1895818951174
 20
96.46655809838893
 30
0.0
 11
657.759580964122
 21
96.46655809838916
 31
0.0
  0
LINE
  5
229A
330
2
100
AcDbEntity
  8
0
100
AcDbLine
 10
657.759580964122
 20
97.60655623639848
 30
0.0
 11
657.759580964122
 21
96.46655809838916
 31
0.0
  0
LINE
  5
229B
330
2
100
AcDbEntity
  8
0
100
AcDbLine
 10
657.759580964122
 20
97.60655623639848
 30
0.0
 11
657.1895818951174
 21
96.46655809838893
 31
0.0
  0
LINE
  5
229C
330
2
100
AcDbEntity
  8
0
100
AcDbLine
 10
659.5595263941245
 20
97.60655809839107
 30
0.0
 11
659.5595263941245
 21
93.6465580983849
 31
0.0
  0
LINE
  5
229D
330
2
100
AcDbEntity
  8
0
100
AcDbLine
 10
659.5595263941245
 20
97.60655809839107
 30
0.0
 11
661.4720809641271
 21
97.60655809839107
 31
0.0
  0
LINE
  5
229E
330
2
100
AcDbEntity
  8
0
100
AcDbLine
 10
659.8145809641241
 20
97.35155809839051
 30
0.0
 11
661.4720809641271
 21
97.35155809839051
 31
0.0
  0
ARC
  5
229F
330
2
100
AcDbEntity
  8
0
100
AcDbCircle
 10
661.4720809641271
 20
97.4790580983908
 30
0.0
 40
0.1275000000001855
100
AcDbArc
 50
270.0
 51
90.0
  0
LINE
  5
22A0
330
2
100
AcDbEntity
  8
0
100
AcDbLine
 10
656.6195809641207
 20
99.64655809839422
 30
0.0
 11
661.5995263941272
 21
99.64655809839422
 31
0.0
  0
ARC
  5
22A1
330
2
100
AcDbEntity
  8
0
100
AcDbCircle
 10
661.5995263941272
 20
97.60655809839086
 30
0.0
 40
2.040000000002968
100
AcDbArc
 50
307.5189678668038
 51
90.0
  0
LINE
  5
22A2
330
2
100
AcDbEntity
  8
0
100
AcDbLine
 10
659.8145809641241
 20
97.35155809839051
 30
0.0
 11
662.1722361577645
 21
93.64655809838513
 31
0.0
  0
ARC
  5
22A3
330
2
100
AcDbEntity
  8
0
100
AcDbCircle
 10
698.975909026441
 20
90.64655809839718
 30
0.0
 40
5.0
100
AcDbArc
 50
258.1949321895054
 51
270.0
  0
ARC
  5
22A4
330
2
100
AcDbEntity
  8
0
100
AcDbCircle
 10
685.678037956764
 20
27.02135377641269
 30
0.0
 40
60.0
100
AcDbArc
 50
78.19493218950549
 51
95.89469838635137
  0
LINE
  5
22A5
330
2
100
AcDbEntity
  8
CENTER
100
AcDbLine
 10
701.402315897632
 20
102.2201512272067
 30
0.0
 11
701.402315897632
 21
86.22015122720695
 31
0.0
  0
ARC
  5
22A6
330
2
100
AcDbEntity
  8
0
100
AcDbCircle
 10
711.9759090264392
 20
99.6465580983974
 30
0.0
 40
2.0
100
AcDbArc
 50
90.0
 51
180.0
  0
ARC
  5
22A7
330
2
100
AcDbEntity
  8
0
100
AcDbCircle
 10
728.602925680228
 20
99.6465580983974
 30
0.0
 40
2.0
100
AcDbArc
 50
14.47751218596027
 51
90.0
  0
ARC
  5
22A8
330
2
100
AcDbEntity
  8
0
100
AcDbCircle
 10
734.4759090264282
 20
93.64655809839787
 30
0.0
 40
5.0
100
AcDbArc
 50
0.0
 51
90.0
  0
LINE
  5
22A9
330
2
100
AcDbEntity
  8
0
100
AcDbLine
 10
734.4759090264282
 20
98.64655809839787
 30
0.0
 11
732.4759090264356
 21
98.64655809839787
 31
0.0
  0
ARC
  5
22AA
330
2
100
AcDbEntity
  8
0
100
AcDbCircle
 10
701.9759090264374
 20
93.64655809839149
 30
0.0
 40
8.0
100
AcDbArc
 50
270.0
 51
0.0
  0
ARC
  5
22AB
330
2
100
AcDbEntity
  8
0
100
AcDbCircle
 10
732.4759090264356
 20
100.6465580983978
 30
0.0
 40
2.0
100
AcDbArc
 50
180.0
 51
270.0
  0
ARC
  5
22AC
330
2
100
AcDbEntity
  8
0
100
AcDbCircle
 10
741.4759310264376
 20
87.64655809839922
 30
0.0
 40
2.0
100
AcDbArc
 50
180.0
 51
270.0
  0
LINE
  5
22AD
330
2
100
AcDbEntity
  8
0
100
AcDbLine
 10
754.9759310264412
 20
85.64655809839967
 30
0.0
 11
741.4759310264376
 21
85.64655809839923
 31
0.0
  0
LINE
  5
22AE
330
2
100
AcDbEntity
  8
0
100
AcDbLine
 10
754.9759310264412
 20
85.14655809839968
 30
0.0
 11
741.4759310264376
 21
85.14655809839922
 31
0.0
  0
ARC
  5
22AF
330
2
100
AcDbEntity
  8
0
100
AcDbCircle
 10
741.4759310264376
 20
87.14655809839923
 30
0.0
 40
2.0
100
AcDbArc
 50
180.0
 51
270.0
  0
LINE
  5
22B0
330
2
100
AcDbEntity
  8
0
100
AcDbLine
 10
728.602925680228
 20
101.6465580983973
 30
0.0
 11
711.9759090264392
 21
101.6465580983973
 31
0.0
  0
ARC
  5
22B1
330
2
100
AcDbEntity
  8
0
100
AcDbCircle
 10
714.9759090264356
 20
101.6465580983996
 30
0.0
 40
5.0
100
AcDbArc
 50
90.0
 51
180.0
  0
LINE
  5
22B2
330
2
100
AcDbEntity
  8
0
100
AcDbLine
 10
714.9759090264356
 20
106.6465580983996
 30
0.0
 11
725.4759310264375
 21
106.6465580983996
 31
0.0
  0
LINE
  5
22B3
330
2
100
AcDbEntity
  8
0
100
AcDbLine
 10
711.9759090264373
 20
139.1465580983973
 30
0.0
 11
728.4759310264376
 21
139.1465580983973
 31
0.0
  0
LINE
  5
22B4
330
2
100
AcDbEntity
  8
0
100
AcDbLine
 10
711.9759090264373
 20
134.1465580983974
 30
0.0
 11
728.4759310264376
 21
134.1465580983974
 31
0.0
  0
ARC
  5
22B5
330
2
100
AcDbEntity
  8
0
100
AcDbCircle
 10
711.9759090264373
 20
141.1465580983974
 30
0.0
 40
2.0
100
AcDbArc
 50
180.0
 51
270.0
  0
ARC
  5
22B6
330
2
100
AcDbEntity
  8
0
100
AcDbCircle
 10
711.9759090264373
 20
132.1465580983974
 30
0.0
 40
2.0
100
AcDbArc
 50
90.0
 51
180.0
  0
ARC
  5
22B7
330
2
100
AcDbEntity
  8
0
100
AcDbCircle
 10
728.4759310264376
 20
141.1465580983974
 30
0.0
 40
2.0
100
AcDbArc
 50
270.0
 51
0.0
  0
ARC
  5
22B8
330
2
100
AcDbEntity
  8
0
100
AcDbCircle
 10
728.4759310264376
 20
132.1465580983974
 30
0.0
 40
2.0
100
AcDbArc
 50
0.0
 51
90.0
  0
ARC
  5
22B9
330
2
100
AcDbEntity
  8
0
100
AcDbCircle
 10
725.4759310264375
 20
101.6465580983996
 30
0.0
 40
5.0
100
AcDbArc
 50
0.0
 51
90.0
  0
LINE
  5
22CA
330
2
100
AcDbEntity
  8
0
100
AcDbLine
 10
701.975909026441
 20
187.6465580983969
 30
0.0
 11
698.975909026441
 21
187.6465580983967
 31
0.0
  0
CIRCLE
  5
22CB
330
2
100
AcDbEntity
  8
0
100
AcDbCircle
 10
701.4023158976337
 20
179.0729649695926
 30
0.0
 40
3.2
  0
CIRCLE
  5
22CC
330
2
100
AcDbEntity
  8
HOJO
100
AcDbCircle
 10
701.4023158976337
 20
179.0729649695926
 30
0.0
 40
4.0
  0
LINE
  5
22CD
330
2
100
AcDbEntity
  8
CENTER
100
AcDbLine
 10
709.4023158976337
 20
179.0729649695921
 30
0.0
 11
693.4023158976337
 21
179.0729649695921
 31
0.0
  0
ARC
  5
22CE
330
2
100
AcDbEntity
  8
0
100
AcDbCircle
 10
658.975909026441
 20
-12.35344190160304
 30
0.0
 40
200.0
100
AcDbArc
 50
84.10530161364862
 51
95.89469838635137
  0
ARC
  5
22CF
330
2
100
AcDbEntity
  8
0
100
AcDbCircle
 10
698.975909026441
 20
182.6465580983967
 30
0.0
 40
5.0
100
AcDbArc
 50
90.0
 51
101.8050678104414
  0
ARC
  5
22D0
330
2
100
AcDbEntity
  8
0
100
AcDbCircle
 10
685.6780379567658
 20
246.2717624203816
 30
0.0
 40
60.0
100
AcDbArc
 50
264.1053016135961
 51
281.8050678104415
  0
LINE
  5
22D1
330
2
100
AcDbEntity
  8
CENTER
100
AcDbLine
 10
701.4023158976337
 20
187.0729649695926
 30
0.0
 11
701.4023158976337
 21
171.0729649695926
 31
0.0
  0
ARC
  5
22D2
330
2
100
AcDbEntity
  8
0
100
AcDbCircle
 10
701.9759090264429
 20
179.646558098391
 30
0.0
 40
8.0
100
AcDbArc
 50
0.0
 51
90.0
  0
ARC
  5
22D3
330
2
100
AcDbEntity
  8
0
100
AcDbCircle
 10
734.4759090264392
 20
179.6465580983974
 30
0.0
 40
5.0
100
AcDbArc
 50
270.0
 51
0.0
  0
LINE
  5
22D4
330
2
100
AcDbEntity
  8
0
100
AcDbLine
 10
734.4759090264392
 20
174.6465580983974
 30
0.0
 11
732.4759090264373
 21
174.6465580983976
 31
0.0
  0
LINE
  5
22D5
330
2
100
AcDbEntity
  8
0
100
AcDbLine
 10
728.6029256802298
 20
171.6465580983976
 30
0.0
 11
711.975909026441
 21
171.6465580983978
 31
0.0
  0
ARC
  5
22D6
330
2
100
AcDbEntity
  8
0
100
AcDbCircle
 10
711.975909026441
 20
173.6465580983978
 30
0.0
 40
2.0
100
AcDbArc
 50
180.0
 51
270.0
  0
ARC
  5
22D7
330
2
100
AcDbEntity
  8
0
100
AcDbCircle
 10
714.9759090264374
 20
171.6465580984001
 30
0.0
 40
5.0
100
AcDbArc
 50
180.0
 51
270.0
  0
LINE
  5
22D8
330
2
100
AcDbEntity
  8
0
100
AcDbLine
 10
714.9759090264374
 20
166.6465580984001
 30
0.0
 11
725.4759310264394
 21
166.6465580983994
 31
0.0
  0
ARC
  5
22D9
330
2
100
AcDbEntity
  8
0
100
AcDbCircle
 10
732.4759090264373
 20
172.6465580983976
 30
0.0
 40
2.0
100
AcDbArc
 50
90.0
 51
180.0
  0
ARC
  5
22DA
330
2
100
AcDbEntity
  8
0
100
AcDbCircle
 10
728.6029256802298
 20
173.6465580983974
 30
0.0
 40
2.0
100
AcDbArc
 50
270.0
 51
345.5224878140397
  0
ARC
  5
22DB
330
2
100
AcDbEntity
  8
0
100
AcDbCircle
 10
725.4759310264394
 20
171.6465580983996
 30
0.0
 40
5.0
100
AcDbArc
 50
270.0
 51
0.0
  0
ARC
  5
22DC
330
2
100
AcDbEntity
  8
0
100
AcDbCircle
 10
741.4759310264412
 20
185.6465580983999
 30
0.0
 40
2.0
100
AcDbArc
 50
90.0
 51
180.0
  0
LINE
  5
22DD
330
2
100
AcDbEntity
  8
0
100
AcDbLine
 10
754.9759310264412
 20
187.6465580983996
 30
0.0
 11
741.4759310264412
 21
187.6465580983999
 31
0.0
  0
LINE
  5
22DE
330
2
100
AcDbEntity
  8
0
100
AcDbLine
 10
754.9759310264412
 20
188.1465580983996
 30
0.0
 11
741.4759310264412
 21
188.1465580983999
 31
0.0
  0
ARC
  5
22DF
330
2
100
AcDbEntity
  8
0
100
AcDbCircle
 10
741.4759310264412
 20
186.1465580983999
 30
0.0
 40
2.0
100
AcDbArc
 50
90.0
 51
180.0
  0
LINE
  5
2302
330
2
100
AcDbEntity
  8
CENTER
100
AcDbLine
 10
658.9759090264402
 20
519.9744109531597
 30
0.0
 11
658.9759090264425
 21
334.9744109531497
 31
0.0
  0
LINE
  5
2306
330
2
100
AcDbEntity
  8
0
100
AcDbLine
 10
610.1206156843019
 20
495.974410953153
 30
0.0
 11
707.3621986968539
 21
495.9744109531575
 31
0.0
  0
LINE
  5
2307
330
2
100
AcDbEntity
  8
0
100
AcDbLine
 10
613.9759090264416
 20
400.9744109531552
 30
0.0
 11
703.9759090264416
 21
400.9744109531552
 31
0.0
  0
LINE
  5
2308
330
2
100
AcDbEntity
  8
0
100
AcDbLine
 10
608.6958756191799
 20
405.9744109531552
 30
0.0
 11
709.2533850335322
 21
405.9744109531552
 31
0.0
  0
LINE
  5
2309
330
2
100
AcDbEntity
  8
0
100
AcDbLine
 10
626.9072865760537
 20
386.9744109531538
 30
0.0
 11
691.0445314768277
 21
386.9744109531538
 31
0.0
  0
LINE
  5
230A
330
2
100
AcDbEntity
  8
0
100
AcDbLine
 10
607.9802724603233
 20
488.4744109531575
 30
0.0
 11
709.4584664266123
 21
488.474410953157
 31
0.0
  0
LINE
  5
230B
330
2
100
AcDbEntity
  8
0
100
AcDbLine
 10
623.9759090264398
 20
501.9744109531497
 30
0.0
 11
693.9759090264198
 21
501.9744109531662
 31
0.0
  0
LINE
  5
230C
330
2
100
AcDbEntity
  8
0
100
AcDbLine
 10
691.3985587572389
 20
509.9744109531688
 30
0.0
 11
626.5532592956279
 21
509.9744109531506
 31
0.0
  0
LINE
  5
230D
330
2
100
AcDbEntity
  8
0
100
AcDbLine
 10
626.1759090264387
 20
507.4744109531507
 30
0.0
 11
691.7759090264409
 21
507.4744109529519
 31
0.0
  0
LINE
  5
230E
330
2
100
AcDbEntity
  8
0
100
AcDbLine
 10
626.1759090264387
 20
505.4744109531506
 30
0.0
 11
691.7759090264373
 21
505.4744109531506
 31
0.0
  0
LINE
  5
230F
330
2
100
AcDbEntity
  8
0
100
AcDbLine
 10
607.9759090264416
 20
488.4744109531543
 30
0.0
 11
709.4584664266077
 21
488.4744109531598
 31
0.0
  0
LINE
  5
2310
330
2
100
AcDbEntity
  8
0
100
AcDbLine
 10
696.9759090264561
 20
501.4744109531553
 30
0.0
 11
620.9759090264252
 21
501.4744109531553
 31
0.0
  0
LINE
  5
2311
330
2
100
AcDbEntity
  8
0
100
AcDbLine
 10
691.9759090264416
 20
508.9744109531461
 30
0.0
 11
625.9759090264379
 21
508.9744109531507
 31
0.0
  0
LINE
  5
2312
330
2
100
AcDbEntity
  8
0
100
AcDbLine
 10
625.9759090264398
 20
505.2744109531499
 30
0.0
 11
691.9759090264416
 21
505.2744109531459
 31
0.0
  0
LINE
  5
2313
330
2
100
AcDbEntity
  8
0
100
AcDbLine
 10
607.9759090264416
 20
488.4744109531552
 30
0.0
 11
608.6958756191799
 21
405.9744109531552
 31
0.0
  0
LINE
  5
2314
330
2
100
AcDbEntity
  8
0
100
AcDbLine
 10
615.9759090264397
 20
487.9744109531552
 30
0.0
 11
615.975909026438
 21
407.474410953157
 31
0.0
  0
LINE
  5
2315
330
2
100
AcDbEntity
  8
0
100
AcDbLine
 10
618.9759090264416
 20
487.9744109531552
 30
0.0
 11
618.9759090264398
 21
407.474410953157
 31
0.0
  0
LINE
  5
2316
330
2
100
AcDbEntity
  8
0
100
AcDbLine
 10
613.9759090264416
 20
405.9744109531552
 30
0.0
 11
613.9759090264416
 21
400.9744109531552
 31
0.0
  0
ARC
  5
2317
330
2
100
AcDbEntity
  8
0
100
AcDbCircle
 10
626.9072865760537
 20
388.9744109531538
 30
0.0
 40
2.0
100
AcDbArc
 50
182.0000000000036
 51
270.0
  0
LINE
  5
2318
330
2
100
AcDbEntity
  8
0
100
AcDbLine
 10
624.5544223579819
 20
399.0442099465585
 30
0.0
 11
624.9085049220158
 21
388.9046119597492
 31
0.0
  0
ARC
  5
2319
330
2
100
AcDbEntity
  8
0
100
AcDbCircle
 10
622.555640703944
 20
398.9744109531538
 30
0.0
 40
2.0
100
AcDbArc
 50
2.000000000003612
 51
90.0
  0
LINE
  5
231A
330
2
100
AcDbEntity
  8
CENTER
100
AcDbLine
 10
615.9759090264252
 20
508.474410953155
 30
0.0
 11
615.9759090264252
 21
474.909085167895
 31
0.0
  0
LINE
  5
231B
330
2
100
AcDbEntity
  8
0
100
AcDbLine
 10
625.9759090264398
 20
505.2744109531499
 30
0.0
 11
625.9759090264398
 21
501.9744109531502
 31
0.0
  0
LINE
  5
231C
330
2
100
AcDbEntity
  8
0
100
AcDbLine
 10
623.9759090264398
 20
501.9744109531497
 30
0.0
 11
623.4759090264398
 21
501.4744109531497
 31
0.0
  0
LINE
  5
231D
330
2
100
AcDbEntity
  8
0
100
AcDbLine
 10
625.9759090264398
 20
501.9744109531552
 30
0.0
 11
623.9759090264453
 21
501.9744109531552
 31
0.0
  0
LINE
  5
231E
330
2
100
AcDbEntity
  8
0
100
AcDbLine
 10
625.9759090264379
 20
508.9744109531507
 30
0.0
 11
625.9759090264398
 21
507.6744109531505
 31
0.0
  0
LINE
  5
231F
330
2
100
AcDbEntity
  8
0
100
AcDbLine
 10
625.9759090264379
 20
508.9744109531502
 30
0.0
 11
626.5532592956279
 21
509.9744109531506
 31
0.0
  0
LINE
  5
2320
330
2
100
AcDbEntity
  8
0
100
AcDbLine
 10
626.1759090264387
 20
505.4744109531506
 30
0.0
 11
625.9759090264398
 21
505.2744109531499
 31
0.0
  0
LINE
  5
2321
330
2
100
AcDbEntity
  8
0
100
AcDbLine
 10
626.6759090264387
 20
507.2744109531499
 30
0.0
 11
626.6759090264387
 21
505.6744109531505
 31
0.0
  0
ARC
  5
2322
330
2
100
AcDbEntity
  8
0
100
AcDbCircle
 10
610.1206156843019
 20
493.9744109531552
 30
0.0
 40
2.0
100
AcDbArc
 50
90.0
 51
178.5000000000102
  0
ARC
  5
2323
330
2
100
AcDbEntity
  8
0
100
AcDbCircle
 10
626.1759090264387
 20
507.6744109531505
 30
0.0
 40
0.2
100
AcDbArc
 50
180.0
 51
269.9999999998957
  0
ARC
  5
2324
330
2
100
AcDbEntity
  8
0
100
AcDbCircle
 10
626.4759090264379
 20
507.2744109531499
 30
0.0
 40
0.2
100
AcDbArc
 50
0.0
 51
89.99999999989578
  0
ARC
  5
2325
330
2
100
AcDbEntity
  8
0
100
AcDbCircle
 10
626.4759090264398
 20
505.6744109531505
 30
0.0
 40
0.2
100
AcDbArc
 50
270.0
 51
0.0
  0
LINE
  5
2326
330
2
100
AcDbEntity
  8
0
100
AcDbLine
 10
608.121301034351
 20
494.0267648497711
 30
0.0
 11
607.9759075306903
 21
488.4744109531543
 31
0.0
  0
LINE
  5
2327
330
2
100
AcDbEntity
  8
0
100
AcDbLine
 10
620.9759090264252
 20
497.4744109531548
 30
0.0
 11
620.9759090264252
 21
503.0744109531546
 31
0.0
  0
LINE
  5
2328
330
2
100
AcDbEntity
  8
0
100
AcDbLine
 10
610.9759090264252
 20
497.4744109531548
 30
0.0
 11
610.9759090264252
 21
503.0744109531546
 31
0.0
  0
LINE
  5
2329
330
2
100
AcDbEntity
  8
0
100
AcDbLine
 10
610.9759090264252
 20
497.4744109531548
 30
0.0
 11
620.9759090264252
 21
497.4744109531548
 31
0.0
  0
LINE
  5
232A
330
2
100
AcDbEntity
  8
0
100
AcDbLine
 10
611.6687293494525
 20
503.4744109531548
 30
0.0
 11
620.283088703398
 21
503.4744109531552
 31
0.0
  0
LINE
  5
232B
330
2
100
AcDbEntity
  8
0
100
AcDbLine
 10
610.9759090264252
 20
503.0744109531552
 30
0.0
 11
620.9759090264252
 21
503.0744109531546
 31
0.0
  0
LINE
  5
232C
330
2
100
AcDbEntity
  8
0
100
AcDbLine
 10
610.9759090264252
 20
503.0744109531546
 30
0.0
 11
611.6687293494525
 21
503.4744109531548
 31
0.0
  0
LINE
  5
232D
330
2
100
AcDbEntity
  8
0
100
AcDbLine
 10
620.9759090264252
 20
503.0744109531546
 30
0.0
 11
620.283088703398
 21
503.4744109531548
 31
0.0
  0
LINE
  5
232E
330
2
100
AcDbEntity
  8
0
100
AcDbLine
 10
610.9759090264252
 20
497.4744109531552
 30
0.0
 11
610.9759090264252
 21
495.9744109531552
 31
0.0
  0
LINE
  5
232F
330
2
100
AcDbEntity
  8
0
100
AcDbLine
 10
620.9759090264252
 20
497.4744109531548
 30
0.0
 11
620.9759090264252
 21
495.9744109531552
 31
0.0
  0
LINE
  5
2330
330
2
100
AcDbEntity
  8
HIDS
100
AcDbLine
 10
613.0616954640774
 20
496.5601973907828
 30
0.0
 11
617.3901225888059
 21
500.8886245155158
 31
0.0
  0
ARC
  5
2331
330
2
100
AcDbEntity
  8
HIDS
100
AcDbCircle
 10
611.6474819017041
 20
497.9744109531552
 30
0.0
 40
2.0
100
AcDbArc
 50
270.0
 51
315.0000000000092
  0
ARC
  5
2332
330
2
100
AcDbEntity
  8
HIDS
100
AcDbCircle
 10
618.804336151181
 20
499.4744109531434
 30
0.0
 40
2.0
100
AcDbArc
 50
90.0
 51
135.0000000000092
  0
LINE
  5
2333
330
2
100
AcDbEntity
  8
HIDS
100
AcDbLine
 10
618.804336151181
 20
501.4744109531434
 30
0.0
 11
620.9759090264252
 21
501.4744109531553
 31
0.0
  0
LINE
  5
2334
330
2
100
AcDbEntity
  8
0
100
AcDbLine
 10
709.7159090264405
 20
458.9744109531552
 30
0.0
 11
709.2533850335322
 21
405.9744109531552
 31
0.0
  0
LINE
  5
2335
330
2
100
AcDbEntity
  8
0
100
AcDbLine
 10
729.4808440068119
 20
458.9744109531552
 30
0.0
 11
730.4249081183335
 21
422.9220570565393
 31
0.0
  0
LINE
  5
2336
330
2
100
AcDbEntity
  8
0
100
AcDbLine
 10
698.9759090264416
 20
458.9744109531552
 30
0.0
 11
698.9759090264416
 21
407.474410953157
 31
0.0
  0
LINE
  5
2337
330
2
100
AcDbEntity
  8
0
100
AcDbLine
 10
679.5160082036164
 20
487.9744109531552
 30
0.0
 11
679.5160082036128
 21
407.474410953157
 31
0.0
  0
LINE
  5
2338
330
2
100
AcDbEntity
  8
0
100
AcDbLine
 10
701.7141029926971
 20
488.4656844176577
 30
0.0
 11
701.7141029926971
 21
407.474410953157
 31
0.0
  0
LINE
  5
2339
330
2
100
AcDbEntity
  8
0
100
AcDbLine
 10
739.4759310264418
 20
507.9744109531577
 30
0.0
 11
739.4759310264381
 21
409.9744109531573
 31
0.0
  0
LINE
  5
233B
330
2
100
AcDbEntity
  8
0
100
AcDbLine
 10
638.4358098492667
 20
487.9744109531552
 30
0.0
 11
638.4358098492667
 21
407.474410953157
 31
0.0
  0
ARC
  5
2342
330
2
100
AcDbEntity
  8
0
100
AcDbCircle
 10
691.0445314768277
 20
388.9744109531538
 30
0.0
 40
2.0
100
AcDbArc
 50
270.0
 51
357.9999999999964
  0
LINE
  5
2347
330
2
100
AcDbEntity
  8
0
100
AcDbLine
 10
693.3973956949013
 20
399.044209946559
 30
0.0
 11
693.0433131308656
 21
388.9046119597492
 31
0.0
  0
ARC
  5
2348
330
2
100
AcDbEntity
  8
0
100
AcDbCircle
 10
695.3961773489392
 20
398.9744109531538
 30
0.0
 40
2.0
100
AcDbArc
 50
90.0
 51
177.9999999999963
  0
LINE
  5
2349
330
2
100
AcDbEntity
  8
0
100
AcDbLine
 10
703.9759090264416
 20
405.9744109531552
 30
0.0
 11
703.9759090264416
 21
400.9744109531552
 31
0.0
  0
ARC
  5
234A
330
2
100
AcDbEntity
  8
0
100
AcDbCircle
 10
734.2647076914328
 20
415.9744109531552
 30
0.0
 40
5.0
100
AcDbArc
 50
1.499999999989714
 51
90.0
  0
LINE
  5
234B
330
2
100
AcDbEntity
  8
0
100
AcDbLine
 10
732.4242227682844
 20
420.9744109531552
 30
0.0
 11
734.2647076914328
 21
420.9744109531552
 31
0.0
  0
ARC
  5
234C
330
2
100
AcDbEntity
  8
0
100
AcDbCircle
 10
714.410659045695
 20
423.9744109531552
 30
0.0
 40
5.0
100
AcDbArc
 50
90.0
 51
179.5000000000084
  0
LINE
  5
234D
330
2
100
AcDbEntity
  8
0
100
AcDbLine
 10
711.3930910749569
 20
423.9744109531552
 30
0.0
 11
728.5512394220751
 21
423.9744109531557
 31
0.0
  0
ARC
  5
234E
330
2
100
AcDbEntity
  8
0
100
AcDbCircle
 10
711.3930910749569
 20
421.9744109531552
 30
0.0
 40
2.0
100
AcDbArc
 50
90.0
 51
179.5000000000084
  0
LINE
  5
234F
330
2
100
AcDbEntity
  8
0
100
AcDbLine
 10
714.410659045695
 20
428.9744109531552
 30
0.0
 11
725.3956372992798
 21
428.9744109531555
 31
0.0
  0
ARC
  5
2350
330
2
100
AcDbEntity
  8
0
100
AcDbCircle
 10
725.3956372992798
 20
423.9744109531555
 30
0.0
 40
5.0
100
AcDbArc
 50
1.500000000015761
 51
90.0
  0
ARC
  5
2351
330
2
100
AcDbEntity
  8
0
100
AcDbCircle
 10
732.4242227682844
 20
422.9744109531552
 30
0.0
 40
2.0
100
AcDbArc
 50
181.5000000000157
 51
270.0
  0
ARC
  5
2352
330
2
100
AcDbEntity
  8
0
100
AcDbCircle
 10
728.5512394220751
 20
421.9744109531557
 30
0.0
 40
2.0
100
AcDbArc
 50
14.47751218589944
 51
90.0
  0
ARC
  5
2353
330
2
100
AcDbEntity
  8
0
100
AcDbCircle
 10
741.4759310264381
 20
409.974410953157
 30
0.0
 40
2.0
100
AcDbArc
 50
180.0
 51
270.0
  0
LINE
  5
2354
330
2
100
AcDbEntity
  8
0
100
AcDbLine
 10
754.9759310264418
 20
407.9744109531572
 30
0.0
 11
741.4759310264381
 21
407.9744109531571
 31
0.0
  0
LINE
  5
2355
330
2
100
AcDbEntity
  8
HIDS
100
AcDbLine
 10
704.890122588804
 20
496.5601973907828
 30
0.0
 11
700.5616954640737
 21
500.8886245155158
 31
0.0
  0
LINE
  5
2356
330
2
100
AcDbEntity
  8
0
100
AcDbLine
 10
706.9759090264561
 20
497.4744109531548
 30
0.0
 11
696.9759090264561
 21
497.4744109531548
 31
0.0
  0
LINE
  5
2357
330
2
100
AcDbEntity
  8
0
100
AcDbLine
 10
706.2830887034289
 20
503.4744109531548
 30
0.0
 11
697.6687293494834
 21
503.4744109531552
 31
0.0
  0
LINE
  5
2358
330
2
100
AcDbEntity
  8
0
100
AcDbLine
 10
706.9759090264561
 20
503.0744109531552
 30
0.0
 11
696.9759090264561
 21
503.0744109531546
 31
0.0
  0
LINE
  5
2359
330
2
100
AcDbEntity
  8
0
100
AcDbLine
 10
700.7356435444381
 20
458.9744109531554
 30
0.0
 11
709.7159090264405
 21
458.9744109531552
 31
0.0
  0
LINE
  5
235A
330
2
100
AcDbEntity
  8
0
100
AcDbLine
 10
698.9890019872238
 20
488.4744109531588
 30
0.0
 11
699.7359862194608
 21
459.9482340048475
 31
0.0
  0
ARC
  5
235B
330
2
100
AcDbEntity
  8
0
100
AcDbCircle
 10
700.7356435444363
 20
459.9744109531554
 30
0.0
 40
1.0
100
AcDbArc
 50
181.5000000000157
 51
270.0
  0
LINE
  5
235C
330
2
100
AcDbEntity
  8
0
100
AcDbLine
 10
700.7356435444381
 20
458.9744109531554
 30
0.0
 11
700.7356435444363
 21
458.9744109531554
 31
0.0
  0
ARC
  5
235D
330
2
100
AcDbEntity
  8
HIDS
100
AcDbCircle
 10
699.1474819017004
 20
499.4744109531434
 30
0.0
 40
2.0
100
AcDbArc
 50
44.99999999999078
 51
90.0
  0
LINE
  5
235E
330
2
100
AcDbEntity
  8
0
100
AcDbLine
 10
696.9759090264561
 20
497.4744109531548
 30
0.0
 11
696.9759090264561
 21
503.0744109531546
 31
0.0
  0
LINE
  5
235F
330
2
100
AcDbEntity
  8
0
100
AcDbLine
 10
696.9759090264561
 20
503.0744109531546
 30
0.0
 11
697.6687293494834
 21
503.4744109531548
 31
0.0
  0
LINE
  5
2360
330
2
100
AcDbEntity
  8
0
100
AcDbLine
 10
696.9759090264561
 20
497.4744109531548
 30
0.0
 11
696.9759090264561
 21
495.9744109531552
 31
0.0
  0
LINE
  5
2361
330
2
100
AcDbEntity
  8
HIDS
100
AcDbLine
 10
699.1474819017004
 20
501.4744109531434
 30
0.0
 11
696.9759090264561
 21
501.4744109531553
 31
0.0
  0
LINE
  5
2362
330
2
100
AcDbEntity
  8
0
100
AcDbLine
 10
691.9759090264416
 20
505.2744109531459
 30
0.0
 11
691.9759090264398
 21
501.9744109531461
 31
0.0
  0
LINE
  5
2363
330
2
100
AcDbEntity
  8
0
100
AcDbLine
 10
693.9759090264198
 20
501.9744109531662
 30
0.0
 11
694.4759090264398
 21
501.4744109531452
 31
0.0
  0
LINE
  5
2364
330
2
100
AcDbEntity
  8
0
100
AcDbLine
 10
691.2759090264408
 20
507.2744109531463
 30
0.0
 11
691.2759090264408
 21
505.6744109531459
 31
0.0
  0
LINE
  5
2365
330
2
100
AcDbEntity
  8
0
100
AcDbLine
 10
691.7759090264373
 20
505.4744109531506
 30
0.0
 11
691.9759090264416
 21
505.2744109531459
 31
0.0
  0
LINE
  5
2366
330
2
100
AcDbEntity
  8
0
100
AcDbLine
 10
691.9759090264416
 20
508.9744109531461
 30
0.0
 11
691.3985587572534
 21
509.9744109531461
 31
0.0
  0
LINE
  5
2367
330
2
100
AcDbEntity
  8
0
100
AcDbLine
 10
691.9759090264416
 20
508.9744109531461
 30
0.0
 11
691.9759090264416
 21
507.674410953146
 31
0.0
  0
ARC
  5
2368
330
2
100
AcDbEntity
  8
0
100
AcDbCircle
 10
691.7759090264409
 20
507.674410953146
 30
0.0
 40
0.2
100
AcDbArc
 50
270.0
 51
0.0
  0
ARC
  5
2369
330
2
100
AcDbEntity
  8
0
100
AcDbCircle
 10
691.4759090264416
 20
507.2744109531458
 30
0.0
 40
0.2
100
AcDbArc
 50
90.0
 51
179.9999999999479
  0
ARC
  5
236A
330
2
100
AcDbEntity
  8
0
100
AcDbCircle
 10
691.4759090264416
 20
505.6744109531459
 30
0.0
 40
0.2
100
AcDbArc
 50
179.9999999999479
 51
270.0
  0
LINE
  5
236B
330
2
100
AcDbEntity
  8
0
100
AcDbLine
 10
709.7159090264405
 20
458.9744109531552
 30
0.0
 11
709.458466426614
 21
488.474410953157
 31
0.0
  0
LINE
  5
236C
330
2
100
AcDbEntity
  8
CENTER
100
AcDbLine
 10
701.9759090264561
 20
508.4744109531595
 30
0.0
 11
701.9759090264561
 21
474.909085167895
 31
0.0
  0
LINE
  5
236D
330
2
100
AcDbEntity
  8
0
100
AcDbLine
 10
729.4808440068065
 20
458.9744109531552
 30
0.0
 11
730.4249081183335
 21
495.0267648497709
 31
0.0
  0
ARC
  5
236E
330
2
100
AcDbEntity
  8
0
100
AcDbCircle
 10
725.3694513777119
 20
492.9744109531593
 30
0.0
 40
5.0
100
AcDbArc
 50
270.0
 51
358.4999999999841
  0
ARC
  5
236F
330
2
100
AcDbEntity
  8
0
100
AcDbCircle
 10
711.6767142781546
 20
454.4744109531555
 30
0.0
 40
2.0
100
AcDbArc
 50
90.0
 51
179.5000000000084
  0
ARC
  5
2370
330
2
100
AcDbEntity
  8
0
100
AcDbCircle
 10
711.7578134884407
 20
463.4744109531552
 30
0.0
 40
2.0
100
AcDbArc
 50
179.5000000000084
 51
270.0
  0
LINE
  5
2371
330
2
100
AcDbEntity
  8
0
100
AcDbLine
 10
711.7578134884407
 20
461.4744109531552
 30
0.0
 11
727.5979950688871
 21
461.4744109531552
 31
0.0
  0
LINE
  5
2372
330
2
100
AcDbEntity
  8
0
100
AcDbLine
 10
711.6767142781546
 20
456.4744109531554
 30
0.0
 11
727.5979950688926
 21
456.4744109531554
 31
0.0
  0
ARC
  5
2373
330
2
100
AcDbEntity
  8
0
100
AcDbCircle
 10
727.5979950688926
 20
454.4744109531555
 30
0.0
 40
2.0
100
AcDbArc
 50
1.500000000015761
 51
90.0
  0
ARC
  5
2374
330
2
100
AcDbEntity
  8
0
100
AcDbCircle
 10
727.5979950688871
 20
463.4744109531552
 30
0.0
 40
2.0
100
AcDbArc
 50
270.0
 51
358.4999999999841
  0
ARC
  5
2375
330
2
100
AcDbEntity
  8
0
100
AcDbCircle
 10
734.2647076914328
 20
501.9744109531557
 30
0.0
 40
5.0
100
AcDbArc
 50
270.0
 51
358.4999999999841
  0
LINE
  5
2376
330
2
100
AcDbEntity
  8
0
100
AcDbLine
 10
732.4242227682844
 20
496.9744109531553
 30
0.0
 11
734.2647076914328
 21
496.9744109531553
 31
0.0
  0
LINE
  5
2377
330
2
100
AcDbEntity
  8
0
100
AcDbLine
 10
725.3694513777119
 20
487.9744109531593
 30
0.0
 11
709.9584664266095
 21
487.9744109531593
 31
0.0
  0
LINE
  5
2378
330
2
100
AcDbEntity
  8
0
100
AcDbLine
 10
709.3621225429825
 20
493.9918640241549
 30
0.0
 11
709.4102726264756
 21
488.4744109531598
 31
0.0
  0
ARC
  5
2379
330
2
100
AcDbEntity
  8
0
100
AcDbCircle
 10
707.3621986968539
 20
493.9744109531575
 30
0.0
 40
2.0
100
AcDbArc
 50
0.5000000000176009
 51
90.0
  0
ARC
  5
237A
330
2
100
AcDbEntity
  8
HIDS
100
AcDbCircle
 10
706.3043361511773
 20
497.9744109531552
 30
0.0
 40
2.0
100
AcDbArc
 50
224.9999999999908
 51
270.0
  0
LINE
  5
237B
330
2
100
AcDbEntity
  8
0
100
AcDbLine
 10
706.9759090264561
 20
497.4744109531548
 30
0.0
 11
706.9759090264561
 21
503.0744109531546
 31
0.0
  0
LINE
  5
237C
330
2
100
AcDbEntity
  8
0
100
AcDbLine
 10
706.9759090264561
 20
503.0744109531546
 30
0.0
 11
706.2830887034289
 21
503.4744109531548
 31
0.0
  0
LINE
  5
237D
330
2
100
AcDbEntity
  8
0
100
AcDbLine
 10
706.9759090264561
 20
497.4744109531552
 30
0.0
 11
706.9759090264561
 21
495.9744109531552
 31
0.0
  0
LINE
  5
237E
330
2
100
AcDbEntity
  8
0
100
AcDbLine
 10
709.9584664266095
 20
487.9744109531593
 30
0.0
 11
709.4584664266086
 21
488.4744109531598
 31
0.0
  0
ARC
  5
237F
330
2
100
AcDbEntity
  8
0
100
AcDbCircle
 10
732.4242227682844
 20
494.9744109531552
 30
0.0
 40
2.0
100
AcDbArc
 50
90.0
 51
178.5000000000102
  0
ARC
  5
2380
330
2
100
AcDbEntity
  8
0
100
AcDbCircle
 10
741.4759310264417
 20
507.9744109531577
 30
0.0
 40
2.0
100
AcDbArc
 50
90.0
 51
180.0
  0
LINE
  5
2381
330
2
100
AcDbEntity
  8
0
100
AcDbLine
 10
754.9759310264418
 20
509.9744109531575
 30
0.0
 11
741.4759310264417
 21
509.9744109531577
 31
0.0
  0
LINE
  5
25E9
330
2
100
AcDbEntity
  8
0
100
AcDbLine
 10
488.837731189506
 20
126.1466190151512
 30
0.0
 11
488.837731189506
 21
147.1466190151533
 31
0.0
  0
LINE
  5
25EA
330
2
100
AcDbEntity
  8
0
100
AcDbLine
 10
448.837731189506
 20
148.6466032610616
 30
0.0
 11
448.8382957227981
 21
124.6466032738076
 31
0.0
  0
ARC
  5
25EB
330
2
100
AcDbEntity
  8
0
100
AcDbCircle
 10
456.8378367004211
 20
136.6465580983971
 30
0.0
 40
3.0
100
AcDbArc
 50
90.0
 51
270.0
  0
LINE
  5
25EC
330
2
100
AcDbEntity
  8
0
100
AcDbLine
 10
447.837731189506
 20
152.8578829638024
 30
0.0
 11
447.837731189506
 21
120.435233232992
 31
0.0
  0
LINE
  5
25EE
330
2
100
AcDbEntity
  8
0
100
AcDbLine
 10
448.837731189506
 20
125.6466032610598
 30
0.0
 11
488.337731189506
 21
125.6466188182252
 31
0.0
  0
LINE
  5
25EF
330
2
100
AcDbEntity
  8
0
100
AcDbLine
 10
456.8378367004211
 20
133.6465580983971
 30
0.0
 11
488.8378367004211
 21
133.6465580983971
 31
0.0
  0
LINE
  5
25F0
330
2
100
AcDbEntity
  8
0
100
AcDbLine
 10
448.837731189506
 20
124.6465129357328
 30
0.0
 11
447.837731189506
 21
124.0691626665432
 31
0.0
  0
ARC
  5
25F1
330
2
100
AcDbEntity
  8
0
100
AcDbCircle
 10
447.337731189506
 20
120.435233232992
 30
0.0
 40
0.5
100
AcDbArc
 50
300.0000000000005
 51
0.0
  0
ARC
  5
25F2
330
2
100
AcDbEntity
  8
0
100
AcDbCircle
 10
446.4358926597328
 20
121.6466073226311
 30
0.0
 40
2.0
100
AcDbArc
 50
281.5907202811201
 51
300.0000000000005
  0
LINE
  5
25F3
330
2
100
AcDbEntity
  8
0
100
AcDbLine
 10
447.587731189506
 20
120.0022205310998
 30
0.0
 11
447.4358926597329
 21
119.9145565150622
 31
0.0
  0
LINE
  5
25F4
330
2
100
AcDbEntity
  8
0
100
AcDbLine
 10
488.837731189506
 20
126.1466190151512
 30
0.0
 11
488.337731189506
 21
125.6466188182252
 31
0.0
  0
LINE
  5
25F5
330
2
100
AcDbEntity
  8
0
100
AcDbLine
 10
488.337731189506
 20
133.6465580983971
 30
0.0
 11
488.337731189506
 21
125.6466188182252
 31
0.0
  0
LINE
  5
25F6
330
2
100
AcDbEntity
  8
0
100
AcDbLine
 10
488.337731189506
 20
147.6466188182271
 30
0.0
 11
448.837731189506
 21
147.6466032610615
 31
0.0
  0
LINE
  5
25F7
330
2
100
AcDbEntity
  8
0
100
AcDbLine
 10
456.8378367004211
 20
139.6465580983971
 30
0.0
 11
488.8378367004211
 21
139.6465580983971
 31
0.0
  0
ARC
  5
25F8
330
2
100
AcDbEntity
  8
0
100
AcDbCircle
 10
447.337731189506
 20
152.8578829638024
 30
0.0
 40
0.5
100
AcDbArc
 50
0.0
 51
59.99999999999946
  0
ARC
  5
25F9
330
2
100
AcDbEntity
  8
0
100
AcDbCircle
 10
446.4358926597328
 20
151.6465088741633
 30
0.0
 40
2.0
100
AcDbArc
 50
59.99999999999946
 51
78.40927971887985
  0
LINE
  5
25FA
330
2
100
AcDbEntity
  8
0
100
AcDbLine
 10
447.587731189506
 20
153.2908956656946
 30
0.0
 11
447.4358926597329
 21
153.3785596817322
 31
0.0
  0
LINE
  5
25FB
330
2
100
AcDbEntity
  8
0
100
AcDbLine
 10
448.837731189506
 20
148.6466032610616
 30
0.0
 11
447.837731189506
 21
149.2239535302512
 31
0.0
  0
LINE
  5
25FC
330
2
100
AcDbEntity
  8
0
100
AcDbLine
 10
488.337731189506
 20
147.6466188182271
 30
0.0
 11
488.837731189506
 21
147.1466190151533
 31
0.0
  0
LINE
  5
25FD
330
2
100
AcDbEntity
  8
0
100
AcDbLine
 10
488.337731189506
 20
147.6466188182271
 30
0.0
 11
488.337731189506
 21
139.6465580983971
 31
0.0
  0
ARC
  5
2600
330
2
100
AcDbEntity
  8
0
100
AcDbCircle
 10
658.9759090264374
 20
136.6465580983996
 30
0.0
 40
11.00006071982613
100
AcDbArc
 50
195.8265304777667
 51
164.1734695222332
  0
ARC
  5
2601
330
2
100
AcDbEntity
  8
0
100
AcDbCircle
 10
658.9759090264374
 20
136.6465580983996
 30
0.0
 40
12.00004516266062
100
AcDbArc
 50
194.4774565092195
 51
165.5225434907804
  0
LINE
  5
2602
330
2
100
AcDbEntity
  8
0
100
AcDbLine
 10
651.4759697462636
 20
139.6465580983996
 30
0.0
 11
651.4759697462636
 21
133.6465580983996
 31
0.0
  0
LINE
  5
2603
330
2
100
AcDbEntity
  8
0
100
AcDbLine
 10
645.4759697462637
 20
139.6465580983996
 30
0.0
 11
645.4759697462637
 21
133.6465580983996
 31
0.0
  0
ARC
  5
2604
330
2
100
AcDbEntity
  8
0
100
AcDbCircle
 10
658.9759090264374
 20
136.6465580983996
 30
0.0
 40
12.57739543185027
100
AcDbArc
 50
193.7993919727373
 51
166.2006080272626
  0
CIRCLE
  5
2605
330
2
100
AcDbEntity
  8
0
100
AcDbCircle
 10
658.9759090264374
 20
136.6465580983996
 30
0.0
 40
16.99995077575704
  0
LINE
  5
2608
330
2
100
AcDbEntity
  8
0
100
AcDbLine
 10
645.4759697462637
 20
133.6465580983996
 30
0.0
 11
651.4759697462636
 21
133.6465580983996
 31
0.0
  0
LINE
  5
2609
330
2
100
AcDbEntity
  8
0
100
AcDbLine
 10
645.4759697462637
 20
139.6465580983996
 30
0.0
 11
651.4759697462636
 21
139.6465580983996
 31
0.0
  0
LINE
  5
260A
330
2
100
AcDbEntity
  8
0
100
AcDbLine
 10
969.5160087911503
 20
124.6465129357334
 30
0.0
 11
969.5154442578582
 21
148.6465129229869
 31
0.0
  0
LINE
  5
260B
330
2
100
AcDbEntity
  8
0
100
AcDbLine
 10
929.5160087911504
 20
147.1464971816549
 30
0.0
 11
929.5160087911504
 21
126.1464971816417
 31
0.0
  0
LINE
  5
260C
330
2
100
AcDbEntity
  8
0
100
AcDbLine
 10
930.0160087911503
 20
125.6464973785674
 30
0.0
 11
930.0160087911494
 21
147.6464973785809
 31
0.0
  0
LINE
  5
260D
330
2
100
AcDbEntity
  8
0
100
AcDbLine
 10
970.5160087911504
 20
120.4352332329923
 30
0.0
 11
970.5160087911504
 21
152.8578829638032
 31
0.0
  0
LINE
  5
2610
330
2
100
AcDbEntity
  8
0
100
AcDbLine
 10
930.0160087911503
 20
125.6464973785674
 30
0.0
 11
969.5160087911503
 21
125.6465129357334
 31
0.0
  0
LINE
  5
2611
330
2
100
AcDbEntity
  8
0
100
AcDbLine
 10
930.0160087911503
 20
125.6464973785674
 30
0.0
 11
929.5160087911504
 21
126.1464971816417
 31
0.0
  0
ARC
  5
2612
330
2
100
AcDbEntity
  8
0
100
AcDbCircle
 10
971.0160087911503
 20
120.4352332329923
 30
0.0
 40
0.5
100
AcDbArc
 50
180.0
 51
239.9999999999994
  0
ARC
  5
2613
330
2
100
AcDbEntity
  8
0
100
AcDbCircle
 10
971.9178473209236
 20
121.6466073226316
 30
0.0
 40
2.0
100
AcDbArc
 50
239.9999999999994
 51
258.4092797188798
  0
LINE
  5
2614
330
2
100
AcDbEntity
  8
0
100
AcDbLine
 10
969.5160087911503
 20
124.6465129357334
 30
0.0
 11
970.5160087911504
 21
124.0691626665434
 31
0.0
  0
LINE
  5
2615
330
2
100
AcDbEntity
  8
0
100
AcDbLine
 10
970.7660087911504
 20
120.0022205311002
 30
0.0
 11
970.9178473209234
 21
119.9145565150625
 31
0.0
  0
LINE
  5
2616
330
2
100
AcDbEntity
  8
0
100
AcDbLine
 10
969.5160087911503
 20
147.6465129357352
 30
0.0
 11
930.0160087911503
 21
147.6464973785809
 31
0.0
  0
LINE
  5
2617
330
2
100
AcDbEntity
  8
0
100
AcDbLine
 10
930.0160087911503
 20
147.6464973785809
 30
0.0
 11
929.5160087911504
 21
147.1464971816549
 31
0.0
  0
ARC
  5
2618
330
2
100
AcDbEntity
  8
0
100
AcDbCircle
 10
971.0160087911503
 20
152.8578829638032
 30
0.0
 40
0.5
100
AcDbArc
 50
120.0000000000005
 51
180.0
  0
ARC
  5
2619
330
2
100
AcDbEntity
  8
0
100
AcDbCircle
 10
971.9178473209236
 20
151.6465088741638
 30
0.0
 40
2.0
100
AcDbArc
 50
101.5907202811201
 51
120.0000000000005
  0
LINE
  5
261A
330
2
100
AcDbEntity
  8
0
100
AcDbLine
 10
970.7660087911504
 20
153.2908956656952
 30
0.0
 11
970.9178473209234
 21
153.3785596817329
 31
0.0
  0
LINE
  5
261B
330
2
100
AcDbEntity
  8
0
100
AcDbLine
 10
969.5160087911503
 20
148.646603261062
 30
0.0
 11
970.5160087911504
 21
149.2239535302511
 31
0.0
  0
LINE
  5
261E
330
2
100
AcDbEntity
  8
0
100
AcDbLine
 10
669.9759697462717
 20
345.4744109531556
 30
0.0
 11
669.9759541891056
 21
384.9744109531556
 31
0.0
  0
LINE
  5
261F
330
2
100
AcDbEntity
  8
0
100
AcDbLine
 10
645.4759697462717
 20
379.9743054422406
 30
0.0
 11
645.4759697462717
 21
344.9744109531557
 31
0.0
  0
LINE
  5
2620
330
2
100
AcDbEntity
  8
0
100
AcDbLine
 10
648.3928406698745
 20
376.9743054422406
 30
0.0
 11
648.3928406698745
 21
344.9744109531557
 31
0.0
  0
LINE
  5
2621
330
2
100
AcDbEntity
  8
0
100
AcDbLine
 10
645.4759697462717
 20
344.9744109531557
 30
0.0
 11
669.4759699431974
 21
344.9744109531557
 31
0.0
  0
LINE
  5
2622
330
2
100
AcDbEntity
  8
0
100
AcDbLine
 10
669.9759697462717
 20
345.4744109531556
 30
0.0
 11
669.4759699431974
 21
344.9744109531557
 31
0.0
  0
LINE
  5
2623
330
2
100
AcDbEntity
  8
0
100
AcDbLine
 10
669.9759697462717
 20
345.4744109531556
 30
0.0
 11
648.3928406698745
 21
345.4744109531556
 31
0.0
  0
LINE
  5
2624
330
2
100
AcDbEntity
  8
0
100
AcDbLine
 10
675.1872338918468
 20
385.9744109531557
 30
0.0
 11
642.7645841610359
 21
385.9744109531557
 31
0.0
  0
LINE
  5
2625
330
2
100
AcDbEntity
  8
0
100
AcDbLine
 10
670.9759541891056
 20
384.9744109531556
 30
0.0
 11
671.5533044582956
 21
385.9744109531557
 31
0.0
  0
LINE
  5
2626
330
2
100
AcDbEntity
  8
0
100
AcDbLine
 10
647.9759541891038
 20
384.9744109531556
 30
0.0
 11
647.9759561584054
 21
379.9743054422406
 31
0.0
  0
LINE
  5
2627
330
2
100
AcDbEntity
  8
0
100
AcDbLine
 10
670.9759541891056
 20
384.9744109531556
 30
0.0
 11
646.9759542018522
 21
384.9738464198635
 31
0.0
  0
LINE
  5
2628
330
2
100
AcDbEntity
  8
0
100
AcDbLine
 10
646.9758638637771
 20
384.9744109531556
 30
0.0
 11
646.398513594588
 21
385.9744109531557
 31
0.0
  0
ARC
  5
2629
330
2
100
AcDbEntity
  8
0
100
AcDbCircle
 10
642.7645841610359
 20
386.4744109531557
 30
0.0
 40
0.5
100
AcDbArc
 50
210.0000000000207
 51
270.0
  0
LINE
  5
262A
330
2
100
AcDbEntity
  8
0
100
AcDbLine
 10
642.3315714591439
 20
386.2244109531557
 30
0.0
 11
642.2439074431061
 21
386.3762494829288
 31
0.0
  0
LINE
  5
262B
330
2
100
AcDbEntity
  8
0
100
AcDbLine
 10
647.9759561584081
 20
379.9743054422406
 30
0.0
 11
645.4759697462717
 21
379.9743054422406
 31
0.0
  0
LINE
  5
262C
330
2
100
AcDbEntity
  8
0
100
AcDbLine
 10
647.9759561584073
 20
379.9743054422406
 30
0.0
 11
648.3928406698745
 21
376.9743054422406
 31
0.0
  0
ARC
  5
262D
330
2
100
AcDbEntity
  8
0
100
AcDbCircle
 10
643.9759582506752
 20
387.3762494829288
 30
0.0
 40
2.0
100
AcDbArc
 50
191.5907202811233
 51
210.0000000000207
  0
ARC
  5
262E
330
2
100
AcDbEntity
  8
0
100
AcDbCircle
 10
675.1872338918468
 20
386.4744109531557
 30
0.0
 40
0.5
100
AcDbArc
 50
270.0
 51
329.9999999999792
  0
LINE
  5
262F
330
2
100
AcDbEntity
  8
0
100
AcDbLine
 10
675.6202465937389
 20
386.2244109531557
 30
0.0
 11
675.7079106097766
 21
386.3762494829288
 31
0.0
  0
ARC
  5
2630
330
2
100
AcDbEntity
  8
0
100
AcDbCircle
 10
673.9758598022075
 20
387.3762494829288
 30
0.0
 40
2.0
100
AcDbArc
 50
329.9999999999792
 51
348.4092797188766
  0
LINE
  5
294C
330
2
100
AcDbEntity
  8
0
100
AcDbLine
 10
345.337731189506
 20
157.1866572755887
 30
0.0
 11
339.8202781185104
 21
157.1866572755887
 31
0.0
  0
LINE
  5
294D
330
2
100
AcDbEntity
  8
0
100
AcDbLine
 10
345.337731189506
 20
116.1064589212054
 30
0.0
 11
339.8202781185104
 21
116.1064589212054
 31
0.0
  0
LINE
  5
294E
330
2
100
AcDbEntity
  8
0
100
AcDbLine
 10
345.337731189506
 20
96.64655809837981
 30
0.0
 11
339.8202781185104
 21
96.64655809837981
 31
0.0
  0
LINE
  5
294F
330
2
100
AcDbEntity
  8
0
100
AcDbLine
 10
345.3377311895051
 20
176.6465580984143
 30
0.0
 11
339.8202781185104
 21
176.6465580984143
 31
0.0
  0
LINE
  5
2950
330
2
100
AcDbEntity
  8
0
100
AcDbLine
 10
345.3377311895042
 20
179.6465580984118
 30
0.0
 11
339.8202781185104
 21
179.6465580984118
 31
0.0
  0
LINE
  5
2951
330
2
100
AcDbEntity
  8
0
100
AcDbLine
 10
345.337731189506
 20
93.64655809838231
 30
0.0
 11
339.8202781185104
 21
93.64655809838231
 31
0.0
  0
CIRCLE
  5
2977
330
2
100
AcDbEntity
  8
0
100
AcDbCircle
 10
658.9759090264329
 20
136.6465580984053
 30
0.0
 40
26.57735026918937
  0
ENDSEC
  0
SECTION
  2
OBJECTS
  0
DICTIONARY
  5
7
330
0
100
AcDbDictionary
  3
ACAD_COLOR
350
1CBF
  3
ACAD_GROUP
350
75
  3
ACAD_LAYOUT
350
61
  3
ACAD_MATERIAL
350
1C95
  3
ACAD_MLEADERSTYLE
350
1CE4
  3
ACAD_MLINESTYLE
350
76
  3
ACAD_PLOTSETTINGS
350
77
  3
ACAD_PLOTSTYLENAME
350
6
  3
ACAD_SCALELIST
350
1CC2
  3
ACAD_TABLESTYLE
350
1CC0
  3
ACAD_VISUALSTYLE
350
1CAE
  3
ACADDIM
350
480
  3
ACDB_RECOMPOSE_DATA
350
1D22
  3
ACDBHEADERROUNDTRIPXREC
350
29BA
  3
ACDBVARIABLEDICTIONARY
350
102
  3
DWGPROPS
350
2987
  0
DICTIONARY
  5
1D2B
330
6E
100
AcDbDictionary
280
     1
  3
ACAD_XREC_ROUNDTRIP
360
298E
  0
DICTIONARY
  5
ADC
330
66
100
AcDbDictionary
280
     1
  3
ACAD_LAYERSTATES
360
ADD
  0
DICTIONARY
  5
1D10
330
5E
100
AcDbDictionary
280
     1
  3
ACAD_XREC_ROUNDTRIP
360
298A
  3
ADSK_XREC_LAYER_RECONCILED
360
1D11
  0
DICTIONARY
  5
1D12
330
3E
100
AcDbDictionary
280
     1
  3
ACAD_XREC_ROUNDTRIP
360
2989
  3
ADSK_XREC_LAYER_RECONCILED
360
1D13
  0
DICTIONARY
  5
1D18
330
2B5
100
AcDbDictionary
280
     1
  3
ACAD_XREC_ROUNDTRIP
360
2994
  3
ADSK_XREC_LAYER_RECONCILED
360
1D19
  0
DICTIONARY
  5
1D1A
330
2BA
100
AcDbDictionary
280
     1
  3
ACAD_XREC_ROUNDTRIP
360
2995
  3
ADSK_XREC_LAYER_RECONCILED
360
1D1B
  0
DICTIONARY
  5
1D1E
330
3FA
100
AcDbDictionary
280
     1
  3
ACAD_XREC_ROUNDTRIP
360
2997
  3
ADSK_XREC_LAYER_RECONCILED
360
1D1F
  0
DICTIONARY
  5
29DB
330
2
100
AcDbDictionary
280
     1
  3
ACAD_LAYOUTSELFREF
360
29DC
  0
DICTIONARY
  5
29DD
330
29B4
100
AcDbDictionary
280
     1
  3
ACAD_LAYOUTSELFREF
360
29DE
  0
DICTIONARY
  5
1CBF
102
{ACAD_REACTORS
330
7
102
}
330
7
100
AcDbDictionary
  0
DICTIONARY
  5
75
102
{ACAD_REACTORS
330
7
102
}
330
7
100
AcDbDictionary
  0
DICTIONARY
  5
61
102
{ACAD_REACTORS
330
7
102
}
330
7
100
AcDbDictionary
  0
DICTIONARY
  5
1C95
102
{ACAD_REACTORS
330
7
102
}
330
7
100
AcDbDictionary
  3
BYBLOCK
350
1C9E
  3
BYLAYER
350
1C96
  3
GLOBAL
350
1CA6
  0
DICTIONARY
  5
1CE4
102
{ACAD_REACTORS
330
7
102
}
330
7
100
AcDbDictionary
  3
STANDARD
350
1CE5
  0
DICTIONARY
  5
76
102
{ACAD_REACTORS
330
7
102
}
330
7
100
AcDbDictionary
  3
STANDARD
350
78
  0
DICTIONARY
  5
77
102
{ACAD_REACTORS
330
7
102
}
330
7
100
AcDbDictionary
  0
ACDBDICTIONARYWDFLT
  5
6
102
{ACAD_REACTORS
330
7
102
}
330
7
100
AcDbDictionary
281
     1
  3
Normal
350
5
100
AcDbDictionaryWithDefault
340
5
  0
DICTIONARY
  5
1CC2
102
{ACAD_REACTORS
330
7
102
}
330
7
100
AcDbDictionary
  3
A0
350
1CC3
  3
A1
350
1CC4
  3
A2
350
1CC5
  3
A3
350
1CC6
  3
A4
350
1CC7
  3
A5
350
1CC8
  3
A6
350
1CC9
  3
A7
350
1CCA
  3
A8
350
1CCB
  3
A9
350
1CCC
  3
B0
350
1CCD
  3
B1
350
1CCE
  3
B2
350
1CCF
  3
B3
350
1CD0
  3
B4
350
1CD1
  3
B5
350
1CD2
  3
B6
350
1CD3
  3
B7
350
1CD4
  3
B8
350
1CD5
  3
B9
350
1CD6
  3
C0
350
1CD7
  3
C1
350
1CD8
  3
C2
350
1CD9
  3
C3
350
1CDA
  3
C4
350
1CDB
  3
C5
350
1CDC
  3
C6
350
1CDD
  3
C7
350
1CDE
  3
C8
350
1CDF
  3
C9
350
1CE0
  3
D0
350
1CE1
  3
D1
350
1CE2
  3
D2
350
1CE3
  0
DICTIONARY
  5
1CC0
102
{ACAD_REACTORS
330
7
102
}
330
7
100
AcDbDictionary
  3
STANDARD
350
1CC1
  0
DICTIONARY
  5
1CAE
102
{ACAD_REACTORS
330
7
102
}
330
7
100
AcDbDictionary
  3
2DWIREFRAME
350
1CB4
  3
3D_HIDDEN
350
1CB6
  3
3DWIREFRAME
350
1CB5
  3
BASIC
350
1CB3
  3
BRIGHTEN
350
1CBA
  3
COLORCHANGE
350
1CBE
  3
CONCEPTUAL
350
1CB7
  3
DIM
350
1CB9
  3
FACEPATTERN
350
1CBD
  3
FLAT
350
1CAF
  3
FLATWITHEDGES
350
1CB0
  3
GOURAUD
350
1CB1
  3
GOURAUDWITHEDGES
350
1CB2
  3
LINEPATTERN
350
1CBC
  3
REALISTIC
350
1CB8
  3
THICKEN
350
1CBB
  0
XRECORD
  5
480
102
{ACAD_REACTORS
330
7
102
}
330
7
100
AcDbXrecord
 90
   990106
  3

 60
     0
 61
     0
 62
     1
 63
     3
 64
     1
 65
     0
 66
     0
 67
     3
 68
     1
 69
     0
 70
     0
 71
     0
 72
     0
 40
0.0
170
     2
340
0
  0
XRECORD
  5
1D22
102
{ACAD_REACTORS
330
7
102
}
330
7
100
AcDbXrecord
 90
        1
330
1CC1
  0
DICTIONARY
  5
29BA
102
{ACAD_REACTORS
330
7
102
}
330
7
100
AcDbDictionary
  3
CEPSNTYPE
350
29C4
  3
DIMSTYLEDATA
350
29C8
  3
FINGERPRINTGUID
350
29C5
  3
HYPERLINKBASE
350
29BD
  3
INSUNITS
350
29C3
  3
LAYOUTDICT
350
29BF
  3
LWETCUNION
350
29C2
  3
PLOTSETDICT
350
29C0
  3
PLOTSTYLNAMDICT
350
29C1
  3
PSVPSCALE
350
29C7
  3
PUCSBASE
350
29CB
  3
PUCSORGBACK
350
29D1
  3
PUCSORGBOTTOM
350
29CD
  3
PUCSORGFRONT
350
29D0
  3
PUCSORGLEFT
350
29CE
  3
PUCSORGRIGHT
350
29CF
  3
PUCSORGTOP
350
29CC
  3
PUCSORTHOREF
350
29C9
  3
PUCSORTHOVIEW
350
29CA
  3
STYLESHEET
350
29BE
  3
TSTACKALIGN
350
29BB
  3
TSTACKSIZE
350
29BC
  3
UCSBASE
350
29D4
  3
UCSORGBACK
350
29DA
  3
UCSORGBOTTOM
350
29D6
  3
UCSORGFRONT
350
29D9
  3
UCSORGLEFT
350
29D7
  3
UCSORGRIGHT
350
29D8
  3
UCSORGTOP
350
29D5
  3
UCSORTHOREF
350
29D2
  3
UCSORTHOVIEW
350
29D3
  3
VERSIONGUID
350
29C6
  0
DICTIONARY
  5
102
102
{ACAD_REACTORS
330
7
102
}
330
7
100
AcDbDictionary
  3
CANNOSCALE
350
1D43
  3
CMLEADERSTYLE
350
1D42
  3
CTABLESTYLE
350
1D41
  3
DIMASSOC
350
103
  3
INDEXCTL
350
1D44
  3
SORTENTS
350
549
  0
XRECORD
  5
2987
102
{ACAD_REACTORS
330
7
102
}
330
7
100
AcDbXrecord
  1
DWGPROPS COOKIE
  2

  3

  4

  6

  7

  8
ymorima
  9

300
=
301
=
302
=
303
=
304
=
305
=
306
=
307
=
308
=
309
=
 40
0.0425987384259259
 41
2454411.436245833
 42
2454425.758484155
  1

 90
        0
  0
XRECORD
  5
298E
102
{ACAD_REACTORS
330
1D2B
102
}
330
1D2B
100
AcDbXrecord
102
VTR_0.000_0.000_1.000_1.000_VISUALSTYLE
340
1CB4
102
VTR_0.000_0.000_1.000_1.000_GRIDDISPLAY
 70
     3
102
VTR_0.000_0.000_1.000_1.000_GRIDMAJOR
 70
     5
102
VTR_0.000_0.000_1.000_1.000_DEFAULTLIGHTING
280
     1
102
VTR_0.000_0.000_1.000_1.000_DEFAULTLIGHTINGTYPE
 70
     1
102
VTR_0.000_0.000_1.000_1.000_BRIGHTNESS
141
0.0
102
VTR_0.000_0.000_1.000_1.000_CONTRAST
142
0.0
  0
DICTIONARY
  5
ADD
102
{ACAD_REACTORS
330
ADC
102
}
330
ADC
100
AcDbDictionary
  0
XRECORD
  5
298A
102
{ACAD_REACTORS
330
1D10
102
}
330
1D10
100
AcDbXrecord
102
MATERIAL
340
1CA6
  0
XRECORD
  5
1D11
102
{ACAD_REACTORS
330
1D10
102
}
330
1D10
100
AcDbXrecord
290
     1
  0
XRECORD
  5
2989
102
{ACAD_REACTORS
330
1D12
102
}
330
1D12
100
AcDbXrecord
102
MATERIAL
340
1CA6
  0
XRECORD
  5
1D13
102
{ACAD_REACTORS
330
1D12
102
}
330
1D12
100
AcDbXrecord
290
     1
  0
XRECORD
  5
2994
102
{ACAD_REACTORS
330
1D18
102
}
330
1D18
100
AcDbXrecord
102
MATERIAL
340
1CA6
  0
XRECORD
  5
1D19
102
{ACAD_REACTORS
330
1D18
102
}
330
1D18
100
AcDbXrecord
290
     1
  0
XRECORD
  5
2995
102
{ACAD_REACTORS
330
1D1A
102
}
330
1D1A
100
AcDbXrecord
102
MATERIAL
340
1CA6
  0
XRECORD
  5
1D1B
102
{ACAD_REACTORS
330
1D1A
102
}
330
1D1A
100
AcDbXrecord
290
     1
  0
XRECORD
  5
2997
102
{ACAD_REACTORS
330
1D1E
102
}
330
1D1E
100
AcDbXrecord
102
MATERIAL
340
1CA6
  0
XRECORD
  5
1D1F
102
{ACAD_REACTORS
330
1D1E
102
}
330
1D1E
100
AcDbXrecord
290
     1
  0
XRECORD
  5
29DC
102
{ACAD_REACTORS
330
29DB
102
}
330
29DB
100
AcDbXrecord
340
2
  0
XRECORD
  5
29DE
102
{ACAD_REACTORS
330
29DD
102
}
330
29DD
100
AcDbXrecord
340
29B4
  0
ACAD_PROXY_OBJECT
  5
1C9E
102
{ACAD_XDICTIONARY
360
1C9F
102
}
102
{ACAD_REACTORS
330
1C95
102
}
330
1C95
100
AcDbProxyObject
 90
      499
 91
      511
 93
     1340
310
42109E509B1BD8DAC02004014080404555555555555953FAA155555555555654FEA9AA400014080404555555555555953FAA155555555555654FEA9AA400000000000000E03F4080404555555555555953FAA155555555555654FEA9AA4014080404555555555555953FAA155555555555654FEA9AA4010201011555555555
310
55654FEA8555555555555953FAA6A9005020101155555555555654FEA8555555555555953FAA6A9000
 94
        0
1001
ACAD
1000
AcadProxyRoundTripData
1071
      504
1071
   655383
1070
     0
  0
ACAD_PROXY_OBJECT
  5
1C96
102
{ACAD_XDICTIONARY
360
1C97
102
}
102
{ACAD_REACTORS
330
1C95
102
}
330
1C95
100
AcDbProxyObject
 90
      499
 91
      511
 93
     1340
310
42109E53185E595C802004014080404555555555555953FAA155555555555654FEA9AA400014080404555555555555953FAA155555555555654FEA9AA400000000000000E03F4080404555555555555953FAA155555555555654FEA9AA4014080404555555555555953FAA155555555555654FEA9AA4010201011555555555
310
55654FEA8555555555555953FAA6A9005020101155555555555654FEA8555555555555953FAA6A9000
 94
        0
1001
ACAD
1000
AcadProxyRoundTripData
1071
      504
1071
   655383
1070
     0
  0
ACAD_PROXY_OBJECT
  5
1CA6
102
{ACAD_XDICTIONARY
360
1CA7
102
}
102
{ACAD_REACTORS
330
1C95
102
}
330
1C95
100
AcDbProxyObject
 90
      499
 91
      511
 93
     1332
310
41D1DB1BD8985B002004014080404555555555555953FAA155555555555654FEA9AA400014080404555555555555953FAA155555555555654FEA9AA400000000000000E03F4080404555555555555953FAA155555555555654FEA9AA4014080404555555555555953FAA155555555555654FEA9AA401020101155555555555
310
654FEA8555555555555953FAA6A9005020101155555555555654FEA8555555555555953FAA6A9000
 94
        0
1001
ACAD
1000
AcadProxyRoundTripData
1071
      504
1071
   655383
1070
     0
  0
ACAD_PROXY_OBJECT
  5
1CE5
102
{ACAD_REACTORS
330
1CE4
102
}
330
1CE4
100
AcDbProxyObject
 90
      499
 91
      511
 93
      618
310
40901902A4063FBFFFFFE056BD1B81E855B9FC0AD7A3703D0AD73F4254DD185B99185C990000AD7A3703D0AC73F90141901A02B5E8DC0F42B1CFC02B5E8DC0F42B1CFE5764000000000000300FC6
340
6A
340
0
340
16
340
0
 94
        0
1001
ACAD_MLEADERVER
1070
     2
1001
ACAD
1000
AcadProxyRoundTripData
1071
      508
1071
   655383
1070
     0
  0
MLINESTYLE
  5
78
102
{ACAD_REACTORS
330
76
102
}
330
76
100
AcDbMlineStyle
  2
STANDARD
 70
     0
  3

 62
     0
 51
90.0
 52
90.0
 71
     2
 49
0.5
 62
   256
  6
BYLAYER
 49
-0.5
 62
   256
  6
BYLAYER
  0
ACDBPLACEHOLDER
  5
5
102
{ACAD_REACTORS
330
6
102
}
330
6
100
AcDbPlaceHolder
280
     0
  0
ACAD_PROXY_OBJECT
  5
1CC3
102
{ACAD_REACTORS
330
1CC2
102
}
330
1CC2
100
AcDbProxyObject
 90
      499
 91
      511
 93
       49
310
904313A3100598
 94
        0
1001
ACAD
1000
AcadProxyRoundTripData
1071
      507
1071
   655383
1070
     0
  0
ACAD_PROXY_OBJECT
  5
1CC4
102
{ACAD_REACTORS
330
1CC2
102
}
330
1CC2
100
AcDbProxyObject
 90
      499
 91
      511
 93
      113
310
904313A3200400000000000000406B
 94
        0
1001
ACAD
1000
AcadProxyRoundTripData
1071
      507
1071
   655383
1070
     0
  0
ACAD_PROXY_OBJECT
  5
1CC5
102
{ACAD_REACTORS
330
1CC2
102
}
330
1CC2
100
AcDbProxyObject
 90
      499
 91
      511
 93
      113
310
904313A3400400000000000010406B
 94
        0
1001
ACAD
1000
AcadProxyRoundTripData
1071
      507
1071
   655383
1070
     0
  0
ACAD_PROXY_OBJECT
  5
1CC6
102
{ACAD_REACTORS
330
1CC2
102
}
330
1CC2
100
AcDbProxyObject
 90
      499
 91
      511
 93
      113
310
904313A3500400000000000014406B
 94
        0
1001
ACAD
1000
AcadProxyRoundTripData
1071
      507
1071
   655383
1070
     0
  0
ACAD_PROXY_OBJECT
  5
1CC7
102
{ACAD_REACTORS
330
1CC2
102
}
330
1CC2
100
AcDbProxyObject
 90
      499
 91
      511
 93
      113
310
904313A3800400000000000020406B
 94
        0
1001
ACAD
1000
AcadProxyRoundTripData
1071
      507
1071
   655383
1070
     0
  0
ACAD_PROXY_OBJECT
  5
1CC8
102
{ACAD_REACTORS
330
1CC2
102
}
330
1CC2
100
AcDbProxyObject
 90
      499
 91
      511
 93
      121
310
905313A3130004000000000000244051
 94
        0
1001
ACAD
1000
AcadProxyRoundTripData
1071
      507
1071
   655383
1070
     0
  0
ACAD_PROXY_OBJECT
  5
1CC9
102
{ACAD_REACTORS
330
1CC2
102
}
330
1CC2
100
AcDbProxyObject
 90
      499
 91
      511
 93
      121
310
905313A3136004000000000000304051
 94
        0
1001
ACAD
1000
AcadProxyRoundTripData
1071
      507
1071
   655383
1070
     0
  0
ACAD_PROXY_OBJECT
  5
1CCA
102
{ACAD_REACTORS
330
1CC2
102
}
330
1CC2
100
AcDbProxyObject
 90
      499
 91
      511
 93
      121
310
905313A3230004000000000000344051
 94
        0
1001
ACAD
1000
AcadProxyRoundTripData
1071
      507
1071
   655383
1070
     0
  0
ACAD_PROXY_OBJECT
  5
1CCB
102
{ACAD_REACTORS
330
1CC2
102
}
330
1CC2
100
AcDbProxyObject
 90
      499
 91
      511
 93
      121
310
905313A33300040000000000003E4051
 94
        0
1001
ACAD
1000
AcadProxyRoundTripData
1071
      507
1071
   655383
1070
     0
  0
ACAD_PROXY_OBJECT
  5
1CCC
102
{ACAD_REACTORS
330
1CC2
102
}
330
1CC2
100
AcDbProxyObject
 90
      499
 91
      511
 93
      121
310
905313A3430004000000000000444051
 94
        0
1001
ACAD
1000
AcadProxyRoundTripData
1071
      507
1071
   655383
1070
     0
  0
ACAD_PROXY_OBJECT
  5
1CCD
102
{ACAD_REACTORS
330
1CC2
102
}
330
1CC2
100
AcDbProxyObject
 90
      499
 91
      511
 93
      121
310
905313A3530004000000000000494051
 94
        0
1001
ACAD
1000
AcadProxyRoundTripData
1071
      507
1071
   655383
1070
     0
  0
ACAD_PROXY_OBJECT
  5
1CCE
102
{ACAD_REACTORS
330
1CC2
102
}
330
1CC2
100
AcDbProxyObject
 90
      499
 91
      511
 93
      129
310
906313A313030004000000000000594038
 94
        0
1001
ACAD
1000
AcadProxyRoundTripData
1071
      507
1071
   655383
1070
     0
  0
ACAD_PROXY_OBJECT
  5
1CCF
102
{ACAD_REACTORS
330
1CC2
102
}
330
1CC2
100
AcDbProxyObject
 90
      499
 91
      511
 93
      113
310
904323A31000000000000000010159
 94
        0
1001
ACAD
1000
AcadProxyRoundTripData
1071
      507
1071
   655383
1070
     0
  0
ACAD_PROXY_OBJECT
  5
1CD0
102
{ACAD_REACTORS
330
1CC2
102
}
330
1CC2
100
AcDbProxyObject
 90
      499
 91
      511
 93
      113
310
904343A31000000000000000410159
 94
        0
1001
ACAD
1000
AcadProxyRoundTripData
1071
      507
1071
   655383
1070
     0
  0
ACAD_PROXY_OBJECT
  5
1CD1
102
{ACAD_REACTORS
330
1CC2
102
}
330
1CC2
100
AcDbProxyObject
 90
      499
 91
      511
 93
      113
310
904383A31000000000000000810159
 94
        0
1001
ACAD
1000
AcadProxyRoundTripData
1071
      507
1071
   655383
1070
     0
  0
ACAD_PROXY_OBJECT
  5
1CD2
102
{ACAD_REACTORS
330
1CC2
102
}
330
1CC2
100
AcDbProxyObject
 90
      499
 91
      511
 93
      121
310
90531303A31000000000000000910140
 94
        0
1001
ACAD
1000
AcadProxyRoundTripData
1071
      507
1071
   655383
1070
     0
  0
ACAD_PROXY_OBJECT
  5
1CD3
102
{ACAD_REACTORS
330
1CC2
102
}
330
1CC2
100
AcDbProxyObject
 90
      499
 91
      511
 93
      129
310
9063130303A31000000000000001650138
 94
        0
1001
ACAD
1000
AcadProxyRoundTripData
1071
      507
1071
   655383
1070
     0
  0
ACAD_PROXY_OBJECT
  5
1CD4
102
{ACAD_REACTORS
330
1CC2
102
}
330
1CC2
100
AcDbProxyObject
 90
      499
 91
      511
 93
      265
310
90F312F31323822203D2031272D302200000000000000200FC00000000000028402B
 94
        0
1001
ACAD
1000
AcadProxyRoundTripData
1071
      507
1071
   655383
1070
     0
  0
ACAD_PROXY_OBJECT
  5
1CD5
102
{ACAD_REACTORS
330
1CC2
102
}
330
1CC2
100
AcDbProxyObject
 90
      499
 91
      511
 93
      257
310
90E312F363422203D2031272D302200000000000000240FC000000000000284040
 94
        0
1001
ACAD
1000
AcadProxyRoundTripData
1071
      507
1071
   655383
1070
     0
  0
ACAD_PROXY_OBJECT
  5
1CD6
102
{ACAD_REACTORS
330
1CC2
102
}
330
1CC2
100
AcDbProxyObject
 90
      499
 91
      511
 93
      257
310
90E312F333222203D2031272D302200000000000000280FC000000000000284040
 94
        0
1001
ACAD
1000
AcadProxyRoundTripData
1071
      507
1071
   655383
1070
     0
  0
ACAD_PROXY_OBJECT
  5
1CD7
102
{ACAD_REACTORS
330
1CC2
102
}
330
1CC2
100
AcDbProxyObject
 90
      499
 91
      511
 93
      257
310
90E312F313622203D2031272D3022000000000000002C0FC000000000000284040
 94
        0
1001
ACAD
1000
AcadProxyRoundTripData
1071
      507
1071
   655383
1070
     0
  0
ACAD_PROXY_OBJECT
  5
1CD8
102
{ACAD_REACTORS
330
1CC2
102
}
330
1CC2
100
AcDbProxyObject
 90
      499
 91
      511
 93
      257
310
90E332F333222203D2031272D3022000000000000002E0FC000000000000284040
 94
        0
1001
ACAD
1000
AcadProxyRoundTripData
1071
      507
1071
   655383
1070
     0
  0
ACAD_PROXY_OBJECT
  5
1CD9
102
{ACAD_REACTORS
330
1CC2
102
}
330
1CC2
100
AcDbProxyObject
 90
      499
 91
      511
 93
      249
310
90D312F3822203D2031272D302200000000000000300FC000000000000284040
 94
        0
1001
ACAD
1000
AcadProxyRoundTripData
1071
      507
1071
   655383
1070
     0
  0
ACAD_PROXY_OBJECT
  5
1CDA
102
{ACAD_REACTORS
330
1CC2
102
}
330
1CC2
100
AcDbProxyObject
 90
      499
 91
      511
 93
      257
310
90E332F313622203D2031272D302200000000000000320FC000000000000284040
 94
        0
1001
ACAD
1000
AcadProxyRoundTripData
1071
      507
1071
   655383
1070
     0
  0
ACAD_PROXY_OBJECT
  5
1CDB
102
{ACAD_REACTORS
330
1CC2
102
}
330
1CC2
100
AcDbProxyObject
 90
      499
 91
      511
 93
      249
310
90D312F3422203D2031272D302200000000000000340FC000000000000284040
 94
        0
1001
ACAD
1000
AcadProxyRoundTripData
1071
      507
1071
   655383
1070
     0
  0
ACAD_PROXY_OBJECT
  5
1CDC
102
{ACAD_REACTORS
330
1CC2
102
}
330
1CC2
100
AcDbProxyObject
 90
      499
 91
      511
 93
      249
310
90D332F3822203D2031272D302200000000000000360FC000000000000284040
 94
        0
1001
ACAD
1000
AcadProxyRoundTripData
1071
      507
1071
   655383
1070
     0
  0
ACAD_PROXY_OBJECT
  5
1CDD
102
{ACAD_REACTORS
330
1CC2
102
}
330
1CC2
100
AcDbProxyObject
 90
      499
 91
      511
 93
      249
310
90D312F3222203D2031272D302200000000000000380FC000000000000284040
 94
        0
1001
ACAD
1000
AcadProxyRoundTripData
1071
      507
1071
   655383
1070
     0
  0
ACAD_PROXY_OBJECT
  5
1CDE
102
{ACAD_REACTORS
330
1CC2
102
}
330
1CC2
100
AcDbProxyObject
 90
      499
 91
      511
 93
      249
310
90D332F3422203D2031272D3022000000000000003A0FC000000000000284040
 94
        0
1001
ACAD
1000
AcadProxyRoundTripData
1071
      507
1071
   655383
1070
     0
  0
ACAD_PROXY_OBJECT
  5
1CDF
102
{ACAD_REACTORS
330
1CC2
102
}
330
1CC2
100
AcDbProxyObject
 90
      499
 91
      511
 93
      169
310
90B3122203D2031272D3022004000000000000284020
 94
        0
1001
ACAD
1000
AcadProxyRoundTripData
1071
      507
1071
   655383
1070
     0
  0
ACAD_PROXY_OBJECT
  5
1CE0
102
{ACAD_REACTORS
330
1CC2
102
}
330
1CC2
100
AcDbProxyObject
 90
      499
 91
      511
 93
      265
310
90F312D312F3222203D2031272D3022000000000000003E0FC00000000000028402B
 94
        0
1001
ACAD
1000
AcadProxyRoundTripData
1071
      507
1071
   655383
1070
     0
  0
ACAD_PROXY_OBJECT
  5
1CE1
102
{ACAD_REACTORS
330
1CC2
102
}
330
1CC2
100
AcDbProxyObject
 90
      499
 91
      511
 93
      233
310
90B3322203D2031272D30220000000000000002100000000000000284000
 94
        0
1001
ACAD
1000
AcadProxyRoundTripData
1071
      507
1071
   655383
1070
     0
  0
ACAD_PROXY_OBJECT
  5
1CE2
102
{ACAD_REACTORS
330
1CC2
102
}
330
1CC2
100
AcDbProxyObject
 90
      499
 91
      511
 93
      233
310
90B3622203D2031272D30220000000000000006100000000000000284000
 94
        0
1001
ACAD
1000
AcadProxyRoundTripData
1071
      507
1071
   655383
1070
     0
  0
ACAD_PROXY_OBJECT
  5
1CE3
102
{ACAD_REACTORS
330
1CC2
102
}
330
1CC2
100
AcDbProxyObject
 90
      499
 91
      511
 93
      257
310
90E31272D3022203D2031272D3022000000000000000A100000000000000284040
 94
        0
1001
ACAD
1000
AcadProxyRoundTripData
1071
      507
1071
   655383
1070
     0
  0
ACAD_PROXY_OBJECT
  5
1CC1
102
{ACAD_XDICTIONARY
360
1D20
102
}
102
{ACAD_REACTORS
330
1CC0
102
}
330
1CC0
100
AcDbProxyObject
 90
      499
 91
      511
 93
     1849
310
4254DD185B99185C990028B81E85EB51B8AE3F2E07A17AD46E2B8FC02B5E8DC0F42B1CFD028000000C1008070000C3001FDFF8000000C1003FBFF000000182007F7FE00000030400FEFFC00000060801FDFF8000000C1003FBFF00000018200000000000000681FA0B0000001820100E000186003FBFF000000182007F7FE0
310
0000030400FEFFC00000060801FDFF8000000C1003FBFF000000182007F7FE000000304000AD7A3703D0AC73F4160000003040201C00030C007F7FE00000030400FEFFC00000060801FDFF8000000C1003FBFF000000182007F7FE00000030400FEFFC000000608000
340
16
340
16
340
16
 94
        0
1001
ACAD
1000
AcadProxyRoundTripData
1071
      506
1071
   655383
1070
     0
  0
ACAD_PROXY_OBJECT
  5
1CB4
102
{ACAD_REACTORS
330
1CAE
102
}
330
1CAE
100
AcDbProxyObject
 90
      499
 91
      511
 93
      444
310
430C9915DA5C99599C985B59401049028333333333333E3BF0000000000000FB0107901411070040501600405405064090741402480A0340
 94
        0
1001
ACAD
1000
AcDbSavedByObjectVersion
1070
     0
1000
AcadProxyRoundTripData
1071
      505
1071
   655383
1070
     0
  0
ACAD_PROXY_OBJECT
  5
1CB6
102
{ACAD_REACTORS
330
1CAE
102
}
330
1CAE
100
AcDbProxyObject
 90
      499
 91
      511
 93
      508
310
428CD108121A5919195B8010640502408333333333333E3BF0000000000000FB01079024090700405020000000000001110200405405064090740C02480A0340
 94
        0
1001
ACAD
1000
AcDbSavedByObjectVersion
1070
     0
1000
AcadProxyRoundTripData
1071
      505
1071
   655383
1070
     0
  0
ACAD_PROXY_OBJECT
  5
1CB5
102
{ACAD_REACTORS
330
1CAE
102
}
330
1CAE
100
AcDbProxyObject
 90
      499
 91
      511
 93
      444
310
430CD915DA5C99599C985B59401059028333333333333E3BF0000000000000FB0107901411070040501600405405064090741402480A0340
 94
        0
1001
ACAD
1000
AcDbSavedByObjectVersion
1070
     0
1000
AcadProxyRoundTripData
1071
      505
1071
   655383
1070
     0
  0
ACAD_PROXY_OBJECT
  5
1CB3
102
{ACAD_REACTORS
330
1CAE
102
}
330
1CAE
100
AcDbProxyObject
 90
      499
 91
      511
 93
      396
310
4190985CDA58C0107406404333333333333E3BF0000000000000FB0107A41107004050150841D405064090741402480A0356
 94
        0
1001
ACAD
1000
AcDbSavedByObjectVersion
1070
     0
1000
AcadProxyRoundTripData
1071
      505
1071
   655383
1070
     0
  0
ACAD_PROXY_OBJECT
  5
1CBA
102
{ACAD_REACTORS
330
1CAE
102
}
330
1CAE
100
AcDbProxyObject
 90
      499
 91
      511
 93
      436
310
42509C9A59DA1D195B8010C409028333333333333E3BF0000000000000FB010790141107004050150841D405064090741402480A029956
 94
        0
1001
ACAD
1000
AcDbSavedByObjectVersion
1070
     0
1000
AcadProxyRoundTripData
1071
      505
1071
   655383
1070
     0
  0
ACAD_PROXY_OBJECT
  5
1CBE
102
{ACAD_REACTORS
330
1CAE
102
}
330
1CAE
100
AcDbProxyObject
 90
      499
 91
      511
 93
      460
310
4310DBDB1BDC90DA185B99D9401104090240C333333333333E3BF0000000000000FB0108901411070040501508421405064090741402480A0354
 94
        0
1001
ACAD
1000
AcDbSavedByObjectVersion
1070
     0
1000
AcadProxyRoundTripData
1071
      505
1071
   655383
1070
     0
  0
ACAD_PROXY_OBJECT
  5
1CB7
102
{ACAD_REACTORS
330
1CAE
102
}
330
1CAE
100
AcDbProxyObject
 90
      499
 91
      511
 93
      508
310
42D0DBDB98D95C1D1D585B0010940D028333333333333E3BF0000000000000FB0107902409070040501000000000000111010841D405064090740C02480A0340
 94
        0
1001
ACAD
1000
AcDbSavedByObjectVersion
1070
     0
1000
AcadProxyRoundTripData
1071
      505
1071
   655383
1070
     0
  0
ACAD_PROXY_OBJECT
  5
1CB9
102
{ACAD_REACTORS
330
1CAE
102
}
330
1CAE
100
AcDbProxyObject
 90
      499
 91
      511
 93
      420
310
41111A5B4010B409028333333333333E3BF0000000000000FB010790141107004050150841D405064090741402480A02677FFFFFDB
 94
        0
1001
ACAD
1000
AcDbSavedByObjectVersion
1070
     0
1000
AcadProxyRoundTripData
1071
      505
1071
   655383
1070
     0
  0
ACAD_PROXY_OBJECT
  5
1CBD
102
{ACAD_REACTORS
330
1CAE
102
}
330
1CAE
100
AcDbProxyObject
 90
      499
 91
      511
 93
      452
310
43119858D95C185D1D195C9B8010F409028333333333333E3BF0000000000000FB010790141107004050150841D405064090741402480A0350
 94
        0
1001
ACAD
1000
AcDbSavedByObjectVersion
1070
     0
1000
AcadProxyRoundTripData
1071
      505
1071
   655383
1070
     0
  0
ACAD_PROXY_OBJECT
  5
1CAF
102
{ACAD_REACTORS
330
1CAE
102
}
330
1CAE
100
AcDbProxyObject
 90
      499
 91
      511
 93
      396
310
41519B185D00240901404333333333333E3BF0000000000000F9010740A41107004050150841D405064090741402480A1B55
 94
        0
1001
ACAD
1000
AcDbSavedByObjectVersion
1070
     0
1000
AcadProxyRoundTripData
1071
      505
1071
   655383
1070
     0
  0
ACAD_PROXY_OBJECT
  5
1CB0
102
{ACAD_REACTORS
330
1CAE
102
}
330
1CAE
100
AcDbProxyObject
 90
      499
 91
      511
 93
      484
310
43919B185D15DA5D1A115919D95CC010140901404333333333333E3BF0000000000000F9010740901411070040501600405405064090741402480A1B50
 94
        0
1001
ACAD
1000
AcDbSavedByObjectVersion
1070
     0
1000
AcadProxyRoundTripData
1071
      505
1071
   655383
1070
     0
  0
ACAD_PROXY_OBJECT
  5
1CB1
102
{ACAD_REACTORS
330
1CAE
102
}
330
1CAE
100
AcDbProxyObject
 90
      499
 91
      511
 93
      420
310
4211DBDD5C985D590010240902404333333333333E3BF0000000000000F9010740A411070040501641D405064090741402480A1B50
 94
        0
1001
ACAD
1000
AcDbSavedByObjectVersion
1070
     0
1000
AcadProxyRoundTripData
1071
      505
1071
   655383
1070
     0
  0
ACAD_PROXY_OBJECT
  5
1CB2
102
{ACAD_REACTORS
330
1CAE
102
}
330
1CAE
100
AcDbProxyObject
 90
      499
 91
      511
 93
      508
310
4451DBDD5C985D5915DA5D1A115919D95CC010340902404333333333333E3BF0000000000000F9010740901411070040501600405405064090741402480A1B50
 94
        0
1001
ACAD
1000
AcDbSavedByObjectVersion
1070
     0
1000
AcadProxyRoundTripData
1071
      505
1071
   655383
1070
     0
  0
ACAD_PROXY_OBJECT
  5
1CBC
102
{ACAD_REACTORS
330
1CAE
102
}
330
1CAE
100
AcDbProxyObject
 90
      499
 91
      511
 93
      452
310
43131A5B995C185D1D195C9B8010E409028333333333333E3BF0000000000000FB010790141107004050750841D405064090741402483A0350
 94
        0
1001
ACAD
1000
AcDbSavedByObjectVersion
1070
     0
1000
AcadProxyRoundTripData
1071
      505
1071
   655383
1070
     0
  0
ACAD_PROXY_OBJECT
  5
1CB8
102
{ACAD_REACTORS
330
1CAE
102
}
330
1CAE
100
AcDbProxyObject
 90
      499
 91
      511
 93
      428
310
429499585B1A5CDD1A58C0108409028333333333333E3BF0000000000000FB01079019070040501508421405064090741402480A1B45
 94
        0
1001
ACAD
1000
AcDbSavedByObjectVersion
1070
     0
1000
AcadProxyRoundTripData
1071
      505
1071
   655383
1070
     0
  0
ACAD_PROXY_OBJECT
  5
1CBB
102
{ACAD_REACTORS
330
1CAE
102
}
330
1CAE
100
AcDbProxyObject
 90
      499
 91
      511
 93
      420
310
42151A1A58DAD95B8010D409028333333333333E3BF0000000000000FB010790141107004050150C41D405064090741402480A0352
 94
        0
1001
ACAD
1000
AcDbSavedByObjectVersion
1070
     0
1000
AcadProxyRoundTripData
1071
      505
1071
   655383
1070
     0
  0
XRECORD
  5
29C4
102
{ACAD_REACTORS
330
29BA
102
}
330
29BA
100
AcDbXrecord
 90
        0
  0
XRECORD
  5
29C8
102
{ACAD_REACTORS
330
29BA
102
}
330
29BA
100
AcDbXrecord
1000
DSTYLE
1002
{
1070
   179
 70
     2
1070
   277
 70
     6
1002
}
  0
XRECORD
  5
29C5
102
{ACAD_REACTORS
330
29BA
102
}
330
29BA
100
AcDbXrecord
  1
{6385560B-F4B1-4644-A7C2-A3E32AC3D232}
  0
XRECORD
  5
29BD
102
{ACAD_REACTORS
330
29BA
102
}
330
29BA
100
AcDbXrecord
  1

  0
XRECORD
  5
29C3
102
{ACAD_REACTORS
330
29BA
102
}
330
29BA
100
AcDbXrecord
 90
        0
  0
XRECORD
  5
29BF
102
{ACAD_REACTORS
330
29BA
102
}
330
29BA
100
AcDbXrecord
340
61
  0
XRECORD
  5
29C2
102
{ACAD_REACTORS
330
29BA
102
}
330
29BA
100
AcDbXrecord
 90
    10781
  0
XRECORD
  5
29C0
102
{ACAD_REACTORS
330
29BA
102
}
330
29BA
100
AcDbXrecord
340
77
  0
XRECORD
  5
29C1
102
{ACAD_REACTORS
330
29BA
102
}
330
29BA
100
AcDbXrecord
340
6
  0
XRECORD
  5
29C7
102
{ACAD_REACTORS
330
29BA
102
}
330
29BA
100
AcDbXrecord
 40
0.0
  0
XRECORD
  5
29CB
102
{ACAD_REACTORS
330
29BA
102
}
330
29BA
100
AcDbXrecord
340
0
  0
XRECORD
  5
29D1
102
{ACAD_REACTORS
330
29BA
102
}
330
29BA
100
AcDbXrecord
 10
0.0
 20
0.0
 30
0.0
  0
XRECORD
  5
29CD
102
{ACAD_REACTORS
330
29BA
102
}
330
29BA
100
AcDbXrecord
 10
0.0
 20
0.0
 30
0.0
  0
XRECORD
  5
29D0
102
{ACAD_REACTORS
330
29BA
102
}
330
29BA
100
AcDbXrecord
 10
0.0
 20
0.0
 30
0.0
  0
XRECORD
  5
29CE
102
{ACAD_REACTORS
330
29BA
102
}
330
29BA
100
AcDbXrecord
 10
0.0
 20
0.0
 30
0.0
  0
XRECORD
  5
29CF
102
{ACAD_REACTORS
330
29BA
102
}
330
29BA
100
AcDbXrecord
 10
0.0
 20
0.0
 30
0.0
  0
XRECORD
  5
29CC
102
{ACAD_REACTORS
330
29BA
102
}
330
29BA
100
AcDbXrecord
 10
0.0
 20
0.0
 30
0.0
  0
XRECORD
  5
29C9
102
{ACAD_REACTORS
330
29BA
102
}
330
29BA
100
AcDbXrecord
340
0
  0
XRECORD
  5
29CA
102
{ACAD_REACTORS
330
29BA
102
}
330
29BA
100
AcDbXrecord
 70
     0
  0
XRECORD
  5
29BE
102
{ACAD_REACTORS
330
29BA
102
}
330
29BA
100
AcDbXrecord
  1
Sekkei.ctb
  0
XRECORD
  5
29BB
102
{ACAD_REACTORS
330
29BA
102
}
330
29BA
100
AcDbXrecord
 90
        1
  0
XRECORD
  5
29BC
102
{ACAD_REACTORS
330
29BA
102
}
330
29BA
100
AcDbXrecord
 90
       70
  0
XRECORD
  5
29D4
102
{ACAD_REACTORS
330
29BA
102
}
330
29BA
100
AcDbXrecord
340
0
  0
XRECORD
  5
29DA
102
{ACAD_REACTORS
330
29BA
102
}
330
29BA
100
AcDbXrecord
 10
0.0
 20
0.0
 30
0.0
  0
XRECORD
  5
29D6
102
{ACAD_REACTORS
330
29BA
102
}
330
29BA
100
AcDbXrecord
 10
0.0
 20
0.0
 30
0.0
  0
XRECORD
  5
29D9
102
{ACAD_REACTORS
330
29BA
102
}
330
29BA
100
AcDbXrecord
 10
0.0
 20
0.0
 30
0.0
  0
XRECORD
  5
29D7
102
{ACAD_REACTORS
330
29BA
102
}
330
29BA
100
AcDbXrecord
 10
0.0
 20
0.0
 30
0.0
  0
XRECORD
  5
29D8
102
{ACAD_REACTORS
330
29BA
102
}
330
29BA
100
AcDbXrecord
 10
0.0
 20
0.0
 30
0.0
  0
XRECORD
  5
29D5
102
{ACAD_REACTORS
330
29BA
102
}
330
29BA
100
AcDbXrecord
 10
0.0
 20
0.0
 30
0.0
  0
XRECORD
  5
29D2
102
{ACAD_REACTORS
330
29BA
102
}
330
29BA
100
AcDbXrecord
340
0
  0
XRECORD
  5
29D3
102
{ACAD_REACTORS
330
29BA
102
}
330
29BA
100
AcDbXrecord
 70
     0
  0
XRECORD
  5
29C6
102
{ACAD_REACTORS
330
29BA
102
}
330
29BA
100
AcDbXrecord
  1
{25975884-A5E8-4FC4-948C-2D4BEAD44164}
  0
DICTIONARYVAR
  5
1D43
102
{ACAD_REACTORS
330
102
102
}
330
102
100
DictionaryVariables
280
     0
  1
1:1
  0
DICTIONARYVAR
  5
1D42
102
{ACAD_REACTORS
330
102
102
}
330
102
100
DictionaryVariables
280
     0
  1
STANDARD
  0
DICTIONARYVAR
  5
1D41
102
{ACAD_REACTORS
330
102
102
}
330
102
100
DictionaryVariables
280
     0
  1
STANDARD
  0
DICTIONARYVAR
  5
103
102
{ACAD_REACTORS
330
102
102
}
330
102
100
DictionaryVariables
280
     0
  1
1
  0
DICTIONARYVAR
  5
1D44
102
{ACAD_REACTORS
330
102
102
}
330
102
100
DictionaryVariables
280
     0
  1
0
  0
DICTIONARYVAR
  5
549
102
{ACAD_REACTORS
330
102
102
}
330
102
100
DictionaryVariables
280
     0
  1
96
  0
DICTIONARY
  5
1C9F
330
1C9E
100
AcDbDictionary
280
     1
  3
ACAD_XREC_ROUNDTRIP
360
299B
  3
BUMPTILE
360
1CA1
  3
DIFFUSETILE
360
1CA0
  3
OPACITYTILE
360
1CA4
  3
REFLECTIONTILE
360
1CA3
  3
REFRACTIONTILE
360
1CA5
  3
SPECULARTILE
360
1CA2
  0
DICTIONARY
  5
1C97
330
1C96
100
AcDbDictionary
280
     1
  3
ACAD_XREC_ROUNDTRIP
360
299A
  3
BUMPTILE
360
1C99
  3
DIFFUSETILE
360
1C98
  3
OPACITYTILE
360
1C9C
  3
REFLECTIONTILE
360
1C9B
  3
REFRACTIONTILE
360
1C9D
  3
SPECULARTILE
360
1C9A
  0
DICTIONARY
  5
1CA7
330
1CA6
100
AcDbDictionary
280
     1
  3
ACAD_XREC_ROUNDTRIP
360
299C
  3
BUMPTILE
360
1CA9
  3
DIFFUSETILE
360
1CA8
  3
OPACITYTILE
360
1CAC
  3
REFLECTIONTILE
360
1CAB
  3
REFRACTIONTILE
360
1CAD
  3
SPECULARTILE
360
1CAA
  0
DICTIONARY
  5
1D20
330
1CC1
100
AcDbDictionary
280
     1
  3
ACAD_ROUNDTRIP_2008_TABLES
360
2986
  3
ACAD_XREC_ROUNDTRIP
360
299D
  0
XRECORD
  5
299B
102
{ACAD_REACTORS
330
1C9F
102
}
330
1C9F
100
AcDbXrecord
102
MATERIAL
148
0.0
149
0.0
149
0.0
 93
        0
 94
      127
282
     0
 72
     0
 77
     0
171
     0
175
     0
179
     0
273
     0
  0
XRECORD
  5
1CA1
102
{ACAD_REACTORS
330
1C9F
102
}
330
1C9F
100
AcDbXrecord
270
     1
271
     1
  0
XRECORD
  5
1CA0
102
{ACAD_REACTORS
330
1C9F
102
}
330
1C9F
100
AcDbXrecord
270
     1
271
     1
  0
XRECORD
  5
1CA4
102
{ACAD_REACTORS
330
1C9F
102
}
330
1C9F
100
AcDbXrecord
270
     1
271
     1
  0
XRECORD
  5
1CA3
102
{ACAD_REACTORS
330
1C9F
102
}
330
1C9F
100
AcDbXrecord
270
     1
271
     1
  0
XRECORD
  5
1CA5
102
{ACAD_REACTORS
330
1C9F
102
}
330
1C9F
100
AcDbXrecord
270
     1
271
     1
  0
XRECORD
  5
1CA2
102
{ACAD_REACTORS
330
1C9F
102
}
330
1C9F
100
AcDbXrecord
270
     1
271
     1
  0
XRECORD
  5
299A
102
{ACAD_REACTORS
330
1C97
102
}
330
1C97
100
AcDbXrecord
102
MATERIAL
148
0.0
149
0.0
149
0.0
 93
        0
 94
      127
282
     0
 72
     0
 77
     0
171
     0
175
     0
179
     0
273
     0
  0
XRECORD
  5
1C99
102
{ACAD_REACTORS
330
1C97
102
}
330
1C97
100
AcDbXrecord
270
     1
271
     1
  0
XRECORD
  5
1C98
102
{ACAD_REACTORS
330
1C97
102
}
330
1C97
100
AcDbXrecord
270
     1
271
     1
  0
XRECORD
  5
1C9C
102
{ACAD_REACTORS
330
1C97
102
}
330
1C97
100
AcDbXrecord
270
     1
271
     1
  0
XRECORD
  5
1C9B
102
{ACAD_REACTORS
330
1C97
102
}
330
1C97
100
AcDbXrecord
270
     1
271
     1
  0
XRECORD
  5
1C9D
102
{ACAD_REACTORS
330
1C97
102
}
330
1C97
100
AcDbXrecord
270
     1
271
     1
  0
XRECORD
  5
1C9A
102
{ACAD_REACTORS
330
1C97
102
}
330
1C97
100
AcDbXrecord
270
     1
271
     1
  0
XRECORD
  5
299C
102
{ACAD_REACTORS
330
1CA7
102
}
330
1CA7
100
AcDbXrecord
102
MATERIAL
148
0.0
149
0.0
149
0.0
 93
        0
 94
      127
282
     0
 72
     0
 77
     0
171
     0
175
     0
179
     0
273
     0
  0
XRECORD
  5
1CA9
102
{ACAD_REACTORS
330
1CA7
102
}
330
1CA7
100
AcDbXrecord
270
     1
271
     1
  0
XRECORD
  5
1CA8
102
{ACAD_REACTORS
330
1CA7
102
}
330
1CA7
100
AcDbXrecord
270
     1
271
     1
  0
XRECORD
  5
1CAC
102
{ACAD_REACTORS
330
1CA7
102
}
330
1CA7
100
AcDbXrecord
270
     1
271
     1
  0
XRECORD
  5
1CAB
102
{ACAD_REACTORS
330
1CA7
102
}
330
1CA7
100
AcDbXrecord
270
     1
271
     1
  0
XRECORD
  5
1CAD
102
{ACAD_REACTORS
330
1CA7
102
}
330
1CA7
100
AcDbXrecord
270
     1
271
     1
  0
XRECORD
  5
1CAA
102
{ACAD_REACTORS
330
1CA7
102
}
330
1CA7
100
AcDbXrecord
270
     1
271
     1
  0
ACAD_PROXY_OBJECT
  5
2986
102
{ACAD_REACTORS
330
1D20
102
}
330
1D20
100
AcDbProxyObject
 90
      499
 91
      511
 93
     5304
310
40D054060020000020000003200101A000080002A5058000000C100000000000000340FD012E07A17AD46E2B8FCB81E85EB51B8AE3F2E07A17AD46E2B8FCB81E85EB51B8AE3F02B5E8DC0F42B1CFC0AD7A3703D0AC73F419019018000000C1003FBFFFFFE02B5E8DC0F42A9CFD029018000000C1003FBFFFFFE02B5E8DC0F4
310
2A9CFD049018000000C1003FBFFFFFE02B5E8DC0F42A9CFD089018000000C1003FBFFFFFE02B5E8DC0F42A9CFD109018000000C1003FBFFFFFE02B5E8DC0F42A9CFD209018000000C1003FBFFFFFE02B5E8DC0F42A9CFD01405075F5449544C450041501A8000000C800406800020000A9416000000304000AD7A3703D0AC7
310
3F404B81E85EB51B8AE3F2E07A17AD46E2B8FCB81E85EB51B8AE3F2E07A17AD46E2B8FC0AD7A3703D0AC73F02B5E8DC0F42B1CFD0640640600000030400FEFFFFFF80AD7A3703D0AA73F40A40600000030400FEFFFFFF80AD7A3703D0AA73F41240600000030400FEFFFFFF80AD7A3703D0AA73F42240600000030400FEFFF
310
FFF80AD7A3703D0AA73F44240600000030400FEFFFFFF80AD7A3703D0AA73F48240600000030400FEFFFFFF80AD7A3703D0AA73F409014217D2115051115480105406A0000003200101A000080002A5028000000C10002B5E8DC0F42B1CFD012E07A17AD46E2B8FCB81E85EB51B8AE3F2E07A17AD46E2B8FCB81E85EB51B8A
310
E3F02B5E8DC0F42B1CFC0AD7A3703D0AC73F419019018000000C1003FBFFFFFE02B5E8DC0F42A9CFD029018000000C1003FBFFFFFE02B5E8DC0F42A9CFD049018000000C1003FBFFFFFE02B5E8DC0F42A9CFD089018000000C1003FBFFFFFE02B5E8DC0F42A9CFD109018000000C1003FBFFFFFE02B5E8DC0F42A9CFD20901
310
8000000C1003FBFFFFFE02B5E8DC0F42A9CFD03409065F444154410000
340
16
340
0
340
0
340
0
340
0
340
0
340
0
340
16
340
0
340
0
340
0
340
0
340
0
340
0
340
16
340
0
340
0
340
0
340
0
340
0
340
0
 94
        0
1001
ACAD
1000
AcadProxyRoundTripData
1071
      509
1071
   655383
1070
     0
  0
XRECORD
  5
299D
102
{ACAD_REACTORS
330
1D20
102
}
330
1D20
100
AcDbXrecord
102
ACAD_ROUNDTRIP_PRE2007_TABLESTYLE
 90
      512
 91
        0
  1

 92
      512
 93
        0
  2

 94
      512
 95
        0
  3

  0
ENDSEC
  0
EOF
