  0
SECTION
  2
HEADER
  9
$ACADVER
  1
AC1014
  9
$ACADMAINTVER
 70
     9
  9
$DWGCODEPAGE
  3
ANSI_932
  9
$INSBASE
 10
0.0
 20
0.0
 30
0.0
  9
$EXTMIN
 10
-43.29221460468329
 20
35.74782065471686
 30
0.0
  9
$EXTMAX
 10
999.0444774204172
 20
701.1012199884044
 30
0.0
  9
$LIMMIN
 10
0.0
 20
0.0
  9
$LIMMAX
 10
297.0
 20
210.0
  9
$ORTHOMODE
 70
     0
  9
$REGENMODE
 70
     1
  9
$FILLMODE
 70
     1
  9
$QTEXTMODE
 70
     0
  9
$MIRRTEXT
 70
     0
  9
$DRAGMODE
 70
     2
  9
$LTSCALE
 40
3.0
  9
$OSMODE
 70
    37
  9
$ATTMODE
 70
     1
  9
$TEXTSIZE
 40
2.0
  9
$TRACEWID
 40
1.0
  9
$TEXTSTYLE
  7
STANDARD
  9
$CLAYER
  8
0
  9
$CELTYPE
  6
BYLAYER
  9
$CECOLOR
 62
   256
  9
$CELTSCALE
 40
1.0
  9
$DELOBJ
 70
     1
  9
$DISPSILH
 70
     0
  9
$DIMSCALE
 40
3.0
  9
$DIMASZ
 40
1.8
  9
$DIMEXO
 40
0.625
  9
$DIMDLI
 40
3.75
  9
$DIMRND
 40
0.0
  9
$DIMDLE
 40
0.0
  9
$DIMEXE
 40
0.8
  9
$DIMTP
 40
0.0
  9
$DIMTM
 40
0.0
  9
$DIMTXT
 40
1.8
  9
$DIMCEN
 40
2.5
  9
$DIMTSZ
 40
0.0
  9
$DIMTOL
 70
     0
  9
$DIMLIM
 70
     0
  9
$DIMTIH
 70
     0
  9
$DIMTOH
 70
     0
  9
$DIMSE1
 70
     0
  9
$DIMSE2
 70
     0
  9
$DIMTAD
 70
     1
  9
$DIMZIN
 70
     8
  9
$DIMBLK
  1

  9
$DIMASO
 70
     1
  9
$DIMSHO
 70
     1
  9
$DIMPOST
  1

  9
$DIMAPOST
  1

  9
$DIMALT
 70
     0
  9
$DIMALTD
 70
     4
  9
$DIMALTF
 40
0.0394
  9
$DIMLFAC
 40
1.0
  9
$DIMTOFL
 70
     1
  9
$DIMTVP
 40
0.0
  9
$DIMTIX
 70
     0
  9
$DIMSOXD
 70
     0
  9
$DIMSAH
 70
     0
  9
$DIMBLK1
  1

  9
$DIMBLK2
  1

  9
$DIMSTYLE
  2
STANDARD
  9
$DIMCLRD
 70
     0
  9
$DIMCLRE
 70
     0
  9
$DIMCLRT
 70
     0
  9
$DIMTFAC
 40
1.0
  9
$DIMGAP
 40
0.75
  9
$DIMJUST
 70
     0
  9
$DIMSD1
 70
     0
  9
$DIMSD2
 70
     0
  9
$DIMTOLJ
 70
     1
  9
$DIMTZIN
 70
     0
  9
$DIMALTZ
 70
     0
  9
$DIMALTTZ
 70
     0
  9
$DIMFIT
 70
     3
  9
$DIMUPT
 70
     0
  9
$DIMUNIT
 70
     8
  9
$DIMDEC
 70
     2
  9
$DIMTDEC
 70
     2
  9
$DIMALTU
 70
     8
  9
$DIMALTTD
 70
     4
  9
$DIMTXSTY
  7
STANDARD
  9
$DIMAUNIT
 70
     0
  9
$LUNITS
 70
     2
  9
$LUPREC
 70
     3
  9
$SKETCHINC
 40
1.0
  9
$FILLETRAD
 40
10.0
  9
$AUNITS
 70
     0
  9
$AUPREC
 70
     2
  9
$MENU
  1
.
  9
$ELEVATION
 40
0.0
  9
$PELEVATION
 40
0.0
  9
$THICKNESS
 40
0.0
  9
$LIMCHECK
 70
     0
  9
$BLIPMODE
 70
     0
  9
$CHAMFERA
 40
0.0
  9
$CHAMFERB
 40
0.0
  9
$CHAMFERC
 40
20.0
  9
$CHAMFERD
 40
0.0
  9
$SKPOLY
 70
     0
  9
$TDCREATE
 40
2454888.679706122
  9
$TDUPDATE
 40
2454909.813563032
  9
$TDINDWG
 40
0.1072591204
  9
$TDUSRTIMER
 40
0.1072589352
  9
$USRTIMER
 70
     1
  9
$ANGBASE
 50
0.0
  9
$ANGDIR
 70
     0
  9
$PDMODE
 70
     0
  9
$PDSIZE
 40
-10.0
  9
$PLINEWID
 40
0.0
  9
$COORDS
 70
     1
  9
$SPLFRAME
 70
     0
  9
$SPLINETYPE
 70
     6
  9
$SPLINESEGS
 70
     8
  9
$ATTDIA
 70
     0
  9
$ATTREQ
 70
     1
  9
$HANDLING
 70
 22529
  9
$HANDSEED
  5
29B4
  9
$SURFTAB1
 70
     6
  9
$SURFTAB2
 70
     6
  9
$SURFTYPE
 70
     6
  9
$SURFU
 70
     6
  9
$SURFV
 70
     6
  9
$UCSNAME
  2

  9
$UCSORG
 10
0.0
 20
0.0
 30
0.0
  9
$UCSXDIR
 10
1.0
 20
0.0
 30
0.0
  9
$UCSYDIR
 10
0.0
 20
1.0
 30
0.0
  9
$PUCSNAME
  2

  9
$PUCSORG
 10
0.0
 20
0.0
 30
0.0
  9
$PUCSXDIR
 10
1.0
 20
0.0
 30
0.0
  9
$PUCSYDIR
 10
0.0
 20
1.0
 30
0.0
  9
$USERI1
 70
     0
  9
$USERI2
 70
     0
  9
$USERI3
 70
     0
  9
$USERI4
 70
     0
  9
$USERI5
 70
     0
  9
$USERR1
 40
0.0
  9
$USERR2
 40
0.0
  9
$USERR3
 40
0.0
  9
$USERR4
 40
0.0
  9
$USERR5
 40
0.0
  9
$WORLDVIEW
 70
     1
  9
$SHADEDGE
 70
     3
  9
$SHADEDIF
 70
    70
  9
$TILEMODE
 70
     1
  9
$MAXACTVP
 70
    48
  9
$PINSBASE
 10
0.0
 20
0.0
 30
0.0
  9
$PLIMCHECK
 70
     0
  9
$PEXTMIN
 10
0.0
 20
0.0
 30
0.0
  9
$PEXTMAX
 10
0.0
 20
0.0
 30
0.0
  9
$PLIMMIN
 10
0.0
 20
0.0
  9
$PLIMMAX
 10
12.0
 20
9.0
  9
$UNITMODE
 70
     0
  9
$VISRETAIN
 70
     1
  9
$PLINEGEN
 70
     0
  9
$PSLTSCALE
 70
     1
  9
$TREEDEPTH
 70
  3020
  9
$PICKSTYLE
 70
     1
  9
$CMLSTYLE
  2
STANDARD
  9
$CMLJUST
 70
     0
  9
$CMLSCALE
 40
1.0
  9
$PROXYGRAPHICS
 70
     1
  9
$MEASUREMENT
 70
     0
  0
ENDSEC
  0
SECTION
  2
CLASSES
  0
CLASS
  1
DICTIONARYVAR
  2
AcDbDictionaryVar
  3
AutoCAD 2000
 90
        0
280
     0
281
     0
  0
CLASS
  1
ACDBDICTIONARYWDFLT
  2
AcDbDictionaryWithDefault
  3
AutoCAD 2000
 90
        0
280
     0
281
     0
  0
CLASS
  1
ACDBPLACEHOLDER
  2
AcDbPlaceHolder
  3
AutoCAD 2000
 90
        0
280
     0
281
     0
  0
CLASS
  1
LAYOUT
  2
AcDbLayout
  3
AutoCAD 2000
 90
        0
280
     0
281
     0
  0
CLASS
  1
MATERIAL
  2
AcDbMaterial
  3
ObjectDBX Classes
 90
     1153
280
     0
281
     0
  0
CLASS
  1
VISUALSTYLE
  2
AcDbVisualStyle
  3
ObjectDBX Classes
 90
     4095
280
     0
281
     0
  0
CLASS
  1
TABLESTYLE
  2
AcDbTableStyle
  3
ObjectDBX Classes
 90
     4095
280
     0
281
     0
  0
CLASS
  1
SCALE
  2
AcDbScale
  3
ObjectDBX Classes
 90
     1153
280
     0
281
     0
  0
CLASS
  1
MLEADERSTYLE
  2
AcDbMLeaderStyle
  3
ACDB_MLEADERSTYLE_CLASS
 90
     4095
280
     0
281
     0
  0
CLASS
  1
PLOTSETTINGS
  2
AcDbPlotSettings
  3
AutoCAD 2000
 90
        0
280
     0
281
     0
  0
CLASS
  1
CELLSTYLEMAP
  2
AcDbCellStyleMap
  3
ObjectDBX Classes
 90
     1152
280
     0
281
     0
  0
CLASS
  1
SORTENTSTABLE
  2
AcDbSortentsTable
  3
AutoCAD 2000
 90
        0
280
     0
281
     0
  0
CLASS
  1
ACAD_PROXY_OBJECT_WRAPPER
  2
AcDbProxyObjectWrapper
  3
AutoCAD 2000
 90
        0
280
     0
281
     0
  0
CLASS
  1
LONG_TRANSACTION
  2
AcDbLongTransaction
  3
AutoCAD 2000
 90
        0
280
     0
281
     0
  0
CLASS
  1
LWPOLYLINE
  2
AcDbPolyline
  3
AutoCAD 2000
 90
        0
280
     0
281
     1
  0
CLASS
  1
HATCH
  2
AcDbHatch
  3
AutoCAD 2000
 90
        0
280
     0
281
     1
  0
CLASS
  1
XRECORD
  2
AcDbXrecord
  3
AutoCAD 2000
 90
        0
280
     0
281
     0
  0
ENDSEC
  0
SECTION
  2
TABLES
  0
TABLE
  2
VPORT
  5
6E
102
{ACAD_XDICTIONARY
360
1AA9
102
}
330
0
100
AcDbSymbolTable
 70
     2
  0
VPORT
  5
298F
330
6E
100
AcDbSymbolTableRecord
100
AcDbViewportTableRecord
  2
*ACTIVE
 70
     0
 10
0.0
 20
0.0
 11
1.0
 21
1.0
 12
523.3243764421195
 22
352.7169476436234
 13
0.0
 23
0.0
 14
10.0
 24
10.0
 15
10.0
 25
10.0
 16
0.0
 26
0.0
 36
1.0
 17
0.0
 27
0.0
 37
0.0
 40
713.9772306384067
 41
1.593429158110882
 42
50.0
 43
0.0
 44
0.0
 50
0.0
 51
0.0
 71
     0
 72
   100
 73
     1
 74
     3
 75
     0
 76
     0
 77
     0
 78
     0
  0
ENDTAB
  0
TABLE
  2
LTYPE
  5
69
330
0
100
AcDbSymbolTable
 70
     7
  0
LTYPE
  5
6A
330
69
100
AcDbSymbolTableRecord
100
AcDbLinetypeTableRecord
  2
BYBLOCK
 70
     0
  3

 72
    65
 73
     0
 40
0.0
  0
LTYPE
  5
6B
330
69
100
AcDbSymbolTableRecord
100
AcDbLinetypeTableRecord
  2
BYLAYER
 70
     0
  3

 72
    65
 73
     0
 40
0.0
  0
LTYPE
  5
8
330
69
100
AcDbSymbolTableRecord
100
AcDbLinetypeTableRecord
  2
CONTINUOUS
 70
     0
  3
Solid line
 72
    65
 73
     0
 40
0.0
  0
LTYPE
  5
27C
330
69
100
AcDbSymbolTableRecord
100
AcDbLinetypeTableRecord
  2
SEKKEI_A2_
 70
     0
  3
center(A2)  ____ _ ____ _ ____ _ ____ _ ____ _ 
 72
    65
 73
     4
 40
14.28749999999999
 49
9.525
 74
     0
 49
-1.587499999999999
 74
     0
 49
1.587499999999999
 74
     0
 49
-1.587499999999999
 74
     0
  0
LTYPE
  5
2B4
330
69
100
AcDbSymbolTableRecord
100
AcDbLinetypeTableRecord
  2
HIDDEN2
 70
     0
  3
Hidden (.5x) _ _ _ _ _ _ _ _ _ _ _ _ _ _ _ _ _
 72
    65
 73
     2
 40
4.762499999999999
 49
3.174999999999999
 74
     0
 49
-1.587499999999999
 74
     0
  0
LTYPE
  5
477
330
69
100
AcDbSymbolTableRecord
100
AcDbLinetypeTableRecord
  2
SEKKEI-P_A4_
 70
     0
  3
Phantom(A4)  ____ _ _ ____ _ _ ____ _ _ _____
 72
    65
 73
     6
 40
15.0
 49
7.5
 74
     0
 49
-1.5
 74
     0
 49
1.5
 74
     0
 49
-1.5
 74
     0
 49
1.5
 74
     0
 49
-1.5
 74
     0
  0
LTYPE
  5
48F
330
69
100
AcDbSymbolTableRecord
100
AcDbLinetypeTableRecord
  2
SEKKEI_H
 70
     0
  3
Hidden-S _ _ _ _ _ _ _ _ _ _ _ _ _ _ _ _ _
 72
    65
 73
     2
 40
2.381249999999999
 49
1.587499999999999
 74
     0
 49
-0.79375
 74
     0
  0
LTYPE
  5
494
330
69
100
AcDbSymbolTableRecord
100
AcDbLinetypeTableRecord
  2
SEKKEI_P_S
 70
     0
  3
Phantom_S   __ _ _ __ _ _ __ _ _ ___
 72
    65
 73
     6
 40
7.5
 49
3.75
 74
     0
 49
-0.75
 74
     0
 49
0.75
 74
     0
 49
-0.75
 74
     0
 49
0.75
 74
     0
 49
-0.75
 74
     0
  0
LTYPE
  5
54A
330
69
100
AcDbSymbolTableRecord
100
AcDbLinetypeTableRecord
  2
CENTERX2
 70
     0
  3
Center (2x) ________  __  ________  __  _____
 72
    65
 73
     4
 40
4.0
 49
2.5
 74
     0
 49
-0.5
 74
     0
 49
0.5
 74
     0
 49
-0.5
 74
     0
  0
ENDTAB
  0
TABLE
  2
LAYER
  5
66
102
{ACAD_XDICTIONARY
360
86B
102
}
330
0
100
AcDbSymbolTable
 70
    10
  0
LAYER
  5
5E
102
{ACAD_XDICTIONARY
360
128D
102
}
330
66
100
AcDbSymbolTableRecord
100
AcDbLayerTableRecord
  2
0
 70
     0
 62
     7
  6
CONTINUOUS
  0
LAYER
  5
3E
102
{ACAD_XDICTIONARY
360
128F
102
}
330
66
100
AcDbSymbolTableRecord
100
AcDbLayerTableRecord
  2
CENTER
 70
     0
 62
     3
  6
SEKKEI_A2_
  0
LAYER
  5
2B5
102
{ACAD_XDICTIONARY
360
1295
102
}
330
66
100
AcDbSymbolTableRecord
100
AcDbLayerTableRecord
  2
HIDS
 70
     0
 62
     1
  6
HIDDEN2
  0
LAYER
  5
2BA
102
{ACAD_XDICTIONARY
360
1297
102
}
330
66
100
AcDbSymbolTableRecord
100
AcDbLayerTableRecord
  2
HOJO
 70
     0
 62
     4
  6
CONTINUOUS
  0
LAYER
  5
3FA
102
{ACAD_XDICTIONARY
360
129B
102
}
330
66
100
AcDbSymbolTableRecord
100
AcDbLayerTableRecord
  2
TITLE
 70
     0
 62
     4
  6
CONTINUOUS
  0
LAYER
  5
478
102
{ACAD_XDICTIONARY
360
129D
102
}
330
66
100
AcDbSymbolTableRecord
100
AcDbLayerTableRecord
  2
PHAS
 70
     0
 62
     2
  6
SEKKEI-P_A4_
  0
ENDTAB
  0
TABLE
  2
STYLE
  5
67
330
0
100
AcDbSymbolTable
 70
     3
  0
STYLE
  5
16
330
67
100
AcDbSymbolTableRecord
100
AcDbTextStyleTableRecord
  2
STANDARD
 70
     0
 40
0.0
 41
1.0
 50
0.0
 71
     0
 42
2.0
  3
simplex.shx
  4
extfont.shx
  0
ENDTAB
  0
TABLE
  2
VIEW
  5
6C
330
0
100
AcDbSymbolTable
 70
     0
  0
ENDTAB
  0
TABLE
  2
UCS
  5
6D
330
0
100
AcDbSymbolTable
 70
     0
  0
ENDTAB
  0
TABLE
  2
APPID
  5
70
330
0
100
AcDbSymbolTable
 70
     7
  0
APPID
  5
71
330
70
100
AcDbSymbolTableRecord
100
AcDbRegAppTableRecord
  2
ACAD
 70
     0
  0
APPID
  5
859
330
70
100
AcDbSymbolTableRecord
100
AcDbRegAppTableRecord
  2
ACAD_MLEADERVER
 70
     0
  0
APPID
  5
866
330
70
100
AcDbSymbolTableRecord
100
AcDbRegAppTableRecord
  2
ACAD_PSEXT
 70
     0
  0
APPID
  5
1239
330
70
100
AcDbSymbolTableRecord
100
AcDbRegAppTableRecord
  2
ACAD_EXEMPT_FROM_CAD_STANDARDS
 70
     0
  0
APPID
  5
12AE
330
70
100
AcDbSymbolTableRecord
100
AcDbRegAppTableRecord
  2
ACAD_DSTYLE_DIMJAG
 70
     0
  0
APPID
  5
12AF
330
70
100
AcDbSymbolTableRecord
100
AcDbRegAppTableRecord
  2
ACAD_DSTYLE_DIMTALN
 70
     0
  0
APPID
  5
1411
330
70
100
AcDbSymbolTableRecord
100
AcDbRegAppTableRecord
  2
ACAD_DSTYLE_DIMRADIAL_EXTENSION
 70
     0
  0
ENDTAB
  0
TABLE
  2
DIMSTYLE
  5
72
330
0
100
AcDbSymbolTable
 70
     1
  0
DIMSTYLE
105
73
102
{ACAD_REACTORS
330
142C
330
1434
330
1605
330
1780
330
1787
102
}
330
72
100
AcDbSymbolTableRecord
100
AcDbDimStyleTableRecord
  2
STANDARD
 70
     0
  3

  4

  5

  6

  7

 40
3.0
 41
1.8
 42
0.625
 43
3.75
 44
0.8
 45
0.0
 46
0.0
 47
0.0
 48
0.0
140
1.8
141
2.5
142
0.0
143
0.0394
144
1.0
145
0.0
146
1.0
147
0.75
 71
     0
 72
     0
 73
     0
 74
     0
 75
     0
 76
     0
 77
     1
 78
     8
170
     0
171
     4
172
     1
173
     0
174
     0
175
     0
176
     0
177
     0
178
     0
270
     8
271
     2
272
     2
273
     8
274
     4
340
16
275
     0
280
     0
281
     0
282
     0
283
     1
284
     0
285
     0
286
     0
287
     3
288
     0
1001
ACAD_DSTYLE_DIMJAG
1070
   388
1040
1.5
1001
ACAD_DSTYLE_DIMTALN
1070
   392
1070
     0
  0
ENDTAB
  0
TABLE
  2
BLOCK_RECORD
  5
1
330
0
100
AcDbSymbolTable
 70
    55
  0
BLOCK_RECORD
  5
2
102
{ACAD_XDICTIONARY
360
1236
102
}
330
1
100
AcDbSymbolTableRecord
100
AcDbBlockTableRecord
  2
*MODEL_SPACE
  0
BLOCK_RECORD
  5
298A
102
{ACAD_XDICTIONARY
360
29B2
102
}
330
1
100
AcDbSymbolTableRecord
100
AcDbBlockTableRecord
  2
*PAPER_SPACE
  0
ENDTAB
  0
ENDSEC
  0
SECTION
  2
BLOCKS
  0
BLOCK
  5
5D
330
2
100
AcDbEntity
  8
0
100
AcDbBlockBegin
  2
*MODEL_SPACE
 70
     0
 10
0.0
 20
0.0
 30
0.0
  3
*MODEL_SPACE
  1

  0
ENDBLK
  5
5F
330
2
100
AcDbEntity
  8
0
100
AcDbBlockEnd
  0
BLOCK
  5
298C
330
298A
100
AcDbEntity
 67
     1
  8
0
100
AcDbBlockBegin
  2
*PAPER_SPACE
 70
     0
 10
0.0
 20
0.0
 30
0.0
  3
*PAPER_SPACE
  1

  0
ENDBLK
  5
298D
330
298A
100
AcDbEntity
 67
     1
  8
0
100
AcDbBlockEnd
  0
ENDSEC
  0
SECTION
  2
ENTITIES
  0
LINE
  5
BCC
330
2
100
AcDbEntity
  8
CENTER
100
AcDbLine
 10
491.6923507245899
 20
391.8936909025934
 30
0.0
 11
600.3495219697541
 21
283.2365196574283
 31
0.0
  0
LINE
  5
BCD
330
2
100
AcDbEntity
  8
CENTER
100
AcDbLine
 10
511.5945294759815
 20
379.9915121512057
 30
0.0
 11
495.5945294759815
 21
379.9915121512057
 31
0.0
  0
LINE
  5
BCE
330
2
100
AcDbEntity
  8
CENTER
100
AcDbLine
 10
503.5945294759774
 20
387.9915121512057
 30
0.0
 11
503.5945294759774
 21
371.9915121512057
 31
0.0
  0
LINE
  5
BCF
330
2
100
AcDbEntity
  8
CENTER
100
AcDbLine
 10
511.5945294759815
 20
295.1386984088218
 30
0.0
 11
495.5945294759815
 21
295.1386984088218
 31
0.0
  0
LINE
  5
BD0
330
2
100
AcDbEntity
  8
CENTER
100
AcDbLine
 10
503.5945294759811
 20
303.1386984088201
 30
0.0
 11
503.5945294759811
 21
287.1386984088201
 31
0.0
  0
LINE
  5
BD1
330
2
100
AcDbEntity
  8
CENTER
100
AcDbLine
 10
596.4473432183674
 20
295.1386984088201
 30
0.0
 11
580.4473432183674
 21
295.1386984088201
 31
0.0
  0
LINE
  5
BD2
330
2
100
AcDbEntity
  8
CENTER
100
AcDbLine
 10
588.4473432183642
 20
303.1386984088201
 30
0.0
 11
588.4473432183642
 21
287.1386984088201
 31
0.0
  0
LINE
  5
BD3
330
2
100
AcDbEntity
  8
CENTER
100
AcDbLine
 10
596.4473432183674
 20
379.9915121512057
 30
0.0
 11
580.4473432183674
 21
379.9915121512057
 31
0.0
  0
LINE
  5
BD4
330
2
100
AcDbEntity
  8
CENTER
100
AcDbLine
 10
588.4473432183674
 20
387.9915121512062
 30
0.0
 11
588.4473432183674
 21
371.9915121512062
 31
0.0
  0
CIRCLE
  5
BD5
330
2
100
AcDbEntity
  8
CENTER
100
AcDbCircle
 10
546.0209363471742
 20
337.5651052800131
 30
0.0
 40
60.0
  0
CIRCLE
  5
BD6
330
2
100
AcDbEntity
  8
0
100
AcDbCircle
 10
546.0209363471742
 20
337.5651052800131
 30
0.0
 40
34.0
  0
CIRCLE
  5
BD7
330
2
100
AcDbEntity
  8
0
100
AcDbCircle
 10
546.0209363471742
 20
337.5651052800131
 30
0.0
 40
45.0
  0
CIRCLE
  5
BD8
330
2
100
AcDbEntity
  8
HOJO
100
AcDbCircle
 10
503.5945294759815
 20
295.1386984088201
 30
0.0
 40
4.0
  0
CIRCLE
  5
BD9
330
2
100
AcDbEntity
  8
0
100
AcDbCircle
 10
503.5945294759815
 20
295.1386984088201
 30
0.0
 40
3.2
  0
CIRCLE
  5
BDA
330
2
100
AcDbEntity
  8
0
100
AcDbCircle
 10
546.0209363471742
 20
337.565105280013
 30
0.0
 40
26.0
  0
CIRCLE
  5
BDB
330
2
100
AcDbEntity
  8
HOJO
100
AcDbCircle
 10
503.5945294759815
 20
379.9915121512057
 30
0.0
 40
4.0
  0
CIRCLE
  5
BDC
330
2
100
AcDbEntity
  8
0
100
AcDbCircle
 10
503.5945294759815
 20
379.9915121512057
 30
0.0
 40
3.2
  0
LINE
  5
BDD
330
2
100
AcDbEntity
  8
0
100
AcDbLine
 10
626.5209583471726
 20
387.0651052800134
 30
0.0
 11
626.5209583471698
 21
288.0651052800129
 31
0.0
  0
LINE
  5
BDE
330
2
100
AcDbEntity
  8
0
100
AcDbLine
 10
642.0209583471731
 20
286.0651052800129
 30
0.0
 11
642.0209583471725
 21
389.065105280013
 31
0.0
  0
CIRCLE
  5
BDF
330
2
100
AcDbEntity
  8
0
100
AcDbCircle
 10
588.4473432183674
 20
295.1386984088201
 30
0.0
 40
3.2
  0
CIRCLE
  5
BE0
330
2
100
AcDbEntity
  8
HOJO
100
AcDbCircle
 10
588.4473432183674
 20
295.1386984088201
 30
0.0
 40
4.0
  0
ARC
  5
BE1
330
2
100
AcDbEntity
  8
0
100
AcDbCircle
 10
628.5209583471698
 20
288.5651052800128
 30
0.0
 40
2.0
100
AcDbArc
 50
179.9999999999869
 51
270.0
  0
LINE
  5
BE2
330
2
100
AcDbEntity
  8
0
100
AcDbLine
 10
642.0209583471731
 20
286.5651052800129
 30
0.0
 11
628.5209583471698
 21
286.5651052800128
 31
0.0
  0
CIRCLE
  5
BE3
330
2
100
AcDbEntity
  8
0
100
AcDbCircle
 10
588.4473432183674
 20
379.9915121512062
 30
0.0
 40
3.2
  0
CIRCLE
  5
BE4
330
2
100
AcDbEntity
  8
HOJO
100
AcDbCircle
 10
588.4473432183674
 20
379.9915121512062
 30
0.0
 40
4.0
  0
ARC
  5
BE5
330
2
100
AcDbEntity
  8
0
100
AcDbCircle
 10
628.5209583471726
 20
386.5651052800135
 30
0.0
 40
2.0
100
AcDbArc
 50
90.0
 51
179.9999999999869
  0
LINE
  5
BE6
330
2
100
AcDbEntity
  8
0
100
AcDbLine
 10
642.0209583471725
 20
388.565105280013
 30
0.0
 11
628.520958347173
 21
388.5651052800135
 31
0.0
  0
ARC
  5
BE7
330
2
100
AcDbEntity
  8
0
100
AcDbCircle
 10
546.0209363471724
 20
188.5651052800108
 30
0.0
 40
200.0
100
AcDbArc
 50
84.10530161359629
 51
95.89469838640374
  0
ARC
  5
BE8
330
2
100
AcDbEntity
  8
0
100
AcDbCircle
 10
572.7230652774976
 20
447.190309601995
 30
0.0
 40
60.0
100
AcDbArc
 50
264.1053016135962
 51
281.8050678104415
  0
LINE
  5
BE9
330
2
100
AcDbEntity
  8
0
100
AcDbLine
 10
589.0209363471747
 20
388.5651052800105
 30
0.0
 11
586.0209363471719
 21
388.5651052800103
 31
0.0
  0
ARC
  5
BEA
330
2
100
AcDbEntity
  8
0
100
AcDbCircle
 10
586.0209363471719
 20
383.5651052800102
 30
0.0
 40
5.0
100
AcDbArc
 50
90.0
 51
101.8050678104414
  0
LINE
  5
BEB
330
2
100
AcDbEntity
  8
0
100
AcDbLine
 10
503.0209363471719
 20
388.5651052800107
 30
0.0
 11
506.0209363471719
 21
388.5651052800107
 31
0.0
  0
ARC
  5
BEC
330
2
100
AcDbEntity
  8
0
100
AcDbCircle
 10
519.3188074168472
 20
447.1903096019954
 30
0.0
 40
60.0
100
AcDbArc
 50
258.1949321895585
 51
275.8946983864037
  0
ARC
  5
BED
330
2
100
AcDbEntity
  8
0
100
AcDbCircle
 10
506.0209363471719
 20
383.5651052800107
 30
0.0
 40
5.0
100
AcDbArc
 50
78.19493218955852
 51
90.0
  0
ARC
  5
BEE
330
2
100
AcDbEntity
  8
0
100
AcDbCircle
 10
500.0209363471729
 20
377.5651052800107
 30
0.0
 40
5.0
100
AcDbArc
 50
180.0
 51
191.8050678104706
  0
LINE
  5
BEF
330
2
100
AcDbEntity
  8
0
100
AcDbLine
 10
495.020936347172
 20
380.5651052800107
 30
0.0
 11
495.020936347172
 21
377.565105280013
 31
0.0
  0
ARC
  5
BF0
330
2
100
AcDbEntity
  8
0
100
AcDbCircle
 10
436.3957320251877
 20
364.2672342103364
 30
0.0
 40
60.0
100
AcDbArc
 50
354.1053016135986
 51
11.80506781047064
  0
ARC
  5
BF1
330
2
100
AcDbEntity
  8
0
100
AcDbCircle
 10
695.020936347172
 20
337.5651052800108
 30
0.0
 40
200.0
100
AcDbArc
 50
174.1053016135986
 51
185.8946983864013
  0
ARC
  5
BF2
330
2
100
AcDbEntity
  8
0
100
AcDbCircle
 10
436.3957320251877
 20
310.862976349686
 30
0.0
 40
60.0
100
AcDbArc
 50
348.1949321895285
 51
5.894698386401296
  0
ARC
  5
BF3
330
2
100
AcDbEntity
  8
0
100
AcDbCircle
 10
500.020936347172
 20
297.5651052800108
 30
0.0
 40
5.0
100
AcDbArc
 50
168.1949321895285
 51
180.0
  0
LINE
  5
BF4
330
2
100
AcDbEntity
  8
0
100
AcDbLine
 10
495.020936347172
 20
297.5651052800131
 30
0.0
 11
495.020936347172
 21
294.5651052800107
 31
0.0
  0
ARC
  5
BF5
330
2
100
AcDbEntity
  8
0
100
AcDbCircle
 10
519.3188074168467
 20
227.9399009580263
 30
0.0
 40
60.0
100
AcDbArc
 50
84.10530161359629
 51
101.8050678104414
  0
ARC
  5
BF6
330
2
100
AcDbEntity
  8
0
100
AcDbCircle
 10
506.0209363471719
 20
291.5651052800112
 30
0.0
 40
5.0
100
AcDbArc
 50
270.0
 51
281.8050678104415
  0
LINE
  5
BF7
330
2
100
AcDbEntity
  8
0
100
AcDbLine
 10
503.0209363471724
 20
286.5651052800107
 30
0.0
 11
506.0209363471719
 21
286.5651052800108
 31
0.0
  0
ARC
  5
BF8
330
2
100
AcDbEntity
  8
0
100
AcDbCircle
 10
546.020936347172
 20
486.5651052800108
 30
0.0
 40
200.0
100
AcDbArc
 50
264.1053016135962
 51
275.8946983864037
  0
ARC
  5
BF9
330
2
100
AcDbEntity
  8
0
100
AcDbCircle
 10
572.7230652774967
 20
227.9399009580261
 30
0.0
 40
60.0
100
AcDbArc
 50
78.19493218955852
 51
95.89469838640374
  0
ARC
  5
BFA
330
2
100
AcDbEntity
  8
0
100
AcDbCircle
 10
586.0209363471719
 20
291.5651052800107
 30
0.0
 40
5.0
100
AcDbArc
 50
258.1949321895585
 51
270.0
  0
LINE
  5
BFB
330
2
100
AcDbEntity
  8
0
100
AcDbLine
 10
586.0209363471719
 20
286.5651052800108
 30
0.0
 11
589.0209363471692
 21
286.5651052800108
 31
0.0
  0
ARC
  5
BFC
330
2
100
AcDbEntity
  8
0
100
AcDbCircle
 10
503.0209363471719
 20
380.5651052800046
 30
0.0
 40
8.0
100
AcDbArc
 50
90.0
 51
180.0
  0
ARC
  5
BFD
330
2
100
AcDbEntity
  8
0
100
AcDbCircle
 10
589.0209363471747
 20
380.5651052800044
 30
0.0
 40
8.0
100
AcDbArc
 50
359.9999999999869
 51
90.0
  0
ARC
  5
BFE
330
2
100
AcDbEntity
  8
0
100
AcDbCircle
 10
503.0209363471719
 20
294.5651052800047
 30
0.0
 40
8.0
100
AcDbArc
 50
180.0
 51
270.0
  0
ARC
  5
BFF
330
2
100
AcDbEntity
  8
0
100
AcDbCircle
 10
589.0209363471683
 20
294.5651052800048
 30
0.0
 40
8.0
100
AcDbArc
 50
270.0
 51
0.0
  0
LINE
  5
C00
330
2
100
AcDbEntity
  8
0
100
AcDbLine
 10
597.0209363471683
 20
380.5651052800048
 30
0.0
 11
597.0209363471711
 21
294.5651052800051
 31
0.0
  0
LINE
  5
C01
330
2
100
AcDbEntity
  8
0
 48
0.5
100
AcDbLine
 10
599.0209363471692
 20
340.0651052800109
 30
0.0
 11
615.5209583471708
 21
340.0651052800109
 31
0.0
  0
LINE
  5
C02
330
2
100
AcDbEntity
  8
0
 48
0.5
100
AcDbLine
 10
599.0209363471701
 20
335.065105280011
 30
0.0
 11
615.5209583471708
 21
335.065105280011
 31
0.0
  0
LINE
  5
C03
330
2
100
AcDbEntity
  8
0
100
AcDbLine
 10
540.6646082848481
 20
294.5651052799991
 30
0.0
 11
542.8246092158476
 21
294.5651052799987
 31
0.0
  0
LINE
  5
C04
330
2
100
AcDbEntity
  8
0
100
AcDbLine
 10
543.6646082848526
 20
300.5651052800075
 30
0.0
 11
540.6646082848481
 21
294.5651052799991
 31
0.0
  0
ARC
  5
C05
330
2
100
AcDbEntity
  8
0
100
AcDbCircle
 10
548.64455371486
 20
298.5251052800044
 30
0.0
 40
2.040000000002968
100
AcDbArc
 50
307.5189678668038
 51
90.0
  0
LINE
  5
C06
330
2
100
AcDbEntity
  8
0
100
AcDbLine
 10
549.8869627496048
 20
296.907075678793
 30
0.0
 11
551.3772644094959
 21
294.5651052799991
 31
0.0
  0
LINE
  5
C07
330
2
100
AcDbEntity
  8
0
100
AcDbLine
 10
549.2172634784972
 20
294.5651052799987
 30
0.0
 11
551.3772644094959
 21
294.5651052799991
 31
0.0
  0
LINE
  5
C08
330
2
100
AcDbEntity
  8
0
100
AcDbLine
 10
544.8046082848539
 20
294.5651052799987
 30
0.0
 11
546.6045537148564
 21
294.5651052799984
 31
0.0
  0
LINE
  5
C09
330
2
100
AcDbEntity
  8
0
100
AcDbLine
 10
543.2746092158474
 20
295.4651052800004
 30
0.0
 11
542.8246092158476
 21
294.5651052799987
 31
0.0
  0
LINE
  5
C0A
330
2
100
AcDbEntity
  8
0
100
AcDbLine
 10
543.2746092158474
 20
295.4651052800004
 30
0.0
 11
544.8046082848539
 21
295.4651052799999
 31
0.0
  0
LINE
  5
C0B
330
2
100
AcDbEntity
  8
0
100
AcDbLine
 10
544.8046082848539
 20
295.4651052799999
 30
0.0
 11
544.8046082848539
 21
294.5651052799987
 31
0.0
  0
LINE
  5
C0C
330
2
100
AcDbEntity
  8
0
100
AcDbLine
 10
544.2346092158493
 20
297.3851052800022
 30
0.0
 11
544.8046082848539
 21
297.3851052800027
 31
0.0
  0
LINE
  5
C0D
330
2
100
AcDbEntity
  8
0
100
AcDbLine
 10
544.8046082848539
 20
298.525103418012
 30
0.0
 11
544.8046082848539
 21
297.3851052800027
 31
0.0
  0
LINE
  5
C0E
330
2
100
AcDbEntity
  8
0
100
AcDbLine
 10
544.8046082848539
 20
298.525103418012
 30
0.0
 11
544.2346092158493
 21
297.3851052800022
 31
0.0
  0
LINE
  5
C0F
330
2
100
AcDbEntity
  8
0
100
AcDbLine
 10
546.8596082848569
 20
298.2701052800038
 30
0.0
 11
549.2172634784972
 21
294.5651052799987
 31
0.0
  0
LINE
  5
C10
330
2
100
AcDbEntity
  8
0
100
AcDbLine
 10
546.6045537148564
 20
298.5251052800046
 30
0.0
 11
546.6045537148564
 21
294.5651052799984
 31
0.0
  0
LINE
  5
C11
330
2
100
AcDbEntity
  8
0
100
AcDbLine
 10
546.6045537148564
 20
298.5251052800046
 30
0.0
 11
548.5171082848589
 21
298.5251052800046
 31
0.0
  0
LINE
  5
C12
330
2
100
AcDbEntity
  8
0
100
AcDbLine
 10
546.8596082848569
 20
298.2701052800038
 30
0.0
 11
548.5171082848599
 21
298.2701052800038
 31
0.0
  0
ARC
  5
C13
330
2
100
AcDbEntity
  8
0
100
AcDbCircle
 10
548.5171082848599
 20
298.3976052800043
 30
0.0
 40
0.1275000000001855
100
AcDbArc
 50
270.0
 51
90.0
  0
LINE
  5
C14
330
2
100
AcDbEntity
  8
0
100
AcDbLine
 10
543.6646082848526
 20
300.5651052800075
 30
0.0
 11
548.64455371486
 21
300.5651052800075
 31
0.0
  0
ARC
  5
C15
330
2
100
AcDbEntity
  8
0
 48
0.5
100
AcDbCircle
 10
599.0209363471692
 20
342.0651052800109
 30
0.0
 40
2.0
100
AcDbArc
 50
180.0
 51
270.0
  0
ARC
  5
C16
330
2
100
AcDbEntity
  8
0
100
AcDbCircle
 10
615.5209583471708
 20
342.0651052800109
 30
0.0
 40
2.0
100
AcDbArc
 50
270.0
 51
0.0
  0
ARC
  5
C17
330
2
100
AcDbEntity
  8
0
100
AcDbCircle
 10
615.5209583471708
 20
333.065105280011
 30
0.0
 40
2.0
100
AcDbArc
 50
0.0
 51
90.0
  0
ARC
  5
C18
330
2
100
AcDbEntity
  8
0
100
AcDbCircle
 10
599.0209363471701
 20
333.065105280011
 30
0.0
 40
2.0
100
AcDbArc
 50
90.0
 51
180.0
  0
ARC
  5
C19
330
2
100
AcDbEntity
  8
0
100
AcDbCircle
 10
599.020936347172
 20
300.5651052800109
 30
0.0
 40
2.0
100
AcDbArc
 50
90.0
 51
180.0
  0
ARC
  5
C1A
330
2
100
AcDbEntity
  8
0
100
AcDbCircle
 10
621.5209363471601
 20
294.5651052800112
 30
0.0
 40
5.0
100
AcDbArc
 50
359.9999999999869
 51
90.0
  0
LINE
  5
C1B
330
2
100
AcDbEntity
  8
0
100
AcDbLine
 10
615.6479530009626
 20
372.5651052800112
 30
0.0
 11
599.0209363471729
 21
372.5651052800112
 31
0.0
  0
ARC
  5
C1C
330
2
100
AcDbEntity
  8
0
100
AcDbCircle
 10
599.0209363471729
 20
374.5651052800112
 30
0.0
 40
2.0
100
AcDbArc
 50
180.0
 51
270.0
  0
LINE
  5
C1D
330
2
100
AcDbEntity
  8
0
100
AcDbLine
 10
615.6479530009607
 20
302.5651052800109
 30
0.0
 11
599.020936347172
 21
302.5651052800109
 31
0.0
  0
LINE
  5
C1E
330
2
100
AcDbEntity
  8
0
100
AcDbLine
 10
621.5209363471711
 20
375.5651052800109
 30
0.0
 11
619.5209363471701
 21
375.5651052800112
 31
0.0
  0
ARC
  5
C1F
330
2
100
AcDbEntity
  8
0
100
AcDbCircle
 10
621.5209363471711
 20
380.5651052800109
 30
0.0
 40
5.0
100
AcDbArc
 50
270.0
 51
0.0
  0
LINE
  5
C20
330
2
100
AcDbEntity
  8
0
100
AcDbLine
 10
621.5209363471601
 20
299.5651052800112
 30
0.0
 11
619.5209363471683
 21
299.5651052800112
 31
0.0
  0
ARC
  5
C21
330
2
100
AcDbEntity
  8
0
100
AcDbCircle
 10
619.5209363471683
 20
301.5651052800112
 30
0.0
 40
2.0
100
AcDbArc
 50
180.0
 51
270.0
  0
ARC
  5
C22
330
2
100
AcDbEntity
  8
0
100
AcDbCircle
 10
615.6479530009607
 20
300.5651052800109
 30
0.0
 40
2.0
100
AcDbArc
 50
14.47751218594082
 51
90.0
  0
LINE
  5
C23
330
2
100
AcDbEntity
  8
0
100
AcDbLine
 10
617.5209363471692
 20
373.5651052800112
 30
0.0
 11
617.5209363471683
 21
301.5651052800112
 31
0.0
  0
ARC
  5
C24
330
2
100
AcDbEntity
  8
0
100
AcDbCircle
 10
619.5209363471701
 20
373.5651052800112
 30
0.0
 40
2.0
100
AcDbArc
 50
90.0
 51
180.0
  0
ARC
  5
C25
330
2
100
AcDbEntity
  8
0
100
AcDbCircle
 10
615.6479530009626
 20
374.5651052800109
 30
0.0
 40
2.0
100
AcDbArc
 50
270.0
 51
345.5224878140709
  0
ARC
  5
C26
330
2
100
AcDbEntity
  8
0
100
AcDbCircle
 10
612.5209583471717
 20
372.5651052800132
 30
0.0
 40
5.0
100
AcDbArc
 50
270.0
 51
359.9999999999869
  0
ARC
  5
C27
330
2
100
AcDbEntity
  8
0
100
AcDbCircle
 10
602.0209363471697
 20
372.5651052800137
 30
0.0
 40
5.0
100
AcDbArc
 50
179.9999999999869
 51
270.0
  0
LINE
  5
C28
330
2
100
AcDbEntity
  8
0
100
AcDbLine
 10
602.0209363471693
 20
367.5651052800137
 30
0.0
 11
612.5209583471712
 21
367.565105280013
 31
0.0
  0
ARC
  5
C29
330
2
100
AcDbEntity
  8
0
100
AcDbCircle
 10
612.5209583471703
 20
302.5651052800131
 30
0.0
 40
5.0
100
AcDbArc
 50
0.0
 51
90.0
  0
ARC
  5
C2A
330
2
100
AcDbEntity
  8
0
100
AcDbCircle
 10
602.0209363471683
 20
302.5651052800132
 30
0.0
 40
5.0
100
AcDbArc
 50
90.0
 51
180.0
  0
LINE
  5
C2B
330
2
100
AcDbEntity
  8
0
100
AcDbLine
 10
602.0209363471683
 20
307.5651052800132
 30
0.0
 11
612.5209583471703
 21
307.5651052800132
 31
0.0
  0
LINE
  5
C2C
330
2
100
AcDbEntity
  8
0
100
AcDbLine
 10
642.0209583471725
 20
389.065105280013
 30
0.0
 11
628.520958347173
 21
389.0651052800135
 31
0.0
  0
ARC
  5
C2D
330
2
100
AcDbEntity
  8
0
100
AcDbCircle
 10
628.5209583471726
 20
387.0651052800134
 30
0.0
 40
2.0
100
AcDbArc
 50
90.0
 51
179.9999999999869
  0
LINE
  5
C2E
330
2
100
AcDbEntity
  8
0
100
AcDbLine
 10
642.0209583471731
 20
286.0651052800129
 30
0.0
 11
628.5209583471698
 21
286.0651052800128
 31
0.0
  0
ARC
  5
C2F
330
2
100
AcDbEntity
  8
0
100
AcDbCircle
 10
628.5209583471698
 20
288.0651052800128
 30
0.0
 40
2.0
100
AcDbArc
 50
179.9999999999869
 51
270.0
  0
LINE
  5
C30
330
2
100
AcDbEntity
  8
CENTER
100
AcDbLine
 10
491.6923507245894
 20
283.2365196574289
 30
0.0
 11
600.3495219697549
 21
391.893690902593
 31
0.0
  0
CIRCLE
  5
C31
330
2
100
AcDbEntity
  8
0
100
AcDbCircle
 10
546.020936347172
 20
337.565105280011
 30
0.0
 40
26.57735026918976
  0
LINE
  5
C32
330
2
100
AcDbEntity
  8
CENTER
100
AcDbLine
 10
546.020936347172
 20
701.1012199884044
 30
0.0
 11
546.020936347172
 21
543.1013269884041
 31
0.0
  0
LINE
  5
C33
330
2
100
AcDbEntity
  8
CENTER
100
AcDbLine
 10
485.2779981631435
 20
638.1013269884113
 30
0.0
 11
736.5209583471751
 21
638.1013269884115
 31
0.0
  0
LINE
  5
C34
330
2
100
AcDbEntity
  8
0
100
AcDbLine
 10
495.0209363471738
 20
667.6013269884113
 30
0.0
 11
596.5023802803614
 21
667.6013269884156
 31
0.0
  0
LINE
  5
C35
330
2
100
AcDbEntity
  8
0
100
AcDbLine
 10
495.0209363471738
 20
667.6013269884113
 30
0.0
 11
495.7409029399111
 21
585.1013269884115
 31
0.0
  0
LINE
  5
C36
330
2
100
AcDbEntity
  8
0
100
AcDbLine
 10
501.0209363471737
 20
580.1013269884113
 30
0.0
 11
591.0209363471738
 21
580.1013269884113
 31
0.0
  0
LINE
  5
C37
330
2
100
AcDbEntity
  8
0
100
AcDbLine
 10
501.0209363471737
 20
585.1013269884115
 30
0.0
 11
501.0209363471737
 21
580.1013269884115
 31
0.0
  0
LINE
  5
C38
330
2
100
AcDbEntity
  8
0
100
AcDbLine
 10
495.7409029399111
 20
585.1013269884115
 30
0.0
 11
596.2984123542639
 21
585.1013269884113
 31
0.0
  0
LINE
  5
C39
330
2
100
AcDbEntity
  8
0
100
AcDbLine
 10
591.0209363471738
 20
585.1013269884115
 30
0.0
 11
591.0209363471738
 21
580.1013269884115
 31
0.0
  0
LINE
  5
C3A
330
2
100
AcDbEntity
  8
0
100
AcDbLine
 10
596.5023802803614
 20
667.6013269884156
 30
0.0
 11
596.7598130775647
 21
638.1024502580182
 31
0.0
  0
LINE
  5
C3B
330
2
100
AcDbEntity
  8
0
100
AcDbLine
 10
596.7609363471717
 20
638.1013269884113
 30
0.0
 11
596.2984123542644
 21
585.1013269884113
 31
0.0
  0
ARC
  5
C3C
330
2
100
AcDbEntity
  8
0
100
AcDbCircle
 10
601.4556863664254
 20
603.1013269884115
 30
0.0
 40
5.0
100
AcDbArc
 50
90.0
 51
179.5000000000019
  0
LINE
  5
C3D
330
2
100
AcDbEntity
  8
0
100
AcDbLine
 10
619.4692500890176
 20
600.1013269884115
 30
0.0
 11
621.309735012165
 21
600.1013269884115
 31
0.0
  0
LINE
  5
C3E
330
2
100
AcDbEntity
  8
0
100
AcDbLine
 10
642.0209583471721
 20
689.1013269884113
 30
0.0
 11
642.0209583471721
 21
587.1013269884115
 31
0.0
  0
LINE
  5
C3F
330
2
100
AcDbEntity
  8
0
100
AcDbLine
 10
619.4692500890176
 20
676.1013269884115
 30
0.0
 11
621.3097350121641
 21
676.1013269884115
 31
0.0
  0
LINE
  5
C40
330
2
100
AcDbEntity
  8
0
100
AcDbLine
 10
616.5258713275382
 20
638.1013269884115
 30
0.0
 11
617.4699354390666
 21
674.1536808850269
 31
0.0
  0
ARC
  5
C41
330
2
100
AcDbEntity
  8
0
100
AcDbCircle
 10
619.4692500890176
 20
674.1013269884112
 30
0.0
 40
2.0
100
AcDbArc
 50
90.0
 51
178.5000000000103
  0
LINE
  5
C42
330
2
100
AcDbEntity
  8
0
100
AcDbLine
 10
612.4144786984427
 20
667.1013269884156
 30
0.0
 11
597.0023802803622
 21
667.1013269884154
 31
0.0
  0
LINE
  5
C43
330
2
100
AcDbEntity
  8
0
100
AcDbLine
 10
596.5023802803614
 20
667.6013269884156
 30
0.0
 11
597.0023802803622
 21
667.1013269884154
 31
0.0
  0
LINE
  5
C44
330
2
100
AcDbEntity
  8
0
100
AcDbLine
 10
616.5258713275432
 20
638.1013269884115
 30
0.0
 11
617.4699354390666
 21
602.0489730917955
 31
0.0
  0
ARC
  5
C45
330
2
100
AcDbEntity
  8
0
100
AcDbCircle
 10
619.4692500890176
 20
602.1013269884113
 30
0.0
 40
2.0
100
AcDbArc
 50
181.5000000000027
 51
270.0
  0
LINE
  5
C46
330
2
100
AcDbEntity
  8
0
100
AcDbLine
 10
601.4556863664254
 20
608.1013269884115
 30
0.0
 11
612.440664620012
 21
608.1013269884115
 31
0.0
  0
ARC
  5
C47
330
2
100
AcDbEntity
  8
0
100
AcDbCircle
 10
612.440664620012
 20
603.1013269884115
 30
0.0
 40
5.0
100
AcDbArc
 50
1.500000000002719
 51
90.0
  0
ARC
  5
C48
330
2
100
AcDbEntity
  8
0
100
AcDbCircle
 10
612.4144786984427
 20
672.1013269884156
 30
0.0
 40
5.0
100
AcDbArc
 50
270.0
 51
358.4999999999972
  0
LINE
  5
C49
330
2
100
AcDbEntity
  8
0
100
AcDbLine
 10
513.9523138967859
 20
566.1013269884101
 30
0.0
 11
578.089558797559
 21
566.1013269884101
 31
0.0
  0
LINE
  5
C4A
330
2
100
AcDbEntity
  8
0
100
AcDbLine
 10
511.5994496787123
 20
578.1711259818148
 30
0.0
 11
511.953532242748
 21
568.0315279950055
 31
0.0
  0
ARC
  5
C4B
330
2
100
AcDbEntity
  8
0
100
AcDbCircle
 10
509.6006680246744
 20
578.1013269884101
 30
0.0
 40
2.0
100
AcDbArc
 50
2.000000000004465
 51
90.0
  0
ARC
  5
C4C
330
2
100
AcDbEntity
  8
0
100
AcDbCircle
 10
513.9523138967859
 20
568.1013269884101
 30
0.0
 40
2.0
100
AcDbArc
 50
182.0000000000044
 51
270.0
  0
LINE
  5
C4D
330
2
100
AcDbEntity
  8
0
100
AcDbLine
 10
580.4424230156326
 20
578.1711259818153
 30
0.0
 11
580.0883404515968
 21
568.0315279950055
 31
0.0
  0
ARC
  5
C4E
330
2
100
AcDbEntity
  8
0
100
AcDbCircle
 10
582.4412046696704
 20
578.1013269884101
 30
0.0
 40
2.0
100
AcDbArc
 50
90.0
 51
177.9999999999955
  0
ARC
  5
C4F
330
2
100
AcDbEntity
  8
0
100
AcDbCircle
 10
578.089558797559
 20
568.1013269884101
 30
0.0
 40
2.0
100
AcDbArc
 50
270.0
 51
357.9999999999955
  0
LINE
  5
C50
330
2
100
AcDbEntity
  8
0
100
AcDbLine
 10
586.0340293079559
 20
667.6013269884151
 30
0.0
 11
586.7810135401921
 21
639.0751500401036
 31
0.0
  0
ARC
  5
C51
330
2
100
AcDbEntity
  8
0
100
AcDbCircle
 10
587.7806708651676
 20
639.1013269884115
 30
0.0
 40
1.0
100
AcDbArc
 50
181.5000000000027
 51
270.0
  0
LINE
  5
C52
330
2
100
AcDbEntity
  8
0
100
AcDbLine
 10
586.0209363471729
 20
638.1013269884115
 30
0.0
 11
586.0209363471719
 21
586.6013269884112
 31
0.0
  0
LINE
  5
C53
330
2
100
AcDbEntity
  8
0
100
AcDbLine
 10
587.7806708651685
 20
638.1013269884115
 30
0.0
 11
596.7609363471713
 21
638.1013269884115
 31
0.0
  0
LINE
  5
C54
330
2
100
AcDbEntity
  8
0
100
AcDbLine
 10
587.7806708651685
 20
638.1013269884115
 30
0.0
 11
587.7806708651676
 21
638.1013269884115
 31
0.0
  0
LINE
  5
C55
330
2
100
AcDbEntity
  8
0
100
AcDbLine
 10
626.4699354390647
 20
687.1536808850271
 30
0.0
 11
625.1854543471379
 21
638.1013269884117
 31
0.0
  0
ARC
  5
C56
330
2
100
AcDbEntity
  8
0
100
AcDbCircle
 10
621.3097350121641
 20
681.1013269884117
 30
0.0
 40
5.0
100
AcDbArc
 50
270.0
 51
358.4999999999972
  0
LINE
  5
C57
330
2
100
AcDbEntity
  8
0
100
AcDbLine
 10
628.4692500890157
 20
587.1013269884115
 30
0.0
 11
642.0209583471721
 21
587.1013269884117
 31
0.0
  0
ARC
  5
C58
330
2
100
AcDbEntity
  8
0
100
AcDbCircle
 10
628.4692500890157
 20
589.1013269884115
 30
0.0
 40
2.0
100
AcDbArc
 50
181.4999999999896
 51
270.0
  0
LINE
  5
C59
330
2
100
AcDbEntity
  8
0
100
AcDbLine
 10
628.4692500890157
 20
689.1013269884113
 30
0.0
 11
642.0209583471721
 21
689.1013269884115
 31
0.0
  0
ARC
  5
C5A
330
2
100
AcDbEntity
  8
0
100
AcDbCircle
 10
628.4692500890157
 20
687.1013269884115
 30
0.0
 40
2.0
100
AcDbArc
 50
90.0
 51
178.5000000000103
  0
LINE
  5
C5B
330
2
100
AcDbEntity
  8
0
100
AcDbLine
 10
626.4699354390647
 20
589.0489730917961
 30
0.0
 11
625.1854543471442
 21
638.1013269884115
 31
0.0
  0
ARC
  5
C5C
330
2
100
AcDbEntity
  8
0
100
AcDbCircle
 10
621.309735012165
 20
595.1013269884115
 30
0.0
 40
5.0
100
AcDbArc
 50
1.499999999989688
 51
90.0
  0
LINE
  5
C5D
330
2
100
AcDbEntity
  8
0
100
AcDbLine
 10
625.1854543471442
 20
638.1013269884115
 30
0.0
 11
642.0209583471721
 21
638.1013269884115
 31
0.0
  0
ARC
  5
C5E
330
2
100
AcDbEntity
  8
0
100
AcDbCircle
 10
615.5962667428073
 20
601.1013269884119
 30
0.0
 40
2.0
100
AcDbArc
 50
14.4775121859173
 51
90.0
  0
LINE
  5
C5F
330
2
100
AcDbEntity
  8
0
100
AcDbLine
 10
598.4381183956868
 20
603.1013269884111
 30
0.0
 11
615.5962667428073
 21
603.101326988412
 31
0.0
  0
ARC
  5
C60
330
2
100
AcDbEntity
  8
0
100
AcDbCircle
 10
598.4381183956872
 20
601.1013269884113
 30
0.0
 40
2.0
100
AcDbArc
 50
90.0
 51
179.5000000000019
  0
LINE
  5
C8B
330
2
100
AcDbEntity
  8
CENTER
100
AcDbLine
 10
147.2078073953186
 20
276.5651052800111
 30
0.0
 11
147.2078073953186
 21
398.5651052800111
 31
0.0
  0
LINE
  5
C8C
330
2
100
AcDbEntity
  8
0
100
AcDbLine
 10
96.46780739531891
 20
294.5651052800143
 30
0.0
 11
96.46780739531891
 21
380.565105280014
 31
0.0
  0
ARC
  5
C8D
330
2
100
AcDbEntity
  8
0
100
AcDbCircle
 10
91.46780739531891
 20
302.5651052800136
 30
0.0
 40
5.0
100
AcDbArc
 50
0.0
 51
90.0
  0
ARC
  5
C8E
330
2
100
AcDbEntity
  8
0
100
AcDbCircle
 10
94.46780739531892
 20
300.5651052800111
 30
0.0
 40
2.0
100
AcDbArc
 50
0.0
 51
90.0
  0
ARC
  5
C8F
330
2
100
AcDbEntity
  8
0
100
AcDbCircle
 10
91.46780739531891
 20
372.5651052800141
 30
0.0
 40
5.0
100
AcDbArc
 50
270.0
 51
0.0
  0
ARC
  5
C90
330
2
100
AcDbEntity
  8
0
100
AcDbCircle
 10
94.46780739531892
 20
374.5651052800113
 30
0.0
 40
2.0
100
AcDbArc
 50
270.0
 51
0.0
  0
ARC
  5
C91
330
2
100
AcDbEntity
  8
0
100
AcDbCircle
 10
104.4678073953189
 20
380.565105280014
 30
0.0
 40
8.0
100
AcDbArc
 50
90.0
 51
180.0
  0
ARC
  5
C92
330
2
100
AcDbEntity
  8
0
100
AcDbCircle
 10
104.4678073953189
 20
294.5651052800143
 30
0.0
 40
8.0
100
AcDbArc
 50
180.0
 51
270.0
  0
ARC
  5
C94
330
2
100
AcDbEntity
  8
0
100
AcDbCircle
 10
71.70778539532034
 20
380.5651052800192
 30
0.0
 40
5.0
100
AcDbArc
 50
180.0
 51
270.0
  0
LINE
  5
C95
330
2
100
AcDbEntity
  8
0
100
AcDbLine
 10
66.70778539532034
 20
288.065105280019
 30
0.0
 11
66.70778539532307
 21
387.0651052800199
 31
0.0
  0
LINE
  5
C96
330
2
100
AcDbEntity
  8
0
100
AcDbLine
 10
51.20778539531989
 20
389.0651052800197
 30
0.0
 11
51.20778539532034
 21
337.5651052800197
 31
0.0
  0
ARC
  5
C97
330
2
100
AcDbEntity
  8
0
100
AcDbCircle
 10
64.70778539532307
 20
386.5651052800199
 30
0.0
 40
2.0
100
AcDbArc
 50
359.9999999999869
 51
90.0
  0
LINE
  5
C98
330
2
100
AcDbEntity
  8
0
100
AcDbLine
 10
51.20778539531989
 20
388.5651052800197
 30
0.0
 11
64.70778539532307
 21
388.5651052800199
 31
0.0
  0
LINE
  5
C99
330
2
100
AcDbEntity
  8
0
100
AcDbLine
 10
51.20778539532034
 20
286.0651052800195
 30
0.0
 11
51.20778539532034
 21
337.5651052800195
 31
0.0
  0
ARC
  5
C9A
330
2
100
AcDbEntity
  8
0
100
AcDbCircle
 10
64.70778539532034
 20
288.565105280019
 30
0.0
 40
2.0
100
AcDbArc
 50
270.0
 51
0.0
  0
ARC
  5
C9B
330
2
100
AcDbEntity
  8
0
100
AcDbCircle
 10
71.70778539532034
 20
294.5651052800197
 30
0.0
 40
5.0
100
AcDbArc
 50
90.0
 51
179.9999999999869
  0
LINE
  5
C9C
330
2
100
AcDbEntity
  8
0
100
AcDbLine
 10
51.20778539532034
 20
286.5651052800195
 30
0.0
 11
64.70778539532034
 21
286.565105280019
 31
0.0
  0
LINE
  5
C9D
330
2
100
AcDbEntity
  8
0
100
AcDbLine
 10
73.70778539531807
 20
299.5651052800143
 30
0.0
 11
71.70778539532079
 21
299.5651052800145
 31
0.0
  0
LINE
  5
C9E
330
2
100
AcDbEntity
  8
0
100
AcDbLine
 10
73.70778539532079
 20
375.5651052800199
 30
0.0
 11
71.70778539531898
 21
375.5651052800204
 31
0.0
  0
LINE
  5
C9F
330
2
100
AcDbEntity
  8
0
 48
0.5
100
AcDbLine
 10
95.70780739531825
 20
329.8839595321545
 30
0.0
 11
95.7078073953196
 21
345.2462510278735
 31
0.0
  0
LINE
  5
CA0
330
2
100
AcDbEntity
  8
0
100
AcDbLine
 10
91.46780739531891
 20
367.5651052800141
 30
0.0
 11
80.70778539531989
 21
367.565105280014
 31
0.0
  0
LINE
  5
CA1
330
2
100
AcDbEntity
  8
0
100
AcDbLine
 10
75.70778539531989
 20
373.565105280019
 30
0.0
 11
75.70778539531989
 21
301.5651052800095
 31
0.0
  0
ARC
  5
CA2
330
2
100
AcDbEntity
  8
0
100
AcDbCircle
 10
80.70778539531989
 20
372.565105280014
 30
0.0
 40
5.0
100
AcDbArc
 50
180.0
 51
270.0
  0
ARC
  5
CA3
330
2
100
AcDbEntity
  8
0
100
AcDbCircle
 10
73.70778539531989
 20
373.565105280019
 30
0.0
 40
2.0
100
AcDbArc
 50
0.0
 51
89.99999999997395
  0
LINE
  5
CA4
330
2
100
AcDbEntity
  8
0
100
AcDbLine
 10
75.70778539531989
 20
329.8839595321545
 30
0.0
 11
96.20780739532506
 21
329.8839595321547
 31
0.0
  0
LINE
  5
CA5
330
2
100
AcDbEntity
  8
0
100
AcDbLine
 10
75.70778539531989
 20
345.2462510278738
 30
0.0
 11
96.20780739532506
 21
345.2462510278735
 31
0.0
  0
LINE
  5
CA6
330
2
100
AcDbEntity
  8
0
100
AcDbLine
 10
91.46780739531891
 20
307.5651052800135
 30
0.0
 11
80.70778539531852
 21
307.5651052800143
 31
0.0
  0
ARC
  5
CA7
330
2
100
AcDbEntity
  8
0
100
AcDbCircle
 10
80.70778539531806
 20
302.565105280014
 30
0.0
 40
5.0
100
AcDbArc
 50
90.0
 51
179.9999999999869
  0
ARC
  5
CA8
330
2
100
AcDbEntity
  8
0
100
AcDbCircle
 10
73.70778539531807
 20
301.5651052800095
 30
0.0
 40
2.0
100
AcDbArc
 50
270.0
 51
0.0
  0
LINE
  5
CA9
330
2
100
AcDbEntity
  8
0
100
AcDbLine
 10
77.58079074152806
 20
302.5651052800113
 30
0.0
 11
94.46780739531892
 21
302.565105280011
 31
0.0
  0
LINE
  5
CAA
330
2
100
AcDbEntity
  8
0
100
AcDbLine
 10
77.58079074152715
 20
372.565105280011
 30
0.0
 11
94.46780739531892
 21
372.5651052800113
 31
0.0
  0
ARC
  5
CAB
330
2
100
AcDbEntity
  8
0
100
AcDbCircle
 10
77.58079074152715
 20
374.5651052800111
 30
0.0
 40
2.0
100
AcDbArc
 50
194.477512185929
 51
270.0
  0
ARC
  5
CAC
330
2
100
AcDbEntity
  8
0
100
AcDbCircle
 10
77.58079074152806
 20
300.5651052800113
 30
0.0
 40
2.0
100
AcDbArc
 50
90.0
 51
165.5224878140709
  0
LINE
  5
CAD
330
2
100
AcDbEntity
  8
0
100
AcDbLine
 10
51.20778539531989
 20
389.0651052800197
 30
0.0
 11
64.70778539532307
 21
389.0651052800199
 31
0.0
  0
ARC
  5
CAE
330
2
100
AcDbEntity
  8
0
100
AcDbCircle
 10
64.70778539532307
 20
387.0651052800199
 30
0.0
 40
2.0
100
AcDbArc
 50
359.9999999999869
 51
90.0
  0
LINE
  5
CAF
330
2
100
AcDbEntity
  8
0
100
AcDbLine
 10
51.20778539532034
 20
286.0651052800195
 30
0.0
 11
64.70778539532034
 21
286.065105280019
 31
0.0
  0
ARC
  5
CB0
330
2
100
AcDbEntity
  8
0
100
AcDbCircle
 10
64.70778539532034
 20
288.065105280019
 30
0.0
 40
2.0
100
AcDbArc
 50
270.0
 51
0.0
  0
LINE
  5
CB2
330
2
100
AcDbEntity
  8
CENTER
100
AcDbLine
 10
244.0245767023223
 20
337.5651052800106
 30
0.0
 11
422.0245767022113
 21
337.5651052800111
 31
0.0
  0
LINE
  5
CB3
330
2
100
AcDbEntity
  8
CENTER
100
AcDbLine
 10
327.0245767022099
 20
276.064624707158
 30
0.0
 11
327.0245767022099
 21
399.0655858528432
 31
0.0
  0
LINE
  5
CB4
330
2
100
AcDbEntity
  8
0
100
AcDbLine
 10
297.5245767022099
 20
286.5651052800124
 30
0.0
 11
297.5245767022058
 21
388.5651052800108
 31
0.0
  0
LINE
  5
CB5
330
2
100
AcDbEntity
  8
0
100
AcDbLine
 10
297.5245767022099
 20
286.5651052800124
 30
0.0
 11
380.0245767022099
 21
287.28507187275
 31
0.0
  0
LINE
  5
CB6
330
2
100
AcDbEntity
  8
0
100
AcDbLine
 10
385.0245767022099
 20
292.5651052800126
 30
0.0
 11
385.0245767022099
 21
382.5651052800124
 31
0.0
  0
LINE
  5
CB7
330
2
100
AcDbEntity
  8
0
100
AcDbLine
 10
380.0245767022099
 20
292.5651052800126
 30
0.0
 11
385.0245767022099
 21
292.5651052800126
 31
0.0
  0
LINE
  5
CB8
330
2
100
AcDbEntity
  8
0
100
AcDbLine
 10
380.0245767022099
 20
287.2850718727501
 30
0.0
 11
380.0245767022099
 21
387.8425812871029
 31
0.0
  0
LINE
  5
CB9
330
2
100
AcDbEntity
  8
0
100
AcDbLine
 10
380.0245767022099
 20
382.5651052800124
 30
0.0
 11
385.0245767022099
 21
382.5651052800124
 31
0.0
  0
LINE
  5
CBA
330
2
100
AcDbEntity
  8
0
100
AcDbLine
 10
399.0245767022113
 20
305.4964828296249
 30
0.0
 11
399.0245767022113
 21
369.6337277303981
 31
0.0
  0
LINE
  5
CBB
330
2
100
AcDbEntity
  8
0
100
AcDbLine
 10
386.9547777088066
 20
303.1436186115513
 30
0.0
 11
397.094375695616
 21
303.497701175587
 31
0.0
  0
ARC
  5
CBC
330
2
100
AcDbEntity
  8
0
100
AcDbCircle
 10
387.0245767022113
 20
301.1448369575135
 30
0.0
 40
2.0
100
AcDbArc
 50
92.00000000000365
 51
180.0
  0
ARC
  5
CBD
330
2
100
AcDbEntity
  8
0
100
AcDbCircle
 10
397.0245767022113
 20
305.4964828296249
 30
0.0
 40
2.0
100
AcDbArc
 50
272.0000000000036
 51
0.0
  0
LINE
  5
CBE
330
2
100
AcDbEntity
  8
0
100
AcDbLine
 10
386.9547777088062
 20
371.9865919484717
 30
0.0
 11
397.094375695616
 21
371.632509384436
 31
0.0
  0
ARC
  5
CBF
330
2
100
AcDbEntity
  8
0
100
AcDbCircle
 10
387.0245767022113
 20
373.9853736025096
 30
0.0
 40
2.0
100
AcDbArc
 50
180.0
 51
267.9999999999963
  0
ARC
  5
CC0
330
2
100
AcDbEntity
  8
0
100
AcDbCircle
 10
397.0245767022113
 20
369.6337277303981
 30
0.0
 40
2.0
100
AcDbArc
 50
0.0
 51
87.99999999999636
  0
LINE
  5
CC1
330
2
100
AcDbEntity
  8
0
100
AcDbLine
 10
297.5245767022058
 20
388.5651052800108
 30
0.0
 11
380.0245767022099
 21
387.8425812871029
 31
0.0
  0
LINE
  5
CC2
330
2
100
AcDbEntity
  8
0
100
AcDbLine
 10
276.0245767022131
 20
294.4870583657264
 30
0.0
 11
276.0245767022136
 21
380.6431521942748
 31
0.0
  0
ARC
  5
CC3
330
2
100
AcDbEntity
  8
0
100
AcDbCircle
 10
370.0245767022136
 20
380.6431521942757
 30
0.0
 40
8.0
100
AcDbArc
 50
65.12006096689425
 51
89.43829466741624
  0
LINE
  5
CC4
330
2
100
AcDbEntity
  8
0
100
AcDbLine
 10
327.0245767022136
 20
286.065105280001
 30
0.0
 11
283.946149098682
 21
286.4874428055262
 31
0.0
  0
ARC
  5
CC5
330
2
100
AcDbEntity
  8
0
100
AcDbCircle
 10
284.0245767022131
 20
294.4870583657264
 30
0.0
 40
8.0
100
AcDbArc
 50
180.0
 51
269.4382946674422
  0
LINE
  5
CC6
330
2
100
AcDbEntity
  8
0
100
AcDbLine
 10
327.0245767022136
 20
286.065105280001
 30
0.0
 11
370.1030043057446
 21
286.4874428055252
 31
0.0
  0
ARC
  5
CC7
330
2
100
AcDbEntity
  8
0
100
AcDbCircle
 10
370.0245767022136
 20
294.4870583657255
 30
0.0
 40
8.0
100
AcDbArc
 50
270.5617053325576
 51
294.8391048618038
  0
LINE
  5
CC8
330
2
100
AcDbEntity
  8
0
100
AcDbLine
 10
327.0245767022136
 20
389.0651052800001
 30
0.0
 11
283.946149098682
 21
388.642767754475
 31
0.0
  0
ARC
  5
CC9
330
2
100
AcDbEntity
  8
0
100
AcDbCircle
 10
284.0245767022135
 20
380.6431521942748
 30
0.0
 40
8.0
100
AcDbArc
 50
90.5617053325577
 51
180.0
  0
LINE
  5
CCA
330
2
100
AcDbEntity
  8
0
100
AcDbLine
 10
327.0245767022136
 20
389.0651052800001
 30
0.0
 11
370.1030043057446
 21
388.6427677544759
 31
0.0
  0
ARC
  5
CCB
330
2
100
AcDbEntity
  8
0
100
AcDbCircle
 10
-1.792192604681304
 20
337.5651052800109
 30
0.0
 40
200.0
100
AcDbArc
 50
354.1053016136052
 51
5.894698386394723
  0
LINE
  5
CCC
330
2
100
AcDbEntity
  8
0
 48
0.5
100
AcDbLine
 10
96.7278073953155
 20
294.5651052800117
 30
0.0
 11
96.72780739532232
 21
380.5651052800115
 31
0.0
  0
ARC
  5
CCD
330
2
100
AcDbEntity
  8
0
100
AcDbCircle
 10
173.9099363256443
 20
447.1903096019953
 30
0.0
 40
60.0
100
AcDbArc
 50
264.1053016135962
 51
281.8050678104682
  0
ARC
  5
CCE
330
2
100
AcDbEntity
  8
0
 48
0.5
100
AcDbCircle
 10
190.2078073953187
 20
380.5651052800111
 30
0.0
 40
8.0
100
AcDbArc
 50
0.0
 51
90.0
  0
LINE
  5
CCF
330
2
100
AcDbEntity
  8
CENTER
 48
12.0
100
AcDbLine
 10
190.2078073953218
 20
389.3151052800112
 30
0.0
 11
190.2078073953218
 21
371.8151052800112
 31
0.0
  0
LINE
  5
CD0
330
2
100
AcDbEntity
  8
0
 48
0.5
100
AcDbLine
 10
190.2078073953187
 20
388.5651052800111
 30
0.0
 11
187.2078073953186
 21
388.5651052800109
 31
0.0
  0
ARC
  5
CD1
330
2
100
AcDbEntity
  8
0
100
AcDbCircle
 10
187.2078073953186
 20
383.5651052800105
 30
0.0
 40
5.0
100
AcDbArc
 50
90.0
 51
101.8050678104681
  0
LINE
  5
CD2
330
2
100
AcDbEntity
  8
CENTER
 48
12.0
100
AcDbLine
 10
198.9578073953218
 20
380.5651052800111
 30
0.0
 11
181.4578073953218
 21
380.5651052800111
 31
0.0
  0
ARC
  5
CD3
330
2
100
AcDbEntity
  8
0
100
AcDbCircle
 10
256.8330117173033
 20
364.2672342103356
 30
0.0
 40
60.0
100
AcDbArc
 50
168.1949321895351
 51
185.8946983863947
  0
LINE
  5
CD4
330
2
100
AcDbEntity
  8
0
 48
0.5
100
AcDbLine
 10
198.2078073953186
 20
377.5651052800085
 30
0.0
 11
198.2078073953186
 21
380.5651052800109
 31
0.0
  0
ARC
  5
CD5
330
2
100
AcDbEntity
  8
0
100
AcDbCircle
 10
193.2078073953187
 20
377.5651052800109
 30
0.0
 40
5.0
100
AcDbArc
 50
348.194932189535
 51
0.0
  0
ARC
  5
CD6
330
2
100
AcDbEntity
  8
0
 48
0.5
100
AcDbCircle
 10
104.7278073953218
 20
380.5651052800108
 30
0.0
 40
8.0
100
AcDbArc
 50
90.0
 51
179.9999999999934
  0
ARC
  5
CD7
330
2
100
AcDbEntity
  8
0
100
AcDbCircle
 10
120.5056784649939
 20
447.1903096019956
 30
0.0
 40
60.0
100
AcDbArc
 50
258.1949321895318
 51
275.8946983864037
  0
ARC
  5
CD8
330
2
100
AcDbEntity
  8
0
100
AcDbCircle
 10
147.2078073953186
 20
188.565105280011
 30
0.0
 40
200.0
100
AcDbArc
 50
84.10530161359627
 51
95.89469838640374
  0
LINE
  5
CD9
330
2
100
AcDbEntity
  8
0
 48
0.5
100
AcDbLine
 10
107.2078073953186
 20
388.5651052800108
 30
0.0
 11
104.7278073953218
 21
388.5651052800108
 31
0.0
  0
ARC
  5
CDA
330
2
100
AcDbEntity
  8
0
100
AcDbCircle
 10
107.2078073953186
 20
383.565105280011
 30
0.0
 40
5.0
100
AcDbArc
 50
78.19493218953183
 51
90.0
  0
LINE
  5
CDB
330
2
100
AcDbEntity
  8
CENTER
 48
12.0
100
AcDbLine
 10
96.53460231456506
 20
372.0651052800111
 30
0.0
 11
106.8810124760791
 21
372.0651052800111
 31
0.0
  0
LINE
  5
CDC
330
2
100
AcDbEntity
  8
CENTER
 48
12.0
100
AcDbLine
 10
95.45780739531869
 20
380.5651052800143
 30
0.0
 11
112.9578073953186
 21
380.5651052800143
 31
0.0
  0
CIRCLE
  5
CDD
330
2
100
AcDbEntity
  8
0
100
AcDbCircle
 10
101.7078073953223
 20
372.0651052800113
 30
0.0
 40
1.6
  0
CIRCLE
  5
CDE
330
2
100
AcDbEntity
  8
HOJO
100
AcDbCircle
 10
101.7078073953223
 20
372.0651052800113
 30
0.0
 40
2.0
  0
LINE
  5
CDF
330
2
100
AcDbEntity
  8
CENTER
 48
12.0
100
AcDbLine
 10
101.7078073953218
 20
377.2383103607682
 30
0.0
 11
101.7078073953218
 21
366.8919001992541
 31
0.0
  0
ARC
  5
CE0
330
2
100
AcDbEntity
  8
0
100
AcDbCircle
 10
173.9099363256434
 20
227.9399009580265
 30
0.0
 40
60.0
100
AcDbArc
 50
78.19493218953183
 51
95.89469838640374
  0
ARC
  5
CE1
330
2
100
AcDbEntity
  8
0
 48
0.5
100
AcDbCircle
 10
190.2078073953187
 20
294.5651052800111
 30
0.0
 40
8.0
100
AcDbArc
 50
270.0
 51
0.0
  0
LINE
  5
CE2
330
2
100
AcDbEntity
  8
CENTER
 48
12.0
100
AcDbLine
 10
190.2078073953187
 20
285.8151052800078
 30
0.0
 11
190.2078073953187
 21
303.3151052800078
 31
0.0
  0
LINE
  5
CE3
330
2
100
AcDbEntity
  8
CENTER
 48
12.0
100
AcDbLine
 10
198.9578073953186
 20
294.5651052800077
 30
0.0
 11
181.4578073953186
 21
294.5651052800077
 31
0.0
  0
LINE
  5
CE4
330
2
100
AcDbEntity
  8
CENTER
 48
12.0
100
AcDbLine
 10
197.88101247607
 20
303.0651052800108
 30
0.0
 11
187.5346023145559
 21
303.0651052800108
 31
0.0
  0
CIRCLE
  5
CE5
330
2
100
AcDbEntity
  8
HOJO
100
AcDbCircle
 10
192.7078073953127
 20
303.0651052800108
 30
0.0
 40
2.0
  0
LINE
  5
CE6
330
2
100
AcDbEntity
  8
CENTER
 48
12.0
100
AcDbLine
 10
192.7078073953132
 20
297.8919001992538
 30
0.0
 11
192.7078073953132
 21
308.2383103607678
 31
0.0
  0
ARC
  5
CE7
330
2
100
AcDbEntity
  8
0
100
AcDbCircle
 10
256.8330117173029
 20
310.8629763496855
 30
0.0
 40
60.0
100
AcDbArc
 50
174.1053016136052
 51
191.8050678104648
  0
LINE
  5
CE8
330
2
100
AcDbEntity
  8
0
 48
0.5
100
AcDbLine
 10
198.2078073953186
 20
294.5651052800111
 30
0.0
 11
198.2078073953186
 21
297.5651052800086
 31
0.0
  0
ARC
  5
CE9
330
2
100
AcDbEntity
  8
0
100
AcDbCircle
 10
193.2078073953182
 20
297.5651052800109
 30
0.0
 40
5.0
100
AcDbArc
 50
0.0
 51
11.80506781046486
  0
CIRCLE
  5
CEA
330
2
100
AcDbEntity
  8
0
100
AcDbCircle
 10
192.7078073953127
 20
303.0651052800108
 30
0.0
 40
1.6
  0
LINE
  5
CEB
330
2
100
AcDbEntity
  8
0
 48
0.5
100
AcDbLine
 10
190.2078073953187
 20
286.5651052800111
 30
0.0
 11
187.2078073953186
 21
286.5651052800111
 31
0.0
  0
ARC
  5
CEC
330
2
100
AcDbEntity
  8
0
100
AcDbCircle
 10
187.2078073953186
 20
291.5651052800111
 30
0.0
 40
5.0
100
AcDbArc
 50
258.1949321895318
 51
270.0
  0
ARC
  5
CED
330
2
100
AcDbEntity
  8
0
100
AcDbCircle
 10
120.5056784649934
 20
227.9399009580267
 30
0.0
 40
60.0
100
AcDbArc
 50
84.10530161359627
 51
101.8050678104681
  0
ARC
  5
CEE
330
2
100
AcDbEntity
  8
0
100
AcDbCircle
 10
147.2078073953186
 20
486.565105280011
 30
0.0
 40
200.0
100
AcDbArc
 50
264.1053016135962
 51
275.8946983864037
  0
ARC
  5
CEF
330
2
100
AcDbEntity
  8
0
100
AcDbCircle
 10
104.7278073953154
 20
294.5651052800112
 30
0.0
 40
8.0
100
AcDbArc
 50
179.9999999999934
 51
270.0
  0
LINE
  5
CF0
330
2
100
AcDbEntity
  8
CENTER
 48
12.0
100
AcDbLine
 10
95.45780739531551
 20
294.5651052800108
 30
0.0
 11
112.9578073953155
 21
294.5651052800108
 31
0.0
  0
ARC
  5
CF1
330
2
100
AcDbEntity
  8
0
100
AcDbCircle
 10
107.2078073953186
 20
291.5651052800115
 30
0.0
 40
5.0
100
AcDbArc
 50
270.0
 51
281.8050678104682
  0
LINE
  5
CF2
330
2
100
AcDbEntity
  8
0
100
AcDbLine
 10
104.7278073953163
 20
286.5651052800112
 30
0.0
 11
107.2078073953186
 21
286.5651052800115
 31
0.0
  0
ARC
  5
CF3
330
2
100
AcDbEntity
  8
0
100
AcDbCircle
 10
122.3966242132698
 20
301.565105280017
 30
0.0
 40
10.5
100
AcDbArc
 50
224.9999999999926
 51
270.0
  0
LINE
  5
CF4
330
2
100
AcDbEntity
  8
0
100
AcDbLine
 10
118.861090307337
 20
298.0295713740843
 30
0.0
 11
107.6722734893917
 21
309.2183881920292
 31
0.0
  0
CIRCLE
  5
CF5
330
2
100
AcDbEntity
  8
0
100
AcDbCircle
 10
147.2078073953186
 20
337.565105280011
 30
0.0
 40
33.00000000000153
  0
CIRCLE
  5
CF6
330
2
100
AcDbEntity
  8
0
100
AcDbCircle
 10
147.2078073953186
 20
337.565105280011
 30
0.0
 40
35.00000000000153
  0
CIRCLE
  5
CF7
330
2
100
AcDbEntity
  8
0
100
AcDbCircle
 10
147.2078073953186
 20
337.565105280011
 30
0.0
 40
35.50000000000153
  0
CIRCLE
  5
CF8
330
2
100
AcDbEntity
  8
0
100
AcDbCircle
 10
147.2078073953186
 20
337.565105280011
 30
0.0
 40
32.42260000000154
  0
CIRCLE
  5
CF9
330
2
100
AcDbEntity
  8
0
100
AcDbCircle
 10
147.2078073953186
 20
337.565105280011
 30
0.0
 40
26.0
  0
CIRCLE
  5
CFA
330
2
100
AcDbEntity
  8
0
100
AcDbCircle
 10
147.2078073953186
 20
337.565105280011
 30
0.0
 40
26.57735026918937
  0
LINE
  5
CFB
330
2
100
AcDbEntity
  8
0
100
AcDbLine
 10
122.3966242132694
 20
296.565105280017
 30
0.0
 11
172.0189905773675
 21
296.5651052800168
 31
0.0
  0
LINE
  5
CFC
330
2
100
AcDbEntity
  8
0
100
AcDbLine
 10
122.3966242132698
 20
291.065105280017
 30
0.0
 11
172.0189905773675
 21
291.0651052800168
 31
0.0
  0
LINE
  5
CFD
330
2
100
AcDbEntity
  8
0
100
AcDbLine
 10
118.3784481734362
 20
291.8643701886484
 30
0.0
 11
120.4832070514441
 21
296.9457076174604
 31
0.0
  0
ARC
  5
CFE
330
2
100
AcDbEntity
  8
0
100
AcDbCircle
 10
122.3966242132694
 20
301.565105280017
 30
0.0
 40
5.0
100
AcDbArc
 50
224.9999999999926
 51
270.0
  0
LINE
  5
CFF
330
2
100
AcDbEntity
  8
0
100
AcDbLine
 10
186.7433413012456
 20
309.2183881920291
 30
0.0
 11
175.5545244833003
 21
298.0295713740841
 31
0.0
  0
LINE
  5
D00
330
2
100
AcDbEntity
  8
0
100
AcDbLine
 10
190.6324285977714
 20
305.3293008955031
 30
0.0
 11
179.4436117798265
 21
294.1404840775581
 31
0.0
  0
LINE
  5
D01
330
2
100
AcDbEntity
  8
0
100
AcDbLine
 10
176.0371666172011
 20
291.8643701886484
 30
0.0
 11
173.9324077391932
 21
296.9457076174604
 31
0.0
  0
ARC
  5
D02
330
2
100
AcDbEntity
  8
0
100
AcDbCircle
 10
172.0189905773675
 20
301.5651052800169
 30
0.0
 40
10.5
100
AcDbArc
 50
270.0
 51
315.0000000000074
  0
ARC
  5
D03
330
2
100
AcDbEntity
  8
0
100
AcDbCircle
 10
172.0189905773675
 20
301.5651052800169
 30
0.0
 40
5.0
100
AcDbArc
 50
270.0
 51
315.0000000000074
  0
LINE
  5
D04
330
2
100
AcDbEntity
  8
0
100
AcDbLine
 10
188.2078073953127
 20
312.7539220979619
 30
0.0
 11
188.2078073953127
 21
362.3762884620603
 31
0.0
  0
LINE
  5
D05
330
2
100
AcDbEntity
  8
0
100
AcDbLine
 10
193.7078073953127
 20
312.7539220979619
 30
0.0
 11
193.7078073953127
 21
362.3762884620601
 31
0.0
  0
LINE
  5
D06
330
2
100
AcDbEntity
  8
0
100
AcDbLine
 10
192.9085424866814
 20
308.7357460581286
 30
0.0
 11
187.8272050578696
 21
310.8405049361365
 31
0.0
  0
ARC
  5
D07
330
2
100
AcDbEntity
  8
0
100
AcDbCircle
 10
183.2078073953127
 20
312.7539220979619
 30
0.0
 40
10.5
100
AcDbArc
 50
315.0000000000074
 51
0.0
  0
ARC
  5
D08
330
2
100
AcDbEntity
  8
0
100
AcDbCircle
 10
183.2078073953127
 20
312.7539220979619
 30
0.0
 40
5.0
100
AcDbArc
 50
315.0000000000074
 51
0.0
  0
LINE
  5
D09
330
2
100
AcDbEntity
  8
0
100
AcDbLine
 10
175.5545244833008
 20
377.1006391859379
 30
0.0
 11
186.7433413012456
 21
365.911822367993
 31
0.0
  0
LINE
  5
D0A
330
2
100
AcDbEntity
  8
0
100
AcDbLine
 10
192.9085424866814
 20
366.3944645018934
 30
0.0
 11
187.8272050578696
 21
364.2897056238855
 31
0.0
  0
ARC
  5
D0B
330
2
100
AcDbEntity
  8
0
100
AcDbCircle
 10
183.2078073953127
 20
362.3762884620601
 30
0.0
 40
10.5
100
AcDbArc
 50
0.0
 51
44.99999999999261
  0
ARC
  5
D0C
330
2
100
AcDbEntity
  8
0
100
AcDbCircle
 10
183.2078073953127
 20
362.3762884620603
 30
0.0
 40
5.0
100
AcDbArc
 50
0.0
 51
44.99999999999261
  0
LINE
  5
D0D
330
2
100
AcDbEntity
  8
0
100
AcDbLine
 10
179.4436117798265
 20
380.9897264824638
 30
0.0
 11
190.6324285977714
 21
369.8009096645189
 31
0.0
  0
LINE
  5
D0E
330
2
100
AcDbEntity
  8
0
100
AcDbLine
 10
172.0189905773679
 20
378.5651052800051
 30
0.0
 11
122.3966242132698
 21
378.565105280005
 31
0.0
  0
LINE
  5
D0F
330
2
100
AcDbEntity
  8
0
100
AcDbLine
 10
172.0189905773679
 20
384.0651052800052
 30
0.0
 11
122.3966242132694
 21
384.065105280005
 31
0.0
  0
LINE
  5
D10
330
2
100
AcDbEntity
  8
0
100
AcDbLine
 10
176.0371666172011
 20
383.2658403713738
 30
0.0
 11
173.9324077391932
 21
378.1845029425617
 31
0.0
  0
ARC
  5
D11
330
2
100
AcDbEntity
  8
0
100
AcDbCircle
 10
172.0189905773679
 20
373.5651052800051
 30
0.0
 40
10.5
100
AcDbArc
 50
44.99999999999261
 51
90.0
  0
ARC
  5
D12
330
2
100
AcDbEntity
  8
0
100
AcDbCircle
 10
172.0189905773679
 20
373.5651052800051
 30
0.0
 40
5.0
100
AcDbArc
 50
44.99999999999261
 51
90.0
  0
ARC
  5
D13
330
2
100
AcDbEntity
  8
0
100
AcDbCircle
 10
122.3966242132694
 20
373.565105280005
 30
0.0
 40
10.5
100
AcDbArc
 50
90.0
 51
135.0000000000074
  0
LINE
  5
D14
330
2
100
AcDbEntity
  8
0
100
AcDbLine
 10
107.6722734893921
 20
365.9118223679929
 30
0.0
 11
118.861090307337
 21
377.1006391859378
 31
0.0
  0
LINE
  5
D15
330
2
100
AcDbEntity
  8
0
100
AcDbLine
 10
118.3784481734362
 20
383.2658403713738
 30
0.0
 11
120.4832070514441
 21
378.1845029425618
 31
0.0
  0
ARC
  5
D16
330
2
100
AcDbEntity
  8
0
100
AcDbCircle
 10
122.3966242132698
 20
373.565105280005
 30
0.0
 40
5.0
100
AcDbArc
 50
90.0
 51
135.0000000000074
  0
LINE
  5
D17
330
2
100
AcDbEntity
  8
0
100
AcDbLine
 10
103.7831861928659
 20
369.8009096645191
 30
0.0
 11
114.9720030108108
 21
380.9897264824638
 31
0.0
  0
LINE
  5
D18
330
2
100
AcDbEntity
  8
0
100
AcDbLine
 10
106.2078073953246
 20
362.3762884620601
 30
0.0
 11
106.2078073953246
 21
312.753922097962
 31
0.0
  0
LINE
  5
D19
330
2
100
AcDbEntity
  8
0
100
AcDbLine
 10
100.7078073953246
 20
362.3762884620603
 30
0.0
 11
100.7078073953246
 21
312.7539220979619
 31
0.0
  0
ARC
  5
D1A
330
2
100
AcDbEntity
  8
0
100
AcDbCircle
 10
111.2078073953246
 20
362.3762884620603
 30
0.0
 40
10.5
100
AcDbArc
 50
135.0000000000074
 51
180.0
  0
LINE
  5
D1B
330
2
100
AcDbEntity
  8
0
100
AcDbLine
 10
101.5070723039559
 20
366.3944645018935
 30
0.0
 11
106.5884097327682
 21
364.2897056238855
 31
0.0
  0
ARC
  5
D1C
330
2
100
AcDbEntity
  8
0
100
AcDbCircle
 10
111.2078073953246
 20
362.3762884620601
 30
0.0
 40
5.0
100
AcDbArc
 50
135.0000000000074
 51
180.0
  0
LINE
  5
D1D
330
2
100
AcDbEntity
  8
0
100
AcDbLine
 10
114.9720030108108
 20
294.1404840775583
 30
0.0
 11
103.7831861928659
 21
305.3293008955031
 31
0.0
  0
ARC
  5
D1E
330
2
100
AcDbEntity
  8
0
100
AcDbCircle
 10
111.2078073953246
 20
312.7539220979619
 30
0.0
 40
10.5
100
AcDbArc
 50
180.0
 51
224.9999999999926
  0
LINE
  5
D1F
330
2
100
AcDbEntity
  8
0
100
AcDbLine
 10
101.5070723039559
 20
308.7357460581287
 30
0.0
 11
106.5884097327682
 21
310.8405049361366
 31
0.0
  0
ARC
  5
D20
330
2
100
AcDbEntity
  8
0
100
AcDbCircle
 10
111.2078073953246
 20
312.753922097962
 30
0.0
 40
5.0
100
AcDbArc
 50
180.0
 51
224.9999999999926
  0
LINE
  5
D21
330
2
100
AcDbEntity
  8
CENTER
 48
12.0
100
AcDbLine
 10
104.2078073953186
 20
285.8151052800078
 30
0.0
 11
104.2078073953186
 21
303.3151052800078
 31
0.0
  0
LINE
  5
D22
330
2
100
AcDbEntity
  8
CENTER
 48
12.0
100
AcDbLine
 10
104.2078073953186
 20
389.315105280014
 30
0.0
 11
104.2078073953186
 21
371.815105280014
 31
0.0
  0
LINE
  5
D23
330
2
100
AcDbEntity
  8
0
100
AcDbLine
 10
276.0245767021936
 20
369.9877550108098
 30
0.0
 11
276.0245767022027
 21
337.5651052800107
 31
0.0
  0
LINE
  5
D24
330
2
100
AcDbEntity
  8
0
 48
0.5
100
AcDbLine
 10
280.7245767022166
 20
370.5651052800117
 30
0.0
 11
284.0245767022167
 21
370.5651052800108
 31
0.0
  0
LINE
  5
D25
330
2
100
AcDbEntity
  8
HIDS
  6
SEKKEI_H
 48
0.5
100
AcDbLine
 10
289.4387902645796
 20
383.4793188423736
 30
0.0
 11
285.1103631398466
 21
379.1508917176449
 31
0.0
  0
LINE
  5
D26
330
2
100
AcDbEntity
  8
0
100
AcDbLine
 10
284.0245767022117
 20
370.5651052800108
 30
0.0
 11
284.0245767022122
 21
372.5651052800054
 31
0.0
  0
LINE
  5
D27
330
2
100
AcDbEntity
  8
0
100
AcDbLine
 10
284.0245767022172
 20
372.5651052800106
 30
0.0
 11
284.5245767022177
 21
373.0651052800104
 31
0.0
  0
LINE
  5
D28
330
2
100
AcDbEntity
  8
0
100
AcDbLine
 10
284.0245767022172
 20
372.5651052800106
 30
0.0
 11
284.0245767022167
 21
370.5651052800108
 31
0.0
  0
LINE
  5
D29
330
2
100
AcDbEntity
  8
0
100
AcDbLine
 10
292.0071236312107
 20
388.5169551965167
 30
0.0
 11
297.5245767022072
 21
388.565105280009
 31
0.0
  0
ARC
  5
D2A
330
2
100
AcDbEntity
  8
0
100
AcDbCircle
 10
292.0245767022072
 20
386.5170313503883
 30
0.0
 40
2.0
100
AcDbArc
 50
90.49999999999155
 51
180.0
  0
LINE
  5
D2B
330
2
100
AcDbEntity
  8
0
 48
0.5
100
AcDbLine
 10
278.7245767022166
 20
369.8651052800122
 30
0.0
 11
280.3245767022165
 21
369.8651052800117
 31
0.0
  0
LINE
  5
D2C
330
2
100
AcDbEntity
  8
0
 48
0.5
100
AcDbLine
 10
280.5245767022167
 20
370.3651052800115
 30
0.0
 11
280.7245767022166
 21
370.5651052800117
 31
0.0
  0
LINE
  5
D2D
330
2
100
AcDbEntity
  8
0
100
AcDbLine
 10
278.5245767022167
 20
370.3651052800121
 30
0.0
 11
278.5245767022172
 21
304.7651052800093
 31
0.0
  0
LINE
  5
D2E
330
2
100
AcDbEntity
  8
0
100
AcDbLine
 10
277.0245767022168
 20
370.5651052800126
 30
0.0
 11
276.0245767022163
 21
369.9877550108231
 31
0.0
  0
LINE
  5
D2F
330
2
100
AcDbEntity
  8
0
 48
0.5
100
AcDbLine
 10
277.0245767022168
 20
370.5651052800126
 30
0.0
 11
278.3245767022169
 21
370.5651052800121
 31
0.0
  0
ARC
  5
D30
330
2
100
AcDbEntity
  8
HIDS
  6
SEKKEI_H
 48
0.3
100
AcDbCircle
 10
288.0245767022072
 20
384.8935324047474
 30
0.0
 40
2.0
100
AcDbArc
 50
314.9999999999729
 51
0.0
  0
ARC
  5
D31
330
2
100
AcDbEntity
  8
HIDS
  6
SEKKEI_H
 48
0.5
100
AcDbCircle
 10
286.5245767022191
 20
377.7366781552711
 30
0.0
 40
2.0
100
AcDbArc
 50
134.9999999999728
 51
179.9999999999804
  0
ARC
  5
D32
330
2
100
AcDbEntity
  8
0
100
AcDbCircle
 10
278.3245767022165
 20
370.3651052800121
 30
0.0
 40
0.2
100
AcDbArc
 50
0.0
 51
89.99999999997395
  0
ARC
  5
D33
330
2
100
AcDbEntity
  8
0
 48
0.5
100
AcDbCircle
 10
278.7245767022166
 20
370.0651052800122
 30
0.0
 40
0.2
100
AcDbArc
 50
180.0
 51
269.9999999999739
  0
ARC
  5
D34
330
2
100
AcDbEntity
  8
0
100
AcDbCircle
 10
280.3245767022169
 20
370.0651052800117
 30
0.0
 40
0.2
100
AcDbArc
 50
269.9999999999739
 51
0.0
  0
LINE
  5
D35
330
2
100
AcDbEntity
  8
0
100
AcDbLine
 10
276.024576702194
 20
305.1424555492116
 30
0.0
 11
276.0245767022027
 21
337.5651052800107
 31
0.0
  0
LINE
  5
D36
330
2
100
AcDbEntity
  8
0
 48
0.5
100
AcDbLine
 10
280.724576702217
 20
304.5651052800097
 30
0.0
 11
284.0245767022172
 21
304.5651052800107
 31
0.0
  0
LINE
  5
D37
330
2
100
AcDbEntity
  8
HIDS
  6
SEKKEI_H
 48
0.5
100
AcDbLine
 10
289.4387902645805
 20
291.6508917176481
 30
0.0
 11
285.1103631398475
 21
295.9793188423767
 31
0.0
  0
LINE
  5
D38
330
2
100
AcDbEntity
  8
0
100
AcDbLine
 10
284.5245767022199
 20
299.5651052800109
 30
0.0
 11
284.524576702219
 21
375.5651052800109
 31
0.0
  0
LINE
  5
D39
330
2
100
AcDbEntity
  8
0
100
AcDbLine
 10
284.0245767022122
 20
304.5651052800107
 30
0.0
 11
284.0245767022127
 21
302.5651052800162
 31
0.0
  0
LINE
  5
D3A
330
2
100
AcDbEntity
  8
0
100
AcDbLine
 10
284.0245767022181
 20
302.5651052800109
 30
0.0
 11
284.5245767022181
 21
302.0651052800112
 31
0.0
  0
LINE
  5
D3B
330
2
100
AcDbEntity
  8
0
100
AcDbLine
 10
284.0245767022181
 20
302.5651052800109
 30
0.0
 11
284.0245767022172
 21
304.5651052800107
 31
0.0
  0
LINE
  5
D3C
330
2
100
AcDbEntity
  8
0
100
AcDbLine
 10
292.0071236312116
 20
286.6132553635034
 30
0.0
 11
297.5245767022081
 21
286.5651052800113
 31
0.0
  0
ARC
  5
D3D
330
2
100
AcDbEntity
  8
0
100
AcDbCircle
 10
292.0245767022081
 20
288.6131792096318
 30
0.0
 40
2.0
100
AcDbArc
 50
180.0
 51
269.5000000000084
  0
LINE
  5
D3E
330
2
100
AcDbEntity
  8
0
100
AcDbLine
 10
297.5245767022085
 20
286.5651052800112
 30
0.0
 11
297.5245767022072
 21
388.5651052800099
 31
0.0
  0
LINE
  5
D3F
330
2
100
AcDbEntity
  8
0
 48
0.3
100
AcDbLine
 10
290.0245767022081
 20
288.6131792096318
 30
0.0
 11
290.0245767022072
 21
386.5170313503883
 31
0.0
  0
LINE
  5
D40
330
2
100
AcDbEntity
  8
0
 48
0.5
100
AcDbLine
 10
278.724576702217
 20
305.2651052800093
 30
0.0
 11
280.3245767022174
 21
305.2651052800097
 31
0.0
  0
LINE
  5
D41
330
2
100
AcDbEntity
  8
0
100
AcDbLine
 10
280.5245767022172
 20
304.76510528001
 30
0.0
 11
280.5245767022167
 21
370.3651052800115
 31
0.0
  0
LINE
  5
D42
330
2
100
AcDbEntity
  8
0
 48
0.5
100
AcDbLine
 10
280.5245767022172
 20
304.76510528001
 30
0.0
 11
280.724576702217
 21
304.5651052800097
 31
0.0
  0
LINE
  5
D43
330
2
100
AcDbEntity
  8
0
100
AcDbLine
 10
277.0245767022172
 20
304.5651052800088
 30
0.0
 11
276.0245767022172
 21
305.1424555491983
 31
0.0
  0
LINE
  5
D44
330
2
100
AcDbEntity
  8
0
 48
0.5
100
AcDbLine
 10
277.0245767022172
 20
304.5651052800088
 30
0.0
 11
278.3245767022174
 21
304.5651052800093
 31
0.0
  0
ARC
  5
D45
330
2
100
AcDbEntity
  8
HIDS
  6
SEKKEI_H
 48
0.3
100
AcDbCircle
 10
288.0245767022081
 20
290.2366781552743
 30
0.0
 40
2.0
100
AcDbArc
 50
0.0
 51
45.00000000002711
  0
ARC
  5
D46
330
2
100
AcDbEntity
  8
HIDS
  6
SEKKEI_H
 48
0.5
100
AcDbCircle
 10
286.5245767022199
 20
297.3935324047506
 30
0.0
 40
2.0
100
AcDbArc
 50
180.0000000000195
 51
225.0000000000271
  0
ARC
  5
D47
330
2
100
AcDbEntity
  8
0
100
AcDbCircle
 10
278.3245767022174
 20
304.7651052800093
 30
0.0
 40
0.2
100
AcDbArc
 50
270.000000000026
 51
0.0
  0
ARC
  5
D48
330
2
100
AcDbEntity
  8
0
 48
0.5
100
AcDbCircle
 10
278.724576702217
 20
305.0651052800093
 30
0.0
 40
0.2
100
AcDbArc
 50
90.00000000002605
 51
180.0
  0
ARC
  5
D49
330
2
100
AcDbEntity
  8
0
100
AcDbCircle
 10
280.3245767022174
 20
305.0651052800097
 30
0.0
 40
0.2
100
AcDbArc
 50
0.0
 51
90.00000000002605
  0
LINE
  5
D4A
330
2
100
AcDbEntity
  8
0
 48
12.0
100
AcDbLine
 10
277.0245767022168
 20
370.5651052800126
 30
0.0
 11
277.0245767022172
 21
304.5651052800088
 31
0.0
  0
LINE
  5
D4B
330
2
100
AcDbEntity
  8
0
 48
12.0
100
AcDbLine
 10
280.7245767022166
 20
370.5651052800117
 30
0.0
 11
280.724576702217
 21
304.5651052800097
 31
0.0
  0
LINE
  5
D4C
330
2
100
AcDbEntity
  8
0
 48
12.0
100
AcDbLine
 10
284.0245767022167
 20
370.5651052800108
 30
0.0
 11
284.0245767022172
 21
304.5651052800107
 31
0.0
  0
LINE
  5
D4D
330
2
100
AcDbEntity
  8
0
100
AcDbLine
 10
578.4435860779706
 20
689.1013269884281
 30
0.0
 11
546.0209363471715
 21
689.1013269884183
 31
0.0
  0
LINE
  5
D4E
330
2
100
AcDbEntity
  8
0
 48
0.5
100
AcDbLine
 10
579.0209363471729
 20
684.4013269884048
 30
0.0
 11
579.020936347172
 21
681.1013269884049
 31
0.0
  0
LINE
  5
D4F
330
2
100
AcDbEntity
  8
HIDS
  6
SEKKEI_H
 48
0.5
100
AcDbLine
 10
591.9351499095344
 20
675.6871134260418
 30
0.0
 11
587.6067227848059
 21
680.0155405507751
 31
0.0
  0
LINE
  5
D50
330
2
100
AcDbEntity
  8
0
100
AcDbLine
 10
579.020936347172
 20
681.1013269884099
 30
0.0
 11
581.0209363471665
 21
681.1013269884094
 31
0.0
  0
LINE
  5
D51
330
2
100
AcDbEntity
  8
0
100
AcDbLine
 10
581.0209363471715
 20
681.1013269884043
 30
0.0
 11
581.520936347171
 21
680.601326988404
 31
0.0
  0
LINE
  5
D52
330
2
100
AcDbEntity
  8
0
100
AcDbLine
 10
581.0209363471715
 20
681.1013269884043
 30
0.0
 11
579.020936347172
 21
681.1013269884049
 31
0.0
  0
LINE
  5
D53
330
2
100
AcDbEntity
  8
0
 48
0.5
100
AcDbLine
 10
578.3209363471731
 20
686.4013269884049
 30
0.0
 11
578.3209363471725
 21
684.801326988405
 31
0.0
  0
LINE
  5
D54
330
2
100
AcDbEntity
  8
0
 48
0.5
100
AcDbLine
 10
578.8209363471721
 20
684.6013269884049
 30
0.0
 11
579.0209363471729
 21
684.4013269884048
 31
0.0
  0
LINE
  5
D55
330
2
100
AcDbEntity
  8
0
100
AcDbLine
 10
578.8209363471731
 20
686.6013269884049
 30
0.0
 11
513.22093634717
 21
686.6013269884035
 31
0.0
  0
LINE
  5
D56
330
2
100
AcDbEntity
  8
0
100
AcDbLine
 10
579.0209363471733
 20
688.1013269884049
 30
0.0
 11
578.4435860779837
 21
689.1013269884052
 31
0.0
  0
LINE
  5
D57
330
2
100
AcDbEntity
  8
0
 48
0.5
100
AcDbLine
 10
579.0209363471733
 20
688.1013269884049
 30
0.0
 11
579.0209363471729
 21
686.8013269884047
 31
0.0
  0
LINE
  5
D58
330
2
100
AcDbEntity
  8
0
 48
12.0
100
AcDbLine
 10
596.4527862086968
 20
673.1187800594112
 30
0.0
 11
596.5009364021523
 21
667.6013143878801
 31
0.0
  0
ARC
  5
D59
330
2
100
AcDbEntity
  8
HIDS
  6
SEKKEI_H
 48
0.3
100
AcDbCircle
 10
593.3493634719082
 20
677.1013269884142
 30
0.0
 40
2.0
100
AcDbArc
 50
224.9999999999855
 51
270.0
  0
ARC
  5
D5A
330
2
100
AcDbEntity
  8
HIDS
  6
SEKKEI_H
 48
0.5
100
AcDbCircle
 10
586.1925092224317
 20
678.6013269884026
 30
0.0
 40
2.0
100
AcDbArc
 50
44.99999999998552
 51
89.99999999997395
  0
ARC
  5
D5B
330
2
100
AcDbEntity
  8
0
100
AcDbCircle
 10
578.8209363471731
 20
686.8013269884049
 30
0.0
 40
0.2
100
AcDbArc
 50
270.0
 51
359.9999999999739
  0
ARC
  5
D5C
330
2
100
AcDbEntity
  8
0
 48
0.5
100
AcDbCircle
 10
578.5209363471729
 20
686.4013269884049
 30
0.0
 40
0.2
100
AcDbArc
 50
90.0
 51
179.9999999999804
  0
ARC
  5
D5D
330
2
100
AcDbEntity
  8
0
100
AcDbCircle
 10
578.5209363471729
 20
684.8013269884047
 30
0.0
 40
0.2
100
AcDbArc
 50
179.9999999999804
 51
270.0
  0
LINE
  5
D5E
330
2
100
AcDbEntity
  8
0
100
AcDbLine
 10
513.5982866163724
 20
689.1013269884267
 30
0.0
 11
546.0209363471715
 21
689.1013269884183
 31
0.0
  0
LINE
  5
D5F
330
2
100
AcDbEntity
  8
0
 48
0.5
100
AcDbLine
 10
513.0209363471705
 20
684.4013269884035
 30
0.0
 11
513.0209363471715
 21
681.1013269884035
 31
0.0
  0
LINE
  5
D60
330
2
100
AcDbEntity
  8
HIDS
  6
SEKKEI_H
 48
0.5
100
AcDbLine
 10
500.1067227848091
 20
675.6871134260402
 30
0.0
 11
504.4351499095376
 21
680.0155405507732
 31
0.0
  0
LINE
  5
D61
330
2
100
AcDbEntity
  8
0
100
AcDbLine
 10
508.020936347172
 20
680.6013269884011
 30
0.0
 11
584.020936347172
 21
680.6013269884024
 31
0.0
  0
LINE
  5
D62
330
2
100
AcDbEntity
  8
0
100
AcDbLine
 10
513.0209363471715
 20
681.1013269884085
 30
0.0
 11
511.020936347177
 21
681.1013269884081
 31
0.0
  0
LINE
  5
D63
330
2
100
AcDbEntity
  8
0
100
AcDbLine
 10
511.0209363471719
 20
681.1013269884028
 30
0.0
 11
510.5209363471719
 21
680.6013269884026
 31
0.0
  0
LINE
  5
D64
330
2
100
AcDbEntity
  8
0
100
AcDbLine
 10
511.0209363471719
 20
681.1013269884028
 30
0.0
 11
513.0209363471715
 21
681.1013269884035
 31
0.0
  0
LINE
  5
D65
330
2
100
AcDbEntity
  8
0
100
AcDbLine
 10
495.0690864306641
 20
673.1187800594093
 30
0.0
 11
495.020936347172
 21
667.6013269884124
 31
0.0
  0
LINE
  5
D66
330
2
100
AcDbEntity
  8
0
100
AcDbLine
 10
495.020936347172
 20
667.6013269884122
 30
0.0
 11
596.500936347172
 21
667.6013269884144
 31
0.0
  0
LINE
  5
D67
330
2
100
AcDbEntity
  8
0
 48
0.3
100
AcDbLine
 10
497.0690102767928
 20
675.1013269884126
 30
0.0
 11
594.452862362568
 21
675.1013269884142
 31
0.0
  0
ARC
  5
D68
330
2
100
AcDbEntity
  8
0
 48
0.3
100
AcDbCircle
 10
594.452862362568
 20
673.1013269884142
 30
0.0
 40
2.0
100
AcDbArc
 50
0.5000000000045769
 51
90.0
  0
ARC
  5
D69
330
2
100
AcDbEntity
  8
0
 48
0.3
100
AcDbCircle
 10
497.0690102767928
 20
673.1013269884126
 30
0.0
 40
2.0
100
AcDbArc
 50
90.0
 51
179.5000000000019
  0
LINE
  5
D6A
330
2
100
AcDbEntity
  8
0
 48
0.5
100
AcDbLine
 10
513.72093634717
 20
686.4013269884037
 30
0.0
 11
513.7209363471709
 21
684.8013269884035
 31
0.0
  0
LINE
  5
D6B
330
2
100
AcDbEntity
  8
0
100
AcDbLine
 10
513.2209363471709
 20
684.6013269884036
 30
0.0
 11
578.8209363471721
 21
684.6013269884049
 31
0.0
  0
LINE
  5
D6C
330
2
100
AcDbEntity
  8
0
 48
0.5
100
AcDbLine
 10
513.2209363471709
 20
684.6013269884036
 30
0.0
 11
513.0209363471705
 21
684.4013269884035
 31
0.0
  0
LINE
  5
D6D
330
2
100
AcDbEntity
  8
0
100
AcDbLine
 10
513.0209363471696
 20
688.1013269884036
 30
0.0
 11
513.5982866163592
 21
689.1013269884037
 31
0.0
  0
LINE
  5
D6E
330
2
100
AcDbEntity
  8
0
 48
0.5
100
AcDbLine
 10
513.0209363471696
 20
688.1013269884036
 30
0.0
 11
513.0209363471701
 21
686.8013269884036
 31
0.0
  0
ARC
  5
D6F
330
2
100
AcDbEntity
  8
HIDS
  6
SEKKEI_H
 48
0.3
100
AcDbCircle
 10
498.6925092224352
 20
677.1013269884126
 30
0.0
 40
2.0
100
AcDbArc
 50
270.0
 51
315.0000000000144
  0
ARC
  5
D70
330
2
100
AcDbEntity
  8
HIDS
  6
SEKKEI_H
 48
0.5
100
AcDbCircle
 10
505.8493634719114
 20
678.601326988401
 30
0.0
 40
2.0
100
AcDbArc
 50
90.00000000002605
 51
135.0000000000144
  0
ARC
  5
D71
330
2
100
AcDbEntity
  8
0
100
AcDbCircle
 10
513.22093634717
 20
686.8013269884036
 30
0.0
 40
0.2
100
AcDbArc
 50
180.0000000000195
 51
270.0
  0
ARC
  5
D72
330
2
100
AcDbEntity
  8
0
 48
0.5
100
AcDbCircle
 10
513.5209363471701
 20
686.4013269884037
 30
0.0
 40
0.2
100
AcDbArc
 50
0.0000000000195413
 51
90.0
  0
ARC
  5
D73
330
2
100
AcDbEntity
  8
0
100
AcDbCircle
 10
513.5209363471706
 20
684.8013269884035
 30
0.0
 40
0.2
100
AcDbArc
 50
270.0
 51
0.0000000000195413
  0
LINE
  5
D74
330
2
100
AcDbEntity
  8
0
 48
12.0
100
AcDbLine
 10
579.0209363471733
 20
688.1013269884049
 30
0.0
 11
513.0209363471696
 21
688.1013269884036
 31
0.0
  0
LINE
  5
D75
330
2
100
AcDbEntity
  8
0
 48
12.0
100
AcDbLine
 10
579.0209363471729
 20
684.4013269884048
 30
0.0
 11
513.0209363471705
 21
684.4013269884035
 31
0.0
  0
LINE
  5
D76
330
2
100
AcDbEntity
  8
0
 48
12.0
100
AcDbLine
 10
579.020936347172
 20
681.1013269884049
 30
0.0
 11
513.0209363471715
 21
681.1013269884035
 31
0.0
  0
LINE
  5
D77
330
2
100
AcDbEntity
  8
CENTER
  6
CENTERX2
100
AcDbLine
 10
293.0245767022077
 20
380.5651052800109
 30
0.0
 11
279.5245767022063
 21
380.5651052800109
 31
0.0
  0
LINE
  5
D78
330
2
100
AcDbEntity
  8
0
 48
12.0
100
AcDbLine
 10
290.0245767022072
 20
375.5651052800109
 30
0.0
 11
290.0245767022072
 21
385.5651052800109
 31
0.0
  0
LINE
  5
D79
330
2
100
AcDbEntity
  8
CENTER
  6
CENTERX2
100
AcDbLine
 10
293.0245767022081
 20
294.5651052800109
 30
0.0
 11
279.5245767022072
 21
294.5651052800109
 31
0.0
  0
LINE
  5
D7A
330
2
100
AcDbEntity
  8
0
 48
12.0
100
AcDbLine
 10
290.0245767022081
 20
289.5651052800109
 30
0.0
 11
290.0245767022081
 21
299.5651052800109
 31
0.0
  0
LINE
  5
D7B
330
2
100
AcDbEntity
  8
CENTER
  6
CENTERX2
100
AcDbLine
 10
503.0209363471719
 20
672.1013269884126
 30
0.0
 11
503.0209363471719
 21
685.6013269884136
 31
0.0
  0
LINE
  5
D7C
330
2
100
AcDbEntity
  8
0
 48
12.0
100
AcDbLine
 10
498.0209363471719
 20
675.1013269884126
 30
0.0
 11
508.020936347172
 21
675.1013269884126
 31
0.0
  0
LINE
  5
D7D
330
2
100
AcDbEntity
  8
CENTER
  6
CENTERX2
100
AcDbLine
 10
589.0209363471719
 20
672.101326988414
 30
0.0
 11
589.0209363471719
 21
685.6013269884151
 31
0.0
  0
LINE
  5
D7E
330
2
100
AcDbEntity
  8
0
 48
12.0
100
AcDbLine
 10
584.020936347172
 20
675.1013269884142
 30
0.0
 11
594.0209363471719
 21
675.1013269884142
 31
0.0
  0
LINE
  5
D7F
330
2
100
AcDbEntity
  8
HIDS
  6
SEKKEI_H
100
AcDbLine
 10
284.524576702219
 20
377.7366781552718
 30
0.0
 11
284.524576702219
 21
375.5651052800109
 31
0.0
  0
LINE
  5
D80
330
2
100
AcDbEntity
  8
HIDS
  6
SEKKEI_H
100
AcDbLine
 10
284.5245767022199
 20
299.5651052800109
 30
0.0
 11
284.5245767022199
 21
297.3935324047498
 31
0.0
  0
LINE
  5
D81
330
2
100
AcDbEntity
  8
HIDS
  6
SEKKEI_H
100
AcDbLine
 10
508.020936347172
 20
680.6013269884011
 30
0.0
 11
505.8493634719105
 21
680.6013269884011
 31
0.0
  0
LINE
  5
D82
330
2
100
AcDbEntity
  8
HIDS
  6
SEKKEI_H
100
AcDbLine
 10
584.020936347172
 20
680.6013269884024
 30
0.0
 11
586.1925092224326
 21
680.6013269884026
 31
0.0
  0
LINE
  5
D84
330
2
100
AcDbEntity
  8
0
100
AcDbLine
 10
508.020936347172
 20
682.201326988413
 30
0.0
 11
507.3281160241447
 21
682.6013269884127
 31
0.0
  0
LINE
  5
D85
330
2
100
AcDbEntity
  8
0
100
AcDbLine
 10
508.020936347172
 20
682.201326988413
 30
0.0
 11
498.0209363471719
 21
682.201326988413
 31
0.0
  0
LINE
  5
D86
330
2
100
AcDbEntity
  8
0
100
AcDbLine
 10
508.020936347172
 20
676.6013269884131
 30
0.0
 11
508.020936347172
 21
682.201326988413
 31
0.0
  0
LINE
  5
D87
330
2
100
AcDbEntity
  8
0
100
AcDbLine
 10
498.0209363471719
 20
676.6013269884133
 30
0.0
 11
498.0209363471719
 21
682.201326988413
 31
0.0
  0
LINE
  5
D88
330
2
100
AcDbEntity
  8
0
100
AcDbLine
 10
498.0209363471719
 20
682.201326988413
 30
0.0
 11
498.7137566701992
 21
682.6013269884127
 31
0.0
  0
LINE
  5
D89
330
2
100
AcDbEntity
  8
0
100
AcDbLine
 10
507.3281160241447
 20
682.6013269884127
 30
0.0
 11
498.7137566701992
 21
682.6013269884127
 31
0.0
  0
LINE
  5
D8A
330
2
100
AcDbEntity
  8
0
100
AcDbLine
 10
594.0209363471719
 20
682.2013269884146
 30
0.0
 11
593.3281160241447
 21
682.6013269884143
 31
0.0
  0
LINE
  5
D8B
330
2
100
AcDbEntity
  8
0
100
AcDbLine
 10
594.0209363471719
 20
682.2013269884146
 30
0.0
 11
584.020936347172
 21
682.2013269884146
 31
0.0
  0
LINE
  5
D8C
330
2
100
AcDbEntity
  8
0
100
AcDbLine
 10
594.0209363471719
 20
676.6013269884149
 30
0.0
 11
594.0209363471719
 21
682.2013269884146
 31
0.0
  0
LINE
  5
D8D
330
2
100
AcDbEntity
  8
0
100
AcDbLine
 10
584.020936347172
 20
676.6013269884151
 30
0.0
 11
584.020936347172
 21
682.2013269884146
 31
0.0
  0
LINE
  5
D8E
330
2
100
AcDbEntity
  8
0
100
AcDbLine
 10
584.020936347172
 20
682.2013269884146
 30
0.0
 11
584.7137566701992
 21
682.6013269884143
 31
0.0
  0
LINE
  5
D8F
330
2
100
AcDbEntity
  8
0
100
AcDbLine
 10
593.3281160241447
 20
682.6013269884143
 30
0.0
 11
584.7137566701992
 21
682.6013269884143
 31
0.0
  0
LINE
  5
D90
330
2
100
AcDbEntity
  8
0
100
AcDbLine
 10
282.9245767022068
 20
385.5651052800109
 30
0.0
 11
282.5245767022072
 21
384.8722849569836
 31
0.0
  0
LINE
  5
D91
330
2
100
AcDbEntity
  8
0
100
AcDbLine
 10
282.9245767022068
 20
385.5651052800109
 30
0.0
 11
282.9245767022068
 21
375.5651052800109
 31
0.0
  0
LINE
  5
D92
330
2
100
AcDbEntity
  8
0
100
AcDbLine
 10
288.5245767022068
 20
385.5651052800108
 30
0.0
 11
282.9245767022068
 21
385.5651052800109
 31
0.0
  0
LINE
  5
D93
330
2
100
AcDbEntity
  8
0
100
AcDbLine
 10
288.5245767022068
 20
375.5651052800108
 30
0.0
 11
282.9245767022068
 21
375.5651052800109
 31
0.0
  0
LINE
  5
D94
330
2
100
AcDbEntity
  8
0
100
AcDbLine
 10
282.9245767022068
 20
375.5651052800109
 30
0.0
 11
282.5245767022072
 21
376.2579256030381
 31
0.0
  0
LINE
  5
D95
330
2
100
AcDbEntity
  8
0
100
AcDbLine
 10
282.5245767022072
 20
384.8722849569836
 30
0.0
 11
282.5245767022072
 21
376.2579256030381
 31
0.0
  0
LINE
  5
D96
330
2
100
AcDbEntity
  8
0
100
AcDbLine
 10
282.9245767022078
 20
299.5651052800109
 30
0.0
 11
282.5245767022081
 21
298.8722849569836
 31
0.0
  0
LINE
  5
D97
330
2
100
AcDbEntity
  8
0
100
AcDbLine
 10
282.9245767022078
 20
299.5651052800109
 30
0.0
 11
282.9245767022078
 21
289.5651052800109
 31
0.0
  0
LINE
  5
D98
330
2
100
AcDbEntity
  8
0
100
AcDbLine
 10
288.5245767022076
 20
299.5651052800108
 30
0.0
 11
282.9245767022078
 21
299.5651052800109
 31
0.0
  0
LINE
  5
D99
330
2
100
AcDbEntity
  8
0
100
AcDbLine
 10
288.5245767022072
 20
289.5651052800108
 30
0.0
 11
282.9245767022078
 21
289.5651052800109
 31
0.0
  0
LINE
  5
D9A
330
2
100
AcDbEntity
  8
0
100
AcDbLine
 10
282.9245767022078
 20
289.5651052800109
 30
0.0
 11
282.5245767022081
 21
290.2579256030382
 31
0.0
  0
LINE
  5
D9B
330
2
100
AcDbEntity
  8
0
100
AcDbLine
 10
282.5245767022081
 20
298.8722849569836
 30
0.0
 11
282.5245767022081
 21
290.2579256030382
 31
0.0
  0
CIRCLE
  5
D9C
330
2
100
AcDbEntity
  8
0
100
AcDbCircle
 10
190.2078073953178
 20
380.5651052800111
 30
0.0
 40
5.000000000000113
  0
CIRCLE
  5
D9D
330
2
100
AcDbEntity
  8
0
100
AcDbCircle
 10
190.2078073953178
 20
380.5651052800111
 30
0.0
 40
4.307179676972509
  0
LINE
  5
D9E
330
2
100
AcDbEntity
  8
0
100
AcDbLine
 10
192.7078073953177
 20
382.0084809529852
 30
0.0
 11
192.7078073953177
 21
379.1217296070371
 31
0.0
  0
LINE
  5
D9F
330
2
100
AcDbEntity
  8
0
100
AcDbLine
 10
190.2078073953178
 20
377.678353934063
 30
0.0
 11
192.7078073953177
 21
379.1217296070371
 31
0.0
  0
LINE
  5
DA0
330
2
100
AcDbEntity
  8
0
100
AcDbLine
 10
192.7078073953177
 20
382.0084809529852
 30
0.0
 11
190.2078073953178
 21
383.4518566259593
 31
0.0
  0
LINE
  5
DA1
330
2
100
AcDbEntity
  8
0
100
AcDbLine
 10
187.7078073953177
 20
382.0084809529852
 30
0.0
 11
187.7078073953177
 21
379.1217296070371
 31
0.0
  0
LINE
  5
DA2
330
2
100
AcDbEntity
  8
0
100
AcDbLine
 10
190.2078073953178
 20
377.678353934063
 30
0.0
 11
187.7078073953177
 21
379.1217296070371
 31
0.0
  0
LINE
  5
DA3
330
2
100
AcDbEntity
  8
0
100
AcDbLine
 10
187.7078073953177
 20
382.0084809529852
 30
0.0
 11
190.2078073953178
 21
383.4518566259593
 31
0.0
  0
CIRCLE
  5
DA4
330
2
100
AcDbEntity
  8
0
100
AcDbCircle
 10
104.2078073953141
 20
380.5651052800113
 30
0.0
 40
5.000000000000113
  0
CIRCLE
  5
DA5
330
2
100
AcDbEntity
  8
0
100
AcDbCircle
 10
104.2078073953141
 20
380.5651052800113
 30
0.0
 40
4.307179676972509
  0
LINE
  5
DA6
330
2
100
AcDbEntity
  8
0
100
AcDbLine
 10
106.7078073953141
 20
382.0084809529854
 30
0.0
 11
106.7078073953141
 21
379.1217296070373
 31
0.0
  0
LINE
  5
DA7
330
2
100
AcDbEntity
  8
0
100
AcDbLine
 10
104.2078073953141
 20
377.6783539340632
 30
0.0
 11
106.7078073953141
 21
379.1217296070373
 31
0.0
  0
LINE
  5
DA8
330
2
100
AcDbEntity
  8
0
100
AcDbLine
 10
106.7078073953141
 20
382.0084809529854
 30
0.0
 11
104.2078073953141
 21
383.4518566259595
 31
0.0
  0
LINE
  5
DA9
330
2
100
AcDbEntity
  8
0
100
AcDbLine
 10
101.7078073953141
 20
382.0084809529854
 30
0.0
 11
101.7078073953141
 21
379.1217296070373
 31
0.0
  0
LINE
  5
DAA
330
2
100
AcDbEntity
  8
0
100
AcDbLine
 10
104.2078073953141
 20
377.6783539340632
 30
0.0
 11
101.7078073953141
 21
379.1217296070373
 31
0.0
  0
LINE
  5
DAB
330
2
100
AcDbEntity
  8
0
100
AcDbLine
 10
101.7078073953141
 20
382.0084809529854
 30
0.0
 11
104.2078073953141
 21
383.4518566259595
 31
0.0
  0
CIRCLE
  5
DAC
330
2
100
AcDbEntity
  8
0
100
AcDbCircle
 10
104.2078073953141
 20
294.5651052800108
 30
0.0
 40
5.000000000000113
  0
CIRCLE
  5
DAD
330
2
100
AcDbEntity
  8
0
100
AcDbCircle
 10
104.2078073953141
 20
294.5651052800108
 30
0.0
 40
4.307179676972509
  0
LINE
  5
DAE
330
2
100
AcDbEntity
  8
0
100
AcDbLine
 10
106.7078073953141
 20
296.0084809529849
 30
0.0
 11
106.7078073953141
 21
293.1217296070368
 31
0.0
  0
LINE
  5
DAF
330
2
100
AcDbEntity
  8
0
100
AcDbLine
 10
104.2078073953141
 20
291.6783539340627
 30
0.0
 11
106.7078073953141
 21
293.1217296070368
 31
0.0
  0
LINE
  5
DB0
330
2
100
AcDbEntity
  8
0
100
AcDbLine
 10
106.7078073953141
 20
296.0084809529849
 30
0.0
 11
104.2078073953141
 21
297.451856625959
 31
0.0
  0
LINE
  5
DB1
330
2
100
AcDbEntity
  8
0
100
AcDbLine
 10
101.7078073953141
 20
296.0084809529849
 30
0.0
 11
101.7078073953141
 21
293.1217296070368
 31
0.0
  0
LINE
  5
DB2
330
2
100
AcDbEntity
  8
0
100
AcDbLine
 10
104.2078073953141
 20
291.6783539340627
 30
0.0
 11
101.7078073953141
 21
293.1217296070368
 31
0.0
  0
LINE
  5
DB3
330
2
100
AcDbEntity
  8
0
100
AcDbLine
 10
101.7078073953141
 20
296.0084809529849
 30
0.0
 11
104.2078073953141
 21
297.451856625959
 31
0.0
  0
CIRCLE
  5
DB4
330
2
100
AcDbEntity
  8
0
100
AcDbCircle
 10
190.2078073953146
 20
294.5651052800107
 30
0.0
 40
5.000000000000113
  0
CIRCLE
  5
DB5
330
2
100
AcDbEntity
  8
0
100
AcDbCircle
 10
190.2078073953146
 20
294.5651052800107
 30
0.0
 40
4.307179676972509
  0
LINE
  5
DB6
330
2
100
AcDbEntity
  8
0
100
AcDbLine
 10
192.7078073953146
 20
296.0084809529848
 30
0.0
 11
192.7078073953146
 21
293.1217296070366
 31
0.0
  0
LINE
  5
DB7
330
2
100
AcDbEntity
  8
0
100
AcDbLine
 10
190.2078073953146
 20
291.6783539340626
 30
0.0
 11
192.7078073953146
 21
293.1217296070366
 31
0.0
  0
LINE
  5
DB8
330
2
100
AcDbEntity
  8
0
100
AcDbLine
 10
192.7078073953146
 20
296.0084809529848
 30
0.0
 11
190.2078073953146
 21
297.4518566259589
 31
0.0
  0
LINE
  5
DB9
330
2
100
AcDbEntity
  8
0
100
AcDbLine
 10
187.7078073953146
 20
296.0084809529848
 30
0.0
 11
187.7078073953146
 21
293.1217296070366
 31
0.0
  0
LINE
  5
DBA
330
2
100
AcDbEntity
  8
0
100
AcDbLine
 10
190.2078073953146
 20
291.6783539340626
 30
0.0
 11
187.7078073953146
 21
293.1217296070366
 31
0.0
  0
LINE
  5
DBB
330
2
100
AcDbEntity
  8
0
100
AcDbLine
 10
187.7078073953146
 20
296.0084809529848
 30
0.0
 11
190.2078073953146
 21
297.4518566259589
 31
0.0
  0
LINE
  5
DBC
330
2
100
AcDbEntity
  8
0
100
AcDbLine
 10
297.5245767022058
 20
380.5651052800045
 30
0.0
 11
378.5214924704057
 21
380.5651052800046
 31
0.0
  0
LINE
  5
DBD
330
2
100
AcDbEntity
  8
0
100
AcDbLine
 10
297.5245767022063
 20
377.565105280013
 30
0.0
 11
378.5214924704057
 21
377.565105280013
 31
0.0
  0
LINE
  5
DBE
330
2
100
AcDbEntity
  8
0
100
AcDbLine
 10
297.5245767022072
 20
358.1052044572075
 30
0.0
 11
378.5214924704057
 21
358.1052044572075
 31
0.0
  0
LINE
  5
DBF
330
2
100
AcDbEntity
  8
0
100
AcDbLine
 10
297.5245767022095
 20
294.5651052800046
 30
0.0
 11
378.5214924704057
 21
294.5651052800174
 31
0.0
  0
LINE
  5
DC0
330
2
100
AcDbEntity
  8
0
100
AcDbLine
 10
297.5245767022095
 20
297.5651052800109
 30
0.0
 11
378.5214924704057
 21
297.565105280009
 31
0.0
  0
LINE
  5
DC1
330
2
100
AcDbEntity
  8
0
100
AcDbLine
 10
297.5245767022085
 20
317.0250061028453
 30
0.0
 11
378.5214924704057
 21
317.0250061028145
 31
0.0
  0
LINE
  5
DC2
330
2
100
AcDbEntity
  8
0
100
AcDbLine
 10
525.4808371700208
 20
667.6013269884129
 30
0.0
 11
525.4808371700208
 21
586.6013269884112
 31
0.0
  0
LINE
  5
DC3
330
2
100
AcDbEntity
  8
0
100
AcDbLine
 10
503.0209363471719
 20
667.6013269884124
 30
0.0
 11
503.0209363471719
 21
586.6013269884115
 31
0.0
  0
LINE
  5
DC4
330
2
100
AcDbEntity
  8
0
100
AcDbLine
 10
297.5245767022063
 20
377.565105280013
 30
0.0
 11
291.5245767022076
 21
377.565105280013
 31
0.0
  0
LINE
  5
DC5
330
2
100
AcDbEntity
  8
0
100
AcDbLine
 10
297.5245767022058
 20
380.5651052800045
 30
0.0
 11
291.5245767022076
 21
380.5651052800109
 31
0.0
  0
LINE
  5
DC6
330
2
100
AcDbEntity
  8
0
100
AcDbLine
 10
297.5245767022072
 20
358.1052044572074
 30
0.0
 11
291.5245767022076
 21
358.1052044572075
 31
0.0
  0
LINE
  5
DC7
330
2
100
AcDbEntity
  8
0
100
AcDbLine
 10
297.5245767022085
 20
317.025006102845
 30
0.0
 11
291.5245767022081
 21
317.025006102845
 31
0.0
  0
LINE
  5
DC8
330
2
100
AcDbEntity
  8
0
100
AcDbLine
 10
297.5245767022081
 20
294.5651052800046
 30
0.0
 11
291.5245767022081
 21
294.5651052800047
 31
0.0
  0
LINE
  5
DC9
330
2
100
AcDbEntity
  8
0
100
AcDbLine
 10
297.5245767022095
 20
297.5651052800108
 30
0.0
 11
291.5245767022081
 21
297.5651052800108
 31
0.0
  0
LINE
  5
DCA
330
2
100
AcDbEntity
  8
0
100
AcDbLine
 10
506.0209363471719
 20
667.6013269884124
 30
0.0
 11
506.0209363471719
 21
586.6013269884112
 31
0.0
  0
LINE
  5
DCB
330
2
100
AcDbEntity
  8
0
100
AcDbLine
 10
566.5610355243232
 20
667.6013269884138
 30
0.0
 11
566.5610355243232
 21
586.6013269884112
 31
0.0
  0
LINE
  5
DCC
330
2
100
AcDbEntity
  8
0
100
AcDbLine
 10
588.7591303134284
 20
586.6013269884112
 30
0.0
 11
588.7591303134284
 21
667.6013269884142
 31
0.0
  0
LINE
  5
DCD
330
2
100
AcDbEntity
  8
0
100
AcDbLine
 10
506.0209363471719
 20
667.6013269884117
 30
0.0
 11
506.0209363471719
 21
673.6013269884129
 31
0.0
  0
LINE
  5
DCE
330
2
100
AcDbEntity
  8
0
100
AcDbLine
 10
525.4808371700208
 20
667.6013269884126
 30
0.0
 11
525.4808371700208
 21
673.6013269884131
 31
0.0
  0
LINE
  5
DCF
330
2
100
AcDbEntity
  8
0
100
AcDbLine
 10
503.0209363471719
 20
667.6013269884124
 30
0.0
 11
503.0209363471719
 21
673.6013269884126
 31
0.0
  0
LINE
  5
DD0
330
2
100
AcDbEntity
  8
0
100
AcDbLine
 10
566.5610355243232
 20
667.6013269884142
 30
0.0
 11
566.5610355243232
 21
673.6013269884137
 31
0.0
  0
LINE
  5
DD1
330
2
100
AcDbEntity
  8
0
100
AcDbLine
 10
586.0209363471729
 20
667.6013269884149
 30
0.0
 11
586.0209363471729
 21
673.6013269884142
 31
0.0
  0
LINE
  5
DD2
330
2
100
AcDbEntity
  8
0
100
AcDbLine
 10
588.7591303134284
 20
667.6013269884151
 30
0.0
 11
588.7591303134284
 21
673.6013269884142
 31
0.0
  0
CIRCLE
  5
DD3
330
2
100
AcDbEntity
  8
0
 48
12.0
100
AcDbCircle
 10
190.2078073953218
 20
294.5651052800077
 30
0.0
 40
5.749999999999829
  0
CIRCLE
  5
DD4
330
2
100
AcDbEntity
  8
0
 48
12.0
100
AcDbCircle
 10
104.2078073953186
 20
294.5651052800108
 30
0.0
 40
5.749999999999829
  0
CIRCLE
  5
DD5
330
2
100
AcDbEntity
  8
0
 48
12.0
100
AcDbCircle
 10
104.2078073953155
 20
380.5651052800143
 30
0.0
 40
5.749999999999829
  0
CIRCLE
  5
DD6
330
2
100
AcDbEntity
  8
0
 48
12.0
100
AcDbCircle
 10
190.2078073953218
 20
380.5651052800141
 30
0.0
 40
5.749999999999829
  0
LINE
  5
DD7
330
2
100
AcDbEntity
  8
0
100
AcDbLine
 10
290.0245767022081
 20
300.3151052800109
 30
0.0
 11
288.5245767022076
 21
300.3151052800109
 31
0.0
  0
LINE
  5
DD8
330
2
100
AcDbEntity
  8
0
100
AcDbLine
 10
290.0245767022081
 20
288.8151052800109
 30
0.0
 11
288.5245767022072
 21
288.8151052800109
 31
0.0
  0
LINE
  5
DD9
330
2
100
AcDbEntity
  8
0
100
AcDbLine
 10
288.5245767022076
 20
300.3151052800109
 30
0.0
 11
288.5245767022072
 21
288.8151052800109
 31
0.0
  0
LINE
  5
DDA
330
2
100
AcDbEntity
  8
0
 48
12.0
100
AcDbLine
 10
290.0245767022081
 20
288.8151052800109
 30
0.0
 11
290.0245767022081
 21
300.3151052800109
 31
0.0
  0
LINE
  5
DDB
330
2
100
AcDbEntity
  8
0
100
AcDbLine
 10
290.0245767022076
 20
386.3151052800109
 30
0.0
 11
288.5245767022072
 21
386.3151052800109
 31
0.0
  0
LINE
  5
DDC
330
2
100
AcDbEntity
  8
0
100
AcDbLine
 10
290.0245767022072
 20
374.815105280011
 30
0.0
 11
288.5245767022063
 21
374.8151052800109
 31
0.0
  0
LINE
  5
DDD
330
2
100
AcDbEntity
  8
0
100
AcDbLine
 10
288.5245767022072
 20
386.3151052800109
 30
0.0
 11
288.5245767022063
 21
374.8151052800109
 31
0.0
  0
LINE
  5
DDE
330
2
100
AcDbEntity
  8
0
 48
12.0
100
AcDbLine
 10
290.0245767022072
 20
374.815105280011
 30
0.0
 11
290.0245767022076
 21
386.3151052800109
 31
0.0
  0
LINE
  5
DDF
330
2
100
AcDbEntity
  8
0
100
AcDbLine
 10
508.7709363471719
 20
675.1013269884126
 30
0.0
 11
508.7709363471719
 21
676.6013269884131
 31
0.0
  0
LINE
  5
DE0
330
2
100
AcDbEntity
  8
0
100
AcDbLine
 10
497.270936347172
 20
675.1013269884126
 30
0.0
 11
497.270936347172
 21
676.6013269884135
 31
0.0
  0
LINE
  5
DE1
330
2
100
AcDbEntity
  8
0
100
AcDbLine
 10
508.7709363471719
 20
676.6013269884131
 30
0.0
 11
497.270936347172
 21
676.6013269884135
 31
0.0
  0
LINE
  5
DE2
330
2
100
AcDbEntity
  8
0
 48
12.0
100
AcDbLine
 10
497.270936347172
 20
675.1013269884126
 30
0.0
 11
508.7709363471719
 21
675.1013269884126
 31
0.0
  0
LINE
  5
DE3
330
2
100
AcDbEntity
  8
0
100
AcDbLine
 10
594.7709363471719
 20
675.1013269884142
 30
0.0
 11
594.7709363471719
 21
676.6013269884147
 31
0.0
  0
LINE
  5
DE4
330
2
100
AcDbEntity
  8
0
100
AcDbLine
 10
583.2709363471719
 20
675.1013269884144
 30
0.0
 11
583.2709363471719
 21
676.6013269884151
 31
0.0
  0
LINE
  5
DE5
330
2
100
AcDbEntity
  8
0
100
AcDbLine
 10
594.7709363471719
 20
676.6013269884149
 30
0.0
 11
583.2709363471719
 21
676.6013269884151
 31
0.0
  0
LINE
  5
DE6
330
2
100
AcDbEntity
  8
0
 48
12.0
100
AcDbLine
 10
583.2709363471719
 20
675.1013269884144
 30
0.0
 11
594.7709363471719
 21
675.1013269884142
 31
0.0
  0
LINE
  5
DE7
330
2
100
AcDbEntity
  8
CENTER
100
AcDbLine
 10
95.14707063045966
 20
285.5043685151524
 30
0.0
 11
199.2685441601809
 21
389.6258420448697
 31
0.0
  0
LINE
  5
DE8
330
2
100
AcDbEntity
  8
CENTER
100
AcDbLine
 10
95.14707063045875
 20
389.6258420448745
 30
0.0
 11
199.2685441601759
 21
285.5043685151535
 31
0.0
  0
LINE
  5
DE9
330
2
100
AcDbEntity
  8
0
100
AcDbLine
 10
432.0575640825715
 20
46.20598121375212
 30
0.0
 11
432.0575640825715
 21
81.22190713957639
 31
0.0
  0
LINE
  5
DEA
330
2
100
AcDbEntity
  8
0
100
AcDbLine
 10
432.0575640825734
 20
111.7501221024274
 30
0.0
 11
432.0575640825715
 21
146.7660480282518
 31
0.0
  0
LINE
  5
DEB
330
2
100
AcDbEntity
  8
0
100
AcDbLine
 10
437.0575640825716
 20
51.48601462100464
 30
0.0
 11
437.0575640825716
 21
81.32763500102738
 31
0.0
  0
LINE
  5
DEC
330
2
100
AcDbEntity
  8
0
100
AcDbLine
 10
437.0575640825716
 20
111.6443942409766
 30
0.0
 11
437.0575640825716
 21
141.4860146210041
 31
0.0
  0
LINE
  5
DED
330
2
100
AcDbEntity
  8
0
100
AcDbLine
 10
432.0575640825715
 20
51.48601462100464
 30
0.0
 11
437.0575640825716
 21
51.48601462100464
 31
0.0
  0
LINE
  5
DEE
330
2
100
AcDbEntity
  8
0
100
AcDbLine
 10
432.0575640825715
 20
141.4860146210041
 30
0.0
 11
437.0575640825716
 21
141.4860146210041
 31
0.0
  0
LINE
  5
DEF
330
2
100
AcDbEntity
  8
0
100
AcDbLine
 10
451.0575640825734
 20
64.41739217061672
 30
0.0
 11
451.0575640825734
 21
79.48601462100191
 31
0.0
  0
LINE
  5
DF0
330
2
100
AcDbEntity
  8
0
100
AcDbLine
 10
451.0575640825734
 20
113.4859226210019
 30
0.0
 11
451.0575640825734
 21
128.5546370713898
 31
0.0
  0
LINE
  5
DF1
330
2
100
AcDbEntity
  8
0
100
AcDbLine
 10
438.9877650891683
 20
62.06452795254313
 30
0.0
 11
449.1273630759785
 21
62.41861051657884
 31
0.0
  0
ARC
  5
DF2
330
2
100
AcDbEntity
  8
0
100
AcDbCircle
 10
439.0575640825734
 20
60.06574629850525
 30
0.0
 40
2.0
100
AcDbArc
 50
92.00000000000365
 51
180.0
  0
ARC
  5
DF3
330
2
100
AcDbEntity
  8
0
100
AcDbCircle
 10
449.0575640825734
 20
64.41739217061672
 30
0.0
 40
2.0
100
AcDbArc
 50
272.0000000000036
 51
0.0
  0
LINE
  5
DF4
330
2
100
AcDbEntity
  8
0
100
AcDbLine
 10
438.9877650891683
 20
130.9075012894634
 30
0.0
 11
449.1273630759785
 21
130.5534187254277
 31
0.0
  0
ARC
  5
DF5
330
2
100
AcDbEntity
  8
0
100
AcDbCircle
 10
439.0575640825734
 20
132.9062829435013
 30
0.0
 40
2.0
100
AcDbArc
 50
180.0
 51
267.9999999999963
  0
ARC
  5
DF6
330
2
100
AcDbEntity
  8
0
100
AcDbCircle
 10
449.0575640825734
 20
128.5546370713898
 30
0.0
 40
2.0
100
AcDbArc
 50
0.0
 51
87.99999999999636
  0
LINE
  5
DF7
330
2
100
AcDbEntity
  8
0
100
AcDbLine
 10
349.5575640825716
 20
45.48601462100282
 30
0.0
 11
432.0575640825715
 21
46.20598121375212
 31
0.0
  0
LINE
  5
DF8
330
2
100
AcDbEntity
  8
0
100
AcDbLine
 10
349.5575640825697
 20
147.486014621001
 30
0.0
 11
432.0575640825698
 21
146.7660480282518
 31
0.0
  0
LINE
  5
DF9
330
2
100
AcDbEntity
  8
0
100
AcDbLine
 10
349.5575640825716
 20
45.48601462100282
 30
0.0
 11
349.5575640825716
 21
80.29299988314255
 31
0.0
  0
LINE
  5
DFA
330
2
100
AcDbEntity
  8
0
100
AcDbLine
 10
349.5575640825716
 20
112.6790293588612
 30
0.0
 11
349.5575640825716
 21
147.4816511871174
 31
0.0
  0
LINE
  5
DFB
330
2
100
AcDbEntity
  8
CENTER
100
AcDbLine
 10
379.0575640825661
 20
157.224208587286
 30
0.0
 11
379.0575640825661
 21
35.74782065471686
 31
0.0
  0
LINE
  5
DFC
330
2
100
AcDbEntity
  8
0
100
AcDbLine
 10
430.557564082572
 20
139.4860146210166
 30
0.0
 11
349.5575640825716
 21
139.4860146210166
 31
0.0
  0
LINE
  5
DFD
330
2
100
AcDbEntity
  8
0
100
AcDbLine
 10
430.557564082572
 20
136.4860146210191
 30
0.0
 11
349.5575640825716
 21
136.4860146210191
 31
0.0
  0
LINE
  5
DFE
330
2
100
AcDbEntity
  8
0
100
AcDbLine
 10
430.5575640825729
 20
117.0261137981935
 30
0.0
 11
349.5575640825716
 21
117.0261137981935
 31
0.0
  0
LINE
  5
DFF
330
2
100
AcDbEntity
  8
0
100
AcDbLine
 10
430.5575640825716
 20
53.48601462098713
 30
0.0
 11
349.5575640825716
 21
53.4860146209871
 31
0.0
  0
LINE
  5
E00
330
2
100
AcDbEntity
  8
0
100
AcDbLine
 10
430.5575640825716
 20
56.48601462098463
 30
0.0
 11
349.5575640825716
 21
56.48601462098463
 31
0.0
  0
LINE
  5
E01
330
2
100
AcDbEntity
  8
0
100
AcDbLine
 10
430.5575640825716
 20
75.94591544381024
 30
0.0
 11
349.5575640825716
 21
75.94591544381024
 31
0.0
  0
LINE
  5
E02
330
2
100
AcDbEntity
  8
0
100
AcDbLine
 10
332.7575640825796
 20
63.48601462100055
 30
0.0
 11
336.0575640825789
 21
63.486014621001
 31
0.0
  0
LINE
  5
E03
330
2
100
AcDbEntity
  8
0
100
AcDbLine
 10
329.0575640825752
 20
122.4860146210014
 30
0.0
 11
337.0575640825734
 21
122.4860146210014
 31
0.0
  0
LINE
  5
E04
330
2
100
AcDbEntity
  8
0
100
AcDbLine
 10
329.0575640825752
 20
70.48601462100191
 30
0.0
 11
337.0575640825734
 21
70.48601462100191
 31
0.0
  0
LINE
  5
E05
330
2
100
AcDbEntity
  8
0
100
AcDbLine
 10
337.0575640825752
 20
69.59075830727806
 30
0.0
 11
337.0575640825752
 21
79.48601462100282
 31
0.0
  0
LINE
  5
E06
330
2
100
AcDbEntity
  8
0
100
AcDbLine
 10
337.0575640825752
 20
113.4860146210026
 30
0.0
 11
337.0575640825752
 21
123.3812709347253
 31
0.0
  0
LINE
  5
E07
330
2
100
AcDbEntity
  8
0
100
AcDbLine
 10
336.0575640825789
 20
61.486014621001
 30
0.0
 11
336.057564082577
 21
68.44838638765793
 31
0.0
  0
LINE
  5
E08
330
2
100
AcDbEntity
  8
0
100
AcDbLine
 10
336.0575640825643
 20
124.523642854351
 30
0.0
 11
336.0575640825625
 21
131.4860146209805
 31
0.0
  0
LINE
  5
E09
330
2
100
AcDbEntity
  8
0
100
AcDbLine
 10
336.0575640825789
 20
61.486014621001
 30
0.0
 11
336.5575640825789
 21
60.98601462100146
 31
0.0
  0
LINE
  5
E0A
330
2
100
AcDbEntity
  8
0
100
AcDbLine
 10
336.0575640825734
 20
63.486014621001
 30
0.0
 11
336.0575640825734
 21
61.48601462100646
 31
0.0
  0
LINE
  5
E0B
330
2
100
AcDbEntity
  8
0
100
AcDbLine
 10
337.0575640825752
 20
69.59075830727806
 30
0.0
 11
337.8014527900484
 21
69.57127889592801
 31
0.0
  0
LINE
  5
E0C
330
2
100
AcDbEntity
  8
0
100
AcDbLine
 10
328.0575640825607
 20
128.9086643518007
 30
0.0
 11
328.0575640825643
 21
113.4860146210026
 31
0.0
  0
LINE
  5
E0D
330
2
100
AcDbEntity
  8
0
100
AcDbLine
 10
328.0575640825734
 20
79.48601462100305
 30
0.0
 11
328.0575640825789
 21
64.06336489018963
 31
0.0
  0
LINE
  5
E0E
330
2
100
AcDbEntity
  8
0
100
AcDbLine
 10
329.0575640825752
 20
122.4860146210014
 30
0.0
 11
329.0575640825752
 21
113.4860146210028
 31
0.0
  0
LINE
  5
E0F
330
2
100
AcDbEntity
  8
0
100
AcDbLine
 10
329.0575640825752
 20
79.48601462100294
 30
0.0
 11
329.0575640825734
 21
70.48601462100191
 31
0.0
  0
LINE
  5
E10
330
2
100
AcDbEntity
  8
0
100
AcDbLine
 10
329.0575640825788
 20
63.4860146210001
 30
0.0
 11
330.3575640825781
 21
63.48601462100055
 31
0.0
  0
LINE
  5
E11
330
2
100
AcDbEntity
  8
0
100
AcDbLine
 10
329.0575640825788
 20
63.4860146210001
 30
0.0
 11
328.0575640825789
 21
64.06336489018963
 31
0.0
  0
LINE
  5
E12
330
2
100
AcDbEntity
  8
0
100
AcDbLine
 10
330.5575640825789
 20
63.68601462100037
 30
0.0
 11
330.557564082588
 21
66.77979441505181
 31
0.0
  0
LINE
  5
E13
330
2
100
AcDbEntity
  8
0
100
AcDbLine
 10
330.557564082768
 20
126.1922348269131
 30
0.0
 11
330.5575640827771
 21
129.2860146210025
 31
0.0
  0
LINE
  5
E14
330
2
100
AcDbEntity
  8
0
100
AcDbLine
 10
332.5575640825789
 20
63.68601462100082
 30
0.0
 11
332.7575640825796
 21
63.48601462100055
 31
0.0
  0
LINE
  5
E15
330
2
100
AcDbEntity
  8
0
100
AcDbLine
 10
332.5575640825789
 20
63.68601462100082
 30
0.0
 11
332.5575640825789
 21
67.36620423255169
 31
0.0
  0
LINE
  5
E16
330
2
100
AcDbEntity
  8
0
100
AcDbLine
 10
332.5575640825789
 20
125.6058250094522
 30
0.0
 11
332.5575640825789
 21
129.286014620998
 31
0.0
  0
LINE
  5
E17
330
2
100
AcDbEntity
  8
0
100
AcDbLine
 10
330.7575640825796
 20
64.18601462100037
 30
0.0
 11
332.3575640825781
 21
64.1860146210006
 31
0.0
  0
LINE
  5
E18
330
2
100
AcDbEntity
  8
0
100
AcDbLine
 10
329.0575640825752
 20
70.48601462100191
 30
0.0
 11
328.0575640825752
 21
69.90866435181238
 31
0.0
  0
LINE
  5
E19
330
2
100
AcDbEntity
  8
0
100
AcDbLine
 10
329.0575640825752
 20
122.4860146210014
 30
0.0
 11
328.0575640825752
 21
123.063364890191
 31
0.0
  0
LINE
  5
E1A
330
2
100
AcDbEntity
  8
0
100
AcDbLine
 10
332.7575640825832
 20
129.4860146210028
 30
0.0
 11
336.0575640825825
 21
129.4860146210019
 31
0.0
  0
LINE
  5
E1B
330
2
100
AcDbEntity
  8
HIDS
  6
SEKKEI_H
100
AcDbLine
 10
341.4717776449467
 20
142.4002281833645
 30
0.0
 11
337.1433505202128
 21
138.0718010586358
 31
0.0
  0
LINE
  5
E1C
330
2
100
AcDbEntity
  8
0
100
AcDbLine
 10
336.0575640825625
 20
131.4860146209805
 30
0.0
 11
336.5575640825843
 21
131.9860146210014
 31
0.0
  0
LINE
  5
E1D
330
2
100
AcDbEntity
  8
0
100
AcDbLine
 10
342.0575640825734
 20
145.486014621001
 30
0.0
 11
342.0575640825734
 21
111.9940882586922
 31
0.0
  0
LINE
  5
E1E
330
2
100
AcDbEntity
  8
0
100
AcDbLine
 10
342.0575640825734
 20
80.97794098331155
 30
0.0
 11
342.0575640825734
 21
47.4860146210026
 31
0.0
  0
LINE
  5
E1F
330
2
100
AcDbEntity
  8
0
100
AcDbLine
 10
330.7575640825832
 20
128.7860146210032
 30
0.0
 11
332.3575640825836
 21
128.7860146210027
 31
0.0
  0
LINE
  5
E20
330
2
100
AcDbEntity
  8
0
100
AcDbLine
 10
332.5575640825789
 20
129.286014620998
 30
0.0
 11
332.7575640825832
 21
129.4860146210028
 31
0.0
  0
LINE
  5
E21
330
2
100
AcDbEntity
  8
0
100
AcDbLine
 10
329.0575640825825
 20
129.4860146210037
 30
0.0
 11
328.0575640825825
 21
128.9086643518142
 31
0.0
  0
LINE
  5
E22
330
2
100
AcDbEntity
  8
0
100
AcDbLine
 10
329.0575640825825
 20
129.4860146210037
 30
0.0
 11
330.3575640825836
 21
129.4860146210032
 31
0.0
  0
LINE
  5
E23
330
2
100
AcDbEntity
  8
0
100
AcDbLine
 10
337.0575640825734
 20
123.3812709347253
 30
0.0
 11
337.8014527900484
 21
123.4007503460754
 31
0.0
  0
ARC
  5
E24
330
2
100
AcDbEntity
  8
HIDS
  6
SEKKEI_H
100
AcDbCircle
 10
340.0575640825734
 20
143.8144417457383
 30
0.0
 40
2.0
100
AcDbArc
 50
314.9999999999359
 51
0.0
  0
ARC
  5
E25
330
2
100
AcDbEntity
  8
HIDS
  6
SEKKEI_H
100
AcDbCircle
 10
338.5575640825861
 20
136.657587496262
 30
0.0
 40
2.0
100
AcDbArc
 50
134.9999999999364
 51
180.0
  0
ARC
  5
E26
330
2
100
AcDbEntity
  8
0
100
AcDbCircle
 10
330.3575640825781
 20
63.68601462100037
 30
0.0
 40
0.2
100
AcDbArc
 50
270.0
 51
359.9999999999348
  0
ARC
  5
E27
330
2
100
AcDbEntity
  8
0
100
AcDbCircle
 10
330.7575640825796
 20
63.98601462100032
 30
0.0
 40
0.2
100
AcDbArc
 50
90.0
 51
179.9999999999348
  0
ARC
  5
E28
330
2
100
AcDbEntity
  8
0
100
AcDbCircle
 10
332.3575640825781
 20
63.98601462100055
 30
0.0
 40
0.2
100
AcDbArc
 50
0.0
 51
90.0
  0
ARC
  5
E29
330
2
100
AcDbEntity
  8
0
100
AcDbCircle
 10
330.3575640825836
 20
129.2860146210029
 30
0.0
 40
0.2
100
AcDbArc
 50
0.0
 51
90.0
  0
ARC
  5
E2A
330
2
100
AcDbEntity
  8
0
100
AcDbCircle
 10
330.7575640825832
 20
128.9860146210032
 30
0.0
 40
0.2
100
AcDbArc
 50
180.0
 51
269.9999999999478
  0
ARC
  5
E2B
330
2
100
AcDbEntity
  8
0
100
AcDbCircle
 10
332.3575640825836
 20
128.9860146210028
 30
0.0
 40
0.2
100
AcDbArc
 50
269.9999999999478
 51
0.0
  0
LINE
  5
E2C
330
2
100
AcDbEntity
  8
0
100
AcDbLine
 10
349.5575640825716
 20
112.6790293588612
 30
0.0
 11
349.5575640825697
 21
147.486014621001
 31
0.0
  0
LINE
  5
E2D
330
2
100
AcDbEntity
  8
HIDS
  6
SEKKEI_H
100
AcDbLine
 10
336.5575640825861
 20
136.657587496262
 30
0.0
 11
336.5575640825734
 21
134.4860146210171
 31
0.0
  0
LINE
  5
E2E
330
2
100
AcDbEntity
  8
HIDS
  6
SEKKEI_H
100
AcDbLine
 10
341.4717776449467
 20
50.57180105863927
 30
0.0
 11
337.1433505202128
 21
54.90022818336797
 31
0.0
  0
ARC
  5
E2F
330
2
100
AcDbEntity
  8
HIDS
  6
SEKKEI_H
100
AcDbCircle
 10
340.0575640825734
 20
49.15758749626547
 30
0.0
 40
2.0
100
AcDbArc
 50
0.0
 51
45.00000000006349
  0
ARC
  5
E30
330
2
100
AcDbEntity
  8
HIDS
  6
SEKKEI_H
100
AcDbCircle
 10
338.5575640825861
 20
56.31444174574176
 30
0.0
 40
2.0
100
AcDbArc
 50
180.0
 51
225.0000000000635
  0
LINE
  5
E31
330
2
100
AcDbEntity
  8
HIDS
  6
SEKKEI_H
100
AcDbLine
 10
336.5575640825861
 20
56.31444174574176
 30
0.0
 11
336.5575640825734
 21
58.48601462098668
 31
0.0
  0
LINE
  5
E32
330
2
100
AcDbEntity
  8
0
100
AcDbLine
 10
336.5575640825734
 20
134.4860146210171
 30
0.0
 11
336.5575640825734
 21
124.3058811178627
 31
0.0
  0
LINE
  5
E33
330
2
100
AcDbEntity
  8
0
100
AcDbLine
 10
336.5575640825734
 20
68.66614812414093
 30
0.0
 11
336.5575640825734
 21
58.48601462098668
 31
0.0
  0
LINE
  5
E34
330
2
100
AcDbEntity
  8
0
100
AcDbLine
 10
329.0575640825825
 20
129.4860146210037
 30
0.0
 11
329.0575640825825
 21
126.4348552130174
 31
0.0
  0
LINE
  5
E35
330
2
100
AcDbEntity
  8
0
100
AcDbLine
 10
329.0575640825788
 20
66.53717402898587
 30
0.0
 11
329.0575640825788
 21
63.4860146210001
 31
0.0
  0
LINE
  5
E36
330
2
100
AcDbEntity
  8
0
100
AcDbLine
 10
332.7575640825796
 20
63.48601462100055
 30
0.0
 11
332.7575640825796
 21
67.43378295632294
 31
0.0
  0
LINE
  5
E37
330
2
100
AcDbEntity
  8
0
100
AcDbLine
 10
332.7575640825832
 20
125.5382462856796
 30
0.0
 11
332.7575640825832
 21
129.4860146210028
 31
0.0
  0
LINE
  5
E38
330
2
100
AcDbEntity
  8
CENTER
100
AcDbLine
 10
474.0575640825734
 20
96.48601462100192
 30
0.0
 11
316.0576710825732
 21
96.48601462100192
 31
0.0
  0
LINE
  5
E39
330
2
100
AcDbEntity
  8
0
100
AcDbLine
 10
464.0575640825734
 20
110.2860176210017
 30
0.0
 11
326.0576710825732
 21
110.2860176210019
 31
0.0
  0
LINE
  5
E3A
330
2
100
AcDbEntity
  8
0
100
AcDbLine
 10
431.0575640825734
 20
107.9860146210019
 30
0.0
 11
351.0576710825732
 21
107.9860146210019
 31
0.0
  0
LINE
  5
E3B
330
2
100
AcDbEntity
  8
0
100
AcDbLine
 10
459.5575170961926
 20
84.9860294886696
 30
0.0
 11
452.5575170962453
 21
84.98605818273631
 31
0.0
  0
LINE
  5
E3C
330
2
100
AcDbEntity
  8
0
100
AcDbLine
 10
459.5575640825734
 20
107.9859436210019
 30
0.0
 11
452.5575640825734
 21
107.9859436210019
 31
0.0
  0
LINE
  5
E3D
330
2
100
AcDbEntity
  8
0
100
AcDbLine
 10
464.0575640825734
 20
113.4859226210019
 30
0.0
 11
439.5026928610148
 21
113.4859226210019
 31
0.0
  0
LINE
  5
E3E
330
2
100
AcDbEntity
  8
0
100
AcDbLine
 10
464.0575640825734
 20
79.48601462100191
 30
0.0
 11
439.5027441578783
 21
79.48601462100191
 31
0.0
  0
LINE
  5
E3F
330
2
100
AcDbEntity
  8
0
100
AcDbLine
 10
459.557564082637
 20
96.4860044885852
 30
0.0
 11
459.5575170961926
 21
84.9860294886696
 31
0.0
  0
LINE
  5
E40
330
2
100
AcDbEntity
  8
0
100
AcDbLine
 10
462.0575192479425
 20
85.48592979459886
 30
0.0
 11
462.0575640824224
 21
96.4859297945186
 31
0.0
  0
LINE
  5
E41
330
2
100
AcDbEntity
  8
0
100
AcDbLine
 10
464.0575640825734
 20
113.4859226210019
 30
0.0
 11
464.0575640825734
 21
79.48601462100191
 31
0.0
  0
LINE
  5
E42
330
2
100
AcDbEntity
  8
0
100
AcDbLine
 10
462.0575192479425
 20
85.48592979459886
 30
0.0
 11
464.0575151066512
 21
84.33132062108972
 31
0.0
  0
LINE
  5
E43
330
2
100
AcDbEntity
  8
0
100
AcDbLine
 10
462.0575192479425
 20
85.48592979459886
 30
0.0
 11
459.5575192479934
 21
85.48595848866581
 31
0.0
  0
LINE
  5
E44
330
2
100
AcDbEntity
  8
0
100
AcDbLine
 10
459.5575640825734
 20
96.4859686210018
 30
0.0
 11
459.5575640825734
 21
107.9859436210019
 31
0.0
  0
LINE
  5
E45
330
2
100
AcDbEntity
  8
CENTER
100
AcDbLine
 10
456.0575640825734
 20
105.7791697721529
 30
0.0
 11
456.0575640825734
 21
115.8582158361339
 31
0.0
  0
LINE
  5
E46
330
2
100
AcDbEntity
  8
0
100
AcDbLine
 10
462.0575640825734
 20
107.4860146210019
 30
0.0
 11
462.0575640825734
 21
96.48601462100192
 31
0.0
  0
LINE
  5
E47
330
2
100
AcDbEntity
  8
0
100
AcDbLine
 10
462.0575640825734
 20
107.4860146210019
 30
0.0
 11
464.0575640825734
 21
108.6406166210019
 31
0.0
  0
LINE
  5
E48
330
2
100
AcDbEntity
  8
0
100
AcDbLine
 10
462.0575640825734
 20
107.4860146210019
 30
0.0
 11
459.5575640825734
 21
107.4860146210019
 31
0.0
  0
LINE
  5
E49
330
2
100
AcDbEntity
  8
HOJO
100
AcDbLine
 10
458.5575640825734
 20
110.2860176210017
 30
0.0
 11
458.5575640825734
 21
113.4860296210019
 31
0.0
  0
LINE
  5
E4A
330
2
100
AcDbEntity
  8
0
100
AcDbLine
 10
458.0575640825734
 20
110.2860176210017
 30
0.0
 11
458.0575640825734
 21
113.4860296210019
 31
0.0
  0
LINE
  5
E4B
330
2
100
AcDbEntity
  8
0
100
AcDbLine
 10
444.0576105137276
 20
84.98601462100191
 30
0.0
 11
444.0576560825809
 21
96.48601946314716
 31
0.0
  0
LINE
  5
E4C
330
2
100
AcDbEntity
  8
0
100
AcDbLine
 10
445.2076165137202
 20
84.98600977885667
 30
0.0
 11
445.2076620825734
 21
96.48601462100192
 31
0.0
  0
LINE
  5
E4D
330
2
100
AcDbEntity
  8
0
100
AcDbLine
 10
452.5575170962453
 20
84.98605818273631
 30
0.0
 11
452.5575640826899
 21
96.48603318265214
 31
0.0
  0
LINE
  5
E4E
330
2
100
AcDbEntity
  8
0
100
AcDbLine
 10
432.0575640825734
 20
78.98592262100192
 30
0.0
 11
432.0575640825734
 21
79.48601462100191
 31
0.0
  0
LINE
  5
E4F
330
2
100
AcDbEntity
  8
0
100
AcDbLine
 10
431.0575640825734
 20
85.48592827488141
 30
0.0
 11
444.0576112481028
 21
85.48601946322765
 31
0.0
  0
LINE
  5
E50
330
2
100
AcDbEntity
  8
0
100
AcDbLine
 10
452.5575192480443
 20
85.48598718273252
 30
0.0
 11
445.2076172480936
 21
85.48601462108241
 31
0.0
  0
LINE
  5
E51
330
2
100
AcDbEntity
  8
0
100
AcDbLine
 10
445.2076172481262
 20
85.48602383419256
 30
0.0
 11
445.4343247942777
 21
85.48602456821209
 31
0.0
  0
LINE
  5
E52
330
2
100
AcDbEntity
  8
0
100
AcDbLine
 10
445.2076165137202
 20
84.98600977885667
 30
0.0
 11
444.0576105137276
 21
84.98601462100191
 31
0.0
  0
LINE
  5
E53
330
2
100
AcDbEntity
  8
0
100
AcDbLine
 10
444.0576560825737
 20
107.4860146210019
 30
0.0
 11
431.0575640825734
 21
107.4860146210019
 31
0.0
  0
LINE
  5
E54
330
2
100
AcDbEntity
  8
0
100
AcDbLine
 10
452.5575640825734
 20
107.9859436210019
 30
0.0
 11
452.5575640825734
 21
96.4859686210018
 31
0.0
  0
LINE
  5
E55
330
2
100
AcDbEntity
  8
0
100
AcDbLine
 10
444.0576560825737
 20
107.9860146210019
 30
0.0
 11
444.0576560825737
 21
96.48601462100192
 31
0.0
  0
LINE
  5
E56
330
2
100
AcDbEntity
  8
0
100
AcDbLine
 10
445.2076620825734
 20
107.9860146210019
 30
0.0
 11
445.2076620825734
 21
96.48601462100192
 31
0.0
  0
LINE
  5
E57
330
2
100
AcDbEntity
  8
0
100
AcDbLine
 10
452.5575640825734
 20
107.4860146210019
 30
0.0
 11
445.2076620825734
 21
107.4860146210019
 31
0.0
  0
LINE
  5
E58
330
2
100
AcDbEntity
  8
0
100
AcDbLine
 10
454.0575640832737
 20
110.2860176210017
 30
0.0
 11
454.0575640832737
 21
113.4860296210019
 31
0.0
  0
LINE
  5
E59
330
2
100
AcDbEntity
  8
HOJO
100
AcDbLine
 10
453.5575640832737
 20
110.2860176210017
 30
0.0
 11
453.5575640832737
 21
113.4860296210019
 31
0.0
  0
LINE
  5
E5A
330
2
100
AcDbEntity
  8
0
100
AcDbLine
 10
445.2076620825734
 20
107.9860146210019
 30
0.0
 11
444.0576560825737
 21
107.9860146210019
 31
0.0
  0
LINE
  5
E5B
330
2
100
AcDbEntity
  8
0
100
AcDbLine
 10
431.0575640825734
 20
107.9860146210019
 30
0.0
 11
431.0575640825734
 21
84.98601462100214
 31
0.0
  0
LINE
  5
E5C
330
2
100
AcDbEntity
  8
0
100
AcDbLine
 10
432.0575640825734
 20
113.9860146210019
 30
0.0
 11
432.0575640825734
 21
113.4859226210019
 31
0.0
  0
LINE
  5
E5D
330
2
100
AcDbEntity
  8
0
100
AcDbLine
 10
326.0576710825732
 20
113.4860146210026
 30
0.0
 11
326.0576710825732
 21
79.48601462100248
 31
0.0
  0
LINE
  5
E5E
330
2
100
AcDbEntity
  8
0
100
AcDbLine
 10
328.0576710825732
 20
85.48601462100192
 30
0.0
 11
328.0576710825732
 21
96.48601462100192
 31
0.0
  0
LINE
  5
E5F
330
2
100
AcDbEntity
  8
0
100
AcDbLine
 10
340.0576710825732
 20
84.98601462100191
 30
0.0
 11
340.0576710825732
 21
96.48601462100192
 31
0.0
  0
LINE
  5
E60
330
2
100
AcDbEntity
  8
0
100
AcDbLine
 10
338.9075730825731
 20
84.98601462100191
 30
0.0
 11
338.9075730825731
 21
96.48601462100192
 31
0.0
  0
LINE
  5
E61
330
2
100
AcDbEntity
  8
0
100
AcDbLine
 10
351.0576710825732
 20
107.9860146210019
 30
0.0
 11
351.0576710825732
 21
84.98601462100282
 31
0.0
  0
LINE
  5
E62
330
2
100
AcDbEntity
  8
0
100
AcDbLine
 10
340.3515764136116
 20
79.4860146210027
 30
0.0
 11
326.0576710825732
 21
79.48601462100305
 31
0.0
  0
LINE
  5
E63
330
2
100
AcDbEntity
  8
0
100
AcDbLine
 10
351.0576710825732
 20
85.48601462100192
 30
0.0
 11
340.0576710825732
 21
85.48601462100192
 31
0.0
  0
LINE
  5
E64
330
2
100
AcDbEntity
  8
0
100
AcDbLine
 10
338.9075730825731
 20
85.48601462100192
 30
0.0
 11
328.0576710825732
 21
85.48601462100192
 31
0.0
  0
LINE
  5
E65
330
2
100
AcDbEntity
  8
0
100
AcDbLine
 10
340.0576710825732
 20
84.98601462100191
 30
0.0
 11
338.9075730825731
 21
84.98601462100191
 31
0.0
  0
LINE
  5
E66
330
2
100
AcDbEntity
  8
0
100
AcDbLine
 10
328.0576710825732
 20
85.48601462100192
 30
0.0
 11
326.0576710825732
 21
84.33141262100184
 31
0.0
  0
LINE
  5
E67
330
2
100
AcDbEntity
  8
0
100
AcDbLine
 10
340.3515764136116
 20
113.4860146210026
 30
0.0
 11
326.0576710825732
 21
113.4860146210026
 31
0.0
  0
LINE
  5
E68
330
2
100
AcDbEntity
  8
0
100
AcDbLine
 10
351.0576710825732
 20
107.4860146210019
 30
0.0
 11
340.0576710825732
 21
107.4860146210019
 31
0.0
  0
LINE
  5
E69
330
2
100
AcDbEntity
  8
0
100
AcDbLine
 10
340.0576710825732
 20
107.9860146210019
 30
0.0
 11
340.0576710825732
 21
96.48601462100192
 31
0.0
  0
LINE
  5
E6A
330
2
100
AcDbEntity
  8
0
100
AcDbLine
 10
338.9075730825731
 20
107.9860146210019
 30
0.0
 11
338.9075730825731
 21
96.48601462100192
 31
0.0
  0
LINE
  5
E6B
330
2
100
AcDbEntity
  8
0
100
AcDbLine
 10
328.0576710825732
 20
107.4860146210019
 30
0.0
 11
328.0576710825732
 21
96.48601462100192
 31
0.0
  0
LINE
  5
E6C
330
2
100
AcDbEntity
  8
0
100
AcDbLine
 10
338.9075730825731
 20
107.4860146210019
 30
0.0
 11
328.0576710825732
 21
107.4860146210019
 31
0.0
  0
LINE
  5
E6D
330
2
100
AcDbEntity
  8
0
100
AcDbLine
 10
340.0576710825732
 20
107.9860146210019
 30
0.0
 11
338.9075730825731
 21
107.9860146210019
 31
0.0
  0
LINE
  5
E6E
330
2
100
AcDbEntity
  8
0
100
AcDbLine
 10
328.0576710825732
 20
107.4860146210019
 30
0.0
 11
326.0576710825732
 21
108.6406166210019
 31
0.0
  0
LINE
  5
E6F
330
2
100
AcDbEntity
  8
0
100
AcDbLine
 10
431.0575640825734
 20
84.98601462100214
 30
0.0
 11
351.0576710825732
 21
84.98601462100282
 31
0.0
  0
LINE
  5
E70
330
2
100
AcDbEntity
  8
0
100
AcDbLine
 10
442.0575640825752
 20
69.74787383669343
 30
0.0
 11
442.0575640825752
 21
79.48601462100191
 31
0.0
  0
LINE
  5
E71
330
2
100
AcDbEntity
  8
0
100
AcDbLine
 10
442.0575640825752
 20
113.4859226210019
 30
0.0
 11
442.0575640825752
 21
123.2241554053095
 31
0.0
  0
LINE
  5
E72
330
2
100
AcDbEntity
  8
0
100
AcDbLine
 10
450.0575640825752
 20
70.48601462100157
 30
0.0
 11
450.0575640825752
 21
79.4860146210018
 31
0.0
  0
LINE
  5
E73
330
2
100
AcDbEntity
  8
0
100
AcDbLine
 10
450.0575640825752
 20
113.4859226210019
 30
0.0
 11
450.0575640825752
 21
122.486014621001
 31
0.0
  0
LINE
  5
E74
330
2
100
AcDbEntity
  8
0
100
AcDbLine
 10
441.2413588090019
 20
69.72650074941532
 30
0.0
 11
442.0575640825752
 21
69.74787383669343
 31
0.0
  0
LINE
  5
E75
330
2
100
AcDbEntity
  8
0
100
AcDbLine
 10
450.0575640825752
 20
70.48601462100157
 30
0.0
 11
451.0575640825752
 21
69.90866435181203
 31
0.0
  0
LINE
  5
E76
330
2
100
AcDbEntity
  8
0
100
AcDbLine
 10
442.0575640825752
 20
70.48601462100157
 30
0.0
 11
450.0575640825752
 21
70.48601462100157
 31
0.0
  0
LINE
  5
E77
330
2
100
AcDbEntity
  8
0
100
AcDbLine
 10
450.0575640825752
 20
122.486014621001
 30
0.0
 11
451.0575640825752
 21
123.063364890191
 31
0.0
  0
LINE
  5
E78
330
2
100
AcDbEntity
  8
0
100
AcDbLine
 10
442.0575640825752
 20
122.486014621001
 30
0.0
 11
450.0575640825752
 21
122.486014621001
 31
0.0
  0
LINE
  5
E79
330
2
100
AcDbEntity
  8
0
100
AcDbLine
 10
441.2413588090019
 20
123.2455284925879
 30
0.0
 11
442.0575640825752
 21
123.2241554053095
 31
0.0
  0
SPLINE
  5
E7A
330
2
100
AcDbEntity
  8
HOJO
100
AcDbSpline
210
0.0
220
0.0
230
1.0
 70
     8
 71
     3
 72
    29
 73
    25
 74
     0
 42
0.0000000001
 43
0.0000000001
 40
1.090399320308462
 40
1.090399320308462
 40
1.090399320308462
 40
1.090399320308462
 40
4.040739644829187
 40
6.997787495336805
 40
10.73237305618972
 40
12.84118264411926
 40
16.26049801359844
 40
19.61887715227126
 40
22.64931725531719
 40
30.22181573300487
 40
36.16263111558746
 40
44.88883488220451
 40
55.50706864912782
 40
63.29892504772643
 40
76.3740363571969
 40
84.54534817615707
 40
97.35021782080984
 40
109.0809591827178
 40
120.5301602098909
 40
124.9940898217377
 40
128.7067778711773
 40
133.1761160685756
 40
137.3397663791125
 40
142.8191071547317
 40
142.8191071547317
 40
142.8191071547317
 40
142.8191071547317
 10
328.0575640825789
 20
126.5334620428463
 30
0.0
 10
329.0448490106734
 20
126.4513071715175
 30
0.0
 10
331.0035049714549
 20
126.2198551527701
 30
0.0
 10
333.9804899574462
 20
125.0312039872585
 30
0.0
 10
337.0152487089997
 20
124.478708187813
 30
0.0
 10
339.0431325547394
 20
121.9348569099659
 30
0.0
 10
339.3855725805567
 20
118.8800875625358
 30
0.0
 10
339.566023454681
 20
115.7484591179591
 30
0.0
 10
341.0263120380893
 20
110.6562927437783
 30
0.0
 10
348.2215595532377
 20
112.8733621969006
 30
0.0
 10
355.1443902891712
 20
112.8683332246885
 30
0.0
 10
363.7075330487366
 20
111.5591471091304
 30
0.0
 10
372.699283503867
 20
112.5540762386362
 30
0.0
 10
383.2037930841741
 20
112.2607695497115
 30
0.0
 10
392.896942215784
 20
112.6502308223846
 30
0.0
 10
404.1910067368806
 20
111.673826142108
 30
0.0
 10
415.3008879002716
 20
112.7888465826117
 30
0.0
 10
426.4332152846288
 20
113.5863036384623
 30
0.0
 10
438.3561738096229
 20
109.7516058396438
 30
0.0
 10
440.6209425528174
 20
115.9716984181752
 30
0.0
 10
438.8866200771897
 20
119.9867043661786
 30
0.0
 10
441.3883273489316
 20
124.1817138748244
 30
0.0
 10
446.0597477921781
 20
125.3025914235215
 30
0.0
 10
449.3803849416051
 20
125.7504666041916
 30
0.0
 10
451.0575640825734
 20
126.4039761390033
 30
0.0
  0
SPLINE
  5
E7B
330
2
100
AcDbEntity
  8
HOJO
100
AcDbSpline
210
0.0
220
0.0
230
1.0
 70
     8
 71
     3
 72
    29
 73
    25
 74
     0
 42
0.0000000001
 43
0.0000000001
 40
1.090399320308462
 40
1.090399320308462
 40
1.090399320308462
 40
1.090399320308462
 40
4.040739644829187
 40
6.997787495336805
 40
10.73237305618972
 40
12.84118264411926
 40
16.26049801359844
 40
19.61887715227126
 40
22.64931725531719
 40
30.22181573300487
 40
36.16263111558746
 40
44.88883488220451
 40
55.50706864912782
 40
63.29892504772643
 40
76.3740363571969
 40
84.54534817615707
 40
97.35021782080984
 40
109.0809591827178
 40
120.5301602098909
 40
124.9940898217377
 40
128.7067778711773
 40
133.1761160685756
 40
137.3397663791125
 40
142.8191071547317
 40
142.8191071547317
 40
142.8191071547317
 40
142.8191071547317
 10
328.0575640825789
 20
66.43856719915754
 30
0.0
 10
329.0448490106734
 20
66.52072207048616
 30
0.0
 10
331.0035049714549
 20
66.75217408923379
 30
0.0
 10
333.9804899574462
 20
67.94082525474539
 30
0.0
 10
337.0152487089997
 20
68.4933210541908
 30
0.0
 10
339.0431325547394
 20
71.03717233203804
 30
0.0
 10
339.3855725805567
 20
74.09194167946793
 30
0.0
 10
339.566023454681
 20
77.22357012404472
 30
0.0
 10
341.0263120380893
 20
82.31573649822554
 30
0.0
 10
348.2215595532377
 20
80.09866704510329
 30
0.0
 10
355.1443902891712
 20
80.1036960173152
 30
0.0
 10
363.7075330487366
 20
81.41288213287328
 30
0.0
 10
372.699283503867
 20
80.41795300336753
 30
0.0
 10
383.2037930841741
 20
80.71125969229241
 30
0.0
 10
392.896942215784
 20
80.32179841961909
 30
0.0
 10
404.1910067368806
 20
81.29820309989588
 30
0.0
 10
415.3008879002716
 20
80.18318265939205
 30
0.0
 10
426.4332152846288
 20
79.38572560354135
 30
0.0
 10
438.3561738096229
 20
83.22042340235999
 30
0.0
 10
440.6209425528174
 20
77.00033082382867
 30
0.0
 10
438.8866200771897
 20
72.98532487582531
 30
0.0
 10
441.3883273489316
 20
68.79031536717923
 30
0.0
 10
446.0597477921781
 20
67.66943781848226
 30
0.0
 10
449.3803849416051
 20
67.2215626378121
 30
0.0
 10
451.0575640825734
 20
66.56805310300057
 30
0.0
  0
LINE
  5
E7C
330
2
100
AcDbEntity
  8
0
100
AcDbLine
 10
337.0575640825752
 20
122.4860146210014
 30
0.0
 11
329.0575640825752
 21
113.4860146210028
 31
0.0
  0
LINE
  5
E7D
330
2
100
AcDbEntity
  8
0
100
AcDbLine
 10
329.0575640825752
 20
122.4860146210012
 30
0.0
 11
337.0575640825752
 21
113.4860146210026
 31
0.0
  0
LINE
  5
E7E
330
2
100
AcDbEntity
  8
0
100
AcDbLine
 10
337.0575640825752
 20
79.48601462100282
 30
0.0
 11
329.0575640825752
 21
70.48601462100191
 31
0.0
  0
LINE
  5
E7F
330
2
100
AcDbEntity
  8
0
100
AcDbLine
 10
329.0575640825752
 20
79.48601462100294
 30
0.0
 11
337.0575640825734
 21
70.48601462100191
 31
0.0
  0
LINE
  5
E80
330
2
100
AcDbEntity
  8
0
100
AcDbLine
 10
442.0575640825752
 20
79.48601462100191
 30
0.0
 11
450.0575640825752
 21
70.48601462100157
 31
0.0
  0
LINE
  5
E81
330
2
100
AcDbEntity
  8
0
100
AcDbLine
 10
450.0575640825752
 20
79.4860146210018
 30
0.0
 11
442.0575640825752
 21
70.48601462100157
 31
0.0
  0
LINE
  5
E82
330
2
100
AcDbEntity
  8
0
100
AcDbLine
 10
442.0575640825752
 20
122.486014621001
 30
0.0
 11
450.0575640825752
 21
113.4859226210019
 31
0.0
  0
LINE
  5
E83
330
2
100
AcDbEntity
  8
0
100
AcDbLine
 10
450.0575640825752
 20
122.486014621001
 30
0.0
 11
442.0575640825752
 21
113.4859226210019
 31
0.0
  0
LINE
  5
E84
330
2
100
AcDbEntity
  8
0
100
AcDbLine
 10
344.040111011576
 20
147.437864703661
 30
0.0
 11
349.5575260049097
 21
147.4860144548547
 31
0.0
  0
ARC
  5
E85
330
2
100
AcDbEntity
  8
0
100
AcDbCircle
 10
344.0575640825734
 20
145.4379408575327
 30
0.0
 40
2.0
100
AcDbArc
 50
90.50000000001761
 51
180.0
  0
LINE
  5
E86
330
2
100
AcDbEntity
  8
0
100
AcDbLine
 10
344.040111011576
 20
45.53416470449497
 30
0.0
 11
349.5575640825716
 21
45.48601462100282
 31
0.0
  0
ARC
  5
E87
330
2
100
AcDbEntity
  8
0
100
AcDbCircle
 10
344.0575640825734
 20
47.53408855062343
 30
0.0
 40
2.0
100
AcDbArc
 50
180.0
 51
269.4999999999824
  0
LINE
  5
E88
330
2
100
AcDbEntity
  8
0
100
AcDbLine
 10
349.5575640825711
 20
117.0261137981934
 30
0.0
 11
343.5575640825739
 21
117.0261137981934
 31
0.0
  0
LINE
  5
E89
330
2
100
AcDbEntity
  8
0
100
AcDbLine
 10
349.5575640825711
 20
75.94591544381009
 30
0.0
 11
343.5575640825734
 21
75.94591544381012
 31
0.0
  0
LINE
  5
E8A
330
2
100
AcDbEntity
  8
0
100
AcDbLine
 10
349.5575640825711
 20
56.48601462098452
 30
0.0
 11
343.5575640825734
 21
56.48601462098452
 31
0.0
  0
LINE
  5
E8B
330
2
100
AcDbEntity
  8
0
100
AcDbLine
 10
349.5575640825711
 20
136.4860146210191
 30
0.0
 11
343.5575640825739
 21
136.486014621019
 31
0.0
  0
LINE
  5
E8C
330
2
100
AcDbEntity
  8
0
100
AcDbLine
 10
349.5575640825711
 20
139.4860146210165
 30
0.0
 11
343.5575640825739
 21
139.4860146210165
 31
0.0
  0
LINE
  5
E8D
330
2
100
AcDbEntity
  8
0
100
AcDbLine
 10
349.5575640825711
 20
53.48601462098702
 30
0.0
 11
343.5575640825734
 21
53.48601462098702
 31
0.0
  0
LINE
  5
E8E
330
2
100
AcDbEntity
  8
0
100
AcDbLine
 10
334.9575640825721
 20
144.4860146209866
 30
0.0
 11
334.5575640825725
 21
143.7931942979594
 31
0.0
  0
LINE
  5
E8F
330
2
100
AcDbEntity
  8
0
100
AcDbLine
 10
334.9575640825721
 20
144.4860146209866
 30
0.0
 11
334.9575640825721
 21
134.4860146209866
 31
0.0
  0
LINE
  5
E90
330
2
100
AcDbEntity
  8
0
100
AcDbLine
 10
340.5575640825725
 20
144.4860146209866
 30
0.0
 11
334.9575640825721
 21
144.4860146209866
 31
0.0
  0
LINE
  5
E91
330
2
100
AcDbEntity
  8
0
100
AcDbLine
 10
340.557564082572
 20
134.4860146209866
 30
0.0
 11
334.9575640825721
 21
134.4860146209866
 31
0.0
  0
LINE
  5
E92
330
2
100
AcDbEntity
  8
0
100
AcDbLine
 10
334.9575640825721
 20
134.4860146209866
 30
0.0
 11
334.5575640825725
 21
135.1788349440139
 31
0.0
  0
LINE
  5
E93
330
2
100
AcDbEntity
  8
0
100
AcDbLine
 10
334.5575640825725
 20
143.7931942979594
 30
0.0
 11
334.5575640825725
 21
135.1788349440139
 31
0.0
  0
LINE
  5
E94
330
2
100
AcDbEntity
  8
0
100
AcDbLine
 10
334.957564082573
 20
58.48601462098668
 30
0.0
 11
334.5575640825734
 21
57.79319429795942
 31
0.0
  0
LINE
  5
E95
330
2
100
AcDbEntity
  8
0
100
AcDbLine
 10
334.957564082573
 20
58.48601462098668
 30
0.0
 11
334.957564082573
 21
48.48601462098668
 31
0.0
  0
LINE
  5
E96
330
2
100
AcDbEntity
  8
0
100
AcDbLine
 10
340.557564082573
 20
58.48601462098662
 30
0.0
 11
334.957564082573
 21
58.48601462098668
 31
0.0
  0
LINE
  5
E97
330
2
100
AcDbEntity
  8
0
100
AcDbLine
 10
340.5575640825725
 20
48.48601462098662
 30
0.0
 11
334.957564082573
 21
48.48601462098668
 31
0.0
  0
LINE
  5
E98
330
2
100
AcDbEntity
  8
0
100
AcDbLine
 10
334.957564082573
 20
48.48601462098668
 30
0.0
 11
334.5575640825734
 21
49.17883494401394
 31
0.0
  0
LINE
  5
E99
330
2
100
AcDbEntity
  8
0
100
AcDbLine
 10
334.5575640825734
 20
57.79319429795942
 30
0.0
 11
334.5575640825734
 21
49.17883494401394
 31
0.0
  0
LINE
  5
E9A
330
2
100
AcDbEntity
  8
0
100
AcDbLine
 10
342.0575640825734
 20
145.2360146210171
 30
0.0
 11
340.557564082573
 21
145.2360146210171
 31
0.0
  0
LINE
  5
E9B
330
2
100
AcDbEntity
  8
0
100
AcDbLine
 10
342.0575640825734
 20
133.7360146210172
 30
0.0
 11
340.5575640825725
 21
133.7360146210171
 31
0.0
  0
LINE
  5
E9C
330
2
100
AcDbEntity
  8
0
100
AcDbLine
 10
340.557564082573
 20
145.2360146210171
 30
0.0
 11
340.5575640825725
 21
133.7360146210171
 31
0.0
  0
LINE
  5
E9D
330
2
100
AcDbEntity
  8
0
 48
12.0
100
AcDbLine
 10
342.0575640825734
 20
133.7360146210172
 30
0.0
 11
342.0575640825734
 21
145.2360146210171
 31
0.0
  0
LINE
  5
E9E
330
2
100
AcDbEntity
  8
0
100
AcDbLine
 10
342.0575640825734
 20
59.23601462098665
 30
0.0
 11
340.557564082573
 21
59.23601462098668
 31
0.0
  0
LINE
  5
E9F
330
2
100
AcDbEntity
  8
0
100
AcDbLine
 10
342.0575640825734
 20
47.7360146209867
 30
0.0
 11
340.5575640825725
 21
47.73601462098667
 31
0.0
  0
LINE
  5
EA0
330
2
100
AcDbEntity
  8
0
100
AcDbLine
 10
340.557564082573
 20
59.23601462098668
 30
0.0
 11
340.5575640825725
 21
47.73601462098667
 31
0.0
  0
LINE
  5
EA1
330
2
100
AcDbEntity
  8
0
 48
12.0
100
AcDbLine
 10
342.0575640825734
 20
47.7360146209867
 30
0.0
 11
342.0575640825734
 21
59.23601462098665
 31
0.0
  0
LINE
  5
EA2
330
2
100
AcDbEntity
  8
CENTER
  6
CENTERX2
100
AcDbLine
 10
345.0575640825725
 20
139.4860146209866
 30
0.0
 11
331.5575640825716
 21
139.4860146209866
 31
0.0
  0
LINE
  5
EA3
330
2
100
AcDbEntity
  8
CENTER
  6
CENTERX2
100
AcDbLine
 10
345.0575640825734
 20
53.48601462098668
 30
0.0
 11
331.5575640825725
 21
53.48601462098668
 31
0.0
  0
CIRCLE
  5
EA4
330
2
100
AcDbEntity
  8
0
100
AcDbCircle
 10
147.2078073953186
 20
337.5651052800094
 30
0.0
 40
16.99995399999989
  0
LINE
  5
EA5
330
2
100
AcDbEntity
  8
0
100
AcDbLine
 10
150.2078073953168
 20
351.3651082800088
 30
0.0
 11
144.2078073953168
 21
351.365108280009
 31
0.0
  0
LINE
  5
EA6
330
2
100
AcDbEntity
  8
0
100
AcDbLine
 10
150.2078073953168
 20
351.3651082800088
 30
0.0
 11
150.2078073953168
 21
348.1481105242671
 31
0.0
  0
LINE
  5
EA7
330
2
100
AcDbEntity
  8
0
100
AcDbLine
 10
144.2078073953168
 20
351.3651082800088
 30
0.0
 11
144.2078073953168
 21
348.1481105242671
 31
0.0
  0
ARC
  5
EA8
330
2
100
AcDbEntity
  8
0
100
AcDbCircle
 10
147.2078073953168
 20
337.5651052800087
 30
0.0
 40
11.0
100
AcDbArc
 50
105.8266201318575
 51
74.17337986814243
  0
ARC
  5
EA9
330
2
100
AcDbEntity
  8
0
100
AcDbCircle
 10
147.2078073953186
 20
337.5651052800096
 30
0.0
 40
12.15460200000234
100
AcDbArc
 50
104.2894211365819
 51
75.71057886341811
  0
LINE
  5
EAA
330
2
100
AcDbEntity
  8
0
100
AcDbLine
 10
412.0245767022113
 20
354.565013280011
 30
0.0
 11
399.0245767022113
 21
354.565013280011
 31
0.0
  0
LINE
  5
EAB
330
2
100
AcDbEntity
  8
0
100
AcDbLine
 10
412.0245767022113
 20
320.565105280011
 30
0.0
 11
399.0245767022113
 21
320.565105280011
 31
0.0
  0
LINE
  5
EAC
330
2
100
AcDbEntity
  8
0
100
AcDbLine
 10
412.0245767022113
 20
354.565013280011
 30
0.0
 11
412.0245767022113
 21
320.565105280011
 31
0.0
  0
LINE
  5
EAD
330
2
100
AcDbEntity
  8
0
100
AcDbLine
 10
274.0246837022112
 20
354.5651052800117
 30
0.0
 11
274.0246837022112
 21
320.5651052800114
 31
0.0
  0
LINE
  5
EAE
330
2
100
AcDbEntity
  8
0
100
AcDbLine
 10
276.0245767022167
 20
320.5651052800121
 30
0.0
 11
274.0246837022112
 21
320.5651052800121
 31
0.0
  0
LINE
  5
EAF
330
2
100
AcDbEntity
  8
0
100
AcDbLine
 10
276.0245767022167
 20
354.5651052800117
 30
0.0
 11
274.0246837022112
 21
354.5651052800117
 31
0.0
  0
CIRCLE
  5
EB0
330
2
100
AcDbEntity
  8
0
100
AcDbCircle
 10
404.0245767022113
 20
337.5650592800109
 30
0.0
 40
2.0
  0
CIRCLE
  5
EB1
330
2
100
AcDbEntity
  8
HOJO
100
AcDbCircle
 10
404.0245767022113
 20
337.5650592800109
 30
0.0
 40
2.5
  0
LINE
  5
EB2
330
2
100
AcDbEntity
  8
CENTER
100
AcDbLine
 10
404.0245767022113
 20
342.6706470042929
 30
0.0
 11
404.0245767022113
 21
332.4594715557298
 31
0.0
  0
LINE
  5
EB3
330
2
100
AcDbEntity
  8
PHAS
  6
SEKKEI_P_S
100
AcDbLine
 10
283.5245767023223
 20
372.5651529420893
 30
0.0
 11
283.5245767023223
 21
302.5650576179322
 31
0.0
  0
ARC
  5
EB4
330
2
100
AcDbEntity
  8
PHAS
  6
SEKKEI_P_S
100
AcDbCircle
 10
259.0245767023223
 20
318.7341972937756
 30
0.0
 40
5.0
100
AcDbArc
 50
180.0
 51
259.9999999999948
  0
LINE
  5
EB5
330
2
100
AcDbEntity
  8
PHAS
  6
SEKKEI_P_S
100
AcDbLine
 10
273.724576702323
 20
369.4459061922888
 30
0.0
 11
273.7245767023221
 21
305.6842090435761
 31
0.0
  0
ARC
  5
EB6
330
2
100
AcDbEntity
  8
PHAS
  6
SEKKEI_P_S
100
AcDbCircle
 10
276.7245767023221
 20
305.6842090435761
 30
0.0
 40
3.0
100
AcDbArc
 50
180.0
 51
268.9999999999721
  0
ARC
  5
EB7
330
2
100
AcDbEntity
  8
PHAS
  6
SEKKEI_P_S
100
AcDbCircle
 10
272.7245767023221
 20
310.2259579867549
 30
0.0
 40
1.0
100
AcDbArc
 50
0.0
 51
79.99999999999484
  0
LINE
  5
EB8
330
2
100
AcDbEntity
  8
PHAS
  6
SEKKEI_P_S
100
AcDbLine
 10
258.156335813988
 20
313.8101585287144
 30
0.0
 11
272.8982248799891
 21
311.2107657397672
 31
0.0
  0
LINE
  5
EB9
330
2
100
AcDbEntity
  8
PHAS
  6
SEKKEI_P_S
100
AcDbLine
 10
283.5245767023223
 20
302.5650576179322
 30
0.0
 11
276.6722194830106
 21
302.6846659581069
 31
0.0
  0
ARC
  5
EBA
330
2
100
AcDbEntity
  8
PHAS
  6
SEKKEI_P_S
100
AcDbCircle
 10
272.7245767023221
 20
364.9041572491095
 30
0.0
 40
1.0
100
AcDbArc
 50
280.0000000000051
 51
0.0
  0
ARC
  5
EBB
330
2
100
AcDbEntity
  8
PHAS
  6
SEKKEI_P_S
100
AcDbCircle
 10
259.0245767023223
 20
356.3959179420889
 30
0.0
 40
5.0
100
AcDbArc
 50
100.0000000000051
 51
180.0
  0
LINE
  5
EBC
330
2
100
AcDbEntity
  8
PHAS
  6
SEKKEI_P_S
100
AcDbLine
 10
258.156335813988
 20
361.3199567071505
 30
0.0
 11
272.8982248799891
 21
363.9193494960972
 31
0.0
  0
LINE
  5
EBD
330
2
100
AcDbEntity
  8
PHAS
  6
SEKKEI_P_S
100
AcDbLine
 10
254.0245767023222
 20
356.3959179420889
 30
0.0
 11
254.0245767023222
 21
318.7342926179325
 31
0.0
  0
ARC
  5
EBE
330
2
100
AcDbEntity
  8
PHAS
  6
SEKKEI_P_S
100
AcDbCircle
 10
276.7245767023221
 20
369.4460015164453
 30
0.0
 40
3.0
100
AcDbArc
 50
91.00000000002784
 51
180.0
  0
LINE
  5
EBF
330
2
100
AcDbEntity
  8
PHAS
  6
SEKKEI_P_S
100
AcDbLine
 10
283.5245767023223
 20
372.5651529420892
 30
0.0
 11
276.6722194830106
 21
372.4455446019145
 31
0.0
  0
CIRCLE
  5
EC0
330
2
100
AcDbEntity
  8
0
100
AcDbCircle
 10
546.020936347172
 20
337.5651052800107
 30
0.0
 40
16.99995399999989
  0
LINE
  5
EC1
330
2
100
AcDbEntity
  8
0
100
AcDbLine
 10
549.0209363471701
 20
351.36510828001
 30
0.0
 11
543.0209363471702
 21
351.3651082800103
 31
0.0
  0
LINE
  5
EC2
330
2
100
AcDbEntity
  8
0
100
AcDbLine
 10
549.0209363471701
 20
351.36510828001
 30
0.0
 11
549.0209363471701
 21
348.1481105242684
 31
0.0
  0
LINE
  5
EC3
330
2
100
AcDbEntity
  8
0
100
AcDbLine
 10
543.0209363471702
 20
351.36510828001
 30
0.0
 11
543.0209363471702
 21
348.1481105242684
 31
0.0
  0
ARC
  5
EC4
330
2
100
AcDbEntity
  8
0
100
AcDbCircle
 10
546.0209363471701
 20
337.56510528001
 30
0.0
 40
11.0
100
AcDbArc
 50
105.8266201318575
 51
74.17337986814252
  0
ARC
  5
EC5
330
2
100
AcDbEntity
  8
0
100
AcDbCircle
 10
546.020936347172
 20
337.5651052800109
 30
0.0
 40
12.15460200000234
100
AcDbArc
 50
104.2894211365818
 51
75.71057886341818
  0
LINE
  5
EC6
330
2
100
AcDbEntity
  8
0
100
AcDbLine
 10
529.0210283471703
 20
553.1013269884042
 30
0.0
 11
529.0210283471703
 21
566.1013269884051
 31
0.0
  0
LINE
  5
EC7
330
2
100
AcDbEntity
  8
0
100
AcDbLine
 10
563.0209363471701
 20
553.1013269884042
 30
0.0
 11
563.0209363471701
 21
566.1013269884042
 31
0.0
  0
LINE
  5
EC8
330
2
100
AcDbEntity
  8
0
100
AcDbLine
 10
529.0210283471703
 20
553.1013269884042
 30
0.0
 11
563.0209363471701
 21
553.1013269884042
 31
0.0
  0
LINE
  5
EC9
330
2
100
AcDbEntity
  8
0
100
AcDbLine
 10
529.0209363471701
 20
691.1012199884043
 30
0.0
 11
563.0209363471701
 21
691.1012199884043
 31
0.0
  0
LINE
  5
ECA
330
2
100
AcDbEntity
  8
0
100
AcDbLine
 10
563.0209363471701
 20
689.1013269883996
 30
0.0
 11
563.0209363471701
 21
691.1012199884043
 31
0.0
  0
LINE
  5
ECB
330
2
100
AcDbEntity
  8
0
100
AcDbLine
 10
529.0209363471701
 20
689.1013269883988
 30
0.0
 11
529.0209363471701
 21
691.1012199884043
 31
0.0
  0
CIRCLE
  5
ECC
330
2
100
AcDbEntity
  8
0
100
AcDbCircle
 10
546.0208903471709
 20
561.1013269884042
 30
0.0
 40
2.0
  0
CIRCLE
  5
ECD
330
2
100
AcDbEntity
  8
HOJO
100
AcDbCircle
 10
546.0208903471709
 20
561.1013269884042
 30
0.0
 40
2.5
  0
LINE
  5
ECE
330
2
100
AcDbEntity
  8
CENTER
100
AcDbLine
 10
551.1264780714543
 20
561.1013269884042
 30
0.0
 11
540.9153026228912
 21
561.1013269884042
 31
0.0
  0
ARC
  5
ED5
330
2
100
AcDbEntity
  8
0
100
AcDbCircle
 10
614.6430223896179
 20
642.6013269884114
 30
0.0
 40
2.0
100
AcDbArc
 50
270.0
 51
358.4999999999842
  0
ARC
  5
ED6
330
2
100
AcDbEntity
  8
0
100
AcDbCircle
 10
614.6430223896234
 20
633.6013269884116
 30
0.0
 40
2.0
100
AcDbArc
 50
1.500000000015752
 51
90.0
  0
ARC
  5
ED7
330
2
100
AcDbEntity
  8
0
100
AcDbCircle
 10
598.8028408091715
 20
642.6013269884114
 30
0.0
 40
2.0
100
AcDbArc
 50
179.5000000000084
 51
270.0
  0
LINE
  5
ED8
330
2
100
AcDbEntity
  8
0
100
AcDbLine
 10
598.7217415988855
 20
635.6013269884116
 30
0.0
 11
614.6430223896234
 21
635.6013269884116
 31
0.0
  0
LINE
  5
ED9
330
2
100
AcDbEntity
  8
0
100
AcDbLine
 10
598.8028408091715
 20
640.6013269884113
 30
0.0
 11
614.6430223896179
 21
640.6013269884113
 31
0.0
  0
ARC
  5
EDA
330
2
100
AcDbEntity
  8
0
100
AcDbCircle
 10
598.7217415988855
 20
633.6013269884116
 30
0.0
 40
2.0
100
AcDbArc
 50
90.0
 51
179.5000000000084
  0
LINE
  5
108C
330
2
100
AcDbEntity
  8
0
100
AcDbLine
 10
642.0209583471723
 20
586.6013269884124
 30
0.0
 11
642.0209583471724
 21
689.6013269884115
 31
0.0
  0
LINE
  5
108D
330
2
100
AcDbEntity
  8
0
100
AcDbLine
 10
726.520958347175
 20
588.1013269884115
 30
0.0
 11
726.5209583471751
 21
688.1013269884115
 31
0.0
  0
LINE
  5
108E
330
2
100
AcDbEntity
  8
0
100
AcDbLine
 10
642.0209583471723
 20
587.1013269884115
 30
0.0
 11
653.5209583471704
 21
587.1013269884115
 31
0.0
  0
LINE
  5
108F
330
2
100
AcDbEntity
  8
0
100
AcDbLine
 10
655.4574500202724
 20
587.1013269884115
 30
0.0
 11
689.5209583471731
 21
587.1013269884115
 31
0.0
  0
LINE
  5
1090
330
2
100
AcDbEntity
  8
0
100
AcDbLine
 10
655.45745002027
 20
689.1013269884115
 30
0.0
 11
689.5209583471751
 21
689.1013269884151
 31
0.0
  0
LINE
  5
1091
330
2
100
AcDbEntity
  8
0
100
AcDbLine
 10
692.1667096582405
 20
688.1013269884115
 30
0.0
 11
726.5209583471751
 21
688.1013269884115
 31
0.0
  0
ARC
  5
1092
330
2
100
AcDbEntity
  8
0
100
AcDbCircle
 10
713.5209583471751
 20
686.1013269884115
 30
0.0
 40
2.0
100
AcDbArc
 50
90.0
 51
180.0
  0
LINE
  5
1093
330
2
100
AcDbEntity
  8
0
100
AcDbLine
 10
692.1667096582403
 20
588.1013269884119
 30
0.0
 11
726.520958347175
 21
588.1013269884115
 31
0.0
  0
LINE
  5
1094
330
2
100
AcDbEntity
  8
CENTER
 48
0.5
100
AcDbLine
 10
695.5209583471768
 20
618.1013269884115
 30
0.0
 11
720.5209583471769
 21
618.1013269884115
 31
0.0
  0
LINE
  5
1095
330
2
100
AcDbEntity
  8
0
100
AcDbLine
 10
699.5209583471768
 20
607.6013269884115
 30
0.0
 11
709.5209583471769
 21
607.6013269884115
 31
0.0
  0
ARC
  5
1096
330
2
100
AcDbEntity
  8
0
100
AcDbCircle
 10
699.5209583471768
 20
609.6013269884115
 30
0.0
 40
2.0
100
AcDbArc
 50
180.0
 51
270.0
  0
LINE
  5
1097
330
2
100
AcDbEntity
  8
0
100
AcDbLine
 10
711.5209583471769
 20
605.6013269884115
 30
0.0
 11
711.520958347175
 21
590.1013269884115
 31
0.0
  0
ARC
  5
1098
330
2
100
AcDbEntity
  8
0
100
AcDbCircle
 10
713.5209583471749
 20
590.1013269884115
 30
0.0
 40
2.0
100
AcDbArc
 50
180.0
 51
270.0
  0
LINE
  5
1099
330
2
100
AcDbEntity
  8
CENTER
 48
0.5
100
AcDbLine
 10
708.0209583471769
 20
630.6013269884115
 30
0.0
 11
708.0209583471769
 21
605.6013269884115
 31
0.0
  0
LINE
  5
109A
330
2
100
AcDbEntity
  8
0
100
AcDbLine
 10
697.5209583471768
 20
636.1013269884115
 30
0.0
 11
697.5209583471768
 21
609.6013269884115
 31
0.0
  0
ARC
  5
109B
330
2
100
AcDbEntity
  8
0
100
AcDbCircle
 10
709.5209583471769
 20
605.6013269884115
 30
0.0
 40
2.0
100
AcDbArc
 50
0.0
 51
90.0
  0
LINE
  5
109C
330
2
100
AcDbEntity
  8
0
100
AcDbLine
 10
711.5209583471806
 20
640.101326988412
 30
0.0
 11
711.5209583471751
 21
686.1013269884115
 31
0.0
  0
LINE
  5
109D
330
2
100
AcDbEntity
  8
0
100
AcDbLine
 10
699.5209583471768
 20
638.1013269884115
 30
0.0
 11
709.5209583471769
 21
638.1013269884115
 31
0.0
  0
ARC
  5
109E
330
2
100
AcDbEntity
  8
0
100
AcDbCircle
 10
699.5209583471768
 20
636.1013269884115
 30
0.0
 40
2.0
100
AcDbArc
 50
90.0
 51
180.0
  0
ARC
  5
109F
330
2
100
AcDbEntity
  8
0
100
AcDbCircle
 10
709.5209583471769
 20
640.1013269884115
 30
0.0
 40
2.0
100
AcDbArc
 50
270.0
 51
0.0
  0
LINE
  5
10A0
330
2
100
AcDbEntity
  8
0
100
AcDbLine
 10
691.520958347175
 20
687.1013269884151
 30
0.0
 11
691.5209583471749
 21
589.1013269884088
 31
0.0
  0
ARC
  5
10A1
330
2
100
AcDbEntity
  8
0
100
AcDbCircle
 10
689.5209583471732
 20
687.1013269884151
 30
0.0
 40
2.0
100
AcDbArc
 50
48.59037789064481
 51
89.99999999994789
  0
ARC
  5
10A2
330
2
100
AcDbEntity
  8
0
100
AcDbCircle
 10
692.1667096582405
 20
690.1013269884124
 30
0.0
 40
2.0
100
AcDbArc
 50
228.590377890713
 51
270.0
  0
ARC
  5
10A3
330
2
100
AcDbEntity
  8
0
100
AcDbCircle
 10
689.5209583471732
 20
687.1013269884151
 30
0.0
 40
2.0
100
AcDbArc
 50
0.0
 51
89.99999999994789
  0
ARC
  5
10A4
330
2
100
AcDbEntity
  8
0
100
AcDbCircle
 10
692.1667096582403
 20
586.1013269884115
 30
0.0
 40
2.0
100
AcDbArc
 50
90.0
 51
131.4096221092869
  0
ARC
  5
10A5
330
2
100
AcDbEntity
  8
0
100
AcDbCircle
 10
689.5209583471731
 20
589.1013269884088
 30
0.0
 40
2.0
100
AcDbArc
 50
270.0000000000521
 51
0.0
  0
LINE
  5
10A6
330
2
100
AcDbEntity
  8
0
100
AcDbLine
 10
653.5209583471696
 20
689.6013269884106
 30
0.0
 11
642.0209583471715
 21
689.6013269884106
 31
0.0
  0
LINE
  5
10A7
330
2
100
AcDbEntity
  8
0
100
AcDbLine
 10
653.5209583471695
 20
586.6013269884124
 30
0.0
 11
642.0209583471713
 21
586.6013269884124
 31
0.0
  0
LINE
  5
10A8
330
2
100
AcDbEntity
  8
0
100
AcDbLine
 10
655.5209583471704
 20
588.6013269884124
 30
0.0
 11
655.5209583471732
 21
687.6013269884106
 31
0.0
  0
ARC
  5
10A9
330
2
100
AcDbEntity
  8
0
100
AcDbCircle
 10
653.5209583471695
 20
588.6013269884124
 30
0.0
 40
2.0
100
AcDbArc
 50
270.0
 51
0.0
  0
ARC
  5
10AA
330
2
100
AcDbEntity
  8
0
100
AcDbCircle
 10
653.5209583471704
 20
589.1013269884119
 30
0.0
 40
2.0
100
AcDbArc
 50
270.0
 51
0.0
  0
ARC
  5
10AB
330
2
100
AcDbEntity
  8
0
100
AcDbCircle
 10
653.5209583471696
 20
687.6013269884106
 30
0.0
 40
2.0
100
AcDbArc
 50
359.9999999999869
 51
90.0
  0
ARC
  5
10AC
330
2
100
AcDbEntity
  8
0
100
AcDbCircle
 10
653.5209583471705
 20
687.1013269884111
 30
0.0
 40
2.0
100
AcDbArc
 50
0.0
 51
90.0
  0
LINE
  5
10AD
330
2
100
AcDbEntity
  8
0
100
AcDbLine
 10
653.5209583471705
 20
689.101326988411
 30
0.0
 11
642.0209583471724
 21
689.101326988411
 31
0.0
  0
LINE
  5
10AE
330
2
100
AcDbEntity
  8
0
100
AcDbLine
 10
663.0209583471707
 20
678.9713269884118
 30
0.0
 11
689.5209583471742
 21
678.9713269884118
 31
0.0
  0
LINE
  5
10AF
330
2
100
AcDbEntity
  8
0
100
AcDbLine
 10
658.5209583471713
 20
607.6013269884115
 30
0.0
 11
688.520958347174
 21
607.601326988412
 31
0.0
  0
ARC
  5
10B0
330
2
100
AcDbEntity
  8
0
100
AcDbCircle
 10
688.520958347174
 20
610.6013269884115
 30
0.0
 40
3.0
100
AcDbArc
 50
270.0
 51
0.0
  0
ARC
  5
10B1
330
2
100
AcDbEntity
  8
0
100
AcDbCircle
 10
658.5209583471713
 20
604.6013269884115
 30
0.0
 40
3.0
100
AcDbArc
 50
90.0
 51
179.9999999999869
  0
ARC
  5
10B2
330
2
100
AcDbEntity
  8
0
100
AcDbCircle
 10
688.5209583471751
 20
665.6013269884115
 30
0.0
 40
3.0
100
AcDbArc
 50
0.0
 51
90.0
  0
LINE
  5
10B3
330
2
100
AcDbEntity
  8
0
100
AcDbLine
 10
658.5209583471724
 20
668.6013269884115
 30
0.0
 11
688.5209583471751
 21
668.6013269884115
 31
0.0
  0
ARC
  5
10B4
330
2
100
AcDbEntity
  8
0
100
AcDbCircle
 10
658.5209583471724
 20
671.6013269884115
 30
0.0
 40
3.0
100
AcDbArc
 50
179.9999999999869
 51
270.0
  0
LINE
  5
10B5
330
2
100
AcDbEntity
  8
0
100
AcDbLine
 10
663.0209583471707
 20
597.2313269884112
 30
0.0
 11
689.520958347174
 21
597.2313269884112
 31
0.0
  0
LINE
  5
10B6
330
2
100
AcDbEntity
  8
0
100
AcDbLine
 10
658.5209583471732
 20
628.051451366924
 30
0.0
 11
689.520958347175
 21
628.051451366924
 31
0.0
  0
LINE
  5
10B7
330
2
100
AcDbEntity
  8
0
100
AcDbLine
 10
658.5209583471713
 20
648.1512026091768
 30
0.0
 11
689.520958347175
 21
648.1512026091768
 31
0.0
  0
ARC
  5
10B8
330
2
100
AcDbEntity
  8
0
100
AcDbCircle
 10
655.4574500202724
 20
585.1013269884119
 30
0.0
 40
2.0
100
AcDbArc
 50
89.99999999994789
 51
118.9550243718445
  0
ARC
  5
10B9
330
2
100
AcDbEntity
  8
0
100
AcDbCircle
 10
655.4574500202697
 20
691.1013269884128
 30
0.0
 40
2.0
100
AcDbArc
 50
241.0449756282135
 51
270.0
  0
LINE
  5
10BF
330
2
100
AcDbEntity
  8
0
100
AcDbLine
 10
642.0209583471727
 20
388.5651052800108
 30
0.0
 11
642.0209583471727
 21
286.5651052800108
 31
0.0
  0
LINE
  5
10E7
330
2
100
AcDbEntity
  8
0
100
AcDbLine
 10
51.20778539532034
 20
388.565105280014
 30
0.0
 11
3.656099137160481
 21
388.5651052800145
 31
0.0
  0
LINE
  5
10E8
330
2
100
AcDbEntity
  8
CENTER
100
AcDbLine
 10
-43.29221460468329
 20
337.565105280014
 30
0.0
 11
208.2078073953186
 21
337.565105280014
 31
0.0
  0
LINE
  5
10E9
330
2
100
AcDbEntity
  8
0
100
AcDbLine
 10
1.062034084251308
 20
287.565105280014
 30
0.0
 11
-33.29221460468329
 21
287.565105280014
 31
0.0
  0
ARC
  5
10EA
330
2
100
AcDbEntity
  8
0
100
AcDbCircle
 10
-20.25760913090584
 20
289.565105280014
 30
0.0
 40
2.0
100
AcDbArc
 50
270.0
 51
358.9999999999982
  0
LINE
  5
10EB
330
2
100
AcDbEntity
  8
0
100
AcDbLine
 10
-33.29221460468329
 20
387.5651052800138
 30
0.0
 11
-33.29221460468329
 21
287.5651052800142
 31
0.0
  0
LINE
  5
10EC
330
2
100
AcDbEntity
  8
0
100
AcDbLine
 10
51.20778539532034
 20
388.565105280014
 30
0.0
 11
51.20778539532034
 21
286.565105280014
 31
0.0
  0
LINE
  5
10ED
330
2
100
AcDbEntity
  8
0
100
AcDbLine
 10
51.20778539532034
 20
337.565105280014
 30
0.0
 11
-33.29221460468329
 21
337.565105280014
 31
0.0
  0
LINE
  5
10EE
330
2
100
AcDbEntity
  8
0
100
AcDbLine
 10
-17.41946135826697
 20
337.5651052800136
 30
0.0
 11
-18.25791374059304
 21
289.5302004671398
 31
0.0
  0
LINE
  5
10EF
330
2
100
AcDbEntity
  8
CENTER
100
AcDbLine
 10
-14.79221460468329
 20
395.065105280014
 30
0.0
 11
-14.79221460468329
 21
380.2812542210722
 31
0.0
  0
LINE
  5
10F0
330
2
100
AcDbEntity
  8
0
100
AcDbLine
 10
1.062034084251308
 20
387.5651052800136
 30
0.0
 11
-33.29221460468329
 21
387.5651052800138
 31
0.0
  0
LINE
  5
10F1
330
2
100
AcDbEntity
  8
0
100
AcDbLine
 10
51.20778539532034
 20
286.5651052800131
 30
0.0
 11
3.656099137160481
 21
286.5651052800131
 31
0.0
  0
ARC
  5
10F2
330
2
100
AcDbEntity
  8
0
100
AcDbCircle
 10
-20.25760913090584
 20
385.5651052800136
 30
0.0
 40
2.0
100
AcDbArc
 50
1.000000000001763
 51
90.0
  0
LINE
  5
10F3
330
2
100
AcDbEntity
  8
0
100
AcDbLine
 10
-17.41946135826697
 20
337.5651052800145
 30
0.0
 11
-18.25791374059304
 21
385.6000100928882
 31
0.0
  0
LINE
  5
10F4
330
2
100
AcDbEntity
  8
0
100
AcDbLine
 10
36.81757708398049
 20
337.5651052800136
 30
0.0
 11
37.67348453123827
 21
288.5302004671385
 31
0.0
  0
ARC
  5
10F5
330
2
100
AcDbEntity
  8
0
100
AcDbCircle
 10
39.67317992155199
 20
288.5651052800131
 30
0.0
 40
2.0
100
AcDbArc
 50
181.0000000000017
 51
270.0
  0
LINE
  5
10F6
330
2
100
AcDbEntity
  8
0
100
AcDbLine
 10
36.81757708398049
 20
337.565105280014
 30
0.0
 11
37.67348453123827
 21
386.6000100928891
 31
0.0
  0
ARC
  5
10F7
330
2
100
AcDbEntity
  8
0
100
AcDbCircle
 10
39.67317992155199
 20
386.5651052800145
 30
0.0
 40
2.0
100
AcDbArc
 50
90.0
 51
178.9999999999982
  0
ARC
  5
10F8
330
2
100
AcDbEntity
  8
0
100
AcDbCircle
 10
1.010347826095994
 20
389.5651052800136
 30
0.0
 40
2.0
100
AcDbArc
 50
270.0
 51
311.4096221092691
  0
ARC
  5
10F9
330
2
100
AcDbEntity
  8
0
100
AcDbCircle
 10
1.010347826095994
 20
285.5651052800144
 30
0.0
 40
2.0
100
AcDbArc
 50
48.59037789072324
 51
90.0
  0
LINE
  5
10FA
330
2
100
AcDbEntity
  8
0
100
AcDbLine
 10
37.02742861048659
 20
387.565105280014
 30
0.0
 11
3.629913215591614
 21
387.5651052800145
 31
0.0
  0
ARC
  5
10FB
330
2
100
AcDbEntity
  8
0
100
AcDbCircle
 10
3.629913215591614
 20
385.5651052800144
 30
0.0
 40
2.0
100
AcDbArc
 50
90.0
 51
178.4999999999973
  0
LINE
  5
10FC
330
2
100
AcDbEntity
  8
0
100
AcDbLine
 10
29.95776614724877
 20
378.3151052800117
 30
0.0
 11
-0.5089340426104628
 21
378.3151052800135
 31
0.0
  0
ARC
  5
10FD
330
2
100
AcDbEntity
  8
0
100
AcDbCircle
 10
-0.5089340426104628
 20
380.315105280014
 30
0.0
 40
2.0
100
AcDbArc
 50
270.0
 51
358.5000000000103
  0
LINE
  5
10FE
330
2
100
AcDbEntity
  8
0
100
AcDbLine
 10
4.093444615914222
 20
368.065105280014
 30
0.0
 11
34.4018647749433
 21
368.065105280014
 31
0.0
  0
ARC
  5
10FF
330
2
100
AcDbEntity
  8
0
100
AcDbCircle
 10
4.093444615914222
 20
365.065105280014
 30
0.0
 40
3.0
100
AcDbArc
 50
90.0
 51
178.4999999999973
  0
ARC
  5
1100
330
2
100
AcDbEntity
  8
0
100
AcDbCircle
 10
-6.25760913091949
 20
289.565105280014
 30
0.0
 40
2.0
100
AcDbArc
 50
270.0
 51
358.9999999999852
  0
LINE
  5
1101
330
2
100
AcDbEntity
  8
0
100
AcDbLine
 10
-2.143192795410186
 20
298.0851052800135
 30
0.0
 11
-13.98057892783276
 21
298.0851052800135
 31
0.0
  0
ARC
  5
1102
330
2
100
AcDbEntity
  8
0
100
AcDbCircle
 10
-2.143192795410186
 20
296.0851052800135
 30
0.0
 40
2.0
100
AcDbArc
 50
90.0
 51
178.9999999999851
  0
ARC
  5
1103
330
2
100
AcDbEntity
  8
0
100
AcDbCircle
 10
34.40186477494239
 20
304.0651052800145
 30
0.0
 40
3.0
100
AcDbArc
 50
1.000000000001763
 51
90.0
  0
LINE
  5
1104
330
2
100
AcDbEntity
  8
0
100
AcDbLine
 10
-4.257913740606682
 20
289.5302004671389
 30
0.0
 11
-4.142888185722995
 21
296.1200100928886
 31
0.0
  0
ARC
  5
1105
330
2
100
AcDbEntity
  8
0
100
AcDbCircle
 10
34.4018647749433
 20
371.065105280014
 30
0.0
 40
3.0
100
AcDbArc
 50
270.0
 51
358.9999999999852
  0
ARC
  5
1106
330
2
100
AcDbEntity
  8
0
100
AcDbCircle
 10
37.02742861048659
 20
389.5651052800136
 30
0.0
 40
2.0
100
AcDbArc
 50
270.0
 51
311.409622109287
  0
LINE
  5
1107
330
2
100
AcDbEntity
  8
0
100
AcDbLine
 10
1.656784487206778
 20
386.6174591766285
 30
0.0
 11
1.490118748124359
 21
380.2527513833979
 31
0.0
  0
LINE
  5
1108
330
2
100
AcDbEntity
  8
0
100
AcDbLine
 10
1.09447264098685
 20
365.1436361249376
 30
0.0
 11
0.3723033952880996
 21
337.565105280014
 31
0.0
  0
ARC
  5
1109
330
2
100
AcDbEntity
  8
0
100
AcDbCircle
 10
3.656099137160481
 20
386.5651052800135
 30
0.0
 40
2.0
100
AcDbArc
 50
90.0
 51
178.4999999999843
  0
LINE
  5
110A
330
2
100
AcDbEntity
  8
0
100
AcDbLine
 10
1.656784487208597
 20
288.5127513833986
 30
0.0
 11
1.49011874812345
 21
294.8774591766296
 31
0.0
  0
ARC
  5
110B
330
2
100
AcDbEntity
  8
0
100
AcDbCircle
 10
-0.5089340426122817
 20
294.8151052800136
 30
0.0
 40
2.0
100
AcDbArc
 50
1.500000000002658
 51
90.0
  0
LINE
  5
110C
330
2
100
AcDbEntity
  8
0
100
AcDbLine
 10
1.094472640985941
 20
309.9865744350909
 30
0.0
 11
0.3723033952880996
 21
337.565105280014
 31
0.0
  0
ARC
  5
110D
330
2
100
AcDbEntity
  8
0
100
AcDbCircle
 10
4.093444615912403
 20
310.0651052800145
 30
0.0
 40
3.0
100
AcDbArc
 50
181.5000000000026
 51
270.0
  0
ARC
  5
110E
330
2
100
AcDbEntity
  8
0
100
AcDbCircle
 10
3.656099137160481
 20
288.5651052800145
 30
0.0
 40
2.0
100
AcDbArc
 50
181.5000000000156
 51
270.0
  0
LINE
  5
110F
330
2
100
AcDbEntity
  8
0
100
AcDbLine
 10
4.093444615912403
 20
307.065105280014
 30
0.0
 11
34.40186477494239
 21
307.0651052800144
 31
0.0
  0
LINE
  5
1110
330
2
100
AcDbEntity
  8
0
100
AcDbLine
 10
29.95776614725309
 20
296.8151052800158
 30
0.0
 11
-0.5089340426122817
 21
296.815105280014
 31
0.0
  0
LINE
  5
1111
330
2
100
AcDbEntity
  8
0
100
AcDbLine
 10
2.57134374578959
 20
345.1661496036054
 30
0.0
 11
33.95025380616766
 21
345.1661496036054
 31
0.0
  0
LINE
  5
1112
330
2
100
AcDbEntity
  8
0
100
AcDbLine
 10
2.57134374578959
 20
329.9640609564226
 30
0.0
 11
33.95025380616766
 21
329.9640609564226
 31
0.0
  0
LINE
  5
1113
330
2
100
AcDbEntity
  8
0
100
AcDbLine
 10
37.02742861048659
 20
287.565105280014
 30
0.0
 11
3.629913215591614
 21
287.5651052800136
 31
0.0
  0
ARC
  5
1114
330
2
100
AcDbEntity
  8
0
100
AcDbCircle
 10
3.629913215591614
 20
289.5651052800136
 30
0.0
 40
2.0
100
AcDbArc
 50
181.4999999999896
 51
270.0
  0
ARC
  5
1115
330
2
100
AcDbEntity
  8
0
100
AcDbCircle
 10
37.02742861048659
 20
285.565105280014
 30
0.0
 40
2.0
100
AcDbArc
 50
48.59037789071347
 51
90.0
  0
ARC
  5
1119
330
2
100
AcDbEntity
  8
0
100
AcDbCircle
 10
283.9465297879344
 20
380.565105280009
 30
0.0
 40
8.0
100
AcDbArc
 50
134.6047454893964
 51
179.4382946674161
  0
LINE
  5
111B
330
2
100
AcDbEntity
  8
CENTER
100
AcDbLine
 10
347.0245767024482
 20
396.5651052799936
 30
0.0
 11
347.0245767024482
 21
379.8891433043896
 31
0.0
  0
LINE
  5
111C
330
2
100
AcDbEntity
  8
0
100
AcDbLine
 10
275.9469142277332
 20
380.643532883541
 30
0.0
 11
275.691243368876
 21
354.5651052800117
 31
0.0
  0
ARC
  5
111F
330
2
100
AcDbEntity
  8
0
100
AcDbCircle
 10
283.9465297879344
 20
294.5651052800136
 30
0.0
 40
8.0
100
AcDbArc
 50
180.5617053325577
 51
225.3952545026027
  0
LINE
  5
1120
330
2
100
AcDbEntity
  8
0
100
AcDbLine
 10
275.9469142277332
 20
294.4866776764817
 30
0.0
 11
275.691243368876
 21
320.5651052800121
 31
0.0
  0
LINE
  5
11A0
330
2
100
AcDbEntity
  8
CENTER
  6
CENTERX2
100
AcDbLine
 10
652.520958347173
 20
680.5277338596047
 30
0.0
 11
666.020958347174
 21
680.5277338596043
 31
0.0
  0
LINE
  5
11A1
330
2
100
AcDbEntity
  8
CENTER
  6
CENTERX2
100
AcDbLine
 10
40.45776614724878
 20
379.991512151086
 30
0.0
 11
26.95165687452299
 21
379.9915121510858
 31
0.0
  0
LINE
  5
11A2
330
2
100
AcDbEntity
  8
CENTER
  6
CENTERX2
100
AcDbLine
 10
40.45776614725321
 20
295.1386984086978
 30
0.0
 11
26.95165687452731
 21
295.1386984086976
 31
0.0
  0
LINE
  5
11A7
330
2
100
AcDbEntity
  8
0
100
AcDbLine
 10
-9.792214604683294
 20
391.5651052800136
 30
0.0
 11
-19.79221460468329
 21
391.5651052800136
 31
0.0
  0
ARC
  5
11A8
330
2
100
AcDbEntity
  8
0
100
AcDbCircle
 10
-19.79221460468329
 20
387.5651052800136
 30
0.0
 40
4.0
100
AcDbArc
 50
90.0
 51
180.0
  0
ARC
  5
11A9
330
2
100
AcDbEntity
  8
0
100
AcDbCircle
 10
-9.792214604683294
 20
387.5651052800136
 30
0.0
 40
4.0
100
AcDbArc
 50
0.0
 51
90.0
  0
CIRCLE
  5
11AA
330
2
100
AcDbEntity
  8
0
100
AcDbCircle
 10
708.0209583471769
 20
618.1013269884115
 30
0.0
 40
9.0
  0
LINE
  5
11ED
330
2
100
AcDbEntity
  8
0
100
AcDbLine
 10
352.0245767024482
 20
391.5651052801332
 30
0.0
 11
342.0245767024482
 21
391.5651052801332
 31
0.0
  0
ARC
  5
11EE
330
2
100
AcDbEntity
  8
0
100
AcDbCircle
 10
342.0245767024482
 20
387.5651052801332
 30
0.0
 40
4.0
100
AcDbArc
 50
90.0
 51
159.6698891995559
  0
ARC
  5
11EF
330
2
100
AcDbEntity
  8
0
100
AcDbCircle
 10
352.0245767024482
 20
387.5651052801332
 30
0.0
 40
4.0
100
AcDbArc
 50
17.72127488441271
 51
90.0
  0
LINE
  5
11FB
330
2
100
AcDbEntity
  8
0
100
AcDbLine
 10
37.45776614724877
 20
385.7415121510858
 30
0.0
 11
35.95776614724832
 21
385.7415121510858
 31
0.0
  0
LINE
  5
11FC
330
2
100
AcDbEntity
  8
0
100
AcDbLine
 10
37.45776614724877
 20
374.2415121510858
 30
0.0
 11
35.95776614724809
 21
374.2415121510858
 31
0.0
  0
LINE
  5
11FD
330
2
100
AcDbEntity
  8
0
100
AcDbLine
 10
30.35776614724841
 20
384.9915121510858
 30
0.0
 11
29.95776614724877
 21
384.2986918280585
 31
0.0
  0
LINE
  5
11FE
330
2
100
AcDbEntity
  8
0
100
AcDbLine
 10
35.95776614724832
 20
385.7415121510858
 30
0.0
 11
35.95776614724809
 21
374.2415121510858
 31
0.0
  0
LINE
  5
11FF
330
2
100
AcDbEntity
  8
0
100
AcDbLine
 10
30.35776614724841
 20
384.9915121510858
 30
0.0
 11
30.35776614724841
 21
374.9915121510858
 31
0.0
  0
LINE
  5
1200
330
2
100
AcDbEntity
  8
0
100
AcDbLine
 10
35.95776614724832
 20
384.9915121510858
 30
0.0
 11
30.35776614724841
 21
384.9915121510858
 31
0.0
  0
LINE
  5
1201
330
2
100
AcDbEntity
  8
0
100
AcDbLine
 10
35.95776614724809
 20
374.9915121510858
 30
0.0
 11
30.35776614724841
 21
374.9915121510858
 31
0.0
  0
LINE
  5
1202
330
2
100
AcDbEntity
  8
0
100
AcDbLine
 10
30.35776614724841
 20
374.9915121510858
 30
0.0
 11
29.95776614724877
 21
375.684332474113
 31
0.0
  0
LINE
  5
1203
330
2
100
AcDbEntity
  8
0
100
AcDbLine
 10
29.95776614724877
 20
384.2986918280585
 30
0.0
 11
29.95776614724877
 21
375.684332474113
 31
0.0
  0
LINE
  5
1204
330
2
100
AcDbEntity
  8
0
 48
12.0
100
AcDbLine
 10
37.45776614724877
 20
374.2415121510858
 30
0.0
 11
37.45776614724877
 21
385.7415121510858
 31
0.0
  0
LINE
  5
1205
330
2
100
AcDbEntity
  8
0
100
AcDbLine
 10
37.45776614725309
 20
300.8886984086976
 30
0.0
 11
35.95776614725264
 21
300.8886984086976
 31
0.0
  0
LINE
  5
1206
330
2
100
AcDbEntity
  8
0
100
AcDbLine
 10
37.45776614725309
 20
289.3886984086975
 30
0.0
 11
35.95776614725241
 21
289.3886984086975
 31
0.0
  0
LINE
  5
1207
330
2
100
AcDbEntity
  8
0
100
AcDbLine
 10
30.35776614725273
 20
300.1386984086976
 30
0.0
 11
29.95776614725309
 21
299.4458780856703
 31
0.0
  0
LINE
  5
1208
330
2
100
AcDbEntity
  8
0
100
AcDbLine
 10
35.95776614725264
 20
300.8886984086976
 30
0.0
 11
35.95776614725241
 21
289.3886984086975
 31
0.0
  0
LINE
  5
1209
330
2
100
AcDbEntity
  8
0
100
AcDbLine
 10
30.35776614725273
 20
300.1386984086976
 30
0.0
 11
30.35776614725273
 21
290.1386984086976
 31
0.0
  0
LINE
  5
120A
330
2
100
AcDbEntity
  8
0
100
AcDbLine
 10
35.95776614725264
 20
300.1386984086976
 30
0.0
 11
30.35776614725273
 21
300.1386984086976
 31
0.0
  0
LINE
  5
120B
330
2
100
AcDbEntity
  8
0
100
AcDbLine
 10
35.95776614725241
 20
290.1386984086976
 30
0.0
 11
30.35776614725273
 21
290.1386984086976
 31
0.0
  0
LINE
  5
120C
330
2
100
AcDbEntity
  8
0
100
AcDbLine
 10
30.35776614725273
 20
290.1386984086976
 30
0.0
 11
29.95776614725309
 21
290.8315187317248
 31
0.0
  0
LINE
  5
120D
330
2
100
AcDbEntity
  8
0
100
AcDbLine
 10
29.95776614725309
 20
299.4458780856703
 30
0.0
 11
29.95776614725309
 21
290.8315187317248
 31
0.0
  0
LINE
  5
120E
330
2
100
AcDbEntity
  8
0
 48
12.0
100
AcDbLine
 10
37.45776614725309
 20
289.3886984086975
 30
0.0
 11
37.45776614725309
 21
300.8886984086976
 31
0.0
  0
LINE
  5
120F
330
2
100
AcDbEntity
  8
0
100
AcDbLine
 10
655.5209583471728
 20
674.7777338596042
 30
0.0
 11
657.0209583471734
 21
674.7777338596042
 31
0.0
  0
LINE
  5
1210
330
2
100
AcDbEntity
  8
0
100
AcDbLine
 10
655.5209583471729
 20
686.2777338596043
 30
0.0
 11
657.0209583471737
 21
686.2777338596043
 31
0.0
  0
LINE
  5
1211
330
2
100
AcDbEntity
  8
0
100
AcDbLine
 10
662.6209583471732
 20
675.5277338596043
 30
0.0
 11
663.0209583471728
 21
676.2205541826315
 31
0.0
  0
LINE
  5
1212
330
2
100
AcDbEntity
  8
0
100
AcDbLine
 10
657.0209583471734
 20
674.7777338596042
 30
0.0
 11
657.0209583471737
 21
686.2777338596043
 31
0.0
  0
LINE
  5
1213
330
2
100
AcDbEntity
  8
0
100
AcDbLine
 10
662.6209583471732
 20
675.5277338596043
 30
0.0
 11
662.6209583471733
 21
685.5277338596042
 31
0.0
  0
LINE
  5
1214
330
2
100
AcDbEntity
  8
0
100
AcDbLine
 10
657.0209583471734
 20
675.5277338596043
 30
0.0
 11
662.6209583471732
 21
675.5277338596043
 31
0.0
  0
LINE
  5
1215
330
2
100
AcDbEntity
  8
0
100
AcDbLine
 10
657.0209583471737
 20
685.5277338596042
 30
0.0
 11
662.6209583471733
 21
685.5277338596042
 31
0.0
  0
LINE
  5
1216
330
2
100
AcDbEntity
  8
0
100
AcDbLine
 10
662.6209583471733
 20
685.5277338596042
 30
0.0
 11
663.0209583471729
 21
684.8349135365769
 31
0.0
  0
LINE
  5
1217
330
2
100
AcDbEntity
  8
0
100
AcDbLine
 10
663.0209583471728
 20
676.2205541826315
 30
0.0
 11
663.0209583471729
 21
684.8349135365769
 31
0.0
  0
LINE
  5
1218
330
2
100
AcDbEntity
  8
0
 48
12.0
100
AcDbLine
 10
655.5209583471729
 20
686.2777338596043
 30
0.0
 11
655.5209583471728
 21
674.7777338596042
 31
0.0
  0
LINE
  5
1226
330
2
100
AcDbEntity
  8
CENTER
  6
CENTERX2
100
AcDbLine
 10
652.5209583471705
 20
595.6749201172187
 30
0.0
 11
666.020958347174
 21
595.6749201172187
 31
0.0
  0
LINE
  5
1227
330
2
100
AcDbEntity
  8
0
100
AcDbLine
 10
655.5209583471728
 20
601.4249201172187
 30
0.0
 11
657.0209583471734
 21
601.4249201172187
 31
0.0
  0
LINE
  5
1228
330
2
100
AcDbEntity
  8
0
100
AcDbLine
 10
655.5209583471729
 20
589.9249201172188
 30
0.0
 11
657.0209583471737
 21
589.9249201172188
 31
0.0
  0
LINE
  5
1229
330
2
100
AcDbEntity
  8
0
100
AcDbLine
 10
662.6209583471732
 20
600.6749201172188
 30
0.0
 11
663.0209583471728
 21
599.9820997941915
 31
0.0
  0
LINE
  5
122A
330
2
100
AcDbEntity
  8
0
100
AcDbLine
 10
657.0209583471734
 20
601.4249201172187
 30
0.0
 11
657.0209583471737
 21
589.9249201172188
 31
0.0
  0
LINE
  5
122B
330
2
100
AcDbEntity
  8
0
100
AcDbLine
 10
662.6209583471732
 20
600.6749201172188
 30
0.0
 11
662.6209583471733
 21
590.6749201172187
 31
0.0
  0
LINE
  5
122C
330
2
100
AcDbEntity
  8
0
100
AcDbLine
 10
657.0209583471734
 20
600.6749201172188
 30
0.0
 11
662.6209583471732
 21
600.6749201172188
 31
0.0
  0
LINE
  5
122D
330
2
100
AcDbEntity
  8
0
100
AcDbLine
 10
657.0209583471737
 20
590.6749201172187
 30
0.0
 11
662.6209583471733
 21
590.6749201172187
 31
0.0
  0
LINE
  5
122E
330
2
100
AcDbEntity
  8
0
100
AcDbLine
 10
662.6209583471733
 20
590.6749201172187
 30
0.0
 11
663.0209583471729
 21
591.367740440246
 31
0.0
  0
LINE
  5
122F
330
2
100
AcDbEntity
  8
0
100
AcDbLine
 10
663.0209583471728
 20
599.9820997941915
 30
0.0
 11
663.0209583471729
 21
591.367740440246
 31
0.0
  0
LINE
  5
1230
330
2
100
AcDbEntity
  8
0
 48
12.0
100
AcDbLine
 10
655.5209583471729
 20
589.9249201172188
 30
0.0
 11
655.5209583471728
 21
601.4249201172187
 31
0.0
  0
TEXT
  5
19D1
330
2
100
AcDbEntity
  8
TITLE
100
AcDbText
 10
298.9321402359228
 20
657.1082030970119
 30
0.0
 40
7.5
  1
AFCZ22S-3~5M1000K23
100
AcDbText
  0
TEXT
  5
19D2
330
2
100
AcDbEntity
  8
TITLE
100
AcDbText
 10
298.9321402359228
 20
646.1288847148494
 30
0.0
 40
7.5
  1
AFCZ22S-3~5L1000K23
100
AcDbText
  0
LINE
  5
2285
330
2
100
AcDbEntity
  8
0
100
AcDbLine
 10
642.0209583471728
 20
388.5651052800108
 30
0.0
 11
642.0209583471728
 21
286.5651052800108
 31
0.0
  0
LINE
  5
2400
330
2
100
AcDbEntity
  8
CENTER
100
AcDbLine
 10
936.0445844204294
 20
399.065585852864
 30
0.0
 11
936.0445844204294
 21
276.0646247071786
 31
0.0
  0
LINE
  5
2401
330
2
100
AcDbEntity
  8
0
100
AcDbLine
 10
883.0445844204325
 20
387.8407752533817
 30
0.0
 11
883.0445844204325
 21
287.2894353066482
 31
0.0
  0
LINE
  5
2402
330
2
100
AcDbEntity
  8
0
100
AcDbLine
 10
878.0445844204326
 20
382.5651052800121
 30
0.0
 11
878.0445844204326
 21
292.5651052800123
 31
0.0
  0
LINE
  5
2403
330
2
100
AcDbEntity
  8
0
100
AcDbLine
 10
883.0445844204325
 20
382.5651052800121
 30
0.0
 11
878.0445844204326
 21
382.5651052800121
 31
0.0
  0
LINE
  5
2404
330
2
100
AcDbEntity
  8
0
100
AcDbLine
 10
883.0445844204325
 20
292.5651052800123
 30
0.0
 11
878.0445844204326
 21
292.5651052800123
 31
0.0
  0
LINE
  5
2405
330
2
100
AcDbEntity
  8
0
100
AcDbLine
 10
864.0445844204316
 20
369.6337277304002
 30
0.0
 11
864.0445844204316
 21
305.4964828296271
 31
0.0
  0
LINE
  5
2406
330
2
100
AcDbEntity
  8
0
100
AcDbLine
 10
876.1143834138358
 20
371.9865919484738
 30
0.0
 11
865.9747854270264
 21
371.6325093844381
 31
0.0
  0
ARC
  5
2407
330
2
100
AcDbEntity
  8
0
100
AcDbCircle
 10
876.0445844204316
 20
373.9853736025116
 30
0.0
 40
2.0
100
AcDbArc
 50
272.0000000000035
 51
0.0
  0
ARC
  5
2408
330
2
100
AcDbEntity
  8
0
100
AcDbCircle
 10
866.0445844204316
 20
369.6337277304002
 30
0.0
 40
2.0
100
AcDbArc
 50
92.00000000000361
 51
180.0
  0
LINE
  5
2409
330
2
100
AcDbEntity
  8
0
100
AcDbLine
 10
876.1143834138367
 20
303.1436186115535
 30
0.0
 11
865.9747854270264
 21
303.4977011755892
 31
0.0
  0
ARC
  5
240A
330
2
100
AcDbEntity
  8
0
100
AcDbCircle
 10
876.0445844204316
 20
301.1448369575156
 30
0.0
 40
2.0
100
AcDbArc
 50
0.0
 51
87.9999999999964
  0
ARC
  5
240B
330
2
100
AcDbEntity
  8
0
100
AcDbCircle
 10
866.0445844204316
 20
305.4964828296271
 30
0.0
 40
2.0
100
AcDbArc
 50
180.0
 51
267.9999999999963
  0
ARC
  5
240E
330
2
100
AcDbEntity
  8
0
100
AcDbCircle
 10
893.0445844204257
 20
294.4870583657461
 30
0.0
 40
8.0
100
AcDbArc
 50
224.6047454959609
 51
269.4382946674162
  0
LINE
  5
240F
330
2
100
AcDbEntity
  8
0
100
AcDbLine
 10
936.0445844204257
 20
389.0651052800208
 30
0.0
 11
979.1230120239573
 21
388.6427677544957
 31
0.0
  0
ARC
  5
2410
330
2
100
AcDbEntity
  8
0
100
AcDbCircle
 10
979.0445844204262
 20
380.6431521942954
 30
0.0
 40
8.0
100
AcDbArc
 50
44.60474549143177
 51
89.43829466744229
  0
LINE
  5
2411
330
2
100
AcDbEntity
  8
0
100
AcDbLine
 10
936.0445844204257
 20
389.0651052800208
 30
0.0
 11
924.7954103365691
 21
388.9548192595909
 31
0.0
  0
ARC
  5
2412
330
2
100
AcDbEntity
  8
0
100
AcDbCircle
 10
893.0445844204257
 20
380.6431521942963
 30
0.0
 40
8.0
100
AcDbArc
 50
90.5617053325577
 51
135.3952545113082
  0
LINE
  5
2413
330
2
100
AcDbEntity
  8
0
100
AcDbLine
 10
936.0445844204257
 20
286.0651052800217
 30
0.0
 11
979.1230120239573
 21
286.4874428055468
 31
0.0
  0
ARC
  5
2414
330
2
100
AcDbEntity
  8
0
100
AcDbCircle
 10
979.0445844204262
 20
294.4870583657471
 30
0.0
 40
8.0
100
AcDbArc
 50
270.5617053325576
 51
315.3952545012993
  0
LINE
  5
2415
330
2
100
AcDbEntity
  8
0
100
AcDbLine
 10
936.0445844204257
 20
286.0651052800217
 30
0.0
 11
892.9661568168942
 21
286.4874428055459
 31
0.0
  0
LINE
  5
2416
330
2
100
AcDbEntity
  8
0
100
AcDbLine
 10
889.674421397958
 20
387.8986329641597
 30
0.0
 11
883.0445844204325
 21
387.8407752533817
 31
0.0
  0
LINE
  5
2417
330
2
100
AcDbEntity
  8
0
100
AcDbLine
 10
889.674421397958
 20
287.23157759587
 30
0.0
 11
883.0445844204325
 21
287.2894353066482
 31
0.0
  0
LINE
  5
2418
330
2
100
AcDbEntity
  8
CENTER
100
AcDbLine
 10
841.044584420417
 20
337.565105280011
 30
0.0
 11
999.0444774204172
 21
337.5651052800109
 31
0.0
  0
LINE
  5
2419
330
2
100
AcDbEntity
  8
0
100
AcDbLine
 10
851.044584420417
 20
354.5650132800194
 30
0.0
 11
864.0445844204171
 21
354.5650132800194
 31
0.0
  0
LINE
  5
241A
330
2
100
AcDbEntity
  8
0
100
AcDbLine
 10
851.044584420417
 20
320.5651052800194
 30
0.0
 11
864.0445844204171
 21
320.5651052800194
 31
0.0
  0
LINE
  5
241B
330
2
100
AcDbEntity
  8
0
100
AcDbLine
 10
851.044584420417
 20
354.5650132800194
 30
0.0
 11
851.044584420417
 21
320.5651052800194
 31
0.0
  0
LINE
  5
241C
330
2
100
AcDbEntity
  8
0
100
AcDbLine
 10
989.0444774204173
 20
354.5651052800201
 30
0.0
 11
989.0444774204173
 21
320.5651052800201
 31
0.0
  0
LINE
  5
241D
330
2
100
AcDbEntity
  8
0
100
AcDbLine
 10
987.3779177537644
 20
320.5651052800206
 30
0.0
 11
989.0444774204173
 21
320.5651052800206
 31
0.0
  0
LINE
  5
241E
330
2
100
AcDbEntity
  8
0
100
AcDbLine
 10
987.3779177537635
 20
354.5651052800201
 30
0.0
 11
989.0444774204173
 21
354.5651052800201
 31
0.0
  0
LINE
  5
2521
330
2
100
AcDbEntity
  8
0
100
AcDbLine
 10
642.0209583471728
 20
388.5651052800108
 30
0.0
 11
689.5726446053327
 21
388.5651052800113
 31
0.0
  0
ARC
  5
2523
330
2
100
AcDbEntity
  8
0
100
AcDbCircle
 10
713.486352873399
 20
289.5651052800108
 30
0.0
 40
2.0
100
AcDbArc
 50
180.9999999999887
 51
270.0
  0
LINE
  5
2524
330
2
100
AcDbEntity
  8
0
100
AcDbLine
 10
642.0209583471728
 20
388.5651052800108
 30
0.0
 11
642.0209583471728
 21
286.5651052800108
 31
0.0
  0
LINE
  5
2525
330
2
100
AcDbEntity
  8
0
100
AcDbLine
 10
642.0209583471728
 20
337.5651052800108
 30
0.0
 11
726.5209583471764
 21
337.5651052800108
 31
0.0
  0
LINE
  5
2526
330
2
100
AcDbEntity
  8
0
100
AcDbLine
 10
710.6482051007601
 20
337.5651052800104
 30
0.0
 11
711.4866574830862
 21
289.5302004671366
 31
0.0
  0
LINE
  5
2527
330
2
100
AcDbEntity
  8
CENTER
100
AcDbLine
 10
708.0209583471765
 20
395.0651052800108
 30
0.0
 11
708.0209583471765
 21
380.2812542210691
 31
0.0
  0
LINE
  5
2528
330
2
100
AcDbEntity
  8
0
100
AcDbLine
 10
642.0209583471728
 20
286.5651052800099
 30
0.0
 11
689.5726446053327
 21
286.5651052800099
 31
0.0
  0
ARC
  5
2529
330
2
100
AcDbEntity
  8
0
100
AcDbCircle
 10
713.486352873399
 20
385.5651052800104
 30
0.0
 40
2.0
100
AcDbArc
 50
90.0
 51
178.9999999999982
  0
LINE
  5
252A
330
2
100
AcDbEntity
  8
0
100
AcDbLine
 10
711.3260638755158
 20
376.3996084769793
 30
0.0
 11
711.4866574830862
 21
385.600010092885
 31
0.0
  0
LINE
  5
252B
330
2
100
AcDbEntity
  8
0
100
AcDbLine
 10
656.4111666585127
 20
337.5651052800104
 30
0.0
 11
655.5552592112548
 21
288.5302004671353
 31
0.0
  0
ARC
  5
252C
330
2
100
AcDbEntity
  8
0
100
AcDbCircle
 10
653.5555638209411
 20
288.5651052800099
 30
0.0
 40
2.0
100
AcDbArc
 50
270.0
 51
358.9999999999982
  0
LINE
  5
252D
330
2
100
AcDbEntity
  8
0
100
AcDbLine
 10
656.0784408395849
 20
356.6269546799558
 30
0.0
 11
655.5552592112548
 21
386.6000100928859
 31
0.0
  0
ARC
  5
252E
330
2
100
AcDbEntity
  8
0
100
AcDbCircle
 10
653.5555638209411
 20
386.5651052800113
 30
0.0
 40
2.0
100
AcDbArc
 50
1.000000000001761
 51
90.0
  0
ARC
  5
252F
330
2
100
AcDbEntity
  8
0
100
AcDbCircle
 10
692.2183959163971
 20
389.5651052800104
 30
0.0
 40
2.0
100
AcDbArc
 50
228.5903778907302
 51
270.0
  0
ARC
  5
2530
330
2
100
AcDbEntity
  8
0
100
AcDbCircle
 10
692.2183959163971
 20
285.5651052800113
 30
0.0
 40
2.0
100
AcDbArc
 50
90.0
 51
131.4096221092697
  0
LINE
  5
2531
330
2
100
AcDbEntity
  8
0
100
AcDbLine
 10
656.2013151320066
 20
387.5651052800108
 30
0.0
 11
689.5988305269015
 21
387.5651052800113
 31
0.0
  0
ARC
  5
2532
330
2
100
AcDbEntity
  8
0
100
AcDbCircle
 10
689.5988305269015
 20
385.5651052800113
 30
0.0
 40
2.0
100
AcDbArc
 50
1.499999999989629
 51
90.0
  0
ARC
  5
2533
330
2
100
AcDbEntity
  8
0
100
AcDbCircle
 10
693.7376777851036
 20
380.3151052800108
 30
0.0
 40
2.0
100
AcDbArc
 50
181.4999999999766
 51
270.0
  0
LINE
  5
2534
330
2
100
AcDbEntity
  8
0
100
AcDbLine
 10
689.1352991265789
 20
368.0651052800108
 30
0.0
 11
658.8268789675498
 21
368.0651052800108
 31
0.0
  0
ARC
  5
2535
330
2
100
AcDbEntity
  8
0
100
AcDbCircle
 10
689.1352991265789
 20
365.0651052800108
 30
0.0
 40
3.0
100
AcDbArc
 50
1.500000000002652
 51
90.0
  0
ARC
  5
2536
330
2
100
AcDbEntity
  8
0
100
AcDbCircle
 10
658.8268789675508
 20
304.0651052800113
 30
0.0
 40
3.0
100
AcDbArc
 50
90.0
 51
178.9999999999851
  0
LINE
  5
2537
330
2
100
AcDbEntity
  8
0
100
AcDbLine
 10
695.3719365379034
 20
377.0451052800104
 30
0.0
 11
707.2093226703159
 21
377.0451052800104
 31
0.0
  0
ARC
  5
2538
330
2
100
AcDbEntity
  8
0
100
AcDbCircle
 10
699.4863528734127
 20
385.5651052800108
 30
0.0
 40
2.0
100
AcDbArc
 50
90.0
 51
178.9999999999982
  0
LINE
  5
2539
330
2
100
AcDbEntity
  8
0
100
AcDbLine
 10
697.4866574830998
 20
385.6000100928854
 30
0.0
 11
697.3716319282162
 21
379.0102004671362
 31
0.0
  0
ARC
  5
253A
330
2
100
AcDbEntity
  8
0
100
AcDbCircle
 10
658.8268789675498
 20
371.0651052800108
 30
0.0
 40
3.0
100
AcDbArc
 50
181.0000000000017
 51
270.0
  0
ARC
  5
253B
330
2
100
AcDbEntity
  8
0
100
AcDbCircle
 10
656.2013151320066
 20
389.5651052800104
 30
0.0
 40
2.0
100
AcDbArc
 50
228.590377890714
 51
270.0
  0
LINE
  5
253C
330
2
100
AcDbEntity
  8
0
100
AcDbLine
 10
691.5719592552863
 20
386.6174591766253
 30
0.0
 11
691.7386249943688
 21
380.2527513833948
 31
0.0
  0
LINE
  5
253D
330
2
100
AcDbEntity
  8
0
100
AcDbLine
 10
692.1342711015063
 20
365.1436361249344
 30
0.0
 11
692.2769637840218
 21
359.6944224267153
 31
0.0
  0
ARC
  5
253E
330
2
100
AcDbEntity
  8
0
100
AcDbCircle
 10
689.5726446053327
 20
386.5651052800103
 30
0.0
 40
2.0
100
AcDbArc
 50
1.500000000015675
 51
90.0
  0
LINE
  5
253F
330
2
100
AcDbEntity
  8
0
100
AcDbLine
 10
691.5719592552846
 20
288.5127513833954
 30
0.0
 11
691.7386249943697
 21
294.8774591766264
 31
0.0
  0
ARC
  5
2540
330
2
100
AcDbEntity
  8
0
100
AcDbCircle
 10
693.7376777851055
 20
294.8151052800104
 30
0.0
 40
2.0
100
AcDbArc
 50
90.0
 51
178.4999999999973
  0
LINE
  5
2541
330
2
100
AcDbEntity
  8
0
100
AcDbLine
 10
692.1342711015072
 20
309.9865744350878
 30
0.0
 11
692.8564403472051
 21
337.5651052800108
 31
0.0
  0
ARC
  5
2542
330
2
100
AcDbEntity
  8
0
100
AcDbCircle
 10
689.1352991265807
 20
310.0651052800113
 30
0.0
 40
3.0
100
AcDbArc
 50
270.0
 51
358.4999999999973
  0
ARC
  5
2543
330
2
100
AcDbEntity
  8
0
100
AcDbCircle
 10
689.5726446053327
 20
288.5651052800113
 30
0.0
 40
2.0
100
AcDbArc
 50
270.0
 51
358.4999999999843
  0
LINE
  5
2544
330
2
100
AcDbEntity
  8
0
100
AcDbLine
 10
689.1352991265807
 20
307.0651052800108
 30
0.0
 11
658.8268789675508
 21
307.0651052800113
 31
0.0
  0
LINE
  5
2545
330
2
100
AcDbEntity
  8
0
100
AcDbLine
 10
663.2709775952402
 20
296.8151052800131
 30
0.0
 11
693.7376777851055
 21
296.8151052800108
 31
0.0
  0
LINE
  5
2546
330
2
100
AcDbEntity
  8
0
100
AcDbLine
 10
690.6573999967036
 20
329.9640609564194
 30
0.0
 11
659.2784899363254
 21
329.9640609564194
 31
0.0
  0
LINE
  5
2547
330
2
100
AcDbEntity
  8
0
100
AcDbLine
 10
656.2013151320066
 20
287.5651052800108
 30
0.0
 11
689.5988305269015
 21
287.5651052800104
 31
0.0
  0
ARC
  5
2548
330
2
100
AcDbEntity
  8
0
100
AcDbCircle
 10
689.5988305269015
 20
289.5651052800104
 30
0.0
 40
2.0
100
AcDbArc
 50
270.0
 51
358.5000000000103
  0
ARC
  5
2549
330
2
100
AcDbEntity
  8
0
100
AcDbCircle
 10
656.2013151320066
 20
285.5651052800108
 30
0.0
 40
2.0
100
AcDbArc
 50
90.0
 51
131.4096221092859
  0
ARC
  5
254A
330
2
100
AcDbEntity
  8
0
100
AcDbCircle
 10
695.3719365379034
 20
379.0451052800108
 30
0.0
 40
2.0
100
AcDbArc
 50
270.0
 51
358.9999999999982
  0
LINE
  5
254B
330
2
100
AcDbEntity
  8
0
100
AcDbLine
 10
894.1667916586755
 20
387.5651052800118
 30
0.0
 11
977.9223771821849
 21
387.5651052800118
 31
0.0
  0
ARC
  5
254C
330
2
100
AcDbEntity
  8
0
100
AcDbCircle
 10
977.9223771821849
 20
379.5651052800118
 30
0.0
 40
8.0
100
AcDbArc
 50
0.1666666660107271
 51
90.0
  0
LINE
  5
254E
330
2
100
AcDbEntity
  8
0
100
AcDbLine
 10
894.1667916586755
 20
287.565105280011
 30
0.0
 11
977.9223771821849
 21
287.5651052800118
 31
0.0
  0
LINE
  5
254F
330
2
100
AcDbEntity
  8
0
100
AcDbLine
 10
892.9665375061539
 20
388.5651052800119
 30
0.0
 11
907.1716010739859
 21
388.5651052800119
 31
0.0
  0
LINE
  5
2550
330
2
100
AcDbEntity
  8
0
100
AcDbLine
 10
924.9175677664
 20
388.5651052800119
 30
0.0
 11
979.1226313347047
 21
388.5651052800114
 31
0.0
  0
LINE
  5
2551
330
2
100
AcDbEntity
  8
0
100
AcDbLine
 10
892.9665375061539
 20
286.5651052800109
 30
0.0
 11
979.1226313347047
 21
286.5651052800114
 31
0.0
  0
LINE
  5
2554
330
2
100
AcDbEntity
  8
0
100
AcDbLine
 10
985.9223433358307
 20
379.5883763037934
 30
0.0
 11
986.044584420431
 21
337.565105280011
 31
0.0
  0
ARC
  5
2555
330
2
100
AcDbEntity
  8
0
100
AcDbCircle
 10
979.1226313347047
 20
380.5651052800091
 30
0.0
 40
7.999999999999998
100
AcDbArc
 50
0.5617053325837566
 51
90.0
  0
LINE
  5
2556
330
2
100
AcDbEntity
  8
0
100
AcDbLine
 10
987.1222468949067
 20
380.6435328835402
 30
0.0
 11
987.5445844204291
 21
337.565105280011
 31
0.0
  0
ARC
  5
2557
330
2
100
AcDbEntity
  8
0
100
AcDbCircle
 10
892.9665375061539
 20
380.5651052800091
 30
0.0
 40
7.999999999999998
100
AcDbArc
 50
90.0
 51
179.4382946674162
  0
LINE
  5
2558
330
2
100
AcDbEntity
  8
0
100
AcDbLine
 10
884.9669219459535
 20
380.6435328835402
 30
0.0
 11
884.5445844204293
 21
337.565105280011
 31
0.0
  0
ARC
  5
2559
330
2
100
AcDbEntity
  8
0
100
AcDbCircle
 10
979.1226313347047
 20
294.5651052800137
 30
0.0
 40
7.999999999999998
100
AcDbArc
 50
270.0
 51
359.4382946674422
  0
ARC
  5
255A
330
2
100
AcDbEntity
  8
0
100
AcDbCircle
 10
894.1667916586755
 20
295.5651052800091
 30
0.0
 40
7.999999999999998
100
AcDbArc
 50
180.1666666660107
 51
270.0
  0
LINE
  5
255B
330
2
100
AcDbEntity
  8
0
100
AcDbLine
 10
987.1222468949085
 20
294.4866776764826
 30
0.0
 11
987.5445844204291
 21
337.5651052800118
 31
0.0
  0
ARC
  5
255C
330
2
100
AcDbEntity
  8
0
100
AcDbCircle
 10
892.9665375061539
 20
294.5651052800137
 30
0.0
 40
7.999999999999998
100
AcDbArc
 50
180.5617053325576
 51
270.0
  0
LINE
  5
255D
330
2
100
AcDbEntity
  8
0
100
AcDbLine
 10
884.9669219459508
 20
294.4866776764826
 30
0.0
 11
884.5445844204293
 21
337.5651052800118
 31
0.0
  0
ARC
  5
255E
330
2
100
AcDbEntity
  8
0
100
AcDbCircle
 10
894.1667916586755
 20
379.5651052800118
 30
0.0
 40
7.999999999999998
100
AcDbArc
 50
90.0
 51
179.8333333339892
  0
LINE
  5
255F
330
2
100
AcDbEntity
  8
0
100
AcDbLine
 10
886.1668255050297
 20
379.5883763037934
 30
0.0
 11
886.0445844204294
 21
337.565105280011
 31
0.0
  0
ARC
  5
2560
330
2
100
AcDbEntity
  8
0
100
AcDbCircle
 10
977.9223771821849
 20
295.5651052800091
 30
0.0
 40
8.0
100
AcDbArc
 50
270.0
 51
359.8333333339892
  0
LINE
  5
2561
330
2
100
AcDbEntity
  8
0
100
AcDbLine
 10
985.9223433358307
 20
295.5418342562276
 30
0.0
 11
986.044584420431
 21
337.56510528001
 31
0.0
  0
LINE
  5
2562
330
2
100
AcDbEntity
  8
0
100
AcDbLine
 10
886.1668255050297
 20
295.5418342562276
 30
0.0
 11
886.0445844204294
 21
337.56510528001
 31
0.0
  0
LINE
  5
2563
330
2
100
AcDbEntity
  8
0
100
AcDbLine
 10
884.5445844204293
 20
337.565105280011
 30
0.0
 11
886.0445844204294
 21
337.56510528001
 31
0.0
  0
LINE
  5
2564
330
2
100
AcDbEntity
  8
0
100
AcDbLine
 10
986.0445844204301
 20
337.5651052795835
 30
0.0
 11
987.5445844204291
 21
337.565105280011
 31
0.0
  0
CIRCLE
  5
2565
330
2
100
AcDbEntity
  8
0
100
AcDbCircle
 10
936.0445844204294
 20
337.565105280011
 30
0.0
 40
45.24999999999969
  0
CIRCLE
  5
2566
330
2
100
AcDbEntity
  8
0
100
AcDbCircle
 10
936.0445844204294
 20
337.565105280011
 30
0.0
 40
46.25000000000483
  0
ARC
  5
2567
330
2
100
AcDbEntity
  8
0
100
AcDbCircle
 10
936.0445844204294
 20
337.565105280011
 30
0.0
 40
51.00000000000182
100
AcDbArc
 50
351.5815174228204
 51
8.418482577153261
  0
ARC
  5
2568
330
2
100
AcDbEntity
  8
0
100
AcDbCircle
 10
936.0445844204294
 20
337.565105280011
 30
0.0
 40
51.00000000000182
100
AcDbArc
 50
78.85230898155635
 51
101.1476910177001
  0
ARC
  5
2569
330
2
100
AcDbEntity
  8
0
100
AcDbCircle
 10
936.044584421408
 20
337.565105280011
 30
0.0
 40
51.00000000000182
100
AcDbArc
 50
171.5815174267051
 51
188.4184825733077
  0
ARC
  5
256A
330
2
100
AcDbEntity
  8
0
100
AcDbCircle
 10
883.615651059479
 20
329.8057917452685
 30
0.0
 40
2.0
100
AcDbArc
 50
0.5617053325707296
 51
8.418482573307713
  0
ARC
  5
256B
330
2
100
AcDbEntity
  8
0
100
AcDbCircle
 10
883.6156510594772
 20
345.3244188147375
 30
0.0
 40
2.0
100
AcDbArc
 50
351.5815174267185
 51
359.4382946674292
  0
ARC
  5
256C
330
2
100
AcDbEntity
  8
0
100
AcDbCircle
 10
936.0445844204294
 20
337.565105280011
 30
0.0
 40
51.00000000000182
100
AcDbArc
 50
258.8523089815563
 51
281.1476910184436
  0
LINE
  5
256D
330
2
100
AcDbEntity
  8
0
100
AcDbLine
 10
986.2990128073283
 20
363.1141225322163
 30
0.0
 11
986.4736138917855
 21
345.3048119173947
 31
0.0
  0
ARC
  5
256E
330
2
100
AcDbEntity
  8
0
100
AcDbCircle
 10
981.2992530822025
 20
363.0651052800096
 30
0.0
 40
5.0
100
AcDbArc
 50
0.5617053325707296
 51
21.0630525673919
  0
LINE
  5
256F
330
2
100
AcDbEntity
  8
0
100
AcDbLine
 10
986.2990128073274
 20
312.0160880280493
 30
0.0
 11
986.473613891782
 21
329.8253986426113
 31
0.0
  0
ARC
  5
2570
330
2
100
AcDbEntity
  8
0
100
AcDbCircle
 10
981.2992530822016
 20
312.0651052802561
 30
0.0
 40
5.0
100
AcDbArc
 50
338.9369474327048
 51
359.4382946674422
  0
ARC
  5
2571
330
2
100
AcDbEntity
  8
0
100
AcDbCircle
 10
890.7899157591462
 20
363.0651052800096
 30
0.0
 40
5.0
100
AcDbArc
 50
158.9369474248177
 51
179.4382946674292
  0
LINE
  5
2572
330
2
100
AcDbEntity
  8
0
100
AcDbLine
 10
885.7901560340204
 20
363.1141225322163
 30
0.0
 11
885.6155549495623
 21
345.3048119173951
 31
0.0
  0
LINE
  5
2573
330
2
100
AcDbEntity
  8
0
100
AcDbLine
 10
885.7901560340213
 20
312.0160880280493
 30
0.0
 11
885.6155549495303
 21
329.8253986461515
 31
0.0
  0
ARC
  5
2574
330
2
100
AcDbEntity
  8
0
100
AcDbCircle
 10
890.789915759147
 20
312.0651052802561
 30
0.0
 40
5.0
100
AcDbArc
 50
180.5617053325707
 51
201.0630525751265
  0
ARC
  5
2575
330
2
100
AcDbEntity
  8
HIDS
  6
SEKKEI_H
100
AcDbCircle
 10
961.6310981049497
 20
382.5651052800118
 30
0.0
 40
5.0
100
AcDbArc
 50
0.9999999999757104
 51
90.0
  0
ARC
  5
2576
330
2
100
AcDbEntity
  8
HIDS
  6
SEKKEI_H
100
AcDbCircle
 10
910.4580707359126
 20
382.5651052800118
 30
0.0
 40
5.0
100
AcDbArc
 50
90.0
 51
179.0000000000242
  0
ARC
  5
2577
330
2
100
AcDbEntity
  8
HIDS
  6
SEKKEI_H
100
AcDbCircle
 10
961.6310981049497
 20
292.5651052800119
 30
0.0
 40
5.0
100
AcDbArc
 50
270.0
 51
359.0000000000112
  0
ARC
  5
2578
330
2
100
AcDbEntity
  8
HIDS
  6
SEKKEI_H
100
AcDbCircle
 10
936.0445844200638
 20
337.5651052800118
 30
0.0
 40
51.00000000000182
100
AcDbArc
 50
39.34056383567003
 51
50.5015011518137
  0
ARC
  5
2579
330
2
100
AcDbEntity
  8
HIDS
  6
SEKKEI_H
100
AcDbCircle
 10
936.0445844200638
 20
337.5651052800118
 30
0.0
 40
51.00000000000182
100
AcDbArc
 50
129.4984988475962
 51
140.6594361640197
  0
ARC
  5
257A
330
2
100
AcDbEntity
  8
HIDS
  6
SEKKEI_H
100
AcDbCircle
 10
936.0445844200638
 20
337.5651052800118
 30
0.0
 40
51.00000000000182
100
AcDbArc
 50
219.3405638357951
 51
230.5015011524037
  0
ARC
  5
257B
330
2
100
AcDbEntity
  8
HIDS
  6
SEKKEI_H
100
AcDbCircle
 10
936.0445844200638
 20
337.5651052800118
 30
0.0
 40
51.00000000000182
100
AcDbArc
 50
309.4984988481863
 51
320.6594361645151
  0
LINE
  5
257C
330
2
100
AcDbEntity
  8
HIDS
  6
SEKKEI_H
100
AcDbLine
 10
921.6190729889429
 20
377.0100621176697
 30
0.0
 11
921.8033119526571
 21
387.5651052800091
 31
0.0
  0
ARC
  5
257D
330
2
100
AcDbEntity
  8
HIDS
  6
SEKKEI_H
100
AcDbCircle
 10
907.5099789465509
 20
385.5651052799937
 30
0.0
 40
2.0
100
AcDbArc
 50
90.0
 51
178.99999999992
  0
LINE
  5
257E
330
2
100
AcDbEntity
  8
HIDS
  6
SEKKEI_H
100
AcDbLine
 10
905.4014695410931
 20
379.3660593394067
 30
0.0
 11
905.5102835562518
 21
385.6000100928683
 31
0.0
  0
ARC
  5
257F
330
2
100
AcDbEntity
  8
HIDS
  6
SEKKEI_H
100
AcDbCircle
 10
971.6869377753154
 20
295.6768891888547
 30
0.0
 40
5.0
100
AcDbArc
 50
130.3941985232535
 51
178.9999999999982
  0
ARC
  5
2580
330
2
100
AcDbEntity
  8
HIDS
  6
SEKKEI_H
100
AcDbCircle
 10
900.4022310653105
 20
379.4533213715919
 30
0.0
 40
5.0
100
AcDbArc
 50
310.3941985225024
 51
358.9999999999982
  0
ARC
  5
2581
330
2
100
AcDbEntity
  8
HIDS
  6
SEKKEI_H
100
AcDbCircle
 10
964.5791898940677
 20
289.5651052800118
 30
0.0
 40
2.0
100
AcDbArc
 50
270.0
 51
358.99999999992
  0
LINE
  5
2582
330
2
100
AcDbEntity
  8
HIDS
  6
SEKKEI_H
100
AcDbLine
 10
966.6876992995328
 20
295.7641512210381
 30
0.0
 11
966.5788852843668
 21
289.5302004671372
 31
0.0
  0
LINE
  5
2583
330
2
100
AcDbEntity
  8
HIDS
  6
SEKKEI_H
100
AcDbLine
 10
907.5099789465509
 20
387.5651052800118
 30
0.0
 11
936.0445844200638
 21
387.5651052800118
 31
0.0
  0
LINE
  5
2584
330
2
100
AcDbEntity
  8
HIDS
  6
SEKKEI_H
100
AcDbLine
 10
936.0445844200638
 20
287.5651052800118
 30
0.0
 11
964.5791898940677
 21
287.5651052800118
 31
0.0
  0
LINE
  5
2585
330
2
100
AcDbEntity
  8
HIDS
  6
SEKKEI_H
100
AcDbLine
 10
910.5756699200794
 20
370.961727776284
 30
0.0
 11
910.2858568877266
 21
387.5651052800091
 31
0.0
  0
LINE
  5
2586
330
2
100
AcDbEntity
  8
HIDS
  6
SEKKEI_H
100
AcDbLine
 10
964.5791898943114
 20
387.5651052800118
 30
0.0
 11
936.0445844207976
 21
387.5651052800118
 31
0.0
  0
LINE
  5
2587
330
2
100
AcDbEntity
  8
HIDS
  6
SEKKEI_H
100
AcDbLine
 10
962.6137953680652
 20
387.5651052800091
 30
0.0
 11
946.2915351860344
 21
387.5651052800091
 31
0.0
  0
ARC
  5
2588
330
2
100
AcDbEntity
  8
HIDS
  6
SEKKEI_H
100
AcDbCircle
 10
971.6638326140007
 20
380.7770151903443
 30
0.0
 40
5.000000000000001
100
AcDbArc
 50
180.9999999999887
 51
230.5015011518137
  0
ARC
  5
2589
330
2
100
AcDbEntity
  8
HIDS
  6
SEKKEI_H
100
AcDbCircle
 10
979.3545139974709
 20
373.065105280011
 30
0.0
 40
5.000000000000001
100
AcDbArc
 50
219.3405638357117
 51
270.0
  0
LINE
  5
258A
330
2
100
AcDbEntity
  8
HIDS
  6
SEKKEI_H
100
AcDbLine
 10
979.3545139974709
 20
368.0651052800105
 30
0.0
 11
981.299253081837
 21
368.0651052800105
 31
0.0
  0
LINE
  5
258B
330
2
100
AcDbEntity
  8
HIDS
  6
SEKKEI_H
100
AcDbLine
 10
966.6645941382183
 20
380.6897531581591
 30
0.0
 11
966.6303365807323
 21
382.6523673121966
 31
0.0
  0
ARC
  5
258C
330
2
100
AcDbEntity
  8
HIDS
  6
SEKKEI_H
100
AcDbCircle
 10
981.299253081837
 20
363.0651052800105
 30
0.0
 40
5.0
100
AcDbArc
 50
21.0630525673919
 51
90.0
  0
LINE
  5
258D
330
2
100
AcDbEntity
  8
HIDS
  6
SEKKEI_H
100
AcDbLine
 10
909.4753734727953
 20
387.5651052800091
 30
0.0
 11
925.797633654826
 21
387.5651052800091
 31
0.0
  0
ARC
  5
258E
330
2
100
AcDbEntity
  8
HIDS
  6
SEKKEI_H
100
AcDbCircle
 10
900.4253362268597
 20
380.7770151903443
 30
0.0
 40
5.000000000000001
100
AcDbArc
 50
309.4984988482047
 51
359.0000000000112
  0
LINE
  5
258F
330
2
100
AcDbEntity
  8
HIDS
  6
SEKKEI_H
100
AcDbLine
 10
905.4245747026422
 20
380.6897531581591
 30
0.0
 11
905.4588322601283
 21
382.6523673121966
 31
0.0
  0
ARC
  5
2590
330
2
100
AcDbEntity
  8
HIDS
  6
SEKKEI_H
100
AcDbCircle
 10
979.3545139974709
 20
302.0651052802565
 30
0.0
 40
5.000000000000001
100
AcDbArc
 50
90.0
 51
140.6594361642882
  0
LINE
  5
2591
330
2
100
AcDbEntity
  8
HIDS
  6
SEKKEI_H
100
AcDbLine
 10
979.3545139974709
 20
307.0651052802565
 30
0.0
 11
981.2992530818361
 21
307.065105280257
 31
0.0
  0
ARC
  5
2592
330
2
100
AcDbEntity
  8
HIDS
  6
SEKKEI_H
100
AcDbCircle
 10
981.2992530818361
 20
312.0651052802569
 30
0.0
 40
5.0
100
AcDbArc
 50
270.0
 51
338.9369474327048
  0
ARC
  5
2593
330
2
100
AcDbEntity
  8
HIDS
  6
SEKKEI_H
100
AcDbCircle
 10
892.7346548431458
 20
373.065105280011
 30
0.0
 40
5.000000000000001
100
AcDbArc
 50
270.0
 51
320.6594361642883
  0
LINE
  5
2594
330
2
100
AcDbEntity
  8
HIDS
  6
SEKKEI_H
100
AcDbLine
 10
892.7346548431458
 20
368.0651052800105
 30
0.0
 11
890.7899157587806
 21
368.0651052800105
 31
0.0
  0
ARC
  5
2595
330
2
100
AcDbEntity
  8
HIDS
  6
SEKKEI_H
100
AcDbCircle
 10
890.7899157587806
 20
363.0651052800105
 30
0.0
 40
5.0
100
AcDbArc
 50
90.0
 51
158.9369474248177
  0
ARC
  5
2596
330
2
100
AcDbEntity
  8
HIDS
  6
SEKKEI_H
100
AcDbCircle
 10
892.7346548431458
 20
302.0651052802565
 30
0.0
 40
5.000000000000001
100
AcDbArc
 50
39.34056383571173
 51
90.0
  0
LINE
  5
2597
330
2
100
AcDbEntity
  8
HIDS
  6
SEKKEI_H
100
AcDbLine
 10
892.7346548431458
 20
307.0651052802565
 30
0.0
 11
890.7899157587815
 21
307.065105280257
 31
0.0
  0
ARC
  5
2598
330
2
100
AcDbEntity
  8
HIDS
  6
SEKKEI_H
100
AcDbCircle
 10
890.7899157587815
 20
312.0651052802569
 30
0.0
 40
5.0
100
AcDbArc
 50
201.0630525751265
 51
270.0
  0
LINE
  5
2599
330
2
100
AcDbEntity
  8
HIDS
  6
SEKKEI_H
100
AcDbLine
 10
962.6137953680652
 20
287.5651052799959
 30
0.0
 11
946.2915351860344
 21
287.5651052799959
 31
0.0
  0
ARC
  5
259A
330
2
100
AcDbEntity
  8
HIDS
  6
SEKKEI_H
100
AcDbCircle
 10
971.6638326140007
 20
294.3531953696608
 30
0.0
 40
5.000000000000001
100
AcDbArc
 50
129.4984988481862
 51
179.0000000000242
  0
LINE
  5
259B
330
2
100
AcDbEntity
  8
HIDS
  6
SEKKEI_H
100
AcDbLine
 10
966.6645941382183
 20
294.4404574018459
 30
0.0
 11
966.6303365807314
 21
292.4778432478271
 31
0.0
  0
LINE
  5
259C
330
2
100
AcDbEntity
  8
HIDS
  6
SEKKEI_H
100
AcDbLine
 10
909.4753734727962
 20
287.5651052799959
 30
0.0
 11
925.797633654826
 21
287.5651052799959
 31
0.0
  0
ARC
  5
259D
330
2
100
AcDbEntity
  8
HIDS
  6
SEKKEI_H
100
AcDbCircle
 10
900.4253362268597
 20
294.3531953696608
 30
0.0
 40
5.000000000000001
100
AcDbArc
 50
0.9999999999757104
 51
50.50150115179535
  0
LINE
  5
259E
330
2
100
AcDbEntity
  8
HIDS
  6
SEKKEI_H
100
AcDbLine
 10
905.4245747026422
 20
294.4404574018459
 30
0.0
 11
905.4588322601301
 21
292.4778432478248
 31
0.0
  0
ARC
  5
259F
330
2
100
AcDbEntity
  8
HIDS
  6
SEKKEI_H
100
AcDbCircle
 10
910.4580707359126
 20
292.5651052800109
 30
0.0
 40
5.0
100
AcDbArc
 50
181.0000000000017
 51
270.0
  0
ARC
  5
25A0
330
2
100
AcDbEntity
  8
0
100
AcDbCircle
 10
988.473517781103
 20
345.3244188182781
 30
0.0
 40
2.0
100
AcDbArc
 50
180.5617053325707
 51
188.4184825771532
  0
ARC
  5
25A1
330
2
100
AcDbEntity
  8
0
100
AcDbCircle
 10
988.4735177811013
 20
329.8057917417297
 30
0.0
 40
2.0
100
AcDbArc
 50
171.5815174228204
 51
179.4382946674292
  0
ARC
  5
25A2
330
2
100
AcDbEntity
  8
0
100
AcDbCircle
 10
946.2915351860209
 20
285.5651052801937
 30
0.0
 40
2.0
100
AcDbArc
 50
90.0
 51
101.1476910184436
  0
ARC
  5
25A3
330
2
100
AcDbEntity
  8
0
100
AcDbCircle
 10
925.7976336541075
 20
285.5651052801937
 30
0.0
 40
2.0
100
AcDbArc
 50
78.85230898155635
 51
90.0
  0
ARC
  5
25A4
330
2
100
AcDbEntity
  8
0
100
AcDbCircle
 10
946.2915351860344
 20
389.5651052801919
 30
0.0
 40
2.0
100
AcDbArc
 50
258.8523089815033
 51
270.0
  0
ARC
  5
25A5
330
2
100
AcDbEntity
  8
0
100
AcDbCircle
 10
925.797633654826
 20
389.5651052801919
 30
0.0
 40
2.0
100
AcDbArc
 50
270.0
 51
281.1476910184966
  0
LINE
  5
25A6
330
2
100
AcDbEntity
  8
0
100
AcDbLine
 10
663.2709775952443
 20
378.3151052800086
 30
0.0
 11
693.7376777851036
 21
378.3151052800108
 31
0.0
  0
LINE
  5
25A8
330
2
100
AcDbEntity
  8
0
100
AcDbLine
 10
713.0209583471764
 20
391.5651052800104
 30
0.0
 11
703.0209583471765
 21
391.5651052800104
 31
0.0
  0
ARC
  5
25A9
330
2
100
AcDbEntity
  8
0
100
AcDbCircle
 10
703.0209583471765
 20
387.5651052800104
 30
0.0
 40
4.0
100
AcDbArc
 50
90.0
 51
180.0
  0
ARC
  5
25AA
330
2
100
AcDbEntity
  8
0
100
AcDbCircle
 10
713.0209583471764
 20
387.5651052800104
 30
0.0
 40
4.0
100
AcDbArc
 50
0.0
 51
90.0
  0
LINE
  5
25AB
330
2
100
AcDbEntity
  8
0
100
AcDbLine
 10
911.044584420193
 20
391.5651052800109
 30
0.0
 11
921.0445844201929
 21
391.5651052800109
 31
0.0
  0
ARC
  5
25AC
330
2
100
AcDbEntity
  8
0
100
AcDbCircle
 10
921.0445844201929
 20
387.565105280011
 30
0.0
 40
4.0
100
AcDbArc
 50
0.0
 51
90.0
  0
ARC
  5
25AD
330
2
100
AcDbEntity
  8
0
100
AcDbCircle
 10
911.044584420193
 20
387.565105280011
 30
0.0
 40
4.0
100
AcDbArc
 50
90.0
 51
180.0
  0
LINE
  5
25AE
330
2
100
AcDbEntity
  8
0
100
AcDbLine
 10
696.5209583471764
 20
360.8594488723964
 30
0.0
 11
696.5209583471764
 21
337.5651052800108
 31
0.0
  0
LINE
  5
25AF
330
2
100
AcDbEntity
  8
0
100
AcDbLine
 10
718.5209583471767
 20
337.5651052800108
 30
0.0
 11
718.520958347176
 21
364.5651052800131
 31
0.0
  0
LINE
  5
25B0
330
2
100
AcDbEntity
  8
0
100
AcDbLine
 10
716.5209583471766
 20
337.5651052800108
 30
0.0
 11
716.5209583471762
 21
349.5651052800131
 31
0.0
  0
LINE
  5
25B1
330
2
100
AcDbEntity
  8
0
100
AcDbLine
 10
698.5209583471764
 20
361.5882290864013
 30
0.0
 11
698.5209583471767
 21
337.5651052800108
 31
0.0
  0
LINE
  5
25B2
330
2
100
AcDbEntity
  8
0
100
AcDbLine
 10
655.0209583471769
 20
337.5651052800104
 30
0.0
 11
655.0209583471767
 21
350.0651052800118
 31
0.0
  0
LINE
  5
25B3
330
2
100
AcDbEntity
  8
0
 48
0.3
100
AcDbLine
 10
675.0209583471692
 20
350.0651052800118
 30
0.0
 11
655.0209583471687
 21
350.0651052800118
 31
0.0
  0
LINE
  5
25B4
330
2
100
AcDbEntity
  8
0
 48
0.3
100
AcDbLine
 10
675.0209583471692
 20
349.5651052800122
 30
0.0
 11
696.5209583471684
 21
349.5651052800122
 31
0.0
  0
LINE
  5
25B5
330
2
100
AcDbEntity
  8
0
100
AcDbLine
 10
675.0209583471773
 20
337.5651052800104
 30
0.0
 11
675.0209583471769
 21
350.0651052800118
 31
0.0
  0
LINE
  5
25B6
330
2
100
AcDbEntity
  8
0
100
AcDbLine
 10
702.8661709598172
 20
364.5651052800131
 30
0.0
 11
718.520958347176
 21
364.5651052800131
 31
0.0
  0
LINE
  5
25B7
330
2
100
AcDbEntity
  8
0
 48
0.3
100
AcDbLine
 10
698.5209583471685
 20
349.5651052800127
 30
0.0
 11
716.5209583471685
 21
349.5651052800131
 31
0.0
  0
LINE
  5
25B8
330
2
100
AcDbEntity
  8
0
 48
0.3
100
AcDbLine
 10
648.3814302514875
 20
337.5651052800108
 30
0.0
 11
655.0209583471687
 21
349.0651052800117
 31
0.0
  0
LINE
  5
25B9
330
2
100
AcDbEntity
  8
0
100
AcDbLine
 10
716.5209583471687
 20
349.565105280009
 30
0.0
 11
718.520958347169
 21
350.7198058183881
 31
0.0
  0
LINE
  5
25BA
330
2
100
AcDbEntity
  8
0
100
AcDbLine
 10
718.5209583471796
 20
382.8151052800113
 30
0.0
 11
719.5209583471816
 21
383.8151052800144
 31
0.0
  0
ARC
  5
25BB
330
2
100
AcDbEntity
  8
0
100
AcDbCircle
 10
717.5209583471824
 20
382.2749540563118
 30
0.0
 40
1.0
100
AcDbArc
 50
274.9999999999997
 51
0.0
  0
LINE
  5
25BC
330
2
100
AcDbEntity
  8
0
100
AcDbLine
 10
719.5209583471778
 20
385.0651052800108
 30
0.0
 11
719.5209583471778
 21
337.5651052800108
 31
0.0
  0
LINE
  5
25BD
330
2
100
AcDbEntity
  8
0
100
AcDbLine
 10
718.5209583471796
 20
382.8151052800113
 30
0.0
 11
718.5209583471796
 21
364.5651052800131
 31
0.0
  0
LINE
  5
25BE
330
2
100
AcDbEntity
  8
0
100
AcDbLine
 10
713.6227865352934
 20
380.9300883767514
 30
0.0
 11
717.60811408993
 21
381.2787593582198
 31
0.0
  0
LINE
  5
25BF
330
2
100
AcDbEntity
  8
CENTER
100
AcDbLine
 10
916.0445844204442
 20
314.6905191918382
 30
0.0
 11
916.0445844201928
 21
396.5651052799937
 31
0.0
  0
LINE
  5
25C0
330
2
100
AcDbEntity
  8
HIDS
  6
SEKKEI_H
100
AcDbLine
 10
910.9647120124696
 20
347.5651052800259
 30
0.0
 11
923.7945844204372
 21
347.5651052800255
 31
0.0
  0
LINE
  5
25C1
330
2
100
AcDbEntity
  8
HIDS
  6
SEKKEI_H
100
AcDbLine
 10
923.7945844204373
 20
347.5651052800255
 30
0.0
 11
923.7945844204372
 21
361.6262253703259
 31
0.0
  0
LINE
  5
25C2
330
2
100
AcDbEntity
  8
HIDS
  6
SEKKEI_H
100
AcDbLine
 10
920.5445844204371
 20
338.3151052800227
 30
0.0
 11
920.5445844204371
 21
347.5651052800255
 31
0.0
  0
LINE
  5
25C3
330
2
100
AcDbEntity
  8
HIDS
  6
SEKKEI_H
100
AcDbLine
 10
911.5445844204373
 20
338.3151052800227
 30
0.0
 11
911.5445844204373
 21
347.5651052800259
 31
0.0
  0
LINE
  5
25C4
330
2
100
AcDbEntity
  8
HIDS
  6
SEKKEI_H
100
AcDbLine
 10
912.644584420437
 20
324.0951386876365
 30
0.0
 11
912.6445844204372
 21
336.8151052800228
 31
0.0
  0
LINE
  5
25C5
330
2
100
AcDbEntity
  8
HIDS
  6
SEKKEI_H
100
AcDbLine
 10
912.044584420437
 20
324.5651052800255
 30
0.0
 11
912.044584420437
 21
336.8151052800232
 31
0.0
  0
LINE
  5
25C6
330
2
100
AcDbEntity
  8
HIDS
  6
SEKKEI_H
100
AcDbLine
 10
920.0445844204375
 20
315.8165421090909
 30
0.0
 11
920.0445844204374
 21
336.8151052800232
 31
0.0
  0
LINE
  5
25C7
330
2
100
AcDbEntity
  8
HIDS
  6
SEKKEI_H
100
AcDbLine
 10
919.4445844204372
 20
316.2709746332927
 30
0.0
 11
919.4445844204372
 21
336.8151052800232
 31
0.0
  0
LINE
  5
25C8
330
2
100
AcDbEntity
  8
HIDS
  6
SEKKEI_H
100
AcDbLine
 10
922.5445844204442
 20
357.0651052800259
 30
0.0
 11
917.3697350234574
 21
357.0651052800255
 31
0.0
  0
LINE
  5
25C9
330
2
100
AcDbEntity
  8
HIDS
  6
SEKKEI_H
100
AcDbLine
 10
921.6785590166582
 20
357.5651052800259
 30
0.0
 11
917.9062272732236
 21
357.5651052800259
 31
0.0
  0
LINE
  5
25CA
330
2
100
AcDbEntity
  8
HIDS
  6
SEKKEI_H
100
AcDbLine
 10
923.2945844204442
 20
349.5651052800259
 30
0.0
 11
911.857811175543
 21
349.5651052800255
 31
0.0
  0
LINE
  5
25CB
330
2
100
AcDbEntity
  8
HIDS
  6
SEKKEI_H
100
AcDbLine
 10
918.8445844204512
 20
324.5651052800259
 30
0.0
 11
913.244584420437
 21
324.5651052800255
 31
0.0
  0
LINE
  5
25CC
330
2
100
AcDbEntity
  8
HIDS
  6
SEKKEI_H
100
AcDbLine
 10
920.0445844204375
 20
325.7651052800258
 30
0.0
 11
912.044584420437
 21
325.7651052800258
 31
0.0
  0
LINE
  5
25CD
330
2
100
AcDbEntity
  8
0
 48
0.3
100
AcDbLine
 10
908.794584420444
 20
349.5651052800255
 30
0.0
 11
908.794584420444
 21
347.5651052800255
 31
0.0
  0
LINE
  5
25CE
330
2
100
AcDbEntity
  8
0
 48
0.3
100
AcDbLine
 10
909.5445844204441
 20
357.0651052800255
 30
0.0
 11
910.4106098242287
 21
357.5651052800255
 31
0.0
  0
LINE
  5
25CF
330
2
100
AcDbEntity
  8
0
 48
0.3
100
AcDbLine
 10
909.5445844204441
 20
357.0651052800255
 30
0.0
 11
909.5445844204441
 21
349.5651052800255
 31
0.0
  0
LINE
  5
25D0
330
2
100
AcDbEntity
  8
HIDS
  6
SEKKEI_H
100
AcDbLine
 10
923.2945844204442
 20
349.5651052800259
 30
0.0
 11
923.2945844204442
 21
347.5651052800259
 31
0.0
  0
LINE
  5
25D1
330
2
100
AcDbEntity
  8
HIDS
  6
SEKKEI_H
100
AcDbLine
 10
922.5445844204436
 20
357.0651052800251
 30
0.0
 11
921.6785590166594
 21
357.565105280025
 31
0.0
  0
LINE
  5
25D2
330
2
100
AcDbEntity
  8
HIDS
  6
SEKKEI_H
100
AcDbLine
 10
922.5445844204442
 20
357.0651052800251
 30
0.0
 11
922.5445844204442
 21
349.5651052800259
 31
0.0
  0
LINE
  5
25D3
330
2
100
AcDbEntity
  8
HIDS
  6
SEKKEI_H
100
AcDbLine
 10
923.7445844204442
 20
347.5651052800259
 30
0.0
 11
910.9647120124696
 21
347.5651052800255
 31
0.0
  0
LINE
  5
25D4
330
2
100
AcDbEntity
  8
HIDS
  6
SEKKEI_H
100
AcDbLine
 10
920.0445844204374
 20
338.3151052800227
 30
0.0
 11
920.0445844204374
 21
347.5651052800255
 31
0.0
  0
LINE
  5
25D5
330
2
100
AcDbEntity
  8
HIDS
  6
SEKKEI_H
100
AcDbLine
 10
919.4445844204372
 20
338.3151052800227
 30
0.0
 11
919.4445844204372
 21
347.5651052800255
 31
0.0
  0
LINE
  5
25D6
330
2
100
AcDbEntity
  8
HIDS
  6
SEKKEI_H
100
AcDbLine
 10
912.6445844204372
 20
338.3151052800227
 30
0.0
 11
912.6445844204372
 21
347.5651052800259
 31
0.0
  0
LINE
  5
25D7
330
2
100
AcDbEntity
  8
HIDS
  6
SEKKEI_H
100
AcDbLine
 10
912.044584420437
 20
338.3151052800227
 30
0.0
 11
912.044584420437
 21
347.5651052800259
 31
0.0
  0
LINE
  5
25D8
330
2
100
AcDbEntity
  8
0
100
AcDbLine
 10
917.9062272732236
 20
357.5651052800259
 30
0.0
 11
910.4106098242287
 21
357.5651052800255
 31
0.0
  0
LINE
  5
25D9
330
2
100
AcDbEntity
  8
0
100
AcDbLine
 10
917.3697350234574
 20
357.0651052800255
 30
0.0
 11
909.5445844204441
 21
357.0651052800255
 31
0.0
  0
LINE
  5
25DA
330
2
100
AcDbEntity
  8
0
100
AcDbLine
 10
911.857811175543
 20
349.5651052800255
 30
0.0
 11
908.794584420444
 21
349.5651052800255
 31
0.0
  0
LINE
  5
25DB
330
2
100
AcDbEntity
  8
0
100
AcDbLine
 10
910.9647120124696
 20
347.5651052800255
 30
0.0
 11
908.794584420444
 21
347.5651052800255
 31
0.0
  0
LINE
  5
25DC
330
2
100
AcDbEntity
  8
HIDS
  6
SEKKEI_H
100
AcDbLine
 10
912.044584420437
 20
325.7651052800258
 30
0.0
 11
913.244584420437
 21
324.5651052800255
 31
0.0
  0
LINE
  5
25DD
330
2
100
AcDbEntity
  8
HIDS
  6
SEKKEI_H
100
AcDbLine
 10
920.0445844204512
 20
325.7651052800258
 30
0.0
 11
918.8445844204512
 21
324.5651052800255
 31
0.0
  0
CIRCLE
  5
25DF
330
2
100
AcDbEntity
  8
0
100
AcDbCircle
 10
936.0445844204294
 20
337.565105280011
 30
0.0
 40
26.99999999999249
  0
LINE
  5
25E0
330
2
100
AcDbEntity
  8
0
100
AcDbLine
 10
655.7709775952403
 20
289.3886984086944
 30
0.0
 11
657.2709775952407
 21
289.3886984086944
 31
0.0
  0
LINE
  5
25E1
330
2
100
AcDbEntity
  8
0
100
AcDbLine
 10
655.7709775952403
 20
300.8886984086944
 30
0.0
 11
657.270977595241
 21
300.8886984086944
 31
0.0
  0
LINE
  5
25E2
330
2
100
AcDbEntity
  8
0
100
AcDbLine
 10
662.8709775952406
 20
290.1386984086944
 30
0.0
 11
663.2709775952402
 21
290.8315187317217
 31
0.0
  0
LINE
  5
25E3
330
2
100
AcDbEntity
  8
0
100
AcDbLine
 10
657.2709775952407
 20
289.3886984086944
 30
0.0
 11
657.270977595241
 21
300.8886984086944
 31
0.0
  0
LINE
  5
25E4
330
2
100
AcDbEntity
  8
0
100
AcDbLine
 10
662.8709775952406
 20
290.1386984086944
 30
0.0
 11
662.8709775952406
 21
300.1386984086944
 31
0.0
  0
LINE
  5
25E5
330
2
100
AcDbEntity
  8
0
100
AcDbLine
 10
657.2709775952407
 20
290.1386984086944
 30
0.0
 11
662.8709775952406
 21
290.1386984086944
 31
0.0
  0
LINE
  5
25E6
330
2
100
AcDbEntity
  8
0
100
AcDbLine
 10
657.270977595241
 20
300.1386984086944
 30
0.0
 11
662.8709775952406
 21
300.1386984086944
 31
0.0
  0
LINE
  5
25E7
330
2
100
AcDbEntity
  8
0
100
AcDbLine
 10
662.8709775952406
 20
300.1386984086944
 30
0.0
 11
663.2709775952402
 21
299.4458780856671
 31
0.0
  0
LINE
  5
25E8
330
2
100
AcDbEntity
  8
0
100
AcDbLine
 10
663.2709775952402
 20
290.8315187317217
 30
0.0
 11
663.2709775952402
 21
299.4458780856671
 31
0.0
  0
LINE
  5
25E9
330
2
100
AcDbEntity
  8
0
 48
12.0
100
AcDbLine
 10
655.7709775952403
 20
300.8886984086944
 30
0.0
 11
655.7709775952403
 21
289.3886984086944
 31
0.0
  0
LINE
  5
25EA
330
2
100
AcDbEntity
  8
0
100
AcDbLine
 10
655.7709775952444
 20
374.2415121510826
 30
0.0
 11
657.2709775952448
 21
374.2415121510826
 31
0.0
  0
LINE
  5
25EB
330
2
100
AcDbEntity
  8
0
100
AcDbLine
 10
655.7709775952444
 20
385.7415121510826
 30
0.0
 11
657.2709775952453
 21
385.7415121510826
 31
0.0
  0
LINE
  5
25EC
330
2
100
AcDbEntity
  8
0
100
AcDbLine
 10
662.8709775952447
 20
374.9915121510826
 30
0.0
 11
663.2709775952443
 21
375.6843324741099
 31
0.0
  0
LINE
  5
25ED
330
2
100
AcDbEntity
  8
0
100
AcDbLine
 10
657.2709775952451
 20
374.2415121510826
 30
0.0
 11
657.2709775952453
 21
385.7415121510826
 31
0.0
  0
LINE
  5
25EE
330
2
100
AcDbEntity
  8
0
100
AcDbLine
 10
662.8709775952447
 20
374.9915121510826
 30
0.0
 11
662.8709775952447
 21
384.9915121510826
 31
0.0
  0
LINE
  5
25EF
330
2
100
AcDbEntity
  8
0
100
AcDbLine
 10
657.2709775952448
 20
374.9915121510826
 30
0.0
 11
662.8709775952447
 21
374.9915121510826
 31
0.0
  0
LINE
  5
25F0
330
2
100
AcDbEntity
  8
0
100
AcDbLine
 10
657.2709775952453
 20
384.9915121510826
 30
0.0
 11
662.8709775952447
 21
384.9915121510826
 31
0.0
  0
LINE
  5
25F1
330
2
100
AcDbEntity
  8
0
100
AcDbLine
 10
662.8709775952447
 20
384.9915121510826
 30
0.0
 11
663.2709775952443
 21
384.2986918280553
 31
0.0
  0
LINE
  5
25F2
330
2
100
AcDbEntity
  8
0
100
AcDbLine
 10
663.2709775952443
 20
375.6843324741099
 30
0.0
 11
663.2709775952443
 21
384.2986918280553
 31
0.0
  0
LINE
  5
25F3
330
2
100
AcDbEntity
  8
0
 48
12.0
100
AcDbLine
 10
655.7709775952444
 20
385.7415121510826
 30
0.0
 11
655.7709775952444
 21
374.2415121510826
 31
0.0
  0
CIRCLE
  5
25F4
330
2
100
AcDbEntity
  8
0
100
AcDbCircle
 10
936.0445844204294
 20
337.565105280011
 30
0.0
 40
40.49999999999999
  0
CIRCLE
  5
25F5
330
2
100
AcDbEntity
  8
0
100
AcDbCircle
 10
936.0445844204294
 20
337.565105280011
 30
0.0
 40
47.5
  0
LINE
  5
25F6
330
2
100
AcDbEntity
  8
CENTER
100
AcDbLine
 10
976.7032243387799
 20
385.4438655515443
 30
0.0
 11
976.7032243387799
 21
371.0036248449311
 31
0.0
  0
LINE
  5
25F7
330
2
100
AcDbEntity
  8
CENTER
100
AcDbLine
 10
969.4831039854735
 20
378.2237451982379
 30
0.0
 11
983.9233446920866
 21
378.2237451982379
 31
0.0
  0
LINE
  5
25F8
330
2
100
AcDbEntity
  8
CENTER
100
AcDbLine
 10
976.7032243387799
 20
304.1265857150912
 30
0.0
 11
976.7032243387799
 21
289.6863450084781
 31
0.0
  0
LINE
  5
25F9
330
2
100
AcDbEntity
  8
CENTER
100
AcDbLine
 10
969.4831039854735
 20
296.9064653617849
 30
0.0
 11
983.9233446920866
 21
296.9064653617849
 31
0.0
  0
LINE
  5
25FA
330
2
100
AcDbEntity
  8
CENTER
100
AcDbLine
 10
895.385944502328
 20
304.1265857150912
 30
0.0
 11
895.385944502328
 21
289.6863450084781
 31
0.0
  0
LINE
  5
25FB
330
2
100
AcDbEntity
  8
CENTER
100
AcDbLine
 10
888.1658241490212
 20
296.9064653617849
 30
0.0
 11
902.6060648556345
 21
296.9064653617849
 31
0.0
  0
LINE
  5
25FC
330
2
100
AcDbEntity
  8
CENTER
100
AcDbLine
 10
895.385944502328
 20
385.4438655515452
 30
0.0
 11
895.385944502328
 21
371.003624844932
 31
0.0
  0
LINE
  5
25FD
330
2
100
AcDbEntity
  8
CENTER
100
AcDbLine
 10
888.1658241490212
 20
378.2237451982388
 30
0.0
 11
902.6060648556345
 21
378.2237451982388
 31
0.0
  0
CIRCLE
  5
25FE
330
2
100
AcDbEntity
  8
CENTER
100
AcDbCircle
 10
936.0445844200638
 20
337.5651052800118
 30
0.0
 40
57.50000000034606
  0
CIRCLE
  5
25FF
330
2
100
AcDbEntity
  8
HOJO
100
AcDbCircle
 10
895.3859445009809
 20
296.9064653617849
 30
0.0
 40
4.0
  0
CIRCLE
  5
2600
330
2
100
AcDbEntity
  8
0
100
AcDbCircle
 10
895.3859445009809
 20
296.9064653617849
 30
0.0
 40
3.399999999999999
  0
CIRCLE
  5
2601
330
2
100
AcDbEntity
  8
HOJO
100
AcDbCircle
 10
895.3859445009809
 20
378.2237451992183
 30
0.0
 40
4.0
  0
CIRCLE
  5
2602
330
2
100
AcDbEntity
  8
0
100
AcDbCircle
 10
895.3859445009809
 20
378.2237451992183
 30
0.0
 40
3.399999999999999
  0
CIRCLE
  5
2603
330
2
100
AcDbEntity
  8
HOJO
100
AcDbCircle
 10
976.7032243374329
 20
378.2237451982379
 30
0.0
 40
4.0
  0
CIRCLE
  5
2604
330
2
100
AcDbEntity
  8
0
100
AcDbCircle
 10
976.7032243374329
 20
378.2237451982379
 30
0.0
 40
3.399999999999999
  0
CIRCLE
  5
2605
330
2
100
AcDbEntity
  8
HOJO
100
AcDbCircle
 10
976.7032243374329
 20
296.9064653617858
 30
0.0
 40
4.0
  0
CIRCLE
  5
2606
330
2
100
AcDbEntity
  8
0
100
AcDbCircle
 10
976.7032243374329
 20
296.9064653617858
 30
0.0
 40
3.399999999999999
  0
LINE
  5
2607
330
2
100
AcDbEntity
  8
0
100
AcDbLine
 10
909.0550030972675
 20
336.8151052800228
 30
0.0
 11
924.0680448534337
 21
336.8151052800228
 31
0.0
  0
LINE
  5
2608
330
2
100
AcDbEntity
  8
0
100
AcDbLine
 10
948.0211239874407
 20
336.8151052800228
 30
0.0
 11
962.0533044664851
 21
336.8151052800228
 31
0.0
  0
LINE
  5
2609
330
2
100
AcDbEntity
  8
0
100
AcDbLine
 10
909.0550030972675
 20
338.3151052800227
 30
0.0
 11
924.0680448534337
 21
338.3151052800227
 31
0.0
  0
LINE
  5
260A
330
2
100
AcDbEntity
  8
0
100
AcDbLine
 10
948.0211239874407
 20
338.3151052800232
 30
0.0
 11
962.0533044664851
 21
338.3151052800227
 31
0.0
  0
LINE
  5
260B
330
2
100
AcDbEntity
  8
0
100
AcDbLine
 10
962.0533044664851
 20
338.3151052800227
 30
0.0
 11
962.0533044664851
 21
336.8151052800228
 31
0.0
  0
LINE
  5
260C
330
2
100
AcDbEntity
  8
HOJO
100
AcDbLine
 10
912.6445844204372
 20
336.8151052800228
 30
0.0
 11
912.6445844204372
 21
338.3151052800227
 31
0.0
  0
LINE
  5
260D
330
2
100
AcDbEntity
  8
0
100
AcDbLine
 10
912.044584420437
 20
336.8151052800232
 30
0.0
 11
912.044584420437
 21
338.3151052800227
 31
0.0
  0
LINE
  5
260E
330
2
100
AcDbEntity
  8
HOJO
100
AcDbLine
 10
919.4445844204372
 20
336.8151052800232
 30
0.0
 11
919.4445844204372
 21
338.3151052800227
 31
0.0
  0
LINE
  5
260F
330
2
100
AcDbEntity
  8
0
100
AcDbLine
 10
920.0445844204374
 20
336.8151052800232
 30
0.0
 11
920.0445844204374
 21
338.3151052800227
 31
0.0
  0
ARC
  5
2610
330
2
100
AcDbEntity
  8
0
100
AcDbCircle
 10
936.0445844204294
 20
337.565105280011
 30
0.0
 40
13.15470053837729
100
AcDbArc
 50
183.2684247869237
 51
356.7315752130762
  0
ARC
  5
2611
330
2
100
AcDbEntity
  8
0
100
AcDbCircle
 10
936.0445844204294
 20
337.565105280011
 30
0.0
 40
13.15470053837729
100
AcDbArc
 50
3.268424787028164
 51
176.7315752129718
  0
CIRCLE
  5
2612
330
2
100
AcDbEntity
  8
0
100
AcDbCircle
 10
936.0445844204294
 20
337.565105280011
 30
0.0
 40
12.00000000001165
  0
CIRCLE
  5
2613
330
2
100
AcDbEntity
  8
HIDS
  6
SEKKEI_H
100
AcDbCircle
 10
936.0445844204294
 20
337.565105280011
 30
0.0
 40
50.0
  0
LINE
  5
2614
330
2
100
AcDbEntity
  8
0
100
AcDbLine
 10
692.1667096582421
 20
287.5651052800108
 30
0.0
 11
726.5209583471767
 21
287.5651052800108
 31
0.0
  0
LINE
  5
2615
330
2
100
AcDbEntity
  8
0
100
AcDbLine
 10
726.5209583471767
 20
387.565105280011
 30
0.0
 11
726.5209583471767
 21
287.5651052800108
 31
0.0
  0
LINE
  5
2616
330
2
100
AcDbEntity
  8
0
100
AcDbLine
 10
692.1667096582421
 20
387.5651052800104
 30
0.0
 11
726.5209583471767
 21
387.5651052800106
 31
0.0
  0
LINE
  5
2617
330
2
100
AcDbEntity
  8
0
100
AcDbLine
 10
719.5209583471778
 20
385.0651052800108
 30
0.0
 11
726.5209583471767
 21
385.0651052800108
 31
0.0
  0
LINE
  5
2618
330
2
100
AcDbEntity
  8
CENTER
  6
CENTERX2
100
AcDbLine
 10
652.7709775952446
 20
379.9915121510831
 30
0.0
 11
666.2709775952455
 21
379.9915121510826
 31
0.0
  0
LINE
  5
2619
330
2
100
AcDbEntity
  8
CENTER
  6
CENTERX2
100
AcDbLine
 10
652.7709775952405
 20
295.1386984086949
 30
0.0
 11
666.2709775952414
 21
295.1386984086944
 31
0.0
  0
CIRCLE
  5
261A
330
2
100
AcDbEntity
  8
0
100
AcDbCircle
 10
936.0445844204296
 20
337.565105280011
 30
0.0
 40
41.99999999981815
  0
CIRCLE
  5
261B
330
2
100
AcDbEntity
  8
0
100
AcDbCircle
 10
936.0445844204296
 20
337.565105280011
 30
0.0
 40
43.79351760210176
  0
LINE
  5
261D
330
2
100
AcDbEntity
  8
0
100
AcDbLine
 10
907.2343903282225
 20
388.7826523967643
 30
0.0
 11
892.9661568168942
 21
388.6427677544966
 31
0.0
  0
LINE
  5
272D
330
2
100
AcDbEntity
  8
CENTER
100
AcDbLine
 10
481.0209363471742
 20
337.5651052800127
 30
0.0
 11
736.5209583471775
 21
337.5651052800141
 31
0.0
  0
LINE
  5
272E
330
2
100
AcDbEntity
  8
CENTER
100
AcDbLine
 10
546.0209363471742
 20
402.5651052800127
 30
0.0
 11
546.0209363471742
 21
272.5651052800127
 31
0.0
  0
SPLINE
  5
285B
330
2
100
AcDbEntity
  8
HOJO
100
AcDbSpline
210
0.0
220
0.0
230
1.0
 70
     8
 71
     3
 72
    20
 73
    16
 74
    14
 42
0.0000000001
 43
0.0000000001
 44
0.0000000001
 40
0.0
 40
0.0
 40
0.0
 40
0.0
 40
12.6066694627875
 40
20.80402746654557
 40
27.73290508408854
 40
37.72858026477208
 40
44.97513852936973
 40
53.04026335165851
 40
61.84059302900199
 40
65.13755329100691
 40
69.956578519009
 40
78.95308702679125
 40
84.4258044041519
 40
89.51088686183004
 40
100.4770852021475
 40
100.4770852021475
 40
100.4770852021475
 40
100.4770852021475
 10
643.074855323016
 20
337.5651052800109
 30
0.0
 10
644.1922460749327
 20
341.6731320937781
 30
0.0
 10
646.0362087458316
 20
348.452361367552
 30
0.0
 10
652.6192680701184
 20
355.5163822291743
 30
0.0
 10
660.6704245193793
 20
358.3633354973922
 30
0.0
 10
668.7385584037183
 20
359.0813222267176
 30
0.0
 10
677.1923024710511
 20
358.6940148568587
 30
0.0
 10
685.1435591535775
 20
359.8001759155578
 30
0.0
 10
692.0486897717641
 20
359.1864162875949
 30
0.0
 10
697.3219276576246
 20
361.1743919201221
 30
0.0
 10
702.9681206017264
 20
363.0629081284867
 30
0.0
 10
705.4717981181259
 20
369.6716370623878
 30
0.0
 10
710.5430014513954
 20
373.9546758602596
 30
0.0
 10
712.9124361342269
 20
380.9391362781205
 30
0.0
 10
716.6401294529512
 20
384.8756726390327
 30
0.0
 10
719.1868810050213
 20
387.5651052800109
 30
0.0
 11
643.074855323016
 21
337.5651052800109
 31
0.0
 11
647.5632864998644
 21
349.3456867815615
 31
0.0
 11
653.2895784020212
 21
355.2113716770421
 31
0.0
 11
659.725319863947
 21
357.7785835643115
 31
0.0
 11
669.6576443838881
 21
358.902172434098
 31
0.0
 11
676.9041887519348
 21
358.9163641267203
 31
0.0
 11
684.9501432217071
 21
359.4721114339102
 31
0.0
 11
693.7365968619066
 21
359.9661102786043
 31
0.0
 11
696.8718654156031
 21
360.9859328442701
 31
0.0
 11
701.2533519355287
 21
362.9923176587638
 31
0.0
 11
706.6537901281852
 21
370.1876239523065
 31
0.0
 11
710.2201171149134
 21
374.3387620271239
 31
0.0
 11
712.461807442802
 21
378.903067897159
 31
0.0
 11
719.1868810050213
 21
387.5651052800109
 31
0.0
  0
ENDSEC
  0
SECTION
  2
OBJECTS
  0
DICTIONARY
  5
7
330
0
100
AcDbDictionary
  3
ACAD_COLOR
350
832
  3
ACAD_GROUP
350
75
  3
ACAD_LAYOUT
350
61
  3
ACAD_MATERIAL
350
808
  3
ACAD_MLEADERSTYLE
350
857
  3
ACAD_MLINESTYLE
350
76
  3
ACAD_PLOTSETTINGS
350
77
  3
ACAD_PLOTSTYLENAME
350
6
  3
ACAD_SCALELIST
350
835
  3
ACAD_TABLESTYLE
350
833
  3
ACAD_VISUALSTYLE
350
821
  3
ACADDIM
350
480
  3
ACDB_RECOMPOSE_DATA
350
88E
  3
ACDBHEADERROUNDTRIPXREC
350
2990
  3
ACDBVARIABLEDICTIONARY
350
102
  3
DWGPROPS
350
2966
  0
DICTIONARY
  5
1AA9
330
6E
100
AcDbDictionary
280
     1
  3
ACAD_XREC_ROUNDTRIP
360
296A
  0
DICTIONARY
  5
86B
330
66
100
AcDbDictionary
280
     1
  3
ACAD_LAYERSTATES
360
86C
  0
DICTIONARY
  5
128D
330
5E
100
AcDbDictionary
280
     1
  3
ADSK_XREC_LAYER_RECONCILED
360
128E
  0
DICTIONARY
  5
128F
330
3E
100
AcDbDictionary
280
     1
  3
ADSK_XREC_LAYER_RECONCILED
360
1290
  0
DICTIONARY
  5
1295
330
2B5
100
AcDbDictionary
280
     1
  3
ADSK_XREC_LAYER_RECONCILED
360
1296
  0
DICTIONARY
  5
1297
330
2BA
100
AcDbDictionary
280
     1
  3
ADSK_XREC_LAYER_RECONCILED
360
1298
  0
DICTIONARY
  5
129B
330
3FA
100
AcDbDictionary
280
     1
  3
ADSK_XREC_LAYER_RECONCILED
360
129C
  0
DICTIONARY
  5
129D
330
478
100
AcDbDictionary
280
     1
  3
ADSK_XREC_LAYER_RECONCILED
360
129E
  0
DICTIONARY
  5
1236
330
2
100
AcDbDictionary
280
     1
  3
ACAD_LAYOUTSELFREF
360
29B1
  3
ACAD_SORTENTS
360
1237
  0
DICTIONARY
  5
29B2
330
298A
100
AcDbDictionary
280
     1
  3
ACAD_LAYOUTSELFREF
360
29B3
  0
DICTIONARY
  5
832
102
{ACAD_REACTORS
330
7
102
}
330
7
100
AcDbDictionary
  0
DICTIONARY
  5
75
102
{ACAD_REACTORS
330
7
102
}
330
7
100
AcDbDictionary
  0
DICTIONARY
  5
61
102
{ACAD_REACTORS
330
7
102
}
330
7
100
AcDbDictionary
  0
DICTIONARY
  5
808
102
{ACAD_REACTORS
330
7
102
}
330
7
100
AcDbDictionary
  3
BYBLOCK
350
811
  3
BYLAYER
350
809
  3
GLOBAL
350
819
  0
DICTIONARY
  5
857
102
{ACAD_REACTORS
330
7
102
}
330
7
100
AcDbDictionary
  3
STANDARD
350
858
  0
DICTIONARY
  5
76
102
{ACAD_REACTORS
330
7
102
}
330
7
100
AcDbDictionary
  3
STANDARD
350
78
  0
DICTIONARY
  5
77
102
{ACAD_REACTORS
330
7
102
}
330
7
100
AcDbDictionary
  0
ACDBDICTIONARYWDFLT
  5
6
102
{ACAD_REACTORS
330
7
102
}
330
7
100
AcDbDictionary
281
     1
  3
Normal
350
5
100
AcDbDictionaryWithDefault
340
5
  0
DICTIONARY
  5
835
102
{ACAD_REACTORS
330
7
102
}
330
7
100
AcDbDictionary
  3
A0
350
836
  3
A1
350
837
  3
A2
350
838
  3
A3
350
839
  3
A4
350
83A
  3
A5
350
83B
  3
A6
350
83C
  3
A7
350
83D
  3
A8
350
83E
  3
A9
350
83F
  3
B0
350
840
  3
B1
350
841
  3
B2
350
842
  3
B3
350
843
  3
B4
350
844
  3
B5
350
845
  3
B6
350
846
  3
B7
350
847
  3
B8
350
848
  3
B9
350
849
  3
C0
350
84A
  3
C1
350
84B
  3
C2
350
84C
  3
C3
350
84D
  3
C4
350
84E
  3
C5
350
84F
  3
C6
350
850
  3
C7
350
851
  3
C8
350
852
  3
C9
350
853
  3
D0
350
854
  3
D1
350
855
  3
D2
350
856
  0
DICTIONARY
  5
833
102
{ACAD_REACTORS
330
7
102
}
330
7
100
AcDbDictionary
  3
STANDARD
350
834
  0
DICTIONARY
  5
821
102
{ACAD_REACTORS
330
7
102
}
330
7
100
AcDbDictionary
  3
2DWIREFRAME
350
827
  3
3D_HIDDEN
350
829
  3
3DWIREFRAME
350
828
  3
BASIC
350
826
  3
BRIGHTEN
350
82D
  3
COLORCHANGE
350
831
  3
CONCEPTUAL
350
82A
  3
DIM
350
82C
  3
FACEPATTERN
350
830
  3
FLAT
350
822
  3
FLATWITHEDGES
350
823
  3
GOURAUD
350
824
  3
GOURAUDWITHEDGES
350
825
  3
LINEPATTERN
350
82F
  3
REALISTIC
350
82B
  3
THICKEN
350
82E
  0
XRECORD
  5
480
102
{ACAD_REACTORS
330
7
102
}
330
7
100
AcDbXrecord
 90
   990106
  3

 60
     0
 61
     0
 62
     1
 63
     3
 64
     1
 65
     0
 66
     0
 67
     3
 68
     1
 69
     0
 70
     0
 71
     0
 72
     0
 40
0.0
170
     2
340
0
  0
XRECORD
  5
88E
102
{ACAD_REACTORS
330
7
102
}
330
7
100
AcDbXrecord
 90
        1
330
834
  0
DICTIONARY
  5
2990
102
{ACAD_REACTORS
330
7
102
}
330
7
100
AcDbDictionary
  3
CEPSNTYPE
350
299A
  3
DIMSTYLEDATA
350
299E
  3
FINGERPRINTGUID
350
299B
  3
HYPERLINKBASE
350
2993
  3
INSUNITS
350
2999
  3
LAYOUTDICT
350
2995
  3
LWETCUNION
350
2998
  3
PLOTSETDICT
350
2996
  3
PLOTSTYLNAMDICT
350
2997
  3
PSVPSCALE
350
299D
  3
PUCSBASE
350
29A1
  3
PUCSORGBACK
350
29A7
  3
PUCSORGBOTTOM
350
29A3
  3
PUCSORGFRONT
350
29A6
  3
PUCSORGLEFT
350
29A4
  3
PUCSORGRIGHT
350
29A5
  3
PUCSORGTOP
350
29A2
  3
PUCSORTHOREF
350
299F
  3
PUCSORTHOVIEW
350
29A0
  3
STYLESHEET
350
2994
  3
TSTACKALIGN
350
2991
  3
TSTACKSIZE
350
2992
  3
UCSBASE
350
29AA
  3
UCSORGBACK
350
29B0
  3
UCSORGBOTTOM
350
29AC
  3
UCSORGFRONT
350
29AF
  3
UCSORGLEFT
350
29AD
  3
UCSORGRIGHT
350
29AE
  3
UCSORGTOP
350
29AB
  3
UCSORTHOREF
350
29A8
  3
UCSORTHOVIEW
350
29A9
  3
VERSIONGUID
350
299C
  0
DICTIONARY
  5
102
102
{ACAD_REACTORS
330
7
102
}
330
7
100
AcDbDictionary
  3
CANNOSCALE
350
892
  3
CMLEADERSTYLE
350
890
  3
CTABLESTYLE
350
88F
  3
DIMASSOC
350
103
  3
INDEXCTL
350
1AB6
  3
LIGHTINGUNITS
350
893
  3
MSLTSCALE
350
891
  3
SORTENTS
350
549
  0
XRECORD
  5
2966
102
{ACAD_REACTORS
330
7
102
}
330
7
100
AcDbXrecord
  1
DWGPROPS COOKIE
  2

  3

  4

  6

  7

  8
knsuzuki
  9

300
=
301
=
302
=
303
=
304
=
305
=
306
=
307
=
308
=
309
=
 40
0.1061586689814815
 41
2454888.679706122
 42
2454904.356461586
  1

 90
        0
  0
XRECORD
  5
296A
102
{ACAD_REACTORS
330
1AA9
102
}
330
1AA9
100
AcDbXrecord
102
VTR_0.000_0.000_1.000_1.000_VISUALSTYLE
340
827
102
VTR_0.000_0.000_1.000_1.000_GRIDDISPLAY
 70
     3
102
VTR_0.000_0.000_1.000_1.000_GRIDMAJOR
 70
     5
102
VTR_0.000_0.000_1.000_1.000_DEFAULTLIGHTING
280
     1
102
VTR_0.000_0.000_1.000_1.000_DEFAULTLIGHTINGTYPE
 70
     1
102
VTR_0.000_0.000_1.000_1.000_BRIGHTNESS
141
0.0
102
VTR_0.000_0.000_1.000_1.000_CONTRAST
142
0.0
  0
DICTIONARY
  5
86C
102
{ACAD_REACTORS
330
86B
102
}
330
86B
100
AcDbDictionary
  0
XRECORD
  5
128E
102
{ACAD_REACTORS
330
128D
102
}
330
128D
100
AcDbXrecord
290
     1
  0
XRECORD
  5
1290
102
{ACAD_REACTORS
330
128F
102
}
330
128F
100
AcDbXrecord
290
     1
  0
XRECORD
  5
1296
102
{ACAD_REACTORS
330
1295
102
}
330
1295
100
AcDbXrecord
290
     1
  0
XRECORD
  5
1298
102
{ACAD_REACTORS
330
1297
102
}
330
1297
100
AcDbXrecord
290
     1
  0
XRECORD
  5
129C
102
{ACAD_REACTORS
330
129B
102
}
330
129B
100
AcDbXrecord
290
     1
  0
XRECORD
  5
129E
102
{ACAD_REACTORS
330
129D
102
}
330
129D
100
AcDbXrecord
290
     1
  0
XRECORD
  5
29B1
102
{ACAD_REACTORS
330
1236
102
}
330
1236
100
AcDbXrecord
340
2
  0
SORTENTSTABLE
  5
1237
102
{ACAD_REACTORS
330
1236
102
}
330
1236
100
AcDbSortentsTable
330
2
331
BF8
  5
BF8
331
BD9
  5
BD9
331
11FC
  5
11FD
331
1106
  5
1107
331
C18
  5
C18
331
BF9
  5
BF9
331
BDA
  5
BDA
331
11FD
  5
11FE
331
1107
  5
1108
331
C30
  5
C30
331
C19
  5
C19
331
BFA
  5
BFA
331
177F
  5
177F
331
BDB
  5
BDB
331
11FE
  5
11FF
331
12CA
  5
12CA
331
1720
  5
1720
331
C50
  5
C50
331
C31
  5
C31
331
C1A
  5
C1A
331
BFB
  5
BFB
331
BDC
  5
BDC
331
1806
  5
1806
331
11FF
  5
1200
331
1780
  5
1780
331
C90
  5
C91
331
C51
  5
C51
331
C32
  5
C32
331
C1B
  5
C1B
331
BFC
  5
BFC
331
BDD
  5
BDD
331
1836
  5
1836
331
18B5
  5
18B5
331
1973
  5
1973
331
CB0
  5
CB1
331
C91
  5
C92
331
C52
  5
C52
331
C33
  5
C33
331
C1C
  5
C1C
331
BFD
  5
BFD
331
1905
  5
1905
331
BDE
  5
BDE
331
CC8
  5
CC9
331
C92
  5
C93
331
C34
  5
C34
331
C53
  5
C53
331
C1D
  5
C1D
331
BFE
  5
BFE
331
BDF
  5
BDF
331
CE8
  5
CE9
331
CC9
  5
CCA
331
C54
  5
C54
331
C35
  5
C35
331
CB2
  5
CB3
331
C1E
  5
C1E
331
BFF
  5
BFF
331
BE0
  5
BE0
331
D08
  5
D09
331
CE9
  5
CEA
331
CCA
  5
CCB
331
C94
  5
C95
331
C36
  5
C36
331
C55
  5
C55
331
CB3
  5
CB4
331
C1F
  5
C1F
331
C00
  5
C00
331
BE1
  5
BE1
331
17C4
  5
17C4
331
D09
  5
D0A
331
CEA
  5
CEB
331
CCB
  5
CCC
331
C95
  5
C96
331
C56
  5
C56
331
C37
  5
C37
331
CB4
  5
CB5
331
D28
  5
D29
331
C20
  5
C20
331
C01
  5
C01
331
BE2
  5
BE2
331
D40
  5
D41
331
D0A
  5
D0B
331
CEB
  5
CEC
331
CCC
  5
CCD
331
C96
  5
C97
331
C38
  5
C38
331
C57
  5
C57
331
CB5
  5
CB6
331
D29
  5
D2A
331
C21
  5
C21
331
C02
  5
C02
331
BE3
  5
BE3
331
1787
  5
1787
331
D60
  5
D61
331
D41
  5
D42
331
D0B
  5
D0C
331
CEC
  5
CED
331
CCD
  5
CCE
331
C97
  5
C98
331
C58
  5
C58
331
C39
  5
C39
331
CB6
  5
CB7
331
D2A
  5
D2B
331
C22
  5
C22
331
C03
  5
C03
331
BE4
  5
BE4
331
D80
  5
D81
331
D61
  5
D62
331
D42
  5
D43
331
D0C
  5
D0D
331
CED
  5
CEE
331
CCE
  5
CCF
331
C98
  5
C99
331
C3A
  5
C3A
331
C59
  5
C59
331
CB7
  5
CB8
331
D2B
  5
D2C
331
C23
  5
C23
331
C04
  5
C04
331
BE5
  5
BE5
331
19D1
  5
19D1
331
DA0
  5
DA1
331
D81
  5
D82
331
D62
  5
D63
331
D43
  5
D44
331
D0D
  5
D0E
331
CCF
  5
CD0
331
C99
  5
C9A
331
C5A
  5
C5A
331
C3B
  5
C3B
331
CB8
  5
CB9
331
CEE
  5
CEF
331
D2C
  5
D2D
331
C24
  5
C24
331
C05
  5
C05
331
BE6
  5
BE6
331
19D2
  5
19D2
331
DB8
  5
DB9
331
DA1
  5
DA2
331
D82
  5
D83
331
D63
  5
D64
331
D44
  5
D45
331
CD0
  5
CD1
331
CB9
  5
CBA
331
C9A
  5
C9B
331
C5B
  5
C5B
331
C3C
  5
C3C
331
CEF
  5
CF0
331
D0E
  5
D0F
331
D2D
  5
D2E
331
C25
  5
C25
331
C06
  5
C06
331
BE7
  5
BE7
331
DD8
  5
DD9
331
DB9
  5
DBA
331
DA2
  5
DA3
331
D64
  5
D65
331
D45
  5
D46
331
D0F
  5
D10
331
CD1
  5
CD2
331
CBA
  5
CBB
331
C9B
  5
C9C
331
C5C
  5
C5C
331
C3D
  5
C3D
331
CF0
  5
CF1
331
D2E
  5
D2F
331
C26
  5
C26
331
C07
  5
C07
331
BE8
  5
BE8
331
198D
  5
198D
331
DF8
  5
DF9
331
DD9
  5
DDA
331
DBA
  5
DBB
331
DA3
  5
DA4
331
D84
  5
D85
331
D65
  5
D66
331
D46
  5
D47
331
CD2
  5
CD3
331
CBB
  5
CBC
331
C9C
  5
C9D
331
C5D
  5
C5D
331
C3E
  5
C3E
331
CF1
  5
CF2
331
D10
  5
D11
331
D2F
  5
D30
331
C27
  5
C27
331
C08
  5
C08
331
BE9
  5
BE9
331
E18
  5
E19
331
DF9
  5
DFA
331
DDA
  5
DDB
331
DBB
  5
DBC
331
DA4
  5
DA5
331
D85
  5
D86
331
D66
  5
D67
331
D47
  5
D48
331
CF2
  5
CF3
331
CD3
  5
CD4
331
CBC
  5
CBD
331
C9D
  5
C9E
331
C5E
  5
C5E
331
C3F
  5
C3F
331
D11
  5
D12
331
D30
  5
D31
331
C28
  5
C28
331
C09
  5
C09
331
BEA
  5
BEA
331
25E0
  5
25E1
331
E19
  5
E1A
331
DFA
  5
DFB
331
DDB
  5
DDC
331
DBC
  5
DBD
331
DA5
  5
DA6
331
D86
  5
D87
331
D67
  5
D68
331
D48
  5
D49
331
CD4
  5
CD5
331
CBD
  5
CBE
331
C9E
  5
C9F
331
C5F
  5
C5F
331
C40
  5
C40
331
CF3
  5
CF4
331
D12
  5
D13
331
D31
  5
D32
331
C29
  5
C29
331
C0A
  5
C0A
331
BEB
  5
BEB
331
BCC
  5
BCC
331
25E1
  5
25E2
331
2600
  5
2601
331
E1A
  5
E1B
331
DFB
  5
DFC
331
DDC
  5
DDD
331
DBD
  5
DBE
331
DA6
  5
DA7
331
D87
  5
D88
331
D68
  5
D69
331
D49
  5
D4A
331
CF4
  5
CF5
331
CD5
  5
CD6
331
CBE
  5
CBF
331
C9F
  5
CA0
331
C60
  5
C60
331
C41
  5
C41
331
D13
  5
D14
331
D32
  5
D33
331
C2A
  5
C2A
331
C0B
  5
C0B
331
BEC
  5
BEC
331
BCD
  5
BCD
331
2410
  5
2410
331
25E2
  5
25E3
331
2601
  5
2602
331
E1B
  5
E1C
331
DFC
  5
DFD
331
DDD
  5
DDE
331
DBE
  5
DBF
331
DA7
  5
DA8
331
D88
  5
D89
331
D69
  5
D6A
331
D4A
  5
D4B
331
D14
  5
D15
331
CD6
  5
CD7
331
CBF
  5
CC0
331
CA0
  5
CA1
331
C42
  5
C42
331
CF5
  5
CF6
331
D33
  5
D34
331
C2B
  5
C2B
331
C0C
  5
C0C
331
BED
  5
BED
331
BCE
  5
BCE
331
2411
  5
2411
331
2530
  5
2531
331
25E3
  5
25E4
331
2602
  5
2603
331
E1C
  5
E1D
331
DFD
  5
DFE
331
DDE
  5
DDF
331
DBF
  5
DC0
331
DA8
  5
DA9
331
D89
  5
D8A
331
D6A
  5
D6B
331
D34
  5
D35
331
D15
  5
D16
331
CF6
  5
CF7
331
CC0
  5
CC1
331
CD7
  5
CD8
331
CA1
  5
CA2
331
C43
  5
C43
331
D4B
  5
D4C
331
C2C
  5
C2C
331
C0D
  5
C0D
331
BEE
  5
BEE
331
BCF
  5
BCF
331
2412
  5
2413
331
2531
  5
2532
331
2550
  5
2551
331
25E4
  5
25E5
331
2603
  5
2604
331
E1D
  5
E1E
331
DFE
  5
DFF
331
DDF
  5
DE0
331
DC0
  5
DC1
331
DA9
  5
DAA
331
D8A
  5
D8B
331
D6B
  5
D6C
331
D35
  5
D36
331
D16
  5
D17
331
CF7
  5
CF8
331
CC1
  5
CC2
331
CD8
  5
CD9
331
CA2
  5
CA3
331
C44
  5
C44
331
D4C
  5
D4D
331
C2D
  5
C2D
331
C0E
  5
C0E
331
BEF
  5
BEF
331
BD0
  5
BD0
331
2568
  5
2569
331
2413
  5
2414
331
2532
  5
2533
331
2551
  5
2554
331
25E5
  5
25E6
331
2604
  5
2605
331
E1E
  5
E1F
331
DE0
  5
DE1
331
DC1
  5
DC2
331
DAA
  5
DAB
331
D8B
  5
D8C
331
D6C
  5
D6D
331
D4D
  5
D4E
331
D36
  5
D37
331
D17
  5
D18
331
CF8
  5
CF9
331
CC2
  5
CC3
331
CD9
  5
CDA
331
CA3
  5
CA4
331
C45
  5
C45
331
DFF
  5
E00
331
C2E
  5
C2E
331
C0F
  5
C0F
331
BF0
  5
BF0
331
BD1
  5
BD1
331
2588
  5
2589
331
2569
  5
256A
331
2414
  5
2415
331
2533
  5
2534
331
25E6
  5
25E7
331
2605
  5
2606
331
E1F
  5
E20
331
DE1
  5
DE2
331
DC2
  5
DC3
331
DAB
  5
DAC
331
D8C
  5
D8D
331
D6D
  5
D6E
331
D37
  5
D38
331
CF9
  5
CFA
331
CC3
  5
CC4
331
CDA
  5
CDB
331
CA4
  5
CA5
331
C46
  5
C46
331
D18
  5
D19
331
D4E
  5
D4F
331
E00
  5
E01
331
C2F
  5
C2F
331
C10
  5
C10
331
BF1
  5
BF1
331
BD2
  5
BD2
331
256A
  5
256B
331
2415
  5
2416
331
2534
  5
2535
331
2589
  5
258A
331
25A8
  5
25A9
331
25E7
  5
25E8
331
2606
  5
2607
331
E20
  5
E21
331
DE2
  5
DE3
331
DC3
  5
DC4
331
DAC
  5
DAD
331
D8D
  5
D8E
331
D6E
  5
D6F
331
D38
  5
D39
331
D4F
  5
D50
331
CFA
  5
CFB
331
CC4
  5
CC5
331
CDB
  5
CDC
331
CA5
  5
CA6
331
C47
  5
C47
331
D19
  5
D1A
331
E01
  5
E02
331
C11
  5
C11
331
BF2
  5
BF2
331
BD3
  5
BD3
331
256B
  5
256C
331
2416
  5
2417
331
2535
  5
2536
331
2554
  5
2555
331
258A
  5
258B
331
25A9
  5
25AA
331
25C8
  5
25C9
331
2607
  5
2608
331
25E8
  5
25E9
331
E21
  5
E22
331
DE3
  5
DE4
331
DC4
  5
DC5
331
DAD
  5
DAE
331
D8E
  5
D8F
331
D6F
  5
D70
331
D39
  5
D3A
331
D50
  5
D51
331
CFB
  5
CFC
331
CC5
  5
CC6
331
CDC
  5
CDD
331
C48
  5
C48
331
CA6
  5
CA7
331
D1A
  5
D1B
331
E02
  5
E03
331
E30
  5
E31
331
C12
  5
C12
331
BF3
  5
BF3
331
BD4
  5
BD4
331
256C
  5
256D
331
2417
  5
2418
331
2536
  5
2537
331
2555
  5
2556
331
258B
  5
258C
331
25AA
  5
25AB
331
25C9
  5
25CA
331
25E9
  5
25EA
331
2608
  5
2609
331
E50
  5
E51
331
E22
  5
E23
331
E03
  5
E04
331
DE4
  5
DE5
331
DC5
  5
DC6
331
DAE
  5
DAF
331
D8F
  5
D90
331
D70
  5
D71
331
D3A
  5
D3B
331
D51
  5
D52
331
CFC
  5
CFD
331
CC6
  5
CC7
331
CDD
  5
CDE
331
C49
  5
C49
331
CA7
  5
CA8
331
D1B
  5
D1C
331
E31
  5
E32
331
C13
  5
C13
331
BF4
  5
BF4
331
BD5
  5
BD5
331
256D
  5
256E
331
2537
  5
2538
331
2418
  5
2419
331
2556
  5
2557
331
258C
  5
258D
331
25AB
  5
25AC
331
25CA
  5
25CB
331
25EA
  5
25EB
331
2609
  5
260A
331
E23
  5
E24
331
E04
  5
E05
331
DE5
  5
DE6
331
DC6
  5
DC7
331
DAF
  5
DB0
331
D90
  5
D91
331
D71
  5
D72
331
D3B
  5
D3C
331
D52
  5
D53
331
CFD
  5
CFE
331
CC7
  5
CC8
331
CA8
  5
CA9
331
C4A
  5
C4A
331
CDE
  5
CDF
331
D1C
  5
D1D
331
E32
  5
E33
331
E51
  5
E52
331
E70
  5
E71
331
C14
  5
C14
331
BF5
  5
BF5
331
BD6
  5
BD6
331
256E
  5
256F
331
2557
  5
2558
331
2419
  5
241A
331
2538
  5
2539
331
258D
  5
258E
331
25AC
  5
25AD
331
25CB
  5
25CC
331
25EB
  5
25EC
331
260A
  5
260B
331
E24
  5
E25
331
E05
  5
E06
331
DE6
  5
DE7
331
DB0
  5
DB1
331
DC7
  5
DC8
331
D91
  5
D92
331
D72
  5
D73
331
D3C
  5
D3D
331
D53
  5
D54
331
CFE
  5
CFF
331
CA9
  5
CAA
331
C4B
  5
C4B
331
CDF
  5
CE0
331
D1D
  5
D1E
331
E33
  5
E34
331
E52
  5
E53
331
E71
  5
E72
331
E90
  5
E91
331
C15
  5
C15
331
BF6
  5
BF6
331
BD7
  5
BD7
331
256F
  5
2570
331
2558
  5
2559
331
241A
  5
241B
331
2539
  5
253A
331
258E
  5
258F
331
25AD
  5
25AE
331
25CC
  5
25CD
331
25EC
  5
25ED
331
260B
  5
260C
331
EA8
  5
EA9
331
DE7
  5
DE8
331
DB1
  5
DB2
331
D3D
  5
D3E
331
D54
  5
D55
331
CE0
  5
CE1
331
C8B
  5
C8C
331
C4C
  5
C4C
331
CAA
  5
CAB
331
CFF
  5
D00
331
D1E
  5
D1F
331
D73
  5
D74
331
D92
  5
D93
331
DC8
  5
DC9
331
E06
  5
E07
331
E25
  5
E26
331
E34
  5
E35
331
E53
  5
E54
331
E72
  5
E73
331
E91
  5
E92
331
C16
  5
C16
331
BF7
  5
BF7
331
258F
  5
2590
331
2559
  5
255A
331
241B
  5
241C
331
253A
  5
253B
331
2570
  5
2571
331
25AE
  5
25AF
331
25CD
  5
25CE
331
25ED
  5
25EE
331
260C
  5
260D
331
EC8
  5
EC9
331
EA9
  5
EAA
331
E07
  5
E08
331
DB2
  5
DB3
331
DC9
  5
DCA
331
D74
  5
D75
331
D3E
  5
D3F
331
D00
  5
D01
331
CE1
  5
CE2
331
CAB
  5
CAC
331
C8C
  5
C8D
331
C4D
  5
C4D
331
D1F
  5
D20
331
D55
  5
D56
331
D93
  5
D94
331
DE8
  5
DE9
331
E26
  5
E27
331
E35
  5
E36
331
E54
  5
E55
331
E73
  5
E74
331
E92
  5
E93
331
C17
  5
C17
331
25AF
  5
25B0
331
255A
  5
255B
331
241C
  5
241D
331
253B
  5
253C
331
2571
  5
2572
331
2590
  5
2591
331
25CE
  5
25CF
331
25EE
  5
25EF
331
260D
  5
260E
331
1090
  5
1091
331
EAA
  5
EAB
331
DE9
  5
DEA
331
DB3
  5
DB4
331
D3F
  5
D40
331
D20
  5
D21
331
D01
  5
D02
331
CE2
  5
CE3
331
CAC
  5
CAD
331
C8D
  5
C8E
331
C4E
  5
C4E
331
D56
  5
D57
331
D75
  5
D76
331
D94
  5
D95
331
DCA
  5
DCB
331
E08
  5
E09
331
E27
  5
E28
331
E36
  5
E37
331
E55
  5
E56
331
E74
  5
E75
331
E93
  5
E94
331
EC9
  5
ECA
331
255B
  5
255C
331
19AE
  5
19AE
331
241D
  5
241E
331
253C
  5
253D
331
2572
  5
2573
331
2591
  5
2592
331
25B0
  5
25B1
331
25CF
  5
25D0
331
25EF
  5
25F0
331
260E
  5
260F
331
ECA
  5
ECB
331
EAB
  5
EAC
331
E28
  5
E29
331
DB4
  5
DB5
331
DCB
  5
DCC
331
D76
  5
D77
331
D21
  5
D22
331
D02
  5
D03
331
CE3
  5
CE4
331
CAD
  5
CAE
331
C8E
  5
C8F
331
C4F
  5
C4F
331
D57
  5
D58
331
D95
  5
D96
331
DEA
  5
DEB
331
E09
  5
E0A
331
E37
  5
E38
331
E56
  5
E57
331
E75
  5
E76
331
E94
  5
E95
331
1091
  5
1092
331
10B0
  5
10B1
331
255C
  5
255D
331
19AF
  5
19AF
331
241E
  5
2521
331
253D
  5
253E
331
2573
  5
2574
331
2592
  5
2593
331
25B1
  5
25B2
331
25D0
  5
25D1
331
25F0
  5
25F1
331
260F
  5
2610
331
10E8
  5
10E9
331
1092
  5
1093
331
EAC
  5
EAD
331
E29
  5
E2A
331
DEB
  5
DEC
331
DB5
  5
DB6
331
D58
  5
D59
331
D22
  5
D23
331
D03
  5
D04
331
CE4
  5
CE5
331
CAE
  5
CAF
331
C8F
  5
C90
331
D77
  5
D78
331
D96
  5
D97
331
DCC
  5
DCD
331
E0A
  5
E0B
331
E38
  5
E39
331
E57
  5
E58
331
E76
  5
E77
331
E95
  5
E96
331
ECB
  5
ECC
331
10B1
  5
10B2
331
255D
  5
255E
331
2400
  5
2400
331
253E
  5
253F
331
2574
  5
2575
331
2593
  5
2594
331
25B2
  5
25B3
331
25D1
  5
25D2
331
19B0
  5
19B0
331
2610
  5
2611
331
25F1
  5
25F2
331
10E9
  5
10EA
331
ECC
  5
ECD
331
EAD
  5
EAE
331
E2A
  5
E2B
331
DB6
  5
DB7
331
DCD
  5
DCE
331
D78
  5
D79
331
D59
  5
D5A
331
D23
  5
D24
331
D04
  5
D05
331
CE5
  5
CE6
331
CAF
  5
CB0
331
D97
  5
D98
331
DEC
  5
DED
331
E0B
  5
E0C
331
E39
  5
E3A
331
E58
  5
E59
331
E77
  5
E78
331
E96
  5
E97
331
1093
  5
1094
331
10B2
  5
10B3
331
1108
  5
1109
331
255E
  5
255F
331
2401
  5
2401
331
253F
  5
2540
331
2575
  5
2576
331
2594
  5
2595
331
25B3
  5
25B4
331
25D2
  5
25D3
331
19B1
  5
19B1
331
2611
  5
2612
331
25F2
  5
25F3
331
11A0
  5
11A1
331
1109
  5
110A
331
10EA
  5
10EB
331
1094
  5
1095
331
EAE
  5
EAF
331
E2B
  5
E2C
331
DED
  5
DEE
331
DB7
  5
DB8
331
D98
  5
D99
331
D79
  5
D7A
331
D5A
  5
D5B
331
D24
  5
D25
331
D05
  5
D06
331
CE6
  5
CE7
331
DCE
  5
DCF
331
E0C
  5
E0D
331
E3A
  5
E3B
331
E59
  5
E5A
331
E78
  5
E79
331
E97
  5
E98
331
ECD
  5
ECE
331
10B3
  5
10B4
331
255F
  5
2560
331
2521
  5
2523
331
2402
  5
2402
331
2540
  5
2541
331
2576
  5
2577
331
2595
  5
2596
331
25B4
  5
25B5
331
25D3
  5
25D4
331
2612
  5
2613
331
25F3
  5
25F4
331
11A1
  5
11A2
331
10EB
  5
10EC
331
EAF
  5
EB0
331
E2C
  5
E2D
331
D99
  5
D9A
331
D7A
  5
D7B
331
D5B
  5
D5C
331
D06
  5
D07
331
CE7
  5
CE8
331
D25
  5
D26
331
DCF
  5
DD0
331
DEE
  5
DEF
331
E0D
  5
E0E
331
E3B
  5
E3C
331
E5A
  5
E5B
331
E79
  5
E7A
331
E98
  5
E99
331
ECE
  5
ECF
331
1095
  5
1096
331
10B4
  5
10B5
331
110A
  5
110B
331
1200
  5
1201
331
2577
  5
2578
331
2596
  5
2597
331
25B5
  5
25B6
331
25D4
  5
25D5
331
2403
  5
2403
331
2541
  5
2542
331
2560
  5
2561
331
2613
  5
2614
331
25F4
  5
25F5
331
11A2
  5
11A3
331
1201
  5
1202
331
1218
  5
1219
331
110B
  5
110C
331
10EC
  5
10ED
331
1096
  5
1097
331
EB0
  5
EB1
331
E2D
  5
E2E
331
DD0
  5
DD1
331
D9A
  5
D9B
331
D7B
  5
D7C
331
D5C
  5
D5D
331
D07
  5
D08
331
D26
  5
D27
331
DEF
  5
DF0
331
E0E
  5
E0F
331
E3C
  5
E3D
331
E5B
  5
E5C
331
E7A
  5
E7B
331
E99
  5
E9A
331
10B5
  5
10B6
331
1373
  5
1373
331
2578
  5
2579
331
2597
  5
2598
331
25B6
  5
25B7
331
25D5
  5
25D6
331
2523
  5
2524
331
2404
  5
2404
331
2542
  5
2543
331
2561
  5
2562
331
2285
  5
2286
331
1ABB
  5
1ABB
331
2614
  5
2615
331
25F5
  5
25F6
331
1202
  5
1203
331
110C
  5
110D
331
10ED
  5
10EE
331
EB1
  5
EB2
331
E5C
  5
E5D
331
E3D
  5
E3E
331
E7B
  5
E7C
331
E9A
  5
E9B
331
1097
  5
1098
331
10B6
  5
10B7
331
131D
  5
131D
331
DF0
  5
DF1
331
DD1
  5
DD2
331
D9B
  5
D9C
331
D7C
  5
D7D
331
D5D
  5
D5E
331
D27
  5
D28
331
E0F
  5
E10
331
E2E
  5
E2F
331
2598
  5
2599
331
2579
  5
257A
331
25B7
  5
25B8
331
25D6
  5
25D7
331
2524
  5
2525
331
2405
  5
2405
331
2543
  5
2544
331
2562
  5
2563
331
2615
  5
2616
331
25F6
  5
25F7
331
1203
  5
1204
331
10EE
  5
10EF
331
EB2
  5
EB3
331
E3E
  5
E3F
331
E5D
  5
E5E
331
E7C
  5
E7D
331
E9B
  5
E9C
331
1098
  5
1099
331
10B7
  5
10B8
331
110D
  5
110E
331
1412
  5
1412
331
DF1
  5
DF2
331
DD2
  5
DD3
331
D9C
  5
D9D
331
D7D
  5
D7E
331
D5E
  5
D5F
331
E10
  5
E11
331
E2F
  5
E30
331
2599
  5
259A
331
257A
  5
257B
331
25B8
  5
25B9
331
25D7
  5
25D8
331
2525
  5
2526
331
2406
  5
2406
331
2544
  5
2545
331
2563
  5
2564
331
2616
  5
2617
331
25F7
  5
25F8
331
12F0
  5
12F0
331
1204
  5
1205
331
10EF
  5
10F0
331
EB3
  5
EB4
331
DF2
  5
DF3
331
DD3
  5
DD4
331
D9D
  5
D9E
331
D7E
  5
D7F
331
D5F
  5
D60
331
E11
  5
E12
331
E3F
  5
E40
331
E5E
  5
E5F
331
E7D
  5
E7E
331
E9C
  5
E9D
331
1099
  5
109A
331
10B8
  5
10B9
331
110E
  5
110F
331
13B5
  5
13B5
331
25D8
  5
25D9
331
259A
  5
259B
331
257B
  5
257C
331
25B9
  5
25BA
331
2526
  5
2527
331
2407
  5
2407
331
2545
  5
2546
331
2564
  5
2565
331
25F8
  5
25F9
331
2617
  5
2618
331
1205
  5
1206
331
10F0
  5
10F1
331
EB4
  5
EB5
331
DF3
  5
DF4
331
DD4
  5
DD5
331
D9E
  5
D9F
331
D7F
  5
D80
331
E12
  5
E13
331
E40
  5
E41
331
E5F
  5
E60
331
E7E
  5
E7F
331
E9D
  5
E9E
331
109A
  5
109B
331
10B9
  5
10BA
331
110F
  5
1110
331
13E5
  5
13E5
331
25D9
  5
25DA
331
259B
  5
259C
331
257C
  5
257D
331
25BA
  5
25BB
331
2527
  5
2528
331
2546
  5
2547
331
2565
  5
2566
331
2408
  5
2408
331
25F9
  5
25FA
331
2618
  5
2619
331
11A7
  5
11A8
331
EB5
  5
EB6
331
E13
  5
E14
331
DF4
  5
DF5
331
DD5
  5
DD6
331
D9F
  5
DA0
331
E41
  5
E42
331
E60
  5
E61
331
E7F
  5
E80
331
E9E
  5
E9F
331
109B
  5
109C
331
10F1
  5
10F2
331
1110
  5
1111
331
1206
  5
1207
331
1543
  5
1543
331
25DA
  5
25DB
331
259C
  5
259D
331
257D
  5
257E
331
25BB
  5
25BC
331
2547
  5
2548
331
2566
  5
2567
331
2528
  5
2529
331
2409
  5
2409
331
25FA
  5
25FB
331
2619
  5
261A
331
11A8
  5
11A9
331
1207
  5
1208
331
1111
  5
1112
331
ED5
  5
ED6
331
EB6
  5
EB7
331
E80
  5
E81
331
E14
  5
E15
331
DF5
  5
DF6
331
DD6
  5
DD7
331
E42
  5
E43
331
E61
  5
E62
331
E9F
  5
EA0
331
109C
  5
109D
331
10F2
  5
10F3
331
1389
  5
1389
331
1788
  5
1788
331
25DB
  5
25DC
331
259D
  5
259E
331
257E
  5
257F
331
25BC
  5
25BD
331
2567
  5
2568
331
2529
  5
252A
331
240A
  5
240A
331
2548
  5
2549
331
25FB
  5
25FC
331
261A
  5
261B
331
11A9
  5
11AA
331
1112
  5
1113
331
109D
  5
109E
331
EA0
  5
EA1
331
E81
  5
E82
331
E15
  5
E16
331
DF6
  5
DF7
331
DD7
  5
DD8
331
E43
  5
E44
331
E62
  5
E63
331
EB7
  5
EB8
331
ED6
  5
ED7
331
10F3
  5
10F4
331
1208
  5
1209
331
173A
  5
173A
331
1789
  5
1789
331
25DC
  5
25DD
331
259E
  5
259F
331
257F
  5
2580
331
25BD
  5
25BE
331
252A
  5
252B
331
240B
  5
240B
331
2549
  5
254A
331
25FC
  5
25FD
331
261B
  5
261C
331
1644
  5
1644
331
11AA
  5
11AB
331
1113
  5
1114
331
10F4
  5
10F5
331
109E
  5
109F
331
ED7
  5
ED8
331
EA1
  5
EA2
331
EB8
  5
EB9
331
E82
  5
E83
331
E63
  5
E64
331
E16
  5
E17
331
DF7
  5
DF8
331
E44
  5
E45
331
1209
  5
120A
331
14BF
  5
14BF
331
1605
  5
1605
331
25DD
  5
25DE
331
259F
  5
25A0
331
25BE
  5
25BF
331
2580
  5
2581
331
252B
  5
252C
331
254A
  5
254B
331
25FD
  5
25FE
331
120A
  5
120B
331
1114
  5
1115
331
10F5
  5
10F6
331
109F
  5
10A0
331
ED8
  5
ED9
331
EB9
  5
EBA
331
1606
  5
1606
331
17DA
  5
17DA
331
E83
  5
E84
331
E64
  5
E65
331
E45
  5
E46
331
E17
  5
E18
331
EA2
  5
EA3
331
25BF
  5
25C0
331
2581
  5
2582
331
252C
  5
252D
331
254B
  5
254C
331
25A0
  5
25A1
331
25FE
  5
25FF
331
261D
  5
2412
331
120B
  5
120C
331
10F6
  5
10F7
331
10BF
  5
10C0
331
10A0
  5
10A1
331
ED9
  5
EDA
331
EBA
  5
EBB
331
1115
  5
1116
331
1607
  5
1607
331
E84
  5
E85
331
E65
  5
E66
331
E46
  5
E47
331
EA3
  5
EA4
331
25DF
  5
25E0
331
25C0
  5
25C1
331
2582
  5
2583
331
240E
  5
240E
331
252D
  5
252E
331
254C
  5
254E
331
25A1
  5
25A2
331
25FF
  5
2600
331
120C
  5
120D
331
10A1
  5
10A2
331
EDA
  5
108B
331
EBB
  5
EBC
331
10F7
  5
10F8
331
1559
  5
1559
331
E85
  5
E86
331
E66
  5
E67
331
E47
  5
E48
331
EA4
  5
EA5
331
25C1
  5
25C2
331
2583
  5
2584
331
240F
  5
240F
331
252E
  5
252F
331
25A2
  5
25A3
331
120D
  5
120E
331
10A2
  5
10A3
331
EBC
  5
EBD
331
10F8
  5
10F9
331
142C
  5
142C
331
E86
  5
E87
331
E48
  5
E49
331
E67
  5
E68
331
EA5
  5
EA6
331
25C2
  5
25C3
331
2584
  5
2585
331
252F
  5
2530
331
254E
  5
254F
331
25A3
  5
25A4
331
120E
  5
120F
331
10A3
  5
10A4
331
EBD
  5
EBE
331
10F9
  5
10FA
331
142D
  5
142D
331
E68
  5
E69
331
E49
  5
E4A
331
E87
  5
E88
331
EA6
  5
EA7
331
25C3
  5
25C4
331
2585
  5
2586
331
254F
  5
2550
331
25A4
  5
25A5
331
120F
  5
1210
331
10A4
  5
10A5
331
EBE
  5
EBF
331
10FA
  5
10FB
331
1119
  5
111A
331
1226
  5
1227
331
1759
  5
1759
331
E88
  5
E89
331
E69
  5
E6A
331
E4A
  5
E4B
331
EA7
  5
EA8
331
25C4
  5
25C5
331
2586
  5
2587
331
25A5
  5
25A6
331
1227
  5
1228
331
17F0
  5
17F0
331
1896
  5
1896
331
18DD
  5
18DD
331
192C
  5
192C
331
10A5
  5
10A6
331
E89
  5
E8A
331
E4B
  5
E4C
331
E6A
  5
E6B
331
EBF
  5
EC0
331
10FB
  5
10FC
331
1333
  5
1333
331
1210
  5
1211
331
25C5
  5
25C6
331
2587
  5
2588
331
25A6
  5
25A7
331
1228
  5
1229
331
16F4
  5
16F4
331
1820
  5
1820
331
E8A
  5
E8B
331
E6B
  5
E6C
331
E4C
  5
E4D
331
EC0
  5
EC1
331
10A6
  5
10A7
331
10FC
  5
10FD
331
111B
  5
111C
331
1211
  5
1212
331
25C6
  5
25C7
331
1229
  5
122A
331
10A7
  5
10A8
331
10FD
  5
10FE
331
111C
  5
111D
331
1212
  5
1213
331
E8B
  5
E8C
331
E4D
  5
E4E
331
E6C
  5
E6D
331
EC1
  5
EC2
331
25C7
  5
25C8
331
1307
  5
1307
331
12B0
  5
12B0
331
122A
  5
122B
331
10FE
  5
10FF
331
1213
  5
1214
331
10E7
  5
10E8
331
13FB
  5
13FB
331
E8C
  5
E8D
331
E6D
  5
E6E
331
E4E
  5
E4F
331
EC2
  5
EC3
331
10A8
  5
10A9
331
122B
  5
122C
331
11ED
  5
11EE
331
10FF
  5
1100
331
1214
  5
1215
331
E8D
  5
E8E
331
E4F
  5
E50
331
E6E
  5
E6F
331
EC3
  5
EC4
331
10A9
  5
10AA
331
122C
  5
122D
331
1434
  5
1434
331
17AE
  5
17AE
331
11EE
  5
11EF
331
111F
  5
1120
331
139F
  5
139F
331
1215
  5
1216
331
E8E
  5
E8F
331
E6F
  5
E70
331
EC4
  5
EC5
331
10AA
  5
10AB
331
1100
  5
1101
331
122D
  5
122E
331
1435
  5
1435
331
11EF
  5
11F0
331
13CF
  5
13CF
331
1216
  5
1217
331
162A
  5
162A
331
1349
  5
1349
331
1120
  5
1121
331
E8F
  5
E90
331
EC5
  5
EC6
331
108C
  5
108D
331
10AB
  5
10AC
331
1101
  5
1102
331
170A
  5
170A
331
1505
  5
1505
331
122E
  5
122F
331
1436
  5
1436
331
194B
  5
194B
331
1217
  5
1218
331
EC6
  5
EC7
331
108D
  5
108E
331
10AC
  5
10AD
331
1102
  5
1103
331
122F
  5
1230
331
10AD
  5
10AE
331
EC7
  5
EC8
331
108E
  5
108F
331
1103
  5
1104
331
1596
  5
1596
331
10AE
  5
10AF
331
108F
  5
1090
331
1104
  5
1105
331
1230
  5
1231
331
BD8
  5
BD8
331
11FB
  5
11FC
331
10AF
  5
10B0
331
1105
  5
1106
  0
XRECORD
  5
29B3
102
{ACAD_REACTORS
330
29B2
102
}
330
29B2
100
AcDbXrecord
340
298A
  0
ACAD_PROXY_OBJECT
  5
811
102
{ACAD_XDICTIONARY
360
812
102
}
102
{ACAD_REACTORS
330
808
102
}
330
808
100
AcDbProxyObject
 90
      499
 91
      512
 93
     1340
310
42109E509B1BD8DAC02004014080404555555555555953FAA155555555555654FEA9AA400014080404555555555555953FAA155555555555654FEA9AA400000000000000E03F4080404555555555555953FAA155555555555654FEA9AA4014080404555555555555953FAA155555555555654FEA9AA4010201011555555555
310
55654FEA8555555555555953FAA6A9005020101155555555555654FEA8555555555555953FAA6A900B
 94
        0
1001
ACAD
1000
AcadProxyRoundTripData
1071
      504
1071
   851991
1070
     0
  0
ACAD_PROXY_OBJECT
  5
809
102
{ACAD_XDICTIONARY
360
80A
102
}
102
{ACAD_REACTORS
330
808
102
}
330
808
100
AcDbProxyObject
 90
      499
 91
      512
 93
     1340
310
42109E53185E595C802004014080404555555555555953FAA155555555555654FEA9AA400014080404555555555555953FAA155555555555654FEA9AA400000000000000E03F4080404555555555555953FAA155555555555654FEA9AA4014080404555555555555953FAA155555555555654FEA9AA4010201011555555555
310
55654FEA8555555555555953FAA6A9005020101155555555555654FEA8555555555555953FAA6A900B
 94
        0
1001
ACAD
1000
AcadProxyRoundTripData
1071
      504
1071
   851991
1070
     0
  0
ACAD_PROXY_OBJECT
  5
819
102
{ACAD_XDICTIONARY
360
81A
102
}
102
{ACAD_REACTORS
330
808
102
}
330
808
100
AcDbProxyObject
 90
      499
 91
      512
 93
     1332
310
41D1DB1BD8985B002004014080404555555555555953FAA155555555555654FEA9AA400014080404555555555555953FAA155555555555654FEA9AA400000000000000E03F4080404555555555555953FAA155555555555654FEA9AA4014080404555555555555953FAA155555555555654FEA9AA401020101155555555555
310
654FEA8555555555555953FAA6A9005020101155555555555654FEA8555555555555953FAA6A9000
 94
        0
1001
ACAD
1000
AcadProxyRoundTripData
1071
      504
1071
   851991
1070
     0
  0
ACAD_PROXY_OBJECT
  5
858
102
{ACAD_REACTORS
330
857
102
}
330
857
100
AcDbProxyObject
 90
      499
 91
      512
 93
      618
310
40901902A4063FBFFFFFE056BD1B81E855B9FC0AD7A3703D0AD73F4254DD185B99185C990000AD7A3703D0AC73F90141901A02B5E8DC0F42B1CFC02B5E8DC0F42B1CFE5764000000000000300FC6
340
6A
340
0
340
16
340
0
 94
        0
1001
ACAD_MLEADERVER
1070
     2
1001
ACAD
1000
AcadProxyRoundTripData
1071
      508
1071
   851991
1070
     0
  0
MLINESTYLE
  5
78
102
{ACAD_REACTORS
330
76
102
}
330
76
100
AcDbMlineStyle
  2
STANDARD
 70
     0
  3

 62
     0
 51
90.0
 52
90.0
 71
     2
 49
0.5
 62
   256
  6
BYLAYER
 49
-0.5
 62
   256
  6
BYLAYER
  0
ACDBPLACEHOLDER
  5
5
102
{ACAD_REACTORS
330
6
102
}
330
6
100
AcDbPlaceHolder
280
     0
  0
ACAD_PROXY_OBJECT
  5
836
102
{ACAD_REACTORS
330
835
102
}
330
835
100
AcDbProxyObject
 90
      499
 91
      512
 93
       49
310
904313A3100598
 94
        0
1001
ACAD
1000
AcadProxyRoundTripData
1071
      507
1071
   851991
1070
     0
  0
ACAD_PROXY_OBJECT
  5
837
102
{ACAD_REACTORS
330
835
102
}
330
835
100
AcDbProxyObject
 90
      499
 91
      512
 93
      113
310
904313A3200400000000000000406B
 94
        0
1001
ACAD
1000
AcadProxyRoundTripData
1071
      507
1071
   851991
1070
     0
  0
ACAD_PROXY_OBJECT
  5
838
102
{ACAD_REACTORS
330
835
102
}
330
835
100
AcDbProxyObject
 90
      499
 91
      512
 93
      113
310
904313A3400400000000000010406B
 94
        0
1001
ACAD
1000
AcadProxyRoundTripData
1071
      507
1071
   851991
1070
     0
  0
ACAD_PROXY_OBJECT
  5
839
102
{ACAD_REACTORS
330
835
102
}
330
835
100
AcDbProxyObject
 90
      499
 91
      512
 93
      113
310
904313A3500400000000000014406B
 94
        0
1001
ACAD
1000
AcadProxyRoundTripData
1071
      507
1071
   851991
1070
     0
  0
ACAD_PROXY_OBJECT
  5
83A
102
{ACAD_REACTORS
330
835
102
}
330
835
100
AcDbProxyObject
 90
      499
 91
      512
 93
      113
310
904313A3800400000000000020406B
 94
        0
1001
ACAD
1000
AcadProxyRoundTripData
1071
      507
1071
   851991
1070
     0
  0
ACAD_PROXY_OBJECT
  5
83B
102
{ACAD_REACTORS
330
835
102
}
330
835
100
AcDbProxyObject
 90
      499
 91
      512
 93
      121
310
905313A3130004000000000000244051
 94
        0
1001
ACAD
1000
AcadProxyRoundTripData
1071
      507
1071
   851991
1070
     0
  0
ACAD_PROXY_OBJECT
  5
83C
102
{ACAD_REACTORS
330
835
102
}
330
835
100
AcDbProxyObject
 90
      499
 91
      512
 93
      121
310
905313A3136004000000000000304051
 94
        0
1001
ACAD
1000
AcadProxyRoundTripData
1071
      507
1071
   851991
1070
     0
  0
ACAD_PROXY_OBJECT
  5
83D
102
{ACAD_REACTORS
330
835
102
}
330
835
100
AcDbProxyObject
 90
      499
 91
      512
 93
      121
310
905313A3230004000000000000344051
 94
        0
1001
ACAD
1000
AcadProxyRoundTripData
1071
      507
1071
   851991
1070
     0
  0
ACAD_PROXY_OBJECT
  5
83E
102
{ACAD_REACTORS
330
835
102
}
330
835
100
AcDbProxyObject
 90
      499
 91
      512
 93
      121
310
905313A33300040000000000003E4051
 94
        0
1001
ACAD
1000
AcadProxyRoundTripData
1071
      507
1071
   851991
1070
     0
  0
ACAD_PROXY_OBJECT
  5
83F
102
{ACAD_REACTORS
330
835
102
}
330
835
100
AcDbProxyObject
 90
      499
 91
      512
 93
      121
310
905313A3430004000000000000444051
 94
        0
1001
ACAD
1000
AcadProxyRoundTripData
1071
      507
1071
   851991
1070
     0
  0
ACAD_PROXY_OBJECT
  5
840
102
{ACAD_REACTORS
330
835
102
}
330
835
100
AcDbProxyObject
 90
      499
 91
      512
 93
      121
310
905313A3530004000000000000494051
 94
        0
1001
ACAD
1000
AcadProxyRoundTripData
1071
      507
1071
   851991
1070
     0
  0
ACAD_PROXY_OBJECT
  5
841
102
{ACAD_REACTORS
330
835
102
}
330
835
100
AcDbProxyObject
 90
      499
 91
      512
 93
      129
310
906313A313030004000000000000594038
 94
        0
1001
ACAD
1000
AcadProxyRoundTripData
1071
      507
1071
   851991
1070
     0
  0
ACAD_PROXY_OBJECT
  5
842
102
{ACAD_REACTORS
330
835
102
}
330
835
100
AcDbProxyObject
 90
      499
 91
      512
 93
      113
310
904323A31000000000000000010159
 94
        0
1001
ACAD
1000
AcadProxyRoundTripData
1071
      507
1071
   851991
1070
     0
  0
ACAD_PROXY_OBJECT
  5
843
102
{ACAD_REACTORS
330
835
102
}
330
835
100
AcDbProxyObject
 90
      499
 91
      512
 93
      113
310
904343A31000000000000000410159
 94
        0
1001
ACAD
1000
AcadProxyRoundTripData
1071
      507
1071
   851991
1070
     0
  0
ACAD_PROXY_OBJECT
  5
844
102
{ACAD_REACTORS
330
835
102
}
330
835
100
AcDbProxyObject
 90
      499
 91
      512
 93
      113
310
904383A31000000000000000810159
 94
        0
1001
ACAD
1000
AcadProxyRoundTripData
1071
      507
1071
   851991
1070
     0
  0
ACAD_PROXY_OBJECT
  5
845
102
{ACAD_REACTORS
330
835
102
}
330
835
100
AcDbProxyObject
 90
      499
 91
      512
 93
      121
310
90531303A31000000000000000910140
 94
        0
1001
ACAD
1000
AcadProxyRoundTripData
1071
      507
1071
   851991
1070
     0
  0
ACAD_PROXY_OBJECT
  5
846
102
{ACAD_REACTORS
330
835
102
}
330
835
100
AcDbProxyObject
 90
      499
 91
      512
 93
      129
310
9063130303A31000000000000001650138
 94
        0
1001
ACAD
1000
AcadProxyRoundTripData
1071
      507
1071
   851991
1070
     0
  0
ACAD_PROXY_OBJECT
  5
847
102
{ACAD_REACTORS
330
835
102
}
330
835
100
AcDbProxyObject
 90
      499
 91
      512
 93
      265
310
90F312F31323822203D2031272D302200000000000000200FC00000000000028402B
 94
        0
1001
ACAD
1000
AcadProxyRoundTripData
1071
      507
1071
   851991
1070
     0
  0
ACAD_PROXY_OBJECT
  5
848
102
{ACAD_REACTORS
330
835
102
}
330
835
100
AcDbProxyObject
 90
      499
 91
      512
 93
      257
310
90E312F363422203D2031272D302200000000000000240FC000000000000284040
 94
        0
1001
ACAD
1000
AcadProxyRoundTripData
1071
      507
1071
   851991
1070
     0
  0
ACAD_PROXY_OBJECT
  5
849
102
{ACAD_REACTORS
330
835
102
}
330
835
100
AcDbProxyObject
 90
      499
 91
      512
 93
      257
310
90E312F333222203D2031272D302200000000000000280FC000000000000284040
 94
        0
1001
ACAD
1000
AcadProxyRoundTripData
1071
      507
1071
   851991
1070
     0
  0
ACAD_PROXY_OBJECT
  5
84A
102
{ACAD_REACTORS
330
835
102
}
330
835
100
AcDbProxyObject
 90
      499
 91
      512
 93
      257
310
90E312F313622203D2031272D3022000000000000002C0FC000000000000284040
 94
        0
1001
ACAD
1000
AcadProxyRoundTripData
1071
      507
1071
   851991
1070
     0
  0
ACAD_PROXY_OBJECT
  5
84B
102
{ACAD_REACTORS
330
835
102
}
330
835
100
AcDbProxyObject
 90
      499
 91
      512
 93
      257
310
90E332F333222203D2031272D3022000000000000002E0FC000000000000284040
 94
        0
1001
ACAD
1000
AcadProxyRoundTripData
1071
      507
1071
   851991
1070
     0
  0
ACAD_PROXY_OBJECT
  5
84C
102
{ACAD_REACTORS
330
835
102
}
330
835
100
AcDbProxyObject
 90
      499
 91
      512
 93
      249
310
90D312F3822203D2031272D302200000000000000300FC000000000000284040
 94
        0
1001
ACAD
1000
AcadProxyRoundTripData
1071
      507
1071
   851991
1070
     0
  0
ACAD_PROXY_OBJECT
  5
84D
102
{ACAD_REACTORS
330
835
102
}
330
835
100
AcDbProxyObject
 90
      499
 91
      512
 93
      257
310
90E332F313622203D2031272D302200000000000000320FC000000000000284040
 94
        0
1001
ACAD
1000
AcadProxyRoundTripData
1071
      507
1071
   851991
1070
     0
  0
ACAD_PROXY_OBJECT
  5
84E
102
{ACAD_REACTORS
330
835
102
}
330
835
100
AcDbProxyObject
 90
      499
 91
      512
 93
      249
310
90D312F3422203D2031272D302200000000000000340FC000000000000284040
 94
        0
1001
ACAD
1000
AcadProxyRoundTripData
1071
      507
1071
   851991
1070
     0
  0
ACAD_PROXY_OBJECT
  5
84F
102
{ACAD_REACTORS
330
835
102
}
330
835
100
AcDbProxyObject
 90
      499
 91
      512
 93
      249
310
90D332F3822203D2031272D302200000000000000360FC000000000000284040
 94
        0
1001
ACAD
1000
AcadProxyRoundTripData
1071
      507
1071
   851991
1070
     0
  0
ACAD_PROXY_OBJECT
  5
850
102
{ACAD_REACTORS
330
835
102
}
330
835
100
AcDbProxyObject
 90
      499
 91
      512
 93
      249
310
90D312F3222203D2031272D302200000000000000380FC000000000000284040
 94
        0
1001
ACAD
1000
AcadProxyRoundTripData
1071
      507
1071
   851991
1070
     0
  0
ACAD_PROXY_OBJECT
  5
851
102
{ACAD_REACTORS
330
835
102
}
330
835
100
AcDbProxyObject
 90
      499
 91
      512
 93
      249
310
90D332F3422203D2031272D3022000000000000003A0FC000000000000284040
 94
        0
1001
ACAD
1000
AcadProxyRoundTripData
1071
      507
1071
   851991
1070
     0
  0
ACAD_PROXY_OBJECT
  5
852
102
{ACAD_REACTORS
330
835
102
}
330
835
100
AcDbProxyObject
 90
      499
 91
      512
 93
      169
310
90B3122203D2031272D3022004000000000000284020
 94
        0
1001
ACAD
1000
AcadProxyRoundTripData
1071
      507
1071
   851991
1070
     0
  0
ACAD_PROXY_OBJECT
  5
853
102
{ACAD_REACTORS
330
835
102
}
330
835
100
AcDbProxyObject
 90
      499
 91
      512
 93
      265
310
90F312D312F3222203D2031272D3022000000000000003E0FC00000000000028402B
 94
        0
1001
ACAD
1000
AcadProxyRoundTripData
1071
      507
1071
   851991
1070
     0
  0
ACAD_PROXY_OBJECT
  5
854
102
{ACAD_REACTORS
330
835
102
}
330
835
100
AcDbProxyObject
 90
      499
 91
      512
 93
      233
310
90B3322203D2031272D30220000000000000002100000000000000284000
 94
        0
1001
ACAD
1000
AcadProxyRoundTripData
1071
      507
1071
   851991
1070
     0
  0
ACAD_PROXY_OBJECT
  5
855
102
{ACAD_REACTORS
330
835
102
}
330
835
100
AcDbProxyObject
 90
      499
 91
      512
 93
      233
310
90B3622203D2031272D30220000000000000006100000000000000284000
 94
        0
1001
ACAD
1000
AcadProxyRoundTripData
1071
      507
1071
   851991
1070
     0
  0
ACAD_PROXY_OBJECT
  5
856
102
{ACAD_REACTORS
330
835
102
}
330
835
100
AcDbProxyObject
 90
      499
 91
      512
 93
      257
310
90E31272D3022203D2031272D3022000000000000000A100000000000000284040
 94
        0
1001
ACAD
1000
AcadProxyRoundTripData
1071
      507
1071
   851991
1070
     0
  0
ACAD_PROXY_OBJECT
  5
834
102
{ACAD_XDICTIONARY
360
88C
102
}
102
{ACAD_REACTORS
330
833
102
}
330
833
100
AcDbProxyObject
 90
      499
 91
      512
 93
     1849
310
4254DD185B99185C990028B81E85EB51B8AE3F2E07A17AD46E2B8FC02B5E8DC0F42B1CFD028000000C1008070000C3001FDFF8000000C1003FBFF000000182007F7FE00000030400FEFFC00000060801FDFF8000000C1003FBFF00000018200000000000000681FA0B0000001820100E000186003FBFF000000182007F7FE0
310
0000030400FEFFC00000060801FDFF8000000C1003FBFF000000182007F7FE000000304000AD7A3703D0AC73F4160000003040201C00030C007F7FE00000030400FEFFC00000060801FDFF8000000C1003FBFF000000182007F7FE00000030400FEFFC000000608069
340
16
340
16
340
16
 94
        0
1001
ACAD
1000
AcadProxyRoundTripData
1071
      506
1071
   851991
1070
     0
  0
ACAD_PROXY_OBJECT
  5
827
102
{ACAD_REACTORS
330
821
102
}
330
821
100
AcDbProxyObject
 90
      499
 91
      512
 93
      444
310
430C9915DA5C99599C985B59401049028333333333333E3BF0000000000000FB0107901411070040501600405405064090741402480A0340
 94
        0
1001
ACAD
1000
AcDbSavedByObjectVersion
1070
     0
1000
AcadProxyRoundTripData
1071
      505
1071
   851991
1070
     0
  0
ACAD_PROXY_OBJECT
  5
829
102
{ACAD_REACTORS
330
821
102
}
330
821
100
AcDbProxyObject
 90
      499
 91
      512
 93
      508
310
428CD108121A5919195B8010640502408333333333333E3BF0000000000000FB01079024090700405020000000000001110200405405064090740C02480A0340
 94
        0
1001
ACAD
1000
AcDbSavedByObjectVersion
1070
     0
1000
AcadProxyRoundTripData
1071
      505
1071
   851991
1070
     0
  0
ACAD_PROXY_OBJECT
  5
828
102
{ACAD_REACTORS
330
821
102
}
330
821
100
AcDbProxyObject
 90
      499
 91
      512
 93
      444
310
430CD915DA5C99599C985B59401059028333333333333E3BF0000000000000FB0107901411070040501600405405064090741402480A0340
 94
        0
1001
ACAD
1000
AcDbSavedByObjectVersion
1070
     0
1000
AcadProxyRoundTripData
1071
      505
1071
   851991
1070
     0
  0
ACAD_PROXY_OBJECT
  5
826
102
{ACAD_REACTORS
330
821
102
}
330
821
100
AcDbProxyObject
 90
      499
 91
      512
 93
      396
310
4190985CDA58C0107406404333333333333E3BF0000000000000FB0107A41107004050150841D405064090741402480A0356
 94
        0
1001
ACAD
1000
AcDbSavedByObjectVersion
1070
     0
1000
AcadProxyRoundTripData
1071
      505
1071
   851991
1070
     0
  0
ACAD_PROXY_OBJECT
  5
82D
102
{ACAD_REACTORS
330
821
102
}
330
821
100
AcDbProxyObject
 90
      499
 91
      512
 93
      436
310
42509C9A59DA1D195B8010C409028333333333333E3BF0000000000000FB010790141107004050150841D405064090741402480A029956
 94
        0
1001
ACAD
1000
AcDbSavedByObjectVersion
1070
     0
1000
AcadProxyRoundTripData
1071
      505
1071
   851991
1070
     0
  0
ACAD_PROXY_OBJECT
  5
831
102
{ACAD_REACTORS
330
821
102
}
330
821
100
AcDbProxyObject
 90
      499
 91
      512
 93
      460
310
4310DBDB1BDC90DA185B99D9401104090240C333333333333E3BF0000000000000FB0108901411070040501508421405064090741402480A0354
 94
        0
1001
ACAD
1000
AcDbSavedByObjectVersion
1070
     0
1000
AcadProxyRoundTripData
1071
      505
1071
   851991
1070
     0
  0
ACAD_PROXY_OBJECT
  5
82A
102
{ACAD_REACTORS
330
821
102
}
330
821
100
AcDbProxyObject
 90
      499
 91
      512
 93
      508
310
42D0DBDB98D95C1D1D585B0010940D028333333333333E3BF0000000000000FB0107902409070040501000000000000111010841D405064090740C02480A0340
 94
        0
1001
ACAD
1000
AcDbSavedByObjectVersion
1070
     0
1000
AcadProxyRoundTripData
1071
      505
1071
   851991
1070
     0
  0
ACAD_PROXY_OBJECT
  5
82C
102
{ACAD_REACTORS
330
821
102
}
330
821
100
AcDbProxyObject
 90
      499
 91
      512
 93
      420
310
41111A5B4010B409028333333333333E3BF0000000000000FB010790141107004050150841D405064090741402480A02677FFFFFDB
 94
        0
1001
ACAD
1000
AcDbSavedByObjectVersion
1070
     0
1000
AcadProxyRoundTripData
1071
      505
1071
   851991
1070
     0
  0
ACAD_PROXY_OBJECT
  5
830
102
{ACAD_REACTORS
330
821
102
}
330
821
100
AcDbProxyObject
 90
      499
 91
      512
 93
      452
310
43119858D95C185D1D195C9B8010F409028333333333333E3BF0000000000000FB010790141107004050150841D405064090741402480A0350
 94
        0
1001
ACAD
1000
AcDbSavedByObjectVersion
1070
     0
1000
AcadProxyRoundTripData
1071
      505
1071
   851991
1070
     0
  0
ACAD_PROXY_OBJECT
  5
822
102
{ACAD_REACTORS
330
821
102
}
330
821
100
AcDbProxyObject
 90
      499
 91
      512
 93
      396
310
41519B185D00240901404333333333333E3BF0000000000000F9010740A41107004050150841D405064090741402480A1B55
 94
        0
1001
ACAD
1000
AcDbSavedByObjectVersion
1070
     0
1000
AcadProxyRoundTripData
1071
      505
1071
   851991
1070
     0
  0
ACAD_PROXY_OBJECT
  5
823
102
{ACAD_REACTORS
330
821
102
}
330
821
100
AcDbProxyObject
 90
      499
 91
      512
 93
      484
310
43919B185D15DA5D1A115919D95CC010140901404333333333333E3BF0000000000000F9010740901411070040501600405405064090741402480A1B50
 94
        0
1001
ACAD
1000
AcDbSavedByObjectVersion
1070
     0
1000
AcadProxyRoundTripData
1071
      505
1071
   851991
1070
     0
  0
ACAD_PROXY_OBJECT
  5
824
102
{ACAD_REACTORS
330
821
102
}
330
821
100
AcDbProxyObject
 90
      499
 91
      512
 93
      420
310
4211DBDD5C985D590010240902404333333333333E3BF0000000000000F9010740A411070040501641D405064090741402480A1B50
 94
        0
1001
ACAD
1000
AcDbSavedByObjectVersion
1070
     0
1000
AcadProxyRoundTripData
1071
      505
1071
   851991
1070
     0
  0
ACAD_PROXY_OBJECT
  5
825
102
{ACAD_REACTORS
330
821
102
}
330
821
100
AcDbProxyObject
 90
      499
 91
      512
 93
      508
310
4451DBDD5C985D5915DA5D1A115919D95CC010340902404333333333333E3BF0000000000000F9010740901411070040501600405405064090741402480A1B50
 94
        0
1001
ACAD
1000
AcDbSavedByObjectVersion
1070
     0
1000
AcadProxyRoundTripData
1071
      505
1071
   851991
1070
     0
  0
ACAD_PROXY_OBJECT
  5
82F
102
{ACAD_REACTORS
330
821
102
}
330
821
100
AcDbProxyObject
 90
      499
 91
      512
 93
      452
310
43131A5B995C185D1D195C9B8010E409028333333333333E3BF0000000000000FB010790141107004050750841D405064090741402483A0350
 94
        0
1001
ACAD
1000
AcDbSavedByObjectVersion
1070
     0
1000
AcadProxyRoundTripData
1071
      505
1071
   851991
1070
     0
  0
ACAD_PROXY_OBJECT
  5
82B
102
{ACAD_REACTORS
330
821
102
}
330
821
100
AcDbProxyObject
 90
      499
 91
      512
 93
      428
310
429499585B1A5CDD1A58C0108409028333333333333E3BF0000000000000FB01079019070040501508421405064090741402480A1B45
 94
        0
1001
ACAD
1000
AcDbSavedByObjectVersion
1070
     0
1000
AcadProxyRoundTripData
1071
      505
1071
   851991
1070
     0
  0
ACAD_PROXY_OBJECT
  5
82E
102
{ACAD_REACTORS
330
821
102
}
330
821
100
AcDbProxyObject
 90
      499
 91
      512
 93
      420
310
42151A1A58DAD95B8010D409028333333333333E3BF0000000000000FB010790141107004050150C41D405064090741402480A0352
 94
        0
1001
ACAD
1000
AcDbSavedByObjectVersion
1070
     0
1000
AcadProxyRoundTripData
1071
      505
1071
   851991
1070
     0
  0
XRECORD
  5
299A
102
{ACAD_REACTORS
330
2990
102
}
330
2990
100
AcDbXrecord
 90
        0
  0
XRECORD
  5
299E
102
{ACAD_REACTORS
330
2990
102
}
330
2990
100
AcDbXrecord
1000
DSTYLE
1002
{
1070
   179
 70
     2
1070
   277
 70
     6
1002
}
  0
XRECORD
  5
299B
102
{ACAD_REACTORS
330
2990
102
}
330
2990
100
AcDbXrecord
  1
{2B619D65-6486-4694-9735-88ECB2045D11}
  0
XRECORD
  5
2993
102
{ACAD_REACTORS
330
2990
102
}
330
2990
100
AcDbXrecord
  1

  0
XRECORD
  5
2999
102
{ACAD_REACTORS
330
2990
102
}
330
2990
100
AcDbXrecord
 90
        0
  0
XRECORD
  5
2995
102
{ACAD_REACTORS
330
2990
102
}
330
2990
100
AcDbXrecord
340
61
  0
XRECORD
  5
2998
102
{ACAD_REACTORS
330
2990
102
}
330
2990
100
AcDbXrecord
 90
    10781
  0
XRECORD
  5
2996
102
{ACAD_REACTORS
330
2990
102
}
330
2990
100
AcDbXrecord
340
77
  0
XRECORD
  5
2997
102
{ACAD_REACTORS
330
2990
102
}
330
2990
100
AcDbXrecord
340
6
  0
XRECORD
  5
299D
102
{ACAD_REACTORS
330
2990
102
}
330
2990
100
AcDbXrecord
 40
0.0
  0
XRECORD
  5
29A1
102
{ACAD_REACTORS
330
2990
102
}
330
2990
100
AcDbXrecord
340
0
  0
XRECORD
  5
29A7
102
{ACAD_REACTORS
330
2990
102
}
330
2990
100
AcDbXrecord
 10
0.0
 20
0.0
 30
0.0
  0
XRECORD
  5
29A3
102
{ACAD_REACTORS
330
2990
102
}
330
2990
100
AcDbXrecord
 10
0.0
 20
0.0
 30
0.0
  0
XRECORD
  5
29A6
102
{ACAD_REACTORS
330
2990
102
}
330
2990
100
AcDbXrecord
 10
0.0
 20
0.0
 30
0.0
  0
XRECORD
  5
29A4
102
{ACAD_REACTORS
330
2990
102
}
330
2990
100
AcDbXrecord
 10
0.0
 20
0.0
 30
0.0
  0
XRECORD
  5
29A5
102
{ACAD_REACTORS
330
2990
102
}
330
2990
100
AcDbXrecord
 10
0.0
 20
0.0
 30
0.0
  0
XRECORD
  5
29A2
102
{ACAD_REACTORS
330
2990
102
}
330
2990
100
AcDbXrecord
 10
0.0
 20
0.0
 30
0.0
  0
XRECORD
  5
299F
102
{ACAD_REACTORS
330
2990
102
}
330
2990
100
AcDbXrecord
340
0
  0
XRECORD
  5
29A0
102
{ACAD_REACTORS
330
2990
102
}
330
2990
100
AcDbXrecord
 70
     0
  0
XRECORD
  5
2994
102
{ACAD_REACTORS
330
2990
102
}
330
2990
100
AcDbXrecord
  1
Sekkei.ctb
  0
XRECORD
  5
2991
102
{ACAD_REACTORS
330
2990
102
}
330
2990
100
AcDbXrecord
 90
        1
  0
XRECORD
  5
2992
102
{ACAD_REACTORS
330
2990
102
}
330
2990
100
AcDbXrecord
 90
       70
  0
XRECORD
  5
29AA
102
{ACAD_REACTORS
330
2990
102
}
330
2990
100
AcDbXrecord
340
0
  0
XRECORD
  5
29B0
102
{ACAD_REACTORS
330
2990
102
}
330
2990
100
AcDbXrecord
 10
0.0
 20
0.0
 30
0.0
  0
XRECORD
  5
29AC
102
{ACAD_REACTORS
330
2990
102
}
330
2990
100
AcDbXrecord
 10
0.0
 20
0.0
 30
0.0
  0
XRECORD
  5
29AF
102
{ACAD_REACTORS
330
2990
102
}
330
2990
100
AcDbXrecord
 10
0.0
 20
0.0
 30
0.0
  0
XRECORD
  5
29AD
102
{ACAD_REACTORS
330
2990
102
}
330
2990
100
AcDbXrecord
 10
0.0
 20
0.0
 30
0.0
  0
XRECORD
  5
29AE
102
{ACAD_REACTORS
330
2990
102
}
330
2990
100
AcDbXrecord
 10
0.0
 20
0.0
 30
0.0
  0
XRECORD
  5
29AB
102
{ACAD_REACTORS
330
2990
102
}
330
2990
100
AcDbXrecord
 10
0.0
 20
0.0
 30
0.0
  0
XRECORD
  5
29A8
102
{ACAD_REACTORS
330
2990
102
}
330
2990
100
AcDbXrecord
340
0
  0
XRECORD
  5
29A9
102
{ACAD_REACTORS
330
2990
102
}
330
2990
100
AcDbXrecord
 70
     0
  0
XRECORD
  5
299C
102
{ACAD_REACTORS
330
2990
102
}
330
2990
100
AcDbXrecord
  1
{04A96DFD-5771-4333-9E64-FDB3B2C02357}
  0
DICTIONARYVAR
  5
892
102
{ACAD_REACTORS
330
102
102
}
330
102
100
DictionaryVariables
280
     0
  1
1:1
  0
DICTIONARYVAR
  5
890
102
{ACAD_REACTORS
330
102
102
}
330
102
100
DictionaryVariables
280
     0
  1
STANDARD
  0
DICTIONARYVAR
  5
88F
102
{ACAD_REACTORS
330
102
102
}
330
102
100
DictionaryVariables
280
     0
  1
STANDARD
  0
DICTIONARYVAR
  5
103
102
{ACAD_REACTORS
330
102
102
}
330
102
100
DictionaryVariables
280
     0
  1
1
  0
DICTIONARYVAR
  5
1AB6
102
{ACAD_REACTORS
330
102
102
}
330
102
100
DictionaryVariables
280
     0
  1
0
  0
DICTIONARYVAR
  5
893
102
{ACAD_REACTORS
330
102
102
}
330
102
100
DictionaryVariables
280
     0
  1
0
  0
DICTIONARYVAR
  5
891
102
{ACAD_REACTORS
330
102
102
}
330
102
100
DictionaryVariables
280
     0
  1
0
  0
DICTIONARYVAR
  5
549
102
{ACAD_REACTORS
330
102
102
}
330
102
100
DictionaryVariables
280
     0
  1
96
  0
DICTIONARY
  5
812
330
811
100
AcDbDictionary
280
     1
  3
ACAD_XREC_ROUNDTRIP
360
296E
  3
BUMPTILE
360
814
  3
DIFFUSETILE
360
813
  3
OPACITYTILE
360
817
  3
REFLECTIONTILE
360
816
  3
REFRACTIONTILE
360
818
  3
SPECULARTILE
360
815
  0
DICTIONARY
  5
80A
330
809
100
AcDbDictionary
280
     1
  3
ACAD_XREC_ROUNDTRIP
360
296D
  3
BUMPTILE
360
80C
  3
DIFFUSETILE
360
80B
  3
OPACITYTILE
360
80F
  3
REFLECTIONTILE
360
80E
  3
REFRACTIONTILE
360
810
  3
SPECULARTILE
360
80D
  0
DICTIONARY
  5
81A
330
819
100
AcDbDictionary
280
     1
  3
ACAD_XREC_ROUNDTRIP
360
296F
  3
BUMPTILE
360
81C
  3
DIFFUSETILE
360
81B
  3
OPACITYTILE
360
81F
  3
REFLECTIONTILE
360
81E
  3
REFRACTIONTILE
360
820
  3
SPECULARTILE
360
81D
  0
DICTIONARY
  5
88C
330
834
100
AcDbDictionary
280
     1
  3
ACAD_ROUNDTRIP_2008_TABLES
360
2965
  3
ACAD_XREC_ROUNDTRIP
360
2970
  0
XRECORD
  5
296E
102
{ACAD_REACTORS
330
812
102
}
330
812
100
AcDbXrecord
102
MATERIAL
148
0.0
149
0.0
149
0.0
 93
        0
 94
      127
282
     0
 72
     0
 77
     0
171
     0
175
     0
179
     0
273
     0
  0
XRECORD
  5
814
102
{ACAD_REACTORS
330
812
102
}
330
812
100
AcDbXrecord
270
     1
271
     1
  0
XRECORD
  5
813
102
{ACAD_REACTORS
330
812
102
}
330
812
100
AcDbXrecord
270
     1
271
     1
  0
XRECORD
  5
817
102
{ACAD_REACTORS
330
812
102
}
330
812
100
AcDbXrecord
270
     1
271
     1
  0
XRECORD
  5
816
102
{ACAD_REACTORS
330
812
102
}
330
812
100
AcDbXrecord
270
     1
271
     1
  0
XRECORD
  5
818
102
{ACAD_REACTORS
330
812
102
}
330
812
100
AcDbXrecord
270
     1
271
     1
  0
XRECORD
  5
815
102
{ACAD_REACTORS
330
812
102
}
330
812
100
AcDbXrecord
270
     1
271
     1
  0
XRECORD
  5
296D
102
{ACAD_REACTORS
330
80A
102
}
330
80A
100
AcDbXrecord
102
MATERIAL
148
0.0
149
0.0
149
0.0
 93
        0
 94
      127
282
     0
 72
     0
 77
     0
171
     0
175
     0
179
     0
273
     0
  0
XRECORD
  5
80C
102
{ACAD_REACTORS
330
80A
102
}
330
80A
100
AcDbXrecord
270
     1
271
     1
  0
XRECORD
  5
80B
102
{ACAD_REACTORS
330
80A
102
}
330
80A
100
AcDbXrecord
270
     1
271
     1
  0
XRECORD
  5
80F
102
{ACAD_REACTORS
330
80A
102
}
330
80A
100
AcDbXrecord
270
     1
271
     1
  0
XRECORD
  5
80E
102
{ACAD_REACTORS
330
80A
102
}
330
80A
100
AcDbXrecord
270
     1
271
     1
  0
XRECORD
  5
810
102
{ACAD_REACTORS
330
80A
102
}
330
80A
100
AcDbXrecord
270
     1
271
     1
  0
XRECORD
  5
80D
102
{ACAD_REACTORS
330
80A
102
}
330
80A
100
AcDbXrecord
270
     1
271
     1
  0
XRECORD
  5
296F
102
{ACAD_REACTORS
330
81A
102
}
330
81A
100
AcDbXrecord
102
MATERIAL
148
0.0
149
0.0
149
0.0
 93
        0
 94
      127
282
     0
 72
     0
 77
     0
171
     0
175
     0
179
     0
273
     0
  0
XRECORD
  5
81C
102
{ACAD_REACTORS
330
81A
102
}
330
81A
100
AcDbXrecord
270
     1
271
     1
  0
XRECORD
  5
81B
102
{ACAD_REACTORS
330
81A
102
}
330
81A
100
AcDbXrecord
270
     1
271
     1
  0
XRECORD
  5
81F
102
{ACAD_REACTORS
330
81A
102
}
330
81A
100
AcDbXrecord
270
     1
271
     1
  0
XRECORD
  5
81E
102
{ACAD_REACTORS
330
81A
102
}
330
81A
100
AcDbXrecord
270
     1
271
     1
  0
XRECORD
  5
820
102
{ACAD_REACTORS
330
81A
102
}
330
81A
100
AcDbXrecord
270
     1
271
     1
  0
XRECORD
  5
81D
102
{ACAD_REACTORS
330
81A
102
}
330
81A
100
AcDbXrecord
270
     1
271
     1
  0
ACAD_PROXY_OBJECT
  5
2965
102
{ACAD_REACTORS
330
88C
102
}
330
88C
100
AcDbProxyObject
 90
      499
 91
      512
 93
     1044
310
40D054060020000020000003200101A000080002A5058000000C100000000000000340FE901405075F5449544C450041501A8000000C800406800020000A9416000000304000AD7A3703D0AC73FA409014217D2115051115480105406A0000003200101A000080002A5028000000C10002B5E8DC0F42B1CFE903409065F444
310
15441003
340
16
340
16
340
16
 94
        0
1001
ACAD
1000
AcadProxyRoundTripData
1071
      510
1071
   851991
1070
     0
  0
XRECORD
  5
2970
102
{ACAD_REACTORS
330
88C
102
}
330
88C
100
AcDbXrecord
102
ACAD_ROUNDTRIP_PRE2007_TABLESTYLE
 90
      512
 91
        0
  1

 92
      512
 93
        0
  2

 94
      512
 95
        0
  3

  0
ENDSEC
  0
EOF
