  0
SECTION
  2
HEADER
  9
$ACADVER
  1
AC1014
  9
$ACADMAINTVER
 70
     9
  9
$DWGCODEPAGE
  3
ANSI_932
  9
$INSBASE
 10
0.0
 20
0.0
 30
0.0
  9
$EXTMIN
 10
39.64010180670721
 20
76.36043815536481
 30
0.0
  9
$EXTMAX
 10
1057.094567486172
 20
720.792796740008
 30
0.0
  9
$LIMMIN
 10
0.0
 20
0.0
  9
$LIMMAX
 10
297.0
 20
210.0
  9
$ORTHOMODE
 70
     1
  9
$REGENMODE
 70
     1
  9
$FILLMODE
 70
     1
  9
$QTEXTMODE
 70
     0
  9
$MIRRTEXT
 70
     0
  9
$DRAGMODE
 70
     2
  9
$LTSCALE
 40
3.0
  9
$OSMODE
 70
    37
  9
$ATTMODE
 70
     1
  9
$TEXTSIZE
 40
2.0
  9
$TRACEWID
 40
1.0
  9
$TEXTSTYLE
  7
STANDARD
  9
$CLAYER
  8
0
  9
$CELTYPE
  6
BYLAYER
  9
$CECOLOR
 62
   256
  9
$CELTSCALE
 40
1.0
  9
$DELOBJ
 70
     1
  9
$DISPSILH
 70
     0
  9
$DIMSCALE
 40
3.0
  9
$DIMASZ
 40
1.8
  9
$DIMEXO
 40
0.625
  9
$DIMDLI
 40
3.75
  9
$DIMRND
 40
0.0
  9
$DIMDLE
 40
0.0
  9
$DIMEXE
 40
0.8
  9
$DIMTP
 40
0.0
  9
$DIMTM
 40
0.0
  9
$DIMTXT
 40
1.8
  9
$DIMCEN
 40
2.5
  9
$DIMTSZ
 40
0.0
  9
$DIMTOL
 70
     0
  9
$DIMLIM
 70
     0
  9
$DIMTIH
 70
     0
  9
$DIMTOH
 70
     0
  9
$DIMSE1
 70
     0
  9
$DIMSE2
 70
     0
  9
$DIMTAD
 70
     1
  9
$DIMZIN
 70
     8
  9
$DIMBLK
  1

  9
$DIMASO
 70
     1
  9
$DIMSHO
 70
     1
  9
$DIMPOST
  1

  9
$DIMAPOST
  1

  9
$DIMALT
 70
     0
  9
$DIMALTD
 70
     4
  9
$DIMALTF
 40
0.0394
  9
$DIMLFAC
 40
1.0
  9
$DIMTOFL
 70
     1
  9
$DIMTVP
 40
0.0
  9
$DIMTIX
 70
     0
  9
$DIMSOXD
 70
     0
  9
$DIMSAH
 70
     0
  9
$DIMBLK1
  1

  9
$DIMBLK2
  1

  9
$DIMSTYLE
  2
STANDARD
  9
$DIMCLRD
 70
     0
  9
$DIMCLRE
 70
     0
  9
$DIMCLRT
 70
     0
  9
$DIMTFAC
 40
1.0
  9
$DIMGAP
 40
0.75
  9
$DIMJUST
 70
     0
  9
$DIMSD1
 70
     0
  9
$DIMSD2
 70
     0
  9
$DIMTOLJ
 70
     1
  9
$DIMTZIN
 70
     0
  9
$DIMALTZ
 70
     0
  9
$DIMALTTZ
 70
     0
  9
$DIMFIT
 70
     3
  9
$DIMUPT
 70
     0
  9
$DIMUNIT
 70
     8
  9
$DIMDEC
 70
     2
  9
$DIMTDEC
 70
     2
  9
$DIMALTU
 70
     8
  9
$DIMALTTD
 70
     4
  9
$DIMTXSTY
  7
STANDARD
  9
$DIMAUNIT
 70
     0
  9
$LUNITS
 70
     2
  9
$LUPREC
 70
     3
  9
$SKETCHINC
 40
1.0
  9
$FILLETRAD
 40
2.0
  9
$AUNITS
 70
     0
  9
$AUPREC
 70
     2
  9
$MENU
  1
.
  9
$ELEVATION
 40
0.0
  9
$PELEVATION
 40
0.0
  9
$THICKNESS
 40
0.0
  9
$LIMCHECK
 70
     0
  9
$BLIPMODE
 70
     0
  9
$CHAMFERA
 40
0.0
  9
$CHAMFERB
 40
0.0
  9
$CHAMFERC
 40
20.0
  9
$CHAMFERD
 40
0.0
  9
$SKPOLY
 70
     0
  9
$TDCREATE
 40
2454412.674533414
  9
$TDUPDATE
 40
2454424.600116273
  9
$TDINDWG
 40
0.0037378819
  9
$TDUSRTIMER
 40
0.0037376968
  9
$USRTIMER
 70
     1
  9
$ANGBASE
 50
0.0
  9
$ANGDIR
 70
     0
  9
$PDMODE
 70
     0
  9
$PDSIZE
 40
-10.0
  9
$PLINEWID
 40
0.0
  9
$COORDS
 70
     0
  9
$SPLFRAME
 70
     0
  9
$SPLINETYPE
 70
     6
  9
$SPLINESEGS
 70
     8
  9
$ATTDIA
 70
     0
  9
$ATTREQ
 70
     1
  9
$HANDLING
 70
-16383
  9
$HANDSEED
  5
1ABC
  9
$SURFTAB1
 70
     6
  9
$SURFTAB2
 70
     6
  9
$SURFTYPE
 70
     6
  9
$SURFU
 70
     6
  9
$SURFV
 70
     6
  9
$UCSNAME
  2

  9
$UCSORG
 10
0.0
 20
0.0
 30
0.0
  9
$UCSXDIR
 10
1.0
 20
0.0
 30
0.0
  9
$UCSYDIR
 10
0.0
 20
1.0
 30
0.0
  9
$PUCSNAME
  2

  9
$PUCSORG
 10
0.0
 20
0.0
 30
0.0
  9
$PUCSXDIR
 10
1.0
 20
0.0
 30
0.0
  9
$PUCSYDIR
 10
0.0
 20
1.0
 30
0.0
  9
$USERI1
 70
     0
  9
$USERI2
 70
     0
  9
$USERI3
 70
     0
  9
$USERI4
 70
     0
  9
$USERI5
 70
     0
  9
$USERR1
 40
0.0
  9
$USERR2
 40
0.0
  9
$USERR3
 40
0.0
  9
$USERR4
 40
0.0
  9
$USERR5
 40
0.0
  9
$WORLDVIEW
 70
     1
  9
$SHADEDGE
 70
     3
  9
$SHADEDIF
 70
    70
  9
$TILEMODE
 70
     1
  9
$MAXACTVP
 70
    48
  9
$PINSBASE
 10
0.0
 20
0.0
 30
0.0
  9
$PLIMCHECK
 70
     0
  9
$PEXTMIN
 10
0.0
 20
0.0
 30
0.0
  9
$PEXTMAX
 10
0.0
 20
0.0
 30
0.0
  9
$PLIMMIN
 10
0.0
 20
0.0
  9
$PLIMMAX
 10
12.0
 20
9.0
  9
$UNITMODE
 70
     0
  9
$VISRETAIN
 70
     1
  9
$PLINEGEN
 70
     0
  9
$PSLTSCALE
 70
     1
  9
$TREEDEPTH
 70
  3020
  9
$PICKSTYLE
 70
     1
  9
$CMLSTYLE
  2
STANDARD
  9
$CMLJUST
 70
     0
  9
$CMLSCALE
 40
1.0
  9
$PROXYGRAPHICS
 70
     1
  9
$MEASUREMENT
 70
     0
  0
ENDSEC
  0
SECTION
  2
CLASSES
  0
CLASS
  1
DICTIONARYVAR
  2
AcDbDictionaryVar
  3
AutoCAD 2000
 90
        0
280
     0
281
     0
  0
CLASS
  1
ACDBDICTIONARYWDFLT
  2
AcDbDictionaryWithDefault
  3
AutoCAD 2000
 90
        0
280
     0
281
     0
  0
CLASS
  1
ACDBPLACEHOLDER
  2
AcDbPlaceHolder
  3
AutoCAD 2000
 90
        0
280
     0
281
     0
  0
CLASS
  1
LAYOUT
  2
AcDbLayout
  3
AutoCAD 2000
 90
        0
280
     0
281
     0
  0
CLASS
  1
LONG_TRANSACTION
  2
AcDbLongTransaction
  3
AutoCAD 2000
 90
        0
280
     0
281
     0
  0
CLASS
  1
LWPOLYLINE
  2
AcDbPolyline
  3
AutoCAD 2000
 90
        0
280
     0
281
     1
  0
CLASS
  1
HATCH
  2
AcDbHatch
  3
AutoCAD 2000
 90
        0
280
     0
281
     1
  0
CLASS
  1
XRECORD
  2
AcDbXrecord
  3
AutoCAD 2000
 90
        0
280
     0
281
     0
  0
ENDSEC
  0
SECTION
  2
TABLES
  0
TABLE
  2
VPORT
  5
6E
330
0
100
AcDbSymbolTable
 70
     2
  0
VPORT
  5
1A96
330
6E
100
AcDbSymbolTableRecord
100
AcDbViewportTableRecord
  2
*ACTIVE
 70
     0
 10
0.0
 20
0.0
 11
1.0
 21
1.0
 12
620.5449660879792
 22
382.8998654082416
 13
0.0
 23
0.0
 14
10.0
 24
10.0
 15
10.0
 25
10.0
 16
0.0
 26
0.0
 36
1.0
 17
0.0
 27
0.0
 37
0.0
 40
681.1404076650756
 41
1.753504672897196
 42
50.0
 43
0.0
 44
0.0
 50
0.0
 51
0.0
 71
     0
 72
   100
 73
     1
 74
     3
 75
     0
 76
     0
 77
     0
 78
     0
  0
ENDTAB
  0
TABLE
  2
LTYPE
  5
69
330
0
100
AcDbSymbolTable
 70
     7
  0
LTYPE
  5
6A
330
69
100
AcDbSymbolTableRecord
100
AcDbLinetypeTableRecord
  2
BYBLOCK
 70
     0
  3

 72
    65
 73
     0
 40
0.0
  0
LTYPE
  5
6B
330
69
100
AcDbSymbolTableRecord
100
AcDbLinetypeTableRecord
  2
BYLAYER
 70
     0
  3

 72
    65
 73
     0
 40
0.0
  0
LTYPE
  5
8
330
69
100
AcDbSymbolTableRecord
100
AcDbLinetypeTableRecord
  2
CONTINUOUS
 70
     0
  3
Solid line
 72
    65
 73
     0
 40
0.0
  0
LTYPE
  5
27C
330
69
100
AcDbSymbolTableRecord
100
AcDbLinetypeTableRecord
  2
SEKKEI_A2_
 70
     0
  3
center(A2)  ____ _ ____ _ ____ _ ____ _ ____ _ 
 72
    65
 73
     4
 40
14.28749999999999
 49
9.525
 74
     0
 49
-1.587499999999999
 74
     0
 49
1.587499999999999
 74
     0
 49
-1.587499999999999
 74
     0
  0
LTYPE
  5
48F
330
69
100
AcDbSymbolTableRecord
100
AcDbLinetypeTableRecord
  2
SEKKEI_H
 70
     0
  3
Hidden-S _ _ _ _ _ _ _ _ _ _ _ _ _ _ _ _ _
 72
    65
 73
     2
 40
2.381249999999999
 49
1.587499999999999
 74
     0
 49
-0.79375
 74
     0
  0
LTYPE
  5
7EF
330
69
100
AcDbSymbolTableRecord
100
AcDbLinetypeTableRecord
  2
PHANTOM3
 70
     0
  3
Phantom  ___ _ _ ___ _ _ ___ _ _ ___ _ _
 72
    65
 73
     6
 40
9.0
 49
4.0
 74
     0
 49
-1.0
 74
     0
 49
1.0
 74
     0
 49
-1.0
 74
     0
 49
1.0
 74
     0
 49
-1.0
 74
     0
  0
LTYPE
  5
7F0
330
69
100
AcDbSymbolTableRecord
100
AcDbLinetypeTableRecord
  2
HIDDEN3
 70
     0
  3
Hidden (.3x) _ _ _ _ _ _ _ _ _ _ _ _ _ _ _ _ _
 72
    65
 73
     2
 40
2.857499999999999
 49
1.905
 74
     0
 49
-0.9525
 74
     0
  0
LTYPE
  5
B20
330
69
100
AcDbSymbolTableRecord
100
AcDbLinetypeTableRecord
  2
CENS
 70
     0
  3
(一点鎖線１)---- - ---- - ---- - ---- - ---- - 
 72
    65
 73
     4
 40
7.0
 49
4.0
 74
     0
 49
-1.0
 74
     0
 49
1.0
 74
     0
 49
-1.0
 74
     0
  0
ENDTAB
  0
TABLE
  2
LAYER
  5
66
102
{ACAD_XDICTIONARY
360
B21
102
}
330
0
100
AcDbSymbolTable
 70
    10
  0
LAYER
  5
5E
330
66
100
AcDbSymbolTableRecord
100
AcDbLayerTableRecord
  2
0
 70
     0
 62
     7
  6
CONTINUOUS
  0
LAYER
  5
3E
330
66
100
AcDbSymbolTableRecord
100
AcDbLayerTableRecord
  2
CENTER
 70
     0
 62
     3
  6
SEKKEI_A2_
  0
LAYER
  5
2B5
330
66
100
AcDbSymbolTableRecord
100
AcDbLayerTableRecord
  2
HIDS
 70
     0
 62
     1
  6
HIDDEN3
  0
LAYER
  5
2BA
330
66
100
AcDbSymbolTableRecord
100
AcDbLayerTableRecord
  2
HOJO
 70
     0
 62
     4
  6
CONTINUOUS
  0
LAYER
  5
3FA
330
66
100
AcDbSymbolTableRecord
100
AcDbLayerTableRecord
  2
TITLE
 70
     0
 62
     4
  6
CONTINUOUS
  0
LAYER
  5
478
330
66
100
AcDbSymbolTableRecord
100
AcDbLayerTableRecord
  2
PHAS
 70
     0
 62
     2
  6
PHANTOM3
  0
ENDTAB
  0
TABLE
  2
STYLE
  5
67
330
0
100
AcDbSymbolTable
 70
     2
  0
STYLE
  5
16
330
67
100
AcDbSymbolTableRecord
100
AcDbTextStyleTableRecord
  2
STANDARD
 70
     0
 40
0.0
 41
1.0
 50
0.0
 71
     0
 42
2.0
  3
simplex.shx
  4
extfont.shx
  0
ENDTAB
  0
TABLE
  2
VIEW
  5
6C
330
0
100
AcDbSymbolTable
 70
     0
  0
ENDTAB
  0
TABLE
  2
UCS
  5
6D
330
0
100
AcDbSymbolTable
 70
     0
  0
ENDTAB
  0
TABLE
  2
APPID
  5
70
330
0
100
AcDbSymbolTable
 70
     1
  0
APPID
  5
71
330
70
100
AcDbSymbolTableRecord
100
AcDbRegAppTableRecord
  2
ACAD
 70
     0
  0
ENDTAB
  0
TABLE
  2
DIMSTYLE
  5
72
330
0
100
AcDbSymbolTable
 70
     1
  0
DIMSTYLE
105
73
330
72
100
AcDbSymbolTableRecord
100
AcDbDimStyleTableRecord
  2
STANDARD
 70
     0
  3

  4

  5

  6

  7

 40
3.0
 41
1.8
 42
0.625
 43
3.75
 44
0.8
 45
0.0
 46
0.0
 47
0.0
 48
0.0
140
1.8
141
2.5
142
0.0
143
0.0394
144
1.0
145
0.0
146
1.0
147
0.75
 71
     0
 72
     0
 73
     0
 74
     0
 75
     0
 76
     0
 77
     1
 78
     8
170
     0
171
     4
172
     1
173
     0
174
     0
175
     0
176
     0
177
     0
178
     0
270
     8
271
     2
272
     2
273
     8
274
     4
340
16
275
     0
280
     0
281
     0
282
     0
283
     1
284
     0
285
     0
286
     0
287
     3
288
     0
  0
ENDTAB
  0
TABLE
  2
BLOCK_RECORD
  5
1
330
0
100
AcDbSymbolTable
 70
    56
  0
BLOCK_RECORD
  5
2
102
{ACAD_XDICTIONARY
360
1AB8
102
}
330
1
100
AcDbSymbolTableRecord
100
AcDbBlockTableRecord
  2
*MODEL_SPACE
  0
BLOCK_RECORD
  5
1A91
102
{ACAD_XDICTIONARY
360
1ABA
102
}
330
1
100
AcDbSymbolTableRecord
100
AcDbBlockTableRecord
  2
*PAPER_SPACE
  0
ENDTAB
  0
ENDSEC
  0
SECTION
  2
BLOCKS
  0
BLOCK
  5
5D
330
2
100
AcDbEntity
  8
0
100
AcDbBlockBegin
  2
*MODEL_SPACE
 70
     0
 10
0.0
 20
0.0
 30
0.0
  3
*MODEL_SPACE
  1

  0
ENDBLK
  5
5F
330
2
100
AcDbEntity
  8
0
100
AcDbBlockEnd
  0
BLOCK
  5
1A93
330
1A91
100
AcDbEntity
 67
     1
  8
0
100
AcDbBlockBegin
  2
*PAPER_SPACE
 70
     0
 10
0.0
 20
0.0
 30
0.0
  3
*PAPER_SPACE
  1

  0
ENDBLK
  5
1A94
330
1A91
100
AcDbEntity
 67
     1
  8
0
100
AcDbBlockEnd
  0
ENDSEC
  0
SECTION
  2
ENTITIES
  0
TEXT
  5
FDB
330
2
100
AcDbEntity
  8
TITLE
100
AcDbText
 10
341.2056422409843
 20
650.8480436601224
 30
0.0
 40
7.5
  1
AFCZ22S-40~60M200S2
100
AcDbText
  0
TEXT
  5
FDC
330
2
100
AcDbEntity
  8
TITLE
100
AcDbText
 10
341.2056422409843
 20
639.3480436601224
 30
0.0
 40
7.5
  1
AFCZ22S-40~60L200S2
100
AcDbText
  0
LINE
  5
FDE
330
2
100
AcDbEntity
  8
CENTER
100
AcDbLine
 10
277.4301018067089
 20
385.6838910209379
 30
0.0
 11
39.64010180670721
 21
385.6838910209379
 31
0.0
  0
LINE
  5
FDF
330
2
100
AcDbEntity
  8
CENTER
100
AcDbLine
 10
216.430101806709
 20
324.6838910209378
 30
0.0
 11
216.430101806709
 21
446.6838910209379
 31
0.0
  0
LINE
  5
FE0
330
2
100
AcDbEntity
  8
CENTER
100
AcDbLine
 10
631.166167948541
 20
574.7929037400078
 30
0.0
 11
631.166167948541
 21
720.792796740008
 31
0.0
  0
LINE
  5
FE1
330
2
100
AcDbEntity
  8
CENTER
100
AcDbLine
 10
631.1661679485419
 20
455.683891020937
 30
0.0
 11
631.1661679485419
 21
315.6838910209369
 31
0.0
  0
LINE
  5
FE2
330
2
100
AcDbEntity
  8
CENTER
100
AcDbLine
 10
684.7727696663419
 20
439.2904927387365
 30
0.0
 11
577.5595662307437
 21
332.0772893031392
 31
0.0
  0
LINE
  5
FE3
330
2
100
AcDbEntity
  8
CENTER
100
AcDbLine
 10
577.5595662307428
 20
439.2904927387345
 30
0.0
 11
684.7727696663391
 21
332.0772893031397
 31
0.0
  0
CIRCLE
  5
FE4
330
2
100
AcDbEntity
  8
CENTER
100
AcDbCircle
 10
631.166167948541
 20
385.6838910209369
 30
0.0
 40
60.0
  0
LINE
  5
FE5
330
2
100
AcDbEntity
  8
CENTER
100
AcDbLine
 10
561.1661679485409
 20
385.6838910209369
 30
0.0
 11
807.9561679502662
 21
385.6838910209369
 31
0.0
  0
CIRCLE
  5
FE6
330
2
100
AcDbEntity
  8
HOJO
100
AcDbCircle
 10
588.7397610773482
 20
343.2574841497442
 30
0.0
 40
4.0
  0
CIRCLE
  5
FE7
330
2
100
AcDbEntity
  8
HOJO
100
AcDbCircle
 10
673.5925748197346
 20
343.2574841497442
 30
0.0
 40
4.0
  0
LINE
  5
FE8
330
2
100
AcDbEntity
  8
CENTER
100
AcDbLine
 10
570.4105202466821
 20
654.7929037400097
 30
0.0
 11
807.9561679502653
 21
654.7929037400097
 31
0.0
  0
CIRCLE
  5
FE9
330
2
100
AcDbEntity
  8
HOJO
100
AcDbCircle
 10
588.7397610773482
 20
428.1102978921297
 30
0.0
 40
4.0
  0
CIRCLE
  5
FEA
330
2
100
AcDbEntity
  8
HOJO
100
AcDbCircle
 10
673.5925748197346
 20
428.1102978921297
 30
0.0
 40
4.0
  0
LINE
  5
FEB
330
2
100
AcDbEntity
  8
CENTER
100
AcDbLine
 10
596.7397610773482
 20
428.1102978921297
 30
0.0
 11
580.7397610773482
 21
428.1102978921297
 31
0.0
  0
LINE
  5
FEC
330
2
100
AcDbEntity
  8
CENTER
100
AcDbLine
 10
588.7397610773482
 20
420.1102978921297
 30
0.0
 11
588.7397610773482
 21
436.1102978921297
 31
0.0
  0
LINE
  5
FED
330
2
100
AcDbEntity
  8
CENTER
100
AcDbLine
 10
596.7397610773482
 20
343.257484149746
 30
0.0
 11
580.7397610773482
 21
343.257484149746
 31
0.0
  0
LINE
  5
FEE
330
2
100
AcDbEntity
  8
CENTER
100
AcDbLine
 10
588.7397610773482
 20
351.257484149746
 30
0.0
 11
588.7397610773482
 21
335.257484149746
 31
0.0
  0
LINE
  5
FEF
330
2
100
AcDbEntity
  8
CENTER
100
AcDbLine
 10
673.5925748197328
 20
351.257484149746
 30
0.0
 11
673.5925748197328
 21
335.257484149746
 31
0.0
  0
LINE
  5
FF0
330
2
100
AcDbEntity
  8
CENTER
100
AcDbLine
 10
665.5925748197327
 20
343.2574841497442
 30
0.0
 11
681.5925748197328
 21
343.2574841497442
 31
0.0
  0
LINE
  5
FF1
330
2
100
AcDbEntity
  8
CENTER
100
AcDbLine
 10
665.5925748197327
 20
428.1102978921297
 30
0.0
 11
681.5925748197328
 21
428.1102978921297
 31
0.0
  0
LINE
  5
FF2
330
2
100
AcDbEntity
  8
CENTER
100
AcDbLine
 10
673.5925748197328
 20
420.1102978921297
 30
0.0
 11
673.5925748197328
 21
436.1102978921297
 31
0.0
  0
LINE
  5
FF3
330
2
100
AcDbEntity
  8
0
100
AcDbLine
 10
580.742141222709
 20
616.7929037425544
 30
0.0
 11
681.5858312404794
 21
616.7929037425544
 31
0.0
  0
LINE
  5
FF4
330
2
100
AcDbEntity
  8
0
100
AcDbLine
 10
586.1661679485409
 20
611.7929037425544
 30
0.0
 11
676.166167948541
 21
611.7929037425617
 31
0.0
  0
LINE
  5
FF5
330
2
100
AcDbEntity
  8
0
100
AcDbLine
 10
580.742141222709
 20
616.7929037425544
 30
0.0
 11
580.166167948541
 21
682.7929037400097
 31
0.0
  0
LINE
  5
FF6
330
2
100
AcDbEntity
  8
0
100
AcDbLine
 10
586.1661679485409
 20
616.7929037425544
 30
0.0
 11
586.1661679485409
 21
611.7929037425544
 31
0.0
  0
LINE
  5
FF7
330
2
100
AcDbEntity
  8
0
100
AcDbLine
 10
754.9561679502653
 20
690.7929037400097
 30
0.0
 11
754.9561679502653
 21
618.7929037400096
 31
0.0
  0
LINE
  5
FF8
330
2
100
AcDbEntity
  8
0
100
AcDbLine
 10
717.1137305850469
 20
618.7929037425544
 30
0.0
 11
683.0902517919534
 21
618.7929037425544
 31
0.0
  0
LINE
  5
FF9
330
2
100
AcDbEntity
  8
0
100
AcDbLine
 10
676.166167948541
 20
616.7929037425544
 30
0.0
 11
676.166167948541
 21
611.7929037425544
 31
0.0
  0
LINE
  5
FFB
330
2
100
AcDbEntity
  8
0
100
AcDbLine
 10
744.9044816921082
 20
618.7929037400096
 30
0.0
 11
754.9561679502653
 21
618.7929037400096
 31
0.0
  0
LINE
  5
FFC
330
2
100
AcDbEntity
  8
0
100
AcDbLine
 10
744.9044816921082
 20
690.7929037400097
 30
0.0
 11
754.9561679502653
 21
690.7929037400097
 31
0.0
  0
LINE
  5
FFD
330
2
100
AcDbEntity
  8
0
100
AcDbLine
 10
754.9561679502653
 20
690.7929037400097
 30
0.0
 11
754.9561679502653
 21
618.7929037400096
 31
0.0
  0
ARC
  5
FFE
330
2
100
AcDbEntity
  8
0
100
AcDbCircle
 10
521.5409636265544
 20
412.3860199512598
 30
0.0
 40
60.0
100
AcDbArc
 50
354.1053016136495
 51
11.80506781044405
  0
LINE
  5
FFF
330
2
100
AcDbEntity
  8
0
100
AcDbLine
 10
742.9561679485409
 20
420.1838910209369
 30
0.0
 11
742.9561679485409
 21
351.183891020937
 31
0.0
  0
LINE
  5
1000
330
2
100
AcDbEntity
  8
0
100
AcDbLine
 10
754.9561679485409
 20
422.183891020937
 30
0.0
 11
754.9561679485409
 21
349.183891020937
 31
0.0
  0
LINE
  5
1001
330
2
100
AcDbEntity
  8
0
100
AcDbLine
 10
719.166167948541
 20
355.683891020937
 30
0.0
 11
719.166167948541
 21
415.6838910209369
 31
0.0
  0
LINE
  5
1002
330
2
100
AcDbEntity
  8
0
100
AcDbLine
 10
682.1661679485455
 20
428.6838910209351
 30
0.0
 11
682.1661679485401
 21
342.6838910209351
 31
0.0
  0
CIRCLE
  5
1003
330
2
100
AcDbEntity
  8
0
100
AcDbCircle
 10
631.1661679485419
 20
385.6838910209369
 30
0.0
 40
34.0
  0
CIRCLE
  5
1004
330
2
100
AcDbEntity
  8
0
100
AcDbCircle
 10
631.1661679485419
 20
385.6838910209369
 30
0.0
 40
45.0
  0
CIRCLE
  5
1005
330
2
100
AcDbEntity
  8
0
100
AcDbCircle
 10
631.1661679485419
 20
385.6838910209369
 30
0.0
 40
26.0
  0
LINE
  5
1006
330
2
100
AcDbEntity
  8
0
100
AcDbLine
 10
713.166167948541
 20
349.6838910209369
 30
0.0
 11
688.16616794854
 21
349.6838910209369
 31
0.0
  0
ARC
  5
1007
330
2
100
AcDbEntity
  8
0
100
AcDbCircle
 10
631.1661679485391
 20
534.6838910209351
 30
0.0
 40
200.0
100
AcDbArc
 50
264.1053016135962
 51
275.8946983863771
  0
ARC
  5
1008
330
2
100
AcDbEntity
  8
0
100
AcDbCircle
 10
521.5409636265544
 20
358.9817620906103
 30
0.0
 40
60.0
100
AcDbArc
 50
348.1949321895559
 51
5.894698386350537
  0
ARC
  5
1009
330
2
100
AcDbEntity
  8
0
100
AcDbCircle
 10
604.4640390182134
 20
276.0586866989504
 30
0.0
 40
60.0
100
AcDbArc
 50
84.10530161362286
 51
101.8050678104681
  0
ARC
  5
100A
330
2
100
AcDbEntity
  8
0
100
AcDbCircle
 10
588.1661679485419
 20
342.6838910209369
 30
0.0
 40
8.0
100
AcDbArc
 50
180.0
 51
270.0
  0
LINE
  5
100B
330
2
100
AcDbEntity
  8
0
100
AcDbLine
 10
588.1661679485419
 20
334.683891020937
 30
0.0
 11
591.1661679485392
 21
334.683891020937
 31
0.0
  0
ARC
  5
100C
330
2
100
AcDbEntity
  8
0
100
AcDbCircle
 10
591.1661679485392
 20
339.6838910209351
 30
0.0
 40
5.0
100
AcDbArc
 50
269.9999999999739
 51
281.8050678104682
  0
ARC
  5
100D
330
2
100
AcDbEntity
  8
0
100
AcDbCircle
 10
585.1661679485391
 20
345.6838910209351
 30
0.0
 40
5.0
100
AcDbArc
 50
168.1949321895559
 51
180.0
  0
LINE
  5
100E
330
2
100
AcDbEntity
  8
0
100
AcDbLine
 10
580.1661679485419
 20
345.6838910209351
 30
0.0
 11
580.1661679485419
 21
342.6838910209369
 31
0.0
  0
CIRCLE
  5
100F
330
2
100
AcDbEntity
  8
0
100
AcDbCircle
 10
588.7397610773482
 20
343.2574841497424
 30
0.0
 40
3.2
  0
ARC
  5
1010
330
2
100
AcDbEntity
  8
0
100
AcDbCircle
 10
780.1661679485391
 20
385.6838910209351
 30
0.0
 40
200.0
100
AcDbArc
 50
174.1053016136494
 51
185.8946983863505
  0
ARC
  5
1011
330
2
100
AcDbEntity
  8
0
100
AcDbCircle
 10
657.8682968788639
 20
276.0586866989504
 30
0.0
 40
60.0
100
AcDbArc
 50
78.19493218953183
 51
95.89469838637716
  0
ARC
  5
1012
330
2
100
AcDbEntity
  8
0
100
AcDbCircle
 10
674.16616794854
 20
342.6838910209369
 30
0.0
 40
8.0
100
AcDbArc
 50
270.0
 51
0.0
  0
ARC
  5
1013
330
2
100
AcDbEntity
  8
0
100
AcDbCircle
 10
671.1661679485391
 20
339.6838910209351
 30
0.0
 40
5.0
100
AcDbArc
 50
258.1949321895318
 51
270.0
  0
LINE
  5
1014
330
2
100
AcDbEntity
  8
0
100
AcDbLine
 10
671.1661679485391
 20
334.683891020937
 30
0.0
 11
674.16616794854
 21
334.683891020937
 31
0.0
  0
CIRCLE
  5
1015
330
2
100
AcDbEntity
  8
0
100
AcDbCircle
 10
673.5925748197346
 20
343.2574841497424
 30
0.0
 40
3.2
  0
ARC
  5
1016
330
2
100
AcDbEntity
  8
0
100
AcDbCircle
 10
713.166167948541
 20
355.683891020937
 30
0.0
 40
6.0
100
AcDbArc
 50
270.0
 51
0.0
  0
ARC
  5
1017
330
2
100
AcDbEntity
  8
0
100
AcDbCircle
 10
744.9561679485409
 20
351.683891020937
 30
0.0
 40
2.0
100
AcDbArc
 50
180.0
 51
270.0
  0
LINE
  5
1018
330
2
100
AcDbEntity
  8
0
100
AcDbLine
 10
713.166167948541
 20
421.683891020937
 30
0.0
 11
688.1661679485446
 21
421.683891020937
 31
0.0
  0
ARC
  5
1019
330
2
100
AcDbEntity
  8
0
100
AcDbCircle
 10
631.1661679485391
 20
236.683891020935
 30
0.0
 40
200.0
100
AcDbArc
 50
84.10530161362286
 51
95.89469838637716
  0
ARC
  5
101A
330
2
100
AcDbEntity
  8
0
100
AcDbCircle
 10
604.4640390182144
 20
495.3090953429198
 30
0.0
 40
60.0
100
AcDbArc
 50
258.1949321895318
 51
275.8946983863771
  0
ARC
  5
101B
330
2
100
AcDbEntity
  8
0
100
AcDbCircle
 10
588.1661679485419
 20
428.6838910209369
 30
0.0
 40
8.0
100
AcDbArc
 50
90.0
 51
180.0
  0
CIRCLE
  5
101C
330
2
100
AcDbEntity
  8
0
100
AcDbCircle
 10
588.7397610773482
 20
428.1102978921278
 30
0.0
 40
3.2
  0
ARC
  5
101D
330
2
100
AcDbEntity
  8
0
100
AcDbCircle
 10
585.1661679485391
 20
425.6838910209351
 30
0.0
 40
5.0
100
AcDbArc
 50
180.0
 51
191.805067810444
  0
LINE
  5
101E
330
2
100
AcDbEntity
  8
0
100
AcDbLine
 10
580.1661679485419
 20
428.6838910209369
 30
0.0
 11
580.1661679485419
 21
425.6838910209351
 31
0.0
  0
LINE
  5
101F
330
2
100
AcDbEntity
  8
0
100
AcDbLine
 10
588.1661679485419
 20
436.6838910209369
 30
0.0
 11
591.1661679485392
 21
436.6838910209369
 31
0.0
  0
ARC
  5
1020
330
2
100
AcDbEntity
  8
0
100
AcDbCircle
 10
591.1661679485392
 20
431.6838910209352
 30
0.0
 40
5.0
100
AcDbArc
 50
78.19493218953183
 51
90.0
  0
ARC
  5
1021
330
2
100
AcDbEntity
  8
0
100
AcDbCircle
 10
657.8682968788648
 20
495.309095342918
 30
0.0
 40
60.0
100
AcDbArc
 50
264.1053016135962
 51
281.8050678104682
  0
ARC
  5
1022
330
2
100
AcDbEntity
  8
0
100
AcDbCircle
 10
674.1661679485455
 20
428.6838910209369
 30
0.0
 40
8.0
100
AcDbArc
 50
0.0
 51
90.0
  0
CIRCLE
  5
1023
330
2
100
AcDbEntity
  8
0
100
AcDbCircle
 10
673.5925748197346
 20
428.1102978921278
 30
0.0
 40
3.2
  0
ARC
  5
1024
330
2
100
AcDbEntity
  8
0
100
AcDbCircle
 10
671.1661679485391
 20
431.6838910209333
 30
0.0
 40
5.0
100
AcDbArc
 50
89.99999999997395
 51
101.8050678104681
  0
LINE
  5
1025
330
2
100
AcDbEntity
  8
0
100
AcDbLine
 10
671.1661679485391
 20
436.6838910209369
 30
0.0
 11
674.1661679485446
 21
436.6838910209369
 31
0.0
  0
ARC
  5
1026
330
2
100
AcDbEntity
  8
0
100
AcDbCircle
 10
713.166167948541
 20
415.6838910209369
 30
0.0
 40
6.0
100
AcDbArc
 50
0.0
 51
90.0
  0
ARC
  5
1027
330
2
100
AcDbEntity
  8
0
100
AcDbCircle
 10
744.9561679485409
 20
419.6838910209369
 30
0.0
 40
2.0
100
AcDbArc
 50
90.0
 51
180.0
  0
LINE
  5
1028
330
2
100
AcDbEntity
  8
0
100
AcDbLine
 10
754.9561679485409
 20
421.683891020937
 30
0.0
 11
744.9561679485409
 21
421.683891020937
 31
0.0
  0
LINE
  5
1029
330
2
100
AcDbEntity
  8
0
100
AcDbLine
 10
744.9561679485409
 20
349.6838910209369
 30
0.0
 11
754.9561679485409
 21
349.6838910209369
 31
0.0
  0
LINE
  5
102A
330
2
100
AcDbEntity
  8
0
100
AcDbLine
 10
104.6401018067072
 20
351.1838910209378
 30
0.0
 11
104.6401018067072
 21
420.1838910209379
 31
0.0
  0
LINE
  5
102B
330
2
100
AcDbEntity
  8
0
100
AcDbLine
 10
92.64010180670721
 20
349.1838910209378
 30
0.0
 11
92.64010180670721
 21
422.1838910209378
 31
0.0
  0
LINE
  5
102C
330
2
100
AcDbEntity
  8
0
100
AcDbLine
 10
102.6401018067076
 20
421.6838910209379
 30
0.0
 11
92.64010180670721
 21
421.6838910209379
 31
0.0
  0
ARC
  5
102D
330
2
100
AcDbEntity
  8
0
100
AcDbCircle
 10
102.6401018067076
 20
419.6838910209378
 30
0.0
 40
2.0
100
AcDbArc
 50
0.0
 51
90.0
  0
LINE
  5
102E
330
2
100
AcDbEntity
  8
0
100
AcDbLine
 10
102.6401018067072
 20
349.6838910209378
 30
0.0
 11
92.64010180670721
 21
349.6838910209378
 31
0.0
  0
ARC
  5
102F
330
2
100
AcDbEntity
  8
0
100
AcDbCircle
 10
102.6401018067072
 20
351.6838910209378
 30
0.0
 40
2.0
100
AcDbArc
 50
270.0
 51
0.0
  0
ARC
  5
1030
330
2
100
AcDbEntity
  8
0
100
AcDbCircle
 10
688.1661679485446
 20
427.6838910209369
 30
0.0
 40
6.0
100
AcDbArc
 50
180.0
 51
270.0
  0
ARC
  5
1031
330
2
100
AcDbEntity
  8
0
100
AcDbCircle
 10
688.16616794854
 20
343.6838910209369
 30
0.0
 40
6.0
100
AcDbArc
 50
90.0
 51
180.0
  0
LINE
  5
1032
330
2
100
AcDbEntity
  8
0
100
AcDbLine
 10
663.234790398928
 20
597.7929037400096
 30
0.0
 11
599.097545498154
 21
597.7929037400096
 31
0.0
  0
LINE
  5
1033
330
2
100
AcDbEntity
  8
0
100
AcDbLine
 10
596.7446812800804
 20
609.862702733413
 30
0.0
 11
597.0987638441161
 21
599.7231047466045
 31
0.0
  0
LINE
  5
1034
330
2
100
AcDbEntity
  8
0
100
AcDbLine
 10
665.5876546170016
 20
609.862702733413
 30
0.0
 11
665.2335720529658
 21
599.7231047466045
 31
0.0
  0
ARC
  5
1035
330
2
100
AcDbEntity
  8
0
100
AcDbCircle
 10
663.234790398928
 20
599.7929037400097
 30
0.0
 40
2.0
100
AcDbArc
 50
270.0
 51
357.9999999999963
  0
ARC
  5
1036
330
2
100
AcDbEntity
  8
0
100
AcDbCircle
 10
667.5864362710403
 20
609.7929037400096
 30
0.0
 40
2.0
100
AcDbArc
 50
90.0
 51
177.9999999999963
  0
ARC
  5
1037
330
2
100
AcDbEntity
  8
0
100
AcDbCircle
 10
599.097545498154
 20
599.7929037400097
 30
0.0
 40
2.0
100
AcDbArc
 50
182.0000000000036
 51
270.0
  0
ARC
  5
1038
330
2
100
AcDbEntity
  8
0
100
AcDbCircle
 10
594.7458996260415
 20
609.7929037400096
 30
0.0
 40
2.0
100
AcDbArc
 50
2.000000000003654
 51
90.0
  0
LINE
  5
1039
330
2
100
AcDbEntity
  8
0
100
AcDbLine
 10
114.1401018084307
 20
410.1838910209378
 30
0.0
 11
114.1401018084307
 21
361.183891020936
 31
0.0
  0
ARC
  5
103A
330
2
100
AcDbEntity
  8
0
100
AcDbCircle
 10
126.4301018067089
 20
413.6838910209378
 30
0.0
 40
2.0
100
AcDbArc
 50
270.0
 51
0.0
  0
LINE
  5
103B
330
2
100
AcDbEntity
  8
0
100
AcDbLine
 10
109.6401018067072
 20
413.1838910209379
 30
0.0
 11
111.1401018084316
 21
413.1838910209379
 31
0.0
  0
LINE
  5
103C
330
2
100
AcDbEntity
  8
0
100
AcDbLine
 10
126.430025650131
 20
411.6838910209379
 30
0.0
 11
114.7108160227026
 21
411.6838910209379
 31
0.0
  0
LINE
  5
103D
330
2
100
AcDbEntity
  8
0
100
AcDbLine
 10
123.4301018067089
 20
407.6838910209379
 30
0.0
 11
118.7394438852161
 21
407.6838910209379
 31
0.0
  0
ARC
  5
103E
330
2
100
AcDbEntity
  8
0
100
AcDbCircle
 10
114.7108160227026
 20
413.6838910209378
 30
0.0
 40
2.0
100
AcDbArc
 50
224.4270040008595
 51
270.0
  0
ARC
  5
103F
330
2
100
AcDbEntity
  8
0
100
AcDbCircle
 10
111.1401018084307
 20
410.1838910209378
 30
0.0
 40
3.0
100
AcDbArc
 50
0.0
 51
90.0
  0
ARC
  5
1040
330
2
100
AcDbEntity
  8
0
100
AcDbCircle
 10
109.6401018067072
 20
418.1838910209378
 30
0.0
 40
5.0
100
AcDbArc
 50
180.0
 51
270.0
  0
LINE
  5
1041
330
2
100
AcDbEntity
  8
0
100
AcDbLine
 10
125.4301018067099
 20
383.1838910209378
 30
0.0
 11
117.1401018084307
 21
383.1838910209378
 31
0.0
  0
ARC
  5
1042
330
2
100
AcDbEntity
  8
0
100
AcDbCircle
 10
126.4301018067089
 20
357.6838910209378
 30
0.0
 40
2.0
100
AcDbArc
 50
0.0
 51
90.0
  0
LINE
  5
1043
330
2
100
AcDbEntity
  8
0
100
AcDbLine
 10
109.6401018067072
 20
358.183891020936
 30
0.0
 11
111.1401018084316
 21
358.183891020936
 31
0.0
  0
ARC
  5
1044
330
2
100
AcDbEntity
  8
0
100
AcDbCircle
 10
111.1401018084307
 20
361.183891020936
 30
0.0
 40
3.0
100
AcDbArc
 50
270.0
 51
0.0
  0
LINE
  5
1045
330
2
100
AcDbEntity
  8
0
100
AcDbLine
 10
123.4301018067089
 20
363.6838910209378
 30
0.0
 11
118.7394438852161
 21
363.6838910209378
 31
0.0
  0
LINE
  5
1046
330
2
100
AcDbEntity
  8
0
100
AcDbLine
 10
126.430025650131
 20
359.6838910209378
 30
0.0
 11
114.7108160227026
 21
359.6838910209378
 31
0.0
  0
ARC
  5
1047
330
2
100
AcDbEntity
  8
0
100
AcDbCircle
 10
114.7108160227026
 20
357.6838910209378
 30
0.0
 40
2.0
100
AcDbArc
 50
90.0
 51
135.5729959991404
  0
ARC
  5
1048
330
2
100
AcDbEntity
  8
0
100
AcDbCircle
 10
109.6401018067072
 20
353.183891020936
 30
0.0
 40
5.0
100
AcDbArc
 50
90.0
 51
180.0
  0
ARC
  5
1049
330
2
100
AcDbEntity
  8
0
100
AcDbCircle
 10
125.4301018067099
 20
380.1838910209379
 30
0.0
 40
3.0
100
AcDbArc
 50
0.0
 51
90.0
  0
ARC
  5
104A
330
2
100
AcDbEntity
  8
0
100
AcDbCircle
 10
117.1401018084307
 20
380.1838910209379
 30
0.0
 40
3.0
100
AcDbArc
 50
90.0
 51
180.0
  0
LINE
  5
104B
330
2
100
AcDbEntity
  8
0
100
AcDbLine
 10
125.4301018067099
 20
388.1838910209379
 30
0.0
 11
117.1401018084307
 21
388.1838910209379
 31
0.0
  0
ARC
  5
104C
330
2
100
AcDbEntity
  8
0
100
AcDbCircle
 10
125.4301018067099
 20
391.1838910209378
 30
0.0
 40
3.0
100
AcDbArc
 50
270.0
 51
0.0
  0
ARC
  5
104D
330
2
100
AcDbEntity
  8
0
100
AcDbCircle
 10
117.1401018084307
 20
391.1838910209378
 30
0.0
 40
3.0
100
AcDbArc
 50
180.0
 51
270.0
  0
ARC
  5
104E
330
2
100
AcDbEntity
  8
0
100
AcDbCircle
 10
722.16616794854
 20
380.1838910209369
 30
0.0
 40
3.0
100
AcDbArc
 50
90.0
 51
180.0
  0
LINE
  5
104F
330
2
100
AcDbEntity
  8
0
100
AcDbLine
 10
722.16616794854
 20
383.183891020937
 30
0.0
 11
730.4561679468193
 21
383.183891020937
 31
0.0
  0
ARC
  5
1050
330
2
100
AcDbEntity
  8
0
100
AcDbCircle
 10
730.4561679468193
 20
380.1838910209369
 30
0.0
 40
3.0
100
AcDbArc
 50
0.0
 51
90.0
  0
ARC
  5
1051
330
2
100
AcDbEntity
  8
0
100
AcDbCircle
 10
730.4561679468193
 20
391.183891020937
 30
0.0
 40
3.0
100
AcDbArc
 50
270.0
 51
0.0
  0
LINE
  5
1052
330
2
100
AcDbEntity
  8
0
100
AcDbLine
 10
722.16616794854
 20
388.1838910209369
 30
0.0
 11
730.4561679468193
 21
388.1838910209369
 31
0.0
  0
ARC
  5
1053
330
2
100
AcDbEntity
  8
0
100
AcDbCircle
 10
722.16616794854
 20
391.183891020937
 30
0.0
 40
3.0
100
AcDbArc
 50
180.0
 51
270.0
  0
LINE
  5
1054
330
2
100
AcDbEntity
  8
0
100
AcDbLine
 10
721.1662441051189
 20
411.6838910209369
 30
0.0
 11
732.8854537325473
 21
411.6838910209369
 31
0.0
  0
ARC
  5
1055
330
2
100
AcDbEntity
  8
0
100
AcDbCircle
 10
721.1661679485409
 20
413.683891020937
 30
0.0
 40
2.0
100
AcDbArc
 50
180.0
 51
270.0
  0
ARC
  5
1056
330
2
100
AcDbEntity
  8
0
100
AcDbCircle
 10
732.8854537325473
 20
413.683891020937
 30
0.0
 40
2.0
100
AcDbArc
 50
270.0
 51
315.5729959991404
  0
ARC
  5
1057
330
2
100
AcDbEntity
  8
0
100
AcDbCircle
 10
736.4561679468192
 20
410.1838910209369
 30
0.0
 40
3.0
100
AcDbArc
 50
90.0
 51
180.0
  0
LINE
  5
1058
330
2
100
AcDbEntity
  8
0
100
AcDbLine
 10
733.4561679468192
 20
361.1838910209351
 30
0.0
 11
733.4561679468192
 21
410.1838910209369
 31
0.0
  0
ARC
  5
1059
330
2
100
AcDbEntity
  8
0
100
AcDbCircle
 10
737.9561679485427
 20
418.183891020937
 30
0.0
 40
5.0
100
AcDbArc
 50
270.0
 51
0.0
  0
LINE
  5
105A
330
2
100
AcDbEntity
  8
0
100
AcDbLine
 10
737.9561679485427
 20
413.183891020937
 30
0.0
 11
736.4561679468184
 21
413.183891020937
 31
0.0
  0
ARC
  5
105B
330
2
100
AcDbEntity
  8
0
100
AcDbCircle
 10
736.4561679468192
 20
361.1838910209351
 30
0.0
 40
3.0
100
AcDbArc
 50
180.0
 51
270.0
  0
LINE
  5
105C
330
2
100
AcDbEntity
  8
0
100
AcDbLine
 10
721.1662441051189
 20
359.683891020937
 30
0.0
 11
732.8854537325473
 21
359.683891020937
 31
0.0
  0
ARC
  5
105D
330
2
100
AcDbEntity
  8
0
100
AcDbCircle
 10
732.8854537325473
 20
357.683891020937
 30
0.0
 40
2.0
100
AcDbArc
 50
44.42700400085959
 51
90.0
  0
ARC
  5
105E
330
2
100
AcDbEntity
  8
0
100
AcDbCircle
 10
721.1661679485409
 20
357.683891020937
 30
0.0
 40
2.0
100
AcDbArc
 50
90.0
 51
180.0
  0
LINE
  5
105F
330
2
100
AcDbEntity
  8
0
100
AcDbLine
 10
737.9561679485427
 20
358.1838910209351
 30
0.0
 11
736.4561679468184
 21
358.1838910209351
 31
0.0
  0
ARC
  5
1060
330
2
100
AcDbEntity
  8
0
100
AcDbCircle
 10
737.9561679485427
 20
353.1838910209351
 30
0.0
 40
5.0
100
AcDbArc
 50
0.0
 51
90.0
  0
LINE
  5
1061
330
2
100
AcDbEntity
  8
0
100
AcDbLine
 10
713.1792609110503
 20
682.7929037400097
 30
0.0
 11
713.8869662609318
 21
655.766726791702
 31
0.0
  0
LINE
  5
1062
330
2
100
AcDbEntity
  8
0
100
AcDbLine
 10
733.379666588105
 20
679.3714345849328
 30
0.0
 11
732.7360551071137
 21
654.7929037400097
 31
0.0
  0
LINE
  5
1063
330
2
100
AcDbEntity
  8
0
100
AcDbLine
 10
742.9051670421572
 20
688.845257636625
 30
0.0
 11
742.0134747737843
 21
654.7929037400097
 31
0.0
  0
LINE
  5
1064
330
2
100
AcDbEntity
  8
0
100
AcDbLine
 10
733.379666588105
 20
630.2143728950848
 30
0.0
 11
732.7360551071137
 21
654.7929037400097
 31
0.0
  0
LINE
  5
1065
330
2
100
AcDbEntity
  8
0
100
AcDbLine
 10
742.9051670421572
 20
620.7405498433943
 30
0.0
 11
742.0134747737879
 21
654.7929037400097
 31
0.0
  0
ARC
  5
1066
330
2
100
AcDbEntity
  8
0
100
AcDbCircle
 10
736.3786385630314
 20
630.2929037400079
 30
0.0
 40
3.0
100
AcDbArc
 50
181.4999999999897
 51
270.0
  0
ARC
  5
1067
330
2
100
AcDbEntity
  8
0
100
AcDbCircle
 10
732.8079243487586
 20
626.7929037400096
 30
0.0
 40
2.0
100
AcDbArc
 50
44.42700400085959
 51
90.0
  0
ARC
  5
1068
330
2
100
AcDbEntity
  8
0
100
AcDbCircle
 10
728.7792964862451
 20
627.7929037400097
 30
0.0
 40
5.0
100
AcDbArc
 50
18.20995686428471
 51
90.0
  0
ARC
  5
1069
330
2
100
AcDbEntity
  8
0
100
AcDbCircle
 10
737.8628032623196
 20
622.2929037400079
 30
0.0
 40
5.0
100
AcDbArc
 50
1.499999999989693
 51
90.0
  0
ARC
  5
106A
330
2
100
AcDbEntity
  8
0
100
AcDbCircle
 10
744.9044816921082
 20
620.7929037400097
 30
0.0
 40
2.0
100
AcDbArc
 50
181.4999999999897
 51
270.0
  0
LINE
  5
106B
330
2
100
AcDbEntity
  8
0
100
AcDbLine
 10
736.3786385630314
 20
682.2929037400097
 30
0.0
 11
737.8628032623196
 21
682.2929037400097
 31
0.0
  0
ARC
  5
106C
330
2
100
AcDbEntity
  8
0
100
AcDbCircle
 10
736.3786385630314
 20
679.2929037400097
 30
0.0
 40
3.0
100
AcDbArc
 50
90.0
 51
178.5000000000102
  0
ARC
  5
106D
330
2
100
AcDbEntity
  8
0
100
AcDbCircle
 10
728.7792964862451
 20
681.7929037400097
 30
0.0
 40
5.0
100
AcDbArc
 50
270.0
 51
341.7900431357153
  0
ARC
  5
106E
330
2
100
AcDbEntity
  8
0
100
AcDbCircle
 10
732.8079243487586
 20
682.7929037400097
 30
0.0
 40
2.0
100
AcDbArc
 50
269.9999999999478
 51
315.5729959991404
  0
ARC
  5
106F
330
2
100
AcDbEntity
  8
0
100
AcDbCircle
 10
737.8628032623196
 20
687.2929037400097
 30
0.0
 40
5.0
100
AcDbArc
 50
270.0
 51
358.5000000000103
  0
ARC
  5
1070
330
2
100
AcDbEntity
  8
0
100
AcDbCircle
 10
714.8866235859072
 20
655.7929037400096
 30
0.0
 40
1.0
100
AcDbArc
 50
181.4999999999897
 51
270.0
  0
ARC
  5
1071
330
2
100
AcDbEntity
  8
0
100
AcDbCircle
 10
744.9044816921082
 20
688.7929037400096
 30
0.0
 40
2.0
100
AcDbArc
 50
90.0
 51
178.5000000000102
  0
LINE
  5
1072
330
2
100
AcDbEntity
  8
0
100
AcDbLine
 10
724.1661679483472
 20
632.7929037400097
 30
0.0
 11
728.7792964862451
 21
632.7929037400097
 31
0.0
  0
LINE
  5
1073
330
2
100
AcDbEntity
  8
0
100
AcDbLine
 10
721.1662441053135
 20
628.7929037400097
 30
0.0
 11
732.8079243487586
 21
628.7929037400097
 31
0.0
  0
LINE
  5
1074
330
2
100
AcDbEntity
  8
0
100
AcDbLine
 10
722.3626367089923
 20
652.2929037400096
 30
0.0
 11
729.879049298272
 21
652.2929037400096
 31
0.0
  0
LINE
  5
1075
330
2
100
AcDbEntity
  8
0
100
AcDbLine
 10
722.3626367088041
 20
657.2929037400097
 30
0.0
 11
729.879049298272
 21
657.2929037400097
 31
0.0
  0
LINE
  5
1076
330
2
100
AcDbEntity
  8
0
100
AcDbLine
 10
724.1661679483463
 20
676.7929037400096
 30
0.0
 11
728.7792964862451
 21
676.7929037400096
 31
0.0
  0
LINE
  5
1077
330
2
100
AcDbEntity
  8
0
100
AcDbLine
 10
721.1662441053135
 20
680.7929037400096
 30
0.0
 11
732.8079243487586
 21
680.7929037400096
 31
0.0
  0
LINE
  5
1078
330
2
100
AcDbEntity
  8
0
100
AcDbLine
 10
624.0243971987779
 20
341.9068106143693
 30
0.0
 11
626.90439844011
 21
341.9068106143693
 31
0.0
  0
LINE
  5
1079
330
2
100
AcDbEntity
  8
0
100
AcDbLine
 10
628.0243971987833
 20
349.9068106143802
 30
0.0
 11
624.0243971987779
 21
341.9068106143693
 31
0.0
  0
ARC
  5
107A
330
2
100
AcDbEntity
  8
0
100
AcDbCircle
 10
634.6643244387937
 20
347.1868106143773
 30
0.0
 40
2.720000000003957
100
AcDbArc
 50
307.5189678668324
 51
90.0
  0
LINE
  5
107B
330
2
100
AcDbEntity
  8
0
100
AcDbLine
 10
636.320869818453
 20
345.0294378127617
 30
0.0
 11
638.3079386983077
 21
341.9068106143693
 31
0.0
  0
LINE
  5
107C
330
2
100
AcDbEntity
  8
0
100
AcDbLine
 10
635.4279374569764
 20
341.9068106143693
 30
0.0
 11
638.3079386983077
 21
341.9068106143693
 31
0.0
  0
LINE
  5
107D
330
2
100
AcDbEntity
  8
0
100
AcDbLine
 10
629.5443971987856
 20
341.9068106143693
 30
0.0
 11
631.944324438789
 21
341.9068106143675
 31
0.0
  0
LINE
  5
107E
330
2
100
AcDbEntity
  8
0
100
AcDbLine
 10
627.5043984401104
 20
343.1068106143719
 30
0.0
 11
626.90439844011
 21
341.9068106143693
 31
0.0
  0
LINE
  5
107F
330
2
100
AcDbEntity
  8
0
100
AcDbLine
 10
627.5043984401104
 20
343.1068106143719
 30
0.0
 11
629.5443971987856
 21
343.1068106143701
 31
0.0
  0
LINE
  5
1080
330
2
100
AcDbEntity
  8
0
100
AcDbLine
 10
629.5443971987856
 20
343.1068106143701
 30
0.0
 11
629.5443971987856
 21
341.9068106143693
 31
0.0
  0
LINE
  5
1081
330
2
100
AcDbEntity
  8
0
100
AcDbLine
 10
628.7843984401129
 20
345.6668106143732
 30
0.0
 11
629.5443971987856
 21
345.6668106143732
 31
0.0
  0
LINE
  5
1082
330
2
100
AcDbEntity
  8
0
100
AcDbLine
 10
629.5443971987856
 20
347.1868081317205
 30
0.0
 11
629.5443971987856
 21
345.6668106143732
 31
0.0
  0
LINE
  5
1083
330
2
100
AcDbEntity
  8
0
100
AcDbLine
 10
629.5443971987856
 20
347.1868081317205
 30
0.0
 11
628.7843984401129
 21
345.6668106143732
 31
0.0
  0
LINE
  5
1084
330
2
100
AcDbEntity
  8
0
100
AcDbLine
 10
632.284397198789
 20
346.8468106143753
 30
0.0
 11
635.4279374569764
 21
341.9068106143693
 31
0.0
  0
LINE
  5
1085
330
2
100
AcDbEntity
  8
0
100
AcDbLine
 10
631.944324438789
 20
347.1868106143773
 30
0.0
 11
631.944324438789
 21
341.9068106143675
 31
0.0
  0
LINE
  5
1086
330
2
100
AcDbEntity
  8
0
100
AcDbLine
 10
631.944324438789
 20
347.1868106143773
 30
0.0
 11
634.4943971987918
 21
347.1868106143773
 31
0.0
  0
LINE
  5
1087
330
2
100
AcDbEntity
  8
0
100
AcDbLine
 10
632.284397198789
 20
346.8468106143753
 30
0.0
 11
634.4943971987937
 21
346.8468106143753
 31
0.0
  0
ARC
  5
1088
330
2
100
AcDbEntity
  8
0
100
AcDbCircle
 10
634.4943971987937
 20
347.0168106143753
 30
0.0
 40
0.1700000000002474
100
AcDbArc
 50
270.0
 51
90.0
  0
LINE
  5
1089
330
2
100
AcDbEntity
  8
0
100
AcDbLine
 10
628.0243971987833
 20
349.9068106143802
 30
0.0
 11
634.6643244387937
 21
349.9068106143802
 31
0.0
  0
LINE
  5
108A
330
2
100
AcDbEntity
  8
0
100
AcDbLine
 10
736.3786385630314
 20
627.2929037400079
 30
0.0
 11
737.8628032623196
 21
627.2929037400079
 31
0.0
  0
ARC
  5
108B
330
2
100
AcDbEntity
  8
0
100
AcDbCircle
 10
729.879049298272
 20
649.2929037400097
 30
0.0
 40
3.0
100
AcDbArc
 50
1.499999999989693
 51
90.0
  0
ARC
  5
108C
330
2
100
AcDbEntity
  8
0
100
AcDbCircle
 10
729.879049298272
 20
660.2929037400096
 30
0.0
 40
3.0
100
AcDbArc
 50
270.0
 51
358.5000000000103
  0
LINE
  5
108D
330
2
100
AcDbEntity
  8
0
100
AcDbLine
 10
588.1661679502654
 20
682.2929037400097
 30
0.0
 11
588.1661679502635
 21
618.2938618960559
 31
0.0
  0
LINE
  5
108E
330
2
100
AcDbEntity
  8
0
100
AcDbLine
 10
591.1661679502608
 20
682.2929037400097
 30
0.0
 11
591.1661679502617
 21
618.2942490761613
 31
0.0
  0
LINE
  5
108F
330
2
100
AcDbEntity
  8
0
100
AcDbLine
 10
610.6260687730878
 20
682.2929037400097
 30
0.0
 11
610.6260687730878
 21
618.2967605716528
 31
0.0
  0
LINE
  5
1090
330
2
100
AcDbEntity
  8
0
100
AcDbLine
 10
651.7062671274357
 20
682.2929037400097
 30
0.0
 11
651.7062671274348
 21
618.3020623835089
 31
0.0
  0
LINE
  5
1091
330
2
100
AcDbEntity
  8
0
100
AcDbLine
 10
671.1661679502608
 20
682.2929037400097
 30
0.0
 11
671.1661679502608
 21
618.3045738789985
 31
0.0
  0
LINE
  5
1092
330
2
100
AcDbEntity
  8
0
100
AcDbLine
 10
674.1661679502627
 20
682.2929037400097
 30
0.0
 11
674.1661679502627
 21
618.3049610591058
 31
0.0
  0
LINE
  5
1093
330
2
100
AcDbEntity
  8
0
100
AcDbLine
 10
714.8866235859072
 20
654.7929037400097
 30
0.0
 11
719.4105202465684
 21
654.7929037265655
 31
0.0
  0
LINE
  5
1094
330
2
100
AcDbEntity
  8
0
100
AcDbLine
 10
742.0134747737879
 20
654.7929037400097
 30
0.0
 11
754.9561679502653
 21
654.7929037400097
 31
0.0
  0
ARC
  5
1095
330
2
100
AcDbEntity
  8
0
100
AcDbCircle
 10
123.4301018067089
 20
358.6838910209379
 30
0.0
 40
5.0
100
AcDbArc
 50
0.0
 51
90.0
  0
ARC
  5
1096
330
2
100
AcDbEntity
  8
0
100
AcDbCircle
 10
118.7394438852161
 20
358.6838910209379
 30
0.0
 40
5.0
100
AcDbArc
 50
90.0
 51
161.7900431357152
  0
ARC
  5
1097
330
2
100
AcDbEntity
  8
0
100
AcDbCircle
 10
123.4301018067089
 20
412.6838910209379
 30
0.0
 40
5.0
100
AcDbArc
 50
270.0
 51
0.0
  0
ARC
  5
1098
330
2
100
AcDbEntity
  8
0
100
AcDbCircle
 10
118.7394438852161
 20
412.6838910209379
 30
0.0
 40
5.0
100
AcDbArc
 50
198.2099568642847
 51
270.0
  0
ARC
  5
1099
330
2
100
AcDbEntity
  8
0
100
AcDbCircle
 10
724.1661679485409
 20
412.6838910209388
 30
0.0
 40
5.0
100
AcDbArc
 50
180.0
 51
270.0
  0
LINE
  5
109A
330
2
100
AcDbEntity
  8
0
100
AcDbLine
 10
724.1661679485409
 20
407.6838910209388
 30
0.0
 11
728.8568258700338
 21
407.6838910209388
 31
0.0
  0
ARC
  5
109B
330
2
100
AcDbEntity
  8
0
100
AcDbCircle
 10
728.8568258700338
 20
412.6838910209388
 30
0.0
 40
5.0
100
AcDbArc
 50
270.0
 51
341.7900431357153
  0
ARC
  5
109C
330
2
100
AcDbEntity
  8
0
100
AcDbCircle
 10
724.1661679485409
 20
358.6838910209388
 30
0.0
 40
5.0
100
AcDbArc
 50
90.0
 51
180.0
  0
LINE
  5
109D
330
2
100
AcDbEntity
  8
0
100
AcDbLine
 10
724.1661679485409
 20
363.6838910209387
 30
0.0
 11
728.8568258700338
 21
363.6838910209387
 31
0.0
  0
ARC
  5
109E
330
2
100
AcDbEntity
  8
0
100
AcDbCircle
 10
728.8568258700338
 20
358.6838910209388
 30
0.0
 40
5.0
100
AcDbArc
 50
18.20995686428471
 51
90.0
  0
ARC
  5
109F
330
2
100
AcDbEntity
  8
0
100
AcDbCircle
 10
102.6401018067072
 20
351.1838910209378
 30
0.0
 40
2.0
100
AcDbArc
 50
270.0
 51
0.0
  0
LINE
  5
10A0
330
2
100
AcDbEntity
  8
0
100
AcDbLine
 10
102.6401018067072
 20
349.1838910209378
 30
0.0
 11
92.64010180670721
 21
349.1838910209378
 31
0.0
  0
LINE
  5
10A1
330
2
100
AcDbEntity
  8
0
100
AcDbLine
 10
102.6401018067076
 20
422.1838910209378
 30
0.0
 11
92.64010180670721
 21
422.1838910209378
 31
0.0
  0
ARC
  5
10A2
330
2
100
AcDbEntity
  8
0
100
AcDbCircle
 10
102.6401018067076
 20
420.1838910209379
 30
0.0
 40
2.0
100
AcDbArc
 50
0.0
 51
90.0
  0
LINE
  5
10A3
330
2
100
AcDbEntity
  8
0
100
AcDbLine
 10
754.9561679485409
 20
422.183891020937
 30
0.0
 11
744.9561679485409
 21
422.183891020937
 31
0.0
  0
ARC
  5
10A4
330
2
100
AcDbEntity
  8
0
100
AcDbCircle
 10
744.9561679485409
 20
420.1838910209369
 30
0.0
 40
2.0
100
AcDbArc
 50
90.0
 51
180.0
  0
LINE
  5
10A5
330
2
100
AcDbEntity
  8
0
100
AcDbLine
 10
744.9561679485409
 20
349.183891020937
 30
0.0
 11
754.9561679485409
 21
349.183891020937
 31
0.0
  0
ARC
  5
10A6
330
2
100
AcDbEntity
  8
0
100
AcDbCircle
 10
744.9561679485409
 20
351.183891020937
 30
0.0
 40
2.0
100
AcDbArc
 50
180.0
 51
270.0
  0
LINE
  5
10A7
330
2
100
AcDbEntity
  8
CENTER
100
AcDbLine
 10
416.9866241887294
 20
324.928243319079
 30
0.0
 11
416.9866241887294
 21
446.4395387227967
 31
0.0
  0
LINE
  5
10A8
330
2
100
AcDbEntity
  8
0
100
AcDbLine
 10
454.9866241887285
 20
335.2598642951277
 30
0.0
 11
454.9866241887285
 21
436.1079177467479
 31
0.0
  0
LINE
  5
10A9
330
2
100
AcDbEntity
  8
CENTER
100
AcDbLine
 10
496.9866241887298
 20
385.6838910209379
 30
0.0
 11
330.9866241887284
 21
385.6838910209379
 31
0.0
  0
LINE
  5
10AA
330
2
100
AcDbEntity
  8
0
100
AcDbLine
 10
459.9866241887284
 20
340.6838910209379
 30
0.0
 11
459.9866241887225
 21
430.6838910209378
 31
0.0
  0
LINE
  5
10AB
330
2
100
AcDbEntity
  8
0
100
AcDbLine
 10
454.9866241887285
 20
340.6838910209379
 30
0.0
 11
459.9866241887284
 21
340.6838910209379
 31
0.0
  0
LINE
  5
10AC
330
2
100
AcDbEntity
  8
0
100
AcDbLine
 10
454.9866241887285
 20
430.6838910209378
 30
0.0
 11
459.9866241887284
 21
430.6838910209378
 31
0.0
  0
LINE
  5
10AD
330
2
100
AcDbEntity
  8
0
100
AcDbLine
 10
388.9866241887293
 20
436.6838910209379
 30
0.0
 11
454.9866241887285
 21
436.1079177467479
 31
0.0
  0
LINE
  5
10AE
330
2
100
AcDbEntity
  8
0
100
AcDbLine
 10
388.9866241887293
 20
334.6838910209378
 30
0.0
 11
454.9866241887285
 21
335.2598642951277
 31
0.0
  0
LINE
  5
10AF
330
2
100
AcDbEntity
  8
0
100
AcDbLine
 10
473.9866241887293
 20
417.7525134713239
 30
0.0
 11
473.9866241887303
 21
353.6152685705499
 31
0.0
  0
LINE
  5
10B0
330
2
100
AcDbEntity
  8
0
100
AcDbLine
 10
461.9168251953251
 20
351.2624043524763
 30
0.0
 11
472.0564231821349
 21
351.6164869165121
 31
0.0
  0
LINE
  5
10B1
330
2
100
AcDbEntity
  8
0
100
AcDbLine
 10
461.9168251953251
 20
420.1053776893975
 30
0.0
 11
472.0564231821344
 21
419.7512951253618
 31
0.0
  0
ARC
  5
10B2
330
2
100
AcDbEntity
  8
0
100
AcDbCircle
 10
471.9866241887293
 20
417.7525134713239
 30
0.0
 40
2.0
100
AcDbArc
 50
0.0
 51
87.99999999999636
  0
ARC
  5
10B3
330
2
100
AcDbEntity
  8
0
100
AcDbCircle
 10
461.9866241887298
 20
422.1041593434373
 30
0.0
 40
2.0
100
AcDbArc
 50
180.0
 51
267.9999999999963
  0
ARC
  5
10B4
330
2
100
AcDbEntity
  8
0
100
AcDbCircle
 10
471.9866241887302
 20
353.6152685705499
 30
0.0
 40
2.0
100
AcDbArc
 50
272.0000000000036
 51
0.0
  0
ARC
  5
10B5
330
2
100
AcDbEntity
  8
0
100
AcDbCircle
 10
461.9866241887298
 20
349.2636226984385
 30
0.0
 40
2.0
100
AcDbArc
 50
92.00000000000365
 51
180.0
  0
LINE
  5
10B6
330
2
100
AcDbEntity
  8
0
100
AcDbLine
 10
388.9866241887293
 20
428.6838910209379
 30
0.0
 11
453.9866241887284
 21
428.6838910209379
 31
0.0
  0
LINE
  5
10B7
330
2
100
AcDbEntity
  8
0
100
AcDbLine
 10
388.9866241887293
 20
425.683891020936
 30
0.0
 11
453.9866241887284
 21
425.683891020936
 31
0.0
  0
LINE
  5
10B8
330
2
100
AcDbEntity
  8
0
100
AcDbLine
 10
388.9866241887293
 20
406.2239901981091
 30
0.0
 11
453.9866241887284
 21
406.2239901981091
 31
0.0
  0
LINE
  5
10B9
330
2
100
AcDbEntity
  8
0
100
AcDbLine
 10
388.9866241887271
 20
345.6838910209378
 30
0.0
 11
453.9866241887262
 21
345.6838910209378
 31
0.0
  0
LINE
  5
10BA
330
2
100
AcDbEntity
  8
0
100
AcDbLine
 10
388.9866241887293
 20
342.6838910209397
 30
0.0
 11
453.9866241887284
 21
342.6838910209397
 31
0.0
  0
LINE
  5
10BB
330
2
100
AcDbEntity
  8
0
100
AcDbLine
 10
388.9866241887271
 20
345.6838910209378
 30
0.0
 11
453.9866241887262
 21
345.6838910209378
 31
0.0
  0
LINE
  5
10BC
330
2
100
AcDbEntity
  8
0
100
AcDbLine
 10
388.9866241887293
 20
365.1437918437685
 30
0.0
 11
453.9866241887284
 21
365.1437918437685
 31
0.0
  0
LINE
  5
10BD
330
2
100
AcDbEntity
  8
0
100
AcDbLine
 10
719.4105202466849
 20
654.7929037400097
 30
0.0
 11
719.1136544311753
 21
620.7754506715575
 31
0.0
  0
ARC
  5
10BE
330
2
100
AcDbEntity
  8
0
100
AcDbCircle
 10
721.1662441053135
 20
626.7929037400096
 30
0.0
 40
2.0
100
AcDbArc
 50
90.0
 51
179.5000000000344
  0
ARC
  5
10BF
330
2
100
AcDbEntity
  8
0
100
AcDbCircle
 10
724.1750852082618
 20
627.7929037400097
 30
0.0
 40
5.0
100
AcDbArc
 50
90.0
 51
179.5000000000344
  0
ARC
  5
10C0
330
2
100
AcDbEntity
  8
0
100
AcDbCircle
 10
722.3626367089923
 20
649.2929037400097
 30
0.0
 40
3.0
100
AcDbArc
 50
90.0
 51
179.5000000000344
  0
LINE
  5
10C1
330
2
100
AcDbEntity
  8
0
100
AcDbLine
 10
681.5858312404794
 20
616.7929037425544
 30
0.0
 11
682.1618045146456
 21
682.7929037400097
 31
0.0
  0
ARC
  5
10C2
330
2
100
AcDbEntity
  8
0
100
AcDbCircle
 10
683.0902517919534
 20
617.2929037425545
 30
0.0
 40
1.5
100
AcDbArc
 50
90.0
 51
179.5000000000344
  0
LINE
  5
10C3
330
2
100
AcDbEntity
  8
0
100
AcDbLine
 10
719.4105202464502
 20
654.7929037400097
 30
0.0
 11
719.1661679485418
 21
682.7929037400097
 31
0.0
  0
ARC
  5
10C4
330
2
100
AcDbEntity
  8
0
100
AcDbCircle
 10
721.1662441053126
 20
682.7929037400097
 30
0.0
 40
2.0
100
AcDbArc
 50
180.4999999995485
 51
270.0
  0
ARC
  5
10C5
330
2
100
AcDbEntity
  8
0
100
AcDbCircle
 10
724.1750852082527
 20
681.7929037400097
 30
0.0
 40
5.0
100
AcDbArc
 50
180.4999999995485
 51
270.0
  0
ARC
  5
10C6
330
2
100
AcDbEntity
  8
0
100
AcDbCircle
 10
722.3626367088041
 20
660.2929037400096
 30
0.0
 40
3.0
100
AcDbArc
 50
180.4999999995485
 51
270.0
  0
LINE
  5
10C7
330
2
100
AcDbEntity
  8
CENTER
100
AcDbLine
 10
268.1801018067121
 20
428.6838910209379
 30
0.0
 11
250.6801018067121
 21
428.6838910209379
 31
0.0
  0
CIRCLE
  5
10C8
330
2
100
AcDbEntity
  8
HOJO
100
AcDbCircle
 10
261.4301018067089
 20
417.1838910209379
 30
0.0
 40
2.0
  0
CIRCLE
  5
10C9
330
2
100
AcDbEntity
  8
HOJO
100
AcDbCircle
 10
261.4301018067099
 20
354.1838910209378
 30
0.0
 40
2.0
  0
LINE
  5
10CA
330
2
100
AcDbEntity
  8
CENTER
100
AcDbLine
 10
126.1801018067089
 20
415.1838910209378
 30
0.0
 11
143.6801018067089
 21
415.1838910209378
 31
0.0
  0
CIRCLE
  5
10CB
330
2
100
AcDbEntity
  8
HOJO
100
AcDbCircle
 10
146.4301018067089
 20
417.1838910209379
 30
0.0
 40
2.0
  0
LINE
  5
10CC
330
2
100
AcDbEntity
  8
CENTER
100
AcDbLine
 10
146.4301018067089
 20
422.3570961016947
 30
0.0
 11
146.4301018067089
 21
412.010685940181
 31
0.0
  0
LINE
  5
10CD
330
2
100
AcDbEntity
  8
CENTER
100
AcDbLine
 10
141.2568967259521
 20
417.1838910209379
 30
0.0
 11
151.6033068874658
 21
417.1838910209379
 31
0.0
  0
LINE
  5
10CE
330
2
100
AcDbEntity
  8
CENTER
100
AcDbLine
 10
134.930101806708
 20
423.9338910209379
 30
0.0
 11
134.9301018067089
 21
406.4338910209379
 31
0.0
  0
LINE
  5
10CF
330
2
100
AcDbEntity
  8
CENTER
100
AcDbLine
 10
141.2568967259558
 20
354.1838910209378
 30
0.0
 11
152.8568137448965
 21
354.1838910209378
 31
0.0
  0
LINE
  5
10D0
330
2
100
AcDbEntity
  8
CENTER
100
AcDbLine
 10
146.4301018067126
 20
347.5810653761644
 30
0.0
 11
146.4301018067126
 21
361.3243896732736
 31
0.0
  0
CIRCLE
  5
10D1
330
2
100
AcDbEntity
  8
HOJO
100
AcDbCircle
 10
146.4301018067108
 20
354.183891020936
 30
0.0
 40
2.0
  0
ARC
  5
10D2
330
2
100
AcDbEntity
  8
0
100
AcDbCircle
 10
250.4301018067076
 20
337.6276811511168
 30
0.0
 40
2.0
100
AcDbArc
 50
263.240180066883
 51
0.0
  0
ARC
  5
10D3
330
2
100
AcDbEntity
  8
0
100
AcDbCircle
 10
259.4301018067089
 20
342.6838910209379
 30
0.0
 40
8.0
100
AcDbArc
 50
270.0
 51
0.0
  0
ARC
  5
10D4
330
2
100
AcDbEntity
  8
0
100
AcDbCircle
 10
173.4301018067053
 20
342.6838910209379
 30
0.0
 40
8.0
100
AcDbArc
 50
180.0
 51
270.0
  0
LINE
  5
10D5
330
2
100
AcDbEntity
  8
0
100
AcDbLine
 10
134.4301018067099
 20
349.6838910209378
 30
0.0
 11
159.4301018067126
 21
349.6838910209378
 31
0.0
  0
LINE
  5
10D6
330
2
100
AcDbEntity
  8
0
100
AcDbLine
 10
134.4301018067099
 20
421.6838910209379
 30
0.0
 11
159.4301018067126
 21
421.6838910209379
 31
0.0
  0
LINE
  5
10D7
330
2
100
AcDbEntity
  8
0
100
AcDbLine
 10
252.4301018067089
 20
428.6838910209379
 30
0.0
 11
252.4301018067089
 21
433.7401008907607
 31
0.0
  0
ARC
  5
10D8
330
2
100
AcDbEntity
  8
0
100
AcDbCircle
 10
173.4301018067126
 20
428.6838910209379
 30
0.0
 40
8.0
100
AcDbArc
 50
90.0
 51
180.0
  0
ARC
  5
10D9
330
2
100
AcDbEntity
  8
0
100
AcDbCircle
 10
259.4301018067089
 20
428.6838910209379
 30
0.0
 40
8.0
100
AcDbArc
 50
0.0
 51
90.0
  0
ARC
  5
10DA
330
2
100
AcDbEntity
  8
0
100
AcDbCircle
 10
216.430101806709
 20
236.6838910209378
 30
0.0
 40
200.0
100
AcDbArc
 50
84.10530161362286
 51
95.89469838637716
  0
ARC
  5
10DB
330
2
100
AcDbEntity
  8
0
100
AcDbCircle
 10
250.4301018067089
 20
433.7401008907607
 30
0.0
 40
2.0
100
AcDbArc
 50
0.0
 51
96.75981993311687
  0
ARC
  5
10DC
330
2
100
AcDbEntity
  8
0
100
AcDbCircle
 10
243.1322307370346
 20
495.3090953429225
 30
0.0
 40
60.0
100
AcDbArc
 50
264.1053016136229
 51
281.8050678104682
  0
LINE
  5
10DD
330
2
100
AcDbEntity
  8
0
100
AcDbLine
 10
259.4301018067085
 20
436.6838910209379
 30
0.0
 11
256.4301018067089
 21
436.6838910209379
 31
0.0
  0
ARC
  5
10DE
330
2
100
AcDbEntity
  8
0
100
AcDbCircle
 10
256.4301018067089
 20
431.6838910209378
 30
0.0
 40
5.0
100
AcDbArc
 50
89.99999999997395
 51
101.8050678104681
  0
ARC
  5
10DF
330
2
100
AcDbEntity
  8
0
100
AcDbCircle
 10
189.7279728763842
 20
495.3090953429225
 30
0.0
 40
60.0
100
AcDbArc
 50
258.1949321895318
 51
275.8946983863771
  0
ARC
  5
10E0
330
2
100
AcDbEntity
  8
0
100
AcDbCircle
 10
176.4301018067089
 20
431.6838910209378
 30
0.0
 40
5.0
100
AcDbArc
 50
78.19493218953183
 51
90.0
  0
LINE
  5
10E1
330
2
100
AcDbEntity
  8
0
100
AcDbLine
 10
176.4301018067089
 20
436.6838910209379
 30
0.0
 11
173.4301018067126
 21
436.6838910209379
 31
0.0
  0
CIRCLE
  5
10E2
330
2
100
AcDbEntity
  8
0
100
AcDbCircle
 10
216.430101806709
 20
385.6838910209379
 30
0.0
 40
26.57735026918791
  0
CIRCLE
  5
10E3
330
2
100
AcDbEntity
  8
0
100
AcDbCircle
 10
216.430101806709
 20
385.6838910209379
 30
0.0
 40
32.42260000000154
  0
CIRCLE
  5
10E4
330
2
100
AcDbEntity
  8
0
100
AcDbCircle
 10
216.430101806709
 20
385.6838910209379
 30
0.0
 40
35.50000000000153
  0
CIRCLE
  5
10E5
330
2
100
AcDbEntity
  8
0
100
AcDbCircle
 10
216.430101806709
 20
385.6838910209379
 30
0.0
 40
35.00000000000153
  0
LINE
  5
10E6
330
2
100
AcDbEntity
  8
0
100
AcDbLine
 10
240.4301018067089
 20
424.6838910209379
 30
0.0
 11
192.4301018067089
 21
424.6838910209379
 31
0.0
  0
LINE
  5
10E7
330
2
100
AcDbEntity
  8
0
100
AcDbLine
 10
240.4301018067085
 20
346.6838910209379
 30
0.0
 11
192.4301018067089
 21
346.6838910209379
 31
0.0
  0
CIRCLE
  5
10E8
330
2
100
AcDbEntity
  8
0
100
AcDbCircle
 10
216.430101806709
 20
385.6838910209379
 30
0.0
 40
33.00000000000153
  0
CIRCLE
  5
10E9
330
2
100
AcDbEntity
  8
0
100
AcDbCircle
 10
216.430101806709
 20
385.6838910209379
 30
0.0
 40
26.0
  0
LINE
  5
10EA
330
2
100
AcDbEntity
  8
0
100
AcDbLine
 10
255.4301018067085
 20
361.6838910209378
 30
0.0
 11
255.4301018067089
 21
409.6838910209378
 31
0.0
  0
ARC
  5
10EB
330
2
100
AcDbEntity
  8
0
100
AcDbCircle
 10
67.43010180670899
 20
385.6838910209379
 30
0.0
 40
200.0
100
AcDbArc
 50
354.1053016136495
 51
5.894698386350537
  0
ARC
  5
10EC
330
2
100
AcDbEntity
  8
0
100
AcDbCircle
 10
262.430101806708
 20
425.6838910209379
 30
0.0
 40
5.0
100
AcDbArc
 50
348.1949321895559
 51
0.0
  0
LINE
  5
10ED
330
2
100
AcDbEntity
  8
0
100
AcDbLine
 10
267.4301018067089
 20
425.683891020936
 30
0.0
 11
267.4301018067089
 21
428.6838910209379
 31
0.0
  0
CIRCLE
  5
10EE
330
2
100
AcDbEntity
  8
0
100
AcDbCircle
 10
261.4301018067089
 20
417.1838910209379
 30
0.0
 40
3.0
  0
CIRCLE
  5
10EF
330
2
100
AcDbEntity
  8
0
100
AcDbCircle
 10
261.4301018067089
 20
417.1838910209379
 30
0.0
 40
2.5
  0
CIRCLE
  5
10F0
330
2
100
AcDbEntity
  8
0
100
AcDbCircle
 10
261.4301018067089
 20
417.1838910209379
 30
0.0
 40
1.6
  0
ARC
  5
10F1
330
2
100
AcDbEntity
  8
0
100
AcDbCircle
 10
326.0553061286937
 20
412.3860199512626
 30
0.0
 40
60.0
100
AcDbArc
 50
168.1949321895559
 51
185.8946983863505
  0
ARC
  5
10F2
330
2
100
AcDbEntity
  8
0
100
AcDbCircle
 10
259.4301018067089
 20
428.6838910209379
 30
0.0
 40
7.0
100
AcDbArc
 50
180.0
 51
270.0
  0
ARC
  5
10F3
330
2
100
AcDbEntity
  8
0
100
AcDbCircle
 10
264.4863116765309
 20
419.6838910209378
 30
0.0
 40
2.0
100
AcDbArc
 50
353.240180066883
 51
90.0
  0
LINE
  5
10F4
330
2
100
AcDbEntity
  8
0
100
AcDbLine
 10
259.4301018067117
 20
421.6838910209379
 30
0.0
 11
264.4863116765309
 21
421.6838910209379
 31
0.0
  0
ARC
  5
10F5
330
2
100
AcDbEntity
  8
0
100
AcDbCircle
 10
326.0553061286927
 20
358.9817620906131
 30
0.0
 40
60.0
100
AcDbArc
 50
174.1053016136494
 51
191.805067810444
  0
ARC
  5
10F6
330
2
100
AcDbEntity
  8
0
100
AcDbCircle
 10
262.430101806708
 20
345.6838910209378
 30
0.0
 40
5.0
100
AcDbArc
 50
0.0
 51
11.80506781044405
  0
LINE
  5
10F7
330
2
100
AcDbEntity
  8
0
100
AcDbLine
 10
267.4301018067089
 20
342.6838910209379
 30
0.0
 11
267.4301018067089
 21
345.683891020936
 31
0.0
  0
ARC
  5
10F8
330
2
100
AcDbEntity
  8
0
100
AcDbCircle
 10
259.430101806708
 20
342.6838910209379
 30
0.0
 40
7.0
100
AcDbArc
 50
89.99999999997395
 51
180.0
  0
CIRCLE
  5
10F9
330
2
100
AcDbEntity
  8
0
100
AcDbCircle
 10
261.4301018067099
 20
354.1838910209378
 30
0.0
 40
3.0
  0
CIRCLE
  5
10FA
330
2
100
AcDbEntity
  8
0
100
AcDbCircle
 10
261.4301018067099
 20
354.1838910209378
 30
0.0
 40
2.5
  0
ARC
  5
10FB
330
2
100
AcDbEntity
  8
0
100
AcDbCircle
 10
264.4863116765309
 20
351.6838910209378
 30
0.0
 40
2.0
100
AcDbArc
 50
269.9999999999739
 51
6.759819933116934
  0
CIRCLE
  5
10FC
330
2
100
AcDbEntity
  8
0
100
AcDbCircle
 10
261.4301018067099
 20
354.1838910209378
 30
0.0
 40
1.6
  0
LINE
  5
10FD
330
2
100
AcDbEntity
  8
0
100
AcDbLine
 10
259.4301018067108
 20
349.6838910209378
 30
0.0
 11
264.4863116765309
 21
349.6838910209378
 31
0.0
  0
LINE
  5
10FE
330
2
100
AcDbEntity
  8
0
100
AcDbLine
 10
252.4301018067076
 20
342.6838910209379
 30
0.0
 11
252.4301018067071
 21
337.6276811511168
 31
0.0
  0
LINE
  5
10FF
330
2
100
AcDbEntity
  8
0
100
AcDbLine
 10
177.4301018067089
 20
361.6838910209378
 30
0.0
 11
177.4301018067089
 21
409.6838910209378
 31
0.0
  0
LINE
  5
1100
330
2
100
AcDbEntity
  8
0
100
AcDbLine
 10
165.4301018067126
 20
342.6838910209379
 30
0.0
 11
165.4301018067126
 21
428.6838910209379
 31
0.0
  0
LINE
  5
1101
330
2
100
AcDbEntity
  8
0
100
AcDbLine
 10
128.4301018067099
 20
415.6838910209378
 30
0.0
 11
128.4301018067099
 21
355.6838910209378
 31
0.0
  0
ARC
  5
1102
330
2
100
AcDbEntity
  8
0
100
AcDbCircle
 10
134.9301018067089
 20
415.1838910209378
 30
0.0
 40
7.0
100
AcDbArc
 50
270.0
 51
0.0
  0
CIRCLE
  5
1103
330
2
100
AcDbEntity
  8
0
100
AcDbCircle
 10
146.4301018067089
 20
417.1838910209379
 30
0.0
 40
2.5
  0
CIRCLE
  5
1104
330
2
100
AcDbEntity
  8
0
100
AcDbCircle
 10
146.4301018067089
 20
417.1838910209379
 30
0.0
 40
1.6
  0
CIRCLE
  5
1105
330
2
100
AcDbEntity
  8
0
100
AcDbCircle
 10
146.4301018067089
 20
417.1838910209379
 30
0.0
 40
3.0
  0
LINE
  5
1106
330
2
100
AcDbEntity
  8
0
100
AcDbLine
 10
141.9301018067089
 20
415.1838910209378
 30
0.0
 11
141.930101806708
 21
419.6838910209378
 31
0.0
  0
ARC
  5
1107
330
2
100
AcDbEntity
  8
0
100
AcDbCircle
 10
134.4301018067099
 20
415.6838910209378
 30
0.0
 40
6.0
100
AcDbArc
 50
90.0
 51
180.0
  0
LINE
  5
1108
330
2
100
AcDbEntity
  8
0
100
AcDbLine
 10
134.9301018067089
 20
408.1838910209379
 30
0.0
 11
130.4301018067094
 21
408.1838910209379
 31
0.0
  0
ARC
  5
1109
330
2
100
AcDbEntity
  8
0
100
AcDbCircle
 10
134.9301018067099
 20
356.1838910209378
 30
0.0
 40
7.0
100
AcDbArc
 50
0.0
 51
90.0
  0
LINE
  5
110A
330
2
100
AcDbEntity
  8
0
100
AcDbLine
 10
134.9301018067099
 20
363.1838910209379
 30
0.0
 11
130.4301018067099
 21
363.1838910209379
 31
0.0
  0
CIRCLE
  5
110B
330
2
100
AcDbEntity
  8
0
100
AcDbCircle
 10
146.4301018067126
 20
354.1838910209378
 30
0.0
 40
3.25
  0
CIRCLE
  5
110C
330
2
100
AcDbEntity
  8
0
100
AcDbCircle
 10
146.4301018067126
 20
354.1838910209378
 30
0.0
 40
2.75
  0
LINE
  5
110D
330
2
100
AcDbEntity
  8
0
100
AcDbLine
 10
141.9301018067099
 20
356.1838910209378
 30
0.0
 11
141.9301018067099
 21
351.6838910209378
 31
0.0
  0
ARC
  5
110E
330
2
100
AcDbEntity
  8
0
100
AcDbCircle
 10
134.4301018067099
 20
355.6838910209378
 30
0.0
 40
6.0
100
AcDbArc
 50
180.0
 51
270.0
  0
ARC
  5
110F
330
2
100
AcDbEntity
  8
0
100
AcDbCircle
 10
216.430101806709
 20
534.6838910209378
 30
0.0
 40
200.0
100
AcDbArc
 50
264.1053016136229
 51
275.8946983863771
  0
ARC
  5
1110
330
2
100
AcDbEntity
  8
0
100
AcDbCircle
 10
243.1322307370337
 20
276.0586866989531
 30
0.0
 40
60.0
100
AcDbArc
 50
78.19493218953183
 51
95.89469838637716
  0
LINE
  5
1111
330
2
100
AcDbEntity
  8
0
100
AcDbLine
 10
259.4301018067089
 20
334.6838910209378
 30
0.0
 11
256.4301018067089
 21
334.6838910209378
 31
0.0
  0
ARC
  5
1112
330
2
100
AcDbEntity
  8
0
100
AcDbCircle
 10
256.4301018067089
 20
339.6838910209378
 30
0.0
 40
5.0
100
AcDbArc
 50
258.1949321895318
 51
270.0
  0
ARC
  5
1113
330
2
100
AcDbEntity
  8
0
100
AcDbCircle
 10
189.7279728763833
 20
276.0586866989531
 30
0.0
 40
60.0
100
AcDbArc
 50
84.10530161362286
 51
101.8050678104681
  0
ARC
  5
1114
330
2
100
AcDbEntity
  8
0
100
AcDbCircle
 10
176.4301018067089
 20
339.6838910209378
 30
0.0
 40
5.0
100
AcDbArc
 50
269.9999999999739
 51
281.8050678104682
  0
LINE
  5
1115
330
2
100
AcDbEntity
  8
0
100
AcDbLine
 10
173.4301018067062
 20
334.6838910209378
 30
0.0
 11
176.4301018067089
 21
334.6838910209378
 31
0.0
  0
CIRCLE
  5
1116
330
2
100
AcDbEntity
  8
0
100
AcDbCircle
 10
146.4301018067126
 20
354.1838910209378
 30
0.0
 40
1.6
  0
ARC
  5
1117
330
2
100
AcDbEntity
  8
0
100
AcDbCircle
 10
159.4301018067126
 20
427.6838910209378
 30
0.0
 40
6.0
100
AcDbArc
 50
270.0
 51
0.0
  0
ARC
  5
1118
330
2
100
AcDbEntity
  8
0
100
AcDbCircle
 10
159.4301018067126
 20
343.6838910209378
 30
0.0
 40
6.0
100
AcDbArc
 50
0.0
 51
90.0
  0
LINE
  5
1119
330
2
100
AcDbEntity
  8
CENTER
100
AcDbLine
 10
259.4301018067139
 20
437.4338910209378
 30
0.0
 11
259.4301018067126
 21
419.9338910209378
 31
0.0
  0
ARC
  5
111A
330
2
100
AcDbEntity
  8
0
100
AcDbCircle
 10
143.930101806708
 20
419.6838910209378
 30
0.0
 40
2.0
100
AcDbArc
 50
90.0
 51
180.0
  0
ARC
  5
111B
330
2
100
AcDbEntity
  8
0
100
AcDbCircle
 10
130.4301018067099
 20
406.1838910209378
 30
0.0
 40
2.0
100
AcDbArc
 50
90.0
 51
180.0
  0
ARC
  5
111C
330
2
100
AcDbEntity
  8
0
100
AcDbCircle
 10
130.4301018067099
 20
365.1838910209379
 30
0.0
 40
2.0
100
AcDbArc
 50
180.0
 51
270.0
  0
ARC
  5
111D
330
2
100
AcDbEntity
  8
0
100
AcDbCircle
 10
143.9301018067099
 20
351.6838910209378
 30
0.0
 40
2.0
100
AcDbArc
 50
180.0
 51
270.0
  0
LINE
  5
111E
330
2
100
AcDbEntity
  8
0
100
AcDbLine
 10
257.4301018067089
 20
361.6838910209378
 30
0.0
 11
257.4301018067089
 21
409.6838910209378
 31
0.0
  0
LINE
  5
111F
330
2
100
AcDbEntity
  8
0
100
AcDbLine
 10
240.4301018067089
 20
426.6838910209378
 30
0.0
 11
192.4301018067089
 21
426.6838910209378
 31
0.0
  0
LINE
  5
1120
330
2
100
AcDbEntity
  8
0
100
AcDbLine
 10
175.4301018067089
 20
361.6838910209378
 30
0.0
 11
175.4301018067089
 21
409.6838910209378
 31
0.0
  0
LINE
  5
1121
330
2
100
AcDbEntity
  8
0
100
AcDbLine
 10
240.4301018067089
 20
344.6838910209379
 30
0.0
 11
192.4301018067089
 21
344.6838910209379
 31
0.0
  0
ARC
  5
1122
330
2
100
AcDbEntity
  8
0
100
AcDbCircle
 10
240.4301018067089
 20
409.6838910209378
 30
0.0
 40
15.0
100
AcDbArc
 50
0.0
 51
90.0
  0
ARC
  5
1123
330
2
100
AcDbEntity
  8
0
100
AcDbCircle
 10
240.4301018067089
 20
409.6838910209378
 30
0.0
 40
17.0
100
AcDbArc
 50
0.0
 51
90.0
  0
LINE
  5
1124
330
2
100
AcDbEntity
  8
0
100
AcDbLine
 10
252.4509170868796
 20
421.7047063011094
 30
0.0
 11
251.0367035245071
 21
420.290492738736
 31
0.0
  0
ARC
  5
1125
330
2
100
AcDbEntity
  8
0
100
AcDbCircle
 10
240.4301018067085
 20
361.6838910209378
 30
0.0
 40
15.0
100
AcDbArc
 50
270.0
 51
0.0
  0
ARC
  5
1126
330
2
100
AcDbEntity
  8
0
100
AcDbCircle
 10
192.4301018067089
 20
409.6838910209378
 30
0.0
 40
15.0
100
AcDbArc
 50
90.0
 51
180.0
  0
ARC
  5
1127
330
2
100
AcDbEntity
  8
0
100
AcDbCircle
 10
192.4301018067089
 20
361.6838910209378
 30
0.0
 40
15.0
100
AcDbArc
 50
180.0
 51
270.0
  0
ARC
  5
1128
330
2
100
AcDbEntity
  8
0
100
AcDbCircle
 10
192.4301018067089
 20
409.6838910209378
 30
0.0
 40
17.0
100
AcDbArc
 50
90.0
 51
180.0
  0
ARC
  5
1129
330
2
100
AcDbEntity
  8
0
100
AcDbCircle
 10
192.4301018067089
 20
361.6838910209378
 30
0.0
 40
17.0
100
AcDbArc
 50
180.0
 51
270.0
  0
ARC
  5
112A
330
2
100
AcDbEntity
  8
0
100
AcDbCircle
 10
240.4301018067089
 20
361.6838910209378
 30
0.0
 40
17.0
100
AcDbArc
 50
270.0
 51
0.0
  0
LINE
  5
112B
330
2
100
AcDbEntity
  8
0
100
AcDbLine
 10
251.0367035245067
 20
351.0772893031397
 30
0.0
 11
252.4509170868796
 21
349.6630757407663
 31
0.0
  0
LINE
  5
112C
330
2
100
AcDbEntity
  8
0
100
AcDbLine
 10
181.8235000889108
 20
420.290492738736
 30
0.0
 11
180.4092865265374
 21
421.7047063011094
 31
0.0
  0
LINE
  5
112D
330
2
100
AcDbEntity
  8
0
100
AcDbLine
 10
181.8235000889108
 20
351.0772893031397
 30
0.0
 11
180.4092865265374
 21
349.6630757407663
 31
0.0
  0
LINE
  5
112E
330
2
100
AcDbEntity
  8
CENTER
100
AcDbLine
 10
268.1801018067121
 20
342.6838910209379
 30
0.0
 11
250.6801018067121
 21
342.6838910209379
 31
0.0
  0
LINE
  5
112F
330
2
100
AcDbEntity
  8
CENTER
100
AcDbLine
 10
259.4301018067139
 20
333.9338910209397
 30
0.0
 11
259.4301018067126
 21
351.4338910209397
 31
0.0
  0
LINE
  5
1130
330
2
100
AcDbEntity
  8
CENTER
100
AcDbLine
 10
126.1801018067089
 20
356.1838910209397
 30
0.0
 11
143.6801018067089
 21
356.1838910209378
 31
0.0
  0
LINE
  5
1131
330
2
100
AcDbEntity
  8
CENTER
100
AcDbLine
 10
134.930101806708
 20
347.4338910209378
 30
0.0
 11
134.9301018067089
 21
364.9338910209379
 31
0.0
  0
CIRCLE
  5
1132
330
2
100
AcDbEntity
  8
0
100
AcDbCircle
 10
259.4301018067089
 20
428.6838910209379
 30
0.0
 40
5.000000000000113
  0
CIRCLE
  5
1133
330
2
100
AcDbEntity
  8
0
100
AcDbCircle
 10
259.4301018067089
 20
428.6838910209379
 30
0.0
 40
4.307179676972509
  0
LINE
  5
1134
330
2
100
AcDbEntity
  8
0
100
AcDbLine
 10
261.930101806709
 20
430.1272666939119
 30
0.0
 11
261.930101806709
 21
427.2405153479637
 31
0.0
  0
LINE
  5
1135
330
2
100
AcDbEntity
  8
0
100
AcDbLine
 10
259.4301018067089
 20
425.7971396749897
 30
0.0
 11
261.930101806709
 21
427.2405153479637
 31
0.0
  0
LINE
  5
1136
330
2
100
AcDbEntity
  8
0
100
AcDbLine
 10
261.930101806709
 20
430.1272666939119
 30
0.0
 11
259.4301018067089
 21
431.570642366886
 31
0.0
  0
LINE
  5
1137
330
2
100
AcDbEntity
  8
0
100
AcDbLine
 10
256.9301018067089
 20
430.1272666939119
 30
0.0
 11
256.9301018067089
 21
427.2405153479637
 31
0.0
  0
LINE
  5
1138
330
2
100
AcDbEntity
  8
0
100
AcDbLine
 10
259.4301018067089
 20
425.7971396749897
 30
0.0
 11
256.9301018067089
 21
427.2405153479637
 31
0.0
  0
LINE
  5
1139
330
2
100
AcDbEntity
  8
0
100
AcDbLine
 10
256.9301018067089
 20
430.1272666939119
 30
0.0
 11
259.4301018067089
 21
431.570642366886
 31
0.0
  0
CIRCLE
  5
113A
330
2
100
AcDbEntity
  8
0
100
AcDbCircle
 10
259.4301018067135
 20
342.6838910209379
 30
0.0
 40
5.000000000000113
  0
CIRCLE
  5
113B
330
2
100
AcDbEntity
  8
0
100
AcDbCircle
 10
259.4301018067135
 20
342.6838910209379
 30
0.0
 40
4.307179676972509
  0
LINE
  5
113C
330
2
100
AcDbEntity
  8
0
100
AcDbLine
 10
261.9301018067135
 20
344.1272666939119
 30
0.0
 11
261.9301018067135
 21
341.2405153479638
 31
0.0
  0
LINE
  5
113D
330
2
100
AcDbEntity
  8
0
100
AcDbLine
 10
259.4301018067131
 20
339.7971396749897
 30
0.0
 11
261.9301018067135
 21
341.2405153479638
 31
0.0
  0
LINE
  5
113E
330
2
100
AcDbEntity
  8
0
100
AcDbLine
 10
261.9301018067135
 20
344.1272666939119
 30
0.0
 11
259.4301018067135
 21
345.570642366886
 31
0.0
  0
LINE
  5
113F
330
2
100
AcDbEntity
  8
0
100
AcDbLine
 10
256.9301018067135
 20
344.1272666939119
 30
0.0
 11
256.9301018067135
 21
341.2405153479638
 31
0.0
  0
LINE
  5
1140
330
2
100
AcDbEntity
  8
0
100
AcDbLine
 10
259.4301018067131
 20
339.7971396749897
 30
0.0
 11
256.9301018067135
 21
341.2405153479638
 31
0.0
  0
LINE
  5
1141
330
2
100
AcDbEntity
  8
0
100
AcDbLine
 10
256.9301018067135
 20
344.1272666939119
 30
0.0
 11
259.4301018067135
 21
345.570642366886
 31
0.0
  0
CIRCLE
  5
1142
330
2
100
AcDbEntity
  8
0
100
AcDbCircle
 10
134.9301018067089
 20
356.1838910209378
 30
0.0
 40
5.000000000000113
  0
CIRCLE
  5
1143
330
2
100
AcDbEntity
  8
0
100
AcDbCircle
 10
134.9301018067089
 20
356.1838910209378
 30
0.0
 40
4.307179676972509
  0
LINE
  5
1144
330
2
100
AcDbEntity
  8
0
100
AcDbLine
 10
137.4301018067089
 20
357.6272666939119
 30
0.0
 11
137.4301018067089
 21
354.7405153479638
 31
0.0
  0
LINE
  5
1145
330
2
100
AcDbEntity
  8
0
100
AcDbLine
 10
134.9301018067085
 20
353.2971396749897
 30
0.0
 11
137.4301018067089
 21
354.7405153479638
 31
0.0
  0
LINE
  5
1146
330
2
100
AcDbEntity
  8
0
100
AcDbLine
 10
137.4301018067089
 20
357.6272666939119
 30
0.0
 11
134.9301018067089
 21
359.070642366886
 31
0.0
  0
LINE
  5
1147
330
2
100
AcDbEntity
  8
0
100
AcDbLine
 10
132.4301018067089
 20
357.6272666939119
 30
0.0
 11
132.4301018067089
 21
354.7405153479638
 31
0.0
  0
LINE
  5
1148
330
2
100
AcDbEntity
  8
0
100
AcDbLine
 10
134.9301018067085
 20
353.2971396749897
 30
0.0
 11
132.4301018067089
 21
354.7405153479638
 31
0.0
  0
LINE
  5
1149
330
2
100
AcDbEntity
  8
0
100
AcDbLine
 10
132.4301018067089
 20
357.6272666939119
 30
0.0
 11
134.9301018067089
 21
359.070642366886
 31
0.0
  0
CIRCLE
  5
114A
330
2
100
AcDbEntity
  8
0
100
AcDbCircle
 10
134.9301018067089
 20
415.1838910209378
 30
0.0
 40
5.000000000000113
  0
CIRCLE
  5
114B
330
2
100
AcDbEntity
  8
0
100
AcDbCircle
 10
134.9301018067089
 20
415.1838910209378
 30
0.0
 40
4.307179676972509
  0
LINE
  5
114C
330
2
100
AcDbEntity
  8
0
100
AcDbLine
 10
137.4301018067089
 20
416.627266693912
 30
0.0
 11
137.4301018067089
 21
413.7405153479638
 31
0.0
  0
LINE
  5
114D
330
2
100
AcDbEntity
  8
0
100
AcDbLine
 10
134.9301018067085
 20
412.2971396749897
 30
0.0
 11
137.4301018067089
 21
413.7405153479638
 31
0.0
  0
LINE
  5
114E
330
2
100
AcDbEntity
  8
0
100
AcDbLine
 10
137.4301018067089
 20
416.627266693912
 30
0.0
 11
134.9301018067089
 21
418.070642366886
 31
0.0
  0
LINE
  5
114F
330
2
100
AcDbEntity
  8
0
100
AcDbLine
 10
132.4301018067089
 20
416.627266693912
 30
0.0
 11
132.4301018067089
 21
413.7405153479638
 31
0.0
  0
LINE
  5
1150
330
2
100
AcDbEntity
  8
0
100
AcDbLine
 10
134.9301018067085
 20
412.2971396749897
 30
0.0
 11
132.4301018067089
 21
413.7405153479638
 31
0.0
  0
LINE
  5
1151
330
2
100
AcDbEntity
  8
0
100
AcDbLine
 10
132.4301018067089
 20
416.627266693912
 30
0.0
 11
134.9301018067089
 21
418.070642366886
 31
0.0
  0
LINE
  5
1152
330
2
100
AcDbEntity
  8
0
100
AcDbLine
 10
362.9866241887238
 20
353.2612412901297
 30
0.0
 11
362.9866241887238
 21
418.1065407517478
 31
0.0
  0
LINE
  5
1153
330
2
100
AcDbEntity
  8
0
100
AcDbLine
 10
372.9008377510972
 20
426.0981045833112
 30
0.0
 11
372.0724106263515
 21
425.2696774585645
 31
0.0
  0
LINE
  5
1154
330
2
100
AcDbEntity
  8
0
100
AcDbLine
 10
388.9866241887266
 20
436.6838910209379
 30
0.0
 11
388.986624188732
 21
334.6838910209397
 31
0.0
  0
LINE
  5
1155
330
2
100
AcDbEntity
  8
0
100
AcDbLine
 10
373.4866241887211
 20
336.8017798928856
 30
0.0
 11
373.4866241887239
 21
434.5660021489901
 31
0.0
  0
ARC
  5
1156
330
2
100
AcDbEntity
  8
0
100
AcDbCircle
 10
375.4866241887211
 20
336.8017798928856
 30
0.0
 40
2.0
100
AcDbArc
 50
180.0
 51
269.5000000000084
  0
ARC
  5
1157
330
2
100
AcDbEntity
  8
0
100
AcDbCircle
 10
375.4866241887211
 20
351.7363283844559
 30
0.0
 40
2.0
100
AcDbArc
 50
180.0
 51
269.5000000000084
  0
LINE
  5
1158
330
2
100
AcDbEntity
  8
0
100
AcDbLine
 10
367.4866241887239
 20
418.4838910209389
 30
0.0
 11
367.6866241887237
 21
418.6838910209378
 31
0.0
  0
LINE
  5
1159
330
2
100
AcDbEntity
  8
0
100
AcDbLine
 10
370.9866241887239
 20
420.6838910209379
 30
0.0
 11
371.4866241887239
 21
421.1838910209379
 31
0.0
  0
LINE
  5
115A
330
2
100
AcDbEntity
  8
0
100
AcDbLine
 10
371.4866241887248
 20
423.855463896193
 30
0.0
 11
371.4866241887239
 21
421.1838910209379
 31
0.0
  0
LINE
  5
115B
330
2
100
AcDbEntity
  8
0
100
AcDbLine
 10
367.6866241887237
 20
418.6838910209378
 30
0.0
 11
370.9866241887239
 21
418.6838910209378
 31
0.0
  0
LINE
  5
115C
330
2
100
AcDbEntity
  8
0
100
AcDbLine
 10
363.9866241887239
 20
418.6838910209378
 30
0.0
 11
362.9866241887238
 21
418.1065407517478
 31
0.0
  0
LINE
  5
115D
330
2
100
AcDbEntity
  8
0
100
AcDbLine
 10
363.9866241887239
 20
418.6838910209378
 30
0.0
 11
365.286624188724
 21
418.6838910209378
 31
0.0
  0
LINE
  5
115E
330
2
100
AcDbEntity
  8
0
100
AcDbLine
 10
365.6866241887237
 20
417.9838910209389
 30
0.0
 11
367.286624188724
 21
417.9838910209389
 31
0.0
  0
LINE
  5
115F
330
2
100
AcDbEntity
  8
0
100
AcDbLine
 10
388.986624188732
 20
334.6838910209397
 30
0.0
 11
375.4691711177247
 21
334.8018560467579
 31
0.0
  0
ARC
  5
1160
330
2
100
AcDbEntity
  8
0
100
AcDbCircle
 10
382.4866241888003
 20
335.7406537399645
 30
0.0
 40
1.0
100
AcDbArc
 50
180.0
 51
269.5000000000084
  0
LINE
  5
1161
330
2
100
AcDbEntity
  8
0
100
AcDbLine
 10
372.9008377510972
 20
345.2696774585645
 30
0.0
 11
372.0724106263569
 21
346.0981045833057
 31
0.0
  0
LINE
  5
1162
330
2
100
AcDbEntity
  8
0
100
AcDbLine
 10
370.9866241887293
 20
350.6838910209379
 30
0.0
 11
370.9866241887211
 21
420.6838910209342
 31
0.0
  0
LINE
  5
1163
330
2
100
AcDbEntity
  8
0
100
AcDbLine
 10
367.4866241887284
 20
352.8838910209386
 30
0.0
 11
367.4866241887284
 21
418.4838910209426
 31
0.0
  0
LINE
  5
1164
330
2
100
AcDbEntity
  8
0
100
AcDbLine
 10
367.4866241887284
 20
352.8838910209386
 30
0.0
 11
367.6866241887291
 21
352.6838910209379
 31
0.0
  0
LINE
  5
1165
330
2
100
AcDbEntity
  8
0
100
AcDbLine
 10
367.6866241887291
 20
352.6838910209379
 30
0.0
 11
370.9866241887293
 21
352.6838910209379
 31
0.0
  0
LINE
  5
1166
330
2
100
AcDbEntity
  8
0
100
AcDbLine
 10
370.9866241887293
 20
350.6838910209379
 30
0.0
 11
371.4866241887293
 21
350.1838910209396
 31
0.0
  0
LINE
  5
1167
330
2
100
AcDbEntity
  8
0
100
AcDbLine
 10
371.4866241887302
 20
347.5123181456773
 30
0.0
 11
371.4866241887239
 21
421.1838910209379
 31
0.0
  0
LINE
  5
1168
330
2
100
AcDbEntity
  8
0
100
AcDbLine
 10
363.9866241887293
 20
352.6838910209379
 30
0.0
 11
362.9866241887284
 21
353.2612412901278
 31
0.0
  0
LINE
  5
1169
330
2
100
AcDbEntity
  8
0
100
AcDbLine
 10
365.4866241887284
 20
352.8838910209386
 30
0.0
 11
365.4866241887284
 21
418.4838910209389
 31
0.0
  0
LINE
  5
116A
330
2
100
AcDbEntity
  8
0
100
AcDbLine
 10
363.9866241887284
 20
352.6838910209379
 30
0.0
 11
365.2866241887286
 21
352.6838910209379
 31
0.0
  0
LINE
  5
116B
330
2
100
AcDbEntity
  8
0
100
AcDbLine
 10
365.6866241887291
 20
353.3838910209386
 30
0.0
 11
367.2866241887286
 21
353.3838910209386
 31
0.0
  0
ARC
  5
116C
330
2
100
AcDbEntity
  8
0
100
AcDbCircle
 10
373.4866241887302
 20
347.512318145679
 30
0.0
 40
2.0
100
AcDbArc
 50
180.0
 51
225.0000000000187
  0
ARC
  5
116D
330
2
100
AcDbEntity
  8
0
100
AcDbCircle
 10
371.4866241887239
 20
343.8554638961912
 30
0.0
 40
2.0
100
AcDbArc
 50
0.0
 51
45.00000000001871
  0
ARC
  5
116E
330
2
100
AcDbEntity
  8
0
100
AcDbCircle
 10
373.4866241887248
 20
423.855463896193
 30
0.0
 40
2.0
100
AcDbArc
 50
134.9999999999812
 51
180.0
  0
ARC
  5
116F
330
2
100
AcDbEntity
  8
0
100
AcDbCircle
 10
371.4866241887239
 20
427.5123181456845
 30
0.0
 40
2.0
100
AcDbArc
 50
314.9999999999812
 51
0.0
  0
ARC
  5
1170
330
2
100
AcDbEntity
  8
0
100
AcDbCircle
 10
365.2866241887286
 20
352.8838910209386
 30
0.0
 40
0.2
100
AcDbArc
 50
270.000000000026
 51
0.0
  0
ARC
  5
1171
330
2
100
AcDbEntity
  8
0
100
AcDbCircle
 10
365.6866241887291
 20
353.1838910209379
 30
0.0
 40
0.2
100
AcDbArc
 50
90.00000000002605
 51
180.0
  0
ARC
  5
1172
330
2
100
AcDbEntity
  8
0
100
AcDbCircle
 10
367.2866241887286
 20
353.1838910209379
 30
0.0
 40
0.2
100
AcDbArc
 50
0.0
 51
90.00000000002605
  0
ARC
  5
1173
330
2
100
AcDbEntity
  8
0
100
AcDbCircle
 10
365.286624188724
 20
418.4838910209389
 30
0.0
 40
0.2
100
AcDbArc
 50
0.0
 51
90.0
  0
ARC
  5
1174
330
2
100
AcDbEntity
  8
0
100
AcDbCircle
 10
365.6866241887237
 20
418.1838910209378
 30
0.0
 40
0.2
100
AcDbArc
 50
180.0
 51
270.0
  0
ARC
  5
1175
330
2
100
AcDbEntity
  8
0
100
AcDbCircle
 10
367.286624188724
 20
418.1838910209378
 30
0.0
 40
0.2
100
AcDbArc
 50
270.0
 51
0.0
  0
LINE
  5
1176
330
2
100
AcDbEntity
  8
0
100
AcDbLine
 10
363.9866241887293
 20
352.6838910209379
 30
0.0
 11
363.9866241887239
 21
418.6838910209378
 31
0.0
  0
LINE
  5
1177
330
2
100
AcDbEntity
  8
0
100
AcDbLine
 10
367.6866241887291
 20
352.6838910209379
 30
0.0
 11
367.6866241887237
 21
418.6838910209378
 31
0.0
  0
LINE
  5
1178
330
2
100
AcDbEntity
  8
0
100
AcDbLine
 10
380.495350724298
 20
349.6925417334085
 30
0.0
 11
375.4691711177247
 21
349.7364045383281
 31
0.0
  0
LINE
  5
1179
330
2
100
AcDbEntity
  8
0
100
AcDbLine
 10
381.4866241888003
 20
335.7406537399645
 30
0.0
 11
381.4866241888003
 21
348.6925798103446
 31
0.0
  0
ARC
  5
117A
330
2
100
AcDbEntity
  8
0
100
AcDbCircle
 10
380.4866241888003
 20
348.6925798103446
 30
0.0
 40
1.0
100
AcDbArc
 50
0.0
 51
89.5000000000345
  0
LINE
  5
117B
330
2
100
AcDbEntity
  8
0
100
AcDbLine
 10
382.4778976533016
 20
342.6838910209379
 30
0.0
 11
388.986624188732
 21
342.6838910209379
 31
0.0
  0
LINE
  5
117C
330
2
100
AcDbEntity
  8
0
100
AcDbLine
 10
382.4778976533016
 20
345.6838910209378
 30
0.0
 11
388.9866241887311
 21
345.6838910209378
 31
0.0
  0
ARC
  5
117D
330
2
100
AcDbEntity
  8
0
100
AcDbCircle
 10
375.4866241887211
 20
434.5660021489901
 30
0.0
 40
2.0
100
AcDbArc
 50
90.49999999999155
 51
180.0
  0
ARC
  5
117E
330
2
100
AcDbEntity
  8
0
100
AcDbCircle
 10
375.4866241887211
 20
419.6314536574198
 30
0.0
 40
2.0
100
AcDbArc
 50
90.49999999999155
 51
180.0
  0
LINE
  5
117F
330
2
100
AcDbEntity
  8
0
100
AcDbLine
 10
388.986624188732
 20
436.6838910209379
 30
0.0
 11
375.4691711177247
 21
436.5659259951178
 31
0.0
  0
ARC
  5
1180
330
2
100
AcDbEntity
  8
0
100
AcDbCircle
 10
382.4866241888003
 20
435.6271283019112
 30
0.0
 40
1.0
100
AcDbArc
 50
90.49999999999155
 51
180.0
  0
LINE
  5
1181
330
2
100
AcDbEntity
  8
0
100
AcDbLine
 10
380.495350724298
 20
421.675240308469
 30
0.0
 11
375.4691711177247
 21
421.6313775035494
 31
0.0
  0
LINE
  5
1182
330
2
100
AcDbEntity
  8
0
100
AcDbLine
 10
381.4866241888003
 20
435.6271283019112
 30
0.0
 11
381.4866241888003
 21
422.6752022315329
 31
0.0
  0
ARC
  5
1183
330
2
100
AcDbEntity
  8
0
100
AcDbCircle
 10
380.4866241888003
 20
422.6752022315329
 30
0.0
 40
1.0
100
AcDbArc
 50
270.4999999999654
 51
0.0
  0
LINE
  5
1184
330
2
100
AcDbEntity
  8
CENTER
  6
CENS
100
AcDbLine
 10
396.8950203004196
 20
428.6838910209379
 30
0.0
 11
370.9866241887993
 21
428.6838910209379
 31
0.0
  0
LINE
  5
1185
330
2
100
AcDbEntity
  8
0
100
AcDbLine
 10
374.3866241887999
 20
433.6838910209379
 30
0.0
 11
373.9866241888003
 21
432.9910706979106
 31
0.0
  0
LINE
  5
1186
330
2
100
AcDbEntity
  8
0
100
AcDbLine
 10
379.9866241887998
 20
433.6838910209379
 30
0.0
 11
379.9866241887993
 21
423.6838910209378
 31
0.0
  0
LINE
  5
1187
330
2
100
AcDbEntity
  8
0
100
AcDbLine
 10
374.3866241887999
 20
433.6838910209379
 30
0.0
 11
374.3866241887999
 21
423.6838910209378
 31
0.0
  0
LINE
  5
1188
330
2
100
AcDbEntity
  8
0
100
AcDbLine
 10
381.4866241888003
 20
433.6838910209379
 30
0.0
 11
374.3866241887999
 21
433.6838910209379
 31
0.0
  0
LINE
  5
1189
330
2
100
AcDbEntity
  8
0
100
AcDbLine
 10
381.4866241888003
 20
423.6838910209378
 30
0.0
 11
374.3866241887999
 21
423.6838910209378
 31
0.0
  0
LINE
  5
118A
330
2
100
AcDbEntity
  8
0
100
AcDbLine
 10
374.3866241887999
 20
423.6838910209378
 30
0.0
 11
373.9866241888003
 21
424.3767113439651
 31
0.0
  0
LINE
  5
118B
330
2
100
AcDbEntity
  8
0
100
AcDbLine
 10
373.9866241888003
 20
432.9910706979106
 30
0.0
 11
373.9866241888003
 21
424.3767113439651
 31
0.0
  0
LINE
  5
118C
330
2
100
AcDbEntity
  8
CENTER
  6
CENS
100
AcDbLine
 10
396.8950203004196
 20
342.6838910209379
 30
0.0
 11
370.9866241887993
 21
342.6838910209379
 31
0.0
  0
LINE
  5
118D
330
2
100
AcDbEntity
  8
0
100
AcDbLine
 10
374.3866241887999
 20
337.6838910209379
 30
0.0
 11
373.9866241888003
 21
338.3767113439651
 31
0.0
  0
LINE
  5
118E
330
2
100
AcDbEntity
  8
0
100
AcDbLine
 10
379.9866241887998
 20
337.6838910209379
 30
0.0
 11
379.9866241887993
 21
347.6838910209378
 31
0.0
  0
LINE
  5
118F
330
2
100
AcDbEntity
  8
0
100
AcDbLine
 10
374.3866241887999
 20
337.6838910209379
 30
0.0
 11
374.3866241887999
 21
347.6838910209378
 31
0.0
  0
LINE
  5
1190
330
2
100
AcDbEntity
  8
0
100
AcDbLine
 10
381.4866241888003
 20
337.6838910209379
 30
0.0
 11
374.3866241887999
 21
337.6838910209379
 31
0.0
  0
LINE
  5
1191
330
2
100
AcDbEntity
  8
0
100
AcDbLine
 10
381.4866241888003
 20
347.6838910209378
 30
0.0
 11
374.3866241887999
 21
347.6838910209378
 31
0.0
  0
LINE
  5
1192
330
2
100
AcDbEntity
  8
0
100
AcDbLine
 10
374.3866241887999
 20
347.6838910209378
 30
0.0
 11
373.9866241888003
 21
346.9910706979106
 31
0.0
  0
LINE
  5
1193
330
2
100
AcDbEntity
  8
0
100
AcDbLine
 10
373.9866241888003
 20
338.3767113439651
 30
0.0
 11
373.9866241888003
 21
346.9910706979106
 31
0.0
  0
LINE
  5
1194
330
2
100
AcDbEntity
  8
0
100
AcDbLine
 10
598.7435182177327
 20
708.7929037400133
 30
0.0
 11
663.5888176793518
 21
708.7929037400151
 31
0.0
  0
LINE
  5
1195
330
2
100
AcDbEntity
  8
0
100
AcDbLine
 10
671.5803815109143
 20
698.8786901776418
 30
0.0
 11
670.7519543861685
 21
699.7071173023867
 31
0.0
  0
LINE
  5
1196
330
2
100
AcDbEntity
  8
0
100
AcDbLine
 10
719.1661679483472
 20
682.7929037400115
 30
0.0
 11
719.0743835259013
 21
693.3103568109324
 31
0.0
  0
ARC
  5
1197
330
2
100
AcDbEntity
  8
0
100
AcDbCircle
 10
718.1094052293224
 20
689.2929037399388
 30
0.0
 40
1.0
100
AcDbArc
 50
0.4999999999654926
 51
90.0
  0
LINE
  5
1198
330
2
100
AcDbEntity
  8
0
100
AcDbLine
 10
719.1661679485418
 20
682.7929037400133
 30
0.0
 11
580.1661679485419
 21
682.792903740006
 31
0.0
  0
LINE
  5
1199
330
2
100
AcDbEntity
  8
0
100
AcDbLine
 10
683.1661679485409
 20
695.2929037399369
 30
0.0
 11
707.6661679485418
 21
695.2929037399369
 31
0.0
  0
ARC
  5
119A
330
2
100
AcDbEntity
  8
0
100
AcDbCircle
 10
717.0744596797735
 20
693.2929037399351
 30
0.0
 40
2.0
100
AcDbArc
 50
0.4999999999654926
 51
72.79123793166125
  0
LINE
  5
119B
330
2
100
AcDbEntity
  8
0
100
AcDbLine
 10
582.2840568204887
 20
698.2929037400169
 30
0.0
 11
680.166167948541
 21
698.2929037400133
 31
0.0
  0
ARC
  5
119C
330
2
100
AcDbEntity
  8
0
100
AcDbCircle
 10
582.2840568204887
 20
696.2929037400169
 30
0.0
 40
2.0
100
AcDbArc
 50
90.0
 51
179.5000000000344
  0
ARC
  5
119D
330
2
100
AcDbEntity
  8
0
100
AcDbCircle
 10
597.218605312059
 20
696.2929037400169
 30
0.0
 40
2.0
100
AcDbArc
 50
90.0
 51
179.5000000000344
  0
LINE
  5
119E
330
2
100
AcDbEntity
  8
0
100
AcDbLine
 10
663.9661679485412
 20
704.2929037400133
 30
0.0
 11
664.166167948541
 21
704.0929037400144
 31
0.0
  0
LINE
  5
119F
330
2
100
AcDbEntity
  8
0
100
AcDbLine
 10
666.1661679485409
 20
700.7929037400133
 30
0.0
 11
666.6661679485409
 21
700.2929037400133
 31
0.0
  0
LINE
  5
11A0
330
2
100
AcDbEntity
  8
0
100
AcDbLine
 10
669.3377408237952
 20
700.2929037400133
 30
0.0
 11
666.6661679485409
 21
700.2929037400133
 31
0.0
  0
LINE
  5
11A1
330
2
100
AcDbEntity
  8
0
100
AcDbLine
 10
664.166167948541
 20
704.0929037400144
 30
0.0
 11
664.166167948541
 21
700.7929037400133
 31
0.0
  0
LINE
  5
11A2
330
2
100
AcDbEntity
  8
0
100
AcDbLine
 10
664.166167948541
 20
707.7929037400133
 30
0.0
 11
663.5888176793518
 21
708.7929037400133
 31
0.0
  0
LINE
  5
11A3
330
2
100
AcDbEntity
  8
0
100
AcDbLine
 10
664.166167948541
 20
707.7929037400151
 30
0.0
 11
664.166167948541
 21
706.492903740014
 31
0.0
  0
LINE
  5
11A4
330
2
100
AcDbEntity
  8
0
100
AcDbLine
 10
663.4661679485411
 20
706.0929037400144
 30
0.0
 11
663.4661679485411
 21
704.492903740014
 31
0.0
  0
LINE
  5
11A5
330
2
100
AcDbEntity
  8
0
100
AcDbLine
 10
580.1661679485419
 20
682.792903740006
 30
0.0
 11
580.284132974361
 21
696.3103568110143
 31
0.0
  0
ARC
  5
11A6
330
2
100
AcDbEntity
  8
0
100
AcDbCircle
 10
581.2229306675676
 20
689.2929037399388
 30
0.0
 40
1.0
100
AcDbArc
 50
90.0
 51
179.5000000000344
  0
LINE
  5
11A7
330
2
100
AcDbEntity
  8
0
100
AcDbLine
 10
590.7519543861686
 20
698.8786901776418
 30
0.0
 11
591.5803815109079
 21
699.7071173023812
 31
0.0
  0
LINE
  5
11A8
330
2
100
AcDbEntity
  8
0
100
AcDbLine
 10
596.1661679485419
 20
700.7929037400097
 30
0.0
 11
666.1661679485383
 21
700.7929037400169
 31
0.0
  0
LINE
  5
11A9
330
2
100
AcDbEntity
  8
0
100
AcDbLine
 10
598.3661679485408
 20
704.2929037400097
 30
0.0
 11
663.9661679485457
 21
704.2929037400097
 31
0.0
  0
LINE
  5
11AA
330
2
100
AcDbEntity
  8
0
100
AcDbLine
 10
598.3661679485408
 20
704.2929037400097
 30
0.0
 11
598.166167948541
 21
704.092903740009
 31
0.0
  0
LINE
  5
11AB
330
2
100
AcDbEntity
  8
0
100
AcDbLine
 10
598.166167948541
 20
704.092903740009
 30
0.0
 11
598.1661679485418
 21
700.7929037400097
 31
0.0
  0
LINE
  5
11AC
330
2
100
AcDbEntity
  8
0
100
AcDbLine
 10
596.1661679485419
 20
700.7929037400097
 30
0.0
 11
595.6661679485419
 21
700.2929037400097
 31
0.0
  0
LINE
  5
11AD
330
2
100
AcDbEntity
  8
0
100
AcDbLine
 10
592.9945950732813
 20
700.2929037400079
 30
0.0
 11
666.6661679485409
 21
700.2929037400133
 31
0.0
  0
LINE
  5
11AE
330
2
100
AcDbEntity
  8
0
100
AcDbLine
 10
598.166167948541
 20
707.7929037400097
 30
0.0
 11
598.74351821773
 21
708.7929037400097
 31
0.0
  0
LINE
  5
11AF
330
2
100
AcDbEntity
  8
0
100
AcDbLine
 10
598.3661679485408
 20
706.2929037400096
 30
0.0
 11
663.9661679485412
 21
706.2929037400096
 31
0.0
  0
LINE
  5
11B0
330
2
100
AcDbEntity
  8
0
100
AcDbLine
 10
598.166167948541
 20
707.7929037400097
 30
0.0
 11
598.166167948541
 21
706.4929037400085
 31
0.0
  0
LINE
  5
11B1
330
2
100
AcDbEntity
  8
0
100
AcDbLine
 10
598.8661679485407
 20
706.0929037400089
 30
0.0
 11
598.8661679485407
 21
704.4929037400104
 31
0.0
  0
ARC
  5
11B2
330
2
100
AcDbEntity
  8
0
100
AcDbCircle
 10
592.9945950732813
 20
698.2929037400078
 30
0.0
 40
2.0
100
AcDbArc
 50
90.0
 51
134.9999999999766
  0
ARC
  5
11B3
330
2
100
AcDbEntity
  8
0
100
AcDbCircle
 10
589.3377408237951
 20
700.2929037400151
 30
0.0
 40
2.0
100
AcDbArc
 50
270.0
 51
314.9999999999767
  0
ARC
  5
11B4
330
2
100
AcDbEntity
  8
0
100
AcDbCircle
 10
669.3377408237952
 20
698.2929037400133
 30
0.0
 40
2.0
100
AcDbArc
 50
45.00000000002332
 51
90.0
  0
ARC
  5
11B5
330
2
100
AcDbEntity
  8
0
100
AcDbCircle
 10
672.9945950732867
 20
700.2929037400151
 30
0.0
 40
2.0
100
AcDbArc
 50
225.0000000000233
 51
270.0
  0
ARC
  5
11B6
330
2
100
AcDbEntity
  8
0
100
AcDbCircle
 10
680.166167948541
 20
696.2929037400133
 30
0.0
 40
2.0
100
AcDbArc
 50
0.0
 51
90.0
  0
ARC
  5
11B7
330
2
100
AcDbEntity
  8
0
100
AcDbCircle
 10
683.1661679485409
 20
696.2929037399369
 30
0.0
 40
1.0
100
AcDbArc
 50
180.0
 51
270.0
  0
ARC
  5
11B8
330
2
100
AcDbEntity
  8
0
100
AcDbCircle
 10
598.3661679485408
 20
706.4929037400104
 30
0.0
 40
0.2
100
AcDbArc
 50
180.0
 51
270.0
  0
ARC
  5
11B9
330
2
100
AcDbEntity
  8
0
100
AcDbCircle
 10
598.6661679485409
 20
706.0929037400089
 30
0.0
 40
0.2
100
AcDbArc
 50
0.0
 51
90.0
  0
ARC
  5
11BA
330
2
100
AcDbEntity
  8
0
100
AcDbCircle
 10
598.6661679485409
 20
704.4929037400104
 30
0.0
 40
0.2
100
AcDbArc
 50
270.0
 51
0.0
  0
ARC
  5
11BB
330
2
100
AcDbEntity
  8
0
100
AcDbCircle
 10
663.9661679485412
 20
706.492903740014
 30
0.0
 40
0.2
100
AcDbArc
 50
270.0
 51
0.0
  0
ARC
  5
11BC
330
2
100
AcDbEntity
  8
0
100
AcDbCircle
 10
663.666167948541
 20
706.0929037400144
 30
0.0
 40
0.2
100
AcDbArc
 50
89.99999999997395
 51
180.0
  0
ARC
  5
11BD
330
2
100
AcDbEntity
  8
0
100
AcDbCircle
 10
663.666167948541
 20
704.492903740014
 30
0.0
 40
0.2
100
AcDbArc
 50
180.0
 51
270.0
  0
LINE
  5
11BE
330
2
100
AcDbEntity
  8
0
100
AcDbLine
 10
598.166167948541
 20
707.7929037400097
 30
0.0
 11
664.166167948541
 21
707.7929037400133
 31
0.0
  0
LINE
  5
11BF
330
2
100
AcDbEntity
  8
0
100
AcDbLine
 10
598.166167948541
 20
704.092903740009
 30
0.0
 11
664.166167948541
 21
704.0929037400144
 31
0.0
  0
LINE
  5
11C0
330
2
100
AcDbEntity
  8
0
100
AcDbLine
 10
682.1661679485437
 20
696.2929037400133
 30
0.0
 11
682.1661679485437
 21
682.7929037400115
 31
0.0
  0
LINE
  5
11C1
330
2
100
AcDbEntity
  8
0
100
AcDbLine
 10
706.2841759918478
 20
690.2929037399387
 30
0.0
 11
718.1094052293224
 21
690.2929037399387
 31
0.0
  0
LINE
  5
11C2
330
2
100
AcDbEntity
  8
0
100
AcDbLine
 10
705.784347329361
 20
690.7798152657849
 30
0.0
 11
705.7171688566482
 21
693.3452576365559
 31
0.0
  0
ARC
  5
11C3
330
2
100
AcDbEntity
  8
0
100
AcDbCircle
 10
703.7178542066972
 20
693.2929037399388
 30
0.0
 40
2.0
100
AcDbArc
 50
1.499999999989693
 51
90.0
  0
ARC
  5
11C4
330
2
100
AcDbEntity
  8
0
100
AcDbCircle
 10
706.2841759918478
 20
690.7929037399387
 30
0.0
 40
0.5
100
AcDbArc
 50
181.4999999999897
 51
270.0
  0
LINE
  5
11C5
330
2
100
AcDbEntity
  8
0
100
AcDbLine
 10
595.1748186610107
 20
691.2841772044392
 30
0.0
 11
595.2186814659303
 21
696.3103568110143
 31
0.0
  0
LINE
  5
11C6
330
2
100
AcDbEntity
  8
0
100
AcDbLine
 10
581.2229306675676
 20
690.2929037399387
 30
0.0
 11
594.1748567379468
 21
690.2929037399387
 31
0.0
  0
ARC
  5
11C7
330
2
100
AcDbEntity
  8
0
100
AcDbCircle
 10
594.1748567379468
 20
691.2929037399387
 30
0.0
 40
1.0
100
AcDbArc
 50
270.0
 51
359.5000000000345
  0
LINE
  5
11C8
330
2
100
AcDbEntity
  8
0
100
AcDbLine
 10
588.166167948541
 20
689.3016302754365
 30
0.0
 11
588.166167948541
 21
682.792903740006
 31
0.0
  0
LINE
  5
11C9
330
2
100
AcDbEntity
  8
0
100
AcDbLine
 10
591.1661679485409
 20
689.3016302754365
 30
0.0
 11
591.1661679485409
 21
682.792903740006
 31
0.0
  0
LINE
  5
11CA
330
2
100
AcDbEntity
  8
0
100
AcDbLine
 10
610.6260687713661
 20
682.7929037400078
 30
0.0
 11
610.6260687713661
 21
696.3103568110143
 31
0.0
  0
LINE
  5
11CB
330
2
100
AcDbEntity
  8
0
100
AcDbLine
 10
674.1661679485418
 20
696.3103568110143
 30
0.0
 11
674.1661679485418
 21
682.792903740006
 31
0.0
  0
LINE
  5
11CC
330
2
100
AcDbEntity
  8
0
100
AcDbLine
 10
671.1661679485409
 20
696.3103568110143
 30
0.0
 11
671.1661679485409
 21
682.792903740006
 31
0.0
  0
LINE
  5
11CD
330
2
100
AcDbEntity
  8
0
100
AcDbLine
 10
651.7062671257158
 20
682.7929037400078
 30
0.0
 11
651.7062671257158
 21
696.3103568110143
 31
0.0
  0
LINE
  5
11CE
330
2
100
AcDbEntity
  8
CENTER
  6
CENS
100
AcDbLine
 10
588.1661679485355
 20
678.3367645494524
 30
0.0
 11
588.1661679485355
 21
700.7929037399387
 31
0.0
  0
LINE
  5
11CF
330
2
100
AcDbEntity
  8
0
100
AcDbLine
 10
593.1661679485355
 20
697.3929037399391
 30
0.0
 11
592.4733476255073
 21
697.7929037399388
 31
0.0
  0
LINE
  5
11D0
330
2
100
AcDbEntity
  8
0
100
AcDbLine
 10
593.1661679485355
 20
691.7929037399387
 30
0.0
 11
583.1661679485355
 21
691.7929037399387
 31
0.0
  0
LINE
  5
11D1
330
2
100
AcDbEntity
  8
0
100
AcDbLine
 10
593.1661679485355
 20
697.3929037399391
 30
0.0
 11
583.1661679485355
 21
697.3929037399391
 31
0.0
  0
LINE
  5
11D2
330
2
100
AcDbEntity
  8
0
100
AcDbLine
 10
593.1661679485355
 20
690.2929037399387
 30
0.0
 11
593.1661679485355
 21
697.3929037399391
 31
0.0
  0
LINE
  5
11D3
330
2
100
AcDbEntity
  8
0
100
AcDbLine
 10
583.1661679485355
 20
690.2929037399387
 30
0.0
 11
583.1661679485355
 21
697.3929037399391
 31
0.0
  0
LINE
  5
11D4
330
2
100
AcDbEntity
  8
0
100
AcDbLine
 10
583.1661679485355
 20
697.3929037399391
 30
0.0
 11
583.8589882715628
 21
697.7929037399388
 31
0.0
  0
LINE
  5
11D5
330
2
100
AcDbEntity
  8
0
100
AcDbLine
 10
592.4733476255073
 20
697.7929037399388
 30
0.0
 11
583.8589882715628
 21
697.7929037399388
 31
0.0
  0
LINE
  5
11D6
330
2
100
AcDbEntity
  8
CENTER
  6
CENS
100
AcDbLine
 10
712.6661679485419
 20
678.3367645494524
 30
0.0
 11
712.6661679485419
 21
700.7929037399387
 31
0.0
  0
LINE
  5
11D7
330
2
100
AcDbEntity
  8
0
100
AcDbLine
 10
717.6661679485419
 20
697.3929037399391
 30
0.0
 11
716.9733476255146
 21
697.7929037399388
 31
0.0
  0
LINE
  5
11D8
330
2
100
AcDbEntity
  8
0
100
AcDbLine
 10
717.6661679485419
 20
691.7929037399387
 30
0.0
 11
707.6661679485418
 21
691.7929037399387
 31
0.0
  0
LINE
  5
11D9
330
2
100
AcDbEntity
  8
0
100
AcDbLine
 10
717.6661679485419
 20
697.3929037399391
 30
0.0
 11
707.6661679485418
 21
697.3929037399391
 31
0.0
  0
LINE
  5
11DA
330
2
100
AcDbEntity
  8
0
100
AcDbLine
 10
717.6661679485419
 20
690.2929037399387
 30
0.0
 11
717.6661679485419
 21
697.3929037399391
 31
0.0
  0
LINE
  5
11DB
330
2
100
AcDbEntity
  8
0
100
AcDbLine
 10
707.6661679485418
 20
690.2929037399387
 30
0.0
 11
707.6661679485418
 21
697.3929037399391
 31
0.0
  0
LINE
  5
11DC
330
2
100
AcDbEntity
  8
0
100
AcDbLine
 10
707.6661679485418
 20
697.3929037399391
 30
0.0
 11
708.3589882715691
 21
697.7929037399388
 31
0.0
  0
LINE
  5
11DD
330
2
100
AcDbEntity
  8
0
100
AcDbLine
 10
716.9733476255146
 20
697.7929037399388
 30
0.0
 11
708.3589882715691
 21
697.7929037399388
 31
0.0
  0
LINE
  5
11DE
330
2
100
AcDbEntity
  8
0
100
AcDbLine
 10
415.753595723253
 20
86.11608585722365
 30
0.0
 11
415.753595723253
 21
121.3354222432751
 31
0.0
  0
LINE
  5
11DF
330
2
100
AcDbEntity
  8
0
100
AcDbLine
 10
415.753595723253
 20
152.8967494711703
 30
0.0
 11
415.753595723253
 21
188.1160858572236
 31
0.0
  0
LINE
  5
11E0
330
2
100
AcDbEntity
  8
CENTER
100
AcDbLine
 10
443.7535957232531
 20
76.36043815536481
 30
0.0
 11
443.7535957232531
 21
197.8717335590824
 31
0.0
  0
LINE
  5
11E1
330
2
100
AcDbEntity
  8
0
100
AcDbLine
 10
481.7535957232521
 20
86.69205913141354
 30
0.0
 11
481.7535957232521
 21
121.8902715902802
 31
0.0
  0
LINE
  5
11E2
330
2
100
AcDbEntity
  8
0
100
AcDbLine
 10
481.7535957232521
 20
152.3419001241652
 30
0.0
 11
481.7535957232521
 21
187.5401125830337
 31
0.0
  0
LINE
  5
11E3
330
2
100
AcDbEntity
  8
CENTER
100
AcDbLine
 10
523.7535957232535
 20
137.1160858572236
 30
0.0
 11
377.7537027232533
 21
137.1160858572236
 31
0.0
  0
LINE
  5
11E4
330
2
100
AcDbEntity
  8
0
100
AcDbLine
 10
486.7535957232521
 20
92.11608585722364
 30
0.0
 11
486.7535957232503
 21
121.5697548837249
 31
0.0
  0
LINE
  5
11E5
330
2
100
AcDbEntity
  8
0
100
AcDbLine
 10
486.7535957232481
 20
152.6624168307223
 30
0.0
 11
486.7535957232462
 21
182.1160858572236
 31
0.0
  0
LINE
  5
11E6
330
2
100
AcDbEntity
  8
0
100
AcDbLine
 10
481.7535957232521
 20
92.11608585722364
 30
0.0
 11
486.7535957232521
 21
92.11608585722364
 31
0.0
  0
LINE
  5
11E7
330
2
100
AcDbEntity
  8
0
100
AcDbLine
 10
481.7535957232521
 20
182.1160858572236
 30
0.0
 11
486.7535957232521
 21
182.1160858572236
 31
0.0
  0
LINE
  5
11E8
330
2
100
AcDbEntity
  8
0
100
AcDbLine
 10
415.753595723253
 20
188.1160858572236
 30
0.0
 11
481.7535957232521
 21
187.5401125830337
 31
0.0
  0
LINE
  5
11E9
330
2
100
AcDbEntity
  8
0
100
AcDbLine
 10
415.753595723253
 20
86.11608585722365
 30
0.0
 11
481.7535957232521
 21
86.69205913141354
 31
0.0
  0
LINE
  5
11EA
330
2
100
AcDbEntity
  8
0
100
AcDbLine
 10
500.753595723253
 20
169.1847083076097
 30
0.0
 11
500.753595723253
 21
154.1159896426067
 31
0.0
  0
LINE
  5
11EB
330
2
100
AcDbEntity
  8
0
100
AcDbLine
 10
500.7535957232534
 20
120.116081642607
 30
0.0
 11
500.753595723254
 21
105.0474634068357
 31
0.0
  0
LINE
  5
11EC
330
2
100
AcDbEntity
  8
0
100
AcDbLine
 10
488.6837967298488
 20
102.6945991887621
 30
0.0
 11
498.8233947166586
 21
103.0486817527978
 31
0.0
  0
LINE
  5
11ED
330
2
100
AcDbEntity
  8
0
100
AcDbLine
 10
488.6837967298488
 20
171.5375725256833
 30
0.0
 11
498.8233947166581
 21
171.1834899616476
 31
0.0
  0
ARC
  5
11EE
330
2
100
AcDbEntity
  8
0
100
AcDbCircle
 10
498.753595723253
 20
169.1847083076097
 30
0.0
 40
2.0
100
AcDbArc
 50
0.0
 51
87.99999999999636
  0
ARC
  5
11EF
330
2
100
AcDbEntity
  8
0
100
AcDbCircle
 10
488.7535957232535
 20
173.5363541797212
 30
0.0
 40
2.0
100
AcDbArc
 50
180.0
 51
267.9999999999963
  0
ARC
  5
11F0
330
2
100
AcDbEntity
  8
0
100
AcDbCircle
 10
498.7535957232539
 20
105.0474634068357
 30
0.0
 40
2.0
100
AcDbArc
 50
272.0000000000036
 51
0.0
  0
ARC
  5
11F1
330
2
100
AcDbEntity
  8
0
100
AcDbCircle
 10
488.7535957232535
 20
100.6958175347224
 30
0.0
 40
2.0
100
AcDbArc
 50
92.00000000000365
 51
180.0
  0
LINE
  5
11F2
330
2
100
AcDbEntity
  8
0
100
AcDbLine
 10
415.753595723253
 20
177.11608585722
 30
0.0
 11
480.7535957232521
 21
177.11608585722
 31
0.0
  0
LINE
  5
11F3
330
2
100
AcDbEntity
  8
0
100
AcDbLine
 10
415.753595723253
 20
180.1160858572218
 30
0.0
 11
480.7535957232521
 21
180.1160858572218
 31
0.0
  0
LINE
  5
11F4
330
2
100
AcDbEntity
  8
0
100
AcDbLine
 10
415.753595723253
 20
177.11608585722
 30
0.0
 11
480.7535957232521
 21
177.11608585722
 31
0.0
  0
LINE
  5
11F5
330
2
100
AcDbEntity
  8
0
100
AcDbLine
 10
415.753595723253
 20
157.656185034393
 30
0.0
 11
480.7535957232521
 21
157.656185034393
 31
0.0
  0
LINE
  5
11F6
330
2
100
AcDbEntity
  8
0
100
AcDbLine
 10
415.753595723253
 20
97.11608585722183
 30
0.0
 11
480.7535957232521
 21
97.11608585722183
 31
0.0
  0
LINE
  5
11F7
330
2
100
AcDbEntity
  8
0
100
AcDbLine
 10
415.753595723253
 20
94.11608585722365
 30
0.0
 11
480.7535957232521
 21
94.11608585722365
 31
0.0
  0
LINE
  5
11F8
330
2
100
AcDbEntity
  8
0
100
AcDbLine
 10
415.753595723253
 20
97.11608585722183
 30
0.0
 11
480.7535957232521
 21
97.11608585722183
 31
0.0
  0
LINE
  5
11F9
330
2
100
AcDbEntity
  8
0
100
AcDbLine
 10
415.753595723253
 20
116.5759866800524
 30
0.0
 11
480.7535957232521
 21
116.5759866800524
 31
0.0
  0
LINE
  5
11FA
330
2
100
AcDbEntity
  8
0
100
AcDbLine
 10
389.7535957232475
 20
104.6934361264154
 30
0.0
 11
389.7535957232475
 21
120.116081642607
 31
0.0
  0
LINE
  5
11FB
330
2
100
AcDbEntity
  8
0
100
AcDbLine
 10
389.7535957232475
 20
154.116081642607
 30
0.0
 11
389.7535957232475
 21
169.5387355880336
 31
0.0
  0
LINE
  5
11FC
330
2
100
AcDbEntity
  8
0
100
AcDbLine
 10
390.7535957232476
 20
111.1160858572236
 30
0.0
 11
390.7535957232476
 21
120.116081642607
 31
0.0
  0
LINE
  5
11FD
330
2
100
AcDbEntity
  8
0
100
AcDbLine
 10
390.7535957232476
 20
154.116081642607
 30
0.0
 11
390.7535957232476
 21
163.1160858572236
 31
0.0
  0
LINE
  5
11FE
330
2
100
AcDbEntity
  8
0
100
AcDbLine
 10
398.7535957232476
 20
164.0113421709481
 30
0.0
 11
398.7535957232476
 21
154.116081642607
 31
0.0
  0
LINE
  5
11FF
330
2
100
AcDbEntity
  8
0
100
AcDbLine
 10
398.7535957232476
 20
120.116081642607
 30
0.0
 11
398.7535957232476
 21
110.2208295434991
 31
0.0
  0
LINE
  5
1200
330
2
100
AcDbEntity
  8
0
100
AcDbLine
 10
399.6678092856209
 20
177.5302994195951
 30
0.0
 11
398.8393821608751
 21
176.7018722948503
 31
0.0
  0
LINE
  5
1201
330
2
100
AcDbEntity
  8
0
100
AcDbLine
 10
400.2535957232448
 20
88.23397472917145
 30
0.0
 11
400.2535957232453
 21
110.7419180977647
 31
0.0
  0
LINE
  5
1202
330
2
100
AcDbEntity
  8
0
100
AcDbLine
 10
400.2535957232471
 20
163.4902536166789
 30
0.0
 11
400.2535957232476
 21
185.9981969852758
 31
0.0
  0
ARC
  5
1203
330
2
100
AcDbEntity
  8
0
100
AcDbCircle
 10
402.2535957232448
 20
88.23397472917145
 30
0.0
 40
2.0
100
AcDbArc
 50
180.0
 51
269.5000000000084
  0
ARC
  5
1204
330
2
100
AcDbEntity
  8
0
100
AcDbCircle
 10
402.2535957232448
 20
103.1685232207398
 30
0.0
 40
2.0
100
AcDbArc
 50
180.0
 51
269.5000000000084
  0
LINE
  5
1205
330
2
100
AcDbEntity
  8
0
100
AcDbLine
 10
398.7535957232476
 20
163.1160858572236
 30
0.0
 11
390.7535957232476
 21
163.1160858572236
 31
0.0
  0
LINE
  5
1206
330
2
100
AcDbEntity
  8
0
100
AcDbLine
 10
394.2535957232476
 20
169.9160858572229
 30
0.0
 11
394.4535957232474
 21
170.1160858572236
 31
0.0
  0
LINE
  5
1207
330
2
100
AcDbEntity
  8
0
100
AcDbLine
 10
397.7535957232475
 20
172.1160858572236
 30
0.0
 11
398.2535957232475
 21
172.6160858572236
 31
0.0
  0
LINE
  5
1208
330
2
100
AcDbEntity
  8
0
100
AcDbLine
 10
398.2535957232485
 20
175.2876587324769
 30
0.0
 11
398.2535957232475
 21
172.6160858572236
 31
0.0
  0
LINE
  5
1209
330
2
100
AcDbEntity
  8
0
100
AcDbLine
 10
394.4535957232474
 20
170.1160858572236
 30
0.0
 11
397.7535957232475
 21
170.1160858572236
 31
0.0
  0
LINE
  5
120A
330
2
100
AcDbEntity
  8
0
100
AcDbLine
 10
399.8438984167278
 20
164.0398927517651
 30
0.0
 11
398.7535957232476
 21
164.0113421709481
 31
0.0
  0
LINE
  5
120B
330
2
100
AcDbEntity
  8
0
100
AcDbLine
 10
390.7535957232476
 20
170.1160858572236
 30
0.0
 11
389.7535957232475
 21
169.5387355880336
 31
0.0
  0
LINE
  5
120C
330
2
100
AcDbEntity
  8
0
100
AcDbLine
 10
390.7535957232476
 20
170.1160858572236
 30
0.0
 11
392.0535957232477
 21
170.1160858572236
 31
0.0
  0
LINE
  5
120D
330
2
100
AcDbEntity
  8
0
100
AcDbLine
 10
392.4535957232474
 20
169.4160858572229
 30
0.0
 11
394.0535957232477
 21
169.4160858572229
 31
0.0
  0
LINE
  5
120E
330
2
100
AcDbEntity
  8
0
100
AcDbLine
 10
390.7535957232476
 20
163.1160858572236
 30
0.0
 11
389.7535957232475
 21
163.6934361264136
 31
0.0
  0
LINE
  5
120F
330
2
100
AcDbEntity
  8
0
100
AcDbLine
 10
415.7535957232558
 20
86.11608585722365
 30
0.0
 11
402.2361426522484
 21
86.23405088304185
 31
0.0
  0
ARC
  5
1210
330
2
100
AcDbEntity
  8
0
100
AcDbCircle
 10
409.253595723324
 20
87.1728485762485
 30
0.0
 40
1.0
100
AcDbArc
 50
180.0
 51
269.5000000000084
  0
LINE
  5
1211
330
2
100
AcDbEntity
  8
0
100
AcDbLine
 10
399.6678092856209
 20
96.70187229485032
 30
0.0
 11
398.8393821608806
 21
97.5302994195897
 31
0.0
  0
LINE
  5
1212
330
2
100
AcDbEntity
  8
0
100
AcDbLine
 10
398.7535957232476
 20
111.1160858572236
 30
0.0
 11
390.7535957232476
 21
111.1160858572236
 31
0.0
  0
LINE
  5
1213
330
2
100
AcDbEntity
  8
0
100
AcDbLine
 10
397.753595723253
 20
102.1160858572236
 30
0.0
 11
397.7535957232521
 21
109.3138999158434
 31
0.0
  0
LINE
  5
1214
330
2
100
AcDbEntity
  8
0
100
AcDbLine
 10
397.7535957232453
 20
164.918271798602
 30
0.0
 11
397.7535957232448
 21
172.11608585722
 31
0.0
  0
LINE
  5
1215
330
2
100
AcDbEntity
  8
0
100
AcDbLine
 10
394.2535957232521
 20
104.3160858572225
 30
0.0
 11
394.2535957232521
 21
109.361788807724
 31
0.0
  0
LINE
  5
1216
330
2
100
AcDbEntity
  8
0
100
AcDbLine
 10
394.2535957232521
 20
164.8703829067214
 30
0.0
 11
394.2535957232521
 21
169.9160858572283
 31
0.0
  0
LINE
  5
1217
330
2
100
AcDbEntity
  8
0
100
AcDbLine
 10
394.2535957232521
 20
104.3160858572225
 30
0.0
 11
394.4535957232528
 21
104.1160858572236
 31
0.0
  0
LINE
  5
1218
330
2
100
AcDbEntity
  8
0
100
AcDbLine
 10
394.4535957232528
 20
104.1160858572236
 30
0.0
 11
397.753595723253
 21
104.1160858572236
 31
0.0
  0
LINE
  5
1219
330
2
100
AcDbEntity
  8
0
100
AcDbLine
 10
397.753595723253
 20
102.1160858572236
 30
0.0
 11
398.253595723253
 21
101.6160858572236
 31
0.0
  0
LINE
  5
121A
330
2
100
AcDbEntity
  8
0
100
AcDbLine
 10
398.2535957232539
 20
98.94451298196305
 30
0.0
 11
398.253595723253
 21
109.3681295464173
 31
0.0
  0
LINE
  5
121B
330
2
100
AcDbEntity
  8
0
100
AcDbLine
 10
398.2535957232485
 20
164.8640421680299
 30
0.0
 11
398.2535957232475
 21
172.6160858572236
 31
0.0
  0
LINE
  5
121C
330
2
100
AcDbEntity
  8
0
100
AcDbLine
 10
390.7535957232476
 20
111.1160858572236
 30
0.0
 11
389.7535957232475
 21
110.5387355880354
 31
0.0
  0
LINE
  5
121D
330
2
100
AcDbEntity
  8
0
100
AcDbLine
 10
390.753595723253
 20
104.1160858572218
 30
0.0
 11
389.7535957232521
 21
104.6934361264118
 31
0.0
  0
LINE
  5
121E
330
2
100
AcDbEntity
  8
0
100
AcDbLine
 10
392.2535957232521
 20
104.3160858572225
 30
0.0
 11
392.2535957232521
 21
109.2420899217065
 31
0.0
  0
LINE
  5
121F
330
2
100
AcDbEntity
  8
0
100
AcDbLine
 10
392.2535957232521
 20
164.9900817927389
 30
0.0
 11
392.2535957232521
 21
169.9160858572229
 31
0.0
  0
LINE
  5
1220
330
2
100
AcDbEntity
  8
0
100
AcDbLine
 10
390.7535957232521
 20
104.1160858572218
 30
0.0
 11
392.0535957232523
 21
104.1160858572236
 31
0.0
  0
LINE
  5
1221
330
2
100
AcDbEntity
  8
0
100
AcDbLine
 10
392.4535957232528
 20
104.8160858572225
 30
0.0
 11
394.0535957232523
 21
104.8160858572225
 31
0.0
  0
LINE
  5
1222
330
2
100
AcDbEntity
  8
0
100
AcDbLine
 10
399.8438984167273
 20
110.1922789626803
 30
0.0
 11
398.7535957232476
 21
110.2208295434991
 31
0.0
  0
ARC
  5
1223
330
2
100
AcDbEntity
  8
0
100
AcDbCircle
 10
400.2535957232539
 20
98.94451298196305
 30
0.0
 40
2.0
100
AcDbArc
 50
180.0
 51
225.0000000000187
  0
ARC
  5
1224
330
2
100
AcDbEntity
  8
0
100
AcDbCircle
 10
398.2535957232475
 20
95.28765873247698
 30
0.0
 40
2.0
100
AcDbArc
 50
0.0
 51
45.00000000001871
  0
ARC
  5
1225
330
2
100
AcDbEntity
  8
0
100
AcDbCircle
 10
400.2535957232485
 20
175.2876587324769
 30
0.0
 40
2.0
100
AcDbArc
 50
134.9999999999812
 51
180.0
  0
ARC
  5
1226
330
2
100
AcDbEntity
  8
0
100
AcDbCircle
 10
398.2535957232475
 20
178.9445129819684
 30
0.0
 40
2.0
100
AcDbArc
 50
314.9999999999812
 51
0.0
  0
ARC
  5
1227
330
2
100
AcDbEntity
  8
0
100
AcDbCircle
 10
392.0535957232523
 20
104.3160858572225
 30
0.0
 40
0.2
100
AcDbArc
 50
270.000000000026
 51
0.0
  0
ARC
  5
1228
330
2
100
AcDbEntity
  8
0
100
AcDbCircle
 10
392.4535957232528
 20
104.6160858572218
 30
0.0
 40
0.2
100
AcDbArc
 50
90.00000000002605
 51
180.0
  0
ARC
  5
1229
330
2
100
AcDbEntity
  8
0
100
AcDbCircle
 10
394.0535957232523
 20
104.6160858572236
 30
0.0
 40
0.2
100
AcDbArc
 50
0.0
 51
90.00000000002605
  0
ARC
  5
122A
330
2
100
AcDbEntity
  8
0
100
AcDbCircle
 10
392.0535957232477
 20
169.9160858572229
 30
0.0
 40
0.2
100
AcDbArc
 50
0.0
 51
90.0
  0
ARC
  5
122B
330
2
100
AcDbEntity
  8
0
100
AcDbCircle
 10
392.4535957232474
 20
169.6160858572236
 30
0.0
 40
0.2
100
AcDbArc
 50
180.0
 51
270.0
  0
ARC
  5
122C
330
2
100
AcDbEntity
  8
0
100
AcDbCircle
 10
394.0535957232477
 20
169.6160858572236
 30
0.0
 40
0.2
100
AcDbArc
 50
270.0
 51
0.0
  0
LINE
  5
122D
330
2
100
AcDbEntity
  8
0
100
AcDbLine
 10
390.753595723253
 20
104.1160858572218
 30
0.0
 11
390.7535957232521
 21
108.8873536123917
 31
0.0
  0
LINE
  5
122E
330
2
100
AcDbEntity
  8
0
100
AcDbLine
 10
390.753595723248
 20
165.3448181020573
 30
0.0
 11
390.7535957232476
 21
170.1160858572236
 31
0.0
  0
LINE
  5
122F
330
2
100
AcDbEntity
  8
0
100
AcDbLine
 10
394.4535957232528
 20
104.1160858572236
 30
0.0
 11
394.4535957232519
 21
109.3622795676853
 31
0.0
  0
LINE
  5
1230
330
2
100
AcDbEntity
  8
0
100
AcDbLine
 10
394.4535957232483
 20
164.86989214676
 30
0.0
 11
394.4535957232474
 21
170.1160858572236
 31
0.0
  0
LINE
  5
1231
330
2
100
AcDbEntity
  8
0
100
AcDbLine
 10
407.2623222588218
 20
101.1247365696924
 30
0.0
 11
402.2361426522484
 21
101.168599374612
 31
0.0
  0
LINE
  5
1232
330
2
100
AcDbEntity
  8
0
100
AcDbLine
 10
408.253595723324
 20
87.1728485762485
 30
0.0
 11
408.253595723324
 21
100.1247746466285
 31
0.0
  0
ARC
  5
1233
330
2
100
AcDbEntity
  8
0
100
AcDbCircle
 10
407.253595723324
 20
100.1247746466285
 30
0.0
 40
1.0
100
AcDbArc
 50
0.0
 51
89.5000000000345
  0
ARC
  5
1234
330
2
100
AcDbEntity
  8
0
100
AcDbCircle
 10
402.2535957232448
 20
185.9981969852758
 30
0.0
 40
2.0
100
AcDbArc
 50
90.49999999999155
 51
180.0
  0
ARC
  5
1235
330
2
100
AcDbEntity
  8
0
100
AcDbCircle
 10
402.2535957232448
 20
171.0636484937056
 30
0.0
 40
2.0
100
AcDbArc
 50
90.49999999999155
 51
180.0
  0
LINE
  5
1236
330
2
100
AcDbEntity
  8
0
100
AcDbLine
 10
415.7535957232558
 20
188.1160858572218
 30
0.0
 11
402.2361426522484
 21
187.9981208314036
 31
0.0
  0
ARC
  5
1237
330
2
100
AcDbEntity
  8
0
100
AcDbCircle
 10
409.253595723324
 20
187.0593231381969
 30
0.0
 40
1.0
100
AcDbArc
 50
90.49999999999155
 51
180.0
  0
LINE
  5
1238
330
2
100
AcDbEntity
  8
0
100
AcDbLine
 10
407.2623222588218
 20
173.107435144753
 30
0.0
 11
402.2361426522484
 21
173.0635723398334
 31
0.0
  0
LINE
  5
1239
330
2
100
AcDbEntity
  8
0
100
AcDbLine
 10
408.253595723324
 20
187.0593231381969
 30
0.0
 11
408.253595723324
 21
174.1073970678169
 31
0.0
  0
ARC
  5
123A
330
2
100
AcDbEntity
  8
0
100
AcDbCircle
 10
407.253595723324
 20
174.1073970678169
 30
0.0
 40
1.0
100
AcDbArc
 50
270.4999999999654
 51
0.0
  0
LINE
  5
123B
330
2
100
AcDbEntity
  8
CENTER
  6
CENS
100
AcDbLine
 10
423.6619918349433
 20
180.1160858572236
 30
0.0
 11
397.753595723323
 21
180.1160858572236
 31
0.0
  0
LINE
  5
123C
330
2
100
AcDbEntity
  8
0
100
AcDbLine
 10
401.1535957233236
 20
185.1160858572236
 30
0.0
 11
400.753595723324
 21
184.4232655341963
 31
0.0
  0
LINE
  5
123D
330
2
100
AcDbEntity
  8
0
100
AcDbLine
 10
406.7535957233235
 20
185.1160858572236
 30
0.0
 11
406.753595723323
 21
175.1160858572236
 31
0.0
  0
LINE
  5
123E
330
2
100
AcDbEntity
  8
0
100
AcDbLine
 10
401.1535957233236
 20
185.1160858572236
 30
0.0
 11
401.1535957233236
 21
175.1160858572236
 31
0.0
  0
LINE
  5
123F
330
2
100
AcDbEntity
  8
0
100
AcDbLine
 10
408.253595723324
 20
185.1160858572236
 30
0.0
 11
401.1535957233236
 21
185.1160858572236
 31
0.0
  0
LINE
  5
1240
330
2
100
AcDbEntity
  8
0
100
AcDbLine
 10
408.253595723324
 20
175.1160858572236
 30
0.0
 11
401.1535957233236
 21
175.1160858572236
 31
0.0
  0
LINE
  5
1241
330
2
100
AcDbEntity
  8
0
100
AcDbLine
 10
401.1535957233236
 20
175.1160858572236
 30
0.0
 11
400.753595723324
 21
175.8089061802509
 31
0.0
  0
LINE
  5
1242
330
2
100
AcDbEntity
  8
0
100
AcDbLine
 10
400.753595723324
 20
184.4232655341963
 30
0.0
 11
400.753595723324
 21
175.8089061802509
 31
0.0
  0
LINE
  5
1243
330
2
100
AcDbEntity
  8
CENTER
  6
CENS
100
AcDbLine
 10
423.6619918349433
 20
94.11608585722365
 30
0.0
 11
397.753595723323
 21
94.11608585722365
 31
0.0
  0
LINE
  5
1244
330
2
100
AcDbEntity
  8
0
100
AcDbLine
 10
401.1535957233236
 20
89.11608585722365
 30
0.0
 11
400.753595723324
 21
89.80890618025091
 31
0.0
  0
LINE
  5
1245
330
2
100
AcDbEntity
  8
0
100
AcDbLine
 10
406.7535957233235
 20
89.11608585722365
 30
0.0
 11
406.753595723323
 21
99.11608585722365
 31
0.0
  0
LINE
  5
1246
330
2
100
AcDbEntity
  8
0
100
AcDbLine
 10
401.1535957233236
 20
89.11608585722365
 30
0.0
 11
401.1535957233236
 21
99.11608585722365
 31
0.0
  0
LINE
  5
1247
330
2
100
AcDbEntity
  8
0
100
AcDbLine
 10
408.253595723324
 20
89.11608585722365
 30
0.0
 11
401.1535957233236
 21
89.11608585722365
 31
0.0
  0
LINE
  5
1248
330
2
100
AcDbEntity
  8
0
100
AcDbLine
 10
408.253595723324
 20
99.11608585722365
 30
0.0
 11
401.1535957233236
 21
99.11608585722365
 31
0.0
  0
LINE
  5
1249
330
2
100
AcDbEntity
  8
0
100
AcDbLine
 10
401.1535957233236
 20
99.11608585722365
 30
0.0
 11
400.753595723324
 21
98.42326553419638
 31
0.0
  0
LINE
  5
124A
330
2
100
AcDbEntity
  8
0
100
AcDbLine
 10
400.753595723324
 20
89.80890618025091
 30
0.0
 11
400.753595723324
 21
98.42326553419638
 31
0.0
  0
LINE
  5
124B
330
2
100
AcDbEntity
  8
CENTER
  6
CENS
100
AcDbLine
 10
505.7535957233435
 20
143.3149450519756
 30
0.0
 11
505.7535957233435
 21
161.7171292332366
 31
0.0
  0
LINE
  5
124C
330
2
100
AcDbEntity
  8
0
100
AcDbLine
 10
480.7535957232535
 20
148.616081642607
 30
0.0
 11
412.7536877232532
 21
148.616081642607
 31
0.0
  0
LINE
  5
124D
330
2
100
AcDbEntity
  8
0
100
AcDbLine
 10
412.7536877232532
 20
148.116081642607
 30
0.0
 11
401.7537027232533
 21
148.116081642607
 31
0.0
  0
LINE
  5
124E
330
2
100
AcDbEntity
  8
0
100
AcDbLine
 10
401.4782157704094
 20
154.116081642607
 30
0.0
 11
387.7537027232533
 21
154.116081642607
 31
0.0
  0
LINE
  5
124F
330
2
100
AcDbEntity
  8
0
100
AcDbLine
 10
400.6036047232537
 20
148.116081642607
 30
0.0
 11
389.7537027232533
 21
148.116081642607
 31
0.0
  0
LINE
  5
1250
330
2
100
AcDbEntity
  8
0
100
AcDbLine
 10
401.7537027232533
 20
148.616081642607
 30
0.0
 11
400.6036047232537
 21
148.616081642607
 31
0.0
  0
LINE
  5
1251
330
2
100
AcDbEntity
  8
0
100
AcDbLine
 10
389.7537027232533
 20
148.116081642607
 30
0.0
 11
387.7537027232533
 21
149.2706836426057
 31
0.0
  0
LINE
  5
1252
330
2
100
AcDbEntity
  8
0
100
AcDbLine
 10
401.4782113522187
 20
120.116081642607
 30
0.0
 11
387.7537027232533
 21
120.116081642607
 31
0.0
  0
LINE
  5
1253
330
2
100
AcDbEntity
  8
0
100
AcDbLine
 10
400.6036047232537
 20
126.116081642607
 30
0.0
 11
389.7537027232533
 21
126.116081642607
 31
0.0
  0
LINE
  5
1254
330
2
100
AcDbEntity
  8
0
100
AcDbLine
 10
401.7537027232533
 20
125.616081642607
 30
0.0
 11
400.6036047232537
 21
125.616081642607
 31
0.0
  0
LINE
  5
1255
330
2
100
AcDbEntity
  8
0
100
AcDbLine
 10
389.7537027232533
 20
126.116081642607
 30
0.0
 11
387.7537027232533
 21
124.9614796426064
 31
0.0
  0
LINE
  5
1256
330
2
100
AcDbEntity
  8
0
100
AcDbLine
 10
412.7536877232532
 20
148.616081642607
 30
0.0
 11
412.7536877232532
 21
125.6160827286691
 31
0.0
  0
LINE
  5
1257
330
2
100
AcDbEntity
  8
0
100
AcDbLine
 10
387.7537027232533
 20
154.116081642607
 30
0.0
 11
387.7537027232533
 21
120.116081642607
 31
0.0
  0
LINE
  5
1258
330
2
100
AcDbEntity
  8
0
100
AcDbLine
 10
389.7537027232533
 20
126.116081642607
 30
0.0
 11
389.7537027232533
 21
148.116081642607
 31
0.0
  0
LINE
  5
1259
330
2
100
AcDbEntity
  8
0
100
AcDbLine
 10
401.7537027232533
 20
125.616081642607
 30
0.0
 11
401.7537027232533
 21
148.616081642607
 31
0.0
  0
LINE
  5
125A
330
2
100
AcDbEntity
  8
0
100
AcDbLine
 10
400.6036047232537
 20
125.616081642607
 30
0.0
 11
400.6036047232537
 21
148.616081642607
 31
0.0
  0
LINE
  5
125B
330
2
100
AcDbEntity
  8
0
100
AcDbLine
 10
513.7535957232535
 20
150.9160846426054
 30
0.0
 11
387.7537027232528
 21
150.9160846426054
 31
0.0
  0
LINE
  5
125C
330
2
100
AcDbEntity
  8
0
100
AcDbLine
 10
509.2535487368727
 20
125.6160965102733
 30
0.0
 11
502.2535487369245
 21
125.61612520434
 31
0.0
  0
LINE
  5
125D
330
2
100
AcDbEntity
  8
0
100
AcDbLine
 10
513.7535957232535
 20
120.116081642607
 30
0.0
 11
490.4454662563494
 21
120.116081642607
 31
0.0
  0
LINE
  5
125E
330
2
100
AcDbEntity
  8
0
100
AcDbLine
 10
493.7536421544082
 20
125.616081642607
 30
0.0
 11
493.7537332920778
 21
148.616081642607
 31
0.0
  0
LINE
  5
125F
330
2
100
AcDbEntity
  8
0
100
AcDbLine
 10
494.9036481543994
 20
125.6160768004608
 30
0.0
 11
494.9037392920877
 21
148.616081642607
 31
0.0
  0
LINE
  5
1260
330
2
100
AcDbEntity
  8
0
100
AcDbLine
 10
502.2535487369245
 20
125.61612520434
 30
0.0
 11
502.2536427095506
 21
148.6160106426066
 31
0.0
  0
LINE
  5
1261
330
2
100
AcDbEntity
  8
0
100
AcDbLine
 10
480.753595723253
 20
125.6160888070005
 30
0.0
 11
480.753595723254
 21
148.616081642607
 31
0.0
  0
LINE
  5
1262
330
2
100
AcDbEntity
  8
0
100
AcDbLine
 10
480.753595723253
 20
126.1160087851164
 30
0.0
 11
493.7536428887828
 21
126.1160864848313
 31
0.0
  0
LINE
  5
1263
330
2
100
AcDbEntity
  8
0
100
AcDbLine
 10
502.2535508887249
 20
126.116054204336
 30
0.0
 11
494.9036488887741
 21
126.116081642687
 31
0.0
  0
LINE
  5
1264
330
2
100
AcDbEntity
  8
0
100
AcDbLine
 10
494.9036488888068
 20
126.1160908557974
 30
0.0
 11
495.1303564349573
 21
126.116091589816
 31
0.0
  0
LINE
  5
1265
330
2
100
AcDbEntity
  8
0
100
AcDbLine
 10
494.9036481543994
 20
125.6160768004608
 30
0.0
 11
493.7536421544082
 21
125.616081642607
 31
0.0
  0
LINE
  5
1266
330
2
100
AcDbEntity
  8
0
100
AcDbLine
 10
509.2536427096152
 20
148.6160106426066
 30
0.0
 11
502.2535957232535
 21
148.6160106426066
 31
0.0
  0
LINE
  5
1267
330
2
100
AcDbEntity
  8
0
100
AcDbLine
 10
513.7535957232535
 20
154.1159896426067
 30
0.0
 11
490.4454324478956
 21
154.1159896426067
 31
0.0
  0
LINE
  5
1268
330
2
100
AcDbEntity
  8
0
100
AcDbLine
 10
493.7536877232532
 20
148.116081642607
 30
0.0
 11
480.7535957232535
 21
148.116081642607
 31
0.0
  0
LINE
  5
1269
330
2
100
AcDbEntity
  8
0
100
AcDbLine
 10
502.2535957232535
 20
148.116081642607
 30
0.0
 11
494.9036937232531
 21
148.116081642607
 31
0.0
  0
LINE
  5
126A
330
2
100
AcDbEntity
  8
0
  6
CONTINUOUS
 62
     7
100
AcDbLine
 10
503.7535957239542
 20
150.9160846426054
 30
0.0
 11
503.7535957239542
 21
154.1160966426066
 31
0.0
  0
LINE
  5
126B
330
2
100
AcDbEntity
  8
0
  6
CONTINUOUS
 62
     4
100
AcDbLine
 10
503.2535957239542
 20
150.9160846426054
 30
0.0
 11
503.2535957239542
 21
154.1160966426066
 31
0.0
  0
LINE
  5
126C
330
2
100
AcDbEntity
  8
0
100
AcDbLine
 10
494.9037392920877
 20
148.616081642607
 30
0.0
 11
493.7536877232532
 21
148.616081642607
 31
0.0
  0
LINE
  5
126D
330
2
100
AcDbEntity
  8
0
100
AcDbLine
 10
513.7535957232535
 20
154.1159896426067
 30
0.0
 11
513.7535957232535
 21
120.116081642607
 31
0.0
  0
LINE
  5
126E
330
2
100
AcDbEntity
  8
0
100
AcDbLine
 10
511.7535957232535
 20
148.116081642607
 30
0.0
 11
513.7535957232535
 21
149.2706836426057
 31
0.0
  0
LINE
  5
126F
330
2
100
AcDbEntity
  8
0
100
AcDbLine
 10
511.7535957232535
 20
148.116081642607
 30
0.0
 11
509.2535957232525
 21
148.116081642607
 31
0.0
  0
LINE
  5
1270
330
2
100
AcDbEntity
  8
0
  6
CONTINUOUS
 62
     4
100
AcDbLine
 10
508.2535957232526
 20
150.9160846426054
 30
0.0
 11
508.2535957232535
 21
154.1160966426066
 31
0.0
  0
LINE
  5
1271
330
2
100
AcDbEntity
  8
0
  6
CONTINUOUS
 62
     7
100
AcDbLine
 10
507.7535957232535
 20
150.9160846426054
 30
0.0
 11
507.7535957232535
 21
154.1160966426066
 31
0.0
  0
LINE
  5
1272
330
2
100
AcDbEntity
  8
0
100
AcDbLine
 10
509.2536427096152
 20
148.6160106426066
 30
0.0
 11
509.2535487368727
 21
125.6160965102733
 31
0.0
  0
LINE
  5
1273
330
2
100
AcDbEntity
  8
0
100
AcDbLine
 10
511.7535508886216
 20
126.1159968162026
 30
0.0
 11
511.7536405580308
 21
148.1161075257694
 31
0.0
  0
LINE
  5
1274
330
2
100
AcDbEntity
  8
0
100
AcDbLine
 10
511.7535508886216
 20
126.1159968162026
 30
0.0
 11
513.7535467473303
 21
124.9613876426935
 31
0.0
  0
LINE
  5
1275
330
2
100
AcDbEntity
  8
0
100
AcDbLine
 10
511.7535508886216
 20
126.1159968162026
 30
0.0
 11
509.2535508886735
 21
126.1160255102693
 31
0.0
  0
LINE
  5
1276
330
2
100
AcDbEntity
  8
0
100
AcDbLine
 10
412.7536877232532
 20
126.116081642607
 30
0.0
 11
401.7537027232533
 21
126.116081642607
 31
0.0
  0
LINE
  5
1277
330
2
100
AcDbEntity
  8
0
100
AcDbLine
 10
480.753595723253
 20
125.6160888070005
 30
0.0
 11
412.7536877232532
 21
125.6160827286691
 31
0.0
  0
LINE
  5
1278
330
2
100
AcDbEntity
  8
0
100
AcDbLine
 10
499.7535957232535
 20
111.1160858572236
 30
0.0
 11
499.7535957232535
 21
120.116081642607
 31
0.0
  0
LINE
  5
1279
330
2
100
AcDbEntity
  8
0
100
AcDbLine
 10
499.7535957232543
 20
154.1159896426067
 30
0.0
 11
499.7535957232539
 21
163.1160858572236
 31
0.0
  0
LINE
  5
127A
330
2
100
AcDbEntity
  8
0
100
AcDbLine
 10
491.753595723253
 20
163.8804125631011
 30
0.0
 11
491.753595723253
 21
154.1159896426067
 31
0.0
  0
LINE
  5
127B
330
2
100
AcDbEntity
  8
0
100
AcDbLine
 10
491.7535957232535
 20
120.116081642607
 30
0.0
 11
491.7535957232535
 21
110.3517591513461
 31
0.0
  0
LINE
  5
127C
330
2
100
AcDbEntity
  8
0
100
AcDbLine
 10
491.753595723253
 20
111.1160858572236
 30
0.0
 11
499.7535957232535
 21
111.1160858572236
 31
0.0
  0
LINE
  5
127D
330
2
100
AcDbEntity
  8
0
100
AcDbLine
 10
499.7535957232535
 20
111.1160858572236
 30
0.0
 11
500.7535957232534
 21
110.5387355880336
 31
0.0
  0
LINE
  5
127E
330
2
100
AcDbEntity
  8
0
100
AcDbLine
 10
491.2738864366224
 20
110.3391975215906
 30
0.0
 11
491.7535957232535
 21
110.3517591513461
 31
0.0
  0
LINE
  5
127F
330
2
100
AcDbEntity
  8
0
100
AcDbLine
 10
491.7535957232535
 20
163.1160858572218
 30
0.0
 11
499.7535957232539
 21
163.1160858572218
 31
0.0
  0
LINE
  5
1280
330
2
100
AcDbEntity
  8
0
100
AcDbLine
 10
499.7535957232535
 20
163.1160858572218
 30
0.0
 11
500.7535957232534
 21
163.6934361264118
 31
0.0
  0
LINE
  5
1281
330
2
100
AcDbEntity
  8
0
100
AcDbLine
 10
491.2738864366229
 20
163.8929741928566
 30
0.0
 11
491.7535957232539
 21
163.8804125631011
 31
0.0
  0
SPLINE
  5
1282
330
2
100
AcDbEntity
  8
HOJO
100
AcDbSpline
210
0.0
220
0.0
230
1.0
 70
     8
 71
     3
 72
    31
 73
    27
 74
     0
 42
0.0000000001
 43
0.0000000001
 40
1.006090418120999
 40
1.006090418120999
 40
1.006090418120999
 40
1.006090418120999
 40
2.214208887200965
 40
4.372114611977804
 40
7.908539174416501
 40
10.6869955506748
 40
13.51956819365521
 40
17.06216826888282
 40
20.99280379806764
 40
23.41299456382895
 40
30.91999047333559
 40
38.68894682021132
 40
50.81685278160026
 40
58.48584632197308
 40
70.31156128461208
 40
79.0586932432537
 40
89.49338633998356
 40
97.17441191234248
 40
107.8778879181509
 40
111.3472347353728
 40
114.8898348106004
 40
118.0447231005161
 40
122.3359256316152
 40
127.2105747731371
 40
132.3338294909638
 40
132.415244059103
 40
132.415244059103
 40
132.415244059103
 40
132.415244059103
 10
389.7535957232475
 20
165.8164911852361
 30
0.0
 10
390.1069391402888
 20
165.6208242120881
 30
0.0
 10
391.1130844084882
 20
165.1298163055215
 30
0.0
 10
393.4487921152294
 20
164.8038749005025
 30
0.0
 10
396.1692196456306
 20
164.9158080955056
 30
0.0
 10
399.5312049148233
 20
165.0023224106642
 30
0.0
 10
401.1911150237742
 20
161.9208760580038
 30
0.0
 10
401.1317709886212
 20
158.5272817296461
 30
0.0
 10
400.6543949608681
 20
155.1477633602406
 30
0.0
 10
403.6218111566445
 20
150.8418292848344
 30
0.0
 10
410.465523322438
 20
154.9629995926678
 30
0.0
 10
419.1022744337228
 20
151.1434128033068
 30
0.0
 10
428.4557853166543
 20
154.1760838364878
 30
0.0
 10
438.9109549619861
 20
151.8086055965466
 30
0.0
 10
448.3488449546576
 20
154.7934260882955
 30
0.0
 10
458.5185762106107
 20
151.1750439924142
 30
0.0
 10
467.4298036032933
 20
154.1000736956573
 30
0.0
 10
477.128606391936
 20
151.549331404796
 30
0.0
 10
483.6914488994652
 20
152.7070611847664
 30
0.0
 10
490.825340563264
 20
152.7032788381091
 30
0.0
 10
490.6251367069225
 20
157.0991180475392
 30
0.0
 10
489.9787490889111
 20
160.3620040037784
 30
0.0
 10
490.8027481094254
 20
164.6415902736133
 30
0.0
 10
495.6227868074101
 20
166.0059312367755
 30
0.0
 10
499.1626097505882
 20
165.4368791693357
 30
0.0
 10
500.7291530965544
 20
166.0322381508556
 30
0.0
 10
500.753595723253
 20
166.0417627196182
 30
0.0
  0
SPLINE
  5
1283
330
2
100
AcDbEntity
  8
HOJO
100
AcDbSpline
210
0.0
220
0.0
230
1.0
 70
     8
 71
     3
 72
    31
 73
    27
 74
     0
 42
0.0000000001
 43
0.0000000001
 40
1.006090418120999
 40
1.006090418120999
 40
1.006090418120999
 40
1.006090418120999
 40
2.214208887200965
 40
4.372114611977804
 40
7.908539174416501
 40
10.6869955506748
 40
13.51956819365521
 40
17.06216826888282
 40
20.99280379806764
 40
23.41299456382895
 40
30.91999047333559
 40
38.68894682021132
 40
50.81685278160026
 40
58.48584632197308
 40
70.31156128461208
 40
79.0586932432537
 40
89.49338633998356
 40
97.17441191234248
 40
107.8778879181509
 40
111.3472347353728
 40
114.8898348106004
 40
118.0447231005161
 40
122.3359256316152
 40
127.2105747731371
 40
132.3338294909638
 40
132.415244059103
 40
132.415244059103
 40
132.415244059103
 40
132.415244059103
 10
389.7535957232475
 20
108.4156805292094
 30
0.0
 10
390.1069391402888
 20
108.6113475023574
 30
0.0
 10
391.1130844084882
 20
109.1023554089241
 30
0.0
 10
393.4487921152294
 20
109.428296813943
 30
0.0
 10
396.1692196456306
 20
109.3163636189418
 30
0.0
 10
399.5312049148233
 20
109.2298493037831
 30
0.0
 10
401.1911150237742
 20
112.3112956564417
 30
0.0
 10
401.1317709886212
 20
115.7048899848012
 30
0.0
 10
400.6543949608681
 20
119.0844083542049
 30
0.0
 10
403.6218111566445
 20
123.3903424296111
 30
0.0
 10
410.465523322438
 20
119.2691721217796
 30
0.0
 10
419.1022744337228
 20
123.0887589111387
 30
0.0
 10
428.4557853166543
 20
120.0560878779595
 30
0.0
 10
438.9109549619861
 20
122.4235661178989
 30
0.0
 10
448.3488449546576
 20
119.43874562615
 30
0.0
 10
458.5185762106107
 20
123.0571277220331
 30
0.0
 10
467.4298036032933
 20
120.13209801879
 30
0.0
 10
477.128606391936
 20
122.6828403096513
 30
0.0
 10
483.6914488994652
 20
121.5251105296791
 30
0.0
 10
490.825340563264
 20
121.5288928763364
 30
0.0
 10
490.6251367069225
 20
117.1330536669063
 30
0.0
 10
489.9787490889111
 20
113.8701677106672
 30
0.0
 10
490.8027481094254
 20
109.5905814408341
 30
0.0
 10
495.6227868074101
 20
108.22624047767
 30
0.0
 10
499.1626097505882
 20
108.7952925451116
 30
0.0
 10
500.7291530965544
 20
108.1999335635917
 30
0.0
 10
500.753595723253
 20
108.1904089948291
 30
0.0
  0
LINE
  5
1284
330
2
100
AcDbEntity
  8
0
100
AcDbLine
 10
499.7535957232535
 20
163.1160858572218
 30
0.0
 11
491.753595723253
 21
154.1159896426067
 31
0.0
  0
LINE
  5
1285
330
2
100
AcDbEntity
  8
0
100
AcDbLine
 10
491.753595723253
 20
163.1160858572218
 30
0.0
 11
499.7535957232539
 21
154.1159896426067
 31
0.0
  0
LINE
  5
1286
330
2
100
AcDbEntity
  8
0
100
AcDbLine
 10
491.7535957232535
 20
120.116081642607
 30
0.0
 11
499.7535957232535
 21
111.1160858572236
 31
0.0
  0
LINE
  5
1287
330
2
100
AcDbEntity
  8
0
100
AcDbLine
 10
499.7535957232539
 20
120.116081642607
 30
0.0
 11
491.753595723253
 21
111.1160858572236
 31
0.0
  0
LINE
  5
1288
330
2
100
AcDbEntity
  8
0
100
AcDbLine
 10
390.7535957232476
 20
163.1160858572236
 30
0.0
 11
398.7535957232476
 21
154.116081642607
 31
0.0
  0
LINE
  5
1289
330
2
100
AcDbEntity
  8
0
100
AcDbLine
 10
398.7535957232476
 20
163.1160858572236
 30
0.0
 11
390.7535957232476
 21
154.116081642607
 31
0.0
  0
LINE
  5
128A
330
2
100
AcDbEntity
  8
0
100
AcDbLine
 10
398.7535957232476
 20
120.116081642607
 30
0.0
 11
390.7535957232476
 21
111.1160858572236
 31
0.0
  0
LINE
  5
128B
330
2
100
AcDbEntity
  8
0
100
AcDbLine
 10
390.7535957232476
 20
120.116081642607
 30
0.0
 11
398.7535957232476
 21
111.1160858572236
 31
0.0
  0
LINE
  5
128C
330
2
100
AcDbEntity
  8
0
100
AcDbLine
 10
388.9866241887293
 20
428.6838910209379
 30
0.0
 11
382.4778976533016
 21
428.6838910209379
 31
0.0
  0
LINE
  5
128D
330
2
100
AcDbEntity
  8
0
100
AcDbLine
 10
388.9866241887293
 20
425.683891020936
 30
0.0
 11
382.4778976533016
 21
425.683891020936
 31
0.0
  0
LINE
  5
128E
330
2
100
AcDbEntity
  8
0
100
AcDbLine
 10
375.4691711177247
 20
406.2239901981345
 30
0.0
 11
388.9866241887279
 21
406.2239901981345
 31
0.0
  0
LINE
  5
128F
330
2
100
AcDbEntity
  8
0
100
AcDbLine
 10
375.4691711177247
 20
365.1437918437412
 30
0.0
 11
388.9866241887279
 21
365.1437918437412
 31
0.0
  0
LINE
  5
1290
330
2
100
AcDbEntity
  8
0
100
AcDbLine
 10
409.2448691878253
 20
94.11608585722182
 30
0.0
 11
415.7535957232558
 21
94.11608585722182
 31
0.0
  0
LINE
  5
1291
330
2
100
AcDbEntity
  8
0
100
AcDbLine
 10
409.2448691878253
 20
97.11608585722183
 30
0.0
 11
415.7535957232548
 21
97.11608585722183
 31
0.0
  0
LINE
  5
1292
330
2
100
AcDbEntity
  8
0
100
AcDbLine
 10
415.753595723253
 20
180.1160858572236
 30
0.0
 11
409.2448691878253
 21
180.1160858572236
 31
0.0
  0
LINE
  5
1293
330
2
100
AcDbEntity
  8
0
100
AcDbLine
 10
415.753595723253
 20
177.11608585722
 30
0.0
 11
409.2448691878253
 21
177.11608585722
 31
0.0
  0
LINE
  5
1294
330
2
100
AcDbEntity
  8
0
100
AcDbLine
 10
402.2361426522484
 20
157.6561850344203
 30
0.0
 11
415.7535957232516
 21
157.6561850344203
 31
0.0
  0
LINE
  5
1295
330
2
100
AcDbEntity
  8
0
100
AcDbLine
 10
402.2361426522484
 20
116.5759866800269
 30
0.0
 11
415.7535957232516
 21
116.5759866800269
 31
0.0
  0
LINE
  5
1296
330
2
100
AcDbEntity
  8
0
100
AcDbLine
 10
486.9866241887298
 20
368.6838868063212
 30
0.0
 11
473.9866241887297
 21
368.6838868063212
 31
0.0
  0
LINE
  5
1297
330
2
100
AcDbEntity
  8
0
100
AcDbLine
 10
486.9866241887298
 20
402.683794806321
 30
0.0
 11
473.9866241887293
 21
402.683794806321
 31
0.0
  0
LINE
  5
1298
330
2
100
AcDbEntity
  8
0
100
AcDbLine
 10
486.9866241887298
 20
402.683794806321
 30
0.0
 11
486.9866241887298
 21
368.6838868063212
 31
0.0
  0
CIRCLE
  5
1299
330
2
100
AcDbEntity
  8
0
100
AcDbCircle
 10
478.9866241888198
 20
385.6838910209379
 30
0.0
 40
2.0
  0
CIRCLE
  5
129A
330
2
100
AcDbEntity
  8
HOJO
100
AcDbCircle
 10
478.9866241888198
 20
385.6838910209379
 30
0.0
 40
2.5
  0
LINE
  5
129B
330
2
100
AcDbEntity
  8
CENTER
100
AcDbLine
 10
478.9866241888184
 20
391.1558216597684
 30
0.0
 11
478.9866241888184
 21
380.2119603821072
 31
0.0
  0
LINE
  5
129C
330
2
100
AcDbEntity
  8
CENTER
100
AcDbLine
 10
261.4301018067089
 20
421.2798334085044
 30
0.0
 11
261.4301018067089
 21
413.0879486333713
 31
0.0
  0
LINE
  5
129D
330
2
100
AcDbEntity
  8
CENTER
100
AcDbLine
 10
257.3341594191424
 20
417.1838910209379
 30
0.0
 11
265.5260441942755
 21
417.1838910209379
 31
0.0
  0
LINE
  5
129E
330
2
100
AcDbEntity
  8
CENTER
100
AcDbLine
 10
261.4301018067099
 20
358.5586334263305
 30
0.0
 11
261.4301018067099
 21
349.809148615547
 31
0.0
  0
LINE
  5
129F
330
2
100
AcDbEntity
  8
CENTER
100
AcDbLine
 10
257.0553594013181
 20
354.1838910209378
 30
0.0
 11
265.8048442121016
 21
354.1838910209378
 31
0.0
  0
LINE
  5
12A0
330
2
100
AcDbEntity
  8
0
100
AcDbLine
 10
362.9866241887238
 20
402.683886806323
 30
0.0
 11
360.9867311887296
 21
402.683886806323
 31
0.0
  0
LINE
  5
12A1
330
2
100
AcDbEntity
  8
0
100
AcDbLine
 10
362.9866241887238
 20
368.683886806323
 30
0.0
 11
360.9867311887296
 21
368.683886806323
 31
0.0
  0
LINE
  5
12A2
330
2
100
AcDbEntity
  8
0
100
AcDbLine
 10
360.9867311887296
 20
402.683886806323
 30
0.0
 11
360.9867311887296
 21
368.6838868063212
 31
0.0
  0
LINE
  5
12A3
330
2
100
AcDbEntity
  8
0
100
AcDbLine
 10
614.1661637339243
 20
584.7929037400079
 30
0.0
 11
614.1661637339243
 21
597.7929037400079
 31
0.0
  0
LINE
  5
12A4
330
2
100
AcDbEntity
  8
0
100
AcDbLine
 10
648.1660717339241
 20
584.7929037400079
 30
0.0
 11
648.1660717339241
 21
597.7929037400079
 31
0.0
  0
LINE
  5
12A5
330
2
100
AcDbEntity
  8
0
100
AcDbLine
 10
648.1660717339241
 20
584.7929037400079
 30
0.0
 11
614.1661637339243
 21
584.7929037400079
 31
0.0
  0
CIRCLE
  5
12A6
330
2
100
AcDbEntity
  8
0
100
AcDbCircle
 10
631.166167948541
 20
592.7929037399187
 30
0.0
 40
2.0
  0
CIRCLE
  5
12A7
330
2
100
AcDbEntity
  8
HOJO
100
AcDbCircle
 10
631.166167948541
 20
592.7929037399187
 30
0.0
 40
2.5
  0
LINE
  5
12A8
330
2
100
AcDbEntity
  8
CENTER
100
AcDbLine
 10
636.6380985873716
 20
592.7929037399206
 30
0.0
 11
625.6942373097103
 21
592.7929037399206
 31
0.0
  0
LINE
  5
12A9
330
2
100
AcDbEntity
  8
0
100
AcDbLine
 10
648.1661637339252
 20
708.7929037400151
 30
0.0
 11
648.1661637339252
 21
710.792796740008
 31
0.0
  0
LINE
  5
12AA
330
2
100
AcDbEntity
  8
0
100
AcDbLine
 10
614.1661637339252
 20
708.7929037400151
 30
0.0
 11
614.1661637339252
 21
710.792796740008
 31
0.0
  0
LINE
  5
12AB
330
2
100
AcDbEntity
  8
0
100
AcDbLine
 10
648.1661637339252
 20
710.792796740008
 30
0.0
 11
614.1661637339252
 21
710.792796740008
 31
0.0
  0
ARC
  5
12AC
330
2
100
AcDbEntity
  8
0
100
AcDbCircle
 10
216.430101806709
 20
385.6838910209379
 30
0.0
 40
11.0
100
AcDbArc
 50
105.8266201318841
 51
74.17337986811585
  0
LINE
  5
12AD
330
2
100
AcDbEntity
  8
0
100
AcDbLine
 10
219.4301018067089
 20
399.4838940209382
 30
0.0
 11
219.4301018067089
 21
396.2668962651958
 31
0.0
  0
LINE
  5
12AE
330
2
100
AcDbEntity
  8
0
100
AcDbLine
 10
213.4301018067089
 20
399.4838940209382
 30
0.0
 11
219.4301018067089
 21
399.4838940209382
 31
0.0
  0
LINE
  5
12AF
330
2
100
AcDbEntity
  8
0
100
AcDbLine
 10
213.4301018067089
 20
399.4838940209382
 30
0.0
 11
213.4301018067089
 21
396.2668962651958
 31
0.0
  0
CIRCLE
  5
12B0
330
2
100
AcDbEntity
  8
0
100
AcDbCircle
 10
216.430101806708
 20
385.6838910209379
 30
0.0
 40
16.99999578538367
  0
ARC
  5
12B1
330
2
100
AcDbEntity
  8
0
100
AcDbCircle
 10
216.430101806708
 20
385.6838910209379
 30
0.0
 40
12.15460621461704
100
AcDbArc
 50
104.2894160763775
 51
75.71058392359555
  0
ARC
  5
12B2
330
2
100
AcDbEntity
  8
0
100
AcDbCircle
 10
631.1661679485419
 20
385.6838910209369
 30
0.0
 40
11.0
100
AcDbArc
 50
105.8266201318841
 51
74.17337986811585
  0
LINE
  5
12B3
330
2
100
AcDbEntity
  8
0
100
AcDbLine
 10
634.1661679485419
 20
399.4838940209354
 30
0.0
 11
634.1661679485419
 21
396.2668962651949
 31
0.0
  0
LINE
  5
12B4
330
2
100
AcDbEntity
  8
0
100
AcDbLine
 10
628.1661679485418
 20
399.4838940209354
 30
0.0
 11
634.1661679485419
 21
399.4838940209354
 31
0.0
  0
LINE
  5
12B5
330
2
100
AcDbEntity
  8
0
100
AcDbLine
 10
628.1661679485418
 20
399.4838940209354
 30
0.0
 11
628.1661679485418
 21
396.2668962651949
 31
0.0
  0
CIRCLE
  5
12B6
330
2
100
AcDbEntity
  8
0
100
AcDbCircle
 10
631.166167948541
 20
385.6838910209369
 30
0.0
 40
16.99999578538367
  0
ARC
  5
12B7
330
2
100
AcDbEntity
  8
0
100
AcDbCircle
 10
631.166167948541
 20
385.6838910209369
 30
0.0
 40
12.15460621461704
100
AcDbArc
 50
104.2894160763775
 51
75.71058392359555
  0
LINE
  5
12B9
330
2
100
AcDbEntity
  8
PHAS
100
AcDbLine
 10
370.4866241887284
 20
420.6839386830168
 30
0.0
 11
370.4866241887284
 21
350.6838433588589
 31
0.0
  0
ARC
  5
12BA
330
2
100
AcDbEntity
  8
PHAS
100
AcDbCircle
 10
345.9866241887284
 20
366.8529830347022
 30
0.0
 40
5.0
100
AcDbArc
 50
180.0
 51
259.9999999999948
  0
LINE
  5
12BB
330
2
100
AcDbEntity
  8
PHAS
100
AcDbLine
 10
360.6866241887292
 20
417.5646919332155
 30
0.0
 11
360.6866241887282
 21
353.8029947845032
 31
0.0
  0
ARC
  5
12BC
330
2
100
AcDbEntity
  8
PHAS
100
AcDbCircle
 10
363.6866241887283
 20
353.8029947845032
 30
0.0
 40
3.0
100
AcDbArc
 50
180.0
 51
268.9999999999721
  0
ARC
  5
12BD
330
2
100
AcDbEntity
  8
PHAS
100
AcDbCircle
 10
359.6866241887282
 20
358.3447437276816
 30
0.0
 40
1.0
100
AcDbArc
 50
0.0
 51
79.99999999999483
  0
LINE
  5
12BE
330
2
100
AcDbEntity
  8
PHAS
100
AcDbLine
 10
345.1183833003942
 20
361.9289442696416
 30
0.0
 11
359.8602723663952
 21
359.3295514806939
 31
0.0
  0
LINE
  5
12BF
330
2
100
AcDbEntity
  8
PHAS
100
AcDbLine
 10
370.4866241887284
 20
350.6838433588589
 30
0.0
 11
363.6342669694168
 21
350.8034516990335
 31
0.0
  0
ARC
  5
12C0
330
2
100
AcDbEntity
  8
PHAS
100
AcDbCircle
 10
359.6866241887282
 20
413.0229429900362
 30
0.0
 40
1.0
100
AcDbArc
 50
280.0000000000051
 51
0.0
  0
ARC
  5
12C1
330
2
100
AcDbEntity
  8
PHAS
100
AcDbCircle
 10
345.9866241887284
 20
404.5147036830156
 30
0.0
 40
5.0
100
AcDbArc
 50
100.0000000000051
 51
180.0
  0
LINE
  5
12C2
330
2
100
AcDbEntity
  8
PHAS
100
AcDbLine
 10
345.1183833003942
 20
409.4387424480772
 30
0.0
 11
359.8602723663952
 21
412.0381352370239
 31
0.0
  0
LINE
  5
12C3
330
2
100
AcDbEntity
  8
PHAS
100
AcDbLine
 10
340.9866241887284
 20
404.5147036830156
 30
0.0
 11
340.9866241887284
 21
366.8530783588592
 31
0.0
  0
ARC
  5
12C4
330
2
100
AcDbEntity
  8
PHAS
100
AcDbCircle
 10
363.6866241887283
 20
417.5647872573724
 30
0.0
 40
3.0
100
AcDbArc
 50
91.00000000002784
 51
180.0
  0
LINE
  5
12C5
330
2
100
AcDbEntity
  8
PHAS
100
AcDbLine
 10
370.4866241887284
 20
420.6839386830159
 30
0.0
 11
363.6342669694168
 21
420.5643303428413
 31
0.0
  0
LINE
  5
12C6
330
2
100
AcDbEntity
  8
0
100
AcDbLine
 10
754.9561679485409
 20
385.6838910209369
 30
0.0
 11
755.4162073017282
 21
385.6838910209369
 31
0.0
  0
LINE
  5
1303
330
2
100
AcDbEntity
  8
0
100
AcDbLine
 10
1019.094674486172
 20
436.6838910209388
 30
0.0
 11
1019.094674486172
 21
421.7950021320501
 31
0.0
  0
LINE
  5
1304
330
2
100
AcDbEntity
  8
CENTER
100
AcDbLine
 10
991.0946744861726
 20
446.4395387227976
 30
0.0
 11
991.0946744861726
 21
324.9282433190799
 31
0.0
  0
LINE
  5
1305
330
2
100
AcDbEntity
  8
0
100
AcDbLine
 10
953.0946744861726
 20
436.1079177467488
 30
0.0
 11
953.0946744861726
 21
335.2598642951286
 31
0.0
  0
LINE
  5
1306
330
2
100
AcDbEntity
  8
CENTER
100
AcDbLine
 10
911.0946744861717
 20
385.6838910209388
 30
0.0
 11
1057.094567486172
 21
385.6838910209388
 31
0.0
  0
LINE
  5
1307
330
2
100
AcDbEntity
  8
0
100
AcDbLine
 10
948.0946744861725
 20
430.6838910209387
 30
0.0
 11
948.0946744861789
 21
340.6838910209387
 31
0.0
  0
LINE
  5
1308
330
2
100
AcDbEntity
  8
0
100
AcDbLine
 10
953.0946744861726
 20
430.6838910209387
 30
0.0
 11
948.0946744861725
 21
430.6838910209387
 31
0.0
  0
LINE
  5
1309
330
2
100
AcDbEntity
  8
0
100
AcDbLine
 10
953.0946744861726
 20
340.6838910209387
 30
0.0
 11
948.0946744861725
 21
340.6838910209387
 31
0.0
  0
LINE
  5
130A
330
2
100
AcDbEntity
  8
0
100
AcDbLine
 10
1019.094674486172
 20
349.5727799098293
 30
0.0
 11
1019.094674486172
 21
334.6838910209388
 31
0.0
  0
LINE
  5
130B
330
2
100
AcDbEntity
  8
0
100
AcDbLine
 10
1019.094674486172
 20
334.6838910209388
 30
0.0
 11
953.0946744861726
 21
335.2598642951286
 31
0.0
  0
LINE
  5
130C
330
2
100
AcDbEntity
  8
0
100
AcDbLine
 10
1019.094674486172
 20
436.6838910209388
 30
0.0
 11
953.0946744861726
 21
436.1079177467488
 31
0.0
  0
LINE
  5
130D
330
2
100
AcDbEntity
  8
0
100
AcDbLine
 10
934.0946744861726
 20
353.6152685705526
 30
0.0
 11
934.0946744861708
 21
417.7525134713267
 31
0.0
  0
LINE
  5
130E
330
2
100
AcDbEntity
  8
0
100
AcDbLine
 10
946.1644734795759
 20
420.1053776894003
 30
0.0
 11
936.0248754927665
 21
419.7512951253646
 31
0.0
  0
LINE
  5
130F
330
2
100
AcDbEntity
  8
0
100
AcDbLine
 10
946.1644734795759
 20
351.2624043524791
 30
0.0
 11
936.0248754927674
 21
351.6164869165148
 31
0.0
  0
ARC
  5
1310
330
2
100
AcDbEntity
  8
0
100
AcDbCircle
 10
936.0946744861726
 20
353.6152685705526
 30
0.0
 40
2.0
100
AcDbArc
 50
180.0
 51
267.9999999999963
  0
ARC
  5
1311
330
2
100
AcDbEntity
  8
0
100
AcDbCircle
 10
946.0946744861717
 20
349.2636226984412
 30
0.0
 40
2.0
100
AcDbArc
 50
0.0
 51
87.99999999999636
  0
ARC
  5
1312
330
2
100
AcDbEntity
  8
0
100
AcDbCircle
 10
936.0946744861708
 20
417.7525134713267
 30
0.0
 40
2.0
100
AcDbArc
 50
92.00000000000365
 51
180.0
  0
ARC
  5
1313
330
2
100
AcDbEntity
  8
0
100
AcDbCircle
 10
946.0946744861717
 20
422.1041593434399
 30
0.0
 40
2.0
100
AcDbArc
 50
271.9999999999775
 51
0.0
  0
LINE
  5
1314
330
2
100
AcDbEntity
  8
0
100
AcDbLine
 10
991.0946744861716
 20
422.1838910209406
 30
0.0
 11
1022.164112233626
 21
421.7523710522253
 31
0.0
  0
ARC
  5
1315
330
2
100
AcDbEntity
  8
0
100
AcDbCircle
 10
1022.094674486171
 20
416.7528532355516
 30
0.0
 40
5.0
100
AcDbArc
 50
44.44120087933113
 51
89.20427644725567
  0
ARC
  5
1316
330
2
100
AcDbEntity
  8
0
100
AcDbCircle
 10
1022.094674486171
 20
354.6149288063277
 30
0.0
 40
5.0
100
AcDbArc
 50
270.7957235527443
 51
315.5587991199137
  0
LINE
  5
1317
330
2
100
AcDbEntity
  8
0
100
AcDbLine
 10
991.0946744861716
 20
349.1838910209388
 30
0.0
 11
1022.164112233626
 21
349.615410989654
 31
0.0
  0
LINE
  5
1318
330
2
100
AcDbEntity
  8
0
100
AcDbLine
 10
991.0946744861716
 20
349.1838910209388
 30
0.0
 11
960.0252384830151
 21
349.6154109654269
 31
0.0
  0
ARC
  5
1319
330
2
100
AcDbEntity
  8
0
100
AcDbCircle
 10
960.0946762304689
 20
354.6149287821006
 30
0.0
 40
5.0
100
AcDbArc
 50
224.4419082445521
 51
269.2042764472556
  0
ARC
  5
131A
330
2
100
AcDbEntity
  8
0
100
AcDbCircle
 10
960.0946762304689
 20
416.7528532597787
 30
0.0
 40
5.0
100
AcDbArc
 50
90.79572355274434
 51
135.5580917561983
  0
LINE
  5
131B
330
2
100
AcDbEntity
  8
0
100
AcDbLine
 10
991.0946744861716
 20
422.1838910209406
 30
0.0
 11
960.0252384830151
 21
421.7523710764524
 31
0.0
  0
LINE
  5
131C
330
2
100
AcDbEntity
  8
0
100
AcDbLine
 10
1019.094674486172
 20
428.6838910209369
 30
0.0
 11
953.0946744861726
 21
428.6838910209369
 31
0.0
  0
LINE
  5
131D
330
2
100
AcDbEntity
  8
0
100
AcDbLine
 10
1019.094674486172
 20
342.6838910209406
 30
0.0
 11
953.0946744861726
 21
342.6838910209406
 31
0.0
  0
LINE
  5
131E
330
2
100
AcDbEntity
  8
0
100
AcDbLine
 10
1045.094674486177
 20
353.2612412901306
 30
0.0
 11
1045.094674486178
 21
418.1065407517506
 31
0.0
  0
LINE
  5
131F
330
2
100
AcDbEntity
  8
0
100
AcDbLine
 10
1035.180460923804
 20
426.0981045833121
 30
0.0
 11
1036.008888048549
 21
425.2696774585673
 31
0.0
  0
LINE
  5
1320
330
2
100
AcDbEntity
  8
0
100
AcDbLine
 10
1019.094674486174
 20
436.6838910209388
 30
0.0
 11
1019.094674486174
 21
421.7950021320501
 31
0.0
  0
LINE
  5
1321
330
2
100
AcDbEntity
  8
0
100
AcDbLine
 10
1019.09467448617
 20
349.5727799098275
 30
0.0
 11
1019.094674486168
 21
334.6838910209406
 31
0.0
  0
LINE
  5
1322
330
2
100
AcDbEntity
  8
0
100
AcDbLine
 10
1026.594674486174
 20
419.635817091317
 30
0.0
 11
1026.594674486174
 21
419.0003331515511
 31
0.0
  0
LINE
  5
1323
330
2
100
AcDbEntity
  8
0
100
AcDbLine
 10
1031.594674486173
 20
410.1838910209387
 30
0.0
 11
1031.59467448617
 21
361.1838910209406
 31
0.0
  0
ARC
  5
1324
330
2
100
AcDbEntity
  8
0
100
AcDbCircle
 10
1029.594674486174
 20
419.592182752365
 30
0.0
 40
2.0
100
AcDbArc
 50
17.20876206250628
 51
89.50000000000846
  0
LINE
  5
1325
330
2
100
AcDbEntity
  8
0
100
AcDbLine
 10
1034.594674486179
 20
336.8017798928866
 30
0.0
 11
1034.594674486177
 21
434.5660021489909
 31
0.0
  0
ARC
  5
1326
330
2
100
AcDbEntity
  8
0
100
AcDbCircle
 10
1032.59467448618
 20
336.8017798928866
 30
0.0
 40
2.0
100
AcDbArc
 50
270.4999999999915
 51
0.0
  0
LINE
  5
1327
330
2
100
AcDbEntity
  8
0
100
AcDbLine
 10
1040.594674486177
 20
418.4838910209398
 30
0.0
 11
1040.394674486177
 21
418.6838910209387
 31
0.0
  0
LINE
  5
1328
330
2
100
AcDbEntity
  8
0
100
AcDbLine
 10
1037.094674486177
 20
420.6838910209388
 30
0.0
 11
1036.594674486177
 21
421.1838910209388
 31
0.0
  0
LINE
  5
1329
330
2
100
AcDbEntity
  8
0
100
AcDbLine
 10
1036.594674486176
 20
423.8554638961939
 30
0.0
 11
1036.594674486177
 21
421.1838910209388
 31
0.0
  0
LINE
  5
132A
330
2
100
AcDbEntity
  8
0
100
AcDbLine
 10
1040.394674486177
 20
418.6838910209387
 30
0.0
 11
1037.094674486177
 21
418.6838910209387
 31
0.0
  0
LINE
  5
132B
330
2
100
AcDbEntity
  8
0
100
AcDbLine
 10
1044.094674486177
 20
418.6838910209387
 30
0.0
 11
1045.094674486177
 21
418.1065407517506
 31
0.0
  0
LINE
  5
132C
330
2
100
AcDbEntity
  8
0
100
AcDbLine
 10
1044.094674486178
 20
418.6838910209387
 30
0.0
 11
1042.794674486176
 21
418.6838910209387
 31
0.0
  0
LINE
  5
132D
330
2
100
AcDbEntity
  8
0
100
AcDbLine
 10
1042.394674486177
 20
417.9838910209398
 30
0.0
 11
1040.794674486176
 21
417.9838910209398
 31
0.0
  0
LINE
  5
132E
330
2
100
AcDbEntity
  8
0
100
AcDbLine
 10
1019.094674486168
 20
334.6838910209406
 30
0.0
 11
1032.612127557177
 21
334.8018560467588
 31
0.0
  0
LINE
  5
132F
330
2
100
AcDbEntity
  8
0
100
AcDbLine
 10
1035.180460923804
 20
345.2696774585672
 30
0.0
 11
1036.008888048544
 21
346.0981045833066
 31
0.0
  0
LINE
  5
1330
330
2
100
AcDbEntity
  8
0
100
AcDbLine
 10
1037.094674486172
 20
350.6838910209406
 30
0.0
 11
1037.094674486179
 21
420.6838910209369
 31
0.0
  0
LINE
  5
1331
330
2
100
AcDbEntity
  8
0
100
AcDbLine
 10
1040.594674486172
 20
352.8838910209395
 30
0.0
 11
1040.594674486172
 21
418.4838910209434
 31
0.0
  0
LINE
  5
1332
330
2
100
AcDbEntity
  8
0
100
AcDbLine
 10
1040.594674486172
 20
352.8838910209395
 30
0.0
 11
1040.394674486171
 21
352.6838910209388
 31
0.0
  0
LINE
  5
1333
330
2
100
AcDbEntity
  8
0
100
AcDbLine
 10
1040.394674486171
 20
352.6838910209388
 30
0.0
 11
1037.094674486172
 21
352.6838910209406
 31
0.0
  0
LINE
  5
1334
330
2
100
AcDbEntity
  8
0
100
AcDbLine
 10
1037.094674486172
 20
350.6838910209406
 30
0.0
 11
1036.594674486172
 21
350.1838910209406
 31
0.0
  0
LINE
  5
1335
330
2
100
AcDbEntity
  8
0
100
AcDbLine
 10
1036.59467448617
 20
347.51231814568
 30
0.0
 11
1036.594674486177
 21
421.1838910209388
 31
0.0
  0
LINE
  5
1336
330
2
100
AcDbEntity
  8
0
100
AcDbLine
 10
1044.094674486172
 20
352.6838910209388
 30
0.0
 11
1045.094674486172
 21
353.2612412901288
 31
0.0
  0
LINE
  5
1337
330
2
100
AcDbEntity
  8
0
100
AcDbLine
 10
1042.594674486172
 20
352.8838910209395
 30
0.0
 11
1042.594674486172
 21
418.4838910209398
 31
0.0
  0
LINE
  5
1338
330
2
100
AcDbEntity
  8
0
100
AcDbLine
 10
1044.094674486172
 20
352.6838910209388
 30
0.0
 11
1042.794674486172
 21
352.6838910209388
 31
0.0
  0
LINE
  5
1339
330
2
100
AcDbEntity
  8
0
100
AcDbLine
 10
1042.394674486172
 20
353.3838910209395
 30
0.0
 11
1040.794674486173
 21
353.3838910209395
 31
0.0
  0
ARC
  5
133A
330
2
100
AcDbEntity
  8
0
100
AcDbCircle
 10
1034.59467448617
 20
347.51231814568
 30
0.0
 40
2.0
100
AcDbArc
 50
314.9999999999812
 51
0.0
  0
ARC
  5
133B
330
2
100
AcDbEntity
  8
0
100
AcDbCircle
 10
1036.594674486178
 20
343.8554638961939
 30
0.0
 40
2.0
100
AcDbArc
 50
134.9999999999812
 51
180.0
  0
ARC
  5
133C
330
2
100
AcDbEntity
  8
0
100
AcDbCircle
 10
1034.594674486176
 20
423.8554638961939
 30
0.0
 40
2.0
100
AcDbArc
 50
0.0
 51
45.00000000001871
  0
ARC
  5
133D
330
2
100
AcDbEntity
  8
0
100
AcDbCircle
 10
1036.594674486178
 20
427.5123181456854
 30
0.0
 40
2.0
100
AcDbArc
 50
180.0
 51
225.0000000000187
  0
ARC
  5
133E
330
2
100
AcDbEntity
  8
0
100
AcDbCircle
 10
1042.794674486173
 20
352.8838910209395
 30
0.0
 40
0.2
100
AcDbArc
 50
180.0
 51
269.9999999999739
  0
ARC
  5
133F
330
2
100
AcDbEntity
  8
0
100
AcDbCircle
 10
1042.394674486172
 20
353.1838910209387
 30
0.0
 40
0.2
100
AcDbArc
 50
0.0
 51
89.99999999997395
  0
ARC
  5
1340
330
2
100
AcDbEntity
  8
0
100
AcDbCircle
 10
1040.794674486173
 20
353.1838910209387
 30
0.0
 40
0.2
100
AcDbArc
 50
89.99999999997395
 51
180.0
  0
ARC
  5
1341
330
2
100
AcDbEntity
  8
0
100
AcDbCircle
 10
1042.794674486176
 20
418.4838910209398
 30
0.0
 40
0.2
100
AcDbArc
 50
90.0
 51
180.0
  0
ARC
  5
1342
330
2
100
AcDbEntity
  8
0
100
AcDbCircle
 10
1042.394674486177
 20
418.1838910209387
 30
0.0
 40
0.2
100
AcDbArc
 50
270.0
 51
0.0
  0
ARC
  5
1343
330
2
100
AcDbEntity
  8
0
100
AcDbCircle
 10
1040.794674486176
 20
418.1838910209387
 30
0.0
 40
0.2
100
AcDbArc
 50
180.0
 51
270.0
  0
LINE
  5
1344
330
2
100
AcDbEntity
  8
0
100
AcDbLine
 10
1044.094674486172
 20
352.6838910209388
 30
0.0
 11
1044.094674486177
 21
418.6838910209387
 31
0.0
  0
LINE
  5
1345
330
2
100
AcDbEntity
  8
0
100
AcDbLine
 10
1040.394674486171
 20
352.6838910209388
 30
0.0
 11
1040.394674486177
 21
418.6838910209387
 31
0.0
  0
ARC
  5
1346
330
2
100
AcDbEntity
  8
0
100
AcDbCircle
 10
1032.59467448618
 20
434.5660021489909
 30
0.0
 40
2.0
100
AcDbArc
 50
0.0
 51
89.50000000000846
  0
LINE
  5
1347
330
2
100
AcDbEntity
  8
0
100
AcDbLine
 10
1019.094674486168
 20
436.6838910209388
 30
0.0
 11
1032.612127557177
 21
436.5659259951206
 31
0.0
  0
LINE
  5
1348
330
2
100
AcDbEntity
  8
0
100
AcDbLine
 10
1029.612127557171
 20
421.5921065984928
 30
0.0
 11
1023.109141961935
 21
421.6488572940287
 31
0.0
  0
LINE
  5
1349
330
2
100
AcDbEntity
  8
0
100
AcDbLine
 10
1027.281651719792
 20
408.2215302003994
 30
0.0
 11
1029.61212755717
 21
408.2011924458764
 31
0.0
  0
ARC
  5
134A
330
2
100
AcDbEntity
  8
0
100
AcDbCircle
 10
1024.594674486174
 20
419.635817091317
 30
0.0
 40
2.0
100
AcDbArc
 50
0.0
 51
89.50000000000846
  0
ARC
  5
134B
330
2
100
AcDbEntity
  8
0
100
AcDbCircle
 10
1029.594674486172
 20
406.2012685997486
 30
0.0
 40
2.0
100
AcDbArc
 50
0.0
 51
89.49999999998238
  0
LINE
  5
134C
330
2
100
AcDbEntity
  8
0
100
AcDbLine
 10
1026.594674486174
 20
351.1838910209406
 30
0.0
 11
1026.594674486174
 21
352.3674488903266
 31
0.0
  0
ARC
  5
134D
330
2
100
AcDbEntity
  8
0
100
AcDbCircle
 10
1029.594674486174
 20
351.7755992895143
 30
0.0
 40
2.0
100
AcDbArc
 50
270.4999999999915
 51
342.7912379374936
  0
LINE
  5
134E
330
2
100
AcDbEntity
  8
0
100
AcDbLine
 10
1029.612127557171
 20
349.7756754433847
 30
0.0
 11
1023.109141961935
 21
349.7189247478507
 31
0.0
  0
LINE
  5
134F
330
2
100
AcDbEntity
  8
0
100
AcDbLine
 10
1027.281651719792
 20
363.1462518414799
 30
0.0
 11
1029.61212755717
 21
363.1665895960011
 31
0.0
  0
ARC
  5
1350
330
2
100
AcDbEntity
  8
0
100
AcDbCircle
 10
1024.594674486174
 20
351.7319649505623
 30
0.0
 40
2.0
100
AcDbArc
 50
270.4999999999915
 51
0.0
  0
ARC
  5
1351
330
2
100
AcDbEntity
  8
0
100
AcDbCircle
 10
1029.594674486172
 20
365.1665134421289
 30
0.0
 40
2.0
100
AcDbArc
 50
270.5000000000175
 51
0.0
  0
LINE
  5
1352
330
2
100
AcDbEntity
  8
CENTER
  6
CENS
100
AcDbLine
 10
1013.310886737089
 20
415.1838910209388
 30
0.0
 11
1037.094674486174
 21
415.1838910209388
 31
0.0
  0
LINE
  5
1353
330
2
100
AcDbEntity
  8
0
100
AcDbLine
 10
1033.694674486174
 20
420.1838910209388
 30
0.0
 11
1034.094674486174
 21
419.4910706979115
 31
0.0
  0
LINE
  5
1354
330
2
100
AcDbEntity
  8
0
100
AcDbLine
 10
1028.094674486174
 20
420.1838910209388
 30
0.0
 11
1028.094674486174
 21
410.1838910209387
 31
0.0
  0
LINE
  5
1355
330
2
100
AcDbEntity
  8
0
100
AcDbLine
 10
1033.694674486174
 20
420.1838910209388
 30
0.0
 11
1033.694674486174
 21
410.1838910209387
 31
0.0
  0
LINE
  5
1356
330
2
100
AcDbEntity
  8
0
100
AcDbLine
 10
1026.594674486174
 20
420.1838910209388
 30
0.0
 11
1033.694674486174
 21
420.1838910209388
 31
0.0
  0
LINE
  5
1357
330
2
100
AcDbEntity
  8
0
100
AcDbLine
 10
1027.254396708396
 20
410.1838910209387
 30
0.0
 11
1033.694674486174
 21
410.1838910209387
 31
0.0
  0
LINE
  5
1358
330
2
100
AcDbEntity
  8
0
100
AcDbLine
 10
1033.694674486174
 20
410.1838910209387
 30
0.0
 11
1034.094674486174
 21
410.876711343966
 31
0.0
  0
LINE
  5
1359
330
2
100
AcDbEntity
  8
0
100
AcDbLine
 10
1034.094674486174
 20
419.4910706979115
 30
0.0
 11
1034.094674486174
 21
410.876711343966
 31
0.0
  0
LINE
  5
135A
330
2
100
AcDbEntity
  8
0
100
AcDbLine
 10
1026.594674486174
 20
419.0003331515497
 30
0.0
 11
1026.594674486174
 21
420.1838910209388
 31
0.0
  0
LINE
  5
135B
330
2
100
AcDbEntity
  8
CENTER
  6
CENS
100
AcDbLine
 10
1013.310886737089
 20
356.1838910209406
 30
0.0
 11
1037.094674486174
 21
356.1838910209406
 31
0.0
  0
LINE
  5
135C
330
2
100
AcDbEntity
  8
0
100
AcDbLine
 10
1033.694674486174
 20
351.1838910209406
 30
0.0
 11
1034.094674486174
 21
351.8767113439678
 31
0.0
  0
LINE
  5
135D
330
2
100
AcDbEntity
  8
0
100
AcDbLine
 10
1028.094674486174
 20
351.1838910209406
 30
0.0
 11
1028.094674486174
 21
361.1838910209406
 31
0.0
  0
LINE
  5
135E
330
2
100
AcDbEntity
  8
0
100
AcDbLine
 10
1033.694674486174
 20
351.1838910209406
 30
0.0
 11
1033.694674486174
 21
361.1838910209406
 31
0.0
  0
LINE
  5
135F
330
2
100
AcDbEntity
  8
0
100
AcDbLine
 10
1026.594674486174
 20
351.1838910209406
 30
0.0
 11
1033.694674486174
 21
351.1838910209406
 31
0.0
  0
LINE
  5
1360
330
2
100
AcDbEntity
  8
0
100
AcDbLine
 10
1027.254396708396
 20
361.1838910209406
 30
0.0
 11
1033.694674486174
 21
361.1838910209406
 31
0.0
  0
LINE
  5
1361
330
2
100
AcDbEntity
  8
0
100
AcDbLine
 10
1033.694674486174
 20
361.1838910209406
 30
0.0
 11
1034.094674486174
 21
360.4910706979133
 31
0.0
  0
LINE
  5
1362
330
2
100
AcDbEntity
  8
0
100
AcDbLine
 10
1034.094674486174
 20
351.8767113439678
 30
0.0
 11
1034.094674486174
 21
360.4910706979133
 31
0.0
  0
LINE
  5
1363
330
2
100
AcDbEntity
  8
0
100
AcDbLine
 10
921.0946744861717
 20
402.6838952355554
 30
0.0
 11
934.0946744861717
 21
402.6838952355554
 31
0.0
  0
LINE
  5
1364
330
2
100
AcDbEntity
  8
0
100
AcDbLine
 10
921.0946744861717
 20
368.6839872355556
 30
0.0
 11
934.0946744861726
 21
368.6839872355556
 31
0.0
  0
LINE
  5
1365
330
2
100
AcDbEntity
  8
0
100
AcDbLine
 10
921.0946744861717
 20
368.6839872355556
 30
0.0
 11
921.0946744861717
 21
402.6838952355554
 31
0.0
  0
LINE
  5
1366
330
2
100
AcDbEntity
  8
0
100
AcDbLine
 10
1045.094674486178
 20
368.6838952355554
 30
0.0
 11
1047.094567486172
 21
368.6838952355554
 31
0.0
  0
LINE
  5
1367
330
2
100
AcDbEntity
  8
0
100
AcDbLine
 10
1045.094674486178
 20
402.6838952355554
 30
0.0
 11
1047.094567486172
 21
402.6838952355554
 31
0.0
  0
LINE
  5
1368
330
2
100
AcDbEntity
  8
0
100
AcDbLine
 10
1047.094567486172
 20
368.6838952355554
 30
0.0
 11
1047.094567486172
 21
402.6838952355554
 31
0.0
  0
LINE
  5
1369
330
2
100
AcDbEntity
  8
0
100
AcDbLine
 10
772.1873249045688
 20
412.5438910209375
 30
0.0
 11
767.4873249045699
 21
412.5438910209375
 31
0.0
  0
LINE
  5
136A
330
2
100
AcDbEntity
  8
0
100
AcDbLine
 10
767.4873249045699
 20
421.0438910209375
 30
0.0
 11
772.1873249045688
 21
421.0438910209375
 31
0.0
  0
LINE
  5
136B
330
2
100
AcDbEntity
  8
CENTER
  6
CENS
100
AcDbLine
 10
749.956167948541
 20
416.7938910209375
 30
0.0
 11
777.4131408786247
 21
416.7938910209375
 31
0.0
  0
LINE
  5
136C
330
2
100
AcDbEntity
  8
0
100
AcDbLine
 10
772.48732490457
 20
420.524275778667
 30
0.0
 11
772.48732490457
 21
413.0635062632079
 31
0.0
  0
LINE
  5
136D
330
2
100
AcDbEntity
  8
0
100
AcDbLine
 10
772.1873249045688
 20
412.5438910209375
 30
0.0
 11
772.1873249045688
 21
421.0438910209375
 31
0.0
  0
LINE
  5
136E
330
2
100
AcDbEntity
  8
0
100
AcDbLine
 10
772.1873249045688
 20
412.5438910209375
 30
0.0
 11
772.48732490457
 21
413.0635062632079
 31
0.0
  0
LINE
  5
136F
330
2
100
AcDbEntity
  8
0
100
AcDbLine
 10
772.48732490457
 20
420.524275778667
 30
0.0
 11
772.1873249045688
 21
421.0438910209375
 31
0.0
  0
LINE
  5
1370
330
2
100
AcDbEntity
  8
0
100
AcDbLine
 10
767.4873249045699
 20
421.0438910209375
 30
0.0
 11
766.4873249045699
 21
421.0438910209375
 31
0.0
  0
LINE
  5
1371
330
2
100
AcDbEntity
  8
0
100
AcDbLine
 10
766.4873249045699
 20
421.0438910209375
 30
0.0
 11
766.4873249045699
 21
412.5438910209375
 31
0.0
  0
LINE
  5
1372
330
2
100
AcDbEntity
  8
0
100
AcDbLine
 10
766.4873249045699
 20
412.5438910209375
 30
0.0
 11
767.4873249045699
 21
412.5438910209375
 31
0.0
  0
LINE
  5
1373
330
2
100
AcDbEntity
  8
0
100
AcDbLine
 10
767.4873249045699
 20
412.5438910209375
 30
0.0
 11
767.4873249045699
 21
421.0438910209375
 31
0.0
  0
LINE
  5
1374
330
2
100
AcDbEntity
  8
0
100
AcDbLine
 10
767.4873249045699
 20
412.5438910209375
 30
0.0
 11
767.4873249045699
 21
421.0438910209375
 31
0.0
  0
ARC
  5
1375
330
2
100
AcDbEntity
  8
0
100
AcDbCircle
 10
764.9561679502653
 20
688.7929037400096
 30
0.0
 40
2.0
100
AcDbArc
 50
40.04151653423412
 51
90.0
  0
ARC
  5
1376
330
2
100
AcDbEntity
  8
0
100
AcDbCircle
 10
764.9561679502653
 20
620.7929037400097
 30
0.0
 40
2.0
100
AcDbArc
 50
270.0
 51
319.9584834657658
  0
LINE
  5
1377
330
2
100
AcDbEntity
  8
0
100
AcDbLine
 10
773.9561679502653
 20
651.7929037400096
 30
0.0
 11
773.9561679502653
 21
637.2929037400097
 31
0.0
  0
LINE
  5
1378
330
2
100
AcDbEntity
  8
0
100
AcDbLine
 10
766.9561679502653
 20
681.6529037400102
 30
0.0
 11
766.9561679502653
 21
627.9329037400091
 31
0.0
  0
LINE
  5
1379
330
2
100
AcDbEntity
  8
CENTER
  6
CENS
100
AcDbLine
 10
783.9561679502653
 20
655.0429037400097
 30
0.0
 11
783.9561679502653
 21
633.5429037400096
 31
0.0
  0
LINE
  5
137A
330
2
100
AcDbEntity
  8
0
100
AcDbLine
 10
782.9561679502654
 20
681.7929037400097
 30
0.0
 11
782.9561679502654
 21
657.7929037400097
 31
0.0
  0
LINE
  5
137B
330
2
100
AcDbEntity
  8
0
100
AcDbLine
 10
772.4873249062944
 20
684.7929037400096
 30
0.0
 11
797.9561679502653
 21
684.7929037400096
 31
0.0
  0
ARC
  5
137C
330
2
100
AcDbEntity
  8
0
100
AcDbCircle
 10
785.9561679502653
 20
681.7929037400097
 30
0.0
 40
3.0
100
AcDbArc
 50
90.0
 51
180.0
  0
ARC
  5
137D
330
2
100
AcDbEntity
  8
0
100
AcDbCircle
 10
779.9561679502653
 20
657.7929037400097
 30
0.0
 40
3.0
100
AcDbArc
 50
270.0
 51
0.0
  0
ARC
  5
137E
330
2
100
AcDbEntity
  8
0
100
AcDbCircle
 10
776.9561679502653
 20
651.7929037400096
 30
0.0
 40
3.0
100
AcDbArc
 50
90.0
 51
180.0
  0
LINE
  5
137F
330
2
100
AcDbEntity
  8
0
100
AcDbLine
 10
776.9561679502653
 20
654.7929037400097
 30
0.0
 11
779.9561679502653
 21
654.7929037400097
 31
0.0
  0
LINE
  5
1380
330
2
100
AcDbEntity
  8
0
100
AcDbLine
 10
772.4873249062944
 20
624.7929037400097
 30
0.0
 11
797.9561679502653
 21
624.7929037400097
 31
0.0
  0
LINE
  5
1381
330
2
100
AcDbEntity
  8
CENTER
  6
CENS
100
AcDbLine
 10
773.2061679502653
 20
644.2929037400097
 30
0.0
 11
794.7061679502653
 21
644.2929037400097
 31
0.0
  0
ARC
  5
1382
330
2
100
AcDbEntity
  8
0
100
AcDbCircle
 10
776.9561679502653
 20
637.2929037400097
 30
0.0
 40
3.0
100
AcDbArc
 50
180.0
 51
270.0
  0
ARC
  5
1383
330
2
100
AcDbEntity
  8
0
100
AcDbCircle
 10
779.9561679502653
 20
631.2929037400096
 30
0.0
 40
3.0
100
AcDbArc
 50
0.0
 51
90.0
  0
LINE
  5
1384
330
2
100
AcDbEntity
  8
0
100
AcDbLine
 10
776.9561679502653
 20
634.2929037400097
 30
0.0
 11
779.9561679502653
 21
634.2929037400097
 31
0.0
  0
LINE
  5
1385
330
2
100
AcDbEntity
  8
0
100
AcDbLine
 10
782.9561679502654
 20
631.2929037400096
 30
0.0
 11
782.9561679502654
 21
627.7929037400097
 31
0.0
  0
ARC
  5
1386
330
2
100
AcDbEntity
  8
0
100
AcDbCircle
 10
785.9561679502653
 20
627.7929037400097
 30
0.0
 40
3.0
100
AcDbArc
 50
180.0
 51
270.0
  0
LINE
  5
1387
330
2
100
AcDbEntity
  8
0
100
AcDbLine
 10
754.9561679502653
 20
690.7929037400097
 30
0.0
 11
764.9561679502653
 21
690.7929037400097
 31
0.0
  0
LINE
  5
1388
330
2
100
AcDbEntity
  8
0
100
AcDbLine
 10
754.9561679502653
 20
618.7929037400096
 30
0.0
 11
764.9561679502653
 21
618.7929037400096
 31
0.0
  0
LINE
  5
1389
330
2
100
AcDbEntity
  8
0
100
AcDbLine
 10
797.9561679502653
 20
684.7929037400096
 30
0.0
 11
797.9561679502653
 21
624.7929037400097
 31
0.0
  0
LINE
  5
138A
330
2
100
AcDbEntity
  8
0
100
AcDbLine
 10
960.0257122715625
 20
349.6838910209388
 30
0.0
 11
1022.163636700787
 21
349.6838910209388
 31
0.0
  0
CIRCLE
  5
138B
330
2
100
AcDbEntity
  8
HIDS
100
AcDbCircle
 10
991.0946744861744
 20
385.6838910209388
 30
0.0
 40
30.0
  0
ARC
  5
138C
330
2
100
AcDbEntity
  8
0
100
AcDbCircle
 10
966.1674178975159
 20
360.6838910209388
 30
0.0
 40
5.0
100
AcDbArc
 50
180.1666666666621
 51
270.0
  0
LINE
  5
138D
330
2
100
AcDbEntity
  8
CENTER
100
AcDbLine
 10
971.3446744861744
 20
410.4338910209388
 30
0.0
 11
961.3446744861745
 21
410.4338910209388
 31
0.0
  0
LINE
  5
138E
330
2
100
AcDbEntity
  8
CENTER
100
AcDbLine
 10
971.3446744861744
 20
360.9338910209388
 30
0.0
 11
961.3446744861745
 21
360.9338910209388
 31
0.0
  0
ARC
  5
138F
330
2
100
AcDbEntity
  8
0
100
AcDbCircle
 10
966.1674178975159
 20
410.6838910209388
 30
0.0
 40
5.0
100
AcDbArc
 50
90.0
 51
179.8333333333378
  0
LINE
  5
1390
330
2
100
AcDbEntity
  8
0
100
AcDbLine
 10
955.0261944548896
 20
354.614453273485
 30
0.0
 11
954.5946744861645
 21
385.6838910209406
 31
0.0
  0
LINE
  5
1391
330
2
100
AcDbEntity
  8
0
100
AcDbLine
 10
961.1674390514886
 20
360.6693466310178
 30
0.0
 11
961.0946744861744
 21
385.6838910209388
 31
0.0
  0
ARC
  5
1392
330
2
100
AcDbEntity
  8
0
100
AcDbCircle
 10
960.0257122715625
 20
354.6838910209388
 30
0.0
 40
5.0
100
AcDbArc
 50
180.7957235527443
 51
270.0
  0
LINE
  5
1393
330
2
100
AcDbEntity
  8
0
100
AcDbLine
 10
955.0261944548896
 20
416.7533287683926
 30
0.0
 11
954.5946744861648
 21
385.6838910209406
 31
0.0
  0
LINE
  5
1394
330
2
100
AcDbEntity
  8
0
100
AcDbLine
 10
961.1674390514886
 20
410.6984354108597
 30
0.0
 11
961.0946744861744
 21
385.6838910209388
 31
0.0
  0
LINE
  5
1395
330
2
100
AcDbEntity
  8
0
100
AcDbLine
 10
961.0946744861744
 20
385.6838910209388
 30
0.0
 11
954.5946744861744
 21
385.6838910209388
 31
0.0
  0
ARC
  5
1396
330
2
100
AcDbEntity
  8
0
100
AcDbCircle
 10
960.0257122715625
 20
416.6838910209388
 30
0.0
 40
5.0
100
AcDbArc
 50
90.0
 51
179.2042764472556
  0
LINE
  5
1397
330
2
100
AcDbEntity
  8
0
100
AcDbLine
 10
1027.163154517459
 20
354.614453273485
 30
0.0
 11
1027.594674486173
 21
385.6838910209406
 31
0.0
  0
LINE
  5
1398
330
2
100
AcDbEntity
  8
0
100
AcDbLine
 10
1021.021909920861
 20
360.6693466310178
 30
0.0
 11
1021.094674486174
 21
385.6838910209388
 31
0.0
  0
LINE
  5
1399
330
2
100
AcDbEntity
  8
0
100
AcDbLine
 10
1016.021931074833
 20
355.6838910209388
 30
0.0
 11
966.1674178975159
 21
355.6838910209388
 31
0.0
  0
LINE
  5
139A
330
2
100
AcDbEntity
  8
CENTER
100
AcDbLine
 10
966.3446744861744
 20
365.9338910209388
 30
0.0
 11
966.3446744861744
 21
355.9338910209388
 31
0.0
  0
LINE
  5
139B
330
2
100
AcDbEntity
  8
HIDS
100
AcDbLine
 10
1011.628975350256
 20
357.6489862080642
 30
0.0
 11
1011.71701309997
 21
362.6926655113018
 31
0.0
  0
ARC
  5
139C
330
2
100
AcDbEntity
  8
0
100
AcDbCircle
 10
1016.021931074833
 20
360.6838910209388
 30
0.0
 40
5.0
100
AcDbArc
 50
270.0
 51
359.8333333333378
  0
LINE
  5
139D
330
2
100
AcDbEntity
  8
CENTER
100
AcDbLine
 10
1015.844674486174
 20
365.9338910209388
 30
0.0
 11
1015.844674486174
 21
355.9338910209388
 31
0.0
  0
ARC
  5
139E
330
2
100
AcDbEntity
  8
0
100
AcDbCircle
 10
1022.163636700787
 20
354.6838910209388
 30
0.0
 40
4.999999999999999
100
AcDbArc
 50
270.0
 51
359.2042764472556
  0
ARC
  5
139F
330
2
100
AcDbEntity
  8
HIDS
100
AcDbCircle
 10
1009.629279959942
 20
357.6838910209388
 30
0.0
 40
2.0
100
AcDbArc
 50
270.0
 51
358.9999999999982
  0
LINE
  5
13A0
330
2
100
AcDbEntity
  8
CENTER
100
AcDbLine
 10
1020.844674486174
 20
360.9338910209388
 30
0.0
 11
1010.844674486174
 21
360.9338910209388
 31
0.0
  0
ARC
  5
13A1
330
2
100
AcDbEntity
  8
HIDS
100
AcDbCircle
 10
1014.71655618544
 20
362.6403082919894
 30
0.0
 40
3.0
100
AcDbArc
 50
135.7099981688302
 51
178.9999999999982
  0
LINE
  5
13A2
330
2
100
AcDbEntity
  8
0
100
AcDbLine
 10
1016.021931074833
 20
415.6838910209388
 30
0.0
 11
966.1674178975159
 21
415.6838910209388
 31
0.0
  0
LINE
  5
13A3
330
2
100
AcDbEntity
  8
HIDS
  6
SEKKEI_H
100
AcDbLine
 10
974.8446744861753
 20
415.6838910209388
 30
0.0
 11
975.0922426048514
 21
401.5007230009413
 31
0.0
  0
LINE
  5
13A4
330
2
100
AcDbEntity
  8
CENTER
100
AcDbLine
 10
966.3446744861744
 20
415.4338910209387
 30
0.0
 11
966.3446744861744
 21
405.4338910209388
 31
0.0
  0
ARC
  5
13A5
330
2
100
AcDbEntity
  8
HIDS
100
AcDbCircle
 10
967.4727927869094
 20
408.7274737498881
 30
0.0
 40
3.0
100
AcDbArc
 50
315.7099981688302
 51
358.9999999999982
  0
ARC
  5
13A6
330
2
100
AcDbEntity
  8
HIDS
100
AcDbCircle
 10
972.5600690124061
 20
413.6838910209387
 30
0.0
 40
2.0
100
AcDbArc
 50
90.0
 51
178.9999999999982
  0
LINE
  5
13A7
330
2
100
AcDbEntity
  8
HIDS
100
AcDbLine
 10
970.5603736220933
 20
413.7187958338125
 30
0.0
 11
970.472335872378
 21
408.6751165305757
 31
0.0
  0
LINE
  5
13A8
330
2
100
AcDbEntity
  8
HIDS
  6
SEKKEI_H
100
AcDbLine
 10
986.3446744861745
 20
415.6838910209388
 30
0.0
 11
986.2043728623298
 21
407.6460163740965
 31
0.0
  0
LINE
  5
13A9
330
2
100
AcDbEntity
  8
0
100
AcDbLine
 10
1027.163154517459
 20
416.7533287683926
 30
0.0
 11
1027.594674486174
 21
385.6838910209406
 31
0.0
  0
LINE
  5
13AA
330
2
100
AcDbEntity
  8
0
100
AcDbLine
 10
1021.021909920861
 20
410.6984354108597
 30
0.0
 11
1021.094674486174
 21
385.6838910209388
 31
0.0
  0
LINE
  5
13AB
330
2
100
AcDbEntity
  8
CENTER
100
AcDbLine
 10
1015.844674486174
 20
415.4338910209387
 30
0.0
 11
1015.844674486174
 21
405.4338910209388
 31
0.0
  0
LINE
  5
13AC
330
2
100
AcDbEntity
  8
0
100
AcDbLine
 10
1021.094674486174
 20
385.6838910209388
 30
0.0
 11
1027.594674486175
 21
385.6838910209388
 31
0.0
  0
ARC
  5
13AD
330
2
100
AcDbEntity
  8
0
100
AcDbCircle
 10
1022.163636700787
 20
416.6838910209388
 30
0.0
 40
4.999999999999999
100
AcDbArc
 50
0.7957235527443399
 51
90.0
  0
ARC
  5
13AE
330
2
100
AcDbEntity
  8
0
100
AcDbCircle
 10
1016.021931074833
 20
410.6838910209388
 30
0.0
 40
5.0
100
AcDbArc
 50
0.1666666666621044
 51
90.0
  0
LINE
  5
13AF
330
2
100
AcDbEntity
  8
CENTER
100
AcDbLine
 10
1020.844674486174
 20
410.4338910209388
 30
0.0
 11
1010.844674486174
 21
410.4338910209388
 31
0.0
  0
CIRCLE
  5
13B0
330
2
100
AcDbEntity
  8
0
100
AcDbCircle
 10
991.0946744861744
 20
385.6838910209388
 30
0.0
 40
25.00000000022851
  0
ARC
  5
13B1
330
2
100
AcDbEntity
  8
0
100
AcDbCircle
 10
771.2905943151704
 20
350.6838910209369
 30
0.0
 40
5.0
100
AcDbArc
 50
163.8741378563796
 51
171.7867892982496
  0
LINE
  5
13B2
330
2
100
AcDbEntity
  8
0
100
AcDbLine
 10
766.362086475206
 20
351.6489862080623
 30
0.0
 11
766.956167948541
 21
385.6838910209369
 31
0.0
  0
LINE
  5
13B3
330
2
100
AcDbEntity
  8
0
100
AcDbLine
 10
754.9561679485409
 20
349.6838910209369
 30
0.0
 11
764.3623910848941
 21
349.6838910209369
 31
0.0
  0
ARC
  5
13B4
330
2
100
AcDbEntity
  8
0
100
AcDbCircle
 10
764.3623910848941
 20
351.683891020937
 30
0.0
 40
2.0
100
AcDbArc
 50
270.0
 51
358.9999999999982
  0
LINE
  5
13B5
330
2
100
AcDbEntity
  8
CENTER
  6
CENS
100
AcDbLine
 10
783.9561679485409
 20
400.9508635783082
 30
0.0
 11
783.9561679485409
 21
424.3630726214195
 31
0.0
  0
LINE
  5
13B6
330
2
100
AcDbEntity
  8
0
100
AcDbLine
 10
766.362086475206
 20
419.7187958338107
 30
0.0
 11
766.7986199093075
 21
394.70981214361
 31
0.0
  0
LINE
  5
13B7
330
2
100
AcDbEntity
  8
0
100
AcDbLine
 10
783.4273829223489
 20
412.6797787901594
 30
0.0
 11
783.2098399118144
 21
400.2167480636688
 31
0.0
  0
LINE
  5
13B8
330
2
100
AcDbEntity
  8
0
100
AcDbLine
 10
754.9561679485409
 20
385.6838910209369
 30
0.0
 11
755.4162073017287
 21
385.6838910209369
 31
0.0
  0
LINE
  5
13B9
330
2
100
AcDbEntity
  8
0
100
AcDbLine
 10
772.48732490457
 20
355.683891020937
 30
0.0
 11
797.9561679485409
 21
355.683891020937
 31
0.0
  0
LINE
  5
13BA
330
2
100
AcDbEntity
  8
0
100
AcDbLine
 10
783.4273829223489
 20
358.6880032517145
 30
0.0
 11
782.9561679485409
 21
385.6838910209369
 31
0.0
  0
ARC
  5
13BB
330
2
100
AcDbEntity
  8
0
100
AcDbCircle
 10
786.4279116857355
 20
358.6838910209369
 30
0.0
 40
3.0
100
AcDbArc
 50
181.0000000000017
 51
270.0
  0
ARC
  5
13BC
330
2
100
AcDbEntity
  8
0
100
AcDbCircle
 10
770.8643828991512
 20
410.4517096664801
 30
0.0
 40
3.0
100
AcDbArc
 50
270.0
 51
358.9999999999721
  0
LINE
  5
13BD
330
2
100
AcDbEntity
  8
0
100
AcDbLine
 10
780.3356696522127
 20
407.4517096664802
 30
0.0
 11
770.8643828991512
 21
407.4517096664802
 31
0.0
  0
LINE
  5
13BE
330
2
100
AcDbEntity
  8
0
100
AcDbLine
 10
773.8639259846199
 20
410.3993524471678
 30
0.0
 11
773.9218670844597
 21
413.7187958338116
 31
0.0
  0
ARC
  5
13BF
330
2
100
AcDbEntity
  8
0
100
AcDbCircle
 10
775.9215624747735
 20
413.683891020937
 30
0.0
 40
2.0
100
AcDbArc
 50
90.0
 51
178.9999999999721
  0
LINE
  5
13C0
330
2
100
AcDbEntity
  8
0
100
AcDbLine
 10
772.48732490457
 20
415.6838910209369
 30
0.0
 11
797.9561679485409
 21
415.6838910209369
 31
0.0
  0
ARC
  5
13C1
330
2
100
AcDbEntity
  8
0
100
AcDbCircle
 10
786.4279116857355
 20
412.683891020937
 30
0.0
 40
3.0
100
AcDbArc
 50
90.0
 51
178.9999999999982
  0
ARC
  5
13C2
330
2
100
AcDbEntity
  8
0
100
AcDbCircle
 10
764.3623910848941
 20
419.6838910209369
 30
0.0
 40
2.0
100
AcDbArc
 50
1.000000000001775
 51
90.0
  0
LINE
  5
13C3
330
2
100
AcDbEntity
  8
0
100
AcDbLine
 10
754.9561679485409
 20
421.683891020937
 30
0.0
 11
764.3623910848941
 21
421.683891020937
 31
0.0
  0
ARC
  5
13C4
330
2
100
AcDbEntity
  8
0
100
AcDbCircle
 10
771.2905943151704
 20
420.6838910209369
 30
0.0
 40
5.0
100
AcDbArc
 50
188.2132107017503
 51
196.1258621436203
  0
LINE
  5
13C5
330
2
100
AcDbEntity
  8
0
100
AcDbLine
 10
797.9561679485409
 20
355.683891020937
 30
0.0
 11
797.9561679485409
 21
415.6838910209369
 31
0.0
  0
LINE
  5
13C6
330
2
100
AcDbEntity
  8
0
100
AcDbLine
 10
960.0257122715625
 20
421.6838910209387
 30
0.0
 11
1022.163636700787
 21
421.6838910209387
 31
0.0
  0
CIRCLE
  5
13C7
330
2
100
AcDbEntity
  8
0
100
AcDbCircle
 10
959.9846744861748
 20
354.5738910209382
 30
0.0
 40
2.75
  0
CIRCLE
  5
13C8
330
2
100
AcDbEntity
  8
0
100
AcDbCircle
 10
1022.204674486174
 20
416.7938910209393
 30
0.0
 40
2.75
  0
CIRCLE
  5
13C9
330
2
100
AcDbEntity
  8
0
100
AcDbCircle
 10
1022.204674486174
 20
354.5738910209391
 30
0.0
 40
2.75
  0
LINE
  5
13CA
330
2
100
AcDbEntity
  8
0
100
AcDbLine
 10
772.1873249045688
 20
358.8238910209363
 30
0.0
 11
767.4873249045699
 21
358.8238910209363
 31
0.0
  0
LINE
  5
13CB
330
2
100
AcDbEntity
  8
0
100
AcDbLine
 10
767.4873249045699
 20
350.3238910209363
 30
0.0
 11
772.1873249045688
 21
350.3238910209363
 31
0.0
  0
LINE
  5
13CC
330
2
100
AcDbEntity
  8
CENTER
  6
CENS
100
AcDbLine
 10
749.956167948541
 20
354.5738910209363
 30
0.0
 11
777.4131408786247
 21
354.5738910209363
 31
0.0
  0
LINE
  5
13CD
330
2
100
AcDbEntity
  8
0
100
AcDbLine
 10
772.48732490457
 20
350.8435062632068
 30
0.0
 11
772.48732490457
 21
358.3042757786659
 31
0.0
  0
LINE
  5
13CE
330
2
100
AcDbEntity
  8
0
100
AcDbLine
 10
772.1873249045688
 20
358.8238910209363
 30
0.0
 11
772.1873249045688
 21
350.3238910209363
 31
0.0
  0
LINE
  5
13CF
330
2
100
AcDbEntity
  8
0
100
AcDbLine
 10
772.1873249045688
 20
358.8238910209363
 30
0.0
 11
772.48732490457
 21
358.3042757786659
 31
0.0
  0
LINE
  5
13D0
330
2
100
AcDbEntity
  8
0
100
AcDbLine
 10
772.48732490457
 20
350.8435062632068
 30
0.0
 11
772.1873249045688
 21
350.3238910209363
 31
0.0
  0
LINE
  5
13D1
330
2
100
AcDbEntity
  8
0
100
AcDbLine
 10
767.4873249045699
 20
350.3238910209363
 30
0.0
 11
766.4873249045699
 21
350.3238910209363
 31
0.0
  0
LINE
  5
13D2
330
2
100
AcDbEntity
  8
0
100
AcDbLine
 10
766.4873249045699
 20
350.3238910209363
 30
0.0
 11
766.4873249045699
 21
358.8238910209363
 31
0.0
  0
LINE
  5
13D3
330
2
100
AcDbEntity
  8
0
100
AcDbLine
 10
766.4873249045699
 20
358.8238910209363
 30
0.0
 11
767.4873249045699
 21
358.8238910209363
 31
0.0
  0
LINE
  5
13D4
330
2
100
AcDbEntity
  8
0
100
AcDbLine
 10
767.4873249045699
 20
358.8238910209363
 30
0.0
 11
767.4873249045699
 21
350.3238910209363
 31
0.0
  0
LINE
  5
13D5
330
2
100
AcDbEntity
  8
0
100
AcDbLine
 10
767.4873249045699
 20
358.8238910209363
 30
0.0
 11
767.4873249045699
 21
350.3238910209363
 31
0.0
  0
LINE
  5
13D6
330
2
100
AcDbEntity
  8
0
100
AcDbLine
 10
772.1873249062932
 20
627.9329037400091
 30
0.0
 11
767.4873249062943
 21
627.9329037400091
 31
0.0
  0
LINE
  5
13D7
330
2
100
AcDbEntity
  8
0
100
AcDbLine
 10
767.4873249062943
 20
619.4329037400091
 30
0.0
 11
772.1873249062932
 21
619.4329037400091
 31
0.0
  0
LINE
  5
13D8
330
2
100
AcDbEntity
  8
CENTER
  6
CENS
100
AcDbLine
 10
749.9561679502654
 20
623.6829037400091
 30
0.0
 11
777.4131408803492
 21
623.6829037400091
 31
0.0
  0
LINE
  5
13D9
330
2
100
AcDbEntity
  8
0
100
AcDbLine
 10
772.4873249062944
 20
619.9525189822796
 30
0.0
 11
772.4873249062944
 21
627.4132884977387
 31
0.0
  0
LINE
  5
13DA
330
2
100
AcDbEntity
  8
0
100
AcDbLine
 10
772.1873249062932
 20
627.9329037400091
 30
0.0
 11
772.1873249062932
 21
619.4329037400091
 31
0.0
  0
LINE
  5
13DB
330
2
100
AcDbEntity
  8
0
100
AcDbLine
 10
772.1873249062932
 20
627.9329037400091
 30
0.0
 11
772.4873249062944
 21
627.4132884977387
 31
0.0
  0
LINE
  5
13DC
330
2
100
AcDbEntity
  8
0
100
AcDbLine
 10
772.4873249062944
 20
619.9525189822796
 30
0.0
 11
772.1873249062932
 21
619.4329037400091
 31
0.0
  0
LINE
  5
13DD
330
2
100
AcDbEntity
  8
0
100
AcDbLine
 10
767.4873249062943
 20
619.4329037400091
 30
0.0
 11
766.4873249062943
 21
619.4329037400091
 31
0.0
  0
LINE
  5
13DE
330
2
100
AcDbEntity
  8
0
100
AcDbLine
 10
766.4873249062943
 20
619.4329037400091
 30
0.0
 11
766.4873249062943
 21
627.9329037400091
 31
0.0
  0
LINE
  5
13DF
330
2
100
AcDbEntity
  8
0
100
AcDbLine
 10
766.4873249062943
 20
627.9329037400091
 30
0.0
 11
767.4873249062943
 21
627.9329037400091
 31
0.0
  0
LINE
  5
13E0
330
2
100
AcDbEntity
  8
0
100
AcDbLine
 10
767.4873249062943
 20
627.9329037400091
 30
0.0
 11
767.4873249062943
 21
619.4329037400091
 31
0.0
  0
LINE
  5
13E1
330
2
100
AcDbEntity
  8
0
100
AcDbLine
 10
767.4873249062943
 20
627.9329037400091
 30
0.0
 11
767.4873249062943
 21
619.4329037400091
 31
0.0
  0
LINE
  5
13E2
330
2
100
AcDbEntity
  8
0
100
AcDbLine
 10
772.1873249062932
 20
681.6529037400102
 30
0.0
 11
767.4873249062943
 21
681.6529037400102
 31
0.0
  0
LINE
  5
13E3
330
2
100
AcDbEntity
  8
0
100
AcDbLine
 10
767.4873249062943
 20
690.1529037400102
 30
0.0
 11
772.1873249062932
 21
690.1529037400102
 31
0.0
  0
LINE
  5
13E4
330
2
100
AcDbEntity
  8
CENTER
  6
CENS
100
AcDbLine
 10
749.9561679502654
 20
685.9029037400103
 30
0.0
 11
777.4131408803492
 21
685.9029037400103
 31
0.0
  0
LINE
  5
13E5
330
2
100
AcDbEntity
  8
0
100
AcDbLine
 10
772.4873249062944
 20
689.6332884977398
 30
0.0
 11
772.4873249062944
 21
682.1725189822807
 31
0.0
  0
LINE
  5
13E6
330
2
100
AcDbEntity
  8
0
100
AcDbLine
 10
772.1873249062932
 20
681.6529037400102
 30
0.0
 11
772.1873249062932
 21
690.1529037400102
 31
0.0
  0
LINE
  5
13E7
330
2
100
AcDbEntity
  8
0
100
AcDbLine
 10
772.1873249062932
 20
681.6529037400102
 30
0.0
 11
772.4873249062944
 21
682.1725189822807
 31
0.0
  0
LINE
  5
13E8
330
2
100
AcDbEntity
  8
0
100
AcDbLine
 10
772.4873249062944
 20
689.6332884977398
 30
0.0
 11
772.1873249062932
 21
690.1529037400102
 31
0.0
  0
LINE
  5
13E9
330
2
100
AcDbEntity
  8
0
100
AcDbLine
 10
767.4873249062943
 20
690.1529037400102
 30
0.0
 11
766.4873249062943
 21
690.1529037400102
 31
0.0
  0
LINE
  5
13EA
330
2
100
AcDbEntity
  8
0
100
AcDbLine
 10
766.4873249062943
 20
690.1529037400102
 30
0.0
 11
766.4873249062943
 21
681.6529037400102
 31
0.0
  0
LINE
  5
13EB
330
2
100
AcDbEntity
  8
0
100
AcDbLine
 10
766.4873249062943
 20
681.6529037400102
 30
0.0
 11
767.4873249062943
 21
681.6529037400102
 31
0.0
  0
LINE
  5
13EC
330
2
100
AcDbEntity
  8
0
100
AcDbLine
 10
767.4873249062943
 20
681.6529037400102
 30
0.0
 11
767.4873249062943
 21
690.1529037400102
 31
0.0
  0
LINE
  5
13ED
330
2
100
AcDbEntity
  8
0
100
AcDbLine
 10
767.4873249062943
 20
681.6529037400102
 30
0.0
 11
767.4873249062943
 21
690.1529037400102
 31
0.0
  0
ARC
  5
13EE
330
2
100
AcDbEntity
  8
0
100
AcDbCircle
 10
959.9846744861748
 20
416.7938910209393
 30
0.0
 40
4.25000000000019
100
AcDbArc
 50
337.0991355555424
 51
293.57896235452
  0
ARC
  5
13EF
330
2
100
AcDbEntity
  8
0
100
AcDbCircle
 10
959.9846744861748
 20
416.7938910209393
 30
0.0
 40
3.730384757729381
100
AcDbArc
 50
321.5287333511454
 51
309.1493645588708
  0
LWPOLYLINE
  5
13F0
330
2
100
AcDbEntity
  8
0
100
AcDbPolyline
 90
        6
 70
     1
 43
0.0
 10
961.9846744861748
 20
417.9485915593175
 10
959.9846744861748
 20
419.1032920976975
 10
957.9846744861747
 20
417.9485915593175
 10
957.9846744861747
 20
415.6391904825594
 10
959.9846744861748
 20
414.4844899441803
 10
961.9846744861748
 20
415.6391904825594
  0
CIRCLE
  5
13F1
330
2
100
AcDbEntity
  8
0
100
AcDbCircle
 10
959.9846744861748
 20
416.7938910209393
 30
0.0
 40
2.3094010767585
  0
LINE
  5
13F2
330
2
100
AcDbEntity
  8
CENTER
100
AcDbLine
 10
959.9846744861729
 20
422.7523212682333
 30
0.0
 11
959.9846744861729
 21
410.8354607736453
 31
0.0
  0
LINE
  5
13F3
330
2
100
AcDbEntity
  8
CENTER
100
AcDbLine
 10
954.0262442388788
 20
416.7938910209393
 30
0.0
 11
965.9431047334669
 21
416.7938910209393
 31
0.0
  0
ARC
  5
13F4
330
2
100
AcDbEntity
  8
0
100
AcDbCircle
 10
1022.204674486175
 20
416.7938910209393
 30
0.0
 40
4.25000000000019
100
AcDbArc
 50
246.4210376454799
 51
202.9008644444575
  0
ARC
  5
13F5
330
2
100
AcDbEntity
  8
0
100
AcDbCircle
 10
1022.204674486175
 20
416.7938910209393
 30
0.0
 40
3.730384757729381
100
AcDbArc
 50
230.8506354409912
 51
218.4712666488595
  0
LWPOLYLINE
  5
13F6
330
2
100
AcDbEntity
  8
0
100
AcDbPolyline
 90
        6
 70
     1
 43
0.0
 10
1024.204674486176
 20
417.9485915593175
 10
1022.204674486175
 20
419.1032920976975
 10
1020.204674486175
 20
417.9485915593175
 10
1020.204674486175
 20
415.6391904825594
 10
1022.204674486175
 20
414.4844899441803
 10
1024.204674486176
 20
415.6391904825594
  0
CIRCLE
  5
13F7
330
2
100
AcDbEntity
  8
0
100
AcDbCircle
 10
1022.204674486175
 20
416.7938910209393
 30
0.0
 40
2.3094010767585
  0
LINE
  5
13F8
330
2
100
AcDbEntity
  8
CENTER
100
AcDbLine
 10
1022.204674486174
 20
422.7523212682333
 30
0.0
 11
1022.204674486174
 21
410.8354607736453
 31
0.0
  0
LINE
  5
13F9
330
2
100
AcDbEntity
  8
CENTER
100
AcDbLine
 10
1016.24624423888
 20
416.7938910209393
 30
0.0
 11
1028.163104733468
 21
416.7938910209393
 31
0.0
  0
ARC
  5
13FA
330
2
100
AcDbEntity
  8
0
100
AcDbCircle
 10
1022.204674486175
 20
354.5738910209391
 30
0.0
 40
4.25000000000019
100
AcDbArc
 50
157.0991355555424
 51
113.57896235452
  0
ARC
  5
13FB
330
2
100
AcDbEntity
  8
0
100
AcDbCircle
 10
1022.204674486175
 20
354.5738910209391
 30
0.0
 40
3.730384757729381
100
AcDbArc
 50
141.5287333511404
 51
129.1493645588707
  0
LWPOLYLINE
  5
13FC
330
2
100
AcDbEntity
  8
0
100
AcDbPolyline
 90
        6
 70
     1
 43
0.0
 10
1024.204674486176
 20
355.7285915593181
 10
1022.204674486175
 20
356.8832920976981
 10
1020.204674486175
 20
355.7285915593181
 10
1020.204674486175
 20
353.41919048256
 10
1022.204674486175
 20
352.26448994418
 10
1024.204674486176
 20
353.41919048256
  0
CIRCLE
  5
13FD
330
2
100
AcDbEntity
  8
0
100
AcDbCircle
 10
1022.204674486175
 20
354.5738910209391
 30
0.0
 40
2.3094010767585
  0
LINE
  5
13FE
330
2
100
AcDbEntity
  8
CENTER
100
AcDbLine
 10
1022.204674486174
 20
360.5323212682331
 30
0.0
 11
1022.204674486174
 21
348.6154607736451
 31
0.0
  0
LINE
  5
13FF
330
2
100
AcDbEntity
  8
CENTER
100
AcDbLine
 10
1016.24624423888
 20
354.5738910209391
 30
0.0
 11
1028.163104733468
 21
354.5738910209391
 31
0.0
  0
ARC
  5
1400
330
2
100
AcDbEntity
  8
0
100
AcDbCircle
 10
959.9846744861757
 20
354.5738910209382
 30
0.0
 40
4.25000000000019
100
AcDbArc
 50
66.42103764559156
 51
22.90086444439993
  0
ARC
  5
1401
330
2
100
AcDbEntity
  8
0
100
AcDbCircle
 10
959.9846744861757
 20
354.5738910209382
 30
0.0
 40
3.730384757729381
100
AcDbArc
 50
50.85063544126404
 51
38.47126664870337
  0
LWPOLYLINE
  5
1402
330
2
100
AcDbEntity
  8
0
100
AcDbPolyline
 90
        6
 70
     1
 43
0.0
 10
961.9846744861757
 20
355.7285915593181
 10
959.9846744861757
 20
356.8832920976972
 10
957.9846744861756
 20
355.7285915593181
 10
957.9846744861756
 20
353.41919048256
 10
959.9846744861757
 20
352.26448994418
 10
961.9846744861757
 20
353.41919048256
  0
CIRCLE
  5
1403
330
2
100
AcDbEntity
  8
0
100
AcDbCircle
 10
959.9846744861757
 20
354.5738910209382
 30
0.0
 40
2.3094010767585
  0
LINE
  5
1404
330
2
100
AcDbEntity
  8
CENTER
100
AcDbLine
 10
959.9846744861748
 20
360.5323212682322
 30
0.0
 11
959.9846744861748
 21
348.6154607736442
 31
0.0
  0
LINE
  5
1405
330
2
100
AcDbEntity
  8
CENTER
100
AcDbLine
 10
954.0262442388806
 20
354.5738910209382
 30
0.0
 11
965.9431047334688
 21
354.5738910209382
 31
0.0
  0
LINE
  5
1406
330
2
100
AcDbEntity
  8
HIDS
  6
SEKKEI_H
100
AcDbLine
 10
982.2613411528413
 20
384.9338910209388
 30
0.0
 11
982.2613411528413
 21
376.1505576876059
 31
0.0
  0
LINE
  5
1407
330
2
100
AcDbEntity
  8
HIDS
  6
SEKKEI_H
100
AcDbLine
 10
978.9280078195075
 20
384.9338910209388
 30
0.0
 11
978.9280078195075
 21
377.3451427802118
 31
0.0
  0
LINE
  5
1408
330
2
100
AcDbEntity
  8
HIDS
  6
SEKKEI_H
100
AcDbLine
 10
978.5946744861744
 20
384.9338910209388
 30
0.0
 11
978.5946744861744
 21
377.8536611392553
 31
0.0
  0
LINE
  5
1409
330
2
100
AcDbEntity
  8
CENTER
  6
CENS
100
AcDbLine
 10
980.5946744861744
 20
424.3107895806768
 30
0.0
 11
980.5946744861744
 21
374.2316406763819
 31
0.0
  0
LINE
  5
140A
330
2
100
AcDbEntity
  8
HIDS
  6
SEKKEI_H
100
AcDbLine
 10
982.5946744861743
 20
384.9338910209388
 30
0.0
 11
982.5946744861743
 21
373.6293275696969
 31
0.0
  0
LINE
  5
140B
330
2
100
AcDbEntity
  8
HIDS
  6
SEKKEI_H
100
AcDbLine
 10
979.5654724322599
 20
376.483891020938
 30
0.0
 11
980.5946744861744
 21
376.483891020938
 31
0.0
  0
LINE
  5
140C
330
2
100
AcDbEntity
  8
0
100
AcDbLine
 10
979.3946744861745
 20
375.6838910209387
 30
0.0
 11
980.2520502650736
 21
375.6838910209387
 31
0.0
  0
LINE
  5
140D
330
2
100
AcDbEntity
  8
0
100
AcDbLine
 10
978.5946744861744
 20
377.8536611392553
 30
0.0
 11
978.5946744861744
 21
376.483891020938
 31
0.0
  0
LINE
  5
140E
330
2
100
AcDbEntity
  8
HOJO
100
AcDbLine
 10
978.9280078195075
 20
377.3451427802118
 30
0.0
 11
978.9280078195075
 21
376.1505576876059
 31
0.0
  0
LINE
  5
140F
330
2
100
AcDbEntity
  8
0
100
AcDbLine
 10
978.5946744861744
 20
376.483891020938
 30
0.0
 11
979.5654724322599
 21
376.483891020938
 31
0.0
  0
LINE
  5
1410
330
2
100
AcDbEntity
  8
0
100
AcDbLine
 10
978.5946744861744
 20
376.483891020938
 30
0.0
 11
979.3946744861745
 21
375.6838910209387
 31
0.0
  0
LINE
  5
1411
330
2
100
AcDbEntity
  8
HIDS
  6
SEKKEI_H
100
AcDbLine
 10
980.2520502650736
 20
375.6838910209387
 30
0.0
 11
980.5946744861744
 21
375.6838910209387
 31
0.0
  0
LINE
  5
1412
330
2
100
AcDbEntity
  8
HIDS
  6
SEKKEI_H
100
AcDbLine
 10
982.5946744861743
 20
376.483891020938
 30
0.0
 11
981.7946744861743
 21
375.6838910209387
 31
0.0
  0
LINE
  5
1413
330
2
100
AcDbEntity
  8
HIDS
  6
SEKKEI_H
100
AcDbLine
 10
981.7946744861743
 20
375.6838910209387
 30
0.0
 11
980.5946744861744
 21
375.6838910209387
 31
0.0
  0
LINE
  5
1414
330
2
100
AcDbEntity
  8
HIDS
  6
SEKKEI_H
100
AcDbLine
 10
982.5946744861743
 20
376.483891020938
 30
0.0
 11
980.5946744861744
 21
376.483891020938
 31
0.0
  0
LINE
  5
1415
330
2
100
AcDbEntity
  8
HIDS
  6
SEKKEI_H
100
AcDbLine
 10
982.2613411528413
 20
376.1505576876059
 30
0.0
 11
982.2613411528413
 21
373.8714093924989
 31
0.0
  0
LINE
  5
1416
330
2
100
AcDbEntity
  8
HIDS
  6
SEKKEI_H
100
AcDbLine
 10
977.2179853997963
 20
390.6838910209387
 30
0.0
 11
984.0946744861744
 21
390.6838910209387
 31
0.0
  0
LINE
  5
1417
330
2
100
AcDbEntity
  8
HIDS
  6
SEKKEI_H
100
AcDbLine
 10
979.1836501809353
 20
394.3838910209395
 30
0.0
 11
984.0946744861744
 21
394.3838910209395
 31
0.0
  0
LINE
  5
1418
330
2
100
AcDbEntity
  8
HIDS
  6
SEKKEI_H
100
AcDbLine
 10
983.5750592439039
 20
394.6838910209388
 30
0.0
 11
979.4086785936539
 21
394.6838910209388
 31
0.0
  0
LINE
  5
1419
330
2
100
AcDbEntity
  8
HIDS
  6
SEKKEI_H
100
AcDbLine
 10
982.5946744861743
 20
389.0172243542727
 30
0.0
 11
978.5946744861744
 21
389.0172243542727
 31
0.0
  0
LINE
  5
141A
330
2
100
AcDbEntity
  8
HIDS
  6
SEKKEI_H
100
AcDbLine
 10
977.2179853997963
 20
390.6838910209387
 30
0.0
 11
984.5946744861745
 21
390.6838910209387
 31
0.0
  0
LINE
  5
141B
330
2
100
AcDbEntity
  8
0
100
AcDbLine
 10
976.3637546235182
 20
386.4338910209387
 30
0.0
 11
980.5946744861744
 21
386.4338910209387
 31
0.0
  0
LINE
  5
141C
330
2
100
AcDbEntity
  8
0
100
AcDbLine
 10
976.3637546235182
 20
384.9338910209388
 30
0.0
 11
980.5946744861744
 21
384.9338910209388
 31
0.0
  0
LINE
  5
141D
330
2
100
AcDbEntity
  8
0
100
AcDbLine
 10
977.0946744861744
 20
394.3838910209395
 30
0.0
 11
977.0946744861744
 21
390.6838910209387
 31
0.0
  0
LINE
  5
141E
330
2
100
AcDbEntity
  8
0
100
AcDbLine
 10
978.5946744861744
 20
386.4338910209387
 30
0.0
 11
978.5946744861744
 21
384.9338910209388
 31
0.0
  0
LINE
  5
141F
330
2
100
AcDbEntity
  8
HOJO
100
AcDbLine
 10
978.9280078195075
 20
386.4338910209387
 30
0.0
 11
978.9280078195075
 21
384.9338910209388
 31
0.0
  0
LINE
  5
1420
330
2
100
AcDbEntity
  8
HIDS
  6
SEKKEI_H
100
AcDbLine
 10
978.5946744861744
 20
390.6838910209387
 30
0.0
 11
978.9280078195075
 21
389.0172243542727
 31
0.0
  0
LINE
  5
1421
330
2
100
AcDbEntity
  8
0
100
AcDbLine
 10
977.0946744861744
 20
390.6838910209387
 30
0.0
 11
977.2179853997963
 21
390.6838910209387
 31
0.0
  0
LINE
  5
1422
330
2
100
AcDbEntity
  8
HIDS
  6
SEKKEI_H
100
AcDbLine
 10
978.9280078195075
 20
389.0172243542727
 30
0.0
 11
978.9280078195075
 21
386.4338910209387
 31
0.0
  0
LINE
  5
1423
330
2
100
AcDbEntity
  8
HIDS
  6
SEKKEI_H
100
AcDbLine
 10
978.5946744861744
 20
390.6838910209387
 30
0.0
 11
978.5946744861744
 21
386.4338910209387
 31
0.0
  0
LINE
  5
1424
330
2
100
AcDbEntity
  8
HIDS
  6
SEKKEI_H
100
AcDbLine
 10
978.0946744861743
 20
390.6838910209387
 30
0.0
 11
978.0946744861743
 21
386.4338910209387
 31
0.0
  0
LINE
  5
1425
330
2
100
AcDbEntity
  8
0
100
AcDbLine
 10
979.4086785936539
 20
394.6838910209388
 30
0.0
 11
977.6142897284458
 21
394.6838910209388
 31
0.0
  0
LINE
  5
1426
330
2
100
AcDbEntity
  8
0
100
AcDbLine
 10
977.0946744861744
 20
394.3838910209395
 30
0.0
 11
977.6142897284458
 21
394.6838910209388
 31
0.0
  0
LINE
  5
1427
330
2
100
AcDbEntity
  8
0
100
AcDbLine
 10
977.0946744861744
 20
394.3838910209395
 30
0.0
 11
979.1836501809353
 21
394.3838910209395
 31
0.0
  0
LINE
  5
1428
330
2
100
AcDbEntity
  8
HIDS
  6
SEKKEI_H
100
AcDbLine
 10
984.0946744861744
 20
390.6838910209387
 30
0.0
 11
984.0946744861744
 21
394.3838910209395
 31
0.0
  0
LINE
  5
1429
330
2
100
AcDbEntity
  8
HIDS
  6
SEKKEI_H
100
AcDbLine
 10
984.5946744861745
 20
398.9244536978038
 30
0.0
 11
984.5946744861745
 21
390.6838910209387
 31
0.0
  0
LINE
  5
142A
330
2
100
AcDbEntity
  8
HOJO
100
AcDbLine
 10
982.2613411528413
 20
386.4338910209387
 30
0.0
 11
982.2613411528413
 21
384.9338910209388
 31
0.0
  0
LINE
  5
142B
330
2
100
AcDbEntity
  8
0
100
AcDbLine
 10
982.5946744861743
 20
386.4338910209387
 30
0.0
 11
982.5946744861743
 21
384.9338910209388
 31
0.0
  0
LINE
  5
142C
330
2
100
AcDbEntity
  8
0
100
AcDbLine
 10
980.5946744861744
 20
384.9338910209388
 30
0.0
 11
984.1349690326383
 21
384.9338910209388
 31
0.0
  0
LINE
  5
142D
330
2
100
AcDbEntity
  8
0
100
AcDbLine
 10
980.5946744861744
 20
386.4338910209387
 30
0.0
 11
984.1349690326387
 21
386.4338910209387
 31
0.0
  0
LINE
  5
142E
330
2
100
AcDbEntity
  8
HIDS
  6
SEKKEI_H
100
AcDbLine
 10
982.5946744861743
 20
390.6838910209387
 30
0.0
 11
982.2613411528413
 21
389.0172243542727
 31
0.0
  0
LINE
  5
142F
330
2
100
AcDbEntity
  8
HIDS
  6
SEKKEI_H
100
AcDbLine
 10
982.5946744861743
 20
390.6838910209387
 30
0.0
 11
982.5946744861743
 21
386.4338910209387
 31
0.0
  0
LINE
  5
1430
330
2
100
AcDbEntity
  8
HIDS
  6
SEKKEI_H
100
AcDbLine
 10
982.2613411528413
 20
389.0172243542727
 30
0.0
 11
982.2613411528413
 21
386.4338910209387
 31
0.0
  0
LINE
  5
1431
330
2
100
AcDbEntity
  8
HIDS
  6
SEKKEI_H
100
AcDbLine
 10
983.0946744861744
 20
390.6838910209387
 30
0.0
 11
983.0946744861744
 21
386.4338910209387
 31
0.0
  0
LINE
  5
1432
330
2
100
AcDbEntity
  8
HIDS
  6
SEKKEI_H
100
AcDbLine
 10
983.5750592439039
 20
394.6838910209388
 30
0.0
 11
984.0946744861744
 21
394.3838910209395
 31
0.0
  0
LINE
  5
1433
330
2
100
AcDbEntity
  8
0
100
AcDbLine
 10
1005.094674486174
 20
384.9338910209388
 30
0.0
 11
998.0543799397141
 21
384.9338910209388
 31
0.0
  0
LINE
  5
1434
330
2
100
AcDbEntity
  8
0
100
AcDbLine
 10
998.0543799397137
 20
386.4338910209387
 30
0.0
 11
1005.094674486174
 21
386.4338910209387
 31
0.0
  0
LINE
  5
1435
330
2
100
AcDbEntity
  8
0
100
AcDbLine
 10
1005.094674486174
 20
386.4338910209387
 30
0.0
 11
1005.094674486174
 21
384.9338910209388
 31
0.0
  0
LINE
  5
1436
330
2
100
AcDbEntity
  8
0
100
AcDbLine
 10
783.3683715181646
 20
400.4338910209369
 30
0.0
 11
790.4561573394908
 21
400.4338910209369
 31
0.0
  0
LINE
  5
1437
330
2
100
AcDbEntity
  8
0
100
AcDbLine
 10
790.4561573394908
 20
400.4338910209369
 30
0.0
 11
790.4561573394908
 21
385.6838910209369
 31
0.0
  0
LINE
  5
1438
330
2
100
AcDbEntity
  8
0
100
AcDbLine
 10
797.9561679485409
 20
410.6838910209369
 30
0.0
 11
790.9561679485409
 21
410.6838910209369
 31
0.0
  0
LINE
  5
1439
330
2
100
AcDbEntity
  8
0
100
AcDbLine
 10
790.9561679485409
 20
410.6838910209369
 30
0.0
 11
790.9561679485409
 21
385.6838910209369
 31
0.0
  0
LINE
  5
143A
330
2
100
AcDbEntity
  8
0
100
AcDbLine
 10
788.956174119728
 20
419.6838910209369
 30
0.0
 11
778.9561741197281
 21
419.6838910209369
 31
0.0
  0
ARC
  5
143B
330
2
100
AcDbEntity
  8
0
100
AcDbCircle
 10
778.9561741197281
 20
415.6838910209369
 30
0.0
 40
4.0
100
AcDbArc
 50
90.0
 51
180.0
  0
ARC
  5
143C
330
2
100
AcDbEntity
  8
0
100
AcDbCircle
 10
788.956174119728
 20
415.6838910209369
 30
0.0
 40
4.0
100
AcDbArc
 50
0.0
 51
90.0
  0
LINE
  5
143D
330
2
100
AcDbEntity
  8
0
100
AcDbLine
 10
975.5946683149872
 20
419.6838888853652
 30
0.0
 11
985.5946683149873
 21
419.6838888853652
 31
0.0
  0
ARC
  5
143E
330
2
100
AcDbEntity
  8
0
100
AcDbCircle
 10
985.5946683149873
 20
415.6838888853652
 30
0.0
 40
4.0
100
AcDbArc
 50
0.0
 51
90.0
  0
LINE
  5
143F
330
2
100
AcDbEntity
  8
0
100
AcDbLine
 10
989.5946683149873
 20
415.6838888853652
 30
0.0
 11
989.5946683149873
 21
415.6838888853652
 31
0.0
  0
ARC
  5
1440
330
2
100
AcDbEntity
  8
0
100
AcDbCircle
 10
975.5946683149872
 20
415.6838888853652
 30
0.0
 40
4.0
100
AcDbArc
 50
90.0
 51
180.0
  0
CIRCLE
  5
1441
330
2
100
AcDbEntity
  8
0
100
AcDbCircle
 10
783.9561679502653
 20
644.2929037400097
 30
0.0
 40
9.000006171187123
  0
CIRCLE
  5
1443
330
2
100
AcDbEntity
  8
CENTER
100
AcDbCircle
 10
991.0946744861726
 20
385.6838910209415
 30
0.0
 40
35.00178566873169
  0
CIRCLE
  5
1444
330
2
100
AcDbEntity
  8
0
100
AcDbCircle
 10
991.0946744861744
 20
385.6838910209406
 30
0.0
 40
14.75
  0
LINE
  5
1445
330
2
100
AcDbEntity
  8
0
100
AcDbLine
 10
75.40894485067929
 20
412.5438910209385
 30
0.0
 11
80.1089448506782
 21
412.5438910209385
 31
0.0
  0
LINE
  5
1446
330
2
100
AcDbEntity
  8
0
100
AcDbLine
 10
80.1089448506782
 20
421.0438910209385
 30
0.0
 11
75.40894485067929
 21
421.0438910209385
 31
0.0
  0
LINE
  5
1447
330
2
100
AcDbEntity
  8
CENTER
  6
CENS
100
AcDbLine
 10
97.64010180670721
 20
416.7938910209384
 30
0.0
 11
70.18312887662341
 21
416.7938910209384
 31
0.0
  0
LINE
  5
1448
330
2
100
AcDbEntity
  8
0
100
AcDbLine
 10
75.1089448506782
 20
420.524275778668
 30
0.0
 11
75.1089448506782
 21
413.0635062632089
 31
0.0
  0
LINE
  5
1449
330
2
100
AcDbEntity
  8
0
100
AcDbLine
 10
75.40894485067929
 20
412.5438910209385
 30
0.0
 11
75.40894485067929
 21
421.0438910209385
 31
0.0
  0
LINE
  5
144A
330
2
100
AcDbEntity
  8
0
100
AcDbLine
 10
75.40894485067929
 20
412.5438910209385
 30
0.0
 11
75.1089448506782
 21
413.0635062632089
 31
0.0
  0
LINE
  5
144B
330
2
100
AcDbEntity
  8
0
100
AcDbLine
 10
75.1089448506782
 20
420.524275778668
 30
0.0
 11
75.40894485067929
 21
421.0438910209385
 31
0.0
  0
LINE
  5
144C
330
2
100
AcDbEntity
  8
0
100
AcDbLine
 10
80.1089448506782
 20
421.0438910209385
 30
0.0
 11
81.1089448506782
 21
421.0438910209385
 31
0.0
  0
LINE
  5
144D
330
2
100
AcDbEntity
  8
0
100
AcDbLine
 10
81.1089448506782
 20
421.0438910209385
 30
0.0
 11
81.1089448506782
 21
412.5438910209385
 31
0.0
  0
LINE
  5
144E
330
2
100
AcDbEntity
  8
0
100
AcDbLine
 10
81.1089448506782
 20
412.5438910209385
 30
0.0
 11
80.1089448506782
 21
412.5438910209385
 31
0.0
  0
LINE
  5
144F
330
2
100
AcDbEntity
  8
0
100
AcDbLine
 10
80.1089448506782
 20
412.5438910209385
 30
0.0
 11
80.1089448506782
 21
421.0438910209385
 31
0.0
  0
LINE
  5
1450
330
2
100
AcDbEntity
  8
0
100
AcDbLine
 10
80.1089448506782
 20
412.5438910209385
 30
0.0
 11
80.1089448506782
 21
421.0438910209385
 31
0.0
  0
ARC
  5
1451
330
2
100
AcDbEntity
  8
0
100
AcDbCircle
 10
76.30567544007772
 20
350.6838910209379
 30
0.0
 40
5.0
100
AcDbArc
 50
8.213210701750298
 51
16.12586214362033
  0
LINE
  5
1452
330
2
100
AcDbEntity
  8
0
100
AcDbLine
 10
81.23418328004209
 20
351.6489862080632
 30
0.0
 11
80.6401018067072
 21
385.6838910209379
 31
0.0
  0
LINE
  5
1453
330
2
100
AcDbEntity
  8
0
100
AcDbLine
 10
92.64010180670721
 20
349.6838910209378
 30
0.0
 11
83.23387867035398
 21
349.6838910209378
 31
0.0
  0
ARC
  5
1454
330
2
100
AcDbEntity
  8
0
100
AcDbCircle
 10
83.23387867035398
 20
351.6838910209378
 30
0.0
 40
2.0
100
AcDbArc
 50
181.0000000000017
 51
270.0
  0
LINE
  5
1455
330
2
100
AcDbEntity
  8
CENTER
  6
CENS
100
AcDbLine
 10
63.64010180670721
 20
400.9508635783091
 30
0.0
 11
63.64010180670721
 21
424.3630726214203
 31
0.0
  0
LINE
  5
1456
330
2
100
AcDbEntity
  8
0
100
AcDbLine
 10
81.23418328004209
 20
419.7187958338115
 30
0.0
 11
80.64010180670766
 21
385.6838910209379
 31
0.0
  0
LINE
  5
1457
330
2
100
AcDbEntity
  8
0
100
AcDbLine
 10
64.16888683289926
 20
412.6797787901603
 30
0.0
 11
64.64010180670811
 21
385.6838910209379
 31
0.0
  0
LINE
  5
1458
330
2
100
AcDbEntity
  8
0
100
AcDbLine
 10
92.64010180670721
 20
385.6838910209379
 30
0.0
 11
49.64010180670721
 21
385.6838910209379
 31
0.0
  0
LINE
  5
1459
330
2
100
AcDbEntity
  8
0
100
AcDbLine
 10
75.1089448506782
 20
355.6838910209378
 30
0.0
 11
49.64010180670721
 21
355.6838910209378
 31
0.0
  0
LINE
  5
145A
330
2
100
AcDbEntity
  8
0
100
AcDbLine
 10
64.16888683289926
 20
358.6880032517154
 30
0.0
 11
64.64010180670721
 21
385.6838910209379
 31
0.0
  0
ARC
  5
145B
330
2
100
AcDbEntity
  8
0
100
AcDbCircle
 10
61.16835806951257
 20
358.6838910209379
 30
0.0
 40
3.0
100
AcDbArc
 50
270.0
 51
358.9999999999982
  0
ARC
  5
145C
330
2
100
AcDbEntity
  8
0
100
AcDbCircle
 10
76.73188685609694
 20
360.9160723753946
 30
0.0
 40
3.0
100
AcDbArc
 50
90.0
 51
178.9999999999721
  0
LINE
  5
145D
330
2
100
AcDbEntity
  8
0
100
AcDbLine
 10
67.26060010303536
 20
363.9160723753946
 30
0.0
 11
76.73188685609694
 21
363.9160723753946
 31
0.0
  0
LINE
  5
145E
330
2
100
AcDbEntity
  8
0
100
AcDbLine
 10
73.73234377062818
 20
360.968429594707
 30
0.0
 11
73.67440267078837
 21
357.6489862080632
 31
0.0
  0
ARC
  5
145F
330
2
100
AcDbEntity
  8
0
100
AcDbCircle
 10
71.67470728047465
 20
357.6838910209378
 30
0.0
 40
2.0
100
AcDbArc
 50
270.0
 51
358.9999999999721
  0
LINE
  5
1460
330
2
100
AcDbEntity
  8
0
100
AcDbLine
 10
75.1089448506782
 20
415.6838910209378
 30
0.0
 11
49.64010180670721
 21
415.6838910209378
 31
0.0
  0
ARC
  5
1461
330
2
100
AcDbEntity
  8
0
100
AcDbCircle
 10
61.16835806951257
 20
412.6838910209379
 30
0.0
 40
3.0
100
AcDbArc
 50
1.000000000001775
 51
90.0
  0
ARC
  5
1462
330
2
100
AcDbEntity
  8
0
100
AcDbCircle
 10
83.23387867035398
 20
419.6838910209378
 30
0.0
 40
2.0
100
AcDbArc
 50
90.0
 51
178.9999999999982
  0
LINE
  5
1463
330
2
100
AcDbEntity
  8
0
100
AcDbLine
 10
92.64010180670721
 20
421.6838910209379
 30
0.0
 11
83.23387867035398
 21
421.6838910209379
 31
0.0
  0
ARC
  5
1464
330
2
100
AcDbEntity
  8
0
100
AcDbCircle
 10
76.30567544007772
 20
420.6838910209379
 30
0.0
 40
5.0
100
AcDbArc
 50
343.8741378563796
 51
351.7867892982497
  0
LINE
  5
1465
330
2
100
AcDbEntity
  8
0
100
AcDbLine
 10
49.64010180670721
 20
355.6838910209378
 30
0.0
 11
49.64010180670721
 21
415.6838910209378
 31
0.0
  0
LINE
  5
1466
330
2
100
AcDbEntity
  8
0
100
AcDbLine
 10
75.40894485067929
 20
358.8238910209373
 30
0.0
 11
80.1089448506782
 21
358.8238910209373
 31
0.0
  0
LINE
  5
1467
330
2
100
AcDbEntity
  8
0
100
AcDbLine
 10
80.1089448506782
 20
350.3238910209373
 30
0.0
 11
75.40894485067929
 21
350.3238910209373
 31
0.0
  0
LINE
  5
1468
330
2
100
AcDbEntity
  8
CENTER
  6
CENS
100
AcDbLine
 10
97.64010180670721
 20
354.5738910209373
 30
0.0
 11
70.18312887662341
 21
354.5738910209373
 31
0.0
  0
LINE
  5
1469
330
2
100
AcDbEntity
  8
0
100
AcDbLine
 10
75.1089448506782
 20
350.8435062632077
 30
0.0
 11
75.1089448506782
 21
358.3042757786668
 31
0.0
  0
LINE
  5
146A
330
2
100
AcDbEntity
  8
0
100
AcDbLine
 10
75.40894485067929
 20
358.8238910209373
 30
0.0
 11
75.40894485067929
 21
350.3238910209373
 31
0.0
  0
LINE
  5
146B
330
2
100
AcDbEntity
  8
0
100
AcDbLine
 10
75.40894485067929
 20
358.8238910209373
 30
0.0
 11
75.1089448506782
 21
358.3042757786668
 31
0.0
  0
LINE
  5
146C
330
2
100
AcDbEntity
  8
0
100
AcDbLine
 10
75.1089448506782
 20
350.8435062632077
 30
0.0
 11
75.40894485067929
 21
350.3238910209373
 31
0.0
  0
LINE
  5
146D
330
2
100
AcDbEntity
  8
0
100
AcDbLine
 10
80.1089448506782
 20
350.3238910209373
 30
0.0
 11
81.1089448506782
 21
350.3238910209373
 31
0.0
  0
LINE
  5
146E
330
2
100
AcDbEntity
  8
0
100
AcDbLine
 10
81.1089448506782
 20
350.3238910209373
 30
0.0
 11
81.1089448506782
 21
358.8238910209373
 31
0.0
  0
LINE
  5
146F
330
2
100
AcDbEntity
  8
0
100
AcDbLine
 10
81.1089448506782
 20
358.8238910209373
 30
0.0
 11
80.1089448506782
 21
358.8238910209373
 31
0.0
  0
LINE
  5
1470
330
2
100
AcDbEntity
  8
0
100
AcDbLine
 10
80.1089448506782
 20
358.8238910209373
 30
0.0
 11
80.1089448506782
 21
350.3238910209373
 31
0.0
  0
LINE
  5
1471
330
2
100
AcDbEntity
  8
0
100
AcDbLine
 10
80.1089448506782
 20
358.8238910209373
 30
0.0
 11
80.1089448506782
 21
350.3238910209373
 31
0.0
  0
LINE
  5
1472
330
2
100
AcDbEntity
  8
0
100
AcDbLine
 10
58.64009563552008
 20
419.6838910209378
 30
0.0
 11
68.64009563552008
 21
419.6838910209378
 31
0.0
  0
ARC
  5
1473
330
2
100
AcDbEntity
  8
0
100
AcDbCircle
 10
68.64009563552008
 20
415.6838910209378
 30
0.0
 40
4.0
100
AcDbArc
 50
0.0
 51
90.0
  0
ARC
  5
1474
330
2
100
AcDbEntity
  8
0
100
AcDbCircle
 10
58.64009563552008
 20
415.6838910209378
 30
0.0
 40
4.0
100
AcDbArc
 50
90.0
 51
180.0
  0
CIRCLE
  5
1475
330
2
100
AcDbEntity
  8
HOJO
100
AcDbCircle
 10
966.3446744861744
 20
410.4338910209388
 30
0.0
 40
2.5
  0
CIRCLE
  5
1476
330
2
100
AcDbEntity
  8
0
100
AcDbCircle
 10
966.3446744861744
 20
410.4338910209388
 30
0.0
 40
2.0
  0
CIRCLE
  5
1477
330
2
100
AcDbEntity
  8
0
100
AcDbCircle
 10
966.3446744861744
 20
360.9338910209388
 30
0.0
 40
2.0
  0
CIRCLE
  5
1478
330
2
100
AcDbEntity
  8
HOJO
100
AcDbCircle
 10
966.3446744861744
 20
360.9338910209388
 30
0.0
 40
2.5
  0
CIRCLE
  5
1479
330
2
100
AcDbEntity
  8
0
100
AcDbCircle
 10
1015.844674486174
 20
360.9338910209388
 30
0.0
 40
2.0
  0
CIRCLE
  5
147A
330
2
100
AcDbEntity
  8
HOJO
100
AcDbCircle
 10
1015.844674486174
 20
360.9338910209388
 30
0.0
 40
2.5
  0
CIRCLE
  5
147B
330
2
100
AcDbEntity
  8
0
100
AcDbCircle
 10
1015.844674486174
 20
410.4338910209388
 30
0.0
 40
2.0
  0
CIRCLE
  5
147C
330
2
100
AcDbEntity
  8
HOJO
100
AcDbCircle
 10
1015.844674486174
 20
410.4338910209388
 30
0.0
 40
2.5
  0
LINE
  5
147D
330
2
100
AcDbEntity
  8
0
100
AcDbLine
 10
788.4561573394908
 20
392.6838910209369
 30
0.0
 11
778.4561573394908
 21
392.6838910209369
 31
0.0
  0
LINE
  5
147E
330
2
100
AcDbEntity
  8
0
100
AcDbLine
 10
788.4561573394908
 20
392.6838910209369
 30
0.0
 11
788.4561573394908
 21
385.6838910209369
 31
0.0
  0
LINE
  5
147F
330
2
100
AcDbEntity
  8
0
100
AcDbLine
 10
790.4561573394908
 20
393.8385915593169
 30
0.0
 11
788.4561573394908
 21
392.6838910209369
 31
0.0
  0
LINE
  5
1480
330
2
100
AcDbEntity
  8
0
100
AcDbLine
 10
761.4561573394908
 20
392.933891020937
 30
0.0
 11
761.4561573394908
 21
385.6838910209369
 31
0.0
  0
LINE
  5
1481
330
2
100
AcDbEntity
  8
0
100
AcDbLine
 10
788.4561573394908
 20
392.6838910209369
 30
0.0
 11
778.4561573394908
 21
392.6838910209369
 31
0.0
  0
LINE
  5
1482
330
2
100
AcDbEntity
  8
0
100
AcDbLine
 10
776.4561573394908
 20
395.9685722076599
 30
0.0
 11
776.4561573394908
 21
385.6838910209369
 31
0.0
  0
LINE
  5
1483
330
2
100
AcDbEntity
  8
0
100
AcDbLine
 10
778.4561573394908
 20
396.4939723550922
 30
0.0
 11
778.4561573394908
 21
385.6838910209369
 31
0.0
  0
LINE
  5
1484
330
2
100
AcDbEntity
  8
0
100
AcDbLine
 10
769.4561573394907
 20
392.933891020937
 30
0.0
 11
761.4561573394908
 21
392.933891020937
 31
0.0
  0
LINE
  5
1485
330
2
100
AcDbEntity
  8
0
100
AcDbLine
 10
769.4561573394907
 20
385.6838910209369
 30
0.0
 11
769.4561573394907
 21
392.933891020937
 31
0.0
  0
LINE
  5
1486
330
2
100
AcDbEntity
  8
0
100
AcDbLine
 10
776.4561573394908
 20
392.6838910209369
 30
0.0
 11
769.4561573394907
 21
392.6838910209369
 31
0.0
  0
LINE
  5
1487
330
2
100
AcDbEntity
  8
0
100
AcDbLine
 10
757.7033805897586
 20
385.6838910209369
 30
0.0
 11
761.4561573394908
 21
392.1838910209369
 31
0.0
  0
SPLINE
  5
1488
330
2
100
AcDbEntity
  8
HOJO
100
AcDbSpline
210
0.0
220
0.0
230
1.0
 70
     8
 71
     3
 72
    20
 73
    16
 74
     0
 42
0.0000000001
 43
0.0000000001
 40
0.0
 40
0.0
 40
0.0
 40
0.0
 40
5.311626210389601
 40
7.954639692924123
 40
10.24579206730457
 40
14.18281221953265
 40
18.83794314114633
 40
26.54246833222011
 40
31.19712602527561
 40
34.95638115537181
 40
42.12378530287149
 40
45.78553747213095
 40
50.20353689726185
 40
53.26513166942802
 40
54.23175360515262
 40
54.23175360515262
 40
54.23175360515262
 40
54.23175360515262
 10
797.9561679485409
 20
412.3713397429527
 30
0.0
 10
796.2431887826528
 20
412.2632976927269
 30
0.0
 10
793.6778478632418
 20
412.1014949703228
 30
0.0
 10
789.9060939761652
 20
411.8493622981548
 30
0.0
 10
788.5869527600312
 20
408.9169208131878
 30
0.0
 10
786.1517433917392
 20
406.2624119898926
 30
0.0
 10
784.3136950485891
 20
401.1111165567288
 30
0.0
 10
780.1888586391137
 20
396.4013692051029
 30
0.0
 10
774.7112111361071
 20
395.7640377706837
 30
0.0
 10
769.7978256265409
 20
394.9100141391261
 30
0.0
 10
764.963826279783
 20
394.573873617355
 30
0.0
 10
759.926099515143
 20
394.1704988684503
 30
0.0
 10
756.8549488937747
 20
389.9682958715901
 30
0.0
 10
755.854974599049
 20
387.2900553507004
 30
0.0
 10
755.4989350738155
 20
385.9950423206299
 30
0.0
 10
755.4162073017282
 20
385.6838910209369
 30
0.0
  0
ARC
  5
1489
330
2
100
AcDbEntity
  8
0
100
AcDbCircle
 10
991.0946744861744
 20
385.6838910209388
 30
0.0
 40
8.154700538378051
100
AcDbArc
 50
5.277035934805344
 51
174.7229640651946
  0
CIRCLE
  5
148A
330
2
100
AcDbEntity
  8
0
100
AcDbCircle
 10
991.0946744861762
 20
385.6838910209369
 30
0.0
 40
7.000000000000113
  0
ARC
  5
148B
330
2
100
AcDbEntity
  8
0
100
AcDbCircle
 10
991.0946744861744
 20
385.6838910209415
 30
0.0
 40
8.154700538378051
100
AcDbArc
 50
185.2770359348053
 51
354.7229640651946
  0
LINE
  5
148C
330
2
100
AcDbEntity
  8
0
100
AcDbLine
 10
787.8555012769238
 20
408.1838910209369
 30
0.0
 11
790.9561679485409
 21
408.1838910209369
 31
0.0
  0
CIRCLE
  5
148D
330
2
100
AcDbEntity
  8
0
100
AcDbCircle
 10
991.0946744861744
 20
385.6838910209388
 30
0.0
 40
22.5
  0
CIRCLE
  5
1A78
330
2
100
AcDbEntity
  8
0
100
AcDbCircle
 10
631.1661679485427
 20
385.6838910209369
 30
0.0
 40
26.57735026918791
  0
ARC
  5
1A7D
330
2
100
AcDbEntity
  8
0
100
AcDbCircle
 10
717.1137305850469
 20
620.7929037425544
 30
0.0
 40
2.0
100
AcDbArc
 50
270.0
 51
359.4999999999951
  0
ENDSEC
  0
SECTION
  2
OBJECTS
  0
DICTIONARY
  5
7
330
0
100
AcDbDictionary
  3
ACAD_GROUP
350
75
  3
ACAD_LAYOUT
350
61
  3
ACAD_MLINESTYLE
350
76
  3
ACAD_PLOTSETTINGS
350
77
  3
ACAD_PLOTSTYLENAME
350
6
  3
ACADDIM
350
480
  3
ACDBHEADERROUNDTRIPXREC
350
1A97
  3
ACDBVARIABLEDICTIONARY
350
102
  3
DWGPROPS
350
3D2
  0
DICTIONARY
  5
B21
330
66
100
AcDbDictionary
280
     1
  3
ACAD_LAYERSTATES
360
B22
  0
DICTIONARY
  5
1AB8
330
2
100
AcDbDictionary
280
     1
  3
ACAD_LAYOUTSELFREF
360
1AB9
  0
DICTIONARY
  5
1ABA
330
1A91
100
AcDbDictionary
280
     1
  3
ACAD_LAYOUTSELFREF
360
1ABB
  0
DICTIONARY
  5
75
102
{ACAD_REACTORS
330
7
102
}
330
7
100
AcDbDictionary
  0
DICTIONARY
  5
61
102
{ACAD_REACTORS
330
7
102
}
330
7
100
AcDbDictionary
  0
DICTIONARY
  5
76
102
{ACAD_REACTORS
330
7
102
}
330
7
100
AcDbDictionary
  3
STANDARD
350
78
  0
DICTIONARY
  5
77
102
{ACAD_REACTORS
330
7
102
}
330
7
100
AcDbDictionary
  0
ACDBDICTIONARYWDFLT
  5
6
102
{ACAD_REACTORS
330
7
102
}
330
7
100
AcDbDictionary
281
     1
  3
Normal
350
5
100
AcDbDictionaryWithDefault
340
5
  0
XRECORD
  5
480
102
{ACAD_REACTORS
330
7
102
}
330
7
100
AcDbXrecord
 90
   990106
  3

 60
     0
 61
     0
 62
     1
 63
     3
 64
     1
 65
     0
 66
     0
 67
     3
 68
     1
 69
     0
 70
     0
 71
     0
 72
     0
 40
0.0
170
     2
340
0
  0
DICTIONARY
  5
1A97
102
{ACAD_REACTORS
330
7
102
}
330
7
100
AcDbDictionary
  3
CEPSNTYPE
350
1AA1
  3
DIMSTYLEDATA
350
1AA5
  3
FINGERPRINTGUID
350
1AA2
  3
HYPERLINKBASE
350
1A9A
  3
INSUNITS
350
1AA0
  3
LAYOUTDICT
350
1A9C
  3
LWETCUNION
350
1A9F
  3
PLOTSETDICT
350
1A9D
  3
PLOTSTYLNAMDICT
350
1A9E
  3
PSVPSCALE
350
1AA4
  3
PUCSBASE
350
1AA8
  3
PUCSORGBACK
350
1AAE
  3
PUCSORGBOTTOM
350
1AAA
  3
PUCSORGFRONT
350
1AAD
  3
PUCSORGLEFT
350
1AAB
  3
PUCSORGRIGHT
350
1AAC
  3
PUCSORGTOP
350
1AA9
  3
PUCSORTHOREF
350
1AA6
  3
PUCSORTHOVIEW
350
1AA7
  3
STYLESHEET
350
1A9B
  3
TSTACKALIGN
350
1A98
  3
TSTACKSIZE
350
1A99
  3
UCSBASE
350
1AB1
  3
UCSORGBACK
350
1AB7
  3
UCSORGBOTTOM
350
1AB3
  3
UCSORGFRONT
350
1AB6
  3
UCSORGLEFT
350
1AB4
  3
UCSORGRIGHT
350
1AB5
  3
UCSORGTOP
350
1AB2
  3
UCSORTHOREF
350
1AAF
  3
UCSORTHOVIEW
350
1AB0
  3
VERSIONGUID
350
1AA3
  0
DICTIONARY
  5
102
102
{ACAD_REACTORS
330
7
102
}
330
7
100
AcDbDictionary
  3
DIMASSOC
350
103
  3
SORTENTS
350
549
  0
XRECORD
  5
3D2
102
{ACAD_REACTORS
330
7
102
}
330
7
100
AcDbXrecord
  1
DWGPROPS COOKIE
  2

  3

  4

  6

  7

  8

  9

300
=
301
=
302
=
303
=
304
=
305
=
306
=
307
=
308
=
309
=
 40
0.5353330671296296
 41
2452052.431989363
 42
2453406.550756377
  1

 90
        0
  0
DICTIONARY
  5
B22
102
{ACAD_REACTORS
330
B21
102
}
330
B21
100
AcDbDictionary
  0
XRECORD
  5
1AB9
102
{ACAD_REACTORS
330
1AB8
102
}
330
1AB8
100
AcDbXrecord
340
2
  0
XRECORD
  5
1ABB
102
{ACAD_REACTORS
330
1ABA
102
}
330
1ABA
100
AcDbXrecord
340
1A91
  0
MLINESTYLE
  5
78
102
{ACAD_REACTORS
330
76
102
}
330
76
100
AcDbMlineStyle
  2
STANDARD
 70
     0
  3

 62
     0
 51
90.0
 52
90.0
 71
     2
 49
0.5
 62
   256
  6
BYLAYER
 49
-0.5
 62
   256
  6
BYLAYER
  0
ACDBPLACEHOLDER
  5
5
102
{ACAD_REACTORS
330
6
102
}
330
6
100
AcDbPlaceHolder
280
     0
  0
XRECORD
  5
1AA1
102
{ACAD_REACTORS
330
1A97
102
}
330
1A97
100
AcDbXrecord
 90
        0
  0
XRECORD
  5
1AA5
102
{ACAD_REACTORS
330
1A97
102
}
330
1A97
100
AcDbXrecord
1000
DSTYLE
1002
{
1070
   179
 70
     2
1070
   277
 70
     6
1002
}
  0
XRECORD
  5
1AA2
102
{ACAD_REACTORS
330
1A97
102
}
330
1A97
100
AcDbXrecord
  1
{6385560B-F4B1-4644-A7C2-A3E32AC3D232}
  0
XRECORD
  5
1A9A
102
{ACAD_REACTORS
330
1A97
102
}
330
1A97
100
AcDbXrecord
  1

  0
XRECORD
  5
1AA0
102
{ACAD_REACTORS
330
1A97
102
}
330
1A97
100
AcDbXrecord
 90
        0
  0
XRECORD
  5
1A9C
102
{ACAD_REACTORS
330
1A97
102
}
330
1A97
100
AcDbXrecord
340
61
  0
XRECORD
  5
1A9F
102
{ACAD_REACTORS
330
1A97
102
}
330
1A97
100
AcDbXrecord
 90
    10781
  0
XRECORD
  5
1A9D
102
{ACAD_REACTORS
330
1A97
102
}
330
1A97
100
AcDbXrecord
340
77
  0
XRECORD
  5
1A9E
102
{ACAD_REACTORS
330
1A97
102
}
330
1A97
100
AcDbXrecord
340
6
  0
XRECORD
  5
1AA4
102
{ACAD_REACTORS
330
1A97
102
}
330
1A97
100
AcDbXrecord
 40
0.0
  0
XRECORD
  5
1AA8
102
{ACAD_REACTORS
330
1A97
102
}
330
1A97
100
AcDbXrecord
340
0
  0
XRECORD
  5
1AAE
102
{ACAD_REACTORS
330
1A97
102
}
330
1A97
100
AcDbXrecord
 10
0.0
 20
0.0
 30
0.0
  0
XRECORD
  5
1AAA
102
{ACAD_REACTORS
330
1A97
102
}
330
1A97
100
AcDbXrecord
 10
0.0
 20
0.0
 30
0.0
  0
XRECORD
  5
1AAD
102
{ACAD_REACTORS
330
1A97
102
}
330
1A97
100
AcDbXrecord
 10
0.0
 20
0.0
 30
0.0
  0
XRECORD
  5
1AAB
102
{ACAD_REACTORS
330
1A97
102
}
330
1A97
100
AcDbXrecord
 10
0.0
 20
0.0
 30
0.0
  0
XRECORD
  5
1AAC
102
{ACAD_REACTORS
330
1A97
102
}
330
1A97
100
AcDbXrecord
 10
0.0
 20
0.0
 30
0.0
  0
XRECORD
  5
1AA9
102
{ACAD_REACTORS
330
1A97
102
}
330
1A97
100
AcDbXrecord
 10
0.0
 20
0.0
 30
0.0
  0
XRECORD
  5
1AA6
102
{ACAD_REACTORS
330
1A97
102
}
330
1A97
100
AcDbXrecord
340
0
  0
XRECORD
  5
1AA7
102
{ACAD_REACTORS
330
1A97
102
}
330
1A97
100
AcDbXrecord
 70
     0
  0
XRECORD
  5
1A9B
102
{ACAD_REACTORS
330
1A97
102
}
330
1A97
100
AcDbXrecord
  1
Sekkei.ctb
  0
XRECORD
  5
1A98
102
{ACAD_REACTORS
330
1A97
102
}
330
1A97
100
AcDbXrecord
 90
        1
  0
XRECORD
  5
1A99
102
{ACAD_REACTORS
330
1A97
102
}
330
1A97
100
AcDbXrecord
 90
       70
  0
XRECORD
  5
1AB1
102
{ACAD_REACTORS
330
1A97
102
}
330
1A97
100
AcDbXrecord
340
0
  0
XRECORD
  5
1AB7
102
{ACAD_REACTORS
330
1A97
102
}
330
1A97
100
AcDbXrecord
 10
0.0
 20
0.0
 30
0.0
  0
XRECORD
  5
1AB3
102
{ACAD_REACTORS
330
1A97
102
}
330
1A97
100
AcDbXrecord
 10
0.0
 20
0.0
 30
0.0
  0
XRECORD
  5
1AB6
102
{ACAD_REACTORS
330
1A97
102
}
330
1A97
100
AcDbXrecord
 10
0.0
 20
0.0
 30
0.0
  0
XRECORD
  5
1AB4
102
{ACAD_REACTORS
330
1A97
102
}
330
1A97
100
AcDbXrecord
 10
0.0
 20
0.0
 30
0.0
  0
XRECORD
  5
1AB5
102
{ACAD_REACTORS
330
1A97
102
}
330
1A97
100
AcDbXrecord
 10
0.0
 20
0.0
 30
0.0
  0
XRECORD
  5
1AB2
102
{ACAD_REACTORS
330
1A97
102
}
330
1A97
100
AcDbXrecord
 10
0.0
 20
0.0
 30
0.0
  0
XRECORD
  5
1AAF
102
{ACAD_REACTORS
330
1A97
102
}
330
1A97
100
AcDbXrecord
340
0
  0
XRECORD
  5
1AB0
102
{ACAD_REACTORS
330
1A97
102
}
330
1A97
100
AcDbXrecord
 70
     0
  0
XRECORD
  5
1AA3
102
{ACAD_REACTORS
330
1A97
102
}
330
1A97
100
AcDbXrecord
  1
{5AFA388C-1EC3-43E0-A385-AB7AEED97A89}
  0
DICTIONARYVAR
  5
103
102
{ACAD_REACTORS
330
102
102
}
330
102
100
DictionaryVariables
280
     0
  1
1
  0
DICTIONARYVAR
  5
549
102
{ACAD_REACTORS
330
102
102
}
330
102
100
DictionaryVariables
280
     0
  1
96
  0
ENDSEC
  0
EOF
