  0
SECTION
  2
HEADER
  9
$ACADVER
  1
AC1014
  9
$ACADMAINTVER
 70
     9
  9
$DWGCODEPAGE
  3
ANSI_932
  9
$INSBASE
 10
0.0
 20
0.0
 30
0.0
  9
$EXTMIN
 10
39.64009849654576
 20
76.58270116378691
 30
0.0
  9
$EXTMAX
 10
1057.094564176011
 20
721.0150597484303
 30
0.0
  9
$LIMMIN
 10
0.0
 20
0.0
  9
$LIMMAX
 10
297.0
 20
210.0
  9
$ORTHOMODE
 70
     1
  9
$REGENMODE
 70
     1
  9
$FILLMODE
 70
     1
  9
$QTEXTMODE
 70
     0
  9
$MIRRTEXT
 70
     0
  9
$DRAGMODE
 70
     2
  9
$LTSCALE
 40
3.0
  9
$OSMODE
 70
    37
  9
$ATTMODE
 70
     1
  9
$TEXTSIZE
 40
2.0
  9
$TRACEWID
 40
1.0
  9
$TEXTSTYLE
  7
STANDARD
  9
$CLAYER
  8
0
  9
$CELTYPE
  6
BYLAYER
  9
$CECOLOR
 62
   256
  9
$CELTSCALE
 40
1.0
  9
$DELOBJ
 70
     1
  9
$DISPSILH
 70
     0
  9
$DIMSCALE
 40
3.0
  9
$DIMASZ
 40
1.8
  9
$DIMEXO
 40
0.625
  9
$DIMDLI
 40
3.75
  9
$DIMRND
 40
0.0
  9
$DIMDLE
 40
0.0
  9
$DIMEXE
 40
0.8
  9
$DIMTP
 40
0.0
  9
$DIMTM
 40
0.0
  9
$DIMTXT
 40
1.8
  9
$DIMCEN
 40
2.5
  9
$DIMTSZ
 40
0.0
  9
$DIMTOL
 70
     0
  9
$DIMLIM
 70
     0
  9
$DIMTIH
 70
     0
  9
$DIMTOH
 70
     0
  9
$DIMSE1
 70
     0
  9
$DIMSE2
 70
     0
  9
$DIMTAD
 70
     1
  9
$DIMZIN
 70
     8
  9
$DIMBLK
  1

  9
$DIMASO
 70
     1
  9
$DIMSHO
 70
     1
  9
$DIMPOST
  1

  9
$DIMAPOST
  1

  9
$DIMALT
 70
     0
  9
$DIMALTD
 70
     4
  9
$DIMALTF
 40
0.0394
  9
$DIMLFAC
 40
1.0
  9
$DIMTOFL
 70
     1
  9
$DIMTVP
 40
0.0
  9
$DIMTIX
 70
     0
  9
$DIMSOXD
 70
     0
  9
$DIMSAH
 70
     0
  9
$DIMBLK1
  1

  9
$DIMBLK2
  1

  9
$DIMSTYLE
  2
STANDARD
  9
$DIMCLRD
 70
     0
  9
$DIMCLRE
 70
     0
  9
$DIMCLRT
 70
     0
  9
$DIMTFAC
 40
1.0
  9
$DIMGAP
 40
0.75
  9
$DIMJUST
 70
     0
  9
$DIMSD1
 70
     0
  9
$DIMSD2
 70
     0
  9
$DIMTOLJ
 70
     1
  9
$DIMTZIN
 70
     0
  9
$DIMALTZ
 70
     0
  9
$DIMALTTZ
 70
     0
  9
$DIMFIT
 70
     3
  9
$DIMUPT
 70
     0
  9
$DIMUNIT
 70
     8
  9
$DIMDEC
 70
     2
  9
$DIMTDEC
 70
     2
  9
$DIMALTU
 70
     8
  9
$DIMALTTD
 70
     4
  9
$DIMTXSTY
  7
STANDARD
  9
$DIMAUNIT
 70
     0
  9
$LUNITS
 70
     2
  9
$LUPREC
 70
     3
  9
$SKETCHINC
 40
1.0
  9
$FILLETRAD
 40
2.0
  9
$AUNITS
 70
     0
  9
$AUPREC
 70
     2
  9
$MENU
  1
.
  9
$ELEVATION
 40
0.0
  9
$PELEVATION
 40
0.0
  9
$THICKNESS
 40
0.0
  9
$LIMCHECK
 70
     0
  9
$BLIPMODE
 70
     0
  9
$CHAMFERA
 40
0.0
  9
$CHAMFERB
 40
0.0
  9
$CHAMFERC
 40
20.0
  9
$CHAMFERD
 40
0.0
  9
$SKPOLY
 70
     0
  9
$TDCREATE
 40
2454412.676926169
  9
$TDUPDATE
 40
2454424.600315567
  9
$TDINDWG
 40
0.0025844560
  9
$TDUSRTIMER
 40
0.0025844560
  9
$USRTIMER
 70
     1
  9
$ANGBASE
 50
0.0
  9
$ANGDIR
 70
     0
  9
$PDMODE
 70
     0
  9
$PDSIZE
 40
-10.0
  9
$PLINEWID
 40
0.0
  9
$COORDS
 70
     0
  9
$SPLFRAME
 70
     0
  9
$SPLINETYPE
 70
     6
  9
$SPLINESEGS
 70
     8
  9
$ATTDIA
 70
     0
  9
$ATTREQ
 70
     1
  9
$HANDLING
 70
-16383
  9
$HANDSEED
  5
1ABA
  9
$SURFTAB1
 70
     6
  9
$SURFTAB2
 70
     6
  9
$SURFTYPE
 70
     6
  9
$SURFU
 70
     6
  9
$SURFV
 70
     6
  9
$UCSNAME
  2

  9
$UCSORG
 10
0.0
 20
0.0
 30
0.0
  9
$UCSXDIR
 10
1.0
 20
0.0
 30
0.0
  9
$UCSYDIR
 10
0.0
 20
1.0
 30
0.0
  9
$PUCSNAME
  2

  9
$PUCSORG
 10
0.0
 20
0.0
 30
0.0
  9
$PUCSXDIR
 10
1.0
 20
0.0
 30
0.0
  9
$PUCSYDIR
 10
0.0
 20
1.0
 30
0.0
  9
$USERI1
 70
     0
  9
$USERI2
 70
     0
  9
$USERI3
 70
     0
  9
$USERI4
 70
     0
  9
$USERI5
 70
     0
  9
$USERR1
 40
0.0
  9
$USERR2
 40
0.0
  9
$USERR3
 40
0.0
  9
$USERR4
 40
0.0
  9
$USERR5
 40
0.0
  9
$WORLDVIEW
 70
     1
  9
$SHADEDGE
 70
     3
  9
$SHADEDIF
 70
    70
  9
$TILEMODE
 70
     1
  9
$MAXACTVP
 70
    48
  9
$PINSBASE
 10
0.0
 20
0.0
 30
0.0
  9
$PLIMCHECK
 70
     0
  9
$PEXTMIN
 10
0.0
 20
0.0
 30
0.0
  9
$PEXTMAX
 10
0.0
 20
0.0
 30
0.0
  9
$PLIMMIN
 10
0.0
 20
0.0
  9
$PLIMMAX
 10
12.0
 20
9.0
  9
$UNITMODE
 70
     0
  9
$VISRETAIN
 70
     1
  9
$PLINEGEN
 70
     0
  9
$PSLTSCALE
 70
     1
  9
$TREEDEPTH
 70
  3020
  9
$PICKSTYLE
 70
     1
  9
$CMLSTYLE
  2
STANDARD
  9
$CMLJUST
 70
     0
  9
$CMLSCALE
 40
1.0
  9
$PROXYGRAPHICS
 70
     1
  9
$MEASUREMENT
 70
     0
  0
ENDSEC
  0
SECTION
  2
CLASSES
  0
CLASS
  1
DICTIONARYVAR
  2
AcDbDictionaryVar
  3
AutoCAD 2000
 90
        0
280
     0
281
     0
  0
CLASS
  1
ACDBDICTIONARYWDFLT
  2
AcDbDictionaryWithDefault
  3
AutoCAD 2000
 90
        0
280
     0
281
     0
  0
CLASS
  1
ACDBPLACEHOLDER
  2
AcDbPlaceHolder
  3
AutoCAD 2000
 90
        0
280
     0
281
     0
  0
CLASS
  1
LAYOUT
  2
AcDbLayout
  3
AutoCAD 2000
 90
        0
280
     0
281
     0
  0
CLASS
  1
LONG_TRANSACTION
  2
AcDbLongTransaction
  3
AutoCAD 2000
 90
        0
280
     0
281
     0
  0
CLASS
  1
LWPOLYLINE
  2
AcDbPolyline
  3
AutoCAD 2000
 90
        0
280
     0
281
     1
  0
CLASS
  1
HATCH
  2
AcDbHatch
  3
AutoCAD 2000
 90
        0
280
     0
281
     1
  0
CLASS
  1
XRECORD
  2
AcDbXrecord
  3
AutoCAD 2000
 90
        0
280
     0
281
     0
  0
ENDSEC
  0
SECTION
  2
TABLES
  0
TABLE
  2
VPORT
  5
6E
330
0
100
AcDbSymbolTable
 70
     2
  0
VPORT
  5
1A94
330
6E
100
AcDbSymbolTableRecord
100
AcDbViewportTableRecord
  2
*ACTIVE
 70
     0
 10
0.0
 20
0.0
 11
1.0
 21
1.0
 12
620.549041792043
 22
383.1004522047047
 13
0.0
 23
0.0
 14
10.0
 24
10.0
 15
10.0
 25
10.0
 16
0.0
 26
0.0
 36
1.0
 17
0.0
 27
0.0
 37
0.0
 40
681.1841252457229
 41
1.753504672897196
 42
50.0
 43
0.0
 44
0.0
 50
0.0
 51
0.0
 71
     0
 72
   100
 73
     1
 74
     3
 75
     0
 76
     0
 77
     0
 78
     0
  0
ENDTAB
  0
TABLE
  2
LTYPE
  5
69
330
0
100
AcDbSymbolTable
 70
     6
  0
LTYPE
  5
6A
330
69
100
AcDbSymbolTableRecord
100
AcDbLinetypeTableRecord
  2
BYBLOCK
 70
     0
  3

 72
    65
 73
     0
 40
0.0
  0
LTYPE
  5
6B
330
69
100
AcDbSymbolTableRecord
100
AcDbLinetypeTableRecord
  2
BYLAYER
 70
     0
  3

 72
    65
 73
     0
 40
0.0
  0
LTYPE
  5
8
330
69
100
AcDbSymbolTableRecord
100
AcDbLinetypeTableRecord
  2
CONTINUOUS
 70
     0
  3
Solid line
 72
    65
 73
     0
 40
0.0
  0
LTYPE
  5
27C
330
69
100
AcDbSymbolTableRecord
100
AcDbLinetypeTableRecord
  2
SEKKEI_A2_
 70
     0
  3
center(A2)  ____ _ ____ _ ____ _ ____ _ ____ _ 
 72
    65
 73
     4
 40
14.28749999999999
 49
9.525
 74
     0
 49
-1.587499999999999
 74
     0
 49
1.587499999999999
 74
     0
 49
-1.587499999999999
 74
     0
  0
LTYPE
  5
7EF
330
69
100
AcDbSymbolTableRecord
100
AcDbLinetypeTableRecord
  2
PHANTOM3
 70
     0
  3
Phantom  ___ _ _ ___ _ _ ___ _ _ ___ _ _
 72
    65
 73
     6
 40
9.0
 49
4.0
 74
     0
 49
-1.0
 74
     0
 49
1.0
 74
     0
 49
-1.0
 74
     0
 49
1.0
 74
     0
 49
-1.0
 74
     0
  0
LTYPE
  5
7F0
330
69
100
AcDbSymbolTableRecord
100
AcDbLinetypeTableRecord
  2
HIDDEN3
 70
     0
  3
Hidden (.3x) _ _ _ _ _ _ _ _ _ _ _ _ _ _ _ _ _
 72
    65
 73
     2
 40
2.857499999999999
 49
1.905
 74
     0
 49
-0.9525
 74
     0
  0
LTYPE
  5
B20
330
69
100
AcDbSymbolTableRecord
100
AcDbLinetypeTableRecord
  2
CENS
 70
     0
  3
(一点鎖線１)---- - ---- - ---- - ---- - ---- - 
 72
    65
 73
     4
 40
7.0
 49
4.0
 74
     0
 49
-1.0
 74
     0
 49
1.0
 74
     0
 49
-1.0
 74
     0
  0
ENDTAB
  0
TABLE
  2
LAYER
  5
66
102
{ACAD_XDICTIONARY
360
B21
102
}
330
0
100
AcDbSymbolTable
 70
    10
  0
LAYER
  5
5E
330
66
100
AcDbSymbolTableRecord
100
AcDbLayerTableRecord
  2
0
 70
     0
 62
     7
  6
CONTINUOUS
  0
LAYER
  5
3E
330
66
100
AcDbSymbolTableRecord
100
AcDbLayerTableRecord
  2
CENTER
 70
     0
 62
     3
  6
SEKKEI_A2_
  0
LAYER
  5
2B5
330
66
100
AcDbSymbolTableRecord
100
AcDbLayerTableRecord
  2
HIDS
 70
     0
 62
     1
  6
HIDDEN3
  0
LAYER
  5
2BA
330
66
100
AcDbSymbolTableRecord
100
AcDbLayerTableRecord
  2
HOJO
 70
     0
 62
     4
  6
CONTINUOUS
  0
LAYER
  5
3FA
330
66
100
AcDbSymbolTableRecord
100
AcDbLayerTableRecord
  2
TITLE
 70
     0
 62
     4
  6
CONTINUOUS
  0
LAYER
  5
478
330
66
100
AcDbSymbolTableRecord
100
AcDbLayerTableRecord
  2
PHAS
 70
     0
 62
     2
  6
PHANTOM3
  0
ENDTAB
  0
TABLE
  2
STYLE
  5
67
330
0
100
AcDbSymbolTable
 70
     2
  0
STYLE
  5
16
330
67
100
AcDbSymbolTableRecord
100
AcDbTextStyleTableRecord
  2
STANDARD
 70
     0
 40
0.0
 41
1.0
 50
0.0
 71
     0
 42
2.0
  3
simplex.shx
  4
extfont.shx
  0
ENDTAB
  0
TABLE
  2
VIEW
  5
6C
330
0
100
AcDbSymbolTable
 70
     0
  0
ENDTAB
  0
TABLE
  2
UCS
  5
6D
330
0
100
AcDbSymbolTable
 70
     0
  0
ENDTAB
  0
TABLE
  2
APPID
  5
70
330
0
100
AcDbSymbolTable
 70
     1
  0
APPID
  5
71
330
70
100
AcDbSymbolTableRecord
100
AcDbRegAppTableRecord
  2
ACAD
 70
     0
  0
ENDTAB
  0
TABLE
  2
DIMSTYLE
  5
72
330
0
100
AcDbSymbolTable
 70
     1
  0
DIMSTYLE
105
73
330
72
100
AcDbSymbolTableRecord
100
AcDbDimStyleTableRecord
  2
STANDARD
 70
     0
  3

  4

  5

  6

  7

 40
3.0
 41
1.8
 42
0.625
 43
3.75
 44
0.8
 45
0.0
 46
0.0
 47
0.0
 48
0.0
140
1.8
141
2.5
142
0.0
143
0.0394
144
1.0
145
0.0
146
1.0
147
0.75
 71
     0
 72
     0
 73
     0
 74
     0
 75
     0
 76
     0
 77
     1
 78
     8
170
     0
171
     4
172
     1
173
     0
174
     0
175
     0
176
     0
177
     0
178
     0
270
     8
271
     2
272
     2
273
     8
274
     4
340
16
275
     0
280
     0
281
     0
282
     0
283
     1
284
     0
285
     0
286
     0
287
     3
288
     0
  0
ENDTAB
  0
TABLE
  2
BLOCK_RECORD
  5
1
330
0
100
AcDbSymbolTable
 70
    56
  0
BLOCK_RECORD
  5
2
102
{ACAD_XDICTIONARY
360
1AB6
102
}
330
1
100
AcDbSymbolTableRecord
100
AcDbBlockTableRecord
  2
*MODEL_SPACE
  0
BLOCK_RECORD
  5
1A8F
102
{ACAD_XDICTIONARY
360
1AB8
102
}
330
1
100
AcDbSymbolTableRecord
100
AcDbBlockTableRecord
  2
*PAPER_SPACE
  0
ENDTAB
  0
ENDSEC
  0
SECTION
  2
BLOCKS
  0
BLOCK
  5
5D
330
2
100
AcDbEntity
  8
0
100
AcDbBlockBegin
  2
*MODEL_SPACE
 70
     0
 10
0.0
 20
0.0
 30
0.0
  3
*MODEL_SPACE
  1

  0
ENDBLK
  5
5F
330
2
100
AcDbEntity
  8
0
100
AcDbBlockEnd
  0
BLOCK
  5
1A91
330
1A8F
100
AcDbEntity
 67
     1
  8
0
100
AcDbBlockBegin
  2
*PAPER_SPACE
 70
     0
 10
0.0
 20
0.0
 30
0.0
  3
*PAPER_SPACE
  1

  0
ENDBLK
  5
1A92
330
1A8F
100
AcDbEntity
 67
     1
  8
0
100
AcDbBlockEnd
  0
ENDSEC
  0
SECTION
  2
ENTITIES
  0
TEXT
  5
FDB
330
2
100
AcDbEntity
  8
TITLE
100
AcDbText
 10
335.5159307507349
 20
652.186428410413
 30
0.0
 40
7.5
  1
AFCZ22S-40~60M200S3
100
AcDbText
  0
TEXT
  5
FDC
330
2
100
AcDbEntity
  8
TITLE
100
AcDbText
 10
335.5159307507349
 20
640.686428410413
 30
0.0
 40
7.5
  1
AFCZ22S-40~60L200S3
100
AcDbText
  0
LINE
  5
FDE
330
2
100
AcDbEntity
  8
CENTER
100
AcDbLine
 10
277.4300984965475
 20
385.90615402936
 30
0.0
 11
39.64009849654576
 21
385.90615402936
 31
0.0
  0
LINE
  5
FDF
330
2
100
AcDbEntity
  8
CENTER
100
AcDbLine
 10
216.4300984965475
 20
324.90615402936
 30
0.0
 11
216.4300984965475
 21
446.90615402936
 31
0.0
  0
LINE
  5
FE0
330
2
100
AcDbEntity
  8
CENTER
100
AcDbLine
 10
631.1661646383795
 20
575.0151667484301
 30
0.0
 11
631.1661646383795
 21
721.0150597484303
 31
0.0
  0
LINE
  5
FE1
330
2
100
AcDbEntity
  8
CENTER
100
AcDbLine
 10
631.1661646383804
 20
455.9061540293591
 30
0.0
 11
631.1661646383804
 21
315.9061540293591
 31
0.0
  0
LINE
  5
FE2
330
2
100
AcDbEntity
  8
CENTER
100
AcDbLine
 10
684.7727663561804
 20
439.5127557471586
 30
0.0
 11
577.5595629205822
 21
332.2995523115614
 31
0.0
  0
LINE
  5
FE3
330
2
100
AcDbEntity
  8
CENTER
100
AcDbLine
 10
577.5595629205813
 20
439.5127557471564
 30
0.0
 11
684.7727663561776
 21
332.2995523115618
 31
0.0
  0
CIRCLE
  5
FE4
330
2
100
AcDbEntity
  8
CENTER
100
AcDbCircle
 10
631.1661646383795
 20
385.9061540293591
 30
0.0
 40
60.0
  0
LINE
  5
FE5
330
2
100
AcDbEntity
  8
CENTER
100
AcDbLine
 10
561.1661646383795
 20
385.9061540293591
 30
0.0
 11
807.9561646401048
 21
385.9061540293591
 31
0.0
  0
CIRCLE
  5
FE6
330
2
100
AcDbEntity
  8
HOJO
100
AcDbCircle
 10
588.7397577671868
 20
343.4797471581664
 30
0.0
 40
4.0
  0
CIRCLE
  5
FE7
330
2
100
AcDbEntity
  8
HOJO
100
AcDbCircle
 10
673.5925715095731
 20
343.4797471581664
 30
0.0
 40
4.0
  0
LINE
  5
FE8
330
2
100
AcDbEntity
  8
CENTER
100
AcDbLine
 10
570.4105169365207
 20
655.0151667484319
 30
0.0
 11
807.9561646401039
 21
655.0151667484319
 31
0.0
  0
CIRCLE
  5
FE9
330
2
100
AcDbEntity
  8
HOJO
100
AcDbCircle
 10
588.7397577671868
 20
428.3325609005518
 30
0.0
 40
4.0
  0
CIRCLE
  5
FEA
330
2
100
AcDbEntity
  8
HOJO
100
AcDbCircle
 10
673.5925715095731
 20
428.3325609005518
 30
0.0
 40
4.0
  0
LINE
  5
FEB
330
2
100
AcDbEntity
  8
CENTER
100
AcDbLine
 10
596.7397577671867
 20
428.3325609005518
 30
0.0
 11
580.7397577671868
 21
428.3325609005518
 31
0.0
  0
LINE
  5
FEC
330
2
100
AcDbEntity
  8
CENTER
100
AcDbLine
 10
588.7397577671868
 20
420.3325609005518
 30
0.0
 11
588.7397577671868
 21
436.3325609005518
 31
0.0
  0
LINE
  5
FED
330
2
100
AcDbEntity
  8
CENTER
100
AcDbLine
 10
596.7397577671867
 20
343.4797471581682
 30
0.0
 11
580.7397577671868
 21
343.4797471581682
 31
0.0
  0
LINE
  5
FEE
330
2
100
AcDbEntity
  8
CENTER
100
AcDbLine
 10
588.7397577671868
 20
351.4797471581682
 30
0.0
 11
588.7397577671868
 21
335.4797471581682
 31
0.0
  0
LINE
  5
FEF
330
2
100
AcDbEntity
  8
CENTER
100
AcDbLine
 10
673.5925715095714
 20
351.4797471581682
 30
0.0
 11
673.5925715095714
 21
335.4797471581682
 31
0.0
  0
LINE
  5
FF0
330
2
100
AcDbEntity
  8
CENTER
100
AcDbLine
 10
665.5925715095714
 20
343.4797471581664
 30
0.0
 11
681.5925715095714
 21
343.4797471581664
 31
0.0
  0
LINE
  5
FF1
330
2
100
AcDbEntity
  8
CENTER
100
AcDbLine
 10
665.5925715095714
 20
428.3325609005518
 30
0.0
 11
681.5925715095714
 21
428.3325609005518
 31
0.0
  0
LINE
  5
FF2
330
2
100
AcDbEntity
  8
CENTER
100
AcDbLine
 10
673.5925715095714
 20
420.3325609005518
 30
0.0
 11
673.5925715095714
 21
436.3325609005518
 31
0.0
  0
LINE
  5
FF3
330
2
100
AcDbEntity
  8
0
100
AcDbLine
 10
580.7421379125476
 20
617.0151667509767
 30
0.0
 11
681.5858279303179
 21
617.0151667509767
 31
0.0
  0
LINE
  5
FF4
330
2
100
AcDbEntity
  8
0
100
AcDbLine
 10
586.1661646383795
 20
612.0151667509767
 30
0.0
 11
676.1661646383795
 21
612.015166750984
 31
0.0
  0
LINE
  5
FF5
330
2
100
AcDbEntity
  8
0
100
AcDbLine
 10
580.7421379125476
 20
617.0151667509767
 30
0.0
 11
580.1661646383795
 21
683.015166748432
 31
0.0
  0
LINE
  5
FF6
330
2
100
AcDbEntity
  8
0
100
AcDbLine
 10
586.1661646383795
 20
617.0151667509767
 30
0.0
 11
586.1661646383795
 21
612.0151667509767
 31
0.0
  0
LINE
  5
FF7
330
2
100
AcDbEntity
  8
0
100
AcDbLine
 10
754.9561646401039
 20
691.015166748432
 30
0.0
 11
754.9561646401039
 21
619.0151667484319
 31
0.0
  0
LINE
  5
FF8
330
2
100
AcDbEntity
  8
0
100
AcDbLine
 10
717.1137272748853
 20
619.0151667509766
 30
0.0
 11
683.090248481792
 21
619.0151667509767
 31
0.0
  0
LINE
  5
FF9
330
2
100
AcDbEntity
  8
0
100
AcDbLine
 10
676.1661646383795
 20
617.0151667509767
 30
0.0
 11
676.1661646383795
 21
612.0151667509767
 31
0.0
  0
LINE
  5
FFB
330
2
100
AcDbEntity
  8
0
100
AcDbLine
 10
744.9044783819467
 20
619.0151667484319
 30
0.0
 11
754.9561646401039
 21
619.0151667484319
 31
0.0
  0
LINE
  5
FFC
330
2
100
AcDbEntity
  8
0
100
AcDbLine
 10
744.9044783819467
 20
691.015166748432
 30
0.0
 11
754.9561646401039
 21
691.015166748432
 31
0.0
  0
LINE
  5
FFD
330
2
100
AcDbEntity
  8
0
100
AcDbLine
 10
754.9561646401039
 20
691.015166748432
 30
0.0
 11
754.9561646401039
 21
619.0151667484319
 31
0.0
  0
ARC
  5
FFE
330
2
100
AcDbEntity
  8
0
100
AcDbCircle
 10
521.540960316393
 20
412.608282959682
 30
0.0
 40
60.0
100
AcDbArc
 50
354.1053016136495
 51
11.80506781044405
  0
LINE
  5
FFF
330
2
100
AcDbEntity
  8
0
100
AcDbLine
 10
742.9561646383795
 20
420.4061540293591
 30
0.0
 11
742.9561646383795
 21
351.4061540293591
 31
0.0
  0
LINE
  5
1000
330
2
100
AcDbEntity
  8
0
100
AcDbLine
 10
754.9561646383795
 20
422.4061540293591
 30
0.0
 11
754.9561646383795
 21
349.4061540293591
 31
0.0
  0
LINE
  5
1001
330
2
100
AcDbEntity
  8
0
100
AcDbLine
 10
719.1661646383795
 20
355.9061540293591
 30
0.0
 11
719.1661646383795
 21
415.9061540293591
 31
0.0
  0
LINE
  5
1002
330
2
100
AcDbEntity
  8
0
100
AcDbLine
 10
682.1661646383841
 20
428.9061540293572
 30
0.0
 11
682.1661646383786
 21
342.9061540293573
 31
0.0
  0
CIRCLE
  5
1003
330
2
100
AcDbEntity
  8
0
100
AcDbCircle
 10
631.1661646383804
 20
385.9061540293591
 30
0.0
 40
34.0
  0
CIRCLE
  5
1004
330
2
100
AcDbEntity
  8
0
100
AcDbCircle
 10
631.1661646383804
 20
385.9061540293591
 30
0.0
 40
45.0
  0
CIRCLE
  5
1005
330
2
100
AcDbEntity
  8
0
100
AcDbCircle
 10
631.1661646383804
 20
385.9061540293591
 30
0.0
 40
26.0
  0
LINE
  5
1006
330
2
100
AcDbEntity
  8
0
100
AcDbLine
 10
713.1661646383795
 20
349.9061540293591
 30
0.0
 11
688.1661646383786
 21
349.9061540293591
 31
0.0
  0
ARC
  5
1007
330
2
100
AcDbEntity
  8
0
100
AcDbCircle
 10
631.1661646383777
 20
534.9061540293574
 30
0.0
 40
200.0
100
AcDbArc
 50
264.1053016135962
 51
275.8946983863771
  0
ARC
  5
1008
330
2
100
AcDbEntity
  8
0
100
AcDbCircle
 10
521.540960316393
 20
359.2040250990325
 30
0.0
 40
60.0
100
AcDbArc
 50
348.1949321895559
 51
5.894698386350537
  0
ARC
  5
1009
330
2
100
AcDbEntity
  8
0
100
AcDbCircle
 10
604.464035708052
 20
276.2809497073724
 30
0.0
 40
60.0
100
AcDbArc
 50
84.10530161362286
 51
101.8050678104681
  0
ARC
  5
100A
330
2
100
AcDbEntity
  8
0
100
AcDbCircle
 10
588.1661646383804
 20
342.9061540293591
 30
0.0
 40
8.0
100
AcDbArc
 50
180.0
 51
270.0
  0
LINE
  5
100B
330
2
100
AcDbEntity
  8
0
100
AcDbLine
 10
588.1661646383804
 20
334.9061540293591
 30
0.0
 11
591.1661646383777
 21
334.9061540293591
 31
0.0
  0
ARC
  5
100C
330
2
100
AcDbEntity
  8
0
100
AcDbCircle
 10
591.1661646383777
 20
339.9061540293573
 30
0.0
 40
5.0
100
AcDbArc
 50
269.9999999999739
 51
281.8050678104682
  0
ARC
  5
100D
330
2
100
AcDbEntity
  8
0
100
AcDbCircle
 10
585.1661646383777
 20
345.9061540293573
 30
0.0
 40
5.0
100
AcDbArc
 50
168.1949321895559
 51
180.0
  0
LINE
  5
100E
330
2
100
AcDbEntity
  8
0
100
AcDbLine
 10
580.1661646383804
 20
345.9061540293573
 30
0.0
 11
580.1661646383804
 21
342.9061540293591
 31
0.0
  0
CIRCLE
  5
100F
330
2
100
AcDbEntity
  8
0
100
AcDbCircle
 10
588.7397577671868
 20
343.4797471581645
 30
0.0
 40
3.2
  0
ARC
  5
1010
330
2
100
AcDbEntity
  8
0
100
AcDbCircle
 10
780.1661646383777
 20
385.9061540293573
 30
0.0
 40
200.0
100
AcDbArc
 50
174.1053016136494
 51
185.8946983863505
  0
ARC
  5
1011
330
2
100
AcDbEntity
  8
0
100
AcDbCircle
 10
657.8682935687025
 20
276.2809497073724
 30
0.0
 40
60.0
100
AcDbArc
 50
78.19493218953183
 51
95.89469838637716
  0
ARC
  5
1012
330
2
100
AcDbEntity
  8
0
100
AcDbCircle
 10
674.1661646383786
 20
342.9061540293591
 30
0.0
 40
8.0
100
AcDbArc
 50
270.0
 51
0.0
  0
ARC
  5
1013
330
2
100
AcDbEntity
  8
0
100
AcDbCircle
 10
671.1661646383777
 20
339.9061540293573
 30
0.0
 40
5.0
100
AcDbArc
 50
258.1949321895318
 51
270.0
  0
LINE
  5
1014
330
2
100
AcDbEntity
  8
0
100
AcDbLine
 10
671.1661646383777
 20
334.9061540293591
 30
0.0
 11
674.1661646383786
 21
334.9061540293591
 31
0.0
  0
CIRCLE
  5
1015
330
2
100
AcDbEntity
  8
0
100
AcDbCircle
 10
673.5925715095731
 20
343.4797471581645
 30
0.0
 40
3.2
  0
ARC
  5
1016
330
2
100
AcDbEntity
  8
0
100
AcDbCircle
 10
713.1661646383795
 20
355.9061540293591
 30
0.0
 40
6.0
100
AcDbArc
 50
270.0
 51
0.0
  0
ARC
  5
1017
330
2
100
AcDbEntity
  8
0
100
AcDbCircle
 10
744.9561646383795
 20
351.9061540293591
 30
0.0
 40
2.0
100
AcDbArc
 50
180.0
 51
270.0
  0
LINE
  5
1018
330
2
100
AcDbEntity
  8
0
100
AcDbLine
 10
713.1661646383795
 20
421.9061540293591
 30
0.0
 11
688.1661646383832
 21
421.9061540293591
 31
0.0
  0
ARC
  5
1019
330
2
100
AcDbEntity
  8
0
100
AcDbCircle
 10
631.1661646383777
 20
236.9061540293571
 30
0.0
 40
200.0
100
AcDbArc
 50
84.10530161362286
 51
95.89469838637716
  0
ARC
  5
101A
330
2
100
AcDbEntity
  8
0
100
AcDbCircle
 10
604.4640357080529
 20
495.531358351342
 30
0.0
 40
60.0
100
AcDbArc
 50
258.1949321895318
 51
275.8946983863771
  0
ARC
  5
101B
330
2
100
AcDbEntity
  8
0
100
AcDbCircle
 10
588.1661646383804
 20
428.9061540293591
 30
0.0
 40
8.0
100
AcDbArc
 50
90.0
 51
180.0
  0
CIRCLE
  5
101C
330
2
100
AcDbEntity
  8
0
100
AcDbCircle
 10
588.7397577671868
 20
428.33256090055
 30
0.0
 40
3.2
  0
ARC
  5
101D
330
2
100
AcDbEntity
  8
0
100
AcDbCircle
 10
585.1661646383777
 20
425.9061540293573
 30
0.0
 40
5.0
100
AcDbArc
 50
180.0
 51
191.805067810444
  0
LINE
  5
101E
330
2
100
AcDbEntity
  8
0
100
AcDbLine
 10
580.1661646383804
 20
428.9061540293591
 30
0.0
 11
580.1661646383804
 21
425.9061540293573
 31
0.0
  0
LINE
  5
101F
330
2
100
AcDbEntity
  8
0
100
AcDbLine
 10
588.1661646383804
 20
436.9061540293591
 30
0.0
 11
591.1661646383777
 21
436.9061540293591
 31
0.0
  0
ARC
  5
1020
330
2
100
AcDbEntity
  8
0
100
AcDbCircle
 10
591.1661646383777
 20
431.9061540293573
 30
0.0
 40
5.0
100
AcDbArc
 50
78.19493218953183
 51
90.0
  0
ARC
  5
1021
330
2
100
AcDbEntity
  8
0
100
AcDbCircle
 10
657.8682935687034
 20
495.5313583513402
 30
0.0
 40
60.0
100
AcDbArc
 50
264.1053016135962
 51
281.8050678104682
  0
ARC
  5
1022
330
2
100
AcDbEntity
  8
0
100
AcDbCircle
 10
674.1661646383841
 20
428.9061540293591
 30
0.0
 40
8.0
100
AcDbArc
 50
0.0
 51
90.0
  0
CIRCLE
  5
1023
330
2
100
AcDbEntity
  8
0
100
AcDbCircle
 10
673.5925715095731
 20
428.33256090055
 30
0.0
 40
3.2
  0
ARC
  5
1024
330
2
100
AcDbEntity
  8
0
100
AcDbCircle
 10
671.1661646383777
 20
431.9061540293555
 30
0.0
 40
5.0
100
AcDbArc
 50
89.99999999997395
 51
101.8050678104681
  0
LINE
  5
1025
330
2
100
AcDbEntity
  8
0
100
AcDbLine
 10
671.1661646383777
 20
436.9061540293591
 30
0.0
 11
674.1661646383832
 21
436.9061540293591
 31
0.0
  0
ARC
  5
1026
330
2
100
AcDbEntity
  8
0
100
AcDbCircle
 10
713.1661646383795
 20
415.9061540293591
 30
0.0
 40
6.0
100
AcDbArc
 50
0.0
 51
90.0
  0
ARC
  5
1027
330
2
100
AcDbEntity
  8
0
100
AcDbCircle
 10
744.9561646383795
 20
419.9061540293591
 30
0.0
 40
2.0
100
AcDbArc
 50
90.0
 51
180.0
  0
LINE
  5
1028
330
2
100
AcDbEntity
  8
0
100
AcDbLine
 10
754.9561646383795
 20
421.9061540293591
 30
0.0
 11
744.9561646383795
 21
421.9061540293591
 31
0.0
  0
LINE
  5
1029
330
2
100
AcDbEntity
  8
0
100
AcDbLine
 10
744.9561646383795
 20
349.9061540293591
 30
0.0
 11
754.9561646383795
 21
349.9061540293591
 31
0.0
  0
LINE
  5
102A
330
2
100
AcDbEntity
  8
0
100
AcDbLine
 10
104.6400984965457
 20
351.40615402936
 30
0.0
 11
104.6400984965457
 21
420.40615402936
 31
0.0
  0
LINE
  5
102B
330
2
100
AcDbEntity
  8
0
100
AcDbLine
 10
92.64009849654575
 20
349.40615402936
 30
0.0
 11
92.64009849654575
 21
422.40615402936
 31
0.0
  0
LINE
  5
102C
330
2
100
AcDbEntity
  8
0
100
AcDbLine
 10
102.6400984965462
 20
421.90615402936
 30
0.0
 11
92.64009849654575
 21
421.90615402936
 31
0.0
  0
ARC
  5
102D
330
2
100
AcDbEntity
  8
0
100
AcDbCircle
 10
102.6400984965462
 20
419.90615402936
 30
0.0
 40
2.0
100
AcDbArc
 50
0.0
 51
90.0
  0
LINE
  5
102E
330
2
100
AcDbEntity
  8
0
100
AcDbLine
 10
102.6400984965457
 20
349.90615402936
 30
0.0
 11
92.64009849654575
 21
349.90615402936
 31
0.0
  0
ARC
  5
102F
330
2
100
AcDbEntity
  8
0
100
AcDbCircle
 10
102.6400984965457
 20
351.90615402936
 30
0.0
 40
2.0
100
AcDbArc
 50
270.0
 51
0.0
  0
ARC
  5
1030
330
2
100
AcDbEntity
  8
0
100
AcDbCircle
 10
688.1661646383832
 20
427.9061540293591
 30
0.0
 40
6.0
100
AcDbArc
 50
180.0
 51
270.0
  0
ARC
  5
1031
330
2
100
AcDbEntity
  8
0
100
AcDbCircle
 10
688.1661646383786
 20
343.9061540293591
 30
0.0
 40
6.0
100
AcDbArc
 50
90.0
 51
180.0
  0
LINE
  5
1032
330
2
100
AcDbEntity
  8
0
100
AcDbLine
 10
663.2347870887665
 20
598.0151667484319
 30
0.0
 11
599.0975421879925
 21
598.0151667484319
 31
0.0
  0
LINE
  5
1033
330
2
100
AcDbEntity
  8
0
100
AcDbLine
 10
596.7446779699189
 20
610.0849657418352
 30
0.0
 11
597.0987605339546
 21
599.9453677550268
 31
0.0
  0
LINE
  5
1034
330
2
100
AcDbEntity
  8
0
100
AcDbLine
 10
665.5876513068401
 20
610.0849657418352
 30
0.0
 11
665.2335687428044
 21
599.9453677550268
 31
0.0
  0
ARC
  5
1035
330
2
100
AcDbEntity
  8
0
100
AcDbCircle
 10
663.2347870887665
 20
600.015166748432
 30
0.0
 40
2.0
100
AcDbArc
 50
270.0
 51
357.9999999999963
  0
ARC
  5
1036
330
2
100
AcDbEntity
  8
0
100
AcDbCircle
 10
667.5864329608789
 20
610.0151667484319
 30
0.0
 40
2.0
100
AcDbArc
 50
90.0
 51
177.9999999999963
  0
ARC
  5
1037
330
2
100
AcDbEntity
  8
0
100
AcDbCircle
 10
599.0975421879925
 20
600.015166748432
 30
0.0
 40
2.0
100
AcDbArc
 50
182.0000000000036
 51
270.0
  0
ARC
  5
1038
330
2
100
AcDbEntity
  8
0
100
AcDbCircle
 10
594.7458963158801
 20
610.0151667484319
 30
0.0
 40
2.0
100
AcDbArc
 50
2.000000000003654
 51
90.0
  0
LINE
  5
1039
330
2
100
AcDbEntity
  8
0
100
AcDbLine
 10
114.1400984982692
 20
410.40615402936
 30
0.0
 11
114.1400984982692
 21
361.4061540293582
 31
0.0
  0
ARC
  5
103A
330
2
100
AcDbEntity
  8
0
100
AcDbCircle
 10
126.4300984965475
 20
413.90615402936
 30
0.0
 40
2.0
100
AcDbArc
 50
270.0
 51
0.0
  0
LINE
  5
103B
330
2
100
AcDbEntity
  8
0
100
AcDbLine
 10
109.6400984965457
 20
413.40615402936
 30
0.0
 11
111.1400984982701
 21
413.40615402936
 31
0.0
  0
LINE
  5
103C
330
2
100
AcDbEntity
  8
0
100
AcDbLine
 10
126.4300223399695
 20
411.90615402936
 30
0.0
 11
114.7108127125411
 21
411.90615402936
 31
0.0
  0
LINE
  5
103D
330
2
100
AcDbEntity
  8
0
100
AcDbLine
 10
123.4300984965475
 20
407.90615402936
 30
0.0
 11
118.7394405750547
 21
407.90615402936
 31
0.0
  0
ARC
  5
103E
330
2
100
AcDbEntity
  8
0
100
AcDbCircle
 10
114.7108127125411
 20
413.90615402936
 30
0.0
 40
2.0
100
AcDbArc
 50
224.4270040008595
 51
270.0
  0
ARC
  5
103F
330
2
100
AcDbEntity
  8
0
100
AcDbCircle
 10
111.1400984982692
 20
410.40615402936
 30
0.0
 40
3.0
100
AcDbArc
 50
0.0
 51
90.0
  0
ARC
  5
1040
330
2
100
AcDbEntity
  8
0
100
AcDbCircle
 10
109.6400984965457
 20
418.40615402936
 30
0.0
 40
5.0
100
AcDbArc
 50
180.0
 51
270.0
  0
LINE
  5
1041
330
2
100
AcDbEntity
  8
0
100
AcDbLine
 10
125.4300984965484
 20
383.40615402936
 30
0.0
 11
117.1400984982692
 21
383.40615402936
 31
0.0
  0
ARC
  5
1042
330
2
100
AcDbEntity
  8
0
100
AcDbCircle
 10
126.4300984965475
 20
357.90615402936
 30
0.0
 40
2.0
100
AcDbArc
 50
0.0
 51
90.0
  0
LINE
  5
1043
330
2
100
AcDbEntity
  8
0
100
AcDbLine
 10
109.6400984965457
 20
358.4061540293582
 30
0.0
 11
111.1400984982701
 21
358.4061540293582
 31
0.0
  0
ARC
  5
1044
330
2
100
AcDbEntity
  8
0
100
AcDbCircle
 10
111.1400984982692
 20
361.4061540293582
 30
0.0
 40
3.0
100
AcDbArc
 50
270.0
 51
0.0
  0
LINE
  5
1045
330
2
100
AcDbEntity
  8
0
100
AcDbLine
 10
123.4300984965475
 20
363.90615402936
 30
0.0
 11
118.7394405750547
 21
363.90615402936
 31
0.0
  0
LINE
  5
1046
330
2
100
AcDbEntity
  8
0
100
AcDbLine
 10
126.4300223399695
 20
359.90615402936
 30
0.0
 11
114.7108127125411
 21
359.90615402936
 31
0.0
  0
ARC
  5
1047
330
2
100
AcDbEntity
  8
0
100
AcDbCircle
 10
114.7108127125411
 20
357.90615402936
 30
0.0
 40
2.0
100
AcDbArc
 50
90.0
 51
135.5729959991404
  0
ARC
  5
1048
330
2
100
AcDbEntity
  8
0
100
AcDbCircle
 10
109.6400984965457
 20
353.4061540293582
 30
0.0
 40
5.0
100
AcDbArc
 50
90.0
 51
180.0
  0
ARC
  5
1049
330
2
100
AcDbEntity
  8
0
100
AcDbCircle
 10
125.4300984965484
 20
380.40615402936
 30
0.0
 40
3.0
100
AcDbArc
 50
0.0
 51
90.0
  0
ARC
  5
104A
330
2
100
AcDbEntity
  8
0
100
AcDbCircle
 10
117.1400984982692
 20
380.40615402936
 30
0.0
 40
3.0
100
AcDbArc
 50
90.0
 51
180.0
  0
LINE
  5
104B
330
2
100
AcDbEntity
  8
0
100
AcDbLine
 10
125.4300984965484
 20
388.40615402936
 30
0.0
 11
117.1400984982692
 21
388.40615402936
 31
0.0
  0
ARC
  5
104C
330
2
100
AcDbEntity
  8
0
100
AcDbCircle
 10
125.4300984965484
 20
391.40615402936
 30
0.0
 40
3.0
100
AcDbArc
 50
270.0
 51
0.0
  0
ARC
  5
104D
330
2
100
AcDbEntity
  8
0
100
AcDbCircle
 10
117.1400984982692
 20
391.40615402936
 30
0.0
 40
3.0
100
AcDbArc
 50
180.0
 51
270.0
  0
ARC
  5
104E
330
2
100
AcDbEntity
  8
0
100
AcDbCircle
 10
722.1661646383786
 20
380.4061540293591
 30
0.0
 40
3.0
100
AcDbArc
 50
90.0
 51
180.0
  0
LINE
  5
104F
330
2
100
AcDbEntity
  8
0
100
AcDbLine
 10
722.1661646383786
 20
383.4061540293591
 30
0.0
 11
730.4561646366578
 21
383.4061540293591
 31
0.0
  0
ARC
  5
1050
330
2
100
AcDbEntity
  8
0
100
AcDbCircle
 10
730.4561646366578
 20
380.4061540293591
 30
0.0
 40
3.0
100
AcDbArc
 50
0.0
 51
90.0
  0
ARC
  5
1051
330
2
100
AcDbEntity
  8
0
100
AcDbCircle
 10
730.4561646366578
 20
391.4061540293591
 30
0.0
 40
3.0
100
AcDbArc
 50
270.0
 51
0.0
  0
LINE
  5
1052
330
2
100
AcDbEntity
  8
0
100
AcDbLine
 10
722.1661646383786
 20
388.4061540293591
 30
0.0
 11
730.4561646366578
 21
388.4061540293591
 31
0.0
  0
ARC
  5
1053
330
2
100
AcDbEntity
  8
0
100
AcDbCircle
 10
722.1661646383786
 20
391.4061540293591
 30
0.0
 40
3.0
100
AcDbArc
 50
180.0
 51
270.0
  0
LINE
  5
1054
330
2
100
AcDbEntity
  8
0
100
AcDbLine
 10
721.1662407949575
 20
411.9061540293591
 30
0.0
 11
732.8854504223859
 21
411.9061540293591
 31
0.0
  0
ARC
  5
1055
330
2
100
AcDbEntity
  8
0
100
AcDbCircle
 10
721.1661646383795
 20
413.9061540293591
 30
0.0
 40
2.0
100
AcDbArc
 50
180.0
 51
270.0
  0
ARC
  5
1056
330
2
100
AcDbEntity
  8
0
100
AcDbCircle
 10
732.8854504223859
 20
413.9061540293591
 30
0.0
 40
2.0
100
AcDbArc
 50
270.0
 51
315.5729959991404
  0
ARC
  5
1057
330
2
100
AcDbEntity
  8
0
100
AcDbCircle
 10
736.4561646366578
 20
410.406154029359
 30
0.0
 40
3.0
100
AcDbArc
 50
90.0
 51
180.0
  0
LINE
  5
1058
330
2
100
AcDbEntity
  8
0
100
AcDbLine
 10
733.4561646366578
 20
361.4061540293572
 30
0.0
 11
733.4561646366578
 21
410.406154029359
 31
0.0
  0
ARC
  5
1059
330
2
100
AcDbEntity
  8
0
100
AcDbCircle
 10
737.9561646383812
 20
418.4061540293591
 30
0.0
 40
5.0
100
AcDbArc
 50
270.0
 51
0.0
  0
LINE
  5
105A
330
2
100
AcDbEntity
  8
0
100
AcDbLine
 10
737.9561646383812
 20
413.4061540293591
 30
0.0
 11
736.4561646366569
 21
413.4061540293591
 31
0.0
  0
ARC
  5
105B
330
2
100
AcDbEntity
  8
0
100
AcDbCircle
 10
736.4561646366578
 20
361.4061540293572
 30
0.0
 40
3.0
100
AcDbArc
 50
180.0
 51
270.0
  0
LINE
  5
105C
330
2
100
AcDbEntity
  8
0
100
AcDbLine
 10
721.1662407949575
 20
359.9061540293591
 30
0.0
 11
732.8854504223859
 21
359.9061540293591
 31
0.0
  0
ARC
  5
105D
330
2
100
AcDbEntity
  8
0
100
AcDbCircle
 10
732.8854504223859
 20
357.9061540293591
 30
0.0
 40
2.0
100
AcDbArc
 50
44.42700400085959
 51
90.0
  0
ARC
  5
105E
330
2
100
AcDbEntity
  8
0
100
AcDbCircle
 10
721.1661646383795
 20
357.9061540293591
 30
0.0
 40
2.0
100
AcDbArc
 50
90.0
 51
180.0
  0
LINE
  5
105F
330
2
100
AcDbEntity
  8
0
100
AcDbLine
 10
737.9561646383812
 20
358.4061540293573
 30
0.0
 11
736.4561646366569
 21
358.4061540293573
 31
0.0
  0
ARC
  5
1060
330
2
100
AcDbEntity
  8
0
100
AcDbCircle
 10
737.9561646383812
 20
353.4061540293573
 30
0.0
 40
5.0
100
AcDbArc
 50
0.0
 51
90.0
  0
LINE
  5
1061
330
2
100
AcDbEntity
  8
0
100
AcDbLine
 10
713.1792576008888
 20
683.015166748432
 30
0.0
 11
713.8869629507703
 21
655.9889898001243
 31
0.0
  0
LINE
  5
1062
330
2
100
AcDbEntity
  8
0
100
AcDbLine
 10
733.3796632779435
 20
679.593697593355
 30
0.0
 11
732.7360517969523
 21
655.0151667484319
 31
0.0
  0
LINE
  5
1063
330
2
100
AcDbEntity
  8
0
100
AcDbLine
 10
742.9051637319957
 20
689.0675206450473
 30
0.0
 11
742.0134714636228
 21
655.0151667484319
 31
0.0
  0
LINE
  5
1064
330
2
100
AcDbEntity
  8
0
100
AcDbLine
 10
733.3796632779435
 20
630.436635903507
 30
0.0
 11
732.7360517969523
 21
655.0151667484319
 31
0.0
  0
LINE
  5
1065
330
2
100
AcDbEntity
  8
0
100
AcDbLine
 10
742.9051637319957
 20
620.9628128518166
 30
0.0
 11
742.0134714636264
 21
655.0151667484319
 31
0.0
  0
ARC
  5
1066
330
2
100
AcDbEntity
  8
0
100
AcDbCircle
 10
736.37863525287
 20
630.5151667484302
 30
0.0
 40
3.0
100
AcDbArc
 50
181.4999999999897
 51
270.0
  0
ARC
  5
1067
330
2
100
AcDbEntity
  8
0
100
AcDbCircle
 10
732.8079210385972
 20
627.0151667484319
 30
0.0
 40
2.0
100
AcDbArc
 50
44.42700400085959
 51
90.0
  0
ARC
  5
1068
330
2
100
AcDbEntity
  8
0
100
AcDbCircle
 10
728.7792931760836
 20
628.0151667484319
 30
0.0
 40
5.0
100
AcDbArc
 50
18.20995686428471
 51
90.0
  0
ARC
  5
1069
330
2
100
AcDbEntity
  8
0
100
AcDbCircle
 10
737.8627999521581
 20
622.5151667484301
 30
0.0
 40
5.0
100
AcDbArc
 50
1.499999999989693
 51
90.0
  0
ARC
  5
106A
330
2
100
AcDbEntity
  8
0
100
AcDbCircle
 10
744.9044783819467
 20
621.015166748432
 30
0.0
 40
2.0
100
AcDbArc
 50
181.4999999999897
 51
270.0
  0
LINE
  5
106B
330
2
100
AcDbEntity
  8
0
100
AcDbLine
 10
736.37863525287
 20
682.515166748432
 30
0.0
 11
737.8627999521581
 21
682.515166748432
 31
0.0
  0
ARC
  5
106C
330
2
100
AcDbEntity
  8
0
100
AcDbCircle
 10
736.37863525287
 20
679.5151667484319
 30
0.0
 40
3.0
100
AcDbArc
 50
90.0
 51
178.5000000000102
  0
ARC
  5
106D
330
2
100
AcDbEntity
  8
0
100
AcDbCircle
 10
728.7792931760836
 20
682.0151667484319
 30
0.0
 40
5.0
100
AcDbArc
 50
270.0
 51
341.7900431357153
  0
ARC
  5
106E
330
2
100
AcDbEntity
  8
0
100
AcDbCircle
 10
732.8079210385972
 20
683.015166748432
 30
0.0
 40
2.0
100
AcDbArc
 50
269.9999999999478
 51
315.5729959991404
  0
ARC
  5
106F
330
2
100
AcDbEntity
  8
0
100
AcDbCircle
 10
737.8627999521581
 20
687.515166748432
 30
0.0
 40
5.0
100
AcDbArc
 50
270.0
 51
358.5000000000103
  0
ARC
  5
1070
330
2
100
AcDbEntity
  8
0
100
AcDbCircle
 10
714.8866202757458
 20
656.0151667484319
 30
0.0
 40
1.0
100
AcDbArc
 50
181.4999999999897
 51
270.0
  0
ARC
  5
1071
330
2
100
AcDbEntity
  8
0
100
AcDbCircle
 10
744.9044783819467
 20
689.0151667484319
 30
0.0
 40
2.0
100
AcDbArc
 50
90.0
 51
178.5000000000102
  0
LINE
  5
1072
330
2
100
AcDbEntity
  8
0
100
AcDbLine
 10
724.1661646381857
 20
633.015166748432
 30
0.0
 11
728.7792931760836
 21
633.015166748432
 31
0.0
  0
LINE
  5
1073
330
2
100
AcDbEntity
  8
0
100
AcDbLine
 10
721.1662407951521
 20
629.015166748432
 30
0.0
 11
732.8079210385972
 21
629.015166748432
 31
0.0
  0
LINE
  5
1074
330
2
100
AcDbEntity
  8
0
100
AcDbLine
 10
722.3626333988309
 20
652.5151667484319
 30
0.0
 11
729.8790459881106
 21
652.5151667484319
 31
0.0
  0
LINE
  5
1075
330
2
100
AcDbEntity
  8
0
100
AcDbLine
 10
722.3626333986426
 20
657.515166748432
 30
0.0
 11
729.8790459881106
 21
657.515166748432
 31
0.0
  0
LINE
  5
1076
330
2
100
AcDbEntity
  8
0
100
AcDbLine
 10
724.1661646381849
 20
677.0151667484319
 30
0.0
 11
728.7792931760836
 21
677.0151667484319
 31
0.0
  0
LINE
  5
1077
330
2
100
AcDbEntity
  8
0
100
AcDbLine
 10
721.1662407951521
 20
681.0151667484319
 30
0.0
 11
732.8079210385972
 21
681.0151667484319
 31
0.0
  0
LINE
  5
1078
330
2
100
AcDbEntity
  8
0
100
AcDbLine
 10
624.0243938886164
 20
342.1290736227915
 30
0.0
 11
626.9043951299486
 21
342.1290736227915
 31
0.0
  0
LINE
  5
1079
330
2
100
AcDbEntity
  8
0
100
AcDbLine
 10
628.0243938886219
 20
350.1290736228024
 30
0.0
 11
624.0243938886164
 21
342.1290736227915
 31
0.0
  0
ARC
  5
107A
330
2
100
AcDbEntity
  8
0
100
AcDbCircle
 10
634.6643211286322
 20
347.4090736227994
 30
0.0
 40
2.720000000003957
100
AcDbArc
 50
307.5189678668324
 51
90.0
  0
LINE
  5
107B
330
2
100
AcDbEntity
  8
0
100
AcDbLine
 10
636.3208665082916
 20
345.2517008211838
 30
0.0
 11
638.3079353881462
 21
342.1290736227915
 31
0.0
  0
LINE
  5
107C
330
2
100
AcDbEntity
  8
0
100
AcDbLine
 10
635.4279341468149
 20
342.1290736227915
 30
0.0
 11
638.3079353881462
 21
342.1290736227915
 31
0.0
  0
LINE
  5
107D
330
2
100
AcDbEntity
  8
0
100
AcDbLine
 10
629.5443938886242
 20
342.1290736227915
 30
0.0
 11
631.9443211286275
 21
342.1290736227896
 31
0.0
  0
LINE
  5
107E
330
2
100
AcDbEntity
  8
0
100
AcDbLine
 10
627.5043951299489
 20
343.329073622794
 30
0.0
 11
626.9043951299486
 21
342.1290736227915
 31
0.0
  0
LINE
  5
107F
330
2
100
AcDbEntity
  8
0
100
AcDbLine
 10
627.5043951299489
 20
343.329073622794
 30
0.0
 11
629.5443938886242
 21
343.3290736227922
 31
0.0
  0
LINE
  5
1080
330
2
100
AcDbEntity
  8
0
100
AcDbLine
 10
629.5443938886242
 20
343.3290736227922
 30
0.0
 11
629.5443938886242
 21
342.1290736227915
 31
0.0
  0
LINE
  5
1081
330
2
100
AcDbEntity
  8
0
100
AcDbLine
 10
628.7843951299514
 20
345.8890736227953
 30
0.0
 11
629.5443938886242
 21
345.8890736227953
 31
0.0
  0
LINE
  5
1082
330
2
100
AcDbEntity
  8
0
100
AcDbLine
 10
629.5443938886242
 20
347.4090711401426
 30
0.0
 11
629.5443938886242
 21
345.8890736227953
 31
0.0
  0
LINE
  5
1083
330
2
100
AcDbEntity
  8
0
100
AcDbLine
 10
629.5443938886242
 20
347.4090711401426
 30
0.0
 11
628.7843951299514
 21
345.8890736227953
 31
0.0
  0
LINE
  5
1084
330
2
100
AcDbEntity
  8
0
100
AcDbLine
 10
632.2843938886276
 20
347.0690736227974
 30
0.0
 11
635.4279341468149
 21
342.1290736227915
 31
0.0
  0
LINE
  5
1085
330
2
100
AcDbEntity
  8
0
100
AcDbLine
 10
631.9443211286275
 20
347.4090736227994
 30
0.0
 11
631.9443211286275
 21
342.1290736227896
 31
0.0
  0
LINE
  5
1086
330
2
100
AcDbEntity
  8
0
100
AcDbLine
 10
631.9443211286275
 20
347.4090736227994
 30
0.0
 11
634.4943938886303
 21
347.4090736227994
 31
0.0
  0
LINE
  5
1087
330
2
100
AcDbEntity
  8
0
100
AcDbLine
 10
632.2843938886276
 20
347.0690736227974
 30
0.0
 11
634.4943938886322
 21
347.0690736227974
 31
0.0
  0
ARC
  5
1088
330
2
100
AcDbEntity
  8
0
100
AcDbCircle
 10
634.4943938886322
 20
347.2390736227975
 30
0.0
 40
0.1700000000002474
100
AcDbArc
 50
270.0
 51
90.0
  0
LINE
  5
1089
330
2
100
AcDbEntity
  8
0
100
AcDbLine
 10
628.0243938886219
 20
350.1290736228024
 30
0.0
 11
634.6643211286322
 21
350.1290736228024
 31
0.0
  0
LINE
  5
108A
330
2
100
AcDbEntity
  8
0
100
AcDbLine
 10
736.37863525287
 20
627.5151667484301
 30
0.0
 11
737.8627999521581
 21
627.5151667484301
 31
0.0
  0
ARC
  5
108B
330
2
100
AcDbEntity
  8
0
100
AcDbCircle
 10
729.8790459881106
 20
649.515166748432
 30
0.0
 40
3.0
100
AcDbArc
 50
1.499999999989693
 51
90.0
  0
ARC
  5
108C
330
2
100
AcDbEntity
  8
0
100
AcDbCircle
 10
729.8790459881106
 20
660.5151667484319
 30
0.0
 40
3.0
100
AcDbArc
 50
270.0
 51
358.5000000000103
  0
LINE
  5
108D
330
2
100
AcDbEntity
  8
0
100
AcDbLine
 10
588.1661646401039
 20
682.515166748432
 30
0.0
 11
588.166164640102
 21
618.5161249044782
 31
0.0
  0
LINE
  5
108E
330
2
100
AcDbEntity
  8
0
100
AcDbLine
 10
591.1661646400993
 20
682.515166748432
 30
0.0
 11
591.1661646401003
 21
618.5165120845836
 31
0.0
  0
LINE
  5
108F
330
2
100
AcDbEntity
  8
0
100
AcDbLine
 10
610.6260654629263
 20
682.515166748432
 30
0.0
 11
610.6260654629263
 21
618.519023580075
 31
0.0
  0
LINE
  5
1090
330
2
100
AcDbEntity
  8
0
100
AcDbLine
 10
651.7062638172742
 20
682.515166748432
 30
0.0
 11
651.7062638172733
 21
618.5243253919311
 31
0.0
  0
LINE
  5
1091
330
2
100
AcDbEntity
  8
0
100
AcDbLine
 10
671.1661646400994
 20
682.515166748432
 30
0.0
 11
671.1661646400994
 21
618.5268368874208
 31
0.0
  0
LINE
  5
1092
330
2
100
AcDbEntity
  8
0
100
AcDbLine
 10
674.1661646401012
 20
682.515166748432
 30
0.0
 11
674.1661646401012
 21
618.527224067528
 31
0.0
  0
LINE
  5
1093
330
2
100
AcDbEntity
  8
0
100
AcDbLine
 10
714.8866202757458
 20
655.0151667484319
 30
0.0
 11
719.410516936407
 21
655.0151667349878
 31
0.0
  0
LINE
  5
1094
330
2
100
AcDbEntity
  8
0
100
AcDbLine
 10
742.0134714636264
 20
655.0151667484319
 30
0.0
 11
754.9561646401039
 21
655.0151667484319
 31
0.0
  0
ARC
  5
1095
330
2
100
AcDbEntity
  8
0
100
AcDbCircle
 10
123.4300984965475
 20
358.90615402936
 30
0.0
 40
5.0
100
AcDbArc
 50
0.0
 51
90.0
  0
ARC
  5
1096
330
2
100
AcDbEntity
  8
0
100
AcDbCircle
 10
118.7394405750547
 20
358.90615402936
 30
0.0
 40
5.0
100
AcDbArc
 50
90.0
 51
161.7900431357152
  0
ARC
  5
1097
330
2
100
AcDbEntity
  8
0
100
AcDbCircle
 10
123.4300984965475
 20
412.90615402936
 30
0.0
 40
5.0
100
AcDbArc
 50
270.0
 51
0.0
  0
ARC
  5
1098
330
2
100
AcDbEntity
  8
0
100
AcDbCircle
 10
118.7394405750547
 20
412.90615402936
 30
0.0
 40
5.0
100
AcDbArc
 50
198.2099568642847
 51
270.0
  0
ARC
  5
1099
330
2
100
AcDbEntity
  8
0
100
AcDbCircle
 10
724.1661646383795
 20
412.9061540293609
 30
0.0
 40
5.0
100
AcDbArc
 50
180.0
 51
270.0
  0
LINE
  5
109A
330
2
100
AcDbEntity
  8
0
100
AcDbLine
 10
724.1661646383795
 20
407.9061540293609
 30
0.0
 11
728.8568225598724
 21
407.9061540293609
 31
0.0
  0
ARC
  5
109B
330
2
100
AcDbEntity
  8
0
100
AcDbCircle
 10
728.8568225598724
 20
412.9061540293609
 30
0.0
 40
5.0
100
AcDbArc
 50
270.0
 51
341.7900431357153
  0
ARC
  5
109C
330
2
100
AcDbEntity
  8
0
100
AcDbCircle
 10
724.1661646383795
 20
358.9061540293609
 30
0.0
 40
5.0
100
AcDbArc
 50
90.0
 51
180.0
  0
LINE
  5
109D
330
2
100
AcDbEntity
  8
0
100
AcDbLine
 10
724.1661646383795
 20
363.9061540293609
 30
0.0
 11
728.8568225598724
 21
363.9061540293609
 31
0.0
  0
ARC
  5
109E
330
2
100
AcDbEntity
  8
0
100
AcDbCircle
 10
728.8568225598724
 20
358.9061540293609
 30
0.0
 40
5.0
100
AcDbArc
 50
18.20995686428471
 51
90.0
  0
ARC
  5
109F
330
2
100
AcDbEntity
  8
0
100
AcDbCircle
 10
102.6400984965457
 20
351.40615402936
 30
0.0
 40
2.0
100
AcDbArc
 50
270.0
 51
0.0
  0
LINE
  5
10A0
330
2
100
AcDbEntity
  8
0
100
AcDbLine
 10
102.6400984965457
 20
349.40615402936
 30
0.0
 11
92.64009849654575
 21
349.40615402936
 31
0.0
  0
LINE
  5
10A1
330
2
100
AcDbEntity
  8
0
100
AcDbLine
 10
102.6400984965462
 20
422.40615402936
 30
0.0
 11
92.64009849654575
 21
422.40615402936
 31
0.0
  0
ARC
  5
10A2
330
2
100
AcDbEntity
  8
0
100
AcDbCircle
 10
102.6400984965462
 20
420.40615402936
 30
0.0
 40
2.0
100
AcDbArc
 50
0.0
 51
90.0
  0
LINE
  5
10A3
330
2
100
AcDbEntity
  8
0
100
AcDbLine
 10
754.9561646383795
 20
422.4061540293591
 30
0.0
 11
744.9561646383795
 21
422.4061540293591
 31
0.0
  0
ARC
  5
10A4
330
2
100
AcDbEntity
  8
0
100
AcDbCircle
 10
744.9561646383795
 20
420.4061540293591
 30
0.0
 40
2.0
100
AcDbArc
 50
90.0
 51
180.0
  0
LINE
  5
10A5
330
2
100
AcDbEntity
  8
0
100
AcDbLine
 10
744.9561646383795
 20
349.4061540293591
 30
0.0
 11
754.9561646383795
 21
349.4061540293591
 31
0.0
  0
ARC
  5
10A6
330
2
100
AcDbEntity
  8
0
100
AcDbCircle
 10
744.9561646383795
 20
351.4061540293591
 30
0.0
 40
2.0
100
AcDbArc
 50
180.0
 51
270.0
  0
LINE
  5
10A7
330
2
100
AcDbEntity
  8
CENTER
100
AcDbLine
 10
416.9866208785674
 20
325.1505063275012
 30
0.0
 11
416.9866208785674
 21
446.6618017312188
 31
0.0
  0
LINE
  5
10A8
330
2
100
AcDbEntity
  8
0
100
AcDbLine
 10
454.9866208785674
 20
335.4821273035499
 30
0.0
 11
454.9866208785674
 21
436.3301807551701
 31
0.0
  0
LINE
  5
10A9
330
2
100
AcDbEntity
  8
CENTER
100
AcDbLine
 10
496.9866208785683
 20
385.90615402936
 30
0.0
 11
330.986620878567
 21
385.90615402936
 31
0.0
  0
LINE
  5
10AA
330
2
100
AcDbEntity
  8
0
100
AcDbLine
 10
459.9866208785674
 20
340.90615402936
 30
0.0
 11
459.9866208785611
 21
430.90615402936
 31
0.0
  0
LINE
  5
10AB
330
2
100
AcDbEntity
  8
0
100
AcDbLine
 10
454.9866208785674
 20
340.90615402936
 30
0.0
 11
459.9866208785674
 21
340.90615402936
 31
0.0
  0
LINE
  5
10AC
330
2
100
AcDbEntity
  8
0
100
AcDbLine
 10
454.9866208785674
 20
430.90615402936
 30
0.0
 11
459.9866208785674
 21
430.90615402936
 31
0.0
  0
LINE
  5
10AD
330
2
100
AcDbEntity
  8
0
100
AcDbLine
 10
388.9866208785679
 20
436.90615402936
 30
0.0
 11
454.9866208785674
 21
436.3301807551701
 31
0.0
  0
LINE
  5
10AE
330
2
100
AcDbEntity
  8
0
100
AcDbLine
 10
388.9866208785679
 20
334.90615402936
 30
0.0
 11
454.9866208785674
 21
335.4821273035499
 31
0.0
  0
LINE
  5
10AF
330
2
100
AcDbEntity
  8
0
100
AcDbLine
 10
473.9866208785675
 20
417.9747764797461
 30
0.0
 11
473.9866208785692
 21
353.8375315789721
 31
0.0
  0
LINE
  5
10B0
330
2
100
AcDbEntity
  8
0
100
AcDbLine
 10
461.9168218851641
 20
351.4846673608985
 30
0.0
 11
472.0564198719735
 21
351.8387499249342
 31
0.0
  0
LINE
  5
10B1
330
2
100
AcDbEntity
  8
0
100
AcDbLine
 10
461.9168218851641
 20
420.3276406978197
 30
0.0
 11
472.0564198719726
 21
419.973558133784
 31
0.0
  0
ARC
  5
10B2
330
2
100
AcDbEntity
  8
0
100
AcDbCircle
 10
471.9866208785674
 20
417.9747764797461
 30
0.0
 40
2.0
100
AcDbArc
 50
0.0
 51
87.99999999999636
  0
ARC
  5
10B3
330
2
100
AcDbEntity
  8
0
100
AcDbCircle
 10
461.9866208785683
 20
422.3264223518594
 30
0.0
 40
2.0
100
AcDbArc
 50
180.0
 51
267.9999999999963
  0
ARC
  5
10B4
330
2
100
AcDbEntity
  8
0
100
AcDbCircle
 10
471.9866208785693
 20
353.8375315789721
 30
0.0
 40
2.0
100
AcDbArc
 50
272.0000000000036
 51
0.0
  0
ARC
  5
10B5
330
2
100
AcDbEntity
  8
0
100
AcDbCircle
 10
461.9866208785683
 20
349.4858857068606
 30
0.0
 40
2.0
100
AcDbArc
 50
92.00000000000365
 51
180.0
  0
LINE
  5
10B6
330
2
100
AcDbEntity
  8
0
100
AcDbLine
 10
388.9866208785679
 20
428.90615402936
 30
0.0
 11
453.9866208785674
 21
428.90615402936
 31
0.0
  0
LINE
  5
10B7
330
2
100
AcDbEntity
  8
0
100
AcDbLine
 10
388.9866208785679
 20
425.9061540293582
 30
0.0
 11
453.9866208785674
 21
425.9061540293582
 31
0.0
  0
LINE
  5
10B8
330
2
100
AcDbEntity
  8
0
100
AcDbLine
 10
388.9866208785679
 20
406.4462532065312
 30
0.0
 11
453.9866208785674
 21
406.4462532065312
 31
0.0
  0
LINE
  5
10B9
330
2
100
AcDbEntity
  8
0
100
AcDbLine
 10
388.9866208785656
 20
345.90615402936
 30
0.0
 11
453.9866208785647
 21
345.90615402936
 31
0.0
  0
LINE
  5
10BA
330
2
100
AcDbEntity
  8
0
100
AcDbLine
 10
388.9866208785679
 20
342.9061540293618
 30
0.0
 11
453.9866208785674
 21
342.9061540293618
 31
0.0
  0
LINE
  5
10BB
330
2
100
AcDbEntity
  8
0
100
AcDbLine
 10
388.9866208785656
 20
345.90615402936
 30
0.0
 11
453.9866208785647
 21
345.90615402936
 31
0.0
  0
LINE
  5
10BC
330
2
100
AcDbEntity
  8
0
100
AcDbLine
 10
388.9866208785679
 20
365.3660548521906
 30
0.0
 11
453.9866208785674
 21
365.3660548521906
 31
0.0
  0
LINE
  5
10BD
330
2
100
AcDbEntity
  8
0
100
AcDbLine
 10
719.4105169365234
 20
655.0151667484319
 30
0.0
 11
719.1136511210137
 21
620.9977136799797
 31
0.0
  0
ARC
  5
10BE
330
2
100
AcDbEntity
  8
0
100
AcDbCircle
 10
721.1662407951521
 20
627.0151667484319
 30
0.0
 40
2.0
100
AcDbArc
 50
90.0
 51
179.5000000000344
  0
ARC
  5
10BF
330
2
100
AcDbEntity
  8
0
100
AcDbCircle
 10
724.1750818981004
 20
628.0151667484319
 30
0.0
 40
5.0
100
AcDbArc
 50
90.0
 51
179.5000000000344
  0
ARC
  5
10C0
330
2
100
AcDbEntity
  8
0
100
AcDbCircle
 10
722.3626333988309
 20
649.515166748432
 30
0.0
 40
3.0
100
AcDbArc
 50
90.0
 51
179.5000000000344
  0
LINE
  5
10C1
330
2
100
AcDbEntity
  8
0
100
AcDbLine
 10
681.5858279303179
 20
617.0151667509767
 30
0.0
 11
682.1618012044841
 21
683.015166748432
 31
0.0
  0
ARC
  5
10C2
330
2
100
AcDbEntity
  8
0
100
AcDbCircle
 10
683.090248481792
 20
617.5151667509767
 30
0.0
 40
1.5
100
AcDbArc
 50
90.0
 51
179.5000000000344
  0
LINE
  5
10C3
330
2
100
AcDbEntity
  8
0
100
AcDbLine
 10
719.4105169362887
 20
655.0151667484319
 30
0.0
 11
719.1661646383805
 21
683.015166748432
 31
0.0
  0
ARC
  5
10C4
330
2
100
AcDbEntity
  8
0
100
AcDbCircle
 10
721.1662407951512
 20
683.015166748432
 30
0.0
 40
2.0
100
AcDbArc
 50
180.4999999995485
 51
270.0
  0
ARC
  5
10C5
330
2
100
AcDbEntity
  8
0
100
AcDbCircle
 10
724.1750818980912
 20
682.0151667484319
 30
0.0
 40
5.0
100
AcDbArc
 50
180.4999999995485
 51
270.0
  0
ARC
  5
10C6
330
2
100
AcDbEntity
  8
0
100
AcDbCircle
 10
722.3626333986426
 20
660.5151667484319
 30
0.0
 40
3.0
100
AcDbArc
 50
180.4999999995485
 51
270.0
  0
LINE
  5
10C7
330
2
100
AcDbEntity
  8
CENTER
100
AcDbLine
 10
268.1800984965507
 20
428.90615402936
 30
0.0
 11
250.6800984965507
 21
428.90615402936
 31
0.0
  0
CIRCLE
  5
10C8
330
2
100
AcDbEntity
  8
HOJO
100
AcDbCircle
 10
261.4300984965475
 20
417.40615402936
 30
0.0
 40
2.0
  0
CIRCLE
  5
10C9
330
2
100
AcDbEntity
  8
HOJO
100
AcDbCircle
 10
261.4300984965484
 20
354.40615402936
 30
0.0
 40
2.0
  0
LINE
  5
10CA
330
2
100
AcDbEntity
  8
CENTER
100
AcDbLine
 10
126.1800984965475
 20
415.40615402936
 30
0.0
 11
143.6800984965475
 21
415.40615402936
 31
0.0
  0
CIRCLE
  5
10CB
330
2
100
AcDbEntity
  8
HOJO
100
AcDbCircle
 10
146.4300984965475
 20
417.40615402936
 30
0.0
 40
2.0
  0
LINE
  5
10CC
330
2
100
AcDbEntity
  8
CENTER
100
AcDbLine
 10
146.4300984965475
 20
422.5793591101168
 30
0.0
 11
146.4300984965475
 21
412.2329489486032
 31
0.0
  0
LINE
  5
10CD
330
2
100
AcDbEntity
  8
CENTER
100
AcDbLine
 10
141.2568934157907
 20
417.40615402936
 30
0.0
 11
151.6033035773043
 21
417.40615402936
 31
0.0
  0
LINE
  5
10CE
330
2
100
AcDbEntity
  8
CENTER
100
AcDbLine
 10
134.9300984965466
 20
424.15615402936
 30
0.0
 11
134.9300984965475
 21
406.65615402936
 31
0.0
  0
LINE
  5
10CF
330
2
100
AcDbEntity
  8
CENTER
100
AcDbLine
 10
141.2568934157943
 20
354.40615402936
 30
0.0
 11
152.856810434735
 21
354.40615402936
 31
0.0
  0
LINE
  5
10D0
330
2
100
AcDbEntity
  8
CENTER
100
AcDbLine
 10
146.4300984965511
 20
347.8033283845865
 30
0.0
 11
146.4300984965511
 21
361.5466526816957
 31
0.0
  0
CIRCLE
  5
10D1
330
2
100
AcDbEntity
  8
HOJO
100
AcDbCircle
 10
146.4300984965493
 20
354.4061540293582
 30
0.0
 40
2.0
  0
ARC
  5
10D2
330
2
100
AcDbEntity
  8
0
100
AcDbCircle
 10
250.4300984965461
 20
337.849944159539
 30
0.0
 40
2.0
100
AcDbArc
 50
263.2401800668831
 51
0.0
  0
ARC
  5
10D3
330
2
100
AcDbEntity
  8
0
100
AcDbCircle
 10
259.4300984965475
 20
342.90615402936
 30
0.0
 40
8.0
100
AcDbArc
 50
270.0
 51
0.0
  0
ARC
  5
10D4
330
2
100
AcDbEntity
  8
0
100
AcDbCircle
 10
173.4300984965439
 20
342.90615402936
 30
0.0
 40
8.0
100
AcDbArc
 50
180.0
 51
270.0
  0
LINE
  5
10D5
330
2
100
AcDbEntity
  8
0
100
AcDbLine
 10
134.4300984965484
 20
349.90615402936
 30
0.0
 11
159.4300984965511
 21
349.90615402936
 31
0.0
  0
LINE
  5
10D6
330
2
100
AcDbEntity
  8
0
100
AcDbLine
 10
134.4300984965484
 20
421.90615402936
 30
0.0
 11
159.4300984965511
 21
421.90615402936
 31
0.0
  0
LINE
  5
10D7
330
2
100
AcDbEntity
  8
0
100
AcDbLine
 10
252.4300984965475
 20
428.90615402936
 30
0.0
 11
252.4300984965475
 21
433.9623638991828
 31
0.0
  0
ARC
  5
10D8
330
2
100
AcDbEntity
  8
0
100
AcDbCircle
 10
173.4300984965511
 20
428.90615402936
 30
0.0
 40
8.0
100
AcDbArc
 50
90.0
 51
180.0
  0
ARC
  5
10D9
330
2
100
AcDbEntity
  8
0
100
AcDbCircle
 10
259.4300984965475
 20
428.90615402936
 30
0.0
 40
8.0
100
AcDbArc
 50
0.0
 51
90.0
  0
ARC
  5
10DA
330
2
100
AcDbEntity
  8
0
100
AcDbCircle
 10
216.4300984965475
 20
236.9061540293599
 30
0.0
 40
200.0
100
AcDbArc
 50
84.10530161362286
 51
95.89469838637716
  0
ARC
  5
10DB
330
2
100
AcDbEntity
  8
0
100
AcDbCircle
 10
250.4300984965475
 20
433.9623638991828
 30
0.0
 40
2.0
100
AcDbArc
 50
0.0
 51
96.75981993311687
  0
ARC
  5
10DC
330
2
100
AcDbEntity
  8
0
100
AcDbCircle
 10
243.1322274268732
 20
495.5313583513448
 30
0.0
 40
60.0
100
AcDbArc
 50
264.1053016136229
 51
281.8050678104682
  0
LINE
  5
10DD
330
2
100
AcDbEntity
  8
0
100
AcDbLine
 10
259.4300984965471
 20
436.90615402936
 30
0.0
 11
256.4300984965475
 21
436.90615402936
 31
0.0
  0
ARC
  5
10DE
330
2
100
AcDbEntity
  8
0
100
AcDbCircle
 10
256.4300984965475
 20
431.90615402936
 30
0.0
 40
5.0
100
AcDbArc
 50
89.99999999997395
 51
101.8050678104681
  0
ARC
  5
10DF
330
2
100
AcDbEntity
  8
0
100
AcDbCircle
 10
189.7279695662227
 20
495.5313583513448
 30
0.0
 40
60.0
100
AcDbArc
 50
258.1949321895318
 51
275.8946983863771
  0
ARC
  5
10E0
330
2
100
AcDbEntity
  8
0
100
AcDbCircle
 10
176.4300984965475
 20
431.90615402936
 30
0.0
 40
5.0
100
AcDbArc
 50
78.19493218953183
 51
90.0
  0
LINE
  5
10E1
330
2
100
AcDbEntity
  8
0
100
AcDbLine
 10
176.4300984965475
 20
436.90615402936
 30
0.0
 11
173.4300984965511
 21
436.90615402936
 31
0.0
  0
CIRCLE
  5
10E2
330
2
100
AcDbEntity
  8
0
100
AcDbCircle
 10
216.4300984965475
 20
385.90615402936
 30
0.0
 40
26.57735026918791
  0
CIRCLE
  5
10E3
330
2
100
AcDbEntity
  8
0
100
AcDbCircle
 10
216.4300984965475
 20
385.90615402936
 30
0.0
 40
32.42260000000154
  0
CIRCLE
  5
10E4
330
2
100
AcDbEntity
  8
0
100
AcDbCircle
 10
216.4300984965475
 20
385.90615402936
 30
0.0
 40
35.50000000000153
  0
CIRCLE
  5
10E5
330
2
100
AcDbEntity
  8
0
100
AcDbCircle
 10
216.4300984965475
 20
385.90615402936
 30
0.0
 40
35.00000000000153
  0
LINE
  5
10E6
330
2
100
AcDbEntity
  8
0
100
AcDbLine
 10
240.4300984965475
 20
424.90615402936
 30
0.0
 11
192.4300984965475
 21
424.90615402936
 31
0.0
  0
LINE
  5
10E7
330
2
100
AcDbEntity
  8
0
100
AcDbLine
 10
240.4300984965471
 20
346.90615402936
 30
0.0
 11
192.4300984965475
 21
346.90615402936
 31
0.0
  0
CIRCLE
  5
10E8
330
2
100
AcDbEntity
  8
0
100
AcDbCircle
 10
216.4300984965475
 20
385.90615402936
 30
0.0
 40
33.00000000000153
  0
CIRCLE
  5
10E9
330
2
100
AcDbEntity
  8
0
100
AcDbCircle
 10
216.4300984965475
 20
385.90615402936
 30
0.0
 40
26.0
  0
LINE
  5
10EA
330
2
100
AcDbEntity
  8
0
100
AcDbLine
 10
255.430098496547
 20
361.90615402936
 30
0.0
 11
255.4300984965475
 21
409.90615402936
 31
0.0
  0
ARC
  5
10EB
330
2
100
AcDbEntity
  8
0
100
AcDbCircle
 10
67.43009849654754
 20
385.90615402936
 30
0.0
 40
200.0
100
AcDbArc
 50
354.1053016136495
 51
5.894698386350537
  0
ARC
  5
10EC
330
2
100
AcDbEntity
  8
0
100
AcDbCircle
 10
262.4300984965466
 20
425.90615402936
 30
0.0
 40
5.0
100
AcDbArc
 50
348.1949321895559
 51
0.0
  0
LINE
  5
10ED
330
2
100
AcDbEntity
  8
0
100
AcDbLine
 10
267.4300984965475
 20
425.9061540293582
 30
0.0
 11
267.4300984965475
 21
428.90615402936
 31
0.0
  0
CIRCLE
  5
10EE
330
2
100
AcDbEntity
  8
0
100
AcDbCircle
 10
261.4300984965475
 20
417.40615402936
 30
0.0
 40
3.0
  0
CIRCLE
  5
10EF
330
2
100
AcDbEntity
  8
0
100
AcDbCircle
 10
261.4300984965475
 20
417.40615402936
 30
0.0
 40
2.5
  0
CIRCLE
  5
10F0
330
2
100
AcDbEntity
  8
0
100
AcDbCircle
 10
261.4300984965475
 20
417.40615402936
 30
0.0
 40
1.6
  0
ARC
  5
10F1
330
2
100
AcDbEntity
  8
0
100
AcDbCircle
 10
326.0553028185322
 20
412.6082829596848
 30
0.0
 40
60.0
100
AcDbArc
 50
168.1949321895559
 51
185.8946983863505
  0
ARC
  5
10F2
330
2
100
AcDbEntity
  8
0
100
AcDbCircle
 10
259.4300984965475
 20
428.90615402936
 30
0.0
 40
7.0
100
AcDbArc
 50
180.0
 51
270.0
  0
ARC
  5
10F3
330
2
100
AcDbEntity
  8
0
100
AcDbCircle
 10
264.4863083663695
 20
419.90615402936
 30
0.0
 40
2.0
100
AcDbArc
 50
353.240180066883
 51
90.0
  0
LINE
  5
10F4
330
2
100
AcDbEntity
  8
0
100
AcDbLine
 10
259.4300984965502
 20
421.90615402936
 30
0.0
 11
264.4863083663695
 21
421.90615402936
 31
0.0
  0
ARC
  5
10F5
330
2
100
AcDbEntity
  8
0
100
AcDbCircle
 10
326.0553028185313
 20
359.2040250990352
 30
0.0
 40
60.0
100
AcDbArc
 50
174.1053016136494
 51
191.805067810444
  0
ARC
  5
10F6
330
2
100
AcDbEntity
  8
0
100
AcDbCircle
 10
262.4300984965466
 20
345.90615402936
 30
0.0
 40
5.0
100
AcDbArc
 50
0.0
 51
11.80506781044405
  0
LINE
  5
10F7
330
2
100
AcDbEntity
  8
0
100
AcDbLine
 10
267.4300984965475
 20
342.90615402936
 30
0.0
 11
267.4300984965475
 21
345.9061540293582
 31
0.0
  0
ARC
  5
10F8
330
2
100
AcDbEntity
  8
0
100
AcDbCircle
 10
259.4300984965466
 20
342.90615402936
 30
0.0
 40
7.0
100
AcDbArc
 50
89.99999999997395
 51
180.0
  0
CIRCLE
  5
10F9
330
2
100
AcDbEntity
  8
0
100
AcDbCircle
 10
261.4300984965484
 20
354.40615402936
 30
0.0
 40
3.0
  0
CIRCLE
  5
10FA
330
2
100
AcDbEntity
  8
0
100
AcDbCircle
 10
261.4300984965484
 20
354.40615402936
 30
0.0
 40
2.5
  0
ARC
  5
10FB
330
2
100
AcDbEntity
  8
0
100
AcDbCircle
 10
264.4863083663695
 20
351.90615402936
 30
0.0
 40
2.0
100
AcDbArc
 50
269.9999999999739
 51
6.759819933116934
  0
CIRCLE
  5
10FC
330
2
100
AcDbEntity
  8
0
100
AcDbCircle
 10
261.4300984965484
 20
354.40615402936
 30
0.0
 40
1.6
  0
LINE
  5
10FD
330
2
100
AcDbEntity
  8
0
100
AcDbLine
 10
259.4300984965493
 20
349.90615402936
 30
0.0
 11
264.4863083663695
 21
349.90615402936
 31
0.0
  0
LINE
  5
10FE
330
2
100
AcDbEntity
  8
0
100
AcDbLine
 10
252.4300984965461
 20
342.90615402936
 30
0.0
 11
252.4300984965457
 21
337.849944159539
 31
0.0
  0
LINE
  5
10FF
330
2
100
AcDbEntity
  8
0
100
AcDbLine
 10
177.4300984965475
 20
361.90615402936
 30
0.0
 11
177.4300984965475
 21
409.90615402936
 31
0.0
  0
LINE
  5
1100
330
2
100
AcDbEntity
  8
0
100
AcDbLine
 10
165.4300984965511
 20
342.90615402936
 30
0.0
 11
165.4300984965511
 21
428.90615402936
 31
0.0
  0
LINE
  5
1101
330
2
100
AcDbEntity
  8
0
100
AcDbLine
 10
128.4300984965484
 20
415.90615402936
 30
0.0
 11
128.4300984965484
 21
355.90615402936
 31
0.0
  0
ARC
  5
1102
330
2
100
AcDbEntity
  8
0
100
AcDbCircle
 10
134.9300984965475
 20
415.40615402936
 30
0.0
 40
7.0
100
AcDbArc
 50
270.0
 51
0.0
  0
CIRCLE
  5
1103
330
2
100
AcDbEntity
  8
0
100
AcDbCircle
 10
146.4300984965475
 20
417.40615402936
 30
0.0
 40
2.5
  0
CIRCLE
  5
1104
330
2
100
AcDbEntity
  8
0
100
AcDbCircle
 10
146.4300984965475
 20
417.40615402936
 30
0.0
 40
1.6
  0
CIRCLE
  5
1105
330
2
100
AcDbEntity
  8
0
100
AcDbCircle
 10
146.4300984965475
 20
417.40615402936
 30
0.0
 40
3.0
  0
LINE
  5
1106
330
2
100
AcDbEntity
  8
0
100
AcDbLine
 10
141.9300984965475
 20
415.40615402936
 30
0.0
 11
141.9300984965466
 21
419.90615402936
 31
0.0
  0
ARC
  5
1107
330
2
100
AcDbEntity
  8
0
100
AcDbCircle
 10
134.4300984965484
 20
415.90615402936
 30
0.0
 40
6.0
100
AcDbArc
 50
90.0
 51
180.0
  0
LINE
  5
1108
330
2
100
AcDbEntity
  8
0
100
AcDbLine
 10
134.9300984965475
 20
408.40615402936
 30
0.0
 11
130.430098496548
 21
408.40615402936
 31
0.0
  0
ARC
  5
1109
330
2
100
AcDbEntity
  8
0
100
AcDbCircle
 10
134.9300984965484
 20
356.40615402936
 30
0.0
 40
7.0
100
AcDbArc
 50
0.0
 51
90.0
  0
LINE
  5
110A
330
2
100
AcDbEntity
  8
0
100
AcDbLine
 10
134.9300984965484
 20
363.40615402936
 30
0.0
 11
130.4300984965484
 21
363.40615402936
 31
0.0
  0
CIRCLE
  5
110B
330
2
100
AcDbEntity
  8
0
100
AcDbCircle
 10
146.4300984965511
 20
354.40615402936
 30
0.0
 40
3.25
  0
CIRCLE
  5
110C
330
2
100
AcDbEntity
  8
0
100
AcDbCircle
 10
146.4300984965511
 20
354.40615402936
 30
0.0
 40
2.75
  0
LINE
  5
110D
330
2
100
AcDbEntity
  8
0
100
AcDbLine
 10
141.9300984965484
 20
356.40615402936
 30
0.0
 11
141.9300984965484
 21
351.90615402936
 31
0.0
  0
ARC
  5
110E
330
2
100
AcDbEntity
  8
0
100
AcDbCircle
 10
134.4300984965484
 20
355.90615402936
 30
0.0
 40
6.0
100
AcDbArc
 50
180.0
 51
270.0
  0
ARC
  5
110F
330
2
100
AcDbEntity
  8
0
100
AcDbCircle
 10
216.4300984965475
 20
534.90615402936
 30
0.0
 40
200.0
100
AcDbArc
 50
264.1053016136229
 51
275.8946983863771
  0
ARC
  5
1110
330
2
100
AcDbEntity
  8
0
100
AcDbCircle
 10
243.1322274268723
 20
276.2809497073752
 30
0.0
 40
60.0
100
AcDbArc
 50
78.19493218953183
 51
95.89469838637716
  0
LINE
  5
1111
330
2
100
AcDbEntity
  8
0
100
AcDbLine
 10
259.4300984965475
 20
334.90615402936
 30
0.0
 11
256.4300984965475
 21
334.90615402936
 31
0.0
  0
ARC
  5
1112
330
2
100
AcDbEntity
  8
0
100
AcDbCircle
 10
256.4300984965475
 20
339.90615402936
 30
0.0
 40
5.0
100
AcDbArc
 50
258.1949321895318
 51
270.0
  0
ARC
  5
1113
330
2
100
AcDbEntity
  8
0
100
AcDbCircle
 10
189.7279695662218
 20
276.2809497073752
 30
0.0
 40
60.0
100
AcDbArc
 50
84.10530161362286
 51
101.8050678104681
  0
ARC
  5
1114
330
2
100
AcDbEntity
  8
0
100
AcDbCircle
 10
176.4300984965475
 20
339.90615402936
 30
0.0
 40
5.0
100
AcDbArc
 50
269.9999999999739
 51
281.8050678104682
  0
LINE
  5
1115
330
2
100
AcDbEntity
  8
0
100
AcDbLine
 10
173.4300984965448
 20
334.90615402936
 30
0.0
 11
176.4300984965475
 21
334.90615402936
 31
0.0
  0
CIRCLE
  5
1116
330
2
100
AcDbEntity
  8
0
100
AcDbCircle
 10
146.4300984965511
 20
354.40615402936
 30
0.0
 40
1.6
  0
ARC
  5
1117
330
2
100
AcDbEntity
  8
0
100
AcDbCircle
 10
159.4300984965511
 20
427.90615402936
 30
0.0
 40
6.0
100
AcDbArc
 50
270.0
 51
0.0
  0
ARC
  5
1118
330
2
100
AcDbEntity
  8
0
100
AcDbCircle
 10
159.4300984965511
 20
343.90615402936
 30
0.0
 40
6.0
100
AcDbArc
 50
0.0
 51
90.0
  0
LINE
  5
1119
330
2
100
AcDbEntity
  8
CENTER
100
AcDbLine
 10
259.4300984965525
 20
437.65615402936
 30
0.0
 11
259.4300984965511
 21
420.15615402936
 31
0.0
  0
ARC
  5
111A
330
2
100
AcDbEntity
  8
0
100
AcDbCircle
 10
143.9300984965466
 20
419.90615402936
 30
0.0
 40
2.0
100
AcDbArc
 50
90.0
 51
180.0
  0
ARC
  5
111B
330
2
100
AcDbEntity
  8
0
100
AcDbCircle
 10
130.4300984965484
 20
406.40615402936
 30
0.0
 40
2.0
100
AcDbArc
 50
90.0
 51
180.0
  0
ARC
  5
111C
330
2
100
AcDbEntity
  8
0
100
AcDbCircle
 10
130.4300984965484
 20
365.40615402936
 30
0.0
 40
2.0
100
AcDbArc
 50
180.0
 51
270.0
  0
ARC
  5
111D
330
2
100
AcDbEntity
  8
0
100
AcDbCircle
 10
143.9300984965484
 20
351.90615402936
 30
0.0
 40
2.0
100
AcDbArc
 50
180.0
 51
270.0
  0
LINE
  5
111E
330
2
100
AcDbEntity
  8
0
100
AcDbLine
 10
257.4300984965475
 20
361.90615402936
 30
0.0
 11
257.4300984965475
 21
409.90615402936
 31
0.0
  0
LINE
  5
111F
330
2
100
AcDbEntity
  8
0
100
AcDbLine
 10
240.4300984965475
 20
426.90615402936
 30
0.0
 11
192.4300984965475
 21
426.90615402936
 31
0.0
  0
LINE
  5
1120
330
2
100
AcDbEntity
  8
0
100
AcDbLine
 10
175.4300984965475
 20
361.90615402936
 30
0.0
 11
175.4300984965475
 21
409.90615402936
 31
0.0
  0
LINE
  5
1121
330
2
100
AcDbEntity
  8
0
100
AcDbLine
 10
240.4300984965475
 20
344.90615402936
 30
0.0
 11
192.4300984965475
 21
344.90615402936
 31
0.0
  0
ARC
  5
1122
330
2
100
AcDbEntity
  8
0
100
AcDbCircle
 10
240.4300984965475
 20
409.90615402936
 30
0.0
 40
15.0
100
AcDbArc
 50
0.0
 51
90.0
  0
ARC
  5
1123
330
2
100
AcDbEntity
  8
0
100
AcDbCircle
 10
240.4300984965475
 20
409.90615402936
 30
0.0
 40
17.0
100
AcDbArc
 50
0.0
 51
90.0
  0
LINE
  5
1124
330
2
100
AcDbEntity
  8
0
100
AcDbLine
 10
252.4509137767181
 20
421.9269693095315
 30
0.0
 11
251.0367002143457
 21
420.5127557471582
 31
0.0
  0
ARC
  5
1125
330
2
100
AcDbEntity
  8
0
100
AcDbCircle
 10
240.4300984965471
 20
361.90615402936
 30
0.0
 40
15.0
100
AcDbArc
 50
270.0
 51
0.0
  0
ARC
  5
1126
330
2
100
AcDbEntity
  8
0
100
AcDbCircle
 10
192.4300984965475
 20
409.90615402936
 30
0.0
 40
15.0
100
AcDbArc
 50
90.0
 51
180.0
  0
ARC
  5
1127
330
2
100
AcDbEntity
  8
0
100
AcDbCircle
 10
192.4300984965475
 20
361.90615402936
 30
0.0
 40
15.0
100
AcDbArc
 50
180.0
 51
270.0
  0
ARC
  5
1128
330
2
100
AcDbEntity
  8
0
100
AcDbCircle
 10
192.4300984965475
 20
409.90615402936
 30
0.0
 40
17.0
100
AcDbArc
 50
90.0
 51
180.0
  0
ARC
  5
1129
330
2
100
AcDbEntity
  8
0
100
AcDbCircle
 10
192.4300984965475
 20
361.90615402936
 30
0.0
 40
17.0
100
AcDbArc
 50
180.0
 51
270.0
  0
ARC
  5
112A
330
2
100
AcDbEntity
  8
0
100
AcDbCircle
 10
240.4300984965475
 20
361.90615402936
 30
0.0
 40
17.0
100
AcDbArc
 50
270.0
 51
0.0
  0
LINE
  5
112B
330
2
100
AcDbEntity
  8
0
100
AcDbLine
 10
251.0367002143452
 20
351.2995523115618
 30
0.0
 11
252.4509137767181
 21
349.8853387491885
 31
0.0
  0
LINE
  5
112C
330
2
100
AcDbEntity
  8
0
100
AcDbLine
 10
181.8234967787493
 20
420.5127557471582
 30
0.0
 11
180.409283216376
 21
421.9269693095315
 31
0.0
  0
LINE
  5
112D
330
2
100
AcDbEntity
  8
0
100
AcDbLine
 10
181.8234967787493
 20
351.2995523115618
 30
0.0
 11
180.409283216376
 21
349.8853387491885
 31
0.0
  0
LINE
  5
112E
330
2
100
AcDbEntity
  8
CENTER
100
AcDbLine
 10
268.1800984965507
 20
342.90615402936
 30
0.0
 11
250.6800984965507
 21
342.90615402936
 31
0.0
  0
LINE
  5
112F
330
2
100
AcDbEntity
  8
CENTER
100
AcDbLine
 10
259.4300984965525
 20
334.1561540293618
 30
0.0
 11
259.4300984965511
 21
351.6561540293618
 31
0.0
  0
LINE
  5
1130
330
2
100
AcDbEntity
  8
CENTER
100
AcDbLine
 10
126.1800984965475
 20
356.4061540293618
 30
0.0
 11
143.6800984965475
 21
356.40615402936
 31
0.0
  0
LINE
  5
1131
330
2
100
AcDbEntity
  8
CENTER
100
AcDbLine
 10
134.9300984965466
 20
347.65615402936
 30
0.0
 11
134.9300984965475
 21
365.15615402936
 31
0.0
  0
CIRCLE
  5
1132
330
2
100
AcDbEntity
  8
0
100
AcDbCircle
 10
259.4300984965475
 20
428.90615402936
 30
0.0
 40
5.000000000000113
  0
CIRCLE
  5
1133
330
2
100
AcDbEntity
  8
0
100
AcDbCircle
 10
259.4300984965475
 20
428.90615402936
 30
0.0
 40
4.307179676972509
  0
LINE
  5
1134
330
2
100
AcDbEntity
  8
0
100
AcDbLine
 10
261.9300984965475
 20
430.349529702334
 30
0.0
 11
261.9300984965475
 21
427.4627783563859
 31
0.0
  0
LINE
  5
1135
330
2
100
AcDbEntity
  8
0
100
AcDbLine
 10
259.4300984965475
 20
426.0194026834119
 30
0.0
 11
261.9300984965475
 21
427.4627783563859
 31
0.0
  0
LINE
  5
1136
330
2
100
AcDbEntity
  8
0
100
AcDbLine
 10
261.9300984965475
 20
430.349529702334
 30
0.0
 11
259.4300984965475
 21
431.7929053753082
 31
0.0
  0
LINE
  5
1137
330
2
100
AcDbEntity
  8
0
100
AcDbLine
 10
256.9300984965475
 20
430.349529702334
 30
0.0
 11
256.9300984965475
 21
427.4627783563859
 31
0.0
  0
LINE
  5
1138
330
2
100
AcDbEntity
  8
0
100
AcDbLine
 10
259.4300984965475
 20
426.0194026834119
 30
0.0
 11
256.9300984965475
 21
427.4627783563859
 31
0.0
  0
LINE
  5
1139
330
2
100
AcDbEntity
  8
0
100
AcDbLine
 10
256.9300984965475
 20
430.349529702334
 30
0.0
 11
259.4300984965475
 21
431.7929053753082
 31
0.0
  0
CIRCLE
  5
113A
330
2
100
AcDbEntity
  8
0
100
AcDbCircle
 10
259.430098496552
 20
342.90615402936
 30
0.0
 40
5.000000000000113
  0
CIRCLE
  5
113B
330
2
100
AcDbEntity
  8
0
100
AcDbCircle
 10
259.430098496552
 20
342.90615402936
 30
0.0
 40
4.307179676972509
  0
LINE
  5
113C
330
2
100
AcDbEntity
  8
0
100
AcDbLine
 10
261.9300984965521
 20
344.3495297023341
 30
0.0
 11
261.9300984965521
 21
341.4627783563859
 31
0.0
  0
LINE
  5
113D
330
2
100
AcDbEntity
  8
0
100
AcDbLine
 10
259.4300984965516
 20
340.0194026834118
 30
0.0
 11
261.9300984965521
 21
341.4627783563859
 31
0.0
  0
LINE
  5
113E
330
2
100
AcDbEntity
  8
0
100
AcDbLine
 10
261.9300984965521
 20
344.3495297023341
 30
0.0
 11
259.430098496552
 21
345.7929053753082
 31
0.0
  0
LINE
  5
113F
330
2
100
AcDbEntity
  8
0
100
AcDbLine
 10
256.930098496552
 20
344.3495297023341
 30
0.0
 11
256.930098496552
 21
341.4627783563859
 31
0.0
  0
LINE
  5
1140
330
2
100
AcDbEntity
  8
0
100
AcDbLine
 10
259.4300984965516
 20
340.0194026834118
 30
0.0
 11
256.930098496552
 21
341.4627783563859
 31
0.0
  0
LINE
  5
1141
330
2
100
AcDbEntity
  8
0
100
AcDbLine
 10
256.930098496552
 20
344.3495297023341
 30
0.0
 11
259.430098496552
 21
345.7929053753082
 31
0.0
  0
CIRCLE
  5
1142
330
2
100
AcDbEntity
  8
0
100
AcDbCircle
 10
134.9300984965475
 20
356.40615402936
 30
0.0
 40
5.000000000000113
  0
CIRCLE
  5
1143
330
2
100
AcDbEntity
  8
0
100
AcDbCircle
 10
134.9300984965475
 20
356.40615402936
 30
0.0
 40
4.307179676972509
  0
LINE
  5
1144
330
2
100
AcDbEntity
  8
0
100
AcDbLine
 10
137.4300984965475
 20
357.8495297023341
 30
0.0
 11
137.4300984965475
 21
354.9627783563859
 31
0.0
  0
LINE
  5
1145
330
2
100
AcDbEntity
  8
0
100
AcDbLine
 10
134.930098496547
 20
353.5194026834119
 30
0.0
 11
137.4300984965475
 21
354.9627783563859
 31
0.0
  0
LINE
  5
1146
330
2
100
AcDbEntity
  8
0
100
AcDbLine
 10
137.4300984965475
 20
357.8495297023341
 30
0.0
 11
134.9300984965475
 21
359.2929053753081
 31
0.0
  0
LINE
  5
1147
330
2
100
AcDbEntity
  8
0
100
AcDbLine
 10
132.4300984965475
 20
357.8495297023341
 30
0.0
 11
132.4300984965475
 21
354.9627783563859
 31
0.0
  0
LINE
  5
1148
330
2
100
AcDbEntity
  8
0
100
AcDbLine
 10
134.930098496547
 20
353.5194026834119
 30
0.0
 11
132.4300984965475
 21
354.9627783563859
 31
0.0
  0
LINE
  5
1149
330
2
100
AcDbEntity
  8
0
100
AcDbLine
 10
132.4300984965475
 20
357.8495297023341
 30
0.0
 11
134.9300984965475
 21
359.2929053753081
 31
0.0
  0
CIRCLE
  5
114A
330
2
100
AcDbEntity
  8
0
100
AcDbCircle
 10
134.9300984965475
 20
415.40615402936
 30
0.0
 40
5.000000000000113
  0
CIRCLE
  5
114B
330
2
100
AcDbEntity
  8
0
100
AcDbCircle
 10
134.9300984965475
 20
415.40615402936
 30
0.0
 40
4.307179676972509
  0
LINE
  5
114C
330
2
100
AcDbEntity
  8
0
100
AcDbLine
 10
137.4300984965475
 20
416.8495297023341
 30
0.0
 11
137.4300984965475
 21
413.9627783563859
 31
0.0
  0
LINE
  5
114D
330
2
100
AcDbEntity
  8
0
100
AcDbLine
 10
134.930098496547
 20
412.5194026834119
 30
0.0
 11
137.4300984965475
 21
413.9627783563859
 31
0.0
  0
LINE
  5
114E
330
2
100
AcDbEntity
  8
0
100
AcDbLine
 10
137.4300984965475
 20
416.8495297023341
 30
0.0
 11
134.9300984965475
 21
418.2929053753081
 31
0.0
  0
LINE
  5
114F
330
2
100
AcDbEntity
  8
0
100
AcDbLine
 10
132.4300984965475
 20
416.8495297023341
 30
0.0
 11
132.4300984965475
 21
413.9627783563859
 31
0.0
  0
LINE
  5
1150
330
2
100
AcDbEntity
  8
0
100
AcDbLine
 10
134.930098496547
 20
412.5194026834119
 30
0.0
 11
132.4300984965475
 21
413.9627783563859
 31
0.0
  0
LINE
  5
1151
330
2
100
AcDbEntity
  8
0
100
AcDbLine
 10
132.4300984965475
 20
416.8495297023341
 30
0.0
 11
134.9300984965475
 21
418.2929053753081
 31
0.0
  0
LINE
  5
1152
330
2
100
AcDbEntity
  8
0
100
AcDbLine
 10
362.9866208785624
 20
353.4835042985518
 30
0.0
 11
362.9866208785624
 21
418.32880376017
 31
0.0
  0
LINE
  5
1153
330
2
100
AcDbEntity
  8
0
100
AcDbLine
 10
372.9008344409358
 20
426.3203675917333
 30
0.0
 11
372.07240731619
 21
425.4919404669867
 31
0.0
  0
LINE
  5
1154
330
2
100
AcDbEntity
  8
0
100
AcDbLine
 10
388.9866208785651
 20
436.90615402936
 30
0.0
 11
388.9866208785706
 21
334.9061540293618
 31
0.0
  0
LINE
  5
1155
330
2
100
AcDbEntity
  8
0
100
AcDbLine
 10
373.4866208785597
 20
337.0240429013078
 30
0.0
 11
373.4866208785624
 21
434.7882651574122
 31
0.0
  0
ARC
  5
1156
330
2
100
AcDbEntity
  8
0
100
AcDbCircle
 10
375.4866208785597
 20
337.0240429013078
 30
0.0
 40
2.0
100
AcDbArc
 50
180.0
 51
269.5000000000084
  0
ARC
  5
1157
330
2
100
AcDbEntity
  8
0
100
AcDbCircle
 10
375.4866208785597
 20
351.958591392878
 30
0.0
 40
2.0
100
AcDbArc
 50
180.0
 51
269.5000000000084
  0
LINE
  5
1158
330
2
100
AcDbEntity
  8
0
100
AcDbLine
 10
367.4866208785624
 20
418.7061540293611
 30
0.0
 11
367.6866208785622
 21
418.90615402936
 31
0.0
  0
LINE
  5
1159
330
2
100
AcDbEntity
  8
0
100
AcDbLine
 10
370.9866208785624
 20
420.90615402936
 30
0.0
 11
371.4866208785624
 21
421.40615402936
 31
0.0
  0
LINE
  5
115A
330
2
100
AcDbEntity
  8
0
100
AcDbLine
 10
371.4866208785633
 20
424.0777269046152
 30
0.0
 11
371.4866208785624
 21
421.40615402936
 31
0.0
  0
LINE
  5
115B
330
2
100
AcDbEntity
  8
0
100
AcDbLine
 10
367.6866208785622
 20
418.90615402936
 30
0.0
 11
370.9866208785624
 21
418.90615402936
 31
0.0
  0
LINE
  5
115C
330
2
100
AcDbEntity
  8
0
100
AcDbLine
 10
363.9866208785624
 20
418.90615402936
 30
0.0
 11
362.9866208785624
 21
418.32880376017
 31
0.0
  0
LINE
  5
115D
330
2
100
AcDbEntity
  8
0
100
AcDbLine
 10
363.9866208785624
 20
418.90615402936
 30
0.0
 11
365.2866208785626
 21
418.90615402936
 31
0.0
  0
LINE
  5
115E
330
2
100
AcDbEntity
  8
0
100
AcDbLine
 10
365.6866208785622
 20
418.2061540293611
 30
0.0
 11
367.2866208785626
 21
418.2061540293611
 31
0.0
  0
LINE
  5
115F
330
2
100
AcDbEntity
  8
0
100
AcDbLine
 10
388.9866208785706
 20
334.9061540293618
 30
0.0
 11
375.4691678075632
 21
335.02411905518
 31
0.0
  0
ARC
  5
1160
330
2
100
AcDbEntity
  8
0
100
AcDbCircle
 10
382.4866208786388
 20
335.9629167483867
 30
0.0
 40
1.0
100
AcDbArc
 50
180.0
 51
269.5000000000084
  0
LINE
  5
1161
330
2
100
AcDbEntity
  8
0
100
AcDbLine
 10
372.9008344409358
 20
345.4919404669867
 30
0.0
 11
372.0724073161954
 21
346.3203675917279
 31
0.0
  0
LINE
  5
1162
330
2
100
AcDbEntity
  8
0
100
AcDbLine
 10
370.9866208785679
 20
350.90615402936
 30
0.0
 11
370.9866208785597
 21
420.9061540293563
 31
0.0
  0
LINE
  5
1163
330
2
100
AcDbEntity
  8
0
100
AcDbLine
 10
367.486620878567
 20
353.1061540293607
 30
0.0
 11
367.486620878567
 21
418.7061540293647
 31
0.0
  0
LINE
  5
1164
330
2
100
AcDbEntity
  8
0
100
AcDbLine
 10
367.486620878567
 20
353.1061540293607
 30
0.0
 11
367.6866208785677
 21
352.90615402936
 31
0.0
  0
LINE
  5
1165
330
2
100
AcDbEntity
  8
0
100
AcDbLine
 10
367.6866208785677
 20
352.90615402936
 30
0.0
 11
370.9866208785679
 21
352.90615402936
 31
0.0
  0
LINE
  5
1166
330
2
100
AcDbEntity
  8
0
100
AcDbLine
 10
370.9866208785679
 20
350.90615402936
 30
0.0
 11
371.4866208785679
 21
350.4061540293618
 31
0.0
  0
LINE
  5
1167
330
2
100
AcDbEntity
  8
0
100
AcDbLine
 10
371.4866208785688
 20
347.7345811540994
 30
0.0
 11
371.4866208785624
 21
421.40615402936
 31
0.0
  0
LINE
  5
1168
330
2
100
AcDbEntity
  8
0
100
AcDbLine
 10
363.9866208785679
 20
352.90615402936
 30
0.0
 11
362.986620878567
 21
353.48350429855
 31
0.0
  0
LINE
  5
1169
330
2
100
AcDbEntity
  8
0
100
AcDbLine
 10
365.486620878567
 20
353.1061540293607
 30
0.0
 11
365.486620878567
 21
418.7061540293611
 31
0.0
  0
LINE
  5
116A
330
2
100
AcDbEntity
  8
0
100
AcDbLine
 10
363.986620878567
 20
352.90615402936
 30
0.0
 11
365.2866208785671
 21
352.90615402936
 31
0.0
  0
LINE
  5
116B
330
2
100
AcDbEntity
  8
0
100
AcDbLine
 10
365.6866208785677
 20
353.6061540293607
 30
0.0
 11
367.2866208785671
 21
353.6061540293607
 31
0.0
  0
ARC
  5
116C
330
2
100
AcDbEntity
  8
0
100
AcDbCircle
 10
373.4866208785688
 20
347.7345811541012
 30
0.0
 40
2.0
100
AcDbArc
 50
180.0
 51
225.0000000000187
  0
ARC
  5
116D
330
2
100
AcDbEntity
  8
0
100
AcDbCircle
 10
371.4866208785624
 20
344.0777269046133
 30
0.0
 40
2.0
100
AcDbArc
 50
0.0
 51
45.00000000001871
  0
ARC
  5
116E
330
2
100
AcDbEntity
  8
0
100
AcDbCircle
 10
373.4866208785633
 20
424.0777269046152
 30
0.0
 40
2.0
100
AcDbArc
 50
134.9999999999812
 51
180.0
  0
ARC
  5
116F
330
2
100
AcDbEntity
  8
0
100
AcDbCircle
 10
371.4866208785624
 20
427.7345811541066
 30
0.0
 40
2.0
100
AcDbArc
 50
314.9999999999812
 51
0.0
  0
ARC
  5
1170
330
2
100
AcDbEntity
  8
0
100
AcDbCircle
 10
365.2866208785671
 20
353.1061540293607
 30
0.0
 40
0.2
100
AcDbArc
 50
270.000000000026
 51
0.0
  0
ARC
  5
1171
330
2
100
AcDbEntity
  8
0
100
AcDbCircle
 10
365.6866208785677
 20
353.40615402936
 30
0.0
 40
0.2
100
AcDbArc
 50
90.00000000002605
 51
180.0
  0
ARC
  5
1172
330
2
100
AcDbEntity
  8
0
100
AcDbCircle
 10
367.2866208785671
 20
353.40615402936
 30
0.0
 40
0.2
100
AcDbArc
 50
0.0
 51
90.00000000002605
  0
ARC
  5
1173
330
2
100
AcDbEntity
  8
0
100
AcDbCircle
 10
365.2866208785626
 20
418.7061540293611
 30
0.0
 40
0.2
100
AcDbArc
 50
0.0
 51
90.0
  0
ARC
  5
1174
330
2
100
AcDbEntity
  8
0
100
AcDbCircle
 10
365.6866208785622
 20
418.40615402936
 30
0.0
 40
0.2
100
AcDbArc
 50
180.0
 51
270.0
  0
ARC
  5
1175
330
2
100
AcDbEntity
  8
0
100
AcDbCircle
 10
367.2866208785626
 20
418.40615402936
 30
0.0
 40
0.2
100
AcDbArc
 50
270.0
 51
0.0
  0
LINE
  5
1176
330
2
100
AcDbEntity
  8
0
100
AcDbLine
 10
363.9866208785679
 20
352.90615402936
 30
0.0
 11
363.9866208785624
 21
418.90615402936
 31
0.0
  0
LINE
  5
1177
330
2
100
AcDbEntity
  8
0
100
AcDbLine
 10
367.6866208785677
 20
352.90615402936
 30
0.0
 11
367.6866208785622
 21
418.90615402936
 31
0.0
  0
LINE
  5
1178
330
2
100
AcDbEntity
  8
0
100
AcDbLine
 10
380.4953474141366
 20
349.9148047418306
 30
0.0
 11
375.4691678075632
 21
349.9586675467503
 31
0.0
  0
LINE
  5
1179
330
2
100
AcDbEntity
  8
0
100
AcDbLine
 10
381.4866208786388
 20
335.9629167483867
 30
0.0
 11
381.4866208786388
 21
348.9148428187667
 31
0.0
  0
ARC
  5
117A
330
2
100
AcDbEntity
  8
0
100
AcDbCircle
 10
380.4866208786388
 20
348.9148428187667
 30
0.0
 40
1.0
100
AcDbArc
 50
0.0
 51
89.5000000000345
  0
LINE
  5
117B
330
2
100
AcDbEntity
  8
0
100
AcDbLine
 10
382.4778943431401
 20
342.90615402936
 30
0.0
 11
388.9866208785706
 21
342.90615402936
 31
0.0
  0
LINE
  5
117C
330
2
100
AcDbEntity
  8
0
100
AcDbLine
 10
382.4778943431401
 20
345.90615402936
 30
0.0
 11
388.9866208785697
 21
345.90615402936
 31
0.0
  0
ARC
  5
117D
330
2
100
AcDbEntity
  8
0
100
AcDbCircle
 10
375.4866208785597
 20
434.7882651574122
 30
0.0
 40
2.0
100
AcDbArc
 50
90.49999999999155
 51
180.0
  0
ARC
  5
117E
330
2
100
AcDbEntity
  8
0
100
AcDbCircle
 10
375.4866208785597
 20
419.853716665842
 30
0.0
 40
2.0
100
AcDbArc
 50
90.49999999999155
 51
180.0
  0
LINE
  5
117F
330
2
100
AcDbEntity
  8
0
100
AcDbLine
 10
388.9866208785706
 20
436.90615402936
 30
0.0
 11
375.4691678075632
 21
436.78818900354
 31
0.0
  0
ARC
  5
1180
330
2
100
AcDbEntity
  8
0
100
AcDbCircle
 10
382.4866208786388
 20
435.8493913103333
 30
0.0
 40
1.0
100
AcDbArc
 50
90.49999999999155
 51
180.0
  0
LINE
  5
1181
330
2
100
AcDbEntity
  8
0
100
AcDbLine
 10
380.4953474141366
 20
421.8975033168912
 30
0.0
 11
375.4691678075632
 21
421.8536405119715
 31
0.0
  0
LINE
  5
1182
330
2
100
AcDbEntity
  8
0
100
AcDbLine
 10
381.4866208786388
 20
435.8493913103333
 30
0.0
 11
381.4866208786388
 21
422.8974652399551
 31
0.0
  0
ARC
  5
1183
330
2
100
AcDbEntity
  8
0
100
AcDbCircle
 10
380.4866208786388
 20
422.8974652399551
 30
0.0
 40
1.0
100
AcDbArc
 50
270.4999999999654
 51
0.0
  0
LINE
  5
1184
330
2
100
AcDbEntity
  8
CENTER
  6
CENS
100
AcDbLine
 10
396.8950169902577
 20
428.90615402936
 30
0.0
 11
370.9866208786379
 21
428.90615402936
 31
0.0
  0
LINE
  5
1185
330
2
100
AcDbEntity
  8
0
100
AcDbLine
 10
374.3866208786385
 20
433.90615402936
 30
0.0
 11
373.9866208786388
 21
433.2133337063328
 31
0.0
  0
LINE
  5
1186
330
2
100
AcDbEntity
  8
0
100
AcDbLine
 10
379.9866208786383
 20
433.90615402936
 30
0.0
 11
379.9866208786379
 21
423.90615402936
 31
0.0
  0
LINE
  5
1187
330
2
100
AcDbEntity
  8
0
100
AcDbLine
 10
374.3866208786385
 20
433.90615402936
 30
0.0
 11
374.3866208786385
 21
423.90615402936
 31
0.0
  0
LINE
  5
1188
330
2
100
AcDbEntity
  8
0
100
AcDbLine
 10
381.4866208786388
 20
433.90615402936
 30
0.0
 11
374.3866208786385
 21
433.90615402936
 31
0.0
  0
LINE
  5
1189
330
2
100
AcDbEntity
  8
0
100
AcDbLine
 10
381.4866208786388
 20
423.90615402936
 30
0.0
 11
374.3866208786385
 21
423.90615402936
 31
0.0
  0
LINE
  5
118A
330
2
100
AcDbEntity
  8
0
100
AcDbLine
 10
374.3866208786385
 20
423.90615402936
 30
0.0
 11
373.9866208786388
 21
424.5989743523873
 31
0.0
  0
LINE
  5
118B
330
2
100
AcDbEntity
  8
0
100
AcDbLine
 10
373.9866208786388
 20
433.2133337063328
 30
0.0
 11
373.9866208786388
 21
424.5989743523873
 31
0.0
  0
LINE
  5
118C
330
2
100
AcDbEntity
  8
CENTER
  6
CENS
100
AcDbLine
 10
396.8950169902577
 20
342.90615402936
 30
0.0
 11
370.9866208786379
 21
342.90615402936
 31
0.0
  0
LINE
  5
118D
330
2
100
AcDbEntity
  8
0
100
AcDbLine
 10
374.3866208786385
 20
337.90615402936
 30
0.0
 11
373.9866208786388
 21
338.5989743523873
 31
0.0
  0
LINE
  5
118E
330
2
100
AcDbEntity
  8
0
100
AcDbLine
 10
379.9866208786383
 20
337.90615402936
 30
0.0
 11
379.9866208786379
 21
347.90615402936
 31
0.0
  0
LINE
  5
118F
330
2
100
AcDbEntity
  8
0
100
AcDbLine
 10
374.3866208786385
 20
337.90615402936
 30
0.0
 11
374.3866208786385
 21
347.90615402936
 31
0.0
  0
LINE
  5
1190
330
2
100
AcDbEntity
  8
0
100
AcDbLine
 10
381.4866208786388
 20
337.90615402936
 30
0.0
 11
374.3866208786385
 21
337.90615402936
 31
0.0
  0
LINE
  5
1191
330
2
100
AcDbEntity
  8
0
100
AcDbLine
 10
381.4866208786388
 20
347.90615402936
 30
0.0
 11
374.3866208786385
 21
347.90615402936
 31
0.0
  0
LINE
  5
1192
330
2
100
AcDbEntity
  8
0
100
AcDbLine
 10
374.3866208786385
 20
347.90615402936
 30
0.0
 11
373.9866208786388
 21
347.2133337063327
 31
0.0
  0
LINE
  5
1193
330
2
100
AcDbEntity
  8
0
100
AcDbLine
 10
373.9866208786388
 20
338.5989743523873
 30
0.0
 11
373.9866208786388
 21
347.2133337063327
 31
0.0
  0
LINE
  5
1194
330
2
100
AcDbEntity
  8
0
100
AcDbLine
 10
598.7435149075714
 20
709.0151667484356
 30
0.0
 11
663.5888143691905
 21
709.0151667484374
 31
0.0
  0
LINE
  5
1195
330
2
100
AcDbEntity
  8
0
100
AcDbLine
 10
671.5803782007529
 20
699.100953186064
 30
0.0
 11
670.7519510760071
 21
699.9293803108089
 31
0.0
  0
LINE
  5
1196
330
2
100
AcDbEntity
  8
0
100
AcDbLine
 10
719.1661646381858
 20
683.0151667484337
 30
0.0
 11
719.0743802157399
 21
693.5326198193547
 31
0.0
  0
ARC
  5
1197
330
2
100
AcDbEntity
  8
0
100
AcDbCircle
 10
718.1094019191609
 20
689.5151667483609
 30
0.0
 40
1.0
100
AcDbArc
 50
0.4999999999654926
 51
90.0
  0
LINE
  5
1198
330
2
100
AcDbEntity
  8
0
100
AcDbLine
 10
719.1661646383805
 20
683.0151667484356
 30
0.0
 11
580.1661646383804
 21
683.0151667484283
 31
0.0
  0
LINE
  5
1199
330
2
100
AcDbEntity
  8
0
100
AcDbLine
 10
683.1661646383795
 20
695.5151667483591
 30
0.0
 11
707.6661646383804
 21
695.5151667483591
 31
0.0
  0
ARC
  5
119A
330
2
100
AcDbEntity
  8
0
100
AcDbCircle
 10
717.074456369612
 20
693.5151667483573
 30
0.0
 40
2.0
100
AcDbArc
 50
0.4999999999654926
 51
72.79123793166125
  0
LINE
  5
119B
330
2
100
AcDbEntity
  8
0
100
AcDbLine
 10
582.2840535103273
 20
698.5151667484392
 30
0.0
 11
680.1661646383795
 21
698.5151667484355
 31
0.0
  0
ARC
  5
119C
330
2
100
AcDbEntity
  8
0
100
AcDbCircle
 10
582.2840535103273
 20
696.5151667484392
 30
0.0
 40
2.0
100
AcDbArc
 50
90.0
 51
179.5000000000344
  0
ARC
  5
119D
330
2
100
AcDbEntity
  8
0
100
AcDbCircle
 10
597.2186020018975
 20
696.5151667484392
 30
0.0
 40
2.0
100
AcDbArc
 50
90.0
 51
179.5000000000344
  0
LINE
  5
119E
330
2
100
AcDbEntity
  8
0
100
AcDbLine
 10
663.9661646383797
 20
704.5151667484356
 30
0.0
 11
664.1661646383795
 21
704.3151667484367
 31
0.0
  0
LINE
  5
119F
330
2
100
AcDbEntity
  8
0
100
AcDbLine
 10
666.1661646383795
 20
701.0151667484356
 30
0.0
 11
666.6661646383795
 21
700.5151667484356
 31
0.0
  0
LINE
  5
11A0
330
2
100
AcDbEntity
  8
0
100
AcDbLine
 10
669.3377375136337
 20
700.5151667484356
 30
0.0
 11
666.6661646383795
 21
700.5151667484356
 31
0.0
  0
LINE
  5
11A1
330
2
100
AcDbEntity
  8
0
100
AcDbLine
 10
664.1661646383795
 20
704.3151667484367
 30
0.0
 11
664.1661646383795
 21
701.0151667484356
 31
0.0
  0
LINE
  5
11A2
330
2
100
AcDbEntity
  8
0
100
AcDbLine
 10
664.1661646383795
 20
708.0151667484356
 30
0.0
 11
663.5888143691905
 21
709.0151667484356
 31
0.0
  0
LINE
  5
11A3
330
2
100
AcDbEntity
  8
0
100
AcDbLine
 10
664.1661646383795
 20
708.0151667484374
 30
0.0
 11
664.1661646383795
 21
706.7151667484363
 31
0.0
  0
LINE
  5
11A4
330
2
100
AcDbEntity
  8
0
100
AcDbLine
 10
663.4661646383797
 20
706.3151667484366
 30
0.0
 11
663.4661646383797
 21
704.7151667484363
 31
0.0
  0
LINE
  5
11A5
330
2
100
AcDbEntity
  8
0
100
AcDbLine
 10
580.1661646383804
 20
683.0151667484283
 30
0.0
 11
580.2841296641995
 21
696.5326198194365
 31
0.0
  0
ARC
  5
11A6
330
2
100
AcDbEntity
  8
0
100
AcDbCircle
 10
581.2229273574062
 20
689.5151667483609
 30
0.0
 40
1.0
100
AcDbArc
 50
90.0
 51
179.5000000000344
  0
LINE
  5
11A7
330
2
100
AcDbEntity
  8
0
100
AcDbLine
 10
590.7519510760071
 20
699.100953186064
 30
0.0
 11
591.5803782007465
 21
699.9293803108034
 31
0.0
  0
LINE
  5
11A8
330
2
100
AcDbEntity
  8
0
100
AcDbLine
 10
596.1661646383804
 20
701.0151667484319
 30
0.0
 11
666.1661646383768
 21
701.0151667484392
 31
0.0
  0
LINE
  5
11A9
330
2
100
AcDbEntity
  8
0
100
AcDbLine
 10
598.3661646383794
 20
704.5151667484319
 30
0.0
 11
663.9661646383842
 21
704.5151667484319
 31
0.0
  0
LINE
  5
11AA
330
2
100
AcDbEntity
  8
0
100
AcDbLine
 10
598.3661646383794
 20
704.5151667484319
 30
0.0
 11
598.1661646383795
 21
704.3151667484312
 31
0.0
  0
LINE
  5
11AB
330
2
100
AcDbEntity
  8
0
100
AcDbLine
 10
598.1661646383795
 20
704.3151667484312
 30
0.0
 11
598.1661646383805
 21
701.0151667484319
 31
0.0
  0
LINE
  5
11AC
330
2
100
AcDbEntity
  8
0
100
AcDbLine
 10
596.1661646383804
 20
701.0151667484319
 30
0.0
 11
595.6661646383804
 21
700.5151667484319
 31
0.0
  0
LINE
  5
11AD
330
2
100
AcDbEntity
  8
0
100
AcDbLine
 10
592.9945917631198
 20
700.5151667484301
 30
0.0
 11
666.6661646383795
 21
700.5151667484356
 31
0.0
  0
LINE
  5
11AE
330
2
100
AcDbEntity
  8
0
100
AcDbLine
 10
598.1661646383795
 20
708.015166748432
 30
0.0
 11
598.7435149075686
 21
709.0151667484319
 31
0.0
  0
LINE
  5
11AF
330
2
100
AcDbEntity
  8
0
100
AcDbLine
 10
598.3661646383794
 20
706.5151667484319
 30
0.0
 11
663.9661646383797
 21
706.5151667484319
 31
0.0
  0
LINE
  5
11B0
330
2
100
AcDbEntity
  8
0
100
AcDbLine
 10
598.1661646383795
 20
708.015166748432
 30
0.0
 11
598.1661646383795
 21
706.7151667484308
 31
0.0
  0
LINE
  5
11B1
330
2
100
AcDbEntity
  8
0
100
AcDbLine
 10
598.8661646383794
 20
706.3151667484312
 30
0.0
 11
598.8661646383794
 21
704.7151667484326
 31
0.0
  0
ARC
  5
11B2
330
2
100
AcDbEntity
  8
0
100
AcDbCircle
 10
592.9945917631198
 20
698.5151667484301
 30
0.0
 40
2.0
100
AcDbArc
 50
90.0
 51
134.9999999999766
  0
ARC
  5
11B3
330
2
100
AcDbEntity
  8
0
100
AcDbCircle
 10
589.3377375136338
 20
700.5151667484374
 30
0.0
 40
2.0
100
AcDbArc
 50
270.0
 51
314.9999999999767
  0
ARC
  5
11B4
330
2
100
AcDbEntity
  8
0
100
AcDbCircle
 10
669.3377375136337
 20
698.5151667484355
 30
0.0
 40
2.0
100
AcDbArc
 50
45.00000000002332
 51
90.0
  0
ARC
  5
11B5
330
2
100
AcDbEntity
  8
0
100
AcDbCircle
 10
672.9945917631253
 20
700.5151667484374
 30
0.0
 40
2.0
100
AcDbArc
 50
225.0000000000233
 51
270.0
  0
ARC
  5
11B6
330
2
100
AcDbEntity
  8
0
100
AcDbCircle
 10
680.1661646383795
 20
696.5151667484356
 30
0.0
 40
2.0
100
AcDbArc
 50
0.0
 51
90.0
  0
ARC
  5
11B7
330
2
100
AcDbEntity
  8
0
100
AcDbCircle
 10
683.1661646383795
 20
696.5151667483592
 30
0.0
 40
1.0
100
AcDbArc
 50
180.0
 51
270.0
  0
ARC
  5
11B8
330
2
100
AcDbEntity
  8
0
100
AcDbCircle
 10
598.3661646383794
 20
706.7151667484327
 30
0.0
 40
0.2
100
AcDbArc
 50
180.0
 51
270.0
  0
ARC
  5
11B9
330
2
100
AcDbEntity
  8
0
100
AcDbCircle
 10
598.6661646383795
 20
706.3151667484312
 30
0.0
 40
0.2
100
AcDbArc
 50
0.0
 51
90.0
  0
ARC
  5
11BA
330
2
100
AcDbEntity
  8
0
100
AcDbCircle
 10
598.6661646383795
 20
704.7151667484326
 30
0.0
 40
0.2
100
AcDbArc
 50
270.0
 51
0.0
  0
ARC
  5
11BB
330
2
100
AcDbEntity
  8
0
100
AcDbCircle
 10
663.9661646383797
 20
706.7151667484363
 30
0.0
 40
0.2
100
AcDbArc
 50
270.0
 51
0.0
  0
ARC
  5
11BC
330
2
100
AcDbEntity
  8
0
100
AcDbCircle
 10
663.6661646383795
 20
706.3151667484366
 30
0.0
 40
0.2
100
AcDbArc
 50
89.99999999997395
 51
180.0
  0
ARC
  5
11BD
330
2
100
AcDbEntity
  8
0
100
AcDbCircle
 10
663.6661646383795
 20
704.7151667484363
 30
0.0
 40
0.2
100
AcDbArc
 50
180.0
 51
270.0
  0
LINE
  5
11BE
330
2
100
AcDbEntity
  8
0
100
AcDbLine
 10
598.1661646383795
 20
708.015166748432
 30
0.0
 11
664.1661646383795
 21
708.0151667484356
 31
0.0
  0
LINE
  5
11BF
330
2
100
AcDbEntity
  8
0
100
AcDbLine
 10
598.1661646383795
 20
704.3151667484312
 30
0.0
 11
664.1661646383795
 21
704.3151667484367
 31
0.0
  0
LINE
  5
11C0
330
2
100
AcDbEntity
  8
0
100
AcDbLine
 10
682.1661646383822
 20
696.5151667484356
 30
0.0
 11
682.1661646383822
 21
683.0151667484337
 31
0.0
  0
LINE
  5
11C1
330
2
100
AcDbEntity
  8
0
100
AcDbLine
 10
706.2841726816864
 20
690.515166748361
 30
0.0
 11
718.1094019191609
 21
690.515166748361
 31
0.0
  0
LINE
  5
11C2
330
2
100
AcDbEntity
  8
0
100
AcDbLine
 10
705.7843440191995
 20
691.0020782742072
 30
0.0
 11
705.7171655464867
 21
693.5675206449782
 31
0.0
  0
ARC
  5
11C3
330
2
100
AcDbEntity
  8
0
100
AcDbCircle
 10
703.7178508965357
 20
693.515166748361
 30
0.0
 40
2.0
100
AcDbArc
 50
1.499999999989693
 51
90.0
  0
ARC
  5
11C4
330
2
100
AcDbEntity
  8
0
100
AcDbCircle
 10
706.2841726816864
 20
691.015166748361
 30
0.0
 40
0.5
100
AcDbArc
 50
181.4999999999897
 51
270.0
  0
LINE
  5
11C5
330
2
100
AcDbEntity
  8
0
100
AcDbLine
 10
595.1748153508492
 20
691.5064402128614
 30
0.0
 11
595.2186781557688
 21
696.5326198194365
 31
0.0
  0
LINE
  5
11C6
330
2
100
AcDbEntity
  8
0
100
AcDbLine
 10
581.2229273574062
 20
690.515166748361
 30
0.0
 11
594.1748534277853
 21
690.515166748361
 31
0.0
  0
ARC
  5
11C7
330
2
100
AcDbEntity
  8
0
100
AcDbCircle
 10
594.1748534277853
 20
691.515166748361
 30
0.0
 40
1.0
100
AcDbArc
 50
270.0
 51
359.5000000000345
  0
LINE
  5
11C8
330
2
100
AcDbEntity
  8
0
100
AcDbLine
 10
588.1661646383795
 20
689.5238932838587
 30
0.0
 11
588.1661646383795
 21
683.0151667484283
 31
0.0
  0
LINE
  5
11C9
330
2
100
AcDbEntity
  8
0
100
AcDbLine
 10
591.1661646383795
 20
689.5238932838587
 30
0.0
 11
591.1661646383795
 21
683.0151667484283
 31
0.0
  0
LINE
  5
11CA
330
2
100
AcDbEntity
  8
0
100
AcDbLine
 10
610.6260654612047
 20
683.0151667484301
 30
0.0
 11
610.6260654612047
 21
696.5326198194365
 31
0.0
  0
LINE
  5
11CB
330
2
100
AcDbEntity
  8
0
100
AcDbLine
 10
674.1661646383804
 20
696.5326198194365
 30
0.0
 11
674.1661646383804
 21
683.0151667484283
 31
0.0
  0
LINE
  5
11CC
330
2
100
AcDbEntity
  8
0
100
AcDbLine
 10
671.1661646383795
 20
696.5326198194365
 30
0.0
 11
671.1661646383795
 21
683.0151667484283
 31
0.0
  0
LINE
  5
11CD
330
2
100
AcDbEntity
  8
0
100
AcDbLine
 10
651.7062638155543
 20
683.0151667484301
 30
0.0
 11
651.7062638155543
 21
696.5326198194365
 31
0.0
  0
LINE
  5
11CE
330
2
100
AcDbEntity
  8
CENTER
  6
CENS
100
AcDbLine
 10
588.166164638374
 20
678.5590275578747
 30
0.0
 11
588.166164638374
 21
701.015166748361
 31
0.0
  0
LINE
  5
11CF
330
2
100
AcDbEntity
  8
0
100
AcDbLine
 10
593.1661646383741
 20
697.6151667483613
 30
0.0
 11
592.4733443153459
 21
698.015166748361
 31
0.0
  0
LINE
  5
11D0
330
2
100
AcDbEntity
  8
0
100
AcDbLine
 10
593.1661646383741
 20
692.015166748361
 30
0.0
 11
583.166164638374
 21
692.015166748361
 31
0.0
  0
LINE
  5
11D1
330
2
100
AcDbEntity
  8
0
100
AcDbLine
 10
593.1661646383741
 20
697.6151667483613
 30
0.0
 11
583.166164638374
 21
697.6151667483613
 31
0.0
  0
LINE
  5
11D2
330
2
100
AcDbEntity
  8
0
100
AcDbLine
 10
593.1661646383741
 20
690.515166748361
 30
0.0
 11
593.1661646383741
 21
697.6151667483613
 31
0.0
  0
LINE
  5
11D3
330
2
100
AcDbEntity
  8
0
100
AcDbLine
 10
583.166164638374
 20
690.515166748361
 30
0.0
 11
583.166164638374
 21
697.6151667483613
 31
0.0
  0
LINE
  5
11D4
330
2
100
AcDbEntity
  8
0
100
AcDbLine
 10
583.166164638374
 20
697.6151667483613
 30
0.0
 11
583.8589849614013
 21
698.015166748361
 31
0.0
  0
LINE
  5
11D5
330
2
100
AcDbEntity
  8
0
100
AcDbLine
 10
592.4733443153459
 20
698.015166748361
 30
0.0
 11
583.8589849614013
 21
698.015166748361
 31
0.0
  0
LINE
  5
11D6
330
2
100
AcDbEntity
  8
CENTER
  6
CENS
100
AcDbLine
 10
712.6661646383804
 20
678.5590275578747
 30
0.0
 11
712.6661646383804
 21
701.015166748361
 31
0.0
  0
LINE
  5
11D7
330
2
100
AcDbEntity
  8
0
100
AcDbLine
 10
717.6661646383804
 20
697.6151667483613
 30
0.0
 11
716.9733443153532
 21
698.015166748361
 31
0.0
  0
LINE
  5
11D8
330
2
100
AcDbEntity
  8
0
100
AcDbLine
 10
717.6661646383804
 20
692.015166748361
 30
0.0
 11
707.6661646383804
 21
692.015166748361
 31
0.0
  0
LINE
  5
11D9
330
2
100
AcDbEntity
  8
0
100
AcDbLine
 10
717.6661646383804
 20
697.6151667483613
 30
0.0
 11
707.6661646383804
 21
697.6151667483613
 31
0.0
  0
LINE
  5
11DA
330
2
100
AcDbEntity
  8
0
100
AcDbLine
 10
717.6661646383804
 20
690.515166748361
 30
0.0
 11
717.6661646383804
 21
697.6151667483613
 31
0.0
  0
LINE
  5
11DB
330
2
100
AcDbEntity
  8
0
100
AcDbLine
 10
707.6661646383804
 20
690.515166748361
 30
0.0
 11
707.6661646383804
 21
697.6151667483613
 31
0.0
  0
LINE
  5
11DC
330
2
100
AcDbEntity
  8
0
100
AcDbLine
 10
707.6661646383804
 20
697.6151667483613
 30
0.0
 11
708.3589849614077
 21
698.015166748361
 31
0.0
  0
LINE
  5
11DD
330
2
100
AcDbEntity
  8
0
100
AcDbLine
 10
716.9733443153532
 20
698.015166748361
 30
0.0
 11
708.3589849614077
 21
698.015166748361
 31
0.0
  0
LINE
  5
11DE
330
2
100
AcDbEntity
  8
0
100
AcDbLine
 10
415.7535924130911
 20
86.33834886564574
 30
0.0
 11
415.7535924130911
 21
121.5576852516972
 31
0.0
  0
LINE
  5
11DF
330
2
100
AcDbEntity
  8
0
100
AcDbLine
 10
415.7535924130911
 20
153.1190124795924
 30
0.0
 11
415.7535924130911
 21
188.3383488656457
 31
0.0
  0
LINE
  5
11E0
330
2
100
AcDbEntity
  8
CENTER
100
AcDbLine
 10
443.7535924130911
 20
76.58270116378691
 30
0.0
 11
443.7535924130911
 21
198.0939965675045
 31
0.0
  0
LINE
  5
11E1
330
2
100
AcDbEntity
  8
0
100
AcDbLine
 10
481.7535924130911
 20
86.91432213983564
 30
0.0
 11
481.7535924130911
 21
122.1125345987023
 31
0.0
  0
LINE
  5
11E2
330
2
100
AcDbEntity
  8
0
100
AcDbLine
 10
481.7535924130911
 20
152.5641631325873
 30
0.0
 11
481.7535924130911
 21
187.7623755914558
 31
0.0
  0
LINE
  5
11E3
330
2
100
AcDbEntity
  8
CENTER
100
AcDbLine
 10
523.753592413092
 20
137.3383488656457
 30
0.0
 11
377.7536994130919
 21
137.3383488656457
 31
0.0
  0
LINE
  5
11E4
330
2
100
AcDbEntity
  8
0
100
AcDbLine
 10
486.7535924130911
 20
92.33834886564574
 30
0.0
 11
486.7535924130893
 21
121.792017892147
 31
0.0
  0
LINE
  5
11E5
330
2
100
AcDbEntity
  8
0
100
AcDbLine
 10
486.7535924130866
 20
152.8846798391444
 30
0.0
 11
486.7535924130847
 21
182.3383488656457
 31
0.0
  0
LINE
  5
11E6
330
2
100
AcDbEntity
  8
0
100
AcDbLine
 10
481.7535924130911
 20
92.33834886564574
 30
0.0
 11
486.7535924130911
 21
92.33834886564574
 31
0.0
  0
LINE
  5
11E7
330
2
100
AcDbEntity
  8
0
100
AcDbLine
 10
481.7535924130911
 20
182.3383488656457
 30
0.0
 11
486.7535924130911
 21
182.3383488656457
 31
0.0
  0
LINE
  5
11E8
330
2
100
AcDbEntity
  8
0
100
AcDbLine
 10
415.7535924130911
 20
188.3383488656457
 30
0.0
 11
481.7535924130911
 21
187.7623755914558
 31
0.0
  0
LINE
  5
11E9
330
2
100
AcDbEntity
  8
0
100
AcDbLine
 10
415.7535924130911
 20
86.33834886564574
 30
0.0
 11
481.7535924130911
 21
86.91432213983564
 31
0.0
  0
LINE
  5
11EA
330
2
100
AcDbEntity
  8
0
100
AcDbLine
 10
500.7535924130912
 20
169.4069713160318
 30
0.0
 11
500.7535924130912
 21
154.3382526510288
 31
0.0
  0
LINE
  5
11EB
330
2
100
AcDbEntity
  8
0
100
AcDbLine
 10
500.753592413092
 20
120.3383446510291
 30
0.0
 11
500.7535924130929
 21
105.2697264152578
 31
0.0
  0
LINE
  5
11EC
330
2
100
AcDbEntity
  8
0
100
AcDbLine
 10
488.6837934196878
 20
102.9168621971842
 30
0.0
 11
498.8233914064972
 21
103.2709447612199
 31
0.0
  0
LINE
  5
11ED
330
2
100
AcDbEntity
  8
0
100
AcDbLine
 10
488.6837934196878
 20
171.7598355341054
 30
0.0
 11
498.8233914064962
 21
171.4057529700697
 31
0.0
  0
ARC
  5
11EE
330
2
100
AcDbEntity
  8
0
100
AcDbCircle
 10
498.7535924130911
 20
169.4069713160318
 30
0.0
 40
2.0
100
AcDbArc
 50
0.0
 51
87.99999999999636
  0
ARC
  5
11EF
330
2
100
AcDbEntity
  8
0
100
AcDbCircle
 10
488.753592413092
 20
173.7586171881433
 30
0.0
 40
2.0
100
AcDbArc
 50
180.0
 51
267.9999999999963
  0
ARC
  5
11F0
330
2
100
AcDbEntity
  8
0
100
AcDbCircle
 10
498.753592413093
 20
105.2697264152578
 30
0.0
 40
2.0
100
AcDbArc
 50
272.0000000000036
 51
0.0
  0
ARC
  5
11F1
330
2
100
AcDbEntity
  8
0
100
AcDbCircle
 10
488.753592413092
 20
100.9180805431445
 30
0.0
 40
2.0
100
AcDbArc
 50
92.00000000000365
 51
180.0
  0
LINE
  5
11F2
330
2
100
AcDbEntity
  8
0
100
AcDbLine
 10
415.7535924130911
 20
177.3383488656421
 30
0.0
 11
480.7535924130911
 21
177.3383488656421
 31
0.0
  0
LINE
  5
11F3
330
2
100
AcDbEntity
  8
0
100
AcDbLine
 10
415.7535924130911
 20
180.3383488656439
 30
0.0
 11
480.7535924130911
 21
180.3383488656439
 31
0.0
  0
LINE
  5
11F4
330
2
100
AcDbEntity
  8
0
100
AcDbLine
 10
415.7535924130911
 20
177.3383488656421
 30
0.0
 11
480.7535924130911
 21
177.3383488656421
 31
0.0
  0
LINE
  5
11F5
330
2
100
AcDbEntity
  8
0
100
AcDbLine
 10
415.7535924130911
 20
157.8784480428151
 30
0.0
 11
480.7535924130911
 21
157.8784480428151
 31
0.0
  0
LINE
  5
11F6
330
2
100
AcDbEntity
  8
0
100
AcDbLine
 10
415.7535924130911
 20
97.33834886564393
 30
0.0
 11
480.7535924130911
 21
97.33834886564393
 31
0.0
  0
LINE
  5
11F7
330
2
100
AcDbEntity
  8
0
100
AcDbLine
 10
415.7535924130911
 20
94.33834886564573
 30
0.0
 11
480.7535924130911
 21
94.33834886564573
 31
0.0
  0
LINE
  5
11F8
330
2
100
AcDbEntity
  8
0
100
AcDbLine
 10
415.7535924130911
 20
97.33834886564393
 30
0.0
 11
480.7535924130911
 21
97.33834886564393
 31
0.0
  0
LINE
  5
11F9
330
2
100
AcDbEntity
  8
0
100
AcDbLine
 10
415.7535924130911
 20
116.7982496884745
 30
0.0
 11
480.7535924130911
 21
116.7982496884745
 31
0.0
  0
LINE
  5
11FA
330
2
100
AcDbEntity
  8
0
100
AcDbLine
 10
389.7535924130861
 20
104.9156991348375
 30
0.0
 11
389.7535924130861
 21
120.3383446510291
 31
0.0
  0
LINE
  5
11FB
330
2
100
AcDbEntity
  8
0
100
AcDbLine
 10
389.7535924130861
 20
154.3383446510291
 30
0.0
 11
389.7535924130861
 21
169.7609985964557
 31
0.0
  0
LINE
  5
11FC
330
2
100
AcDbEntity
  8
0
100
AcDbLine
 10
390.7535924130856
 20
111.3383488656457
 30
0.0
 11
390.7535924130856
 21
120.3383446510291
 31
0.0
  0
LINE
  5
11FD
330
2
100
AcDbEntity
  8
0
100
AcDbLine
 10
390.7535924130856
 20
154.3383446510291
 30
0.0
 11
390.7535924130856
 21
163.3383488656457
 31
0.0
  0
LINE
  5
11FE
330
2
100
AcDbEntity
  8
0
100
AcDbLine
 10
398.7535924130856
 20
164.2336051793702
 30
0.0
 11
398.7535924130856
 21
154.3383446510291
 31
0.0
  0
LINE
  5
11FF
330
2
100
AcDbEntity
  8
0
100
AcDbLine
 10
398.7535924130856
 20
120.3383446510291
 30
0.0
 11
398.7535924130856
 21
110.4430925519212
 31
0.0
  0
LINE
  5
1200
330
2
100
AcDbEntity
  8
0
100
AcDbLine
 10
399.667805975459
 20
177.7525624280172
 30
0.0
 11
398.8393788507142
 21
176.9241353032724
 31
0.0
  0
LINE
  5
1201
330
2
100
AcDbEntity
  8
0
100
AcDbLine
 10
400.2535924130838
 20
88.45623773759355
 30
0.0
 11
400.2535924130838
 21
110.9641811061867
 31
0.0
  0
LINE
  5
1202
330
2
100
AcDbEntity
  8
0
100
AcDbLine
 10
400.2535924130857
 20
163.712516625101
 30
0.0
 11
400.2535924130857
 21
186.2204599936979
 31
0.0
  0
ARC
  5
1203
330
2
100
AcDbEntity
  8
0
100
AcDbCircle
 10
402.2535924130838
 20
88.45623773759355
 30
0.0
 40
2.0
100
AcDbArc
 50
180.0
 51
269.5000000000084
  0
ARC
  5
1204
330
2
100
AcDbEntity
  8
0
100
AcDbCircle
 10
402.2535924130838
 20
103.3907862291619
 30
0.0
 40
2.0
100
AcDbArc
 50
180.0
 51
269.5000000000084
  0
LINE
  5
1205
330
2
100
AcDbEntity
  8
0
100
AcDbLine
 10
398.7535924130856
 20
163.3383488656457
 30
0.0
 11
390.7535924130856
 21
163.3383488656457
 31
0.0
  0
LINE
  5
1206
330
2
100
AcDbEntity
  8
0
100
AcDbLine
 10
394.2535924130856
 20
170.138348865645
 30
0.0
 11
394.4535924130864
 21
170.3383488656457
 31
0.0
  0
LINE
  5
1207
330
2
100
AcDbEntity
  8
0
100
AcDbLine
 10
397.7535924130857
 20
172.3383488656457
 30
0.0
 11
398.2535924130857
 21
172.8383488656457
 31
0.0
  0
LINE
  5
1208
330
2
100
AcDbEntity
  8
0
100
AcDbLine
 10
398.2535924130875
 20
175.509921740899
 30
0.0
 11
398.2535924130857
 21
172.8383488656457
 31
0.0
  0
LINE
  5
1209
330
2
100
AcDbEntity
  8
0
100
AcDbLine
 10
394.4535924130864
 20
170.3383488656457
 30
0.0
 11
397.7535924130857
 21
170.3383488656457
 31
0.0
  0
LINE
  5
120A
330
2
100
AcDbEntity
  8
0
100
AcDbLine
 10
399.8438951065668
 20
164.2621557601872
 30
0.0
 11
398.7535924130856
 21
164.2336051793702
 31
0.0
  0
LINE
  5
120B
330
2
100
AcDbEntity
  8
0
100
AcDbLine
 10
390.7535924130856
 20
170.3383488656457
 30
0.0
 11
389.7535924130861
 21
169.7609985964557
 31
0.0
  0
LINE
  5
120C
330
2
100
AcDbEntity
  8
0
100
AcDbLine
 10
390.7535924130856
 20
170.3383488656457
 30
0.0
 11
392.0535924130867
 21
170.3383488656457
 31
0.0
  0
LINE
  5
120D
330
2
100
AcDbEntity
  8
0
100
AcDbLine
 10
392.4535924130864
 20
169.638348865645
 30
0.0
 11
394.0535924130868
 21
169.638348865645
 31
0.0
  0
LINE
  5
120E
330
2
100
AcDbEntity
  8
0
100
AcDbLine
 10
390.7535924130856
 20
163.3383488656457
 30
0.0
 11
389.7535924130861
 21
163.9156991348357
 31
0.0
  0
LINE
  5
120F
330
2
100
AcDbEntity
  8
0
100
AcDbLine
 10
415.7535924130947
 20
86.33834886564574
 30
0.0
 11
402.2361393420864
 21
86.45631389146393
 31
0.0
  0
ARC
  5
1210
330
2
100
AcDbEntity
  8
0
100
AcDbCircle
 10
409.253592413162
 20
87.39511158467058
 30
0.0
 40
1.0
100
AcDbArc
 50
180.0
 51
269.5000000000084
  0
LINE
  5
1211
330
2
100
AcDbEntity
  8
0
100
AcDbLine
 10
399.667805975459
 20
96.92413530327241
 30
0.0
 11
398.8393788507196
 21
97.7525624280118
 31
0.0
  0
LINE
  5
1212
330
2
100
AcDbEntity
  8
0
100
AcDbLine
 10
398.7535924130856
 20
111.3383488656457
 30
0.0
 11
390.7535924130856
 21
111.3383488656457
 31
0.0
  0
LINE
  5
1213
330
2
100
AcDbEntity
  8
0
100
AcDbLine
 10
397.7535924130911
 20
102.3383488656457
 30
0.0
 11
397.7535924130911
 21
109.5361629242655
 31
0.0
  0
LINE
  5
1214
330
2
100
AcDbEntity
  8
0
100
AcDbLine
 10
397.7535924130839
 20
165.1405348070241
 30
0.0
 11
397.7535924130839
 21
172.3383488656421
 31
0.0
  0
LINE
  5
1215
330
2
100
AcDbEntity
  8
0
100
AcDbLine
 10
394.2535924130911
 20
104.5383488656446
 30
0.0
 11
394.2535924130911
 21
109.5840518161461
 31
0.0
  0
LINE
  5
1216
330
2
100
AcDbEntity
  8
0
100
AcDbLine
 10
394.2535924130911
 20
165.0926459151435
 30
0.0
 11
394.2535924130911
 21
170.1383488656504
 31
0.0
  0
LINE
  5
1217
330
2
100
AcDbEntity
  8
0
100
AcDbLine
 10
394.2535924130911
 20
104.5383488656446
 30
0.0
 11
394.4535924130919
 21
104.3383488656457
 31
0.0
  0
LINE
  5
1218
330
2
100
AcDbEntity
  8
0
100
AcDbLine
 10
394.4535924130919
 20
104.3383488656457
 30
0.0
 11
397.7535924130911
 21
104.3383488656457
 31
0.0
  0
LINE
  5
1219
330
2
100
AcDbEntity
  8
0
100
AcDbLine
 10
397.7535924130911
 20
102.3383488656457
 30
0.0
 11
398.2535924130911
 21
101.8383488656457
 31
0.0
  0
LINE
  5
121A
330
2
100
AcDbEntity
  8
0
100
AcDbLine
 10
398.253592413093
 20
99.16677599038514
 30
0.0
 11
398.2535924130911
 21
109.5903925548394
 31
0.0
  0
LINE
  5
121B
330
2
100
AcDbEntity
  8
0
100
AcDbLine
 10
398.2535924130875
 20
165.086305176452
 30
0.0
 11
398.2535924130857
 21
172.8383488656457
 31
0.0
  0
LINE
  5
121C
330
2
100
AcDbEntity
  8
0
100
AcDbLine
 10
390.7535924130856
 20
111.3383488656457
 30
0.0
 11
389.7535924130861
 21
110.7609985964575
 31
0.0
  0
LINE
  5
121D
330
2
100
AcDbEntity
  8
0
100
AcDbLine
 10
390.7535924130911
 20
104.3383488656439
 30
0.0
 11
389.7535924130906
 21
104.9156991348339
 31
0.0
  0
LINE
  5
121E
330
2
100
AcDbEntity
  8
0
100
AcDbLine
 10
392.2535924130911
 20
104.5383488656446
 30
0.0
 11
392.2535924130911
 21
109.4643529301286
 31
0.0
  0
LINE
  5
121F
330
2
100
AcDbEntity
  8
0
100
AcDbLine
 10
392.2535924130911
 20
165.212344801161
 30
0.0
 11
392.2535924130911
 21
170.138348865645
 31
0.0
  0
LINE
  5
1220
330
2
100
AcDbEntity
  8
0
100
AcDbLine
 10
390.7535924130911
 20
104.3383488656439
 30
0.0
 11
392.0535924130904
 21
104.3383488656457
 31
0.0
  0
LINE
  5
1221
330
2
100
AcDbEntity
  8
0
100
AcDbLine
 10
392.4535924130919
 20
105.0383488656446
 30
0.0
 11
394.0535924130904
 21
105.0383488656446
 31
0.0
  0
LINE
  5
1222
330
2
100
AcDbEntity
  8
0
100
AcDbLine
 10
399.8438951065659
 20
110.4145419711024
 30
0.0
 11
398.7535924130856
 21
110.4430925519212
 31
0.0
  0
ARC
  5
1223
330
2
100
AcDbEntity
  8
0
100
AcDbCircle
 10
400.2535924130929
 20
99.16677599038514
 30
0.0
 40
2.0
100
AcDbArc
 50
180.0
 51
225.0000000000187
  0
ARC
  5
1224
330
2
100
AcDbEntity
  8
0
100
AcDbCircle
 10
398.2535924130857
 20
95.50992174089907
 30
0.0
 40
2.0
100
AcDbArc
 50
0.0
 51
45.00000000001871
  0
ARC
  5
1225
330
2
100
AcDbEntity
  8
0
100
AcDbCircle
 10
400.2535924130874
 20
175.509921740899
 30
0.0
 40
2.0
100
AcDbArc
 50
134.9999999999812
 51
180.0
  0
ARC
  5
1226
330
2
100
AcDbEntity
  8
0
100
AcDbCircle
 10
398.2535924130857
 20
179.1667759903905
 30
0.0
 40
2.0
100
AcDbArc
 50
314.9999999999812
 51
0.0
  0
ARC
  5
1227
330
2
100
AcDbEntity
  8
0
100
AcDbCircle
 10
392.0535924130904
 20
104.5383488656446
 30
0.0
 40
0.2
100
AcDbArc
 50
270.000000000026
 51
0.0
  0
ARC
  5
1228
330
2
100
AcDbEntity
  8
0
100
AcDbCircle
 10
392.4535924130919
 20
104.8383488656439
 30
0.0
 40
0.2
100
AcDbArc
 50
90.00000000002605
 51
180.0
  0
ARC
  5
1229
330
2
100
AcDbEntity
  8
0
100
AcDbCircle
 10
394.0535924130904
 20
104.8383488656457
 30
0.0
 40
0.2
100
AcDbArc
 50
0.0
 51
90.00000000002605
  0
ARC
  5
122A
330
2
100
AcDbEntity
  8
0
100
AcDbCircle
 10
392.0535924130867
 20
170.138348865645
 30
0.0
 40
0.2
100
AcDbArc
 50
0.0
 51
90.0
  0
ARC
  5
122B
330
2
100
AcDbEntity
  8
0
100
AcDbCircle
 10
392.4535924130864
 20
169.8383488656457
 30
0.0
 40
0.2
100
AcDbArc
 50
180.0
 51
270.0
  0
ARC
  5
122C
330
2
100
AcDbEntity
  8
0
100
AcDbCircle
 10
394.0535924130868
 20
169.8383488656457
 30
0.0
 40
0.2
100
AcDbArc
 50
270.0
 51
0.0
  0
LINE
  5
122D
330
2
100
AcDbEntity
  8
0
100
AcDbLine
 10
390.7535924130911
 20
104.3383488656439
 30
0.0
 11
390.7535924130911
 21
109.1096166208138
 31
0.0
  0
LINE
  5
122E
330
2
100
AcDbEntity
  8
0
100
AcDbLine
 10
390.7535924130866
 20
165.5670811104794
 30
0.0
 11
390.7535924130856
 21
170.3383488656457
 31
0.0
  0
LINE
  5
122F
330
2
100
AcDbEntity
  8
0
100
AcDbLine
 10
394.4535924130919
 20
104.3383488656457
 30
0.0
 11
394.45359241309
 21
109.5845425761074
 31
0.0
  0
LINE
  5
1230
330
2
100
AcDbEntity
  8
0
100
AcDbLine
 10
394.4535924130864
 20
165.0921551551821
 30
0.0
 11
394.4535924130864
 21
170.3383488656457
 31
0.0
  0
LINE
  5
1231
330
2
100
AcDbEntity
  8
0
100
AcDbLine
 10
407.2623189486598
 20
101.3469995781145
 30
0.0
 11
402.2361393420864
 21
101.3908623830341
 31
0.0
  0
LINE
  5
1232
330
2
100
AcDbEntity
  8
0
100
AcDbLine
 10
408.2535924131621
 20
87.39511158467058
 30
0.0
 11
408.2535924131621
 21
100.3470376550506
 31
0.0
  0
ARC
  5
1233
330
2
100
AcDbEntity
  8
0
100
AcDbCircle
 10
407.2535924131621
 20
100.3470376550506
 30
0.0
 40
1.0
100
AcDbArc
 50
0.0
 51
89.5000000000345
  0
ARC
  5
1234
330
2
100
AcDbEntity
  8
0
100
AcDbCircle
 10
402.2535924130838
 20
186.2204599936979
 30
0.0
 40
2.0
100
AcDbArc
 50
90.49999999999155
 51
180.0
  0
ARC
  5
1235
330
2
100
AcDbEntity
  8
0
100
AcDbCircle
 10
402.2535924130838
 20
171.2859115021277
 30
0.0
 40
2.0
100
AcDbArc
 50
90.49999999999155
 51
180.0
  0
LINE
  5
1236
330
2
100
AcDbEntity
  8
0
100
AcDbLine
 10
415.7535924130947
 20
188.3383488656439
 30
0.0
 11
402.2361393420864
 21
188.2203838398257
 31
0.0
  0
ARC
  5
1237
330
2
100
AcDbEntity
  8
0
100
AcDbCircle
 10
409.253592413162
 20
187.281586146619
 30
0.0
 40
1.0
100
AcDbArc
 50
90.49999999999155
 51
180.0
  0
LINE
  5
1238
330
2
100
AcDbEntity
  8
0
100
AcDbLine
 10
407.2623189486598
 20
173.3296981531751
 30
0.0
 11
402.2361393420864
 21
173.2858353482555
 31
0.0
  0
LINE
  5
1239
330
2
100
AcDbEntity
  8
0
100
AcDbLine
 10
408.2535924131621
 20
187.281586146619
 30
0.0
 11
408.2535924131621
 21
174.329660076239
 31
0.0
  0
ARC
  5
123A
330
2
100
AcDbEntity
  8
0
100
AcDbCircle
 10
407.2535924131621
 20
174.329660076239
 30
0.0
 40
1.0
100
AcDbArc
 50
270.4999999999654
 51
0.0
  0
LINE
  5
123B
330
2
100
AcDbEntity
  8
CENTER
  6
CENS
100
AcDbLine
 10
423.6619885247814
 20
180.3383488656457
 30
0.0
 11
397.753592413162
 21
180.3383488656457
 31
0.0
  0
LINE
  5
123C
330
2
100
AcDbEntity
  8
0
100
AcDbLine
 10
401.1535924131617
 20
185.3383488656457
 30
0.0
 11
400.753592413162
 21
184.6455285426184
 31
0.0
  0
LINE
  5
123D
330
2
100
AcDbEntity
  8
0
100
AcDbLine
 10
406.7535924131621
 20
185.3383488656457
 30
0.0
 11
406.7535924131621
 21
175.3383488656457
 31
0.0
  0
LINE
  5
123E
330
2
100
AcDbEntity
  8
0
100
AcDbLine
 10
401.1535924131617
 20
185.3383488656457
 30
0.0
 11
401.1535924131617
 21
175.3383488656457
 31
0.0
  0
LINE
  5
123F
330
2
100
AcDbEntity
  8
0
100
AcDbLine
 10
408.2535924131621
 20
185.3383488656457
 30
0.0
 11
401.1535924131617
 21
185.3383488656457
 31
0.0
  0
LINE
  5
1240
330
2
100
AcDbEntity
  8
0
100
AcDbLine
 10
408.2535924131621
 20
175.3383488656457
 30
0.0
 11
401.1535924131617
 21
175.3383488656457
 31
0.0
  0
LINE
  5
1241
330
2
100
AcDbEntity
  8
0
100
AcDbLine
 10
401.1535924131617
 20
175.3383488656457
 30
0.0
 11
400.753592413162
 21
176.031169188673
 31
0.0
  0
LINE
  5
1242
330
2
100
AcDbEntity
  8
0
100
AcDbLine
 10
400.753592413162
 20
184.6455285426184
 30
0.0
 11
400.753592413162
 21
176.031169188673
 31
0.0
  0
LINE
  5
1243
330
2
100
AcDbEntity
  8
CENTER
  6
CENS
100
AcDbLine
 10
423.6619885247814
 20
94.33834886564573
 30
0.0
 11
397.753592413162
 21
94.33834886564573
 31
0.0
  0
LINE
  5
1244
330
2
100
AcDbEntity
  8
0
100
AcDbLine
 10
401.1535924131617
 20
89.33834886564573
 30
0.0
 11
400.753592413162
 21
90.031169188673
 31
0.0
  0
LINE
  5
1245
330
2
100
AcDbEntity
  8
0
100
AcDbLine
 10
406.7535924131621
 20
89.33834886564573
 30
0.0
 11
406.7535924131621
 21
99.33834886564575
 31
0.0
  0
LINE
  5
1246
330
2
100
AcDbEntity
  8
0
100
AcDbLine
 10
401.1535924131617
 20
89.33834886564573
 30
0.0
 11
401.1535924131617
 21
99.33834886564575
 31
0.0
  0
LINE
  5
1247
330
2
100
AcDbEntity
  8
0
100
AcDbLine
 10
408.2535924131621
 20
89.33834886564573
 30
0.0
 11
401.1535924131617
 21
89.33834886564573
 31
0.0
  0
LINE
  5
1248
330
2
100
AcDbEntity
  8
0
100
AcDbLine
 10
408.2535924131621
 20
99.33834886564575
 30
0.0
 11
401.1535924131617
 21
99.33834886564575
 31
0.0
  0
LINE
  5
1249
330
2
100
AcDbEntity
  8
0
100
AcDbLine
 10
401.1535924131617
 20
99.33834886564575
 30
0.0
 11
400.753592413162
 21
98.64552854261848
 31
0.0
  0
LINE
  5
124A
330
2
100
AcDbEntity
  8
0
100
AcDbLine
 10
400.753592413162
 20
90.031169188673
 30
0.0
 11
400.753592413162
 21
98.64552854261848
 31
0.0
  0
LINE
  5
124B
330
2
100
AcDbEntity
  8
CENTER
  6
CENS
100
AcDbLine
 10
505.7535924131821
 20
143.5372080603977
 30
0.0
 11
505.7535924131821
 21
161.9393922416587
 31
0.0
  0
LINE
  5
124C
330
2
100
AcDbEntity
  8
0
100
AcDbLine
 10
480.753592413092
 20
148.838344651029
 30
0.0
 11
412.7536844130913
 21
148.838344651029
 31
0.0
  0
LINE
  5
124D
330
2
100
AcDbEntity
  8
0
100
AcDbLine
 10
412.7536844130913
 20
148.3383446510291
 30
0.0
 11
401.7536994130919
 21
148.3383446510291
 31
0.0
  0
LINE
  5
124E
330
2
100
AcDbEntity
  8
0
100
AcDbLine
 10
401.4782124602475
 20
154.3383446510291
 30
0.0
 11
387.7536994130919
 21
154.3383446510291
 31
0.0
  0
LINE
  5
124F
330
2
100
AcDbEntity
  8
0
100
AcDbLine
 10
400.6036014130927
 20
148.3383446510291
 30
0.0
 11
389.7536994130918
 21
148.3383446510291
 31
0.0
  0
LINE
  5
1250
330
2
100
AcDbEntity
  8
0
100
AcDbLine
 10
401.7536994130919
 20
148.838344651029
 30
0.0
 11
400.6036014130927
 21
148.838344651029
 31
0.0
  0
LINE
  5
1251
330
2
100
AcDbEntity
  8
0
100
AcDbLine
 10
389.7536994130918
 20
148.3383446510291
 30
0.0
 11
387.7536994130919
 21
149.4929466510278
 31
0.0
  0
LINE
  5
1252
330
2
100
AcDbEntity
  8
0
100
AcDbLine
 10
401.4782080420568
 20
120.3383446510291
 30
0.0
 11
387.7536994130919
 21
120.3383446510291
 31
0.0
  0
LINE
  5
1253
330
2
100
AcDbEntity
  8
0
100
AcDbLine
 10
400.6036014130927
 20
126.3383446510291
 30
0.0
 11
389.7536994130918
 21
126.3383446510291
 31
0.0
  0
LINE
  5
1254
330
2
100
AcDbEntity
  8
0
100
AcDbLine
 10
401.7536994130919
 20
125.838344651029
 30
0.0
 11
400.6036014130927
 21
125.838344651029
 31
0.0
  0
LINE
  5
1255
330
2
100
AcDbEntity
  8
0
100
AcDbLine
 10
389.7536994130918
 20
126.3383446510291
 30
0.0
 11
387.7536994130919
 21
125.1837426510285
 31
0.0
  0
LINE
  5
1256
330
2
100
AcDbEntity
  8
0
100
AcDbLine
 10
412.7536844130913
 20
148.838344651029
 30
0.0
 11
412.7536844130913
 21
125.8383457370912
 31
0.0
  0
LINE
  5
1257
330
2
100
AcDbEntity
  8
0
100
AcDbLine
 10
387.7536994130919
 20
154.3383446510291
 30
0.0
 11
387.7536994130919
 21
120.3383446510291
 31
0.0
  0
LINE
  5
1258
330
2
100
AcDbEntity
  8
0
100
AcDbLine
 10
389.7536994130918
 20
126.3383446510291
 30
0.0
 11
389.7536994130918
 21
148.3383446510291
 31
0.0
  0
LINE
  5
1259
330
2
100
AcDbEntity
  8
0
100
AcDbLine
 10
401.7536994130919
 20
125.838344651029
 30
0.0
 11
401.7536994130919
 21
148.838344651029
 31
0.0
  0
LINE
  5
125A
330
2
100
AcDbEntity
  8
0
100
AcDbLine
 10
400.6036014130927
 20
125.838344651029
 30
0.0
 11
400.6036014130927
 21
148.838344651029
 31
0.0
  0
LINE
  5
125B
330
2
100
AcDbEntity
  8
0
100
AcDbLine
 10
513.753592413092
 20
151.1383476510275
 30
0.0
 11
387.7536994130914
 21
151.1383476510275
 31
0.0
  0
LINE
  5
125C
330
2
100
AcDbEntity
  8
0
100
AcDbLine
 10
509.2535454267113
 20
125.8383595186954
 30
0.0
 11
502.2535454267631
 21
125.8383882127621
 31
0.0
  0
LINE
  5
125D
330
2
100
AcDbEntity
  8
0
100
AcDbLine
 10
513.753592413092
 20
120.3383446510291
 30
0.0
 11
490.4454629461883
 21
120.3383446510291
 31
0.0
  0
LINE
  5
125E
330
2
100
AcDbEntity
  8
0
100
AcDbLine
 10
493.7536388442472
 20
125.838344651029
 30
0.0
 11
493.7537299819164
 21
148.838344651029
 31
0.0
  0
LINE
  5
125F
330
2
100
AcDbEntity
  8
0
100
AcDbLine
 10
494.9036448442379
 20
125.8383398088829
 30
0.0
 11
494.9037359819262
 21
148.838344651029
 31
0.0
  0
LINE
  5
1260
330
2
100
AcDbEntity
  8
0
100
AcDbLine
 10
502.2535454267631
 20
125.8383882127621
 30
0.0
 11
502.2536393993891
 21
148.8382736510287
 31
0.0
  0
LINE
  5
1261
330
2
100
AcDbEntity
  8
0
100
AcDbLine
 10
480.7535924130911
 20
125.8383518154226
 30
0.0
 11
480.7535924130929
 21
148.838344651029
 31
0.0
  0
LINE
  5
1262
330
2
100
AcDbEntity
  8
0
100
AcDbLine
 10
480.7535924130911
 20
126.3382717935385
 30
0.0
 11
493.7536395786215
 21
126.3383494932534
 31
0.0
  0
LINE
  5
1263
330
2
100
AcDbEntity
  8
0
100
AcDbLine
 10
502.2535475785639
 20
126.3383172127581
 30
0.0
 11
494.9036455786131
 21
126.3383446511091
 31
0.0
  0
LINE
  5
1264
330
2
100
AcDbEntity
  8
0
100
AcDbLine
 10
494.9036455786458
 20
126.3383538642195
 30
0.0
 11
495.1303531247954
 21
126.3383545982381
 31
0.0
  0
LINE
  5
1265
330
2
100
AcDbEntity
  8
0
100
AcDbLine
 10
494.9036448442379
 20
125.8383398088829
 30
0.0
 11
493.7536388442472
 21
125.838344651029
 31
0.0
  0
LINE
  5
1266
330
2
100
AcDbEntity
  8
0
100
AcDbLine
 10
509.2536393994537
 20
148.8382736510287
 30
0.0
 11
502.253592413092
 21
148.8382736510287
 31
0.0
  0
LINE
  5
1267
330
2
100
AcDbEntity
  8
0
100
AcDbLine
 10
513.753592413092
 20
154.3382526510288
 30
0.0
 11
490.4454291377346
 21
154.3382526510288
 31
0.0
  0
LINE
  5
1268
330
2
100
AcDbEntity
  8
0
100
AcDbLine
 10
493.7536844130914
 20
148.3383446510291
 30
0.0
 11
480.753592413092
 21
148.3383446510291
 31
0.0
  0
LINE
  5
1269
330
2
100
AcDbEntity
  8
0
100
AcDbLine
 10
502.253592413092
 20
148.3383446510291
 30
0.0
 11
494.9036904130912
 21
148.3383446510291
 31
0.0
  0
LINE
  5
126A
330
2
100
AcDbEntity
  8
0
  6
CONTINUOUS
 62
     7
100
AcDbLine
 10
503.7535924137933
 20
151.1383476510275
 30
0.0
 11
503.7535924137933
 21
154.3383596510287
 31
0.0
  0
LINE
  5
126B
330
2
100
AcDbEntity
  8
0
  6
CONTINUOUS
 62
     4
100
AcDbLine
 10
503.2535924137932
 20
151.1383476510275
 30
0.0
 11
503.2535924137932
 21
154.3383596510287
 31
0.0
  0
LINE
  5
126C
330
2
100
AcDbEntity
  8
0
100
AcDbLine
 10
494.9037359819262
 20
148.838344651029
 30
0.0
 11
493.7536844130914
 21
148.838344651029
 31
0.0
  0
LINE
  5
126D
330
2
100
AcDbEntity
  8
0
100
AcDbLine
 10
513.753592413092
 20
154.3382526510288
 30
0.0
 11
513.753592413092
 21
120.3383446510291
 31
0.0
  0
LINE
  5
126E
330
2
100
AcDbEntity
  8
0
100
AcDbLine
 10
511.753592413092
 20
148.3383446510291
 30
0.0
 11
513.753592413092
 21
149.4929466510278
 31
0.0
  0
LINE
  5
126F
330
2
100
AcDbEntity
  8
0
100
AcDbLine
 10
511.753592413092
 20
148.3383446510291
 30
0.0
 11
509.2535924130912
 21
148.3383446510291
 31
0.0
  0
LINE
  5
1270
330
2
100
AcDbEntity
  8
0
  6
CONTINUOUS
 62
     4
100
AcDbLine
 10
508.2535924130911
 20
151.1383476510275
 30
0.0
 11
508.2535924130921
 21
154.3383596510287
 31
0.0
  0
LINE
  5
1271
330
2
100
AcDbEntity
  8
0
  6
CONTINUOUS
 62
     7
100
AcDbLine
 10
507.753592413092
 20
151.1383476510275
 30
0.0
 11
507.753592413092
 21
154.3383596510287
 31
0.0
  0
LINE
  5
1272
330
2
100
AcDbEntity
  8
0
100
AcDbLine
 10
509.2536393994537
 20
148.8382736510287
 30
0.0
 11
509.2535454267113
 21
125.8383595186954
 31
0.0
  0
LINE
  5
1273
330
2
100
AcDbEntity
  8
0
100
AcDbLine
 10
511.7535475784602
 20
126.3382598246246
 30
0.0
 11
511.7536372478694
 21
148.3383705341913
 31
0.0
  0
LINE
  5
1274
330
2
100
AcDbEntity
  8
0
100
AcDbLine
 10
511.7535475784602
 20
126.3382598246246
 30
0.0
 11
513.7535434371689
 21
125.1836506511156
 31
0.0
  0
LINE
  5
1275
330
2
100
AcDbEntity
  8
0
100
AcDbLine
 10
511.7535475784602
 20
126.3382598246246
 30
0.0
 11
509.2535475785121
 21
126.3382885186913
 31
0.0
  0
LINE
  5
1276
330
2
100
AcDbEntity
  8
0
100
AcDbLine
 10
412.7536844130913
 20
126.3383446510291
 30
0.0
 11
401.7536994130919
 21
126.3383446510291
 31
0.0
  0
LINE
  5
1277
330
2
100
AcDbEntity
  8
0
100
AcDbLine
 10
480.7535924130911
 20
125.8383518154226
 30
0.0
 11
412.7536844130913
 21
125.8383457370912
 31
0.0
  0
LINE
  5
1278
330
2
100
AcDbEntity
  8
0
100
AcDbLine
 10
499.7535924130921
 20
111.3383488656457
 30
0.0
 11
499.7535924130921
 21
120.3383446510291
 31
0.0
  0
LINE
  5
1279
330
2
100
AcDbEntity
  8
0
100
AcDbLine
 10
499.753592413093
 20
154.3382526510288
 30
0.0
 11
499.753592413093
 21
163.3383488656457
 31
0.0
  0
LINE
  5
127A
330
2
100
AcDbEntity
  8
0
100
AcDbLine
 10
491.7535924130911
 20
164.1026755715231
 30
0.0
 11
491.7535924130911
 21
154.3382526510288
 31
0.0
  0
LINE
  5
127B
330
2
100
AcDbEntity
  8
0
100
AcDbLine
 10
491.7535924130921
 20
120.3383446510291
 30
0.0
 11
491.7535924130921
 21
110.5740221597682
 31
0.0
  0
LINE
  5
127C
330
2
100
AcDbEntity
  8
0
100
AcDbLine
 10
491.7535924130911
 20
111.3383488656457
 30
0.0
 11
499.7535924130921
 21
111.3383488656457
 31
0.0
  0
LINE
  5
127D
330
2
100
AcDbEntity
  8
0
100
AcDbLine
 10
499.7535924130921
 20
111.3383488656457
 30
0.0
 11
500.753592413092
 21
110.7609985964557
 31
0.0
  0
LINE
  5
127E
330
2
100
AcDbEntity
  8
0
100
AcDbLine
 10
491.273883126461
 20
110.5614605300127
 30
0.0
 11
491.7535924130921
 21
110.5740221597682
 31
0.0
  0
LINE
  5
127F
330
2
100
AcDbEntity
  8
0
100
AcDbLine
 10
491.7535924130921
 20
163.3383488656439
 30
0.0
 11
499.753592413093
 21
163.3383488656439
 31
0.0
  0
LINE
  5
1280
330
2
100
AcDbEntity
  8
0
100
AcDbLine
 10
499.7535924130921
 20
163.3383488656439
 30
0.0
 11
500.753592413092
 21
163.9156991348339
 31
0.0
  0
LINE
  5
1281
330
2
100
AcDbEntity
  8
0
100
AcDbLine
 10
491.273883126461
 20
164.1152372012787
 30
0.0
 11
491.7535924130929
 21
164.1026755715231
 31
0.0
  0
SPLINE
  5
1282
330
2
100
AcDbEntity
  8
HOJO
100
AcDbSpline
210
0.0
220
0.0
230
1.0
 70
     8
 71
     3
 72
    31
 73
    27
 74
     0
 42
0.0000000001
 43
0.0000000001
 40
1.006090418120999
 40
1.006090418120999
 40
1.006090418120999
 40
1.006090418120999
 40
2.214208887200965
 40
4.372114611977804
 40
7.908539174416501
 40
10.6869955506748
 40
13.51956819365521
 40
17.06216826888282
 40
20.99280379806764
 40
23.41299456382895
 40
30.91999047333559
 40
38.68894682021132
 40
50.81685278160026
 40
58.48584632197308
 40
70.31156128461208
 40
79.0586932432537
 40
89.49338633998356
 40
97.17441191234248
 40
107.8778879181509
 40
111.3472347353728
 40
114.8898348106004
 40
118.0447231005161
 40
122.3359256316152
 40
127.2105747731371
 40
132.3338294909638
 40
132.415244059103
 40
132.415244059103
 40
132.415244059103
 40
132.415244059103
 10
389.7535924130861
 20
166.0387541936582
 30
0.0
 10
390.1069358301278
 20
165.8430872205101
 30
0.0
 10
391.1130810983263
 20
165.3520793139435
 30
0.0
 10
393.4487888050675
 20
165.0261379089245
 30
0.0
 10
396.1692163354687
 20
165.1380711039276
 30
0.0
 10
399.5312016046623
 20
165.2245854190862
 30
0.0
 10
401.1911117136127
 20
162.1431390664259
 30
0.0
 10
401.1317676784597
 20
158.7495447380682
 30
0.0
 10
400.6543916507066
 20
155.3700263686626
 30
0.0
 10
403.621807846483
 20
151.0640922932564
 30
0.0
 10
410.4655200122765
 20
155.1852626010898
 30
0.0
 10
419.1022711235614
 20
151.3656758117288
 30
0.0
 10
428.4557820064924
 20
154.3983468449098
 30
0.0
 10
438.9109516518251
 20
152.0308686049687
 30
0.0
 10
448.3488416444957
 20
155.0156890967176
 30
0.0
 10
458.5185729004492
 20
151.3973070008362
 30
0.0
 10
467.4298002931314
 20
154.3223367040794
 30
0.0
 10
477.128603081775
 20
151.7715944132181
 30
0.0
 10
483.6914455893033
 20
152.9293241931885
 30
0.0
 10
490.825337253103
 20
152.9255418465312
 30
0.0
 10
490.6251333967607
 20
157.3213810559612
 30
0.0
 10
489.9787457787493
 20
160.5842670122004
 30
0.0
 10
490.802744799264
 20
164.8638532820353
 30
0.0
 10
495.6227834972483
 20
166.2281942451975
 30
0.0
 10
499.1626064404267
 20
165.6591421777578
 30
0.0
 10
500.729149786393
 20
166.2545011592777
 30
0.0
 10
500.7535924130912
 20
166.2640257280402
 30
0.0
  0
SPLINE
  5
1283
330
2
100
AcDbEntity
  8
HOJO
100
AcDbSpline
210
0.0
220
0.0
230
1.0
 70
     8
 71
     3
 72
    31
 73
    27
 74
     0
 42
0.0000000001
 43
0.0000000001
 40
1.006090418120999
 40
1.006090418120999
 40
1.006090418120999
 40
1.006090418120999
 40
2.214208887200965
 40
4.372114611977804
 40
7.908539174416501
 40
10.6869955506748
 40
13.51956819365521
 40
17.06216826888282
 40
20.99280379806764
 40
23.41299456382895
 40
30.91999047333559
 40
38.68894682021132
 40
50.81685278160026
 40
58.48584632197308
 40
70.31156128461208
 40
79.0586932432537
 40
89.49338633998356
 40
97.17441191234248
 40
107.8778879181509
 40
111.3472347353728
 40
114.8898348106004
 40
118.0447231005161
 40
122.3359256316152
 40
127.2105747731371
 40
132.3338294909638
 40
132.415244059103
 40
132.415244059103
 40
132.415244059103
 40
132.415244059103
 10
389.7535924130861
 20
108.6379435376314
 30
0.0
 10
390.1069358301278
 20
108.8336105107794
 30
0.0
 10
391.1130810983263
 20
109.3246184173461
 30
0.0
 10
393.4487888050675
 20
109.650559822365
 30
0.0
 10
396.1692163354687
 20
109.5386266273638
 30
0.0
 10
399.5312016046623
 20
109.4521123122051
 30
0.0
 10
401.1911117136127
 20
112.5335586648637
 30
0.0
 10
401.1317676784597
 20
115.9271529932232
 30
0.0
 10
400.6543916507066
 20
119.306671362627
 30
0.0
 10
403.621807846483
 20
123.6126054380332
 30
0.0
 10
410.4655200122765
 20
119.4914351302016
 30
0.0
 10
419.1022711235614
 20
123.3110219195608
 30
0.0
 10
428.4557820064924
 20
120.2783508863815
 30
0.0
 10
438.9109516518251
 20
122.6458291263209
 30
0.0
 10
448.3488416444957
 20
119.661008634572
 30
0.0
 10
458.5185729004492
 20
123.2793907304551
 30
0.0
 10
467.4298002931314
 20
120.354361027212
 30
0.0
 10
477.128603081775
 20
122.9051033180733
 30
0.0
 10
483.6914455893033
 20
121.7473735381011
 30
0.0
 10
490.825337253103
 20
121.7511558847584
 30
0.0
 10
490.6251333967607
 20
117.3553166753284
 30
0.0
 10
489.9787457787493
 20
114.0924307190892
 30
0.0
 10
490.802744799264
 20
109.8128444492561
 30
0.0
 10
495.6227834972483
 20
108.448503486092
 30
0.0
 10
499.1626064404267
 20
109.0175555535336
 30
0.0
 10
500.729149786393
 20
108.4221965720137
 30
0.0
 10
500.7535924130912
 20
108.4126720032511
 30
0.0
  0
LINE
  5
1284
330
2
100
AcDbEntity
  8
0
100
AcDbLine
 10
499.7535924130921
 20
163.3383488656439
 30
0.0
 11
491.7535924130911
 21
154.3382526510288
 31
0.0
  0
LINE
  5
1285
330
2
100
AcDbEntity
  8
0
100
AcDbLine
 10
491.7535924130911
 20
163.3383488656439
 30
0.0
 11
499.753592413093
 21
154.3382526510288
 31
0.0
  0
LINE
  5
1286
330
2
100
AcDbEntity
  8
0
100
AcDbLine
 10
491.7535924130921
 20
120.3383446510291
 30
0.0
 11
499.7535924130921
 21
111.3383488656457
 31
0.0
  0
LINE
  5
1287
330
2
100
AcDbEntity
  8
0
100
AcDbLine
 10
499.753592413093
 20
120.3383446510291
 30
0.0
 11
491.7535924130911
 21
111.3383488656457
 31
0.0
  0
LINE
  5
1288
330
2
100
AcDbEntity
  8
0
100
AcDbLine
 10
390.7535924130856
 20
163.3383488656457
 30
0.0
 11
398.7535924130856
 21
154.3383446510291
 31
0.0
  0
LINE
  5
1289
330
2
100
AcDbEntity
  8
0
100
AcDbLine
 10
398.7535924130856
 20
163.3383488656457
 30
0.0
 11
390.7535924130856
 21
154.3383446510291
 31
0.0
  0
LINE
  5
128A
330
2
100
AcDbEntity
  8
0
100
AcDbLine
 10
398.7535924130856
 20
120.3383446510291
 30
0.0
 11
390.7535924130856
 21
111.3383488656457
 31
0.0
  0
LINE
  5
128B
330
2
100
AcDbEntity
  8
0
100
AcDbLine
 10
390.7535924130856
 20
120.3383446510291
 30
0.0
 11
398.7535924130856
 21
111.3383488656457
 31
0.0
  0
LINE
  5
128C
330
2
100
AcDbEntity
  8
0
100
AcDbLine
 10
388.9866208785679
 20
428.90615402936
 30
0.0
 11
382.4778943431401
 21
428.90615402936
 31
0.0
  0
LINE
  5
128D
330
2
100
AcDbEntity
  8
0
100
AcDbLine
 10
388.9866208785679
 20
425.9061540293582
 30
0.0
 11
382.4778943431401
 21
425.9061540293582
 31
0.0
  0
LINE
  5
128E
330
2
100
AcDbEntity
  8
0
100
AcDbLine
 10
375.4691678075632
 20
406.4462532065567
 30
0.0
 11
388.9866208785665
 21
406.4462532065567
 31
0.0
  0
LINE
  5
128F
330
2
100
AcDbEntity
  8
0
100
AcDbLine
 10
375.4691678075632
 20
365.3660548521633
 30
0.0
 11
388.9866208785665
 21
365.3660548521633
 31
0.0
  0
LINE
  5
1290
330
2
100
AcDbEntity
  8
0
100
AcDbLine
 10
409.2448658776643
 20
94.33834886564392
 30
0.0
 11
415.7535924130947
 21
94.33834886564392
 31
0.0
  0
LINE
  5
1291
330
2
100
AcDbEntity
  8
0
100
AcDbLine
 10
409.2448658776643
 20
97.33834886564393
 30
0.0
 11
415.753592413093
 21
97.33834886564393
 31
0.0
  0
LINE
  5
1292
330
2
100
AcDbEntity
  8
0
100
AcDbLine
 10
415.7535924130911
 20
180.3383488656457
 30
0.0
 11
409.2448658776643
 21
180.3383488656457
 31
0.0
  0
LINE
  5
1293
330
2
100
AcDbEntity
  8
0
100
AcDbLine
 10
415.7535924130911
 20
177.3383488656421
 30
0.0
 11
409.2448658776643
 21
177.3383488656421
 31
0.0
  0
LINE
  5
1294
330
2
100
AcDbEntity
  8
0
100
AcDbLine
 10
402.2361393420864
 20
157.8784480428424
 30
0.0
 11
415.7535924130902
 21
157.8784480428424
 31
0.0
  0
LINE
  5
1295
330
2
100
AcDbEntity
  8
0
100
AcDbLine
 10
402.2361393420864
 20
116.798249688449
 30
0.0
 11
415.7535924130902
 21
116.798249688449
 31
0.0
  0
LINE
  5
1296
330
2
100
AcDbEntity
  8
0
100
AcDbLine
 10
486.9866208785683
 20
368.9061498147434
 30
0.0
 11
473.9866208785683
 21
368.9061498147434
 31
0.0
  0
LINE
  5
1297
330
2
100
AcDbEntity
  8
0
100
AcDbLine
 10
486.9866208785683
 20
402.9060578147431
 30
0.0
 11
473.9866208785675
 21
402.9060578147431
 31
0.0
  0
LINE
  5
1298
330
2
100
AcDbEntity
  8
0
100
AcDbLine
 10
486.9866208785683
 20
402.9060578147431
 30
0.0
 11
486.9866208785683
 21
368.9061498147434
 31
0.0
  0
CIRCLE
  5
1299
330
2
100
AcDbEntity
  8
0
100
AcDbCircle
 10
478.9866208786584
 20
385.90615402936
 30
0.0
 40
2.0
  0
CIRCLE
  5
129A
330
2
100
AcDbEntity
  8
HOJO
100
AcDbCircle
 10
478.9866208786584
 20
385.90615402936
 30
0.0
 40
2.5
  0
LINE
  5
129B
330
2
100
AcDbEntity
  8
CENTER
100
AcDbLine
 10
478.9866208786565
 20
391.3780846681906
 30
0.0
 11
478.9866208786565
 21
380.4342233905294
 31
0.0
  0
LINE
  5
129C
330
2
100
AcDbEntity
  8
CENTER
100
AcDbLine
 10
261.4300984965475
 20
421.5020964169266
 30
0.0
 11
261.4300984965475
 21
413.3102116417934
 31
0.0
  0
LINE
  5
129D
330
2
100
AcDbEntity
  8
CENTER
100
AcDbLine
 10
257.334156108981
 20
417.40615402936
 30
0.0
 11
265.526040884114
 21
417.40615402936
 31
0.0
  0
LINE
  5
129E
330
2
100
AcDbEntity
  8
CENTER
100
AcDbLine
 10
261.4300984965484
 20
358.7808964347527
 30
0.0
 11
261.4300984965484
 21
350.0314116239692
 31
0.0
  0
LINE
  5
129F
330
2
100
AcDbEntity
  8
CENTER
100
AcDbLine
 10
257.0553560911566
 20
354.40615402936
 30
0.0
 11
265.8048409019402
 21
354.40615402936
 31
0.0
  0
LINE
  5
12A0
330
2
100
AcDbEntity
  8
0
100
AcDbLine
 10
362.9866208785624
 20
402.9061498147452
 30
0.0
 11
360.9867278785682
 21
402.9061498147452
 31
0.0
  0
LINE
  5
12A1
330
2
100
AcDbEntity
  8
0
100
AcDbLine
 10
362.9866208785624
 20
368.9061498147452
 30
0.0
 11
360.9867278785682
 21
368.9061498147452
 31
0.0
  0
LINE
  5
12A2
330
2
100
AcDbEntity
  8
0
100
AcDbLine
 10
360.9867278785682
 20
402.9061498147452
 30
0.0
 11
360.9867278785682
 21
368.9061498147434
 31
0.0
  0
LINE
  5
12A3
330
2
100
AcDbEntity
  8
0
100
AcDbLine
 10
614.1661604237628
 20
585.0151667484301
 30
0.0
 11
614.1661604237628
 21
598.0151667484301
 31
0.0
  0
LINE
  5
12A4
330
2
100
AcDbEntity
  8
0
100
AcDbLine
 10
648.1660684237627
 20
585.0151667484301
 30
0.0
 11
648.1660684237627
 21
598.0151667484301
 31
0.0
  0
LINE
  5
12A5
330
2
100
AcDbEntity
  8
0
100
AcDbLine
 10
648.1660684237627
 20
585.0151667484301
 30
0.0
 11
614.1661604237628
 21
585.0151667484301
 31
0.0
  0
CIRCLE
  5
12A6
330
2
100
AcDbEntity
  8
0
100
AcDbCircle
 10
631.1661646383795
 20
593.015166748341
 30
0.0
 40
2.0
  0
CIRCLE
  5
12A7
330
2
100
AcDbEntity
  8
HOJO
100
AcDbCircle
 10
631.1661646383795
 20
593.015166748341
 30
0.0
 40
2.5
  0
LINE
  5
12A8
330
2
100
AcDbEntity
  8
CENTER
100
AcDbLine
 10
636.6380952772101
 20
593.0151667483428
 30
0.0
 11
625.6942339995489
 21
593.0151667483428
 31
0.0
  0
LINE
  5
12A9
330
2
100
AcDbEntity
  8
0
100
AcDbLine
 10
648.1661604237638
 20
709.0151667484374
 30
0.0
 11
648.1661604237638
 21
711.0150597484302
 31
0.0
  0
LINE
  5
12AA
330
2
100
AcDbEntity
  8
0
100
AcDbLine
 10
614.1661604237638
 20
709.0151667484374
 30
0.0
 11
614.1661604237638
 21
711.0150597484302
 31
0.0
  0
LINE
  5
12AB
330
2
100
AcDbEntity
  8
0
100
AcDbLine
 10
648.1661604237638
 20
711.0150597484302
 30
0.0
 11
614.1661604237638
 21
711.0150597484302
 31
0.0
  0
ARC
  5
12AC
330
2
100
AcDbEntity
  8
0
100
AcDbCircle
 10
216.4300984965475
 20
385.90615402936
 30
0.0
 40
11.0
100
AcDbArc
 50
105.8266201318841
 51
74.17337986811585
  0
LINE
  5
12AD
330
2
100
AcDbEntity
  8
0
100
AcDbLine
 10
219.4300984965475
 20
399.7061570293603
 30
0.0
 11
219.4300984965475
 21
396.4891592736179
 31
0.0
  0
LINE
  5
12AE
330
2
100
AcDbEntity
  8
0
100
AcDbLine
 10
213.4300984965475
 20
399.7061570293603
 30
0.0
 11
219.4300984965475
 21
399.7061570293603
 31
0.0
  0
LINE
  5
12AF
330
2
100
AcDbEntity
  8
0
100
AcDbLine
 10
213.4300984965475
 20
399.7061570293603
 30
0.0
 11
213.4300984965475
 21
396.4891592736179
 31
0.0
  0
CIRCLE
  5
12B0
330
2
100
AcDbEntity
  8
0
100
AcDbCircle
 10
216.4300984965466
 20
385.90615402936
 30
0.0
 40
16.99999578538367
  0
ARC
  5
12B1
330
2
100
AcDbEntity
  8
0
100
AcDbCircle
 10
216.4300984965466
 20
385.90615402936
 30
0.0
 40
12.15460621461704
100
AcDbArc
 50
104.2894160763775
 51
75.71058392359555
  0
ARC
  5
12B2
330
2
100
AcDbEntity
  8
0
100
AcDbCircle
 10
631.1661646383804
 20
385.9061540293591
 30
0.0
 40
11.0
100
AcDbArc
 50
105.8266201318841
 51
74.17337986811585
  0
LINE
  5
12B3
330
2
100
AcDbEntity
  8
0
100
AcDbLine
 10
634.1661646383804
 20
399.7061570293575
 30
0.0
 11
634.1661646383804
 21
396.489159273617
 31
0.0
  0
LINE
  5
12B4
330
2
100
AcDbEntity
  8
0
100
AcDbLine
 10
628.1661646383804
 20
399.7061570293575
 30
0.0
 11
634.1661646383804
 21
399.7061570293575
 31
0.0
  0
LINE
  5
12B5
330
2
100
AcDbEntity
  8
0
100
AcDbLine
 10
628.1661646383804
 20
399.7061570293575
 30
0.0
 11
628.1661646383804
 21
396.489159273617
 31
0.0
  0
CIRCLE
  5
12B6
330
2
100
AcDbEntity
  8
0
100
AcDbCircle
 10
631.1661646383795
 20
385.9061540293591
 30
0.0
 40
16.99999578538367
  0
ARC
  5
12B7
330
2
100
AcDbEntity
  8
0
100
AcDbCircle
 10
631.1661646383795
 20
385.9061540293591
 30
0.0
 40
12.15460621461704
100
AcDbArc
 50
104.2894160763775
 51
75.71058392359555
  0
LINE
  5
12B9
330
2
100
AcDbEntity
  8
PHAS
100
AcDbLine
 10
370.486620878567
 20
420.906201691439
 30
0.0
 11
370.486620878567
 21
350.9061063672811
 31
0.0
  0
ARC
  5
12BA
330
2
100
AcDbEntity
  8
PHAS
100
AcDbCircle
 10
345.9866208785669
 20
367.0752460431244
 30
0.0
 40
5.0
100
AcDbArc
 50
180.0
 51
259.9999999999948
  0
LINE
  5
12BB
330
2
100
AcDbEntity
  8
PHAS
100
AcDbLine
 10
360.6866208785677
 20
417.7869549416376
 30
0.0
 11
360.6866208785668
 21
354.0252577929253
 31
0.0
  0
ARC
  5
12BC
330
2
100
AcDbEntity
  8
PHAS
100
AcDbCircle
 10
363.6866208785668
 20
354.0252577929253
 30
0.0
 40
3.0
100
AcDbArc
 50
180.0
 51
268.9999999999721
  0
ARC
  5
12BD
330
2
100
AcDbEntity
  8
PHAS
100
AcDbCircle
 10
359.6866208785668
 20
358.5670067361037
 30
0.0
 40
1.0
100
AcDbArc
 50
0.0
 51
79.99999999999483
  0
LINE
  5
12BE
330
2
100
AcDbEntity
  8
PHAS
100
AcDbLine
 10
345.1183799902328
 20
362.1512072780637
 30
0.0
 11
359.8602690562338
 21
359.5518144891161
 31
0.0
  0
LINE
  5
12BF
330
2
100
AcDbEntity
  8
PHAS
100
AcDbLine
 10
370.486620878567
 20
350.9061063672811
 30
0.0
 11
363.6342636592553
 21
351.0257147074557
 31
0.0
  0
ARC
  5
12C0
330
2
100
AcDbEntity
  8
PHAS
100
AcDbCircle
 10
359.6866208785668
 20
413.2452059984584
 30
0.0
 40
1.0
100
AcDbArc
 50
280.0000000000051
 51
0.0
  0
ARC
  5
12C1
330
2
100
AcDbEntity
  8
PHAS
100
AcDbCircle
 10
345.9866208785669
 20
404.7369666914377
 30
0.0
 40
5.0
100
AcDbArc
 50
100.0000000000051
 51
180.0
  0
LINE
  5
12C2
330
2
100
AcDbEntity
  8
PHAS
100
AcDbLine
 10
345.1183799902328
 20
409.6610054564993
 30
0.0
 11
359.8602690562338
 21
412.260398245446
 31
0.0
  0
LINE
  5
12C3
330
2
100
AcDbEntity
  8
PHAS
100
AcDbLine
 10
340.986620878567
 20
404.7369666914377
 30
0.0
 11
340.986620878567
 21
367.0753413672814
 31
0.0
  0
ARC
  5
12C4
330
2
100
AcDbEntity
  8
PHAS
100
AcDbCircle
 10
363.6866208785668
 20
417.7870502657946
 30
0.0
 40
3.0
100
AcDbArc
 50
91.00000000002784
 51
180.0
  0
LINE
  5
12C5
330
2
100
AcDbEntity
  8
PHAS
100
AcDbLine
 10
370.486620878567
 20
420.906201691438
 30
0.0
 11
363.6342636592553
 21
420.7865933512634
 31
0.0
  0
LINE
  5
1302
330
2
100
AcDbEntity
  8
0
100
AcDbLine
 10
1019.094671176011
 20
436.9061540293609
 30
0.0
 11
1019.094671176011
 21
422.0172651404722
 31
0.0
  0
LINE
  5
1303
330
2
100
AcDbEntity
  8
CENTER
100
AcDbLine
 10
991.0946711760111
 20
446.6618017312198
 30
0.0
 11
991.0946711760111
 21
325.1505063275021
 31
0.0
  0
LINE
  5
1304
330
2
100
AcDbEntity
  8
0
100
AcDbLine
 10
953.0946711760112
 20
436.330180755171
 30
0.0
 11
953.0946711760112
 21
335.4821273035508
 31
0.0
  0
LINE
  5
1305
330
2
100
AcDbEntity
  8
CENTER
100
AcDbLine
 10
911.0946711760103
 20
385.9061540293609
 30
0.0
 11
1057.094564176011
 21
385.9061540293609
 31
0.0
  0
LINE
  5
1306
330
2
100
AcDbEntity
  8
0
100
AcDbLine
 10
948.0946711760111
 20
430.9061540293609
 30
0.0
 11
948.0946711760175
 21
340.9061540293609
 31
0.0
  0
LINE
  5
1307
330
2
100
AcDbEntity
  8
0
100
AcDbLine
 10
953.0946711760112
 20
430.9061540293609
 30
0.0
 11
948.0946711760111
 21
430.9061540293609
 31
0.0
  0
LINE
  5
1308
330
2
100
AcDbEntity
  8
0
100
AcDbLine
 10
953.0946711760112
 20
340.9061540293609
 30
0.0
 11
948.0946711760111
 21
340.9061540293609
 31
0.0
  0
LINE
  5
1309
330
2
100
AcDbEntity
  8
0
100
AcDbLine
 10
1019.094671176011
 20
349.7950429182514
 30
0.0
 11
1019.094671176011
 21
334.9061540293609
 31
0.0
  0
LINE
  5
130A
330
2
100
AcDbEntity
  8
0
100
AcDbLine
 10
1019.094671176011
 20
334.9061540293609
 30
0.0
 11
953.0946711760112
 21
335.4821273035508
 31
0.0
  0
LINE
  5
130B
330
2
100
AcDbEntity
  8
0
100
AcDbLine
 10
1019.094671176011
 20
436.9061540293609
 30
0.0
 11
953.0946711760112
 21
436.330180755171
 31
0.0
  0
LINE
  5
130C
330
2
100
AcDbEntity
  8
0
100
AcDbLine
 10
934.0946711760111
 20
353.8375315789748
 30
0.0
 11
934.0946711760093
 21
417.9747764797488
 31
0.0
  0
LINE
  5
130D
330
2
100
AcDbEntity
  8
0
100
AcDbLine
 10
946.1644701694144
 20
420.3276406978224
 30
0.0
 11
936.0248721826051
 21
419.9735581337867
 31
0.0
  0
LINE
  5
130E
330
2
100
AcDbEntity
  8
0
100
AcDbLine
 10
946.1644701694144
 20
351.4846673609012
 30
0.0
 11
936.024872182606
 21
351.8387499249369
 31
0.0
  0
ARC
  5
130F
330
2
100
AcDbEntity
  8
0
100
AcDbCircle
 10
936.0946711760112
 20
353.8375315789748
 30
0.0
 40
2.0
100
AcDbArc
 50
180.0
 51
267.9999999999963
  0
ARC
  5
1310
330
2
100
AcDbEntity
  8
0
100
AcDbCircle
 10
946.0946711760103
 20
349.4858857068633
 30
0.0
 40
2.0
100
AcDbArc
 50
0.0
 51
87.99999999999636
  0
ARC
  5
1311
330
2
100
AcDbEntity
  8
0
100
AcDbCircle
 10
936.0946711760092
 20
417.9747764797488
 30
0.0
 40
2.0
100
AcDbArc
 50
92.00000000000365
 51
180.0
  0
ARC
  5
1312
330
2
100
AcDbEntity
  8
0
100
AcDbCircle
 10
946.0946711760103
 20
422.3264223518621
 30
0.0
 40
2.0
100
AcDbArc
 50
271.9999999999775
 51
0.0
  0
LINE
  5
1313
330
2
100
AcDbEntity
  8
0
100
AcDbLine
 10
991.0946711760102
 20
422.4061540293627
 30
0.0
 11
1022.164108923464
 21
421.9746340606475
 31
0.0
  0
ARC
  5
1314
330
2
100
AcDbEntity
  8
0
100
AcDbCircle
 10
1022.09467117601
 20
416.9751162439737
 30
0.0
 40
5.0
100
AcDbArc
 50
44.44120088190596
 51
89.20427644725567
  0
ARC
  5
1315
330
2
100
AcDbEntity
  8
0
100
AcDbCircle
 10
1022.09467117601
 20
354.8371918147499
 30
0.0
 40
5.0
100
AcDbArc
 50
270.7957235527443
 51
315.5587991240034
  0
LINE
  5
1316
330
2
100
AcDbEntity
  8
0
100
AcDbLine
 10
991.0946711760102
 20
349.4061540293609
 30
0.0
 11
1022.164108923464
 21
349.8376739980762
 31
0.0
  0
LINE
  5
1317
330
2
100
AcDbEntity
  8
0
100
AcDbLine
 10
991.0946711760102
 20
349.4061540293609
 30
0.0
 11
960.0252351728537
 21
349.8376739738491
 31
0.0
  0
ARC
  5
1318
330
2
100
AcDbEntity
  8
0
100
AcDbCircle
 10
960.0946729203073
 20
354.8371917905228
 30
0.0
 40
5.0
100
AcDbArc
 50
224.4419082416041
 51
269.2042764472556
  0
ARC
  5
1319
330
2
100
AcDbEntity
  8
0
100
AcDbCircle
 10
960.0946729203073
 20
416.9751162682008
 30
0.0
 40
5.0
100
AcDbArc
 50
90.79572355274434
 51
135.5580917524815
  0
LINE
  5
131A
330
2
100
AcDbEntity
  8
0
100
AcDbLine
 10
991.0946711760102
 20
422.4061540293627
 30
0.0
 11
960.0252351728537
 21
421.9746340848746
 31
0.0
  0
LINE
  5
131B
330
2
100
AcDbEntity
  8
0
100
AcDbLine
 10
1019.094671176011
 20
428.9061540293591
 30
0.0
 11
953.0946711760112
 21
428.9061540293591
 31
0.0
  0
LINE
  5
131C
330
2
100
AcDbEntity
  8
0
100
AcDbLine
 10
1019.094671176011
 20
342.9061540293627
 30
0.0
 11
953.0946711760112
 21
342.9061540293627
 31
0.0
  0
LINE
  5
131D
330
2
100
AcDbEntity
  8
0
100
AcDbLine
 10
1045.094671176015
 20
353.4835042985527
 30
0.0
 11
1045.094671176016
 21
418.3288037601728
 31
0.0
  0
LINE
  5
131E
330
2
100
AcDbEntity
  8
0
100
AcDbLine
 10
1035.180457613643
 20
426.3203675917343
 30
0.0
 11
1036.008884738388
 21
425.4919404669894
 31
0.0
  0
LINE
  5
131F
330
2
100
AcDbEntity
  8
0
100
AcDbLine
 10
1019.094671176013
 20
436.9061540293609
 30
0.0
 11
1019.094671176013
 21
422.0172651404722
 31
0.0
  0
LINE
  5
1320
330
2
100
AcDbEntity
  8
0
100
AcDbLine
 10
1019.094671176009
 20
349.7950429182496
 30
0.0
 11
1019.094671176007
 21
334.9061540293627
 31
0.0
  0
LINE
  5
1321
330
2
100
AcDbEntity
  8
0
100
AcDbLine
 10
1026.594671176012
 20
419.8580800997391
 30
0.0
 11
1026.594671176012
 21
419.2225961599763
 31
0.0
  0
LINE
  5
1322
330
2
100
AcDbEntity
  8
0
100
AcDbLine
 10
1031.594671176012
 20
410.4061540293609
 30
0.0
 11
1031.594671176009
 21
361.4061540293627
 31
0.0
  0
ARC
  5
1323
330
2
100
AcDbEntity
  8
0
100
AcDbCircle
 10
1029.594671176013
 20
419.8144457607872
 30
0.0
 40
2.0
100
AcDbArc
 50
17.20876206250628
 51
89.50000000000846
  0
LINE
  5
1324
330
2
100
AcDbEntity
  8
0
100
AcDbLine
 10
1034.594671176018
 20
337.0240429013087
 30
0.0
 11
1034.594671176015
 21
434.7882651574131
 31
0.0
  0
ARC
  5
1325
330
2
100
AcDbEntity
  8
0
100
AcDbCircle
 10
1032.594671176018
 20
337.0240429013087
 30
0.0
 40
2.0
100
AcDbArc
 50
270.4999999999915
 51
0.0
  0
LINE
  5
1326
330
2
100
AcDbEntity
  8
0
100
AcDbLine
 10
1040.594671176015
 20
418.706154029362
 30
0.0
 11
1040.394671176015
 21
418.9061540293609
 31
0.0
  0
LINE
  5
1327
330
2
100
AcDbEntity
  8
0
100
AcDbLine
 10
1037.094671176015
 20
420.9061540293609
 30
0.0
 11
1036.594671176015
 21
421.4061540293609
 31
0.0
  0
LINE
  5
1328
330
2
100
AcDbEntity
  8
0
100
AcDbLine
 10
1036.594671176015
 20
424.077726904616
 30
0.0
 11
1036.594671176015
 21
421.4061540293609
 31
0.0
  0
LINE
  5
1329
330
2
100
AcDbEntity
  8
0
100
AcDbLine
 10
1040.394671176015
 20
418.9061540293609
 30
0.0
 11
1037.094671176015
 21
418.9061540293609
 31
0.0
  0
LINE
  5
132A
330
2
100
AcDbEntity
  8
0
100
AcDbLine
 10
1044.094671176015
 20
418.9061540293609
 30
0.0
 11
1045.094671176015
 21
418.3288037601728
 31
0.0
  0
LINE
  5
132B
330
2
100
AcDbEntity
  8
0
100
AcDbLine
 10
1044.094671176016
 20
418.9061540293609
 30
0.0
 11
1042.794671176015
 21
418.9061540293609
 31
0.0
  0
LINE
  5
132C
330
2
100
AcDbEntity
  8
0
100
AcDbLine
 10
1042.394671176015
 20
418.206154029362
 30
0.0
 11
1040.794671176015
 21
418.206154029362
 31
0.0
  0
LINE
  5
132D
330
2
100
AcDbEntity
  8
0
100
AcDbLine
 10
1019.094671176007
 20
334.9061540293627
 30
0.0
 11
1032.612124247015
 21
335.0241190551809
 31
0.0
  0
LINE
  5
132E
330
2
100
AcDbEntity
  8
0
100
AcDbLine
 10
1035.180457613643
 20
345.4919404669894
 30
0.0
 11
1036.008884738382
 21
346.3203675917288
 31
0.0
  0
LINE
  5
132F
330
2
100
AcDbEntity
  8
0
100
AcDbLine
 10
1037.094671176011
 20
350.9061540293627
 30
0.0
 11
1037.094671176018
 21
420.9061540293591
 31
0.0
  0
LINE
  5
1330
330
2
100
AcDbEntity
  8
0
100
AcDbLine
 10
1040.594671176011
 20
353.1061540293616
 30
0.0
 11
1040.594671176011
 21
418.7061540293656
 31
0.0
  0
LINE
  5
1331
330
2
100
AcDbEntity
  8
0
100
AcDbLine
 10
1040.594671176011
 20
353.1061540293616
 30
0.0
 11
1040.39467117601
 21
352.9061540293609
 31
0.0
  0
LINE
  5
1332
330
2
100
AcDbEntity
  8
0
100
AcDbLine
 10
1040.39467117601
 20
352.9061540293609
 30
0.0
 11
1037.094671176011
 21
352.9061540293627
 31
0.0
  0
LINE
  5
1333
330
2
100
AcDbEntity
  8
0
100
AcDbLine
 10
1037.094671176011
 20
350.9061540293627
 30
0.0
 11
1036.594671176011
 21
350.4061540293627
 31
0.0
  0
LINE
  5
1334
330
2
100
AcDbEntity
  8
0
100
AcDbLine
 10
1036.594671176009
 20
347.7345811541021
 30
0.0
 11
1036.594671176015
 21
421.4061540293609
 31
0.0
  0
LINE
  5
1335
330
2
100
AcDbEntity
  8
0
100
AcDbLine
 10
1044.094671176011
 20
352.9061540293609
 30
0.0
 11
1045.094671176011
 21
353.4835042985509
 31
0.0
  0
LINE
  5
1336
330
2
100
AcDbEntity
  8
0
100
AcDbLine
 10
1042.594671176011
 20
353.1061540293616
 30
0.0
 11
1042.594671176011
 21
418.706154029362
 31
0.0
  0
LINE
  5
1337
330
2
100
AcDbEntity
  8
0
100
AcDbLine
 10
1044.094671176011
 20
352.9061540293609
 30
0.0
 11
1042.794671176011
 21
352.9061540293609
 31
0.0
  0
LINE
  5
1338
330
2
100
AcDbEntity
  8
0
100
AcDbLine
 10
1042.39467117601
 20
353.6061540293616
 30
0.0
 11
1040.794671176011
 21
353.6061540293616
 31
0.0
  0
ARC
  5
1339
330
2
100
AcDbEntity
  8
0
100
AcDbCircle
 10
1034.594671176009
 20
347.7345811541021
 30
0.0
 40
2.0
100
AcDbArc
 50
314.9999999999812
 51
0.0
  0
ARC
  5
133A
330
2
100
AcDbEntity
  8
0
100
AcDbCircle
 10
1036.594671176016
 20
344.0777269046161
 30
0.0
 40
2.0
100
AcDbArc
 50
134.9999999999812
 51
180.0
  0
ARC
  5
133B
330
2
100
AcDbEntity
  8
0
100
AcDbCircle
 10
1034.594671176014
 20
424.077726904616
 30
0.0
 40
2.0
100
AcDbArc
 50
0.0
 51
45.00000000001871
  0
ARC
  5
133C
330
2
100
AcDbEntity
  8
0
100
AcDbCircle
 10
1036.594671176016
 20
427.7345811541076
 30
0.0
 40
2.0
100
AcDbArc
 50
180.0
 51
225.0000000000187
  0
ARC
  5
133D
330
2
100
AcDbEntity
  8
0
100
AcDbCircle
 10
1042.794671176012
 20
353.1061540293616
 30
0.0
 40
0.2
100
AcDbArc
 50
180.0
 51
269.9999999999739
  0
ARC
  5
133E
330
2
100
AcDbEntity
  8
0
100
AcDbCircle
 10
1042.39467117601
 20
353.4061540293609
 30
0.0
 40
0.2
100
AcDbArc
 50
0.0
 51
89.99999999997395
  0
ARC
  5
133F
330
2
100
AcDbEntity
  8
0
100
AcDbCircle
 10
1040.794671176011
 20
353.4061540293609
 30
0.0
 40
0.2
100
AcDbArc
 50
89.99999999997395
 51
180.0
  0
ARC
  5
1340
330
2
100
AcDbEntity
  8
0
100
AcDbCircle
 10
1042.794671176015
 20
418.706154029362
 30
0.0
 40
0.2
100
AcDbArc
 50
90.0
 51
180.0
  0
ARC
  5
1341
330
2
100
AcDbEntity
  8
0
100
AcDbCircle
 10
1042.394671176015
 20
418.4061540293609
 30
0.0
 40
0.2
100
AcDbArc
 50
270.0
 51
0.0
  0
ARC
  5
1342
330
2
100
AcDbEntity
  8
0
100
AcDbCircle
 10
1040.794671176015
 20
418.4061540293609
 30
0.0
 40
0.2
100
AcDbArc
 50
180.0
 51
270.0
  0
LINE
  5
1343
330
2
100
AcDbEntity
  8
0
100
AcDbLine
 10
1044.094671176011
 20
352.9061540293609
 30
0.0
 11
1044.094671176015
 21
418.9061540293609
 31
0.0
  0
LINE
  5
1344
330
2
100
AcDbEntity
  8
0
100
AcDbLine
 10
1040.39467117601
 20
352.9061540293609
 30
0.0
 11
1040.394671176015
 21
418.9061540293609
 31
0.0
  0
ARC
  5
1345
330
2
100
AcDbEntity
  8
0
100
AcDbCircle
 10
1032.594671176018
 20
434.7882651574131
 30
0.0
 40
2.0
100
AcDbArc
 50
0.0
 51
89.50000000000846
  0
LINE
  5
1346
330
2
100
AcDbEntity
  8
0
100
AcDbLine
 10
1019.094671176007
 20
436.9061540293609
 30
0.0
 11
1032.612124247015
 21
436.7881890035427
 31
0.0
  0
LINE
  5
1347
330
2
100
AcDbEntity
  8
0
100
AcDbLine
 10
1029.612124247009
 20
421.814369606915
 30
0.0
 11
1023.109138651774
 21
421.8711203024508
 31
0.0
  0
LINE
  5
1348
330
2
100
AcDbEntity
  8
0
100
AcDbLine
 10
1027.281648409631
 20
408.4437932088221
 30
0.0
 11
1029.612124247008
 21
408.4234554542986
 31
0.0
  0
ARC
  5
1349
330
2
100
AcDbEntity
  8
0
100
AcDbCircle
 10
1024.594671176012
 20
419.8580800997391
 30
0.0
 40
2.0
100
AcDbArc
 50
0.0
 51
89.50000000000846
  0
ARC
  5
134A
330
2
100
AcDbEntity
  8
0
100
AcDbCircle
 10
1029.594671176011
 20
406.4235316081707
 30
0.0
 40
2.0
100
AcDbArc
 50
0.0
 51
89.49999999998238
  0
LINE
  5
134B
330
2
100
AcDbEntity
  8
0
100
AcDbLine
 10
1026.594671176012
 20
351.4061540293627
 30
0.0
 11
1026.594671176012
 21
352.5897118987594
 31
0.0
  0
ARC
  5
134C
330
2
100
AcDbEntity
  8
0
100
AcDbCircle
 10
1029.594671176013
 20
351.9978622979365
 30
0.0
 40
2.0
100
AcDbArc
 50
270.4999999999915
 51
342.7912379374936
  0
LINE
  5
134D
330
2
100
AcDbEntity
  8
0
100
AcDbLine
 10
1029.612124247009
 20
349.9979384518068
 30
0.0
 11
1023.109138651774
 21
349.9411877562728
 31
0.0
  0
LINE
  5
134E
330
2
100
AcDbEntity
  8
0
100
AcDbLine
 10
1027.28164840963
 20
363.3685148499018
 30
0.0
 11
1029.612124247008
 21
363.3888526044233
 31
0.0
  0
ARC
  5
134F
330
2
100
AcDbEntity
  8
0
100
AcDbCircle
 10
1024.594671176012
 20
351.9542279589845
 30
0.0
 40
2.0
100
AcDbArc
 50
270.4999999999915
 51
0.0
  0
ARC
  5
1350
330
2
100
AcDbEntity
  8
0
100
AcDbCircle
 10
1029.594671176011
 20
365.3887764505511
 30
0.0
 40
2.0
100
AcDbArc
 50
270.5000000000175
 51
0.0
  0
LINE
  5
1351
330
2
100
AcDbEntity
  8
CENTER
  6
CENS
100
AcDbLine
 10
1013.310883426928
 20
415.4061540293609
 30
0.0
 11
1037.094671176012
 21
415.4061540293609
 31
0.0
  0
LINE
  5
1352
330
2
100
AcDbEntity
  8
0
100
AcDbLine
 10
1033.694671176013
 20
420.4061540293609
 30
0.0
 11
1034.094671176013
 21
419.7133337063337
 31
0.0
  0
LINE
  5
1353
330
2
100
AcDbEntity
  8
0
100
AcDbLine
 10
1028.094671176013
 20
420.4061540293609
 30
0.0
 11
1028.094671176013
 21
410.4061540293609
 31
0.0
  0
LINE
  5
1354
330
2
100
AcDbEntity
  8
0
100
AcDbLine
 10
1033.694671176013
 20
420.4061540293609
 30
0.0
 11
1033.694671176013
 21
410.4061540293609
 31
0.0
  0
LINE
  5
1355
330
2
100
AcDbEntity
  8
0
100
AcDbLine
 10
1026.594671176012
 20
420.4061540293609
 30
0.0
 11
1033.694671176013
 21
420.4061540293609
 31
0.0
  0
LINE
  5
1356
330
2
100
AcDbEntity
  8
0
100
AcDbLine
 10
1027.254393398233
 20
410.4061540293609
 30
0.0
 11
1033.694671176013
 21
410.4061540293609
 31
0.0
  0
LINE
  5
1357
330
2
100
AcDbEntity
  8
0
100
AcDbLine
 10
1033.694671176013
 20
410.4061540293609
 30
0.0
 11
1034.094671176013
 21
411.0989743523882
 31
0.0
  0
LINE
  5
1358
330
2
100
AcDbEntity
  8
0
100
AcDbLine
 10
1034.094671176013
 20
419.7133337063337
 30
0.0
 11
1034.094671176013
 21
411.0989743523882
 31
0.0
  0
LINE
  5
1359
330
2
100
AcDbEntity
  8
0
100
AcDbLine
 10
1026.594671176012
 20
419.2225961599771
 30
0.0
 11
1026.594671176012
 21
420.4061540293609
 31
0.0
  0
LINE
  5
135A
330
2
100
AcDbEntity
  8
CENTER
  6
CENS
100
AcDbLine
 10
1013.310883426928
 20
356.4061540293627
 30
0.0
 11
1037.094671176012
 21
356.4061540293627
 31
0.0
  0
LINE
  5
135B
330
2
100
AcDbEntity
  8
0
100
AcDbLine
 10
1033.694671176013
 20
351.4061540293627
 30
0.0
 11
1034.094671176013
 21
352.09897435239
 31
0.0
  0
LINE
  5
135C
330
2
100
AcDbEntity
  8
0
100
AcDbLine
 10
1028.094671176013
 20
351.4061540293627
 30
0.0
 11
1028.094671176013
 21
361.4061540293627
 31
0.0
  0
LINE
  5
135D
330
2
100
AcDbEntity
  8
0
100
AcDbLine
 10
1033.694671176013
 20
351.4061540293627
 30
0.0
 11
1033.694671176013
 21
361.4061540293627
 31
0.0
  0
LINE
  5
135E
330
2
100
AcDbEntity
  8
0
100
AcDbLine
 10
1026.594671176012
 20
351.4061540293627
 30
0.0
 11
1033.694671176013
 21
351.4061540293627
 31
0.0
  0
LINE
  5
135F
330
2
100
AcDbEntity
  8
0
100
AcDbLine
 10
1027.254393398233
 20
361.4061540293627
 30
0.0
 11
1033.694671176013
 21
361.4061540293627
 31
0.0
  0
LINE
  5
1360
330
2
100
AcDbEntity
  8
0
100
AcDbLine
 10
1033.694671176013
 20
361.4061540293627
 30
0.0
 11
1034.094671176013
 21
360.7133337063355
 31
0.0
  0
LINE
  5
1361
330
2
100
AcDbEntity
  8
0
100
AcDbLine
 10
1034.094671176013
 20
352.09897435239
 30
0.0
 11
1034.094671176013
 21
360.7133337063355
 31
0.0
  0
LINE
  5
1362
330
2
100
AcDbEntity
  8
0
100
AcDbLine
 10
921.0946711760103
 20
402.9061582439775
 30
0.0
 11
934.0946711760102
 21
402.9061582439775
 31
0.0
  0
LINE
  5
1363
330
2
100
AcDbEntity
  8
0
100
AcDbLine
 10
921.0946711760103
 20
368.9062502439778
 30
0.0
 11
934.0946711760111
 21
368.9062502439778
 31
0.0
  0
LINE
  5
1364
330
2
100
AcDbEntity
  8
0
100
AcDbLine
 10
921.0946711760103
 20
368.9062502439778
 30
0.0
 11
921.0946711760103
 21
402.9061582439775
 31
0.0
  0
LINE
  5
1365
330
2
100
AcDbEntity
  8
0
100
AcDbLine
 10
1045.094671176016
 20
368.9061582439776
 30
0.0
 11
1047.094564176011
 21
368.9061582439776
 31
0.0
  0
LINE
  5
1366
330
2
100
AcDbEntity
  8
0
100
AcDbLine
 10
1045.094671176016
 20
402.9061582439775
 30
0.0
 11
1047.094564176011
 21
402.9061582439775
 31
0.0
  0
LINE
  5
1367
330
2
100
AcDbEntity
  8
0
100
AcDbLine
 10
1047.094564176011
 20
368.9061582439776
 30
0.0
 11
1047.094564176011
 21
402.9061582439775
 31
0.0
  0
ARC
  5
1368
330
2
100
AcDbEntity
  8
0
100
AcDbCircle
 10
764.9561646401039
 20
689.0151667484319
 30
0.0
 40
2.0
100
AcDbArc
 50
40.04151653423412
 51
90.0
  0
ARC
  5
1369
330
2
100
AcDbEntity
  8
0
100
AcDbCircle
 10
764.9561646401039
 20
621.015166748432
 30
0.0
 40
2.0
100
AcDbArc
 50
270.0
 51
319.9584834657658
  0
LINE
  5
136A
330
2
100
AcDbEntity
  8
0
100
AcDbLine
 10
773.9561646401039
 20
652.0151667484319
 30
0.0
 11
773.9561646401039
 21
637.515166748432
 31
0.0
  0
LINE
  5
136B
330
2
100
AcDbEntity
  8
0
100
AcDbLine
 10
766.9561646401039
 20
681.8751667484325
 30
0.0
 11
766.9561646401039
 21
628.1551667484314
 31
0.0
  0
LINE
  5
136C
330
2
100
AcDbEntity
  8
CENTER
  6
CENS
100
AcDbLine
 10
783.9561646401039
 20
655.2651667484319
 30
0.0
 11
783.9561646401039
 21
633.7651667484319
 31
0.0
  0
LINE
  5
136D
330
2
100
AcDbEntity
  8
0
100
AcDbLine
 10
782.9561646401039
 20
682.0151667484319
 30
0.0
 11
782.9561646401039
 21
658.015166748432
 31
0.0
  0
LINE
  5
136E
330
2
100
AcDbEntity
  8
0
100
AcDbLine
 10
772.4873215961329
 20
685.0151667484319
 30
0.0
 11
797.9561646401038
 21
685.0151667484319
 31
0.0
  0
ARC
  5
136F
330
2
100
AcDbEntity
  8
0
100
AcDbCircle
 10
785.9561646401039
 20
682.0151667484319
 30
0.0
 40
3.0
100
AcDbArc
 50
90.0
 51
180.0
  0
ARC
  5
1370
330
2
100
AcDbEntity
  8
0
100
AcDbCircle
 10
779.9561646401039
 20
658.015166748432
 30
0.0
 40
3.0
100
AcDbArc
 50
270.0
 51
0.0
  0
ARC
  5
1371
330
2
100
AcDbEntity
  8
0
100
AcDbCircle
 10
776.9561646401038
 20
652.0151667484319
 30
0.0
 40
3.0
100
AcDbArc
 50
90.0
 51
180.0
  0
LINE
  5
1372
330
2
100
AcDbEntity
  8
0
100
AcDbLine
 10
776.9561646401038
 20
655.0151667484319
 30
0.0
 11
779.9561646401039
 21
655.0151667484319
 31
0.0
  0
LINE
  5
1373
330
2
100
AcDbEntity
  8
0
100
AcDbLine
 10
772.4873215961329
 20
625.015166748432
 30
0.0
 11
797.9561646401038
 21
625.015166748432
 31
0.0
  0
LINE
  5
1374
330
2
100
AcDbEntity
  8
CENTER
  6
CENS
100
AcDbLine
 10
773.2061646401039
 20
644.5151667484319
 30
0.0
 11
794.7061646401039
 21
644.5151667484319
 31
0.0
  0
ARC
  5
1375
330
2
100
AcDbEntity
  8
0
100
AcDbCircle
 10
776.9561646401038
 20
637.515166748432
 30
0.0
 40
3.0
100
AcDbArc
 50
180.0
 51
270.0
  0
ARC
  5
1376
330
2
100
AcDbEntity
  8
0
100
AcDbCircle
 10
779.9561646401039
 20
631.5151667484319
 30
0.0
 40
3.0
100
AcDbArc
 50
0.0
 51
90.0
  0
LINE
  5
1377
330
2
100
AcDbEntity
  8
0
100
AcDbLine
 10
776.9561646401038
 20
634.5151667484319
 30
0.0
 11
779.9561646401039
 21
634.5151667484319
 31
0.0
  0
LINE
  5
1378
330
2
100
AcDbEntity
  8
0
100
AcDbLine
 10
782.9561646401039
 20
631.5151667484319
 30
0.0
 11
782.9561646401039
 21
628.0151667484319
 31
0.0
  0
ARC
  5
1379
330
2
100
AcDbEntity
  8
0
100
AcDbCircle
 10
785.9561646401039
 20
628.0151667484319
 30
0.0
 40
3.0
100
AcDbArc
 50
180.0
 51
270.0
  0
LINE
  5
137A
330
2
100
AcDbEntity
  8
0
100
AcDbLine
 10
754.9561646401039
 20
691.015166748432
 30
0.0
 11
764.9561646401039
 21
691.015166748432
 31
0.0
  0
LINE
  5
137B
330
2
100
AcDbEntity
  8
0
100
AcDbLine
 10
754.9561646401039
 20
619.0151667484319
 30
0.0
 11
764.9561646401039
 21
619.0151667484319
 31
0.0
  0
LINE
  5
137C
330
2
100
AcDbEntity
  8
0
100
AcDbLine
 10
797.9561646401038
 20
685.0151667484319
 30
0.0
 11
797.9561646401038
 21
625.015166748432
 31
0.0
  0
LINE
  5
137D
330
2
100
AcDbEntity
  8
0
100
AcDbLine
 10
960.0257089614002
 20
349.9061540293689
 30
0.0
 11
1022.163633390624
 21
349.9061540293689
 31
0.0
  0
CIRCLE
  5
137E
330
2
100
AcDbEntity
  8
HIDS
100
AcDbCircle
 10
991.0946711760111
 20
385.9061540293689
 30
0.0
 40
30.0
  0
ARC
  5
137F
330
2
100
AcDbEntity
  8
0
100
AcDbCircle
 10
966.1674145873526
 20
360.9061540293688
 30
0.0
 40
5.0
100
AcDbArc
 50
180.1666666666621
 51
270.0
  0
LINE
  5
1380
330
2
100
AcDbEntity
  8
CENTER
100
AcDbLine
 10
971.3446711760111
 20
410.6561540293689
 30
0.0
 11
961.3446711760111
 21
410.6561540293689
 31
0.0
  0
LINE
  5
1381
330
2
100
AcDbEntity
  8
CENTER
100
AcDbLine
 10
971.3446711760111
 20
361.1561540293688
 30
0.0
 11
961.3446711760111
 21
361.1561540293688
 31
0.0
  0
ARC
  5
1382
330
2
100
AcDbEntity
  8
0
100
AcDbCircle
 10
966.1674145873526
 20
410.9061540293689
 30
0.0
 40
5.0
100
AcDbArc
 50
90.0
 51
179.8333333333378
  0
LINE
  5
1383
330
2
100
AcDbEntity
  8
0
100
AcDbLine
 10
955.0261911447265
 20
354.8367162819151
 30
0.0
 11
954.594671176002
 21
385.9061540293707
 31
0.0
  0
LINE
  5
1384
330
2
100
AcDbEntity
  8
0
100
AcDbLine
 10
961.1674357413262
 20
360.8916096394479
 30
0.0
 11
961.0946711760112
 21
385.9061540293689
 31
0.0
  0
ARC
  5
1385
330
2
100
AcDbEntity
  8
0
100
AcDbCircle
 10
960.0257089614002
 20
354.9061540293688
 30
0.0
 40
5.0
100
AcDbArc
 50
180.7957235527443
 51
270.0
  0
LINE
  5
1386
330
2
100
AcDbEntity
  8
0
100
AcDbLine
 10
955.0261911447265
 20
416.9755917768227
 30
0.0
 11
954.594671176002
 21
385.9061540293707
 31
0.0
  0
LINE
  5
1387
330
2
100
AcDbEntity
  8
0
100
AcDbLine
 10
961.1674357413262
 20
410.9206984192899
 30
0.0
 11
961.0946711760112
 21
385.9061540293689
 31
0.0
  0
LINE
  5
1388
330
2
100
AcDbEntity
  8
0
100
AcDbLine
 10
961.0946711760112
 20
385.9061540293689
 30
0.0
 11
954.5946711760111
 21
385.9061540293689
 31
0.0
  0
ARC
  5
1389
330
2
100
AcDbEntity
  8
0
100
AcDbCircle
 10
960.0257089614002
 20
416.9061540293689
 30
0.0
 40
5.0
100
AcDbArc
 50
90.0
 51
179.2042764472556
  0
LINE
  5
138A
330
2
100
AcDbEntity
  8
0
100
AcDbLine
 10
1027.163151207297
 20
354.8367162819151
 30
0.0
 11
1027.594671176011
 21
385.9061540293707
 31
0.0
  0
LINE
  5
138B
330
2
100
AcDbEntity
  8
0
100
AcDbLine
 10
1021.021906610698
 20
360.8916096394479
 30
0.0
 11
1021.094671176011
 21
385.9061540293689
 31
0.0
  0
LINE
  5
138C
330
2
100
AcDbEntity
  8
0
100
AcDbLine
 10
1016.021927764671
 20
355.9061540293689
 30
0.0
 11
966.1674145873526
 21
355.9061540293689
 31
0.0
  0
LINE
  5
138D
330
2
100
AcDbEntity
  8
CENTER
100
AcDbLine
 10
966.3446711760112
 20
366.1561540293689
 30
0.0
 11
966.3446711760112
 21
356.1561540293689
 31
0.0
  0
LINE
  5
138E
330
2
100
AcDbEntity
  8
HIDS
100
AcDbLine
 10
1011.628972040094
 20
357.8712492164942
 30
0.0
 11
1011.717009789808
 21
362.9149285197319
 31
0.0
  0
ARC
  5
138F
330
2
100
AcDbEntity
  8
0
100
AcDbCircle
 10
1016.021927764671
 20
360.9061540293688
 30
0.0
 40
5.0
100
AcDbArc
 50
270.0
 51
359.8333333333378
  0
LINE
  5
1390
330
2
100
AcDbEntity
  8
CENTER
100
AcDbLine
 10
1015.844671176011
 20
366.1561540293689
 30
0.0
 11
1015.844671176011
 21
356.1561540293689
 31
0.0
  0
ARC
  5
1391
330
2
100
AcDbEntity
  8
0
100
AcDbCircle
 10
1022.163633390624
 20
354.9061540293688
 30
0.0
 40
4.999999999999999
100
AcDbArc
 50
270.0
 51
359.2042764472556
  0
ARC
  5
1392
330
2
100
AcDbEntity
  8
HIDS
100
AcDbCircle
 10
1009.62927664978
 20
357.9061540293689
 30
0.0
 40
2.0
100
AcDbArc
 50
270.0
 51
358.9999999999982
  0
LINE
  5
1393
330
2
100
AcDbEntity
  8
CENTER
100
AcDbLine
 10
1020.844671176011
 20
361.1561540293688
 30
0.0
 11
1010.844671176011
 21
361.1561540293688
 31
0.0
  0
ARC
  5
1394
330
2
100
AcDbEntity
  8
HIDS
100
AcDbCircle
 10
1014.716552875277
 20
362.8625713004195
 30
0.0
 40
3.0
100
AcDbArc
 50
135.7099981688302
 51
178.9999999999982
  0
LINE
  5
1395
330
2
100
AcDbEntity
  8
0
100
AcDbLine
 10
1016.021927764671
 20
415.9061540293689
 30
0.0
 11
966.1674145873526
 21
415.9061540293689
 31
0.0
  0
LINE
  5
1396
330
2
100
AcDbEntity
  8
HIDS
100
AcDbLine
 10
974.8446711760129
 20
415.9061540293689
 30
0.0
 11
975.0922392946881
 21
401.722986009375
 31
0.0
  0
LINE
  5
1397
330
2
100
AcDbEntity
  8
CENTER
100
AcDbLine
 10
966.3446711760112
 20
415.6561540293688
 30
0.0
 11
966.3446711760112
 21
405.6561540293689
 31
0.0
  0
ARC
  5
1398
330
2
100
AcDbEntity
  8
HIDS
100
AcDbCircle
 10
967.4727894767469
 20
408.9497367583182
 30
0.0
 40
3.0
100
AcDbArc
 50
315.7099981688302
 51
358.9999999999982
  0
ARC
  5
1399
330
2
100
AcDbEntity
  8
HIDS
100
AcDbCircle
 10
972.5600657022438
 20
413.9061540293688
 30
0.0
 40
2.0
100
AcDbArc
 50
90.0
 51
178.9999999999982
  0
LINE
  5
139A
330
2
100
AcDbEntity
  8
HIDS
100
AcDbLine
 10
970.5603703119299
 20
413.9410588422426
 30
0.0
 11
970.4723325622158
 21
408.8973795390058
 31
0.0
  0
LINE
  5
139B
330
2
100
AcDbEntity
  8
HIDS
100
AcDbLine
 10
986.3446711760111
 20
415.9061540293689
 30
0.0
 11
986.2043695521675
 21
407.8682793825284
 31
0.0
  0
LINE
  5
139C
330
2
100
AcDbEntity
  8
0
100
AcDbLine
 10
1027.163151207297
 20
416.9755917768227
 30
0.0
 11
1027.594671176011
 21
385.9061540293707
 31
0.0
  0
LINE
  5
139D
330
2
100
AcDbEntity
  8
0
100
AcDbLine
 10
1021.021906610698
 20
410.9206984192899
 30
0.0
 11
1021.094671176011
 21
385.9061540293689
 31
0.0
  0
LINE
  5
139E
330
2
100
AcDbEntity
  8
CENTER
100
AcDbLine
 10
1015.844671176011
 20
415.6561540293688
 30
0.0
 11
1015.844671176011
 21
405.6561540293689
 31
0.0
  0
LINE
  5
139F
330
2
100
AcDbEntity
  8
0
100
AcDbLine
 10
1021.094671176011
 20
385.9061540293689
 30
0.0
 11
1027.594671176012
 21
385.9061540293689
 31
0.0
  0
ARC
  5
13A0
330
2
100
AcDbEntity
  8
0
100
AcDbCircle
 10
1022.163633390624
 20
416.9061540293689
 30
0.0
 40
4.999999999999999
100
AcDbArc
 50
0.7957235527443399
 51
90.0
  0
ARC
  5
13A1
330
2
100
AcDbEntity
  8
0
100
AcDbCircle
 10
1016.021927764671
 20
410.9061540293689
 30
0.0
 40
5.0
100
AcDbArc
 50
0.1666666666621044
 51
90.0
  0
LINE
  5
13A2
330
2
100
AcDbEntity
  8
CENTER
100
AcDbLine
 10
1020.844671176011
 20
410.6561540293689
 30
0.0
 11
1010.844671176011
 21
410.6561540293689
 31
0.0
  0
CIRCLE
  5
13A3
330
2
100
AcDbEntity
  8
0
100
AcDbCircle
 10
991.0946711760111
 20
385.9061540293689
 30
0.0
 40
25.00000000022851
  0
LINE
  5
13A4
330
2
100
AcDbEntity
  8
0
100
AcDbLine
 10
960.0257089614002
 20
421.9061540293688
 30
0.0
 11
1022.163633390624
 21
421.9061540293688
 31
0.0
  0
CIRCLE
  5
13A5
330
2
100
AcDbEntity
  8
0
100
AcDbCircle
 10
959.9846711760124
 20
354.7961540293683
 30
0.0
 40
2.75
  0
CIRCLE
  5
13A6
330
2
100
AcDbEntity
  8
0
100
AcDbCircle
 10
1022.204671176011
 20
417.0161540293695
 30
0.0
 40
2.75
  0
CIRCLE
  5
13A7
330
2
100
AcDbEntity
  8
0
100
AcDbCircle
 10
1022.204671176011
 20
354.7961540293692
 30
0.0
 40
2.75
  0
LINE
  5
13A8
330
2
100
AcDbEntity
  8
0
100
AcDbLine
 10
772.1873215961318
 20
628.1551667484314
 30
0.0
 11
767.4873215961329
 21
628.1551667484314
 31
0.0
  0
LINE
  5
13A9
330
2
100
AcDbEntity
  8
0
100
AcDbLine
 10
767.4873215961329
 20
619.6551667484314
 30
0.0
 11
772.1873215961318
 21
619.6551667484314
 31
0.0
  0
LINE
  5
13AA
330
2
100
AcDbEntity
  8
CENTER
  6
CENS
100
AcDbLine
 10
749.9561646401039
 20
623.9051667484313
 30
0.0
 11
777.4131375701877
 21
623.9051667484313
 31
0.0
  0
LINE
  5
13AB
330
2
100
AcDbEntity
  8
0
100
AcDbLine
 10
772.4873215961329
 20
620.1747819907018
 30
0.0
 11
772.4873215961329
 21
627.6355515061609
 31
0.0
  0
LINE
  5
13AC
330
2
100
AcDbEntity
  8
0
100
AcDbLine
 10
772.1873215961318
 20
628.1551667484314
 30
0.0
 11
772.1873215961318
 21
619.6551667484314
 31
0.0
  0
LINE
  5
13AD
330
2
100
AcDbEntity
  8
0
100
AcDbLine
 10
772.1873215961318
 20
628.1551667484314
 30
0.0
 11
772.4873215961329
 21
627.6355515061609
 31
0.0
  0
LINE
  5
13AE
330
2
100
AcDbEntity
  8
0
100
AcDbLine
 10
772.4873215961329
 20
620.1747819907018
 30
0.0
 11
772.1873215961318
 21
619.6551667484314
 31
0.0
  0
LINE
  5
13AF
330
2
100
AcDbEntity
  8
0
100
AcDbLine
 10
767.4873215961329
 20
619.6551667484314
 30
0.0
 11
766.4873215961328
 21
619.6551667484314
 31
0.0
  0
LINE
  5
13B0
330
2
100
AcDbEntity
  8
0
100
AcDbLine
 10
766.4873215961328
 20
619.6551667484314
 30
0.0
 11
766.4873215961328
 21
628.1551667484314
 31
0.0
  0
LINE
  5
13B1
330
2
100
AcDbEntity
  8
0
100
AcDbLine
 10
766.4873215961328
 20
628.1551667484314
 30
0.0
 11
767.4873215961329
 21
628.1551667484314
 31
0.0
  0
LINE
  5
13B2
330
2
100
AcDbEntity
  8
0
100
AcDbLine
 10
767.4873215961329
 20
628.1551667484314
 30
0.0
 11
767.4873215961329
 21
619.6551667484314
 31
0.0
  0
LINE
  5
13B3
330
2
100
AcDbEntity
  8
0
100
AcDbLine
 10
767.4873215961329
 20
628.1551667484314
 30
0.0
 11
767.4873215961329
 21
619.6551667484314
 31
0.0
  0
LINE
  5
13B4
330
2
100
AcDbEntity
  8
0
100
AcDbLine
 10
772.1873215961318
 20
681.8751667484325
 30
0.0
 11
767.4873215961329
 21
681.8751667484325
 31
0.0
  0
LINE
  5
13B5
330
2
100
AcDbEntity
  8
0
100
AcDbLine
 10
767.4873215961329
 20
690.3751667484325
 30
0.0
 11
772.1873215961318
 21
690.3751667484325
 31
0.0
  0
LINE
  5
13B6
330
2
100
AcDbEntity
  8
CENTER
  6
CENS
100
AcDbLine
 10
749.9561646401039
 20
686.1251667484325
 30
0.0
 11
777.4131375701877
 21
686.1251667484325
 31
0.0
  0
LINE
  5
13B7
330
2
100
AcDbEntity
  8
0
100
AcDbLine
 10
772.4873215961329
 20
689.855551506162
 30
0.0
 11
772.4873215961329
 21
682.3947819907029
 31
0.0
  0
LINE
  5
13B8
330
2
100
AcDbEntity
  8
0
100
AcDbLine
 10
772.1873215961318
 20
681.8751667484325
 30
0.0
 11
772.1873215961318
 21
690.3751667484325
 31
0.0
  0
LINE
  5
13B9
330
2
100
AcDbEntity
  8
0
100
AcDbLine
 10
772.1873215961318
 20
681.8751667484325
 30
0.0
 11
772.4873215961329
 21
682.3947819907029
 31
0.0
  0
LINE
  5
13BA
330
2
100
AcDbEntity
  8
0
100
AcDbLine
 10
772.4873215961329
 20
689.855551506162
 30
0.0
 11
772.1873215961318
 21
690.3751667484325
 31
0.0
  0
LINE
  5
13BB
330
2
100
AcDbEntity
  8
0
100
AcDbLine
 10
767.4873215961329
 20
690.3751667484325
 30
0.0
 11
766.4873215961328
 21
690.3751667484325
 31
0.0
  0
LINE
  5
13BC
330
2
100
AcDbEntity
  8
0
100
AcDbLine
 10
766.4873215961328
 20
690.3751667484325
 30
0.0
 11
766.4873215961328
 21
681.8751667484325
 31
0.0
  0
LINE
  5
13BD
330
2
100
AcDbEntity
  8
0
100
AcDbLine
 10
766.4873215961328
 20
681.8751667484325
 30
0.0
 11
767.4873215961329
 21
681.8751667484325
 31
0.0
  0
LINE
  5
13BE
330
2
100
AcDbEntity
  8
0
100
AcDbLine
 10
767.4873215961329
 20
681.8751667484325
 30
0.0
 11
767.4873215961329
 21
690.3751667484325
 31
0.0
  0
LINE
  5
13BF
330
2
100
AcDbEntity
  8
0
100
AcDbLine
 10
767.4873215961329
 20
681.8751667484325
 30
0.0
 11
767.4873215961329
 21
690.3751667484325
 31
0.0
  0
ARC
  5
13C0
330
2
100
AcDbEntity
  8
0
100
AcDbCircle
 10
959.9846711760124
 20
417.0161540293695
 30
0.0
 40
4.25000000000019
100
AcDbArc
 50
337.0991355555424
 51
293.57896235452
  0
ARC
  5
13C1
330
2
100
AcDbEntity
  8
0
100
AcDbCircle
 10
959.9846711760124
 20
417.0161540293695
 30
0.0
 40
3.730384757729381
100
AcDbArc
 50
321.5287333511454
 51
309.1493645588708
  0
LWPOLYLINE
  5
13C2
330
2
100
AcDbEntity
  8
0
100
AcDbPolyline
 90
        6
 70
     1
 43
0.0
 10
961.9846711760123
 20
418.1708545677476
 10
959.9846711760124
 20
419.3255551061276
 10
957.9846711760124
 20
418.1708545677476
 10
957.9846711760124
 20
415.8614534909895
 10
959.9846711760124
 20
414.7067529526104
 10
961.9846711760123
 20
415.8614534909895
  0
CIRCLE
  5
13C3
330
2
100
AcDbEntity
  8
0
100
AcDbCircle
 10
959.9846711760124
 20
417.0161540293695
 30
0.0
 40
2.3094010767585
  0
LINE
  5
13C4
330
2
100
AcDbEntity
  8
CENTER
100
AcDbLine
 10
959.9846711760106
 20
422.9745842766635
 30
0.0
 11
959.9846711760106
 21
411.0577237820754
 31
0.0
  0
LINE
  5
13C5
330
2
100
AcDbEntity
  8
CENTER
100
AcDbLine
 10
954.0262409287166
 20
417.0161540293695
 30
0.0
 11
965.9431014233046
 21
417.0161540293695
 31
0.0
  0
ARC
  5
13C6
330
2
100
AcDbEntity
  8
0
100
AcDbCircle
 10
1022.204671176013
 20
417.0161540293695
 30
0.0
 40
4.25000000000019
100
AcDbArc
 50
246.4210376454799
 51
202.9008644444575
  0
ARC
  5
13C7
330
2
100
AcDbEntity
  8
0
100
AcDbCircle
 10
1022.204671176013
 20
417.0161540293695
 30
0.0
 40
3.730384757729381
100
AcDbArc
 50
230.8506354409912
 51
218.4712666488595
  0
LWPOLYLINE
  5
13C8
330
2
100
AcDbEntity
  8
0
100
AcDbPolyline
 90
        6
 70
     1
 43
0.0
 10
1024.204671176013
 20
418.1708545677476
 10
1022.204671176013
 20
419.3255551061276
 10
1020.204671176013
 20
418.1708545677476
 10
1020.204671176013
 20
415.8614534909895
 10
1022.204671176013
 20
414.7067529526104
 10
1024.204671176013
 20
415.8614534909895
  0
CIRCLE
  5
13C9
330
2
100
AcDbEntity
  8
0
100
AcDbCircle
 10
1022.204671176013
 20
417.0161540293695
 30
0.0
 40
2.3094010767585
  0
LINE
  5
13CA
330
2
100
AcDbEntity
  8
CENTER
100
AcDbLine
 10
1022.204671176011
 20
422.9745842766635
 30
0.0
 11
1022.204671176011
 21
411.0577237820754
 31
0.0
  0
LINE
  5
13CB
330
2
100
AcDbEntity
  8
CENTER
100
AcDbLine
 10
1016.246240928717
 20
417.0161540293695
 30
0.0
 11
1028.163101423305
 21
417.0161540293695
 31
0.0
  0
ARC
  5
13CC
330
2
100
AcDbEntity
  8
0
100
AcDbCircle
 10
1022.204671176013
 20
354.7961540293692
 30
0.0
 40
4.25000000000019
100
AcDbArc
 50
157.0991355555424
 51
113.57896235452
  0
ARC
  5
13CD
330
2
100
AcDbEntity
  8
0
100
AcDbCircle
 10
1022.204671176013
 20
354.7961540293692
 30
0.0
 40
3.730384757729381
100
AcDbArc
 50
141.5287333511404
 51
129.1493645588707
  0
LWPOLYLINE
  5
13CE
330
2
100
AcDbEntity
  8
0
100
AcDbPolyline
 90
        6
 70
     1
 43
0.0
 10
1024.204671176013
 20
355.9508545677483
 10
1022.204671176013
 20
357.1055551061283
 10
1020.204671176013
 20
355.9508545677483
 10
1020.204671176013
 20
353.6414534909901
 10
1022.204671176013
 20
352.4867529526101
 10
1024.204671176013
 20
353.6414534909901
  0
CIRCLE
  5
13CF
330
2
100
AcDbEntity
  8
0
100
AcDbCircle
 10
1022.204671176013
 20
354.7961540293692
 30
0.0
 40
2.3094010767585
  0
LINE
  5
13D0
330
2
100
AcDbEntity
  8
CENTER
100
AcDbLine
 10
1022.204671176011
 20
360.7545842766632
 30
0.0
 11
1022.204671176011
 21
348.8377237820752
 31
0.0
  0
LINE
  5
13D1
330
2
100
AcDbEntity
  8
CENTER
100
AcDbLine
 10
1016.246240928717
 20
354.7961540293692
 30
0.0
 11
1028.163101423305
 21
354.7961540293692
 31
0.0
  0
ARC
  5
13D2
330
2
100
AcDbEntity
  8
0
100
AcDbCircle
 10
959.9846711760124
 20
354.7961540293683
 30
0.0
 40
4.25000000000019
100
AcDbArc
 50
66.42103764559156
 51
22.90086444442383
  0
ARC
  5
13D3
330
2
100
AcDbEntity
  8
0
100
AcDbCircle
 10
959.9846711760124
 20
354.7961540293683
 30
0.0
 40
3.730384757729381
100
AcDbArc
 50
50.85063544126404
 51
38.47126664870858
  0
LWPOLYLINE
  5
13D4
330
2
100
AcDbEntity
  8
0
100
AcDbPolyline
 90
        6
 70
     1
 43
0.0
 10
961.9846711760123
 20
355.9508545677483
 10
959.9846711760124
 20
357.1055551061273
 10
957.9846711760124
 20
355.9508545677483
 10
957.9846711760124
 20
353.6414534909901
 10
959.9846711760124
 20
352.4867529526101
 10
961.9846711760123
 20
353.6414534909901
  0
CIRCLE
  5
13D5
330
2
100
AcDbEntity
  8
0
100
AcDbCircle
 10
959.9846711760124
 20
354.7961540293683
 30
0.0
 40
2.3094010767585
  0
LINE
  5
13D6
330
2
100
AcDbEntity
  8
CENTER
100
AcDbLine
 10
959.9846711760124
 20
360.7545842766623
 30
0.0
 11
959.9846711760124
 21
348.8377237820742
 31
0.0
  0
LINE
  5
13D7
330
2
100
AcDbEntity
  8
CENTER
100
AcDbLine
 10
954.0262409287183
 20
354.7961540293683
 30
0.0
 11
965.9431014233064
 21
354.7961540293683
 31
0.0
  0
LINE
  5
13D8
330
2
100
AcDbEntity
  8
HIDS
100
AcDbLine
 10
982.5946711760112
 20
385.1561540293689
 30
0.0
 11
982.5946711760112
 21
376.7061540293681
 31
0.0
  0
LINE
  5
13D9
330
2
100
AcDbEntity
  8
HIDS
100
AcDbLine
 10
982.261337842679
 20
385.1561540293689
 30
0.0
 11
982.261337842679
 21
376.372820696036
 31
0.0
  0
LINE
  5
13DA
330
2
100
AcDbEntity
  8
HIDS
100
AcDbLine
 10
978.928004509345
 20
385.1561540293689
 30
0.0
 11
978.928004509345
 21
377.5674057886419
 31
0.0
  0
LINE
  5
13DB
330
2
100
AcDbEntity
  8
HIDS
100
AcDbLine
 10
978.5946711760111
 20
385.1561540293689
 30
0.0
 11
978.5946711760111
 21
378.0759241476855
 31
0.0
  0
LINE
  5
13DC
330
2
100
AcDbEntity
  8
CENTER
  6
CENS
100
AcDbLine
 10
980.5946711760112
 20
424.5330525891069
 30
0.0
 11
980.5946711760112
 21
374.453903684812
 31
0.0
  0
LINE
  5
13DD
330
2
100
AcDbEntity
  8
HIDS
100
AcDbLine
 10
982.5946711760112
 20
385.1561540293689
 30
0.0
 11
982.5946711760112
 21
373.851590578127
 31
0.0
  0
LINE
  5
13DE
330
2
100
AcDbEntity
  8
HIDS
100
AcDbLine
 10
979.5654691220965
 20
376.7061540293681
 30
0.0
 11
980.5946711760112
 21
376.7061540293681
 31
0.0
  0
LINE
  5
13DF
330
2
100
AcDbEntity
  8
0
100
AcDbLine
 10
979.3946711760122
 20
375.9061540293689
 30
0.0
 11
980.2520469549104
 21
375.9061540293689
 31
0.0
  0
LINE
  5
13E0
330
2
100
AcDbEntity
  8
0
100
AcDbLine
 10
978.5946711760111
 20
378.0759241476855
 30
0.0
 11
978.5946711760111
 21
376.7061540293681
 31
0.0
  0
LINE
  5
13E1
330
2
100
AcDbEntity
  8
HOJO
100
AcDbLine
 10
978.928004509345
 20
377.5674057886419
 30
0.0
 11
978.928004509345
 21
376.372820696036
 31
0.0
  0
LINE
  5
13E2
330
2
100
AcDbEntity
  8
0
100
AcDbLine
 10
978.5946711760111
 20
376.7061540293681
 30
0.0
 11
979.5654691220965
 21
376.7061540293681
 31
0.0
  0
LINE
  5
13E3
330
2
100
AcDbEntity
  8
0
100
AcDbLine
 10
978.5946711760111
 20
376.7061540293681
 30
0.0
 11
979.3946711760122
 21
375.9061540293689
 31
0.0
  0
LINE
  5
13E4
330
2
100
AcDbEntity
  8
HIDS
100
AcDbLine
 10
980.2520469549104
 20
375.9061540293689
 30
0.0
 11
980.5946711760112
 21
375.9061540293689
 31
0.0
  0
LINE
  5
13E5
330
2
100
AcDbEntity
  8
HIDS
100
AcDbLine
 10
982.5946711760112
 20
376.7061540293681
 30
0.0
 11
981.7946711760118
 21
375.9061540293689
 31
0.0
  0
LINE
  5
13E6
330
2
100
AcDbEntity
  8
HIDS
100
AcDbLine
 10
981.7946711760118
 20
375.9061540293689
 30
0.0
 11
980.5946711760112
 21
375.9061540293689
 31
0.0
  0
LINE
  5
13E7
330
2
100
AcDbEntity
  8
HIDS
100
AcDbLine
 10
982.5946711760112
 20
376.7061540293681
 30
0.0
 11
980.5946711760112
 21
376.7061540293681
 31
0.0
  0
LINE
  5
13E8
330
2
100
AcDbEntity
  8
HIDS
100
AcDbLine
 10
982.261337842679
 20
376.372820696036
 30
0.0
 11
982.261337842679
 21
374.093672400929
 31
0.0
  0
LINE
  5
13E9
330
2
100
AcDbEntity
  8
HIDS
100
AcDbLine
 10
977.217982089634
 20
390.9061540293689
 30
0.0
 11
984.0946711760111
 21
390.9061540293689
 31
0.0
  0
LINE
  5
13EA
330
2
100
AcDbEntity
  8
HIDS
100
AcDbLine
 10
979.1836468707728
 20
394.6061540293696
 30
0.0
 11
984.0946711760111
 21
394.6061540293696
 31
0.0
  0
LINE
  5
13EB
330
2
100
AcDbEntity
  8
HIDS
100
AcDbLine
 10
983.5750559337407
 20
394.9061540293689
 30
0.0
 11
979.4086752834914
 21
394.9061540293689
 31
0.0
  0
LINE
  5
13EC
330
2
100
AcDbEntity
  8
HIDS
100
AcDbLine
 10
982.5946711760112
 20
389.2394873627028
 30
0.0
 11
978.5946711760111
 21
389.2394873627028
 31
0.0
  0
LINE
  5
13ED
330
2
100
AcDbEntity
  8
HIDS
100
AcDbLine
 10
977.217982089634
 20
390.9061540293689
 30
0.0
 11
984.5946711760111
 21
390.9061540293689
 31
0.0
  0
LINE
  5
13EE
330
2
100
AcDbEntity
  8
0
100
AcDbLine
 10
976.3637513133557
 20
386.6561540293689
 30
0.0
 11
980.5946711760112
 21
386.6561540293689
 31
0.0
  0
LINE
  5
13EF
330
2
100
AcDbEntity
  8
0
100
AcDbLine
 10
976.3637513133557
 20
385.1561540293689
 30
0.0
 11
980.5946711760112
 21
385.1561540293689
 31
0.0
  0
LINE
  5
13F0
330
2
100
AcDbEntity
  8
0
100
AcDbLine
 10
977.0946711760112
 20
394.6061540293696
 30
0.0
 11
977.0946711760112
 21
390.9061540293689
 31
0.0
  0
LINE
  5
13F1
330
2
100
AcDbEntity
  8
0
100
AcDbLine
 10
978.5946711760111
 20
386.6561540293689
 30
0.0
 11
978.5946711760111
 21
385.1561540293689
 31
0.0
  0
LINE
  5
13F2
330
2
100
AcDbEntity
  8
HOJO
100
AcDbLine
 10
978.928004509345
 20
386.6561540293689
 30
0.0
 11
978.928004509345
 21
385.1561540293689
 31
0.0
  0
LINE
  5
13F3
330
2
100
AcDbEntity
  8
HIDS
100
AcDbLine
 10
978.5946711760111
 20
390.9061540293689
 30
0.0
 11
978.928004509345
 21
389.2394873627028
 31
0.0
  0
LINE
  5
13F4
330
2
100
AcDbEntity
  8
0
100
AcDbLine
 10
977.0946711760112
 20
390.9061540293689
 30
0.0
 11
977.217982089634
 21
390.9061540293689
 31
0.0
  0
LINE
  5
13F5
330
2
100
AcDbEntity
  8
HIDS
100
AcDbLine
 10
978.928004509345
 20
389.2394873627028
 30
0.0
 11
978.928004509345
 21
386.6561540293689
 31
0.0
  0
LINE
  5
13F6
330
2
100
AcDbEntity
  8
HIDS
100
AcDbLine
 10
978.5946711760111
 20
390.9061540293689
 30
0.0
 11
978.5946711760111
 21
386.6561540293689
 31
0.0
  0
LINE
  5
13F7
330
2
100
AcDbEntity
  8
HIDS
100
AcDbLine
 10
978.0946711760112
 20
390.9061540293689
 30
0.0
 11
978.0946711760112
 21
386.6561540293689
 31
0.0
  0
LINE
  5
13F8
330
2
100
AcDbEntity
  8
0
100
AcDbLine
 10
979.4086752834914
 20
394.9061540293689
 30
0.0
 11
977.6142864182833
 21
394.9061540293689
 31
0.0
  0
LINE
  5
13F9
330
2
100
AcDbEntity
  8
0
100
AcDbLine
 10
977.0946711760112
 20
394.6061540293696
 30
0.0
 11
977.6142864182833
 21
394.9061540293689
 31
0.0
  0
LINE
  5
13FA
330
2
100
AcDbEntity
  8
0
100
AcDbLine
 10
977.0946711760112
 20
394.6061540293696
 30
0.0
 11
979.1836468707728
 21
394.6061540293696
 31
0.0
  0
LINE
  5
13FB
330
2
100
AcDbEntity
  8
HIDS
100
AcDbLine
 10
984.0946711760111
 20
390.9061540293689
 30
0.0
 11
984.0946711760111
 21
394.6061540293696
 31
0.0
  0
LINE
  5
13FC
330
2
100
AcDbEntity
  8
HIDS
100
AcDbLine
 10
984.5946711760111
 20
399.1467167062339
 30
0.0
 11
984.5946711760111
 21
390.9061540293689
 31
0.0
  0
LINE
  5
13FD
330
2
100
AcDbEntity
  8
HOJO
100
AcDbLine
 10
982.261337842679
 20
386.6561540293689
 30
0.0
 11
982.261337842679
 21
385.1561540293689
 31
0.0
  0
LINE
  5
13FE
330
2
100
AcDbEntity
  8
0
100
AcDbLine
 10
982.5946711760112
 20
386.6561540293689
 30
0.0
 11
982.5946711760112
 21
385.1561540293689
 31
0.0
  0
LINE
  5
13FF
330
2
100
AcDbEntity
  8
0
100
AcDbLine
 10
980.5946711760112
 20
385.1561540293689
 30
0.0
 11
985.6460474965857
 21
385.1561540293689
 31
0.0
  0
LINE
  5
1400
330
2
100
AcDbEntity
  8
0
100
AcDbLine
 10
980.5946711760112
 20
386.6561540293689
 30
0.0
 11
985.6460474965857
 21
386.6561540293689
 31
0.0
  0
LINE
  5
1401
330
2
100
AcDbEntity
  8
HIDS
100
AcDbLine
 10
982.5946711760112
 20
390.9061540293689
 30
0.0
 11
982.261337842679
 21
389.2394873627028
 31
0.0
  0
LINE
  5
1402
330
2
100
AcDbEntity
  8
HIDS
100
AcDbLine
 10
982.5946711760112
 20
390.9061540293689
 30
0.0
 11
982.5946711760112
 21
386.6561540293689
 31
0.0
  0
LINE
  5
1403
330
2
100
AcDbEntity
  8
HIDS
100
AcDbLine
 10
982.261337842679
 20
389.2394873627028
 30
0.0
 11
982.261337842679
 21
386.6561540293689
 31
0.0
  0
LINE
  5
1404
330
2
100
AcDbEntity
  8
HIDS
100
AcDbLine
 10
983.0946711760111
 20
390.9061540293689
 30
0.0
 11
983.0946711760111
 21
386.6561540293689
 31
0.0
  0
LINE
  5
1405
330
2
100
AcDbEntity
  8
HIDS
100
AcDbLine
 10
983.5750559337407
 20
394.9061540293689
 30
0.0
 11
984.0946711760111
 21
394.6061540293696
 31
0.0
  0
LINE
  5
1406
330
2
100
AcDbEntity
  8
0
100
AcDbLine
 10
1005.094671176011
 20
385.1561540293689
 30
0.0
 11
996.5432948554385
 21
385.1561540293689
 31
0.0
  0
LINE
  5
1407
330
2
100
AcDbEntity
  8
0
100
AcDbLine
 10
996.5432948554385
 20
386.6561540293689
 30
0.0
 11
1005.094671176011
 21
386.6561540293689
 31
0.0
  0
LINE
  5
1408
330
2
100
AcDbEntity
  8
0
100
AcDbLine
 10
1005.094671176011
 20
386.6561540293689
 30
0.0
 11
1005.094671176011
 21
385.1561540293689
 31
0.0
  0
CIRCLE
  5
1409
330
2
100
AcDbEntity
  8
0
100
AcDbCircle
 10
991.0946711760111
 20
385.9061540293707
 30
0.0
 40
5.5
  0
ARC
  5
140A
330
2
100
AcDbEntity
  8
0
100
AcDbCircle
 10
991.0946711760093
 20
385.9061540293689
 30
0.0
 40
6.654700538379415
100
AcDbArc
 50
6.471114411168633
 51
173.5288855888313
  0
ARC
  5
140B
330
2
100
AcDbEntity
  8
0
100
AcDbCircle
 10
991.0946711760093
 20
385.9061540293689
 30
0.0
 40
6.654700538379415
100
AcDbArc
 50
186.4711144111686
 51
353.5288855888313
  0
LINE
  5
140C
330
2
100
AcDbEntity
  8
0
100
AcDbLine
 10
975.594665004824
 20
419.9061518937953
 30
0.0
 11
985.594665004824
 21
419.9061518937953
 31
0.0
  0
ARC
  5
140D
330
2
100
AcDbEntity
  8
0
100
AcDbCircle
 10
985.594665004824
 20
415.9061518937953
 30
0.0
 40
4.0
100
AcDbArc
 50
0.0
 51
90.0
  0
LINE
  5
140E
330
2
100
AcDbEntity
  8
0
100
AcDbLine
 10
989.5946650048241
 20
415.9061518937953
 30
0.0
 11
989.5946650048241
 21
415.9061518937953
 31
0.0
  0
ARC
  5
140F
330
2
100
AcDbEntity
  8
0
100
AcDbCircle
 10
975.594665004824
 20
415.9061518937953
 30
0.0
 40
4.0
100
AcDbArc
 50
90.0
 51
180.0
  0
CIRCLE
  5
1410
330
2
100
AcDbEntity
  8
0
100
AcDbCircle
 10
783.9561646401039
 20
644.5151667484319
 30
0.0
 40
9.000006171187123
  0
CIRCLE
  5
1411
330
2
100
AcDbEntity
  8
HOJO
100
AcDbCircle
 10
1015.844671176012
 20
410.6561540293689
 30
0.0
 40
2.0
  0
CIRCLE
  5
1412
330
2
100
AcDbEntity
  8
0
100
AcDbCircle
 10
1015.844671176012
 20
410.6561540293689
 30
0.0
 40
1.6
  0
CIRCLE
  5
1413
330
2
100
AcDbEntity
  8
HOJO
100
AcDbCircle
 10
966.3446711760112
 20
410.6561540293689
 30
0.0
 40
2.0
  0
CIRCLE
  5
1414
330
2
100
AcDbEntity
  8
0
100
AcDbCircle
 10
966.3446711760112
 20
410.6561540293689
 30
0.0
 40
1.6
  0
CIRCLE
  5
1415
330
2
100
AcDbEntity
  8
HOJO
100
AcDbCircle
 10
966.3446711760112
 20
361.1561540293688
 30
0.0
 40
2.0
  0
CIRCLE
  5
1416
330
2
100
AcDbEntity
  8
0
100
AcDbCircle
 10
966.3446711760112
 20
361.1561540293688
 30
0.0
 40
1.6
  0
CIRCLE
  5
1417
330
2
100
AcDbEntity
  8
HOJO
100
AcDbCircle
 10
1015.844671176011
 20
361.1561540293688
 30
0.0
 40
2.0
  0
CIRCLE
  5
1418
330
2
100
AcDbEntity
  8
0
100
AcDbCircle
 10
1015.844671176011
 20
361.1561540293688
 30
0.0
 40
1.6
  0
CIRCLE
  5
141A
330
2
100
AcDbEntity
  8
CENTER
100
AcDbCircle
 10
991.0946711760093
 20
385.9061540293716
 30
0.0
 40
35.00178566873169
  0
CIRCLE
  5
141B
330
2
100
AcDbEntity
  8
0
100
AcDbCircle
 10
991.0946711760111
 20
385.9061540293707
 30
0.0
 40
14.75
  0
LINE
  5
141C
330
2
100
AcDbEntity
  8
0
100
AcDbLine
 10
75.40894154051784
 20
412.7661540293606
 30
0.0
 11
80.10894154051674
 21
412.7661540293606
 31
0.0
  0
LINE
  5
141D
330
2
100
AcDbEntity
  8
0
100
AcDbLine
 10
80.10894154051674
 20
421.2661540293606
 30
0.0
 11
75.40894154051784
 21
421.2661540293606
 31
0.0
  0
LINE
  5
141E
330
2
100
AcDbEntity
  8
CENTER
  6
CENS
100
AcDbLine
 10
97.64009849654577
 20
417.0161540293606
 30
0.0
 11
70.18312556646197
 21
417.0161540293606
 31
0.0
  0
LINE
  5
141F
330
2
100
AcDbEntity
  8
0
100
AcDbLine
 10
75.10894154051675
 20
420.7465387870901
 30
0.0
 11
75.10894154051675
 21
413.285769271631
 31
0.0
  0
LINE
  5
1420
330
2
100
AcDbEntity
  8
0
100
AcDbLine
 10
75.40894154051784
 20
412.7661540293606
 30
0.0
 11
75.40894154051784
 21
421.2661540293606
 31
0.0
  0
LINE
  5
1421
330
2
100
AcDbEntity
  8
0
100
AcDbLine
 10
75.40894154051784
 20
412.7661540293606
 30
0.0
 11
75.10894154051675
 21
413.285769271631
 31
0.0
  0
LINE
  5
1422
330
2
100
AcDbEntity
  8
0
100
AcDbLine
 10
75.10894154051675
 20
420.7465387870901
 30
0.0
 11
75.40894154051784
 21
421.2661540293606
 31
0.0
  0
LINE
  5
1423
330
2
100
AcDbEntity
  8
0
100
AcDbLine
 10
80.10894154051674
 20
421.2661540293606
 30
0.0
 11
81.10894154051676
 21
421.2661540293606
 31
0.0
  0
LINE
  5
1424
330
2
100
AcDbEntity
  8
0
100
AcDbLine
 10
81.10894154051676
 20
421.2661540293606
 30
0.0
 11
81.10894154051676
 21
412.7661540293606
 31
0.0
  0
LINE
  5
1425
330
2
100
AcDbEntity
  8
0
100
AcDbLine
 10
81.10894154051676
 20
412.7661540293606
 30
0.0
 11
80.10894154051674
 21
412.7661540293606
 31
0.0
  0
LINE
  5
1426
330
2
100
AcDbEntity
  8
0
100
AcDbLine
 10
80.10894154051674
 20
412.7661540293606
 30
0.0
 11
80.10894154051674
 21
421.2661540293606
 31
0.0
  0
LINE
  5
1427
330
2
100
AcDbEntity
  8
0
100
AcDbLine
 10
80.10894154051674
 20
412.7661540293606
 30
0.0
 11
80.10894154051674
 21
421.2661540293606
 31
0.0
  0
ARC
  5
1428
330
2
100
AcDbEntity
  8
0
100
AcDbCircle
 10
76.30567212991627
 20
350.90615402936
 30
0.0
 40
5.0
100
AcDbArc
 50
8.213210701750298
 51
16.12586214362033
  0
LINE
  5
1429
330
2
100
AcDbEntity
  8
0
100
AcDbLine
 10
81.23417996988065
 20
351.8712492164854
 30
0.0
 11
80.64009849654576
 21
385.90615402936
 31
0.0
  0
LINE
  5
142A
330
2
100
AcDbEntity
  8
0
100
AcDbLine
 10
92.64009849654575
 20
349.90615402936
 30
0.0
 11
83.23387536019254
 21
349.90615402936
 31
0.0
  0
ARC
  5
142B
330
2
100
AcDbEntity
  8
0
100
AcDbCircle
 10
83.23387536019254
 20
351.90615402936
 30
0.0
 40
2.0
100
AcDbArc
 50
181.0000000000017
 51
270.0
  0
LINE
  5
142C
330
2
100
AcDbEntity
  8
CENTER
  6
CENS
100
AcDbLine
 10
63.64009849654576
 20
401.1731265867312
 30
0.0
 11
63.64009849654576
 21
424.5853356298424
 31
0.0
  0
LINE
  5
142D
330
2
100
AcDbEntity
  8
0
100
AcDbLine
 10
81.23417996988065
 20
419.9410588422337
 30
0.0
 11
80.64009849654576
 21
385.90615402936
 31
0.0
  0
LINE
  5
142E
330
2
100
AcDbEntity
  8
0
100
AcDbLine
 10
64.16888352273781
 20
412.9020417985825
 30
0.0
 11
64.64009849654576
 21
385.90615402936
 31
0.0
  0
LINE
  5
142F
330
2
100
AcDbEntity
  8
0
100
AcDbLine
 10
92.64009849654575
 20
385.90615402936
 30
0.0
 11
49.64009849654576
 21
385.90615402936
 31
0.0
  0
LINE
  5
1430
330
2
100
AcDbEntity
  8
0
100
AcDbLine
 10
75.10894154051675
 20
355.90615402936
 30
0.0
 11
49.64009849654576
 21
355.90615402936
 31
0.0
  0
LINE
  5
1431
330
2
100
AcDbEntity
  8
0
100
AcDbLine
 10
64.16888352273781
 20
358.9102662601376
 30
0.0
 11
64.64009849654576
 21
385.90615402936
 31
0.0
  0
ARC
  5
1432
330
2
100
AcDbEntity
  8
0
100
AcDbCircle
 10
61.16835475935113
 20
358.90615402936
 30
0.0
 40
3.0
100
AcDbArc
 50
270.0
 51
358.9999999999982
  0
ARC
  5
1433
330
2
100
AcDbEntity
  8
0
100
AcDbCircle
 10
76.73188354593548
 20
361.1383353838168
 30
0.0
 40
3.0
100
AcDbArc
 50
90.0
 51
178.9999999999721
  0
LINE
  5
1434
330
2
100
AcDbEntity
  8
0
100
AcDbLine
 10
67.26059679287391
 20
364.1383353838168
 30
0.0
 11
76.73188354593548
 21
364.1383353838168
 31
0.0
  0
LINE
  5
1435
330
2
100
AcDbEntity
  8
0
100
AcDbLine
 10
73.73234046046673
 20
361.1906926031291
 30
0.0
 11
73.67439936062692
 21
357.8712492164854
 31
0.0
  0
ARC
  5
1436
330
2
100
AcDbEntity
  8
0
100
AcDbCircle
 10
71.6747039703132
 20
357.90615402936
 30
0.0
 40
2.0
100
AcDbArc
 50
270.0
 51
358.9999999999721
  0
LINE
  5
1437
330
2
100
AcDbEntity
  8
0
100
AcDbLine
 10
75.10894154051675
 20
415.90615402936
 30
0.0
 11
49.64009849654576
 21
415.90615402936
 31
0.0
  0
ARC
  5
1438
330
2
100
AcDbEntity
  8
0
100
AcDbCircle
 10
61.16835475935113
 20
412.90615402936
 30
0.0
 40
3.0
100
AcDbArc
 50
1.000000000001775
 51
90.0
  0
ARC
  5
1439
330
2
100
AcDbEntity
  8
0
100
AcDbCircle
 10
83.23387536019254
 20
419.90615402936
 30
0.0
 40
2.0
100
AcDbArc
 50
90.0
 51
178.9999999999982
  0
LINE
  5
143A
330
2
100
AcDbEntity
  8
0
100
AcDbLine
 10
92.64009849654575
 20
421.90615402936
 30
0.0
 11
83.23387536019254
 21
421.90615402936
 31
0.0
  0
ARC
  5
143B
330
2
100
AcDbEntity
  8
0
100
AcDbCircle
 10
76.30567212991627
 20
420.90615402936
 30
0.0
 40
5.0
100
AcDbArc
 50
343.8741378563796
 51
351.7867892982497
  0
LINE
  5
143C
330
2
100
AcDbEntity
  8
0
100
AcDbLine
 10
49.64009849654576
 20
355.90615402936
 30
0.0
 11
49.64009849654576
 21
415.90615402936
 31
0.0
  0
LINE
  5
143D
330
2
100
AcDbEntity
  8
0
100
AcDbLine
 10
75.40894154051784
 20
359.0461540293594
 30
0.0
 11
80.10894154051674
 21
359.0461540293594
 31
0.0
  0
LINE
  5
143E
330
2
100
AcDbEntity
  8
0
100
AcDbLine
 10
80.10894154051674
 20
350.5461540293594
 30
0.0
 11
75.40894154051784
 21
350.5461540293594
 31
0.0
  0
LINE
  5
143F
330
2
100
AcDbEntity
  8
CENTER
  6
CENS
100
AcDbLine
 10
97.64009849654577
 20
354.7961540293594
 30
0.0
 11
70.18312556646197
 21
354.7961540293594
 31
0.0
  0
LINE
  5
1440
330
2
100
AcDbEntity
  8
0
100
AcDbLine
 10
75.10894154051675
 20
351.0657692716299
 30
0.0
 11
75.10894154051675
 21
358.526538787089
 31
0.0
  0
LINE
  5
1441
330
2
100
AcDbEntity
  8
0
100
AcDbLine
 10
75.40894154051784
 20
359.0461540293594
 30
0.0
 11
75.40894154051784
 21
350.5461540293594
 31
0.0
  0
LINE
  5
1442
330
2
100
AcDbEntity
  8
0
100
AcDbLine
 10
75.40894154051784
 20
359.0461540293594
 30
0.0
 11
75.10894154051675
 21
358.526538787089
 31
0.0
  0
LINE
  5
1443
330
2
100
AcDbEntity
  8
0
100
AcDbLine
 10
75.10894154051675
 20
351.0657692716299
 30
0.0
 11
75.40894154051784
 21
350.5461540293594
 31
0.0
  0
LINE
  5
1444
330
2
100
AcDbEntity
  8
0
100
AcDbLine
 10
80.10894154051674
 20
350.5461540293594
 30
0.0
 11
81.10894154051676
 21
350.5461540293594
 31
0.0
  0
LINE
  5
1445
330
2
100
AcDbEntity
  8
0
100
AcDbLine
 10
81.10894154051676
 20
350.5461540293594
 30
0.0
 11
81.10894154051676
 21
359.0461540293594
 31
0.0
  0
LINE
  5
1446
330
2
100
AcDbEntity
  8
0
100
AcDbLine
 10
81.10894154051676
 20
359.0461540293594
 30
0.0
 11
80.10894154051674
 21
359.0461540293594
 31
0.0
  0
LINE
  5
1447
330
2
100
AcDbEntity
  8
0
100
AcDbLine
 10
80.10894154051674
 20
359.0461540293594
 30
0.0
 11
80.10894154051674
 21
350.5461540293594
 31
0.0
  0
LINE
  5
1448
330
2
100
AcDbEntity
  8
0
100
AcDbLine
 10
80.10894154051674
 20
359.0461540293594
 30
0.0
 11
80.10894154051674
 21
350.5461540293594
 31
0.0
  0
LINE
  5
1449
330
2
100
AcDbEntity
  8
0
100
AcDbLine
 10
58.64009232535863
 20
419.90615402936
 30
0.0
 11
68.64009232535863
 21
419.90615402936
 31
0.0
  0
ARC
  5
144A
330
2
100
AcDbEntity
  8
0
100
AcDbCircle
 10
68.64009232535863
 20
415.90615402936
 30
0.0
 40
4.0
100
AcDbArc
 50
0.0
 51
90.0
  0
ARC
  5
144B
330
2
100
AcDbEntity
  8
0
100
AcDbCircle
 10
58.64009232535863
 20
415.90615402936
 30
0.0
 40
4.0
100
AcDbArc
 50
90.0
 51
180.0
  0
CIRCLE
  5
144C
330
2
100
AcDbEntity
  8
0
100
AcDbCircle
 10
991.0946711760093
 20
385.9061540293707
 30
0.0
 40
22.5
  0
LINE
  5
144D
330
2
100
AcDbEntity
  8
0
100
AcDbLine
 10
772.1873215944074
 20
412.7661540293597
 30
0.0
 11
767.4873215944085
 21
412.7661540293597
 31
0.0
  0
LINE
  5
144E
330
2
100
AcDbEntity
  8
0
100
AcDbLine
 10
767.4873215944085
 20
421.2661540293597
 30
0.0
 11
772.1873215944074
 21
421.2661540293597
 31
0.0
  0
LINE
  5
144F
330
2
100
AcDbEntity
  8
CENTER
  6
CENS
100
AcDbLine
 10
749.9561646383795
 20
417.0161540293596
 30
0.0
 11
777.4131375684633
 21
417.0161540293596
 31
0.0
  0
LINE
  5
1450
330
2
100
AcDbEntity
  8
0
100
AcDbLine
 10
772.4873215944085
 20
420.7465387870892
 30
0.0
 11
772.4873215944085
 21
413.2857692716301
 31
0.0
  0
LINE
  5
1451
330
2
100
AcDbEntity
  8
0
100
AcDbLine
 10
772.1873215944074
 20
412.7661540293597
 30
0.0
 11
772.1873215944074
 21
421.2661540293597
 31
0.0
  0
LINE
  5
1452
330
2
100
AcDbEntity
  8
0
100
AcDbLine
 10
772.1873215944074
 20
412.7661540293597
 30
0.0
 11
772.4873215944085
 21
413.2857692716301
 31
0.0
  0
LINE
  5
1453
330
2
100
AcDbEntity
  8
0
100
AcDbLine
 10
772.4873215944085
 20
420.7465387870892
 30
0.0
 11
772.1873215944074
 21
421.2661540293597
 31
0.0
  0
LINE
  5
1454
330
2
100
AcDbEntity
  8
0
100
AcDbLine
 10
767.4873215944085
 20
421.2661540293597
 30
0.0
 11
766.4873215944084
 21
421.2661540293597
 31
0.0
  0
LINE
  5
1455
330
2
100
AcDbEntity
  8
0
100
AcDbLine
 10
766.4873215944084
 20
421.2661540293597
 30
0.0
 11
766.4873215944084
 21
412.7661540293597
 31
0.0
  0
LINE
  5
1456
330
2
100
AcDbEntity
  8
0
100
AcDbLine
 10
766.4873215944084
 20
412.7661540293597
 30
0.0
 11
767.4873215944085
 21
412.7661540293597
 31
0.0
  0
LINE
  5
1457
330
2
100
AcDbEntity
  8
0
100
AcDbLine
 10
767.4873215944085
 20
412.7661540293597
 30
0.0
 11
767.4873215944085
 21
421.2661540293597
 31
0.0
  0
LINE
  5
1458
330
2
100
AcDbEntity
  8
0
100
AcDbLine
 10
767.4873215944085
 20
412.7661540293597
 30
0.0
 11
767.4873215944085
 21
421.2661540293597
 31
0.0
  0
ARC
  5
1459
330
2
100
AcDbEntity
  8
0
100
AcDbCircle
 10
771.290591005009
 20
350.9061540293591
 30
0.0
 40
5.0
100
AcDbArc
 50
163.8741378563796
 51
171.7867892982496
  0
LINE
  5
145A
330
2
100
AcDbEntity
  8
0
100
AcDbLine
 10
766.3620831650446
 20
351.8712492164845
 30
0.0
 11
766.9561646383795
 21
385.9061540293591
 31
0.0
  0
LINE
  5
145B
330
2
100
AcDbEntity
  8
0
100
AcDbLine
 10
754.9561646383795
 20
349.9061540293591
 30
0.0
 11
764.3623877747327
 21
349.9061540293591
 31
0.0
  0
ARC
  5
145C
330
2
100
AcDbEntity
  8
0
100
AcDbCircle
 10
764.3623877747327
 20
351.9061540293591
 30
0.0
 40
2.0
100
AcDbArc
 50
270.0
 51
358.9999999999982
  0
LINE
  5
145D
330
2
100
AcDbEntity
  8
CENTER
  6
CENS
100
AcDbLine
 10
783.9561646383795
 20
401.1731265867303
 30
0.0
 11
783.9561646383795
 21
424.5853356298415
 31
0.0
  0
LINE
  5
145E
330
2
100
AcDbEntity
  8
0
100
AcDbLine
 10
766.3620831650446
 20
419.9410588422328
 30
0.0
 11
766.8162229209833
 21
393.9234096495042
 31
0.0
  0
LINE
  5
145F
330
2
100
AcDbEntity
  8
0
100
AcDbLine
 10
783.4273796121874
 20
412.9020417985816
 30
0.0
 11
783.209836601653
 21
400.4390110720909
 31
0.0
  0
LINE
  5
1460
330
2
100
AcDbEntity
  8
0
100
AcDbLine
 10
754.9561646383795
 20
385.9061540293591
 30
0.0
 11
755.4162039915667
 21
385.9061540293591
 31
0.0
  0
LINE
  5
1461
330
2
100
AcDbEntity
  8
0
100
AcDbLine
 10
772.4873215944085
 20
355.9061540293591
 30
0.0
 11
797.9561646383794
 21
355.9061540293591
 31
0.0
  0
LINE
  5
1462
330
2
100
AcDbEntity
  8
0
100
AcDbLine
 10
783.4273796121874
 20
358.9102662601366
 30
0.0
 11
782.9561646383795
 21
385.9061540293591
 31
0.0
  0
ARC
  5
1463
330
2
100
AcDbEntity
  8
0
100
AcDbCircle
 10
786.4279083755741
 20
358.9061540293591
 30
0.0
 40
3.0
100
AcDbArc
 50
181.0000000000017
 51
270.0
  0
ARC
  5
1464
330
2
100
AcDbEntity
  8
0
100
AcDbCircle
 10
770.8643795889898
 20
410.6739726749023
 30
0.0
 40
3.0
100
AcDbArc
 50
270.0
 51
358.9999999999721
  0
LINE
  5
1465
330
2
100
AcDbEntity
  8
0
100
AcDbLine
 10
780.3356663420514
 20
407.6739726749023
 30
0.0
 11
770.8643795889898
 21
407.6739726749023
 31
0.0
  0
LINE
  5
1466
330
2
100
AcDbEntity
  8
0
100
AcDbLine
 10
773.8639226744585
 20
410.6216154555899
 30
0.0
 11
773.9218637742983
 21
413.9410588422337
 31
0.0
  0
ARC
  5
1467
330
2
100
AcDbEntity
  8
0
100
AcDbCircle
 10
775.921559164612
 20
413.9061540293591
 30
0.0
 40
2.0
100
AcDbArc
 50
90.0
 51
178.9999999999721
  0
LINE
  5
1468
330
2
100
AcDbEntity
  8
0
100
AcDbLine
 10
772.4873215944085
 20
415.9061540293591
 30
0.0
 11
797.9561646383794
 21
415.9061540293591
 31
0.0
  0
ARC
  5
1469
330
2
100
AcDbEntity
  8
0
100
AcDbCircle
 10
786.4279083755741
 20
412.9061540293591
 30
0.0
 40
3.0
100
AcDbArc
 50
90.0
 51
178.9999999999982
  0
ARC
  5
146A
330
2
100
AcDbEntity
  8
0
100
AcDbCircle
 10
764.3623877747327
 20
419.9061540293591
 30
0.0
 40
2.0
100
AcDbArc
 50
1.000000000001775
 51
90.0
  0
LINE
  5
146B
330
2
100
AcDbEntity
  8
0
100
AcDbLine
 10
754.9561646383795
 20
421.9061540293591
 30
0.0
 11
764.3623877747327
 21
421.9061540293591
 31
0.0
  0
ARC
  5
146C
330
2
100
AcDbEntity
  8
0
100
AcDbCircle
 10
771.290591005009
 20
420.9061540293591
 30
0.0
 40
5.0
100
AcDbArc
 50
188.2132107017503
 51
196.1258621436203
  0
LINE
  5
146D
330
2
100
AcDbEntity
  8
0
100
AcDbLine
 10
787.855497966762
 20
408.4061540293591
 30
0.0
 11
790.9561646383795
 21
408.4061540293591
 31
0.0
  0
LINE
  5
146E
330
2
100
AcDbEntity
  8
0
100
AcDbLine
 10
797.9561646383794
 20
355.9061540293591
 30
0.0
 11
797.9561646383794
 21
415.9061540293591
 31
0.0
  0
LINE
  5
146F
330
2
100
AcDbEntity
  8
0
100
AcDbLine
 10
772.1873215944074
 20
359.0461540293585
 30
0.0
 11
767.4873215944085
 21
359.0461540293585
 31
0.0
  0
LINE
  5
1470
330
2
100
AcDbEntity
  8
0
100
AcDbLine
 10
767.4873215944085
 20
350.5461540293585
 30
0.0
 11
772.1873215944074
 21
350.5461540293585
 31
0.0
  0
LINE
  5
1471
330
2
100
AcDbEntity
  8
CENTER
  6
CENS
100
AcDbLine
 10
749.9561646383795
 20
354.7961540293585
 30
0.0
 11
777.4131375684633
 21
354.7961540293585
 31
0.0
  0
LINE
  5
1472
330
2
100
AcDbEntity
  8
0
100
AcDbLine
 10
772.4873215944085
 20
351.0657692716289
 30
0.0
 11
772.4873215944085
 21
358.526538787088
 31
0.0
  0
LINE
  5
1473
330
2
100
AcDbEntity
  8
0
100
AcDbLine
 10
772.1873215944074
 20
359.0461540293585
 30
0.0
 11
772.1873215944074
 21
350.5461540293585
 31
0.0
  0
LINE
  5
1474
330
2
100
AcDbEntity
  8
0
100
AcDbLine
 10
772.1873215944074
 20
359.0461540293585
 30
0.0
 11
772.4873215944085
 21
358.526538787088
 31
0.0
  0
LINE
  5
1475
330
2
100
AcDbEntity
  8
0
100
AcDbLine
 10
772.4873215944085
 20
351.0657692716289
 30
0.0
 11
772.1873215944074
 21
350.5461540293585
 31
0.0
  0
LINE
  5
1476
330
2
100
AcDbEntity
  8
0
100
AcDbLine
 10
767.4873215944085
 20
350.5461540293585
 30
0.0
 11
766.4873215944084
 21
350.5461540293585
 31
0.0
  0
LINE
  5
1477
330
2
100
AcDbEntity
  8
0
100
AcDbLine
 10
766.4873215944084
 20
350.5461540293585
 30
0.0
 11
766.4873215944084
 21
359.0461540293585
 31
0.0
  0
LINE
  5
1478
330
2
100
AcDbEntity
  8
0
100
AcDbLine
 10
766.4873215944084
 20
359.0461540293585
 30
0.0
 11
767.4873215944085
 21
359.0461540293585
 31
0.0
  0
LINE
  5
1479
330
2
100
AcDbEntity
  8
0
100
AcDbLine
 10
767.4873215944085
 20
359.0461540293585
 30
0.0
 11
767.4873215944085
 21
350.5461540293585
 31
0.0
  0
LINE
  5
147A
330
2
100
AcDbEntity
  8
0
100
AcDbLine
 10
767.4873215944085
 20
359.0461540293585
 30
0.0
 11
767.4873215944085
 21
350.5461540293585
 31
0.0
  0
LINE
  5
147B
330
2
100
AcDbEntity
  8
0
100
AcDbLine
 10
788.4561540293293
 20
391.4061540293591
 30
0.0
 11
778.4561540293293
 21
391.4061540293591
 31
0.0
  0
LINE
  5
147C
330
2
100
AcDbEntity
  8
0
100
AcDbLine
 10
788.4561540293293
 20
391.4061540293591
 30
0.0
 11
788.4561540293293
 21
385.9061540293591
 31
0.0
  0
LINE
  5
147D
330
2
100
AcDbEntity
  8
0
100
AcDbLine
 10
790.4561540293293
 20
392.5608545677391
 30
0.0
 11
788.4561540293293
 21
391.4061540293591
 31
0.0
  0
LINE
  5
147E
330
2
100
AcDbEntity
  8
0
100
AcDbLine
 10
761.4561540293293
 20
391.6561540293591
 30
0.0
 11
761.4561540293293
 21
385.9061540293591
 31
0.0
  0
LINE
  5
147F
330
2
100
AcDbEntity
  8
0
100
AcDbLine
 10
788.4561540293293
 20
391.4061540293591
 30
0.0
 11
778.4561540293293
 21
391.4061540293591
 31
0.0
  0
LINE
  5
1480
330
2
100
AcDbEntity
  8
0
100
AcDbLine
 10
783.3683682080032
 20
400.6561540293591
 30
0.0
 11
790.4561540293293
 21
400.6561540293591
 31
0.0
  0
LINE
  5
1481
330
2
100
AcDbEntity
  8
0
100
AcDbLine
 10
790.4561540293293
 20
400.6561540293591
 30
0.0
 11
790.4561540293293
 21
385.9061540293591
 31
0.0
  0
LINE
  5
1482
330
2
100
AcDbEntity
  8
0
100
AcDbLine
 10
776.4561540293294
 20
396.190835216083
 30
0.0
 11
776.4561540293294
 21
385.9061540293591
 31
0.0
  0
LINE
  5
1483
330
2
100
AcDbEntity
  8
0
100
AcDbLine
 10
778.4561540293293
 20
396.7162353635144
 30
0.0
 11
778.4561540293293
 21
385.9061540293591
 31
0.0
  0
LINE
  5
1484
330
2
100
AcDbEntity
  8
0
100
AcDbLine
 10
769.4561540293293
 20
391.6561540293591
 30
0.0
 11
761.4561540293293
 21
391.6561540293591
 31
0.0
  0
LINE
  5
1485
330
2
100
AcDbEntity
  8
0
100
AcDbLine
 10
769.4561540293293
 20
385.9061540293591
 30
0.0
 11
769.4561540293293
 21
391.6561540293591
 31
0.0
  0
LINE
  5
1486
330
2
100
AcDbEntity
  8
0
100
AcDbLine
 10
776.4561540293294
 20
391.4061540293591
 30
0.0
 11
769.4561540293293
 21
391.4061540293591
 31
0.0
  0
LINE
  5
1487
330
2
100
AcDbEntity
  8
0
100
AcDbLine
 10
758.5694026833812
 20
385.9061540293591
 30
0.0
 11
761.4561540293293
 21
390.9061540293591
 31
0.0
  0
SPLINE
  5
1488
330
2
100
AcDbEntity
  8
HOJO
100
AcDbSpline
210
0.0
220
0.0
230
1.0
 70
     8
 71
     3
 72
    20
 73
    16
 74
     0
 42
0.0000000001
 43
0.0000000001
 40
0.0
 40
0.0
 40
0.0
 40
0.0
 40
5.311626210389601
 40
7.954639692924123
 40
10.24579206730457
 40
14.18281221953265
 40
18.83794314114633
 40
26.54246833222011
 40
31.19712602527561
 40
34.95638115537181
 40
42.12378530287149
 40
45.78553747213095
 40
50.20353689726185
 40
53.26513166942802
 40
54.23175360515262
 40
54.23175360515262
 40
54.23175360515262
 40
54.23175360515262
 10
797.9561646383794
 20
412.5936027513747
 30
0.0
 10
796.2431854724914
 20
412.485560701149
 30
0.0
 10
793.6778445530803
 20
412.3237579787441
 30
0.0
 10
789.9060906660038
 20
412.0716253065769
 30
0.0
 10
788.5869494498697
 20
409.1391838216099
 30
0.0
 10
786.1517400815778
 20
406.4846749983147
 30
0.0
 10
784.3136917384277
 20
401.333379565151
 30
0.0
 10
780.1888553289523
 20
396.623632213525
 30
0.0
 10
774.7112078259456
 20
395.9863007791068
 30
0.0
 10
769.7978223163795
 20
394.2999818323991
 30
0.0
 10
764.9638229696215
 20
393.6799947404237
 30
0.0
 10
759.9260962049815
 20
392.7247707227629
 30
0.0
 10
756.8549455836132
 20
390.1905588800122
 30
0.0
 10
755.8549712888876
 20
387.5123183591226
 30
0.0
 10
755.4989317636541
 20
386.217305329052
 30
0.0
 10
755.4162039915667
 20
385.9061540293591
 30
0.0
  0
LINE
  5
1489
330
2
100
AcDbEntity
  8
0
100
AcDbLine
 10
797.9561646383794
 20
410.9061540293591
 30
0.0
 11
790.9561646383795
 21
410.9061540293591
 31
0.0
  0
LINE
  5
148A
330
2
100
AcDbEntity
  8
0
100
AcDbLine
 10
790.9561646383795
 20
410.9061540293591
 30
0.0
 11
790.9561646383795
 21
385.9061540293591
 31
0.0
  0
LINE
  5
148B
330
2
100
AcDbEntity
  8
0
100
AcDbLine
 10
788.9561708095666
 20
419.9061540293591
 30
0.0
 11
778.9561708095666
 21
419.9061540293591
 31
0.0
  0
ARC
  5
148C
330
2
100
AcDbEntity
  8
0
100
AcDbCircle
 10
778.9561708095666
 20
415.9061540293591
 30
0.0
 40
4.0
100
AcDbArc
 50
90.0
 51
180.0
  0
ARC
  5
148D
330
2
100
AcDbEntity
  8
0
100
AcDbCircle
 10
788.9561708095666
 20
415.9061540293591
 30
0.0
 40
4.0
100
AcDbArc
 50
0.0
 51
90.0
  0
CIRCLE
  5
1A76
330
2
100
AcDbEntity
  8
0
100
AcDbCircle
 10
631.1661646383804
 20
385.9061540293591
 30
0.0
 40
26.57735026918791
  0
ARC
  5
1A7B
330
2
100
AcDbEntity
  8
0
100
AcDbCircle
 10
717.1137272748853
 20
621.0151667509766
 30
0.0
 40
2.0
100
AcDbArc
 50
270.0
 51
359.4999999999951
  0
ENDSEC
  0
SECTION
  2
OBJECTS
  0
DICTIONARY
  5
7
330
0
100
AcDbDictionary
  3
ACAD_GROUP
350
75
  3
ACAD_LAYOUT
350
61
  3
ACAD_MLINESTYLE
350
76
  3
ACAD_PLOTSETTINGS
350
77
  3
ACAD_PLOTSTYLENAME
350
6
  3
ACADDIM
350
480
  3
ACDBHEADERROUNDTRIPXREC
350
1A95
  3
ACDBVARIABLEDICTIONARY
350
102
  3
DWGPROPS
350
3D2
  0
DICTIONARY
  5
B21
330
66
100
AcDbDictionary
280
     1
  3
ACAD_LAYERSTATES
360
B22
  0
DICTIONARY
  5
1AB6
330
2
100
AcDbDictionary
280
     1
  3
ACAD_LAYOUTSELFREF
360
1AB7
  0
DICTIONARY
  5
1AB8
330
1A8F
100
AcDbDictionary
280
     1
  3
ACAD_LAYOUTSELFREF
360
1AB9
  0
DICTIONARY
  5
75
102
{ACAD_REACTORS
330
7
102
}
330
7
100
AcDbDictionary
  0
DICTIONARY
  5
61
102
{ACAD_REACTORS
330
7
102
}
330
7
100
AcDbDictionary
  0
DICTIONARY
  5
76
102
{ACAD_REACTORS
330
7
102
}
330
7
100
AcDbDictionary
  3
STANDARD
350
78
  0
DICTIONARY
  5
77
102
{ACAD_REACTORS
330
7
102
}
330
7
100
AcDbDictionary
  0
ACDBDICTIONARYWDFLT
  5
6
102
{ACAD_REACTORS
330
7
102
}
330
7
100
AcDbDictionary
281
     1
  3
Normal
350
5
100
AcDbDictionaryWithDefault
340
5
  0
XRECORD
  5
480
102
{ACAD_REACTORS
330
7
102
}
330
7
100
AcDbXrecord
 90
   990106
  3

 60
     0
 61
     0
 62
     1
 63
     3
 64
     1
 65
     0
 66
     0
 67
     3
 68
     1
 69
     0
 70
     0
 71
     0
 72
     0
 40
0.0
170
     2
340
0
  0
DICTIONARY
  5
1A95
102
{ACAD_REACTORS
330
7
102
}
330
7
100
AcDbDictionary
  3
CEPSNTYPE
350
1A9F
  3
DIMSTYLEDATA
350
1AA3
  3
FINGERPRINTGUID
350
1AA0
  3
HYPERLINKBASE
350
1A98
  3
INSUNITS
350
1A9E
  3
LAYOUTDICT
350
1A9A
  3
LWETCUNION
350
1A9D
  3
PLOTSETDICT
350
1A9B
  3
PLOTSTYLNAMDICT
350
1A9C
  3
PSVPSCALE
350
1AA2
  3
PUCSBASE
350
1AA6
  3
PUCSORGBACK
350
1AAC
  3
PUCSORGBOTTOM
350
1AA8
  3
PUCSORGFRONT
350
1AAB
  3
PUCSORGLEFT
350
1AA9
  3
PUCSORGRIGHT
350
1AAA
  3
PUCSORGTOP
350
1AA7
  3
PUCSORTHOREF
350
1AA4
  3
PUCSORTHOVIEW
350
1AA5
  3
STYLESHEET
350
1A99
  3
TSTACKALIGN
350
1A96
  3
TSTACKSIZE
350
1A97
  3
UCSBASE
350
1AAF
  3
UCSORGBACK
350
1AB5
  3
UCSORGBOTTOM
350
1AB1
  3
UCSORGFRONT
350
1AB4
  3
UCSORGLEFT
350
1AB2
  3
UCSORGRIGHT
350
1AB3
  3
UCSORGTOP
350
1AB0
  3
UCSORTHOREF
350
1AAD
  3
UCSORTHOVIEW
350
1AAE
  3
VERSIONGUID
350
1AA1
  0
DICTIONARY
  5
102
102
{ACAD_REACTORS
330
7
102
}
330
7
100
AcDbDictionary
  3
DIMASSOC
350
103
  3
SORTENTS
350
549
  0
XRECORD
  5
3D2
102
{ACAD_REACTORS
330
7
102
}
330
7
100
AcDbXrecord
  1
DWGPROPS COOKIE
  2

  3

  4

  6

  7

  8

  9

300
=
301
=
302
=
303
=
304
=
305
=
306
=
307
=
308
=
309
=
 40
0.5353330671296296
 41
2452052.431989363
 42
2453406.550756377
  1

 90
        0
  0
DICTIONARY
  5
B22
102
{ACAD_REACTORS
330
B21
102
}
330
B21
100
AcDbDictionary
  0
XRECORD
  5
1AB7
102
{ACAD_REACTORS
330
1AB6
102
}
330
1AB6
100
AcDbXrecord
340
2
  0
XRECORD
  5
1AB9
102
{ACAD_REACTORS
330
1AB8
102
}
330
1AB8
100
AcDbXrecord
340
1A8F
  0
MLINESTYLE
  5
78
102
{ACAD_REACTORS
330
76
102
}
330
76
100
AcDbMlineStyle
  2
STANDARD
 70
     0
  3

 62
     0
 51
90.0
 52
90.0
 71
     2
 49
0.5
 62
   256
  6
BYLAYER
 49
-0.5
 62
   256
  6
BYLAYER
  0
ACDBPLACEHOLDER
  5
5
102
{ACAD_REACTORS
330
6
102
}
330
6
100
AcDbPlaceHolder
280
     0
  0
XRECORD
  5
1A9F
102
{ACAD_REACTORS
330
1A95
102
}
330
1A95
100
AcDbXrecord
 90
        0
  0
XRECORD
  5
1AA3
102
{ACAD_REACTORS
330
1A95
102
}
330
1A95
100
AcDbXrecord
1000
DSTYLE
1002
{
1070
   179
 70
     2
1070
   277
 70
     6
1002
}
  0
XRECORD
  5
1AA0
102
{ACAD_REACTORS
330
1A95
102
}
330
1A95
100
AcDbXrecord
  1
{6385560B-F4B1-4644-A7C2-A3E32AC3D232}
  0
XRECORD
  5
1A98
102
{ACAD_REACTORS
330
1A95
102
}
330
1A95
100
AcDbXrecord
  1

  0
XRECORD
  5
1A9E
102
{ACAD_REACTORS
330
1A95
102
}
330
1A95
100
AcDbXrecord
 90
        0
  0
XRECORD
  5
1A9A
102
{ACAD_REACTORS
330
1A95
102
}
330
1A95
100
AcDbXrecord
340
61
  0
XRECORD
  5
1A9D
102
{ACAD_REACTORS
330
1A95
102
}
330
1A95
100
AcDbXrecord
 90
    10781
  0
XRECORD
  5
1A9B
102
{ACAD_REACTORS
330
1A95
102
}
330
1A95
100
AcDbXrecord
340
77
  0
XRECORD
  5
1A9C
102
{ACAD_REACTORS
330
1A95
102
}
330
1A95
100
AcDbXrecord
340
6
  0
XRECORD
  5
1AA2
102
{ACAD_REACTORS
330
1A95
102
}
330
1A95
100
AcDbXrecord
 40
0.0
  0
XRECORD
  5
1AA6
102
{ACAD_REACTORS
330
1A95
102
}
330
1A95
100
AcDbXrecord
340
0
  0
XRECORD
  5
1AAC
102
{ACAD_REACTORS
330
1A95
102
}
330
1A95
100
AcDbXrecord
 10
0.0
 20
0.0
 30
0.0
  0
XRECORD
  5
1AA8
102
{ACAD_REACTORS
330
1A95
102
}
330
1A95
100
AcDbXrecord
 10
0.0
 20
0.0
 30
0.0
  0
XRECORD
  5
1AAB
102
{ACAD_REACTORS
330
1A95
102
}
330
1A95
100
AcDbXrecord
 10
0.0
 20
0.0
 30
0.0
  0
XRECORD
  5
1AA9
102
{ACAD_REACTORS
330
1A95
102
}
330
1A95
100
AcDbXrecord
 10
0.0
 20
0.0
 30
0.0
  0
XRECORD
  5
1AAA
102
{ACAD_REACTORS
330
1A95
102
}
330
1A95
100
AcDbXrecord
 10
0.0
 20
0.0
 30
0.0
  0
XRECORD
  5
1AA7
102
{ACAD_REACTORS
330
1A95
102
}
330
1A95
100
AcDbXrecord
 10
0.0
 20
0.0
 30
0.0
  0
XRECORD
  5
1AA4
102
{ACAD_REACTORS
330
1A95
102
}
330
1A95
100
AcDbXrecord
340
0
  0
XRECORD
  5
1AA5
102
{ACAD_REACTORS
330
1A95
102
}
330
1A95
100
AcDbXrecord
 70
     0
  0
XRECORD
  5
1A99
102
{ACAD_REACTORS
330
1A95
102
}
330
1A95
100
AcDbXrecord
  1
Sekkei.ctb
  0
XRECORD
  5
1A96
102
{ACAD_REACTORS
330
1A95
102
}
330
1A95
100
AcDbXrecord
 90
        1
  0
XRECORD
  5
1A97
102
{ACAD_REACTORS
330
1A95
102
}
330
1A95
100
AcDbXrecord
 90
       70
  0
XRECORD
  5
1AAF
102
{ACAD_REACTORS
330
1A95
102
}
330
1A95
100
AcDbXrecord
340
0
  0
XRECORD
  5
1AB5
102
{ACAD_REACTORS
330
1A95
102
}
330
1A95
100
AcDbXrecord
 10
0.0
 20
0.0
 30
0.0
  0
XRECORD
  5
1AB1
102
{ACAD_REACTORS
330
1A95
102
}
330
1A95
100
AcDbXrecord
 10
0.0
 20
0.0
 30
0.0
  0
XRECORD
  5
1AB4
102
{ACAD_REACTORS
330
1A95
102
}
330
1A95
100
AcDbXrecord
 10
0.0
 20
0.0
 30
0.0
  0
XRECORD
  5
1AB2
102
{ACAD_REACTORS
330
1A95
102
}
330
1A95
100
AcDbXrecord
 10
0.0
 20
0.0
 30
0.0
  0
XRECORD
  5
1AB3
102
{ACAD_REACTORS
330
1A95
102
}
330
1A95
100
AcDbXrecord
 10
0.0
 20
0.0
 30
0.0
  0
XRECORD
  5
1AB0
102
{ACAD_REACTORS
330
1A95
102
}
330
1A95
100
AcDbXrecord
 10
0.0
 20
0.0
 30
0.0
  0
XRECORD
  5
1AAD
102
{ACAD_REACTORS
330
1A95
102
}
330
1A95
100
AcDbXrecord
340
0
  0
XRECORD
  5
1AAE
102
{ACAD_REACTORS
330
1A95
102
}
330
1A95
100
AcDbXrecord
 70
     0
  0
XRECORD
  5
1AA1
102
{ACAD_REACTORS
330
1A95
102
}
330
1A95
100
AcDbXrecord
  1
{CFF849FE-8532-4394-A647-ECDFC0807FD9}
  0
DICTIONARYVAR
  5
103
102
{ACAD_REACTORS
330
102
102
}
330
102
100
DictionaryVariables
280
     0
  1
1
  0
DICTIONARYVAR
  5
549
102
{ACAD_REACTORS
330
102
102
}
330
102
100
DictionaryVariables
280
     0
  1
96
  0
ENDSEC
  0
EOF
