  0
SECTION
  2
HEADER
  9
$ACADVER
  1
AC1014
  9
$ACADMAINTVER
 70
     9
  9
$DWGCODEPAGE
  3
ANSI_932
  9
$INSBASE
 10
0.0
 20
0.0
 30
0.0
  9
$EXTMIN
 10
39.19537924760277
 20
95.69364706688025
 30
0.0
  9
$EXTMAX
 10
1056.649844927068
 20
740.1260056515233
 30
0.0
  9
$LIMMIN
 10
0.0
 20
0.0
  9
$LIMMAX
 10
297.0
 20
210.0
  9
$ORTHOMODE
 70
     1
  9
$REGENMODE
 70
     1
  9
$FILLMODE
 70
     1
  9
$QTEXTMODE
 70
     0
  9
$MIRRTEXT
 70
     0
  9
$DRAGMODE
 70
     2
  9
$LTSCALE
 40
3.0
  9
$OSMODE
 70
    37
  9
$ATTMODE
 70
     1
  9
$TEXTSIZE
 40
2.0
  9
$TRACEWID
 40
1.0
  9
$TEXTSTYLE
  7
STANDARD
  9
$CLAYER
  8
0
  9
$CELTYPE
  6
BYLAYER
  9
$CECOLOR
 62
   256
  9
$CELTSCALE
 40
1.0
  9
$DELOBJ
 70
     1
  9
$DISPSILH
 70
     0
  9
$DIMSCALE
 40
3.0
  9
$DIMASZ
 40
1.8
  9
$DIMEXO
 40
0.625
  9
$DIMDLI
 40
3.75
  9
$DIMRND
 40
0.0
  9
$DIMDLE
 40
0.0
  9
$DIMEXE
 40
0.8
  9
$DIMTP
 40
0.0
  9
$DIMTM
 40
0.0
  9
$DIMTXT
 40
1.8
  9
$DIMCEN
 40
2.5
  9
$DIMTSZ
 40
0.0
  9
$DIMTOL
 70
     0
  9
$DIMLIM
 70
     0
  9
$DIMTIH
 70
     0
  9
$DIMTOH
 70
     0
  9
$DIMSE1
 70
     0
  9
$DIMSE2
 70
     0
  9
$DIMTAD
 70
     1
  9
$DIMZIN
 70
     8
  9
$DIMBLK
  1

  9
$DIMASO
 70
     1
  9
$DIMSHO
 70
     1
  9
$DIMPOST
  1

  9
$DIMAPOST
  1

  9
$DIMALT
 70
     0
  9
$DIMALTD
 70
     4
  9
$DIMALTF
 40
0.0394
  9
$DIMLFAC
 40
1.0
  9
$DIMTOFL
 70
     1
  9
$DIMTVP
 40
0.0
  9
$DIMTIX
 70
     0
  9
$DIMSOXD
 70
     0
  9
$DIMSAH
 70
     0
  9
$DIMBLK1
  1

  9
$DIMBLK2
  1

  9
$DIMSTYLE
  2
STANDARD
  9
$DIMCLRD
 70
     0
  9
$DIMCLRE
 70
     0
  9
$DIMCLRT
 70
     0
  9
$DIMTFAC
 40
1.0
  9
$DIMGAP
 40
0.75
  9
$DIMJUST
 70
     0
  9
$DIMSD1
 70
     0
  9
$DIMSD2
 70
     0
  9
$DIMTOLJ
 70
     1
  9
$DIMTZIN
 70
     0
  9
$DIMALTZ
 70
     0
  9
$DIMALTTZ
 70
     0
  9
$DIMFIT
 70
     3
  9
$DIMUPT
 70
     0
  9
$DIMUNIT
 70
     8
  9
$DIMDEC
 70
     2
  9
$DIMTDEC
 70
     2
  9
$DIMALTU
 70
     8
  9
$DIMALTTD
 70
     4
  9
$DIMTXSTY
  7
STANDARD
  9
$DIMAUNIT
 70
     0
  9
$LUNITS
 70
     2
  9
$LUPREC
 70
     3
  9
$SKETCHINC
 40
1.0
  9
$FILLETRAD
 40
2.0
  9
$AUNITS
 70
     0
  9
$AUPREC
 70
     2
  9
$MENU
  1
.
  9
$ELEVATION
 40
0.0
  9
$PELEVATION
 40
0.0
  9
$THICKNESS
 40
0.0
  9
$LIMCHECK
 70
     0
  9
$BLIPMODE
 70
     0
  9
$CHAMFERA
 40
0.0
  9
$CHAMFERB
 40
0.0
  9
$CHAMFERC
 40
20.0
  9
$CHAMFERD
 40
0.0
  9
$SKPOLY
 70
     0
  9
$TDCREATE
 40
2454412.678472581
  9
$TDUPDATE
 40
2454424.600518842
  9
$TDINDWG
 40
0.0117236343
  9
$TDUSRTIMER
 40
0.0117236343
  9
$USRTIMER
 70
     1
  9
$ANGBASE
 50
0.0
  9
$ANGDIR
 70
     0
  9
$PDMODE
 70
     0
  9
$PDSIZE
 40
-10.0
  9
$PLINEWID
 40
0.0
  9
$COORDS
 70
     0
  9
$SPLFRAME
 70
     0
  9
$SPLINETYPE
 70
     6
  9
$SPLINESEGS
 70
     8
  9
$ATTDIA
 70
     0
  9
$ATTREQ
 70
     1
  9
$HANDLING
 70
-16383
  9
$HANDSEED
  5
1997
  9
$SURFTAB1
 70
     6
  9
$SURFTAB2
 70
     6
  9
$SURFTYPE
 70
     6
  9
$SURFU
 70
     6
  9
$SURFV
 70
     6
  9
$UCSNAME
  2

  9
$UCSORG
 10
0.0
 20
0.0
 30
0.0
  9
$UCSXDIR
 10
1.0
 20
0.0
 30
0.0
  9
$UCSYDIR
 10
0.0
 20
1.0
 30
0.0
  9
$PUCSNAME
  2

  9
$PUCSORG
 10
0.0
 20
0.0
 30
0.0
  9
$PUCSXDIR
 10
1.0
 20
0.0
 30
0.0
  9
$PUCSYDIR
 10
0.0
 20
1.0
 30
0.0
  9
$USERI1
 70
     0
  9
$USERI2
 70
     0
  9
$USERI3
 70
     0
  9
$USERI4
 70
     0
  9
$USERI5
 70
     0
  9
$USERR1
 40
0.0
  9
$USERR2
 40
0.0
  9
$USERR3
 40
0.0
  9
$USERR4
 40
0.0
  9
$USERR5
 40
0.0
  9
$WORLDVIEW
 70
     1
  9
$SHADEDGE
 70
     3
  9
$SHADEDIF
 70
    70
  9
$TILEMODE
 70
     1
  9
$MAXACTVP
 70
    48
  9
$PINSBASE
 10
0.0
 20
0.0
 30
0.0
  9
$PLIMCHECK
 70
     0
  9
$PEXTMIN
 10
0.0
 20
0.0
 30
0.0
  9
$PEXTMAX
 10
0.0
 20
0.0
 30
0.0
  9
$PLIMMIN
 10
0.0
 20
0.0
  9
$PLIMMAX
 10
12.0
 20
9.0
  9
$UNITMODE
 70
     0
  9
$VISRETAIN
 70
     1
  9
$PLINEGEN
 70
     0
  9
$PSLTSCALE
 70
     1
  9
$TREEDEPTH
 70
  3020
  9
$PICKSTYLE
 70
     1
  9
$CMLSTYLE
  2
STANDARD
  9
$CMLJUST
 70
     0
  9
$CMLSCALE
 40
1.0
  9
$PROXYGRAPHICS
 70
     1
  9
$MEASUREMENT
 70
     0
  0
ENDSEC
  0
SECTION
  2
CLASSES
  0
CLASS
  1
DICTIONARYVAR
  2
AcDbDictionaryVar
  3
AutoCAD 2000
 90
        0
280
     0
281
     0
  0
CLASS
  1
ACDBDICTIONARYWDFLT
  2
AcDbDictionaryWithDefault
  3
AutoCAD 2000
 90
        0
280
     0
281
     0
  0
CLASS
  1
ACDBPLACEHOLDER
  2
AcDbPlaceHolder
  3
AutoCAD 2000
 90
        0
280
     0
281
     0
  0
CLASS
  1
LAYOUT
  2
AcDbLayout
  3
AutoCAD 2000
 90
        0
280
     0
281
     0
  0
CLASS
  1
MATERIAL
  2
AcDbMaterial
  3
ObjectDBX Classes
 90
     1153
280
     0
281
     0
  0
CLASS
  1
VISUALSTYLE
  2
AcDbVisualStyle
  3
ObjectDBX Classes
 90
     4095
280
     0
281
     0
  0
CLASS
  1
TABLESTYLE
  2
AcDbTableStyle
  3
ObjectDBX Classes
 90
     4095
280
     0
281
     0
  0
CLASS
  1
SCALE
  2
AcDbScale
  3
ObjectDBX Classes
 90
     1153
280
     0
281
     0
  0
CLASS
  1
MLEADERSTYLE
  2
AcDbMLeaderStyle
  3
ACDB_MLEADERSTYLE_CLASS
 90
     4095
280
     0
281
     0
  0
CLASS
  1
CELLSTYLEMAP
  2
AcDbCellStyleMap
  3
ObjectDBX Classes
 90
     1152
280
     0
281
     0
  0
CLASS
  1
ACAD_PROXY_OBJECT_WRAPPER
  2
AcDbProxyObjectWrapper
  3
AutoCAD 2000
 90
        0
280
     0
281
     0
  0
CLASS
  1
LONG_TRANSACTION
  2
AcDbLongTransaction
  3
AutoCAD 2000
 90
        0
280
     0
281
     0
  0
CLASS
  1
LWPOLYLINE
  2
AcDbPolyline
  3
AutoCAD 2000
 90
        0
280
     0
281
     1
  0
CLASS
  1
HATCH
  2
AcDbHatch
  3
AutoCAD 2000
 90
        0
280
     0
281
     1
  0
CLASS
  1
XRECORD
  2
AcDbXrecord
  3
AutoCAD 2000
 90
        0
280
     0
281
     0
  0
ENDSEC
  0
SECTION
  2
TABLES
  0
TABLE
  2
VPORT
  5
6E
102
{ACAD_XDICTIONARY
360
1931
102
}
330
0
100
AcDbSymbolTable
 70
     2
  0
VPORT
  5
1971
330
6E
100
AcDbSymbolTableRecord
100
AcDbViewportTableRecord
  2
*ACTIVE
 70
     0
 10
0.0
 20
0.0
 11
1.0
 21
1.0
 12
620.041412426859
 22
402.2173534112448
 13
0.0
 23
0.0
 14
10.0
 24
10.0
 15
10.0
 25
10.0
 16
0.0
 26
0.0
 36
1.0
 17
0.0
 27
0.0
 37
0.0
 40
681.1061838427001
 41
1.753504672897196
 42
50.0
 43
0.0
 44
0.0
 50
0.0
 51
0.0
 71
     0
 72
   100
 73
     1
 74
     3
 75
     0
 76
     0
 77
     0
 78
     0
  0
ENDTAB
  0
TABLE
  2
LTYPE
  5
69
330
0
100
AcDbSymbolTable
 70
     6
  0
LTYPE
  5
6A
330
69
100
AcDbSymbolTableRecord
100
AcDbLinetypeTableRecord
  2
BYBLOCK
 70
     0
  3

 72
    65
 73
     0
 40
0.0
  0
LTYPE
  5
6B
330
69
100
AcDbSymbolTableRecord
100
AcDbLinetypeTableRecord
  2
BYLAYER
 70
     0
  3

 72
    65
 73
     0
 40
0.0
  0
LTYPE
  5
8
330
69
100
AcDbSymbolTableRecord
100
AcDbLinetypeTableRecord
  2
CONTINUOUS
 70
     0
  3
Solid line
 72
    65
 73
     0
 40
0.0
  0
LTYPE
  5
27C
330
69
100
AcDbSymbolTableRecord
100
AcDbLinetypeTableRecord
  2
SEKKEI_A2_
 70
     0
  3
center(A2)  ____ _ ____ _ ____ _ ____ _ ____ _ 
 72
    65
 73
     4
 40
14.28749999999999
 49
9.525
 74
     0
 49
-1.587499999999999
 74
     0
 49
1.587499999999999
 74
     0
 49
-1.587499999999999
 74
     0
  0
LTYPE
  5
7EF
330
69
100
AcDbSymbolTableRecord
100
AcDbLinetypeTableRecord
  2
PHANTOM3
 70
     0
  3
Phantom  ___ _ _ ___ _ _ ___ _ _ ___ _ _
 72
    65
 73
     6
 40
9.0
 49
4.0
 74
     0
 49
-1.0
 74
     0
 49
1.0
 74
     0
 49
-1.0
 74
     0
 49
1.0
 74
     0
 49
-1.0
 74
     0
  0
LTYPE
  5
7F0
330
69
100
AcDbSymbolTableRecord
100
AcDbLinetypeTableRecord
  2
HIDDEN3
 70
     0
  3
Hidden (.3x) _ _ _ _ _ _ _ _ _ _ _ _ _ _ _ _ _
 72
    65
 73
     2
 40
2.857499999999999
 49
1.905
 74
     0
 49
-0.9525
 74
     0
  0
LTYPE
  5
B20
330
69
100
AcDbSymbolTableRecord
100
AcDbLinetypeTableRecord
  2
CENS
 70
     0
  3
(一点鎖線１)---- - ---- - ---- - ---- - ---- - 
 72
    65
 73
     4
 40
7.0
 49
4.0
 74
     0
 49
-1.0
 74
     0
 49
1.0
 74
     0
 49
-1.0
 74
     0
  0
ENDTAB
  0
TABLE
  2
LAYER
  5
66
102
{ACAD_XDICTIONARY
360
B21
102
}
330
0
100
AcDbSymbolTable
 70
    10
  0
LAYER
  5
5E
102
{ACAD_XDICTIONARY
360
1914
102
}
330
66
100
AcDbSymbolTableRecord
100
AcDbLayerTableRecord
  2
0
 70
     0
 62
     7
  6
CONTINUOUS
  0
LAYER
  5
3E
102
{ACAD_XDICTIONARY
360
1916
102
}
330
66
100
AcDbSymbolTableRecord
100
AcDbLayerTableRecord
  2
CENTER
 70
     0
 62
     3
  6
SEKKEI_A2_
  0
LAYER
  5
2B5
102
{ACAD_XDICTIONARY
360
191C
102
}
330
66
100
AcDbSymbolTableRecord
100
AcDbLayerTableRecord
  2
HIDS
 70
     0
 62
     1
  6
HIDDEN3
  0
LAYER
  5
2BA
102
{ACAD_XDICTIONARY
360
191E
102
}
330
66
100
AcDbSymbolTableRecord
100
AcDbLayerTableRecord
  2
HOJO
 70
     0
 62
     4
  6
CONTINUOUS
  0
LAYER
  5
3FA
102
{ACAD_XDICTIONARY
360
1922
102
}
330
66
100
AcDbSymbolTableRecord
100
AcDbLayerTableRecord
  2
TITLE
 70
     0
 62
     4
  6
CONTINUOUS
  0
LAYER
  5
478
102
{ACAD_XDICTIONARY
360
1924
102
}
330
66
100
AcDbSymbolTableRecord
100
AcDbLayerTableRecord
  2
PHAS
 70
     0
 62
     2
  6
PHANTOM3
  0
ENDTAB
  0
TABLE
  2
STYLE
  5
67
330
0
100
AcDbSymbolTable
 70
     2
  0
STYLE
  5
16
330
67
100
AcDbSymbolTableRecord
100
AcDbTextStyleTableRecord
  2
STANDARD
 70
     0
 40
0.0
 41
1.0
 50
0.0
 71
     0
 42
2.0
  3
simplex.shx
  4
extfont.shx
  0
ENDTAB
  0
TABLE
  2
VIEW
  5
6C
330
0
100
AcDbSymbolTable
 70
     0
  0
ENDTAB
  0
TABLE
  2
UCS
  5
6D
330
0
100
AcDbSymbolTable
 70
     0
  0
ENDTAB
  0
TABLE
  2
APPID
  5
70
330
0
100
AcDbSymbolTable
 70
     3
  0
APPID
  5
71
330
70
100
AcDbSymbolTableRecord
100
AcDbRegAppTableRecord
  2
ACAD
 70
     0
  0
APPID
  5
1896
330
70
100
AcDbSymbolTableRecord
100
AcDbRegAppTableRecord
  2
ACAD_MLEADERVER
 70
     0
  0
APPID
  5
1913
330
70
100
AcDbSymbolTableRecord
100
AcDbRegAppTableRecord
  2
ACAD_DSTYLE_DIMRADIAL_EXTENSION
 70
     0
  0
ENDTAB
  0
TABLE
  2
DIMSTYLE
  5
72
330
0
100
AcDbSymbolTable
 70
     1
  0
DIMSTYLE
105
73
330
72
100
AcDbSymbolTableRecord
100
AcDbDimStyleTableRecord
  2
STANDARD
 70
     0
  3

  4

  5

  6

  7

 40
3.0
 41
1.8
 42
0.625
 43
3.75
 44
0.8
 45
0.0
 46
0.0
 47
0.0
 48
0.0
140
1.8
141
2.5
142
0.0
143
0.0394
144
1.0
145
0.0
146
1.0
147
0.75
 71
     0
 72
     0
 73
     0
 74
     0
 75
     0
 76
     0
 77
     1
 78
     8
170
     0
171
     4
172
     1
173
     0
174
     0
175
     0
176
     0
177
     0
178
     0
270
     8
271
     2
272
     2
273
     8
274
     4
340
16
275
     0
280
     0
281
     0
282
     0
283
     1
284
     0
285
     0
286
     0
287
     3
288
     0
  0
ENDTAB
  0
TABLE
  2
BLOCK_RECORD
  5
1
330
0
100
AcDbSymbolTable
 70
    56
  0
BLOCK_RECORD
  5
2
102
{ACAD_XDICTIONARY
360
1993
102
}
330
1
100
AcDbSymbolTableRecord
100
AcDbBlockTableRecord
  2
*MODEL_SPACE
  0
BLOCK_RECORD
  5
196C
102
{ACAD_XDICTIONARY
360
1995
102
}
330
1
100
AcDbSymbolTableRecord
100
AcDbBlockTableRecord
  2
*PAPER_SPACE
  0
ENDTAB
  0
ENDSEC
  0
SECTION
  2
BLOCKS
  0
BLOCK
  5
5D
330
2
100
AcDbEntity
  8
0
100
AcDbBlockBegin
  2
*MODEL_SPACE
 70
     0
 10
0.0
 20
0.0
 30
0.0
  3
*MODEL_SPACE
  1

  0
ENDBLK
  5
5F
330
2
100
AcDbEntity
  8
0
100
AcDbBlockEnd
  0
BLOCK
  5
196E
330
196C
100
AcDbEntity
 67
     1
  8
0
100
AcDbBlockBegin
  2
*PAPER_SPACE
 70
     0
 10
0.0
 20
0.0
 30
0.0
  3
*PAPER_SPACE
  1

  0
ENDBLK
  5
196F
330
196C
100
AcDbEntity
 67
     1
  8
0
100
AcDbBlockEnd
  0
ENDSEC
  0
SECTION
  2
ENTITIES
  0
TEXT
  5
FDD
330
2
100
AcDbEntity
  8
TITLE
100
AcDbText
 10
343.2172433763513
 20
675.7198068096466
 30
0.0
 40
7.5
  1
AFCZ22S-10~30M400S1
100
AcDbText
  0
TEXT
  5
FDE
330
2
100
AcDbEntity
  8
TITLE
100
AcDbText
 10
343.2172433763513
 20
664.2198068096466
 30
0.0
 40
7.5
  1
AFCZ22S-10~30L400S1
100
AcDbText
  0
LINE
  5
FE0
330
2
100
AcDbEntity
  8
CENTER
100
AcDbLine
 10
276.9853792476045
 20
405.0170999324532
 30
0.0
 11
39.19537924760277
 21
405.0170999324532
 31
0.0
  0
LINE
  5
FE1
330
2
100
AcDbEntity
  8
CENTER
100
AcDbLine
 10
215.9853792476045
 20
344.0170999324532
 30
0.0
 11
215.9853792476045
 21
466.0170999324533
 31
0.0
  0
LINE
  5
FE2
330
2
100
AcDbEntity
  8
CENTER
100
AcDbLine
 10
630.7214453894365
 20
594.1261126515232
 30
0.0
 11
630.7214453894365
 21
740.1260056515233
 31
0.0
  0
LINE
  5
FE3
330
2
100
AcDbEntity
  8
CENTER
100
AcDbLine
 10
630.7214453894374
 20
475.0170999324523
 30
0.0
 11
630.7214453894374
 21
335.0170999324523
 31
0.0
  0
LINE
  5
FE4
330
2
100
AcDbEntity
  8
CENTER
100
AcDbLine
 10
684.3280471072374
 20
458.6237016502519
 30
0.0
 11
577.1148436716392
 21
351.4104982146546
 31
0.0
  0
LINE
  5
FE5
330
2
100
AcDbEntity
  8
CENTER
100
AcDbLine
 10
577.1148436716384
 20
458.6237016502498
 30
0.0
 11
684.3280471072347
 21
351.410498214655
 31
0.0
  0
CIRCLE
  5
FE6
330
2
100
AcDbEntity
  8
CENTER
100
AcDbCircle
 10
630.7214453894365
 20
405.0170999324524
 30
0.0
 40
60.0
  0
LINE
  5
FE7
330
2
100
AcDbEntity
  8
CENTER
100
AcDbLine
 10
560.7214453894365
 20
405.0170999324524
 30
0.0
 11
807.5114453911618
 21
405.0170999324524
 31
0.0
  0
CIRCLE
  5
FE8
330
2
100
AcDbEntity
  8
HOJO
100
AcDbCircle
 10
588.2950385182438
 20
362.5906930612596
 30
0.0
 40
4.0
  0
CIRCLE
  5
FE9
330
2
100
AcDbEntity
  8
HOJO
100
AcDbCircle
 10
673.1478522606302
 20
362.5906930612596
 30
0.0
 40
4.0
  0
LINE
  5
FEA
330
2
100
AcDbEntity
  8
CENTER
100
AcDbLine
 10
569.9657976875776
 20
674.1261126515251
 30
0.0
 11
807.5114453911609
 21
674.1261126515251
 31
0.0
  0
CIRCLE
  5
FEB
330
2
100
AcDbEntity
  8
HOJO
100
AcDbCircle
 10
588.2950385182438
 20
447.443506803645
 30
0.0
 40
4.0
  0
CIRCLE
  5
FEC
330
2
100
AcDbEntity
  8
HOJO
100
AcDbCircle
 10
673.1478522606302
 20
447.443506803645
 30
0.0
 40
4.0
  0
LINE
  5
FED
330
2
100
AcDbEntity
  8
CENTER
100
AcDbLine
 10
596.2950385182438
 20
447.443506803645
 30
0.0
 11
580.2950385182437
 21
447.443506803645
 31
0.0
  0
LINE
  5
FEE
330
2
100
AcDbEntity
  8
CENTER
100
AcDbLine
 10
588.2950385182438
 20
439.443506803645
 30
0.0
 11
588.2950385182438
 21
455.443506803645
 31
0.0
  0
LINE
  5
FEF
330
2
100
AcDbEntity
  8
CENTER
100
AcDbLine
 10
596.2950385182438
 20
362.5906930612614
 30
0.0
 11
580.2950385182437
 21
362.5906930612614
 31
0.0
  0
LINE
  5
FF0
330
2
100
AcDbEntity
  8
CENTER
100
AcDbLine
 10
588.2950385182438
 20
370.5906930612614
 30
0.0
 11
588.2950385182438
 21
354.5906930612614
 31
0.0
  0
LINE
  5
FF1
330
2
100
AcDbEntity
  8
CENTER
100
AcDbLine
 10
673.1478522606283
 20
370.5906930612614
 30
0.0
 11
673.1478522606283
 21
354.5906930612614
 31
0.0
  0
LINE
  5
FF2
330
2
100
AcDbEntity
  8
CENTER
100
AcDbLine
 10
665.1478522606283
 20
362.5906930612596
 30
0.0
 11
681.1478522606283
 21
362.5906930612596
 31
0.0
  0
LINE
  5
FF3
330
2
100
AcDbEntity
  8
CENTER
100
AcDbLine
 10
665.1478522606283
 20
447.443506803645
 30
0.0
 11
681.1478522606283
 21
447.443506803645
 31
0.0
  0
LINE
  5
FF4
330
2
100
AcDbEntity
  8
CENTER
100
AcDbLine
 10
673.1478522606283
 20
439.443506803645
 30
0.0
 11
673.1478522606283
 21
455.443506803645
 31
0.0
  0
LINE
  5
FF5
330
2
100
AcDbEntity
  8
0
100
AcDbLine
 10
580.2974186636046
 20
636.1261126540698
 30
0.0
 11
681.1411086813749
 21
636.1261126540698
 31
0.0
  0
LINE
  5
FF6
330
2
100
AcDbEntity
  8
0
100
AcDbLine
 10
585.7214453894365
 20
631.1261126540698
 30
0.0
 11
675.7214453894365
 21
631.1261126540771
 31
0.0
  0
LINE
  5
FF7
330
2
100
AcDbEntity
  8
0
100
AcDbLine
 10
580.2974186636046
 20
636.1261126540698
 30
0.0
 11
579.7214453894365
 21
702.126112651525
 31
0.0
  0
LINE
  5
FF8
330
2
100
AcDbEntity
  8
0
100
AcDbLine
 10
585.7214453894365
 20
636.1261126540698
 30
0.0
 11
585.7214453894365
 21
631.1261126540698
 31
0.0
  0
LINE
  5
FF9
330
2
100
AcDbEntity
  8
0
100
AcDbLine
 10
754.5114453911609
 20
710.126112651525
 30
0.0
 11
754.5114453911609
 21
638.1261126515251
 31
0.0
  0
LINE
  5
FFA
330
2
100
AcDbEntity
  8
0
100
AcDbLine
 10
716.6690080259424
 20
638.1261126540699
 30
0.0
 11
682.645529232849
 21
638.1261126540699
 31
0.0
  0
LINE
  5
FFB
330
2
100
AcDbEntity
  8
0
100
AcDbLine
 10
675.7214453894365
 20
636.1261126540698
 30
0.0
 11
675.7214453894365
 21
631.1261126540698
 31
0.0
  0
LINE
  5
FFD
330
2
100
AcDbEntity
  8
0
100
AcDbLine
 10
744.4597591330038
 20
638.1261126515251
 30
0.0
 11
754.5114453911609
 21
638.1261126515251
 31
0.0
  0
LINE
  5
FFE
330
2
100
AcDbEntity
  8
0
100
AcDbLine
 10
744.4597591330038
 20
710.126112651525
 30
0.0
 11
754.5114453911609
 21
710.126112651525
 31
0.0
  0
LINE
  5
FFF
330
2
100
AcDbEntity
  8
0
100
AcDbLine
 10
754.5114453911609
 20
710.126112651525
 30
0.0
 11
754.5114453911609
 21
638.1261126515251
 31
0.0
  0
ARC
  5
1000
330
2
100
AcDbEntity
  8
0
100
AcDbCircle
 10
521.09624106745
 20
431.7192288627753
 30
0.0
 40
60.0
100
AcDbArc
 50
354.1053016136503
 51
11.80506781044158
  0
LINE
  5
1001
330
2
100
AcDbEntity
  8
0
100
AcDbLine
 10
742.5114453894365
 20
439.5170999324523
 30
0.0
 11
742.5114453894365
 21
370.5170999324523
 31
0.0
  0
LINE
  5
1002
330
2
100
AcDbEntity
  8
0
100
AcDbLine
 10
754.5114453894365
 20
441.5170999324523
 30
0.0
 11
754.5114453894365
 21
368.5170999324523
 31
0.0
  0
LINE
  5
1003
330
2
100
AcDbEntity
  8
0
100
AcDbLine
 10
718.7214453894365
 20
375.0170999324523
 30
0.0
 11
718.7214453894365
 21
435.0170999324523
 31
0.0
  0
LINE
  5
1004
330
2
100
AcDbEntity
  8
0
100
AcDbLine
 10
681.721445389441
 20
448.0170999324506
 30
0.0
 11
681.7214453894356
 21
362.0170999324505
 31
0.0
  0
CIRCLE
  5
1005
330
2
100
AcDbEntity
  8
0
100
AcDbCircle
 10
630.7214453894374
 20
405.0170999324524
 30
0.0
 40
34.0
  0
CIRCLE
  5
1006
330
2
100
AcDbEntity
  8
0
100
AcDbCircle
 10
630.7214453894374
 20
405.0170999324524
 30
0.0
 40
45.0
  0
CIRCLE
  5
1007
330
2
100
AcDbEntity
  8
0
100
AcDbCircle
 10
630.7214453894374
 20
405.0170999324524
 30
0.0
 40
26.0
  0
LINE
  5
1008
330
2
100
AcDbEntity
  8
0
100
AcDbLine
 10
712.7214453894366
 20
369.0170999324523
 30
0.0
 11
687.7214453894356
 21
369.0170999324523
 31
0.0
  0
ARC
  5
1009
330
2
100
AcDbEntity
  8
0
100
AcDbCircle
 10
630.7214453894347
 20
554.0170999324504
 30
0.0
 40
200.0
100
AcDbArc
 50
264.1053016135962
 51
275.8946983863775
  0
ARC
  5
100A
330
2
100
AcDbEntity
  8
0
100
AcDbCircle
 10
521.09624106745
 20
378.3149710021258
 30
0.0
 40
60.0
100
AcDbArc
 50
348.1949321895584
 51
5.894698386349728
  0
ARC
  5
100B
330
2
100
AcDbEntity
  8
0
100
AcDbCircle
 10
604.019316459109
 20
295.3918956104658
 30
0.0
 40
60.0
100
AcDbArc
 50
84.10530161362244
 51
101.8050678104549
  0
ARC
  5
100C
330
2
100
AcDbEntity
  8
0
100
AcDbCircle
 10
587.7214453894374
 20
362.0170999324523
 30
0.0
 40
8.0
100
AcDbArc
 50
180.0
 51
270.0
  0
LINE
  5
100D
330
2
100
AcDbEntity
  8
0
100
AcDbLine
 10
587.7214453894374
 20
354.0170999324523
 30
0.0
 11
590.7214453894347
 21
354.0170999324523
 31
0.0
  0
ARC
  5
100E
330
2
100
AcDbEntity
  8
0
100
AcDbCircle
 10
590.7214453894347
 20
359.0170999324505
 30
0.0
 40
5.0
100
AcDbArc
 50
269.9999999999739
 51
281.8050678104548
  0
ARC
  5
100F
330
2
100
AcDbEntity
  8
0
100
AcDbCircle
 10
584.7214453894347
 20
365.0170999324505
 30
0.0
 40
5.0
100
AcDbArc
 50
168.1949321895584
 51
180.0
  0
LINE
  5
1010
330
2
100
AcDbEntity
  8
0
100
AcDbLine
 10
579.7214453894374
 20
365.0170999324505
 30
0.0
 11
579.7214453894374
 21
362.0170999324523
 31
0.0
  0
CIRCLE
  5
1011
330
2
100
AcDbEntity
  8
0
100
AcDbCircle
 10
588.2950385182438
 20
362.5906930612578
 30
0.0
 40
3.2
  0
ARC
  5
1012
330
2
100
AcDbEntity
  8
0
100
AcDbCircle
 10
779.7214453894347
 20
405.0170999324505
 30
0.0
 40
200.0
100
AcDbArc
 50
174.1053016136502
 51
185.8946983863497
  0
ARC
  5
1013
330
2
100
AcDbEntity
  8
0
100
AcDbCircle
 10
657.4235743197594
 20
295.3918956104658
 30
0.0
 40
60.0
100
AcDbArc
 50
78.19493218954509
 51
95.89469838637755
  0
ARC
  5
1014
330
2
100
AcDbEntity
  8
0
100
AcDbCircle
 10
673.7214453894356
 20
362.0170999324523
 30
0.0
 40
8.0
100
AcDbArc
 50
270.0
 51
0.0
  0
ARC
  5
1015
330
2
100
AcDbEntity
  8
0
100
AcDbCircle
 10
670.7214453894347
 20
359.0170999324505
 30
0.0
 40
5.0
100
AcDbArc
 50
258.1949321895451
 51
270.0
  0
LINE
  5
1016
330
2
100
AcDbEntity
  8
0
100
AcDbLine
 10
670.7214453894347
 20
354.0170999324523
 30
0.0
 11
673.7214453894356
 21
354.0170999324523
 31
0.0
  0
CIRCLE
  5
1017
330
2
100
AcDbEntity
  8
0
100
AcDbCircle
 10
673.1478522606302
 20
362.5906930612578
 30
0.0
 40
3.2
  0
ARC
  5
1018
330
2
100
AcDbEntity
  8
0
100
AcDbCircle
 10
712.7214453894366
 20
375.0170999324523
 30
0.0
 40
6.0
100
AcDbArc
 50
270.0
 51
0.0
  0
ARC
  5
1019
330
2
100
AcDbEntity
  8
0
100
AcDbCircle
 10
744.5114453894364
 20
371.0170999324523
 30
0.0
 40
2.0
100
AcDbArc
 50
180.0
 51
270.0
  0
LINE
  5
101A
330
2
100
AcDbEntity
  8
0
100
AcDbLine
 10
712.7214453894366
 20
441.0170999324523
 30
0.0
 11
687.7214453894402
 21
441.0170999324523
 31
0.0
  0
ARC
  5
101B
330
2
100
AcDbEntity
  8
0
100
AcDbCircle
 10
630.7214453894347
 20
256.0170999324505
 30
0.0
 40
200.0
100
AcDbArc
 50
84.10530161362244
 51
95.89469838637755
  0
ARC
  5
101C
330
2
100
AcDbEntity
  8
0
100
AcDbCircle
 10
604.01931645911
 20
514.6423042544352
 30
0.0
 40
60.0
100
AcDbArc
 50
258.1949321895451
 51
275.8946983863775
  0
ARC
  5
101D
330
2
100
AcDbEntity
  8
0
100
AcDbCircle
 10
587.7214453894374
 20
448.0170999324523
 30
0.0
 40
8.0
100
AcDbArc
 50
90.0
 51
180.0
  0
CIRCLE
  5
101E
330
2
100
AcDbEntity
  8
0
100
AcDbCircle
 10
588.2950385182438
 20
447.4435068036433
 30
0.0
 40
3.2
  0
ARC
  5
101F
330
2
100
AcDbEntity
  8
0
100
AcDbCircle
 10
584.7214453894347
 20
445.0170999324505
 30
0.0
 40
5.0
100
AcDbArc
 50
180.0
 51
191.8050678104416
  0
LINE
  5
1020
330
2
100
AcDbEntity
  8
0
100
AcDbLine
 10
579.7214453894374
 20
448.0170999324523
 30
0.0
 11
579.7214453894374
 21
445.0170999324505
 31
0.0
  0
LINE
  5
1021
330
2
100
AcDbEntity
  8
0
100
AcDbLine
 10
587.7214453894374
 20
456.0170999324523
 30
0.0
 11
590.7214453894347
 21
456.0170999324523
 31
0.0
  0
ARC
  5
1022
330
2
100
AcDbEntity
  8
0
100
AcDbCircle
 10
590.7214453894347
 20
451.0170999324505
 30
0.0
 40
5.0
100
AcDbArc
 50
78.19493218954509
 51
90.0
  0
ARC
  5
1023
330
2
100
AcDbEntity
  8
0
100
AcDbCircle
 10
657.4235743197604
 20
514.6423042544333
 30
0.0
 40
60.0
100
AcDbArc
 50
264.1053016135962
 51
281.8050678104548
  0
ARC
  5
1024
330
2
100
AcDbEntity
  8
0
100
AcDbCircle
 10
673.721445389441
 20
448.0170999324523
 30
0.0
 40
8.0
100
AcDbArc
 50
0.0
 51
90.0
  0
CIRCLE
  5
1025
330
2
100
AcDbEntity
  8
0
100
AcDbCircle
 10
673.1478522606302
 20
447.4435068036433
 30
0.0
 40
3.2
  0
ARC
  5
1026
330
2
100
AcDbEntity
  8
0
100
AcDbCircle
 10
670.7214453894347
 20
451.0170999324487
 30
0.0
 40
5.0
100
AcDbArc
 50
89.99999999997395
 51
101.8050678104549
  0
LINE
  5
1027
330
2
100
AcDbEntity
  8
0
100
AcDbLine
 10
670.7214453894347
 20
456.0170999324523
 30
0.0
 11
673.7214453894401
 21
456.0170999324523
 31
0.0
  0
ARC
  5
1028
330
2
100
AcDbEntity
  8
0
100
AcDbCircle
 10
712.7214453894366
 20
435.0170999324523
 30
0.0
 40
6.0
100
AcDbArc
 50
0.0
 51
90.0
  0
ARC
  5
1029
330
2
100
AcDbEntity
  8
0
100
AcDbCircle
 10
744.5114453894364
 20
439.0170999324523
 30
0.0
 40
2.0
100
AcDbArc
 50
90.0
 51
180.0
  0
LINE
  5
102A
330
2
100
AcDbEntity
  8
0
100
AcDbLine
 10
754.5114453894365
 20
441.0170999324523
 30
0.0
 11
744.5114453894364
 21
441.0170999324523
 31
0.0
  0
LINE
  5
102B
330
2
100
AcDbEntity
  8
0
100
AcDbLine
 10
744.5114453894364
 20
369.0170999324523
 30
0.0
 11
754.5114453894365
 21
369.0170999324523
 31
0.0
  0
LINE
  5
102C
330
2
100
AcDbEntity
  8
0
100
AcDbLine
 10
104.1953792476027
 20
370.5170999324532
 30
0.0
 11
104.1953792476027
 21
439.5170999324532
 31
0.0
  0
LINE
  5
102D
330
2
100
AcDbEntity
  8
0
100
AcDbLine
 10
92.19537924760278
 20
368.5170999324532
 30
0.0
 11
92.19537924760278
 21
441.5170999324533
 31
0.0
  0
LINE
  5
102E
330
2
100
AcDbEntity
  8
0
100
AcDbLine
 10
102.1953792476032
 20
441.0170999324533
 30
0.0
 11
92.19537924760278
 21
441.0170999324533
 31
0.0
  0
ARC
  5
102F
330
2
100
AcDbEntity
  8
0
100
AcDbCircle
 10
102.1953792476032
 20
439.0170999324532
 30
0.0
 40
2.0
100
AcDbArc
 50
0.0
 51
90.0
  0
LINE
  5
1030
330
2
100
AcDbEntity
  8
0
100
AcDbLine
 10
102.1953792476027
 20
369.0170999324532
 30
0.0
 11
92.19537924760278
 21
369.0170999324532
 31
0.0
  0
ARC
  5
1031
330
2
100
AcDbEntity
  8
0
100
AcDbCircle
 10
102.1953792476027
 20
371.0170999324532
 30
0.0
 40
2.0
100
AcDbArc
 50
270.0
 51
0.0
  0
ARC
  5
1032
330
2
100
AcDbEntity
  8
0
100
AcDbCircle
 10
687.7214453894402
 20
447.0170999324523
 30
0.0
 40
6.0
100
AcDbArc
 50
180.0
 51
270.0
  0
ARC
  5
1033
330
2
100
AcDbEntity
  8
0
100
AcDbCircle
 10
687.7214453894356
 20
363.0170999324523
 30
0.0
 40
6.0
100
AcDbArc
 50
90.0
 51
180.0
  0
LINE
  5
1034
330
2
100
AcDbEntity
  8
0
100
AcDbLine
 10
662.7900678398235
 20
617.1261126515251
 30
0.0
 11
598.6528229390495
 21
617.1261126515251
 31
0.0
  0
LINE
  5
1035
330
2
100
AcDbEntity
  8
0
100
AcDbLine
 10
596.2999587209759
 20
629.1959116449284
 30
0.0
 11
596.6540412850116
 21
619.0563136581199
 31
0.0
  0
LINE
  5
1036
330
2
100
AcDbEntity
  8
0
100
AcDbLine
 10
665.1429320578971
 20
629.1959116449284
 30
0.0
 11
664.7888494938614
 21
619.0563136581199
 31
0.0
  0
ARC
  5
1037
330
2
100
AcDbEntity
  8
0
100
AcDbCircle
 10
662.7900678398235
 20
619.126112651525
 30
0.0
 40
2.0
100
AcDbArc
 50
270.0
 51
357.9999999999963
  0
ARC
  5
1038
330
2
100
AcDbEntity
  8
0
100
AcDbCircle
 10
667.1417137119359
 20
629.1261126515251
 30
0.0
 40
2.0
100
AcDbArc
 50
90.0
 51
177.9999999999963
  0
ARC
  5
1039
330
2
100
AcDbEntity
  8
0
100
AcDbCircle
 10
598.6528229390495
 20
619.126112651525
 30
0.0
 40
2.0
100
AcDbArc
 50
182.0000000000036
 51
270.0
  0
ARC
  5
103A
330
2
100
AcDbEntity
  8
0
100
AcDbCircle
 10
594.3011770669371
 20
629.1261126515251
 30
0.0
 40
2.0
100
AcDbArc
 50
2.000000000003654
 51
90.0
  0
LINE
  5
103B
330
2
100
AcDbEntity
  8
0
100
AcDbLine
 10
113.6953792493262
 20
429.5170999324533
 30
0.0
 11
113.6953792493262
 21
380.5170999324514
 31
0.0
  0
ARC
  5
103C
330
2
100
AcDbEntity
  8
0
100
AcDbCircle
 10
125.9853792476045
 20
433.0170999324533
 30
0.0
 40
2.0
100
AcDbArc
 50
270.0
 51
0.0
  0
LINE
  5
103D
330
2
100
AcDbEntity
  8
0
100
AcDbLine
 10
109.1953792476027
 20
432.5170999324533
 30
0.0
 11
110.6953792493271
 21
432.5170999324533
 31
0.0
  0
LINE
  5
103E
330
2
100
AcDbEntity
  8
0
100
AcDbLine
 10
125.9853030910266
 20
431.0170999324532
 30
0.0
 11
114.2660934635981
 21
431.0170999324532
 31
0.0
  0
LINE
  5
103F
330
2
100
AcDbEntity
  8
0
100
AcDbLine
 10
122.9853792476045
 20
427.0170999324532
 30
0.0
 11
118.2947213261116
 21
427.0170999324532
 31
0.0
  0
ARC
  5
1040
330
2
100
AcDbEntity
  8
0
100
AcDbCircle
 10
114.2660934635981
 20
433.0170999324533
 30
0.0
 40
2.0
100
AcDbArc
 50
224.4270040008509
 51
270.0
  0
ARC
  5
1041
330
2
100
AcDbEntity
  8
0
100
AcDbCircle
 10
110.6953792493262
 20
429.5170999324533
 30
0.0
 40
3.0
100
AcDbArc
 50
0.0
 51
90.0
  0
ARC
  5
1042
330
2
100
AcDbEntity
  8
0
100
AcDbCircle
 10
109.1953792476027
 20
437.5170999324533
 30
0.0
 40
5.0
100
AcDbArc
 50
180.0
 51
270.0
  0
LINE
  5
1043
330
2
100
AcDbEntity
  8
0
100
AcDbLine
 10
124.9853792476054
 20
402.5170999324532
 30
0.0
 11
116.6953792493262
 21
402.5170999324532
 31
0.0
  0
ARC
  5
1044
330
2
100
AcDbEntity
  8
0
100
AcDbCircle
 10
125.9853792476045
 20
377.0170999324532
 30
0.0
 40
2.0
100
AcDbArc
 50
0.0
 51
90.0
  0
LINE
  5
1045
330
2
100
AcDbEntity
  8
0
100
AcDbLine
 10
109.1953792476027
 20
377.5170999324514
 30
0.0
 11
110.6953792493271
 21
377.5170999324514
 31
0.0
  0
ARC
  5
1046
330
2
100
AcDbEntity
  8
0
100
AcDbCircle
 10
110.6953792493262
 20
380.5170999324514
 30
0.0
 40
3.0
100
AcDbArc
 50
270.0
 51
0.0
  0
LINE
  5
1047
330
2
100
AcDbEntity
  8
0
100
AcDbLine
 10
122.9853792476045
 20
383.0170999324532
 30
0.0
 11
118.2947213261116
 21
383.0170999324532
 31
0.0
  0
LINE
  5
1048
330
2
100
AcDbEntity
  8
0
100
AcDbLine
 10
125.9853030910266
 20
379.0170999324532
 30
0.0
 11
114.2660934635981
 21
379.0170999324532
 31
0.0
  0
ARC
  5
1049
330
2
100
AcDbEntity
  8
0
100
AcDbCircle
 10
114.2660934635981
 20
377.0170999324532
 30
0.0
 40
2.0
100
AcDbArc
 50
90.0
 51
135.5729959991493
  0
ARC
  5
104A
330
2
100
AcDbEntity
  8
0
100
AcDbCircle
 10
109.1953792476027
 20
372.5170999324514
 30
0.0
 40
5.0
100
AcDbArc
 50
90.0
 51
180.0
  0
ARC
  5
104B
330
2
100
AcDbEntity
  8
0
100
AcDbCircle
 10
124.9853792476054
 20
399.5170999324532
 30
0.0
 40
3.0
100
AcDbArc
 50
0.0
 51
90.0
  0
ARC
  5
104C
330
2
100
AcDbEntity
  8
0
100
AcDbCircle
 10
116.6953792493262
 20
399.5170999324532
 30
0.0
 40
3.0
100
AcDbArc
 50
90.0
 51
180.0
  0
LINE
  5
104D
330
2
100
AcDbEntity
  8
0
100
AcDbLine
 10
124.9853792476054
 20
407.5170999324532
 30
0.0
 11
116.6953792493262
 21
407.5170999324532
 31
0.0
  0
ARC
  5
104E
330
2
100
AcDbEntity
  8
0
100
AcDbCircle
 10
124.9853792476054
 20
410.5170999324532
 30
0.0
 40
3.0
100
AcDbArc
 50
270.0
 51
0.0
  0
ARC
  5
104F
330
2
100
AcDbEntity
  8
0
100
AcDbCircle
 10
116.6953792493262
 20
410.5170999324532
 30
0.0
 40
3.0
100
AcDbArc
 50
180.0
 51
270.0
  0
ARC
  5
1050
330
2
100
AcDbEntity
  8
0
100
AcDbCircle
 10
721.7214453894357
 20
399.5170999324523
 30
0.0
 40
3.0
100
AcDbArc
 50
90.0
 51
180.0
  0
LINE
  5
1051
330
2
100
AcDbEntity
  8
0
100
AcDbLine
 10
721.7214453894357
 20
402.5170999324523
 30
0.0
 11
730.0114453877148
 21
402.5170999324523
 31
0.0
  0
ARC
  5
1052
330
2
100
AcDbEntity
  8
0
100
AcDbCircle
 10
730.0114453877148
 20
399.5170999324523
 30
0.0
 40
3.0
100
AcDbArc
 50
0.0
 51
90.0
  0
ARC
  5
1053
330
2
100
AcDbEntity
  8
0
100
AcDbCircle
 10
730.0114453877148
 20
410.5170999324523
 30
0.0
 40
3.0
100
AcDbArc
 50
270.0
 51
0.0
  0
LINE
  5
1054
330
2
100
AcDbEntity
  8
0
100
AcDbLine
 10
721.7214453894357
 20
407.5170999324523
 30
0.0
 11
730.0114453877148
 21
407.5170999324523
 31
0.0
  0
ARC
  5
1055
330
2
100
AcDbEntity
  8
0
100
AcDbCircle
 10
721.7214453894357
 20
410.5170999324523
 30
0.0
 40
3.0
100
AcDbArc
 50
180.0
 51
270.0
  0
LINE
  5
1056
330
2
100
AcDbEntity
  8
0
100
AcDbLine
 10
720.7215215460145
 20
431.0170999324523
 30
0.0
 11
732.4407311734429
 21
431.0170999324523
 31
0.0
  0
ARC
  5
1057
330
2
100
AcDbEntity
  8
0
100
AcDbCircle
 10
720.7214453894366
 20
433.0170999324523
 30
0.0
 40
2.0
100
AcDbArc
 50
180.0
 51
270.0
  0
ARC
  5
1058
330
2
100
AcDbEntity
  8
0
100
AcDbCircle
 10
732.4407311734429
 20
433.0170999324523
 30
0.0
 40
2.0
100
AcDbArc
 50
270.0
 51
315.572995999149
  0
ARC
  5
1059
330
2
100
AcDbEntity
  8
0
100
AcDbCircle
 10
736.0114453877148
 20
429.5170999324524
 30
0.0
 40
3.0
100
AcDbArc
 50
90.0
 51
180.0
  0
LINE
  5
105A
330
2
100
AcDbEntity
  8
0
100
AcDbLine
 10
733.0114453877148
 20
380.5170999324505
 30
0.0
 11
733.0114453877148
 21
429.5170999324524
 31
0.0
  0
ARC
  5
105B
330
2
100
AcDbEntity
  8
0
100
AcDbCircle
 10
737.5114453894383
 20
437.5170999324523
 30
0.0
 40
5.0
100
AcDbArc
 50
270.0
 51
0.0
  0
LINE
  5
105C
330
2
100
AcDbEntity
  8
0
100
AcDbLine
 10
737.5114453894383
 20
432.5170999324523
 30
0.0
 11
736.0114453877139
 21
432.5170999324523
 31
0.0
  0
ARC
  5
105D
330
2
100
AcDbEntity
  8
0
100
AcDbCircle
 10
736.0114453877148
 20
380.5170999324505
 30
0.0
 40
3.0
100
AcDbArc
 50
180.0
 51
270.0
  0
LINE
  5
105E
330
2
100
AcDbEntity
  8
0
100
AcDbLine
 10
720.7215215460145
 20
379.0170999324523
 30
0.0
 11
732.4407311734429
 21
379.0170999324523
 31
0.0
  0
ARC
  5
105F
330
2
100
AcDbEntity
  8
0
100
AcDbCircle
 10
732.4407311734429
 20
377.0170999324523
 30
0.0
 40
2.0
100
AcDbArc
 50
44.42700400085065
 51
90.0
  0
ARC
  5
1060
330
2
100
AcDbEntity
  8
0
100
AcDbCircle
 10
720.7214453894366
 20
377.0170999324523
 30
0.0
 40
2.0
100
AcDbArc
 50
90.0
 51
180.0
  0
LINE
  5
1061
330
2
100
AcDbEntity
  8
0
100
AcDbLine
 10
737.5114453894383
 20
377.5170999324505
 30
0.0
 11
736.0114453877139
 21
377.5170999324505
 31
0.0
  0
ARC
  5
1062
330
2
100
AcDbEntity
  8
0
100
AcDbCircle
 10
737.5114453894383
 20
372.5170999324505
 30
0.0
 40
5.0
100
AcDbArc
 50
0.0
 51
90.0
  0
LINE
  5
1063
330
2
100
AcDbEntity
  8
0
100
AcDbLine
 10
712.7345383519458
 20
702.126112651525
 30
0.0
 11
713.4422437018273
 21
675.0999357032173
 31
0.0
  0
LINE
  5
1064
330
2
100
AcDbEntity
  8
0
100
AcDbLine
 10
732.9349440290005
 20
698.7046434964481
 30
0.0
 11
732.2913325480093
 21
674.1261126515251
 31
0.0
  0
LINE
  5
1065
330
2
100
AcDbEntity
  8
0
100
AcDbLine
 10
742.4604444830528
 20
708.1784665481404
 30
0.0
 11
741.5687522146798
 21
674.1261126515251
 31
0.0
  0
LINE
  5
1066
330
2
100
AcDbEntity
  8
0
100
AcDbLine
 10
732.9349440290005
 20
649.5475818066002
 30
0.0
 11
732.2913325480093
 21
674.1261126515251
 31
0.0
  0
LINE
  5
1067
330
2
100
AcDbEntity
  8
0
100
AcDbLine
 10
742.4604444830528
 20
640.0737587549096
 30
0.0
 11
741.5687522146835
 21
674.1261126515251
 31
0.0
  0
ARC
  5
1068
330
2
100
AcDbEntity
  8
0
100
AcDbCircle
 10
735.933916003927
 20
649.6261126515232
 30
0.0
 40
3.0
100
AcDbArc
 50
181.4999999999897
 51
270.0
  0
ARC
  5
1069
330
2
100
AcDbEntity
  8
0
100
AcDbCircle
 10
732.3632017896542
 20
646.1261126515251
 30
0.0
 40
2.0
100
AcDbArc
 50
44.42700400085065
 51
90.0
  0
ARC
  5
106A
330
2
100
AcDbEntity
  8
0
100
AcDbCircle
 10
728.3345739271407
 20
647.126112651525
 30
0.0
 40
5.0
100
AcDbArc
 50
18.20995686428638
 51
90.0
  0
ARC
  5
106B
330
2
100
AcDbEntity
  8
0
100
AcDbCircle
 10
737.4180807032152
 20
641.6261126515232
 30
0.0
 40
5.0
100
AcDbArc
 50
1.499999999989693
 51
90.0
  0
ARC
  5
106C
330
2
100
AcDbEntity
  8
0
100
AcDbCircle
 10
744.4597591330038
 20
640.1261126515251
 30
0.0
 40
2.0
100
AcDbArc
 50
181.4999999999897
 51
270.0
  0
LINE
  5
106D
330
2
100
AcDbEntity
  8
0
100
AcDbLine
 10
735.933916003927
 20
701.626112651525
 30
0.0
 11
737.4180807032152
 21
701.626112651525
 31
0.0
  0
ARC
  5
106E
330
2
100
AcDbEntity
  8
0
100
AcDbCircle
 10
735.933916003927
 20
698.6261126515251
 30
0.0
 40
3.0
100
AcDbArc
 50
90.0
 51
178.5000000000102
  0
ARC
  5
106F
330
2
100
AcDbEntity
  8
0
100
AcDbCircle
 10
728.3345739271407
 20
701.126112651525
 30
0.0
 40
5.0
100
AcDbArc
 50
270.0
 51
341.7900431357136
  0
ARC
  5
1070
330
2
100
AcDbEntity
  8
0
100
AcDbCircle
 10
732.3632017896542
 20
702.126112651525
 30
0.0
 40
2.0
100
AcDbArc
 50
269.9999999999478
 51
315.572995999149
  0
ARC
  5
1071
330
2
100
AcDbEntity
  8
0
100
AcDbCircle
 10
737.4180807032152
 20
706.626112651525
 30
0.0
 40
5.0
100
AcDbArc
 50
270.0
 51
358.5000000000103
  0
ARC
  5
1072
330
2
100
AcDbEntity
  8
0
100
AcDbCircle
 10
714.4419010268028
 20
675.1261126515251
 30
0.0
 40
1.0
100
AcDbArc
 50
181.4999999999897
 51
270.0
  0
ARC
  5
1073
330
2
100
AcDbEntity
  8
0
100
AcDbCircle
 10
744.4597591330038
 20
708.1261126515251
 30
0.0
 40
2.0
100
AcDbArc
 50
90.0
 51
178.5000000000102
  0
LINE
  5
1074
330
2
100
AcDbEntity
  8
0
100
AcDbLine
 10
723.7214453892428
 20
652.126112651525
 30
0.0
 11
728.3345739271407
 21
652.126112651525
 31
0.0
  0
LINE
  5
1075
330
2
100
AcDbEntity
  8
0
100
AcDbLine
 10
720.7215215462091
 20
648.126112651525
 30
0.0
 11
732.3632017896542
 21
648.126112651525
 31
0.0
  0
LINE
  5
1076
330
2
100
AcDbEntity
  8
0
100
AcDbLine
 10
721.9179141498878
 20
671.626112651525
 30
0.0
 11
729.4343267391676
 21
671.626112651525
 31
0.0
  0
LINE
  5
1077
330
2
100
AcDbEntity
  8
0
100
AcDbLine
 10
721.9179141496996
 20
676.626112651525
 30
0.0
 11
729.4343267391676
 21
676.626112651525
 31
0.0
  0
LINE
  5
1078
330
2
100
AcDbEntity
  8
0
100
AcDbLine
 10
723.7214453892419
 20
696.1261126515251
 30
0.0
 11
728.3345739271407
 21
696.1261126515251
 31
0.0
  0
LINE
  5
1079
330
2
100
AcDbEntity
  8
0
100
AcDbLine
 10
720.7215215462091
 20
700.1261126515251
 30
0.0
 11
732.3632017896542
 21
700.1261126515251
 31
0.0
  0
LINE
  5
107A
330
2
100
AcDbEntity
  8
0
100
AcDbLine
 10
623.5796746396735
 20
361.2400195258847
 30
0.0
 11
626.4596758810056
 21
361.2400195258847
 31
0.0
  0
LINE
  5
107B
330
2
100
AcDbEntity
  8
0
100
AcDbLine
 10
627.5796746396789
 20
369.2400195258956
 30
0.0
 11
623.5796746396735
 21
361.2400195258847
 31
0.0
  0
ARC
  5
107C
330
2
100
AcDbEntity
  8
0
100
AcDbCircle
 10
634.2196018796893
 20
366.5200195258926
 30
0.0
 40
2.720000000003957
100
AcDbArc
 50
307.5189678668226
 51
90.0
  0
LINE
  5
107D
330
2
100
AcDbEntity
  8
0
100
AcDbLine
 10
635.8761472593486
 20
364.3626467242771
 30
0.0
 11
637.8632161392032
 21
361.2400195258847
 31
0.0
  0
LINE
  5
107E
330
2
100
AcDbEntity
  8
0
100
AcDbLine
 10
634.983214897872
 20
361.2400195258847
 30
0.0
 11
637.8632161392032
 21
361.2400195258847
 31
0.0
  0
LINE
  5
107F
330
2
100
AcDbEntity
  8
0
100
AcDbLine
 10
629.0996746396812
 20
361.2400195258847
 30
0.0
 11
631.4996018796845
 21
361.2400195258829
 31
0.0
  0
LINE
  5
1080
330
2
100
AcDbEntity
  8
0
100
AcDbLine
 10
627.059675881006
 20
362.4400195258873
 30
0.0
 11
626.4596758810056
 21
361.2400195258847
 31
0.0
  0
LINE
  5
1081
330
2
100
AcDbEntity
  8
0
100
AcDbLine
 10
627.059675881006
 20
362.4400195258873
 30
0.0
 11
629.0996746396812
 21
362.4400195258854
 31
0.0
  0
LINE
  5
1082
330
2
100
AcDbEntity
  8
0
100
AcDbLine
 10
629.0996746396812
 20
362.4400195258854
 30
0.0
 11
629.0996746396812
 21
361.2400195258847
 31
0.0
  0
LINE
  5
1083
330
2
100
AcDbEntity
  8
0
100
AcDbLine
 10
628.3396758810084
 20
365.0000195258886
 30
0.0
 11
629.0996746396812
 21
365.0000195258886
 31
0.0
  0
LINE
  5
1084
330
2
100
AcDbEntity
  8
0
100
AcDbLine
 10
629.0996746396812
 20
366.5200170432358
 30
0.0
 11
629.0996746396812
 21
365.0000195258886
 31
0.0
  0
LINE
  5
1085
330
2
100
AcDbEntity
  8
0
100
AcDbLine
 10
629.0996746396812
 20
366.5200170432358
 30
0.0
 11
628.3396758810084
 21
365.0000195258886
 31
0.0
  0
LINE
  5
1086
330
2
100
AcDbEntity
  8
0
100
AcDbLine
 10
631.8396746396846
 20
366.1800195258907
 30
0.0
 11
634.983214897872
 21
361.2400195258847
 31
0.0
  0
LINE
  5
1087
330
2
100
AcDbEntity
  8
0
100
AcDbLine
 10
631.4996018796845
 20
366.5200195258926
 30
0.0
 11
631.4996018796845
 21
361.2400195258829
 31
0.0
  0
LINE
  5
1088
330
2
100
AcDbEntity
  8
0
100
AcDbLine
 10
631.4996018796845
 20
366.5200195258926
 30
0.0
 11
634.0496746396873
 21
366.5200195258926
 31
0.0
  0
LINE
  5
1089
330
2
100
AcDbEntity
  8
0
100
AcDbLine
 10
631.8396746396846
 20
366.1800195258907
 30
0.0
 11
634.0496746396892
 21
366.1800195258907
 31
0.0
  0
ARC
  5
108A
330
2
100
AcDbEntity
  8
0
100
AcDbCircle
 10
634.0496746396892
 20
366.3500195258908
 30
0.0
 40
0.1700000000002474
100
AcDbArc
 50
270.0
 51
90.0
  0
LINE
  5
108B
330
2
100
AcDbEntity
  8
0
100
AcDbLine
 10
627.5796746396789
 20
369.2400195258956
 30
0.0
 11
634.2196018796893
 21
369.2400195258956
 31
0.0
  0
LINE
  5
108C
330
2
100
AcDbEntity
  8
0
100
AcDbLine
 10
735.933916003927
 20
646.6261126515233
 30
0.0
 11
737.4180807032152
 21
646.6261126515233
 31
0.0
  0
ARC
  5
108D
330
2
100
AcDbEntity
  8
0
100
AcDbCircle
 10
729.4343267391676
 20
668.626112651525
 30
0.0
 40
3.0
100
AcDbArc
 50
1.499999999989693
 51
90.0
  0
ARC
  5
108E
330
2
100
AcDbEntity
  8
0
100
AcDbCircle
 10
729.4343267391676
 20
679.6261126515251
 30
0.0
 40
3.0
100
AcDbArc
 50
270.0
 51
358.5000000000103
  0
LINE
  5
108F
330
2
100
AcDbEntity
  8
0
100
AcDbLine
 10
587.721445391161
 20
701.626112651525
 30
0.0
 11
587.7214453911591
 21
637.6270708075712
 31
0.0
  0
LINE
  5
1090
330
2
100
AcDbEntity
  8
0
100
AcDbLine
 10
590.7214453911564
 20
701.626112651525
 30
0.0
 11
590.7214453911572
 21
637.6274579876767
 31
0.0
  0
LINE
  5
1091
330
2
100
AcDbEntity
  8
0
100
AcDbLine
 10
610.1813462139833
 20
701.626112651525
 30
0.0
 11
610.1813462139833
 21
637.6299694831682
 31
0.0
  0
LINE
  5
1092
330
2
100
AcDbEntity
  8
0
100
AcDbLine
 10
651.2615445683312
 20
701.626112651525
 30
0.0
 11
651.2615445683303
 21
637.6352712950242
 31
0.0
  0
LINE
  5
1093
330
2
100
AcDbEntity
  8
0
100
AcDbLine
 10
670.7214453911563
 20
701.626112651525
 30
0.0
 11
670.7214453911563
 21
637.6377827905139
 31
0.0
  0
LINE
  5
1094
330
2
100
AcDbEntity
  8
0
100
AcDbLine
 10
673.7214453911582
 20
701.626112651525
 30
0.0
 11
673.7214453911582
 21
637.6381699706212
 31
0.0
  0
LINE
  5
1095
330
2
100
AcDbEntity
  8
0
100
AcDbLine
 10
714.4419010268028
 20
674.1261126515251
 30
0.0
 11
718.965797687464
 21
674.1261126380809
 31
0.0
  0
LINE
  5
1096
330
2
100
AcDbEntity
  8
0
100
AcDbLine
 10
741.5687522146835
 20
674.1261126515251
 30
0.0
 11
754.5114453911609
 21
674.1261126515251
 31
0.0
  0
ARC
  5
1097
330
2
100
AcDbEntity
  8
0
100
AcDbCircle
 10
122.9853792476045
 20
378.0170999324532
 30
0.0
 40
5.0
100
AcDbArc
 50
0.0
 51
90.0
  0
ARC
  5
1098
330
2
100
AcDbEntity
  8
0
100
AcDbCircle
 10
118.2947213261116
 20
378.0170999324532
 30
0.0
 40
5.0
100
AcDbArc
 50
90.0
 51
161.7900431357136
  0
ARC
  5
1099
330
2
100
AcDbEntity
  8
0
100
AcDbCircle
 10
122.9853792476045
 20
432.0170999324532
 30
0.0
 40
5.0
100
AcDbArc
 50
270.0
 51
0.0
  0
ARC
  5
109A
330
2
100
AcDbEntity
  8
0
100
AcDbCircle
 10
118.2947213261116
 20
432.0170999324532
 30
0.0
 40
5.0
100
AcDbArc
 50
198.2099568642864
 51
270.0
  0
ARC
  5
109B
330
2
100
AcDbEntity
  8
0
100
AcDbCircle
 10
723.7214453894365
 20
432.0170999324542
 30
0.0
 40
5.0
100
AcDbArc
 50
180.0
 51
270.0
  0
LINE
  5
109C
330
2
100
AcDbEntity
  8
0
100
AcDbLine
 10
723.7214453894365
 20
427.0170999324541
 30
0.0
 11
728.4121033109293
 21
427.0170999324541
 31
0.0
  0
ARC
  5
109D
330
2
100
AcDbEntity
  8
0
100
AcDbCircle
 10
728.4121033109293
 20
432.0170999324542
 30
0.0
 40
5.0
100
AcDbArc
 50
270.0
 51
341.7900431357136
  0
ARC
  5
109E
330
2
100
AcDbEntity
  8
0
100
AcDbCircle
 10
723.7214453894365
 20
378.0170999324541
 30
0.0
 40
5.0
100
AcDbArc
 50
90.0
 51
180.0
  0
LINE
  5
109F
330
2
100
AcDbEntity
  8
0
100
AcDbLine
 10
723.7214453894365
 20
383.0170999324542
 30
0.0
 11
728.4121033109293
 21
383.0170999324542
 31
0.0
  0
ARC
  5
10A0
330
2
100
AcDbEntity
  8
0
100
AcDbCircle
 10
728.4121033109293
 20
378.0170999324541
 30
0.0
 40
5.0
100
AcDbArc
 50
18.20995686428638
 51
90.0
  0
ARC
  5
10A1
330
2
100
AcDbEntity
  8
0
100
AcDbCircle
 10
102.1953792476027
 20
370.5170999324532
 30
0.0
 40
2.0
100
AcDbArc
 50
270.0
 51
0.0
  0
LINE
  5
10A2
330
2
100
AcDbEntity
  8
0
100
AcDbLine
 10
102.1953792476027
 20
368.5170999324532
 30
0.0
 11
92.19537924760278
 21
368.5170999324532
 31
0.0
  0
LINE
  5
10A3
330
2
100
AcDbEntity
  8
0
100
AcDbLine
 10
102.1953792476032
 20
441.5170999324533
 30
0.0
 11
92.19537924760278
 21
441.5170999324533
 31
0.0
  0
ARC
  5
10A4
330
2
100
AcDbEntity
  8
0
100
AcDbCircle
 10
102.1953792476032
 20
439.5170999324532
 30
0.0
 40
2.0
100
AcDbArc
 50
0.0
 51
90.0
  0
LINE
  5
10A5
330
2
100
AcDbEntity
  8
0
100
AcDbLine
 10
754.5114453894365
 20
441.5170999324523
 30
0.0
 11
744.5114453894364
 21
441.5170999324523
 31
0.0
  0
ARC
  5
10A6
330
2
100
AcDbEntity
  8
0
100
AcDbCircle
 10
744.5114453894364
 20
439.5170999324523
 30
0.0
 40
2.0
100
AcDbArc
 50
90.0
 51
180.0
  0
LINE
  5
10A7
330
2
100
AcDbEntity
  8
0
100
AcDbLine
 10
744.5114453894364
 20
368.5170999324523
 30
0.0
 11
754.5114453894365
 21
368.5170999324523
 31
0.0
  0
ARC
  5
10A8
330
2
100
AcDbEntity
  8
0
100
AcDbCircle
 10
744.5114453894364
 20
370.5170999324523
 30
0.0
 40
2.0
100
AcDbArc
 50
180.0
 51
270.0
  0
LINE
  5
10A9
330
2
100
AcDbEntity
  8
CENTER
100
AcDbLine
 10
416.5419016296249
 20
344.2614522305944
 30
0.0
 11
416.5419016296249
 21
465.772747634312
 31
0.0
  0
LINE
  5
10AA
330
2
100
AcDbEntity
  8
0
100
AcDbLine
 10
454.541901629624
 20
354.5930732066431
 30
0.0
 11
454.541901629624
 21
455.4411266582634
 31
0.0
  0
LINE
  5
10AB
330
2
100
AcDbEntity
  8
CENTER
100
AcDbLine
 10
496.5419016296253
 20
405.0170999324532
 30
0.0
 11
330.541901629624
 21
405.0170999324532
 31
0.0
  0
LINE
  5
10AC
330
2
100
AcDbEntity
  8
0
100
AcDbLine
 10
459.541901629624
 20
360.0170999324532
 30
0.0
 11
459.541901629618
 21
450.0170999324533
 31
0.0
  0
LINE
  5
10AD
330
2
100
AcDbEntity
  8
0
100
AcDbLine
 10
454.541901629624
 20
360.0170999324532
 30
0.0
 11
459.541901629624
 21
360.0170999324532
 31
0.0
  0
LINE
  5
10AE
330
2
100
AcDbEntity
  8
0
100
AcDbLine
 10
454.541901629624
 20
450.0170999324533
 30
0.0
 11
459.541901629624
 21
450.0170999324533
 31
0.0
  0
LINE
  5
10AF
330
2
100
AcDbEntity
  8
0
100
AcDbLine
 10
388.5419016296249
 20
456.0170999324532
 30
0.0
 11
454.541901629624
 21
455.4411266582634
 31
0.0
  0
LINE
  5
10B0
330
2
100
AcDbEntity
  8
0
100
AcDbLine
 10
388.5419016296249
 20
354.0170999324532
 30
0.0
 11
454.541901629624
 21
354.5930732066431
 31
0.0
  0
LINE
  5
10B1
330
2
100
AcDbEntity
  8
0
100
AcDbLine
 10
473.5419016296249
 20
437.0857223828394
 30
0.0
 11
473.5419016296258
 21
372.9484774820653
 31
0.0
  0
LINE
  5
10B2
330
2
100
AcDbEntity
  8
0
100
AcDbLine
 10
461.4721026362206
 20
370.5956132639917
 30
0.0
 11
471.6117006230304
 21
370.9496958280274
 31
0.0
  0
LINE
  5
10B3
330
2
100
AcDbEntity
  8
0
100
AcDbLine
 10
461.4721026362206
 20
439.4385866009129
 30
0.0
 11
471.61170062303
 21
439.0845040368772
 31
0.0
  0
ARC
  5
10B4
330
2
100
AcDbEntity
  8
0
100
AcDbCircle
 10
471.5419016296249
 20
437.0857223828394
 30
0.0
 40
2.0
100
AcDbArc
 50
0.0
 51
87.99999999999636
  0
ARC
  5
10B5
330
2
100
AcDbEntity
  8
0
100
AcDbCircle
 10
461.5419016296254
 20
441.4373682549526
 30
0.0
 40
2.0
100
AcDbArc
 50
180.0
 51
267.9999999999963
  0
ARC
  5
10B6
330
2
100
AcDbEntity
  8
0
100
AcDbCircle
 10
471.5419016296258
 20
372.9484774820653
 30
0.0
 40
2.0
100
AcDbArc
 50
272.0000000000036
 51
0.0
  0
ARC
  5
10B7
330
2
100
AcDbEntity
  8
0
100
AcDbCircle
 10
461.5419016296254
 20
368.5968316099538
 30
0.0
 40
2.0
100
AcDbArc
 50
92.00000000000365
 51
180.0
  0
LINE
  5
10B8
330
2
100
AcDbEntity
  8
0
100
AcDbLine
 10
388.5419016296249
 20
448.0170999324532
 30
0.0
 11
453.541901629624
 21
448.0170999324532
 31
0.0
  0
LINE
  5
10B9
330
2
100
AcDbEntity
  8
0
100
AcDbLine
 10
388.5419016296249
 20
445.0170999324514
 30
0.0
 11
453.541901629624
 21
445.0170999324514
 31
0.0
  0
LINE
  5
10BA
330
2
100
AcDbEntity
  8
0
100
AcDbLine
 10
388.5419016296249
 20
425.5571991096244
 30
0.0
 11
453.541901629624
 21
425.5571991096244
 31
0.0
  0
LINE
  5
10BB
330
2
100
AcDbEntity
  8
0
100
AcDbLine
 10
388.5419016296226
 20
365.0170999324533
 30
0.0
 11
453.5419016296217
 21
365.0170999324533
 31
0.0
  0
LINE
  5
10BC
330
2
100
AcDbEntity
  8
0
100
AcDbLine
 10
388.5419016296249
 20
362.017099932455
 30
0.0
 11
453.541901629624
 21
362.017099932455
 31
0.0
  0
LINE
  5
10BD
330
2
100
AcDbEntity
  8
0
100
AcDbLine
 10
388.5419016296226
 20
365.0170999324533
 30
0.0
 11
453.5419016296217
 21
365.0170999324533
 31
0.0
  0
LINE
  5
10BE
330
2
100
AcDbEntity
  8
0
100
AcDbLine
 10
388.5419016296249
 20
384.4770007552838
 30
0.0
 11
453.541901629624
 21
384.4770007552838
 31
0.0
  0
LINE
  5
10BF
330
2
100
AcDbEntity
  8
0
100
AcDbLine
 10
718.9657976875804
 20
674.1261126515251
 30
0.0
 11
718.6689318720708
 21
640.1086595830729
 31
0.0
  0
ARC
  5
10C0
330
2
100
AcDbEntity
  8
0
100
AcDbCircle
 10
720.7215215462091
 20
646.1261126515251
 30
0.0
 40
2.0
100
AcDbArc
 50
90.0
 51
179.5000000000344
  0
ARC
  5
10C1
330
2
100
AcDbEntity
  8
0
100
AcDbCircle
 10
723.7303626491573
 20
647.126112651525
 30
0.0
 40
5.0
100
AcDbArc
 50
90.0
 51
179.5000000000344
  0
ARC
  5
10C2
330
2
100
AcDbEntity
  8
0
100
AcDbCircle
 10
721.9179141498878
 20
668.626112651525
 30
0.0
 40
3.0
100
AcDbArc
 50
90.0
 51
179.5000000000344
  0
LINE
  5
10C3
330
2
100
AcDbEntity
  8
0
100
AcDbLine
 10
681.1411086813749
 20
636.1261126540698
 30
0.0
 11
681.7170819555411
 21
702.126112651525
 31
0.0
  0
ARC
  5
10C4
330
2
100
AcDbEntity
  8
0
100
AcDbCircle
 10
682.645529232849
 20
636.6261126540698
 30
0.0
 40
1.5
100
AcDbArc
 50
90.0
 51
179.5000000000344
  0
LINE
  5
10C5
330
2
100
AcDbEntity
  8
0
100
AcDbLine
 10
718.9657976873458
 20
674.1261126515251
 30
0.0
 11
718.7214453894374
 21
702.126112651525
 31
0.0
  0
ARC
  5
10C6
330
2
100
AcDbEntity
  8
0
100
AcDbCircle
 10
720.7215215462082
 20
702.126112651525
 30
0.0
 40
2.0
100
AcDbArc
 50
180.4999999995485
 51
270.0
  0
ARC
  5
10C7
330
2
100
AcDbEntity
  8
0
100
AcDbCircle
 10
723.7303626491483
 20
701.126112651525
 30
0.0
 40
5.0
100
AcDbArc
 50
180.4999999995485
 51
270.0
  0
ARC
  5
10C8
330
2
100
AcDbEntity
  8
0
100
AcDbCircle
 10
721.9179141496996
 20
679.6261126515251
 30
0.0
 40
3.0
100
AcDbArc
 50
180.4999999995485
 51
270.0
  0
LINE
  5
10C9
330
2
100
AcDbEntity
  8
CENTER
100
AcDbLine
 10
267.7353792476077
 20
448.0170999324532
 30
0.0
 11
250.2353792476077
 21
448.0170999324532
 31
0.0
  0
CIRCLE
  5
10CA
330
2
100
AcDbEntity
  8
HOJO
100
AcDbCircle
 10
260.9853792476045
 20
436.5170999324532
 30
0.0
 40
2.0
  0
CIRCLE
  5
10CB
330
2
100
AcDbEntity
  8
HOJO
100
AcDbCircle
 10
260.9853792476054
 20
373.5170999324533
 30
0.0
 40
2.0
  0
LINE
  5
10CC
330
2
100
AcDbEntity
  8
CENTER
100
AcDbLine
 10
125.7353792476045
 20
434.5170999324532
 30
0.0
 11
143.2353792476045
 21
434.5170999324532
 31
0.0
  0
CIRCLE
  5
10CD
330
2
100
AcDbEntity
  8
HOJO
100
AcDbCircle
 10
145.9853792476045
 20
436.5170999324532
 30
0.0
 40
2.0
  0
LINE
  5
10CE
330
2
100
AcDbEntity
  8
CENTER
100
AcDbLine
 10
145.9853792476045
 20
441.69030501321
 30
0.0
 11
145.9853792476045
 21
431.3438948516965
 31
0.0
  0
LINE
  5
10CF
330
2
100
AcDbEntity
  8
CENTER
100
AcDbLine
 10
140.8121741668477
 20
436.5170999324532
 30
0.0
 11
151.1585843283613
 21
436.5170999324532
 31
0.0
  0
LINE
  5
10D0
330
2
100
AcDbEntity
  8
CENTER
100
AcDbLine
 10
134.4853792476036
 20
443.2670999324533
 30
0.0
 11
134.4853792476045
 21
425.7670999324532
 31
0.0
  0
LINE
  5
10D1
330
2
100
AcDbEntity
  8
CENTER
100
AcDbLine
 10
140.8121741668513
 20
373.5170999324533
 30
0.0
 11
152.412091185792
 21
373.5170999324533
 31
0.0
  0
LINE
  5
10D2
330
2
100
AcDbEntity
  8
CENTER
100
AcDbLine
 10
145.9853792476081
 20
366.9142742876798
 30
0.0
 11
145.9853792476081
 21
380.657598584789
 31
0.0
  0
CIRCLE
  5
10D3
330
2
100
AcDbEntity
  8
HOJO
100
AcDbCircle
 10
145.9853792476063
 20
373.5170999324514
 30
0.0
 40
2.0
  0
ARC
  5
10D4
330
2
100
AcDbEntity
  8
0
100
AcDbCircle
 10
249.9853792476031
 20
356.9608900626322
 30
0.0
 40
2.0
100
AcDbArc
 50
263.240180066883
 51
0.0
  0
ARC
  5
10D5
330
2
100
AcDbEntity
  8
0
100
AcDbCircle
 10
258.9853792476045
 20
362.0170999324532
 30
0.0
 40
8.0
100
AcDbArc
 50
270.0
 51
0.0
  0
ARC
  5
10D6
330
2
100
AcDbEntity
  8
0
100
AcDbCircle
 10
172.9853792476009
 20
362.0170999324532
 30
0.0
 40
8.0
100
AcDbArc
 50
180.0
 51
270.0
  0
LINE
  5
10D7
330
2
100
AcDbEntity
  8
0
100
AcDbLine
 10
133.9853792476054
 20
369.0170999324532
 30
0.0
 11
158.9853792476082
 21
369.0170999324532
 31
0.0
  0
LINE
  5
10D8
330
2
100
AcDbEntity
  8
0
100
AcDbLine
 10
133.9853792476054
 20
441.0170999324533
 30
0.0
 11
158.9853792476082
 21
441.0170999324533
 31
0.0
  0
LINE
  5
10D9
330
2
100
AcDbEntity
  8
0
100
AcDbLine
 10
251.9853792476045
 20
448.0170999324532
 30
0.0
 11
251.9853792476045
 21
453.0733098022761
 31
0.0
  0
ARC
  5
10DA
330
2
100
AcDbEntity
  8
0
100
AcDbCircle
 10
172.9853792476081
 20
448.0170999324532
 30
0.0
 40
8.0
100
AcDbArc
 50
90.0
 51
180.0
  0
ARC
  5
10DB
330
2
100
AcDbEntity
  8
0
100
AcDbCircle
 10
258.9853792476045
 20
448.0170999324532
 30
0.0
 40
8.0
100
AcDbArc
 50
0.0
 51
90.0
  0
ARC
  5
10DC
330
2
100
AcDbEntity
  8
0
100
AcDbCircle
 10
215.9853792476045
 20
256.0170999324532
 30
0.0
 40
200.0
100
AcDbArc
 50
84.10530161362244
 51
95.89469838637755
  0
ARC
  5
10DD
330
2
100
AcDbEntity
  8
0
100
AcDbCircle
 10
249.9853792476045
 20
453.0733098022761
 30
0.0
 40
2.0
100
AcDbArc
 50
0.0
 51
96.75981993311687
  0
ARC
  5
10DE
330
2
100
AcDbEntity
  8
0
100
AcDbCircle
 10
242.6875081779302
 20
514.6423042544379
 30
0.0
 40
60.0
100
AcDbArc
 50
264.1053016136225
 51
281.8050678104548
  0
LINE
  5
10DF
330
2
100
AcDbEntity
  8
0
100
AcDbLine
 10
258.985379247604
 20
456.0170999324532
 30
0.0
 11
255.9853792476045
 21
456.0170999324532
 31
0.0
  0
ARC
  5
10E0
330
2
100
AcDbEntity
  8
0
100
AcDbCircle
 10
255.9853792476045
 20
451.0170999324532
 30
0.0
 40
5.0
100
AcDbArc
 50
89.99999999997395
 51
101.8050678104549
  0
ARC
  5
10E1
330
2
100
AcDbEntity
  8
0
100
AcDbCircle
 10
189.2832503172797
 20
514.6423042544379
 30
0.0
 40
60.0
100
AcDbArc
 50
258.1949321895451
 51
275.8946983863775
  0
ARC
  5
10E2
330
2
100
AcDbEntity
  8
0
100
AcDbCircle
 10
175.9853792476045
 20
451.0170999324532
 30
0.0
 40
5.0
100
AcDbArc
 50
78.19493218954509
 51
90.0
  0
LINE
  5
10E3
330
2
100
AcDbEntity
  8
0
100
AcDbLine
 10
175.9853792476045
 20
456.0170999324532
 30
0.0
 11
172.9853792476081
 21
456.0170999324532
 31
0.0
  0
CIRCLE
  5
10E4
330
2
100
AcDbEntity
  8
0
100
AcDbCircle
 10
215.9853792476045
 20
405.0170999324532
 30
0.0
 40
26.57735026918791
  0
CIRCLE
  5
10E5
330
2
100
AcDbEntity
  8
0
100
AcDbCircle
 10
215.9853792476045
 20
405.0170999324532
 30
0.0
 40
32.42260000000154
  0
CIRCLE
  5
10E6
330
2
100
AcDbEntity
  8
0
100
AcDbCircle
 10
215.9853792476045
 20
405.0170999324532
 30
0.0
 40
35.50000000000153
  0
CIRCLE
  5
10E7
330
2
100
AcDbEntity
  8
0
100
AcDbCircle
 10
215.9853792476045
 20
405.0170999324532
 30
0.0
 40
35.00000000000153
  0
LINE
  5
10E8
330
2
100
AcDbEntity
  8
0
100
AcDbLine
 10
239.9853792476045
 20
444.0170999324532
 30
0.0
 11
191.9853792476045
 21
444.0170999324532
 31
0.0
  0
LINE
  5
10E9
330
2
100
AcDbEntity
  8
0
100
AcDbLine
 10
239.9853792476041
 20
366.0170999324532
 30
0.0
 11
191.9853792476045
 21
366.0170999324532
 31
0.0
  0
CIRCLE
  5
10EA
330
2
100
AcDbEntity
  8
0
100
AcDbCircle
 10
215.9853792476045
 20
405.0170999324532
 30
0.0
 40
33.00000000000153
  0
CIRCLE
  5
10EB
330
2
100
AcDbEntity
  8
0
100
AcDbCircle
 10
215.9853792476045
 20
405.0170999324532
 30
0.0
 40
26.0
  0
LINE
  5
10EC
330
2
100
AcDbEntity
  8
0
100
AcDbLine
 10
254.985379247604
 20
381.0170999324532
 30
0.0
 11
254.9853792476045
 21
429.0170999324533
 31
0.0
  0
ARC
  5
10ED
330
2
100
AcDbEntity
  8
0
100
AcDbCircle
 10
66.98537924760455
 20
405.0170999324532
 30
0.0
 40
200.0
100
AcDbArc
 50
354.1053016136503
 51
5.894698386349728
  0
ARC
  5
10EE
330
2
100
AcDbEntity
  8
0
100
AcDbCircle
 10
261.9853792476036
 20
445.0170999324533
 30
0.0
 40
5.0
100
AcDbArc
 50
348.1949321895584
 51
0.0
  0
LINE
  5
10EF
330
2
100
AcDbEntity
  8
0
100
AcDbLine
 10
266.9853792476045
 20
445.0170999324514
 30
0.0
 11
266.9853792476045
 21
448.0170999324532
 31
0.0
  0
CIRCLE
  5
10F0
330
2
100
AcDbEntity
  8
0
100
AcDbCircle
 10
260.9853792476045
 20
436.5170999324532
 30
0.0
 40
3.0
  0
CIRCLE
  5
10F1
330
2
100
AcDbEntity
  8
0
100
AcDbCircle
 10
260.9853792476045
 20
436.5170999324532
 30
0.0
 40
2.5
  0
CIRCLE
  5
10F2
330
2
100
AcDbEntity
  8
0
100
AcDbCircle
 10
260.9853792476045
 20
436.5170999324532
 30
0.0
 40
1.6
  0
ARC
  5
10F3
330
2
100
AcDbEntity
  8
0
100
AcDbCircle
 10
325.6105835695892
 20
431.719228862778
 30
0.0
 40
60.0
100
AcDbArc
 50
168.1949321895584
 51
185.8946983863497
  0
ARC
  5
10F4
330
2
100
AcDbEntity
  8
0
100
AcDbCircle
 10
258.9853792476045
 20
448.0170999324532
 30
0.0
 40
7.0
100
AcDbArc
 50
180.0
 51
270.0
  0
ARC
  5
10F5
330
2
100
AcDbEntity
  8
0
100
AcDbCircle
 10
264.0415891174265
 20
439.0170999324532
 30
0.0
 40
2.0
100
AcDbArc
 50
353.240180066883
 51
90.0
  0
LINE
  5
10F6
330
2
100
AcDbEntity
  8
0
100
AcDbLine
 10
258.9853792476072
 20
441.0170999324533
 30
0.0
 11
264.0415891174265
 21
441.0170999324533
 31
0.0
  0
ARC
  5
10F7
330
2
100
AcDbEntity
  8
0
100
AcDbCircle
 10
325.6105835695883
 20
378.3149710021285
 30
0.0
 40
60.0
100
AcDbArc
 50
174.1053016136502
 51
191.8050678104416
  0
ARC
  5
10F8
330
2
100
AcDbEntity
  8
0
100
AcDbCircle
 10
261.9853792476036
 20
365.0170999324533
 30
0.0
 40
5.0
100
AcDbArc
 50
0.0
 51
11.80506781044158
  0
LINE
  5
10F9
330
2
100
AcDbEntity
  8
0
100
AcDbLine
 10
266.9853792476045
 20
362.0170999324532
 30
0.0
 11
266.9853792476045
 21
365.0170999324514
 31
0.0
  0
ARC
  5
10FA
330
2
100
AcDbEntity
  8
0
100
AcDbCircle
 10
258.9853792476036
 20
362.0170999324532
 30
0.0
 40
7.0
100
AcDbArc
 50
89.99999999997395
 51
180.0
  0
CIRCLE
  5
10FB
330
2
100
AcDbEntity
  8
0
100
AcDbCircle
 10
260.9853792476054
 20
373.5170999324533
 30
0.0
 40
3.0
  0
CIRCLE
  5
10FC
330
2
100
AcDbEntity
  8
0
100
AcDbCircle
 10
260.9853792476054
 20
373.5170999324533
 30
0.0
 40
2.5
  0
ARC
  5
10FD
330
2
100
AcDbEntity
  8
0
100
AcDbCircle
 10
264.0415891174265
 20
371.0170999324532
 30
0.0
 40
2.0
100
AcDbArc
 50
269.9999999999739
 51
6.759819933116934
  0
CIRCLE
  5
10FE
330
2
100
AcDbEntity
  8
0
100
AcDbCircle
 10
260.9853792476054
 20
373.5170999324533
 30
0.0
 40
1.6
  0
LINE
  5
10FF
330
2
100
AcDbEntity
  8
0
100
AcDbLine
 10
258.9853792476063
 20
369.0170999324532
 30
0.0
 11
264.0415891174265
 21
369.0170999324532
 31
0.0
  0
LINE
  5
1100
330
2
100
AcDbEntity
  8
0
100
AcDbLine
 10
251.9853792476031
 20
362.0170999324532
 30
0.0
 11
251.9853792476027
 21
356.9608900626322
 31
0.0
  0
LINE
  5
1101
330
2
100
AcDbEntity
  8
0
100
AcDbLine
 10
176.9853792476045
 20
381.0170999324532
 30
0.0
 11
176.9853792476045
 21
429.0170999324533
 31
0.0
  0
LINE
  5
1102
330
2
100
AcDbEntity
  8
0
100
AcDbLine
 10
164.9853792476081
 20
362.0170999324532
 30
0.0
 11
164.9853792476081
 21
448.0170999324532
 31
0.0
  0
LINE
  5
1103
330
2
100
AcDbEntity
  8
0
100
AcDbLine
 10
127.9853792476054
 20
435.0170999324532
 30
0.0
 11
127.9853792476054
 21
375.0170999324532
 31
0.0
  0
ARC
  5
1104
330
2
100
AcDbEntity
  8
0
100
AcDbCircle
 10
134.4853792476045
 20
434.5170999324532
 30
0.0
 40
7.0
100
AcDbArc
 50
270.0
 51
0.0
  0
CIRCLE
  5
1105
330
2
100
AcDbEntity
  8
0
100
AcDbCircle
 10
145.9853792476045
 20
436.5170999324532
 30
0.0
 40
2.5
  0
CIRCLE
  5
1106
330
2
100
AcDbEntity
  8
0
100
AcDbCircle
 10
145.9853792476045
 20
436.5170999324532
 30
0.0
 40
1.6
  0
CIRCLE
  5
1107
330
2
100
AcDbEntity
  8
0
100
AcDbCircle
 10
145.9853792476045
 20
436.5170999324532
 30
0.0
 40
3.0
  0
LINE
  5
1108
330
2
100
AcDbEntity
  8
0
100
AcDbLine
 10
141.4853792476045
 20
434.5170999324532
 30
0.0
 11
141.4853792476036
 21
439.0170999324532
 31
0.0
  0
ARC
  5
1109
330
2
100
AcDbEntity
  8
0
100
AcDbCircle
 10
133.9853792476054
 20
435.0170999324532
 30
0.0
 40
6.0
100
AcDbArc
 50
90.0
 51
180.0
  0
LINE
  5
110A
330
2
100
AcDbEntity
  8
0
100
AcDbLine
 10
134.4853792476045
 20
427.5170999324532
 30
0.0
 11
129.985379247605
 21
427.5170999324532
 31
0.0
  0
ARC
  5
110B
330
2
100
AcDbEntity
  8
0
100
AcDbCircle
 10
134.4853792476054
 20
375.5170999324533
 30
0.0
 40
7.0
100
AcDbArc
 50
0.0
 51
90.0
  0
LINE
  5
110C
330
2
100
AcDbEntity
  8
0
100
AcDbLine
 10
134.4853792476054
 20
382.5170999324532
 30
0.0
 11
129.9853792476054
 21
382.5170999324532
 31
0.0
  0
CIRCLE
  5
110D
330
2
100
AcDbEntity
  8
0
100
AcDbCircle
 10
145.9853792476081
 20
373.5170999324533
 30
0.0
 40
3.25
  0
CIRCLE
  5
110E
330
2
100
AcDbEntity
  8
0
100
AcDbCircle
 10
145.9853792476081
 20
373.5170999324533
 30
0.0
 40
2.75
  0
LINE
  5
110F
330
2
100
AcDbEntity
  8
0
100
AcDbLine
 10
141.4853792476054
 20
375.5170999324533
 30
0.0
 11
141.4853792476054
 21
371.0170999324532
 31
0.0
  0
ARC
  5
1110
330
2
100
AcDbEntity
  8
0
100
AcDbCircle
 10
133.9853792476054
 20
375.0170999324532
 30
0.0
 40
6.0
100
AcDbArc
 50
180.0
 51
270.0
  0
ARC
  5
1111
330
2
100
AcDbEntity
  8
0
100
AcDbCircle
 10
215.9853792476045
 20
554.0170999324532
 30
0.0
 40
200.0
100
AcDbArc
 50
264.1053016136225
 51
275.8946983863775
  0
ARC
  5
1112
330
2
100
AcDbEntity
  8
0
100
AcDbCircle
 10
242.6875081779293
 20
295.3918956104685
 30
0.0
 40
60.0
100
AcDbArc
 50
78.19493218954509
 51
95.89469838637755
  0
LINE
  5
1113
330
2
100
AcDbEntity
  8
0
100
AcDbLine
 10
258.9853792476045
 20
354.0170999324532
 30
0.0
 11
255.9853792476045
 21
354.0170999324532
 31
0.0
  0
ARC
  5
1114
330
2
100
AcDbEntity
  8
0
100
AcDbCircle
 10
255.9853792476045
 20
359.0170999324532
 30
0.0
 40
5.0
100
AcDbArc
 50
258.1949321895451
 51
270.0
  0
ARC
  5
1115
330
2
100
AcDbEntity
  8
0
100
AcDbCircle
 10
189.2832503172788
 20
295.3918956104685
 30
0.0
 40
60.0
100
AcDbArc
 50
84.10530161362244
 51
101.8050678104549
  0
ARC
  5
1116
330
2
100
AcDbEntity
  8
0
100
AcDbCircle
 10
175.9853792476045
 20
359.0170999324532
 30
0.0
 40
5.0
100
AcDbArc
 50
269.9999999999739
 51
281.8050678104548
  0
LINE
  5
1117
330
2
100
AcDbEntity
  8
0
100
AcDbLine
 10
172.9853792476018
 20
354.0170999324532
 30
0.0
 11
175.9853792476045
 21
354.0170999324532
 31
0.0
  0
CIRCLE
  5
1118
330
2
100
AcDbEntity
  8
0
100
AcDbCircle
 10
145.9853792476081
 20
373.5170999324533
 30
0.0
 40
1.6
  0
ARC
  5
1119
330
2
100
AcDbEntity
  8
0
100
AcDbCircle
 10
158.9853792476082
 20
447.0170999324532
 30
0.0
 40
6.0
100
AcDbArc
 50
270.0
 51
0.0
  0
ARC
  5
111A
330
2
100
AcDbEntity
  8
0
100
AcDbCircle
 10
158.9853792476082
 20
363.0170999324533
 30
0.0
 40
6.0
100
AcDbArc
 50
0.0
 51
90.0
  0
LINE
  5
111B
330
2
100
AcDbEntity
  8
CENTER
100
AcDbLine
 10
258.9853792476095
 20
456.7670999324533
 30
0.0
 11
258.9853792476081
 21
439.2670999324533
 31
0.0
  0
ARC
  5
111C
330
2
100
AcDbEntity
  8
0
100
AcDbCircle
 10
143.4853792476036
 20
439.0170999324532
 30
0.0
 40
2.0
100
AcDbArc
 50
90.0
 51
180.0
  0
ARC
  5
111D
330
2
100
AcDbEntity
  8
0
100
AcDbCircle
 10
129.9853792476054
 20
425.5170999324533
 30
0.0
 40
2.0
100
AcDbArc
 50
90.0
 51
180.0
  0
ARC
  5
111E
330
2
100
AcDbEntity
  8
0
100
AcDbCircle
 10
129.9853792476054
 20
384.5170999324532
 30
0.0
 40
2.0
100
AcDbArc
 50
180.0
 51
270.0
  0
ARC
  5
111F
330
2
100
AcDbEntity
  8
0
100
AcDbCircle
 10
143.4853792476054
 20
371.0170999324532
 30
0.0
 40
2.0
100
AcDbArc
 50
180.0
 51
270.0
  0
LINE
  5
1120
330
2
100
AcDbEntity
  8
0
100
AcDbLine
 10
256.9853792476045
 20
381.0170999324532
 30
0.0
 11
256.9853792476045
 21
429.0170999324533
 31
0.0
  0
LINE
  5
1121
330
2
100
AcDbEntity
  8
0
100
AcDbLine
 10
239.9853792476045
 20
446.0170999324533
 30
0.0
 11
191.9853792476045
 21
446.0170999324533
 31
0.0
  0
LINE
  5
1122
330
2
100
AcDbEntity
  8
0
100
AcDbLine
 10
174.9853792476045
 20
381.0170999324532
 30
0.0
 11
174.9853792476045
 21
429.0170999324533
 31
0.0
  0
LINE
  5
1123
330
2
100
AcDbEntity
  8
0
100
AcDbLine
 10
239.9853792476045
 20
364.0170999324532
 30
0.0
 11
191.9853792476045
 21
364.0170999324532
 31
0.0
  0
ARC
  5
1124
330
2
100
AcDbEntity
  8
0
100
AcDbCircle
 10
239.9853792476045
 20
429.0170999324533
 30
0.0
 40
15.0
100
AcDbArc
 50
0.0
 51
90.0
  0
ARC
  5
1125
330
2
100
AcDbEntity
  8
0
100
AcDbCircle
 10
239.9853792476045
 20
429.0170999324533
 30
0.0
 40
17.0
100
AcDbArc
 50
0.0
 51
90.0
  0
LINE
  5
1126
330
2
100
AcDbEntity
  8
0
100
AcDbLine
 10
252.0061945277751
 20
441.0379152126248
 30
0.0
 11
250.5919809654027
 21
439.6237016502515
 31
0.0
  0
ARC
  5
1127
330
2
100
AcDbEntity
  8
0
100
AcDbCircle
 10
239.9853792476041
 20
381.0170999324532
 30
0.0
 40
15.0
100
AcDbArc
 50
270.0
 51
0.0
  0
ARC
  5
1128
330
2
100
AcDbEntity
  8
0
100
AcDbCircle
 10
191.9853792476045
 20
429.0170999324533
 30
0.0
 40
15.0
100
AcDbArc
 50
90.0
 51
180.0
  0
ARC
  5
1129
330
2
100
AcDbEntity
  8
0
100
AcDbCircle
 10
191.9853792476045
 20
381.0170999324532
 30
0.0
 40
15.0
100
AcDbArc
 50
180.0
 51
270.0
  0
ARC
  5
112A
330
2
100
AcDbEntity
  8
0
100
AcDbCircle
 10
191.9853792476045
 20
429.0170999324533
 30
0.0
 40
17.0
100
AcDbArc
 50
90.0
 51
180.0
  0
ARC
  5
112B
330
2
100
AcDbEntity
  8
0
100
AcDbCircle
 10
191.9853792476045
 20
381.0170999324532
 30
0.0
 40
17.0
100
AcDbArc
 50
180.0
 51
270.0
  0
ARC
  5
112C
330
2
100
AcDbEntity
  8
0
100
AcDbCircle
 10
239.9853792476045
 20
381.0170999324532
 30
0.0
 40
17.0
100
AcDbArc
 50
270.0
 51
0.0
  0
LINE
  5
112D
330
2
100
AcDbEntity
  8
0
100
AcDbLine
 10
250.5919809654022
 20
370.410498214655
 30
0.0
 11
252.0061945277751
 21
368.9962846522817
 31
0.0
  0
LINE
  5
112E
330
2
100
AcDbEntity
  8
0
100
AcDbLine
 10
181.3787775298063
 20
439.6237016502515
 30
0.0
 11
179.964563967433
 21
441.0379152126248
 31
0.0
  0
LINE
  5
112F
330
2
100
AcDbEntity
  8
0
100
AcDbLine
 10
181.3787775298063
 20
370.410498214655
 30
0.0
 11
179.964563967433
 21
368.9962846522817
 31
0.0
  0
LINE
  5
1130
330
2
100
AcDbEntity
  8
CENTER
100
AcDbLine
 10
267.7353792476077
 20
362.0170999324532
 30
0.0
 11
250.2353792476077
 21
362.0170999324532
 31
0.0
  0
LINE
  5
1131
330
2
100
AcDbEntity
  8
CENTER
100
AcDbLine
 10
258.9853792476095
 20
353.2670999324551
 30
0.0
 11
258.9853792476081
 21
370.767099932455
 31
0.0
  0
LINE
  5
1132
330
2
100
AcDbEntity
  8
CENTER
100
AcDbLine
 10
125.7353792476045
 20
375.5170999324551
 30
0.0
 11
143.2353792476045
 21
375.5170999324533
 31
0.0
  0
LINE
  5
1133
330
2
100
AcDbEntity
  8
CENTER
100
AcDbLine
 10
134.4853792476036
 20
366.7670999324532
 30
0.0
 11
134.4853792476045
 21
384.2670999324532
 31
0.0
  0
CIRCLE
  5
1134
330
2
100
AcDbEntity
  8
0
100
AcDbCircle
 10
258.9853792476045
 20
448.0170999324532
 30
0.0
 40
5.000000000000113
  0
CIRCLE
  5
1135
330
2
100
AcDbEntity
  8
0
100
AcDbCircle
 10
258.9853792476045
 20
448.0170999324532
 30
0.0
 40
4.307179676972509
  0
LINE
  5
1136
330
2
100
AcDbEntity
  8
0
100
AcDbLine
 10
261.4853792476045
 20
449.4604756054273
 30
0.0
 11
261.4853792476045
 21
446.5737242594792
 31
0.0
  0
LINE
  5
1137
330
2
100
AcDbEntity
  8
0
100
AcDbLine
 10
258.9853792476045
 20
445.1303485865051
 30
0.0
 11
261.4853792476045
 21
446.5737242594792
 31
0.0
  0
LINE
  5
1138
330
2
100
AcDbEntity
  8
0
100
AcDbLine
 10
261.4853792476045
 20
449.4604756054273
 30
0.0
 11
258.9853792476045
 21
450.9038512784014
 31
0.0
  0
LINE
  5
1139
330
2
100
AcDbEntity
  8
0
100
AcDbLine
 10
256.4853792476045
 20
449.4604756054273
 30
0.0
 11
256.4853792476045
 21
446.5737242594792
 31
0.0
  0
LINE
  5
113A
330
2
100
AcDbEntity
  8
0
100
AcDbLine
 10
258.9853792476045
 20
445.1303485865051
 30
0.0
 11
256.4853792476045
 21
446.5737242594792
 31
0.0
  0
LINE
  5
113B
330
2
100
AcDbEntity
  8
0
100
AcDbLine
 10
256.4853792476045
 20
449.4604756054273
 30
0.0
 11
258.9853792476045
 21
450.9038512784014
 31
0.0
  0
CIRCLE
  5
113C
330
2
100
AcDbEntity
  8
0
100
AcDbCircle
 10
258.9853792476091
 20
362.0170999324532
 30
0.0
 40
5.000000000000113
  0
CIRCLE
  5
113D
330
2
100
AcDbEntity
  8
0
100
AcDbCircle
 10
258.9853792476091
 20
362.0170999324532
 30
0.0
 40
4.307179676972509
  0
LINE
  5
113E
330
2
100
AcDbEntity
  8
0
100
AcDbLine
 10
261.4853792476091
 20
363.4604756054273
 30
0.0
 11
261.4853792476091
 21
360.5737242594792
 31
0.0
  0
LINE
  5
113F
330
2
100
AcDbEntity
  8
0
100
AcDbLine
 10
258.9853792476086
 20
359.1303485865051
 30
0.0
 11
261.4853792476091
 21
360.5737242594792
 31
0.0
  0
LINE
  5
1140
330
2
100
AcDbEntity
  8
0
100
AcDbLine
 10
261.4853792476091
 20
363.4604756054273
 30
0.0
 11
258.9853792476091
 21
364.9038512784014
 31
0.0
  0
LINE
  5
1141
330
2
100
AcDbEntity
  8
0
100
AcDbLine
 10
256.4853792476091
 20
363.4604756054273
 30
0.0
 11
256.4853792476091
 21
360.5737242594792
 31
0.0
  0
LINE
  5
1142
330
2
100
AcDbEntity
  8
0
100
AcDbLine
 10
258.9853792476086
 20
359.1303485865051
 30
0.0
 11
256.4853792476091
 21
360.5737242594792
 31
0.0
  0
LINE
  5
1143
330
2
100
AcDbEntity
  8
0
100
AcDbLine
 10
256.4853792476091
 20
363.4604756054273
 30
0.0
 11
258.9853792476091
 21
364.9038512784014
 31
0.0
  0
CIRCLE
  5
1144
330
2
100
AcDbEntity
  8
0
100
AcDbCircle
 10
134.4853792476045
 20
375.5170999324533
 30
0.0
 40
5.000000000000113
  0
CIRCLE
  5
1145
330
2
100
AcDbEntity
  8
0
100
AcDbCircle
 10
134.4853792476045
 20
375.5170999324533
 30
0.0
 40
4.307179676972509
  0
LINE
  5
1146
330
2
100
AcDbEntity
  8
0
100
AcDbLine
 10
136.9853792476045
 20
376.9604756054273
 30
0.0
 11
136.9853792476045
 21
374.0737242594792
 31
0.0
  0
LINE
  5
1147
330
2
100
AcDbEntity
  8
0
100
AcDbLine
 10
134.4853792476041
 20
372.6303485865051
 30
0.0
 11
136.9853792476045
 21
374.0737242594792
 31
0.0
  0
LINE
  5
1148
330
2
100
AcDbEntity
  8
0
100
AcDbLine
 10
136.9853792476045
 20
376.9604756054273
 30
0.0
 11
134.4853792476045
 21
378.4038512784014
 31
0.0
  0
LINE
  5
1149
330
2
100
AcDbEntity
  8
0
100
AcDbLine
 10
131.9853792476045
 20
376.9604756054273
 30
0.0
 11
131.9853792476045
 21
374.0737242594792
 31
0.0
  0
LINE
  5
114A
330
2
100
AcDbEntity
  8
0
100
AcDbLine
 10
134.4853792476041
 20
372.6303485865051
 30
0.0
 11
131.9853792476045
 21
374.0737242594792
 31
0.0
  0
LINE
  5
114B
330
2
100
AcDbEntity
  8
0
100
AcDbLine
 10
131.9853792476045
 20
376.9604756054273
 30
0.0
 11
134.4853792476045
 21
378.4038512784014
 31
0.0
  0
CIRCLE
  5
114C
330
2
100
AcDbEntity
  8
0
100
AcDbCircle
 10
134.4853792476045
 20
434.5170999324532
 30
0.0
 40
5.000000000000113
  0
CIRCLE
  5
114D
330
2
100
AcDbEntity
  8
0
100
AcDbCircle
 10
134.4853792476045
 20
434.5170999324532
 30
0.0
 40
4.307179676972509
  0
LINE
  5
114E
330
2
100
AcDbEntity
  8
0
100
AcDbLine
 10
136.9853792476045
 20
435.9604756054273
 30
0.0
 11
136.9853792476045
 21
433.0737242594792
 31
0.0
  0
LINE
  5
114F
330
2
100
AcDbEntity
  8
0
100
AcDbLine
 10
134.4853792476041
 20
431.6303485865051
 30
0.0
 11
136.9853792476045
 21
433.0737242594792
 31
0.0
  0
LINE
  5
1150
330
2
100
AcDbEntity
  8
0
100
AcDbLine
 10
136.9853792476045
 20
435.9604756054273
 30
0.0
 11
134.4853792476045
 21
437.4038512784014
 31
0.0
  0
LINE
  5
1151
330
2
100
AcDbEntity
  8
0
100
AcDbLine
 10
131.9853792476045
 20
435.9604756054273
 30
0.0
 11
131.9853792476045
 21
433.0737242594792
 31
0.0
  0
LINE
  5
1152
330
2
100
AcDbEntity
  8
0
100
AcDbLine
 10
134.4853792476041
 20
431.6303485865051
 30
0.0
 11
131.9853792476045
 21
433.0737242594792
 31
0.0
  0
LINE
  5
1153
330
2
100
AcDbEntity
  8
0
100
AcDbLine
 10
131.9853792476045
 20
435.9604756054273
 30
0.0
 11
134.4853792476045
 21
437.4038512784014
 31
0.0
  0
LINE
  5
1154
330
2
100
AcDbEntity
  8
0
100
AcDbLine
 10
362.5419016296195
 20
372.594450201645
 30
0.0
 11
362.5419016296195
 21
437.4397496632632
 31
0.0
  0
LINE
  5
1155
330
2
100
AcDbEntity
  8
0
100
AcDbLine
 10
372.4561151919928
 20
445.4313134948265
 30
0.0
 11
371.627688067247
 21
444.6028863700799
 31
0.0
  0
LINE
  5
1156
330
2
100
AcDbEntity
  8
0
100
AcDbLine
 10
388.5419016296222
 20
456.0170999324532
 30
0.0
 11
388.5419016296276
 21
354.017099932455
 31
0.0
  0
LINE
  5
1157
330
2
100
AcDbEntity
  8
0
100
AcDbLine
 10
373.0419016296167
 20
356.134988804401
 30
0.0
 11
373.0419016296194
 21
453.8992110605055
 31
0.0
  0
ARC
  5
1158
330
2
100
AcDbEntity
  8
0
100
AcDbCircle
 10
375.0419016296167
 20
356.134988804401
 30
0.0
 40
2.0
100
AcDbArc
 50
180.0
 51
269.5000000000084
  0
ARC
  5
1159
330
2
100
AcDbEntity
  8
0
100
AcDbCircle
 10
375.0419016296167
 20
371.0695372959713
 30
0.0
 40
2.0
100
AcDbArc
 50
180.0
 51
269.5000000000084
  0
LINE
  5
115A
330
2
100
AcDbEntity
  8
0
100
AcDbLine
 10
367.0419016296194
 20
437.8170999324543
 30
0.0
 11
367.2419016296192
 21
438.0170999324533
 31
0.0
  0
LINE
  5
115B
330
2
100
AcDbEntity
  8
0
100
AcDbLine
 10
370.5419016296194
 20
440.0170999324532
 30
0.0
 11
371.0419016296194
 21
440.5170999324532
 31
0.0
  0
LINE
  5
115C
330
2
100
AcDbEntity
  8
0
100
AcDbLine
 10
371.0419016296203
 20
443.1886728077084
 30
0.0
 11
371.0419016296194
 21
440.5170999324532
 31
0.0
  0
LINE
  5
115D
330
2
100
AcDbEntity
  8
0
100
AcDbLine
 10
367.2419016296192
 20
438.0170999324533
 30
0.0
 11
370.5419016296194
 21
438.0170999324533
 31
0.0
  0
LINE
  5
115E
330
2
100
AcDbEntity
  8
0
100
AcDbLine
 10
363.5419016296194
 20
438.0170999324533
 30
0.0
 11
362.5419016296195
 21
437.4397496632632
 31
0.0
  0
LINE
  5
115F
330
2
100
AcDbEntity
  8
0
100
AcDbLine
 10
363.5419016296194
 20
438.0170999324533
 30
0.0
 11
364.8419016296196
 21
438.0170999324533
 31
0.0
  0
LINE
  5
1160
330
2
100
AcDbEntity
  8
0
100
AcDbLine
 10
365.2419016296192
 20
437.3170999324544
 30
0.0
 11
366.8419016296196
 21
437.3170999324544
 31
0.0
  0
LINE
  5
1161
330
2
100
AcDbEntity
  8
0
100
AcDbLine
 10
388.5419016296276
 20
354.017099932455
 30
0.0
 11
375.0244485586203
 21
354.1350649582732
 31
0.0
  0
ARC
  5
1162
330
2
100
AcDbEntity
  8
0
100
AcDbCircle
 10
382.0419016296958
 20
355.0738626514799
 30
0.0
 40
1.0
100
AcDbArc
 50
180.0
 51
269.5000000000084
  0
LINE
  5
1163
330
2
100
AcDbEntity
  8
0
100
AcDbLine
 10
372.4561151919928
 20
364.6028863700799
 30
0.0
 11
371.6276880672525
 21
365.4313134948211
 31
0.0
  0
LINE
  5
1164
330
2
100
AcDbEntity
  8
0
100
AcDbLine
 10
370.5419016296249
 20
370.0170999324532
 30
0.0
 11
370.5419016296167
 21
440.0170999324496
 31
0.0
  0
LINE
  5
1165
330
2
100
AcDbEntity
  8
0
100
AcDbLine
 10
367.041901629624
 20
372.217099932454
 30
0.0
 11
367.041901629624
 21
437.817099932458
 31
0.0
  0
LINE
  5
1166
330
2
100
AcDbEntity
  8
0
100
AcDbLine
 10
367.041901629624
 20
372.217099932454
 30
0.0
 11
367.2419016296247
 21
372.0170999324532
 31
0.0
  0
LINE
  5
1167
330
2
100
AcDbEntity
  8
0
100
AcDbLine
 10
367.2419016296247
 20
372.0170999324532
 30
0.0
 11
370.5419016296249
 21
372.0170999324532
 31
0.0
  0
LINE
  5
1168
330
2
100
AcDbEntity
  8
0
100
AcDbLine
 10
370.5419016296249
 20
370.0170999324532
 30
0.0
 11
371.0419016296249
 21
369.5170999324551
 31
0.0
  0
LINE
  5
1169
330
2
100
AcDbEntity
  8
0
100
AcDbLine
 10
371.0419016296258
 20
366.8455270571926
 30
0.0
 11
371.0419016296194
 21
440.5170999324532
 31
0.0
  0
LINE
  5
116A
330
2
100
AcDbEntity
  8
0
100
AcDbLine
 10
363.5419016296249
 20
372.0170999324532
 30
0.0
 11
362.541901629624
 21
372.5944502016432
 31
0.0
  0
LINE
  5
116B
330
2
100
AcDbEntity
  8
0
100
AcDbLine
 10
365.041901629624
 20
372.217099932454
 30
0.0
 11
365.041901629624
 21
437.8170999324543
 31
0.0
  0
LINE
  5
116C
330
2
100
AcDbEntity
  8
0
100
AcDbLine
 10
363.541901629624
 20
372.0170999324532
 30
0.0
 11
364.8419016296242
 21
372.0170999324532
 31
0.0
  0
LINE
  5
116D
330
2
100
AcDbEntity
  8
0
100
AcDbLine
 10
365.2419016296247
 20
372.717099932454
 30
0.0
 11
366.8419016296242
 21
372.717099932454
 31
0.0
  0
ARC
  5
116E
330
2
100
AcDbEntity
  8
0
100
AcDbCircle
 10
373.0419016296258
 20
366.8455270571945
 30
0.0
 40
2.0
100
AcDbArc
 50
180.0
 51
225.0000000000091
  0
ARC
  5
116F
330
2
100
AcDbEntity
  8
0
100
AcDbCircle
 10
371.0419016296194
 20
363.1886728077066
 30
0.0
 40
2.0
100
AcDbArc
 50
0.0
 51
45.00000000000949
  0
ARC
  5
1170
330
2
100
AcDbEntity
  8
0
100
AcDbCircle
 10
373.0419016296203
 20
443.1886728077084
 30
0.0
 40
2.0
100
AcDbArc
 50
134.9999999999905
 51
180.0
  0
ARC
  5
1171
330
2
100
AcDbEntity
  8
0
100
AcDbCircle
 10
371.0419016296194
 20
446.8455270571999
 30
0.0
 40
2.0
100
AcDbArc
 50
314.9999999999907
 51
0.0
  0
ARC
  5
1172
330
2
100
AcDbEntity
  8
0
100
AcDbCircle
 10
364.8419016296242
 20
372.217099932454
 30
0.0
 40
0.2
100
AcDbArc
 50
270.000000000026
 51
0.0
  0
ARC
  5
1173
330
2
100
AcDbEntity
  8
0
100
AcDbCircle
 10
365.2419016296247
 20
372.5170999324532
 30
0.0
 40
0.2
100
AcDbArc
 50
90.00000000002605
 51
180.0
  0
ARC
  5
1174
330
2
100
AcDbEntity
  8
0
100
AcDbCircle
 10
366.8419016296242
 20
372.5170999324532
 30
0.0
 40
0.2
100
AcDbArc
 50
0.0
 51
90.00000000002605
  0
ARC
  5
1175
330
2
100
AcDbEntity
  8
0
100
AcDbCircle
 10
364.8419016296196
 20
437.8170999324543
 30
0.0
 40
0.2
100
AcDbArc
 50
0.0
 51
90.0
  0
ARC
  5
1176
330
2
100
AcDbEntity
  8
0
100
AcDbCircle
 10
365.2419016296192
 20
437.5170999324533
 30
0.0
 40
0.2
100
AcDbArc
 50
180.0
 51
270.0
  0
ARC
  5
1177
330
2
100
AcDbEntity
  8
0
100
AcDbCircle
 10
366.8419016296196
 20
437.5170999324533
 30
0.0
 40
0.2
100
AcDbArc
 50
270.0
 51
0.0
  0
LINE
  5
1178
330
2
100
AcDbEntity
  8
0
100
AcDbLine
 10
363.5419016296249
 20
372.0170999324532
 30
0.0
 11
363.5419016296194
 21
438.0170999324533
 31
0.0
  0
LINE
  5
1179
330
2
100
AcDbEntity
  8
0
100
AcDbLine
 10
367.2419016296247
 20
372.0170999324532
 30
0.0
 11
367.2419016296192
 21
438.0170999324533
 31
0.0
  0
LINE
  5
117A
330
2
100
AcDbEntity
  8
0
100
AcDbLine
 10
380.0506281651936
 20
369.0257506449238
 30
0.0
 11
375.0244485586203
 21
369.0696134498435
 31
0.0
  0
LINE
  5
117B
330
2
100
AcDbEntity
  8
0
100
AcDbLine
 10
381.0419016296958
 20
355.0738626514799
 30
0.0
 11
381.0419016296958
 21
368.02578872186
 31
0.0
  0
ARC
  5
117C
330
2
100
AcDbEntity
  8
0
100
AcDbCircle
 10
380.0419016296958
 20
368.02578872186
 30
0.0
 40
1.0
100
AcDbArc
 50
0.0
 51
89.5000000000345
  0
LINE
  5
117D
330
2
100
AcDbEntity
  8
0
100
AcDbLine
 10
382.0331750941972
 20
362.0170999324532
 30
0.0
 11
388.5419016296276
 21
362.0170999324532
 31
0.0
  0
LINE
  5
117E
330
2
100
AcDbEntity
  8
0
100
AcDbLine
 10
382.0331750941972
 20
365.0170999324533
 30
0.0
 11
388.5419016296267
 21
365.0170999324533
 31
0.0
  0
ARC
  5
117F
330
2
100
AcDbEntity
  8
0
100
AcDbCircle
 10
375.0419016296167
 20
453.8992110605055
 30
0.0
 40
2.0
100
AcDbArc
 50
90.49999999999155
 51
180.0
  0
ARC
  5
1180
330
2
100
AcDbEntity
  8
0
100
AcDbCircle
 10
375.0419016296167
 20
438.9646625689352
 30
0.0
 40
2.0
100
AcDbArc
 50
90.49999999999155
 51
180.0
  0
LINE
  5
1181
330
2
100
AcDbEntity
  8
0
100
AcDbLine
 10
388.5419016296276
 20
456.0170999324532
 30
0.0
 11
375.0244485586203
 21
455.8991349066332
 31
0.0
  0
ARC
  5
1182
330
2
100
AcDbEntity
  8
0
100
AcDbCircle
 10
382.0419016296958
 20
454.9603372134265
 30
0.0
 40
1.0
100
AcDbArc
 50
90.49999999999155
 51
180.0
  0
LINE
  5
1183
330
2
100
AcDbEntity
  8
0
100
AcDbLine
 10
380.0506281651936
 20
441.0084492199844
 30
0.0
 11
375.0244485586203
 21
440.9645864150648
 31
0.0
  0
LINE
  5
1184
330
2
100
AcDbEntity
  8
0
100
AcDbLine
 10
381.0419016296958
 20
454.9603372134265
 30
0.0
 11
381.0419016296958
 21
442.0084111430483
 31
0.0
  0
ARC
  5
1185
330
2
100
AcDbEntity
  8
0
100
AcDbCircle
 10
380.0419016296958
 20
442.0084111430483
 30
0.0
 40
1.0
100
AcDbArc
 50
270.4999999999654
 51
0.0
  0
LINE
  5
1186
330
2
100
AcDbEntity
  8
CENTER
  6
CENS
100
AcDbLine
 10
396.4502977413152
 20
448.0170999324532
 30
0.0
 11
370.5419016296949
 21
448.0170999324532
 31
0.0
  0
LINE
  5
1187
330
2
100
AcDbEntity
  8
0
100
AcDbLine
 10
373.9419016296955
 20
453.0170999324532
 30
0.0
 11
373.5419016296958
 21
452.324279609426
 31
0.0
  0
LINE
  5
1188
330
2
100
AcDbEntity
  8
0
100
AcDbLine
 10
379.5419016296954
 20
453.0170999324532
 30
0.0
 11
379.5419016296949
 21
443.0170999324532
 31
0.0
  0
LINE
  5
1189
330
2
100
AcDbEntity
  8
0
100
AcDbLine
 10
373.9419016296955
 20
453.0170999324532
 30
0.0
 11
373.9419016296955
 21
443.0170999324532
 31
0.0
  0
LINE
  5
118A
330
2
100
AcDbEntity
  8
0
100
AcDbLine
 10
381.0419016296958
 20
453.0170999324532
 30
0.0
 11
373.9419016296955
 21
453.0170999324532
 31
0.0
  0
LINE
  5
118B
330
2
100
AcDbEntity
  8
0
100
AcDbLine
 10
381.0419016296958
 20
443.0170999324532
 30
0.0
 11
373.9419016296955
 21
443.0170999324532
 31
0.0
  0
LINE
  5
118C
330
2
100
AcDbEntity
  8
0
100
AcDbLine
 10
373.9419016296955
 20
443.0170999324532
 30
0.0
 11
373.5419016296958
 21
443.7099202554805
 31
0.0
  0
LINE
  5
118D
330
2
100
AcDbEntity
  8
0
100
AcDbLine
 10
373.5419016296958
 20
452.324279609426
 30
0.0
 11
373.5419016296958
 21
443.7099202554805
 31
0.0
  0
LINE
  5
118E
330
2
100
AcDbEntity
  8
CENTER
  6
CENS
100
AcDbLine
 10
396.4502977413152
 20
362.0170999324532
 30
0.0
 11
370.5419016296949
 21
362.0170999324532
 31
0.0
  0
LINE
  5
118F
330
2
100
AcDbEntity
  8
0
100
AcDbLine
 10
373.9419016296955
 20
357.0170999324532
 30
0.0
 11
373.5419016296958
 21
357.7099202554805
 31
0.0
  0
LINE
  5
1190
330
2
100
AcDbEntity
  8
0
100
AcDbLine
 10
379.5419016296954
 20
357.0170999324532
 30
0.0
 11
379.5419016296949
 21
367.0170999324533
 31
0.0
  0
LINE
  5
1191
330
2
100
AcDbEntity
  8
0
100
AcDbLine
 10
373.9419016296955
 20
357.0170999324532
 30
0.0
 11
373.9419016296955
 21
367.0170999324533
 31
0.0
  0
LINE
  5
1192
330
2
100
AcDbEntity
  8
0
100
AcDbLine
 10
381.0419016296958
 20
357.0170999324532
 30
0.0
 11
373.9419016296955
 21
357.0170999324532
 31
0.0
  0
LINE
  5
1193
330
2
100
AcDbEntity
  8
0
100
AcDbLine
 10
381.0419016296958
 20
367.0170999324533
 30
0.0
 11
373.9419016296955
 21
367.0170999324533
 31
0.0
  0
LINE
  5
1194
330
2
100
AcDbEntity
  8
0
100
AcDbLine
 10
373.9419016296955
 20
367.0170999324533
 30
0.0
 11
373.5419016296958
 21
366.324279609426
 31
0.0
  0
LINE
  5
1195
330
2
100
AcDbEntity
  8
0
100
AcDbLine
 10
373.5419016296958
 20
357.7099202554805
 30
0.0
 11
373.5419016296958
 21
366.324279609426
 31
0.0
  0
LINE
  5
1196
330
2
100
AcDbEntity
  8
0
100
AcDbLine
 10
598.2987956586283
 20
728.1261126515287
 30
0.0
 11
663.1440951202474
 21
728.1261126515305
 31
0.0
  0
LINE
  5
1197
330
2
100
AcDbEntity
  8
0
100
AcDbLine
 10
671.1356589518098
 20
718.2118990891572
 30
0.0
 11
670.3072318270641
 21
719.040326213902
 31
0.0
  0
LINE
  5
1198
330
2
100
AcDbEntity
  8
0
100
AcDbLine
 10
718.7214453892428
 20
702.1261126515269
 30
0.0
 11
718.6296609667969
 21
712.6435657224479
 31
0.0
  0
ARC
  5
1199
330
2
100
AcDbEntity
  8
0
100
AcDbCircle
 10
717.664682670218
 20
708.6261126514541
 30
0.0
 40
1.0
100
AcDbArc
 50
0.4999999999654926
 51
90.0
  0
LINE
  5
119A
330
2
100
AcDbEntity
  8
0
100
AcDbLine
 10
718.7214453894374
 20
702.1261126515287
 30
0.0
 11
579.7214453894374
 21
702.1261126515214
 31
0.0
  0
LINE
  5
119B
330
2
100
AcDbEntity
  8
0
100
AcDbLine
 10
682.7214453894365
 20
714.6261126514523
 30
0.0
 11
707.2214453894375
 21
714.6261126514523
 31
0.0
  0
ARC
  5
119C
330
2
100
AcDbEntity
  8
0
100
AcDbCircle
 10
716.6297371206691
 20
712.6261126514505
 30
0.0
 40
2.0
100
AcDbArc
 50
0.4999999999654926
 51
72.79123793167349
  0
LINE
  5
119D
330
2
100
AcDbEntity
  8
0
100
AcDbLine
 10
581.8393342613843
 20
717.6261126515323
 30
0.0
 11
679.7214453894365
 21
717.6261126515287
 31
0.0
  0
ARC
  5
119E
330
2
100
AcDbEntity
  8
0
100
AcDbCircle
 10
581.8393342613843
 20
715.6261126515324
 30
0.0
 40
2.0
100
AcDbArc
 50
90.0
 51
179.5000000000344
  0
ARC
  5
119F
330
2
100
AcDbEntity
  8
0
100
AcDbCircle
 10
596.7738827529545
 20
715.6261126515324
 30
0.0
 40
2.0
100
AcDbArc
 50
90.0
 51
179.5000000000344
  0
LINE
  5
11A0
330
2
100
AcDbEntity
  8
0
100
AcDbLine
 10
663.5214453894367
 20
723.6261126515287
 30
0.0
 11
663.7214453894365
 21
723.4261126515298
 31
0.0
  0
LINE
  5
11A1
330
2
100
AcDbEntity
  8
0
100
AcDbLine
 10
665.7214453894365
 20
720.1261126515287
 30
0.0
 11
666.2214453894365
 21
719.6261126515287
 31
0.0
  0
LINE
  5
11A2
330
2
100
AcDbEntity
  8
0
100
AcDbLine
 10
668.8930182646908
 20
719.6261126515287
 30
0.0
 11
666.2214453894365
 21
719.6261126515287
 31
0.0
  0
LINE
  5
11A3
330
2
100
AcDbEntity
  8
0
100
AcDbLine
 10
663.7214453894365
 20
723.4261126515298
 30
0.0
 11
663.7214453894365
 21
720.1261126515287
 31
0.0
  0
LINE
  5
11A4
330
2
100
AcDbEntity
  8
0
100
AcDbLine
 10
663.7214453894365
 20
727.1261126515287
 30
0.0
 11
663.1440951202474
 21
728.1261126515287
 31
0.0
  0
LINE
  5
11A5
330
2
100
AcDbEntity
  8
0
100
AcDbLine
 10
663.7214453894365
 20
727.1261126515305
 30
0.0
 11
663.7214453894365
 21
725.8261126515294
 31
0.0
  0
LINE
  5
11A6
330
2
100
AcDbEntity
  8
0
100
AcDbLine
 10
663.0214453894367
 20
725.4261126515298
 30
0.0
 11
663.0214453894367
 21
723.8261126515294
 31
0.0
  0
LINE
  5
11A7
330
2
100
AcDbEntity
  8
0
100
AcDbLine
 10
579.7214453894374
 20
702.1261126515214
 30
0.0
 11
579.8394104152565
 21
715.6435657225297
 31
0.0
  0
ARC
  5
11A8
330
2
100
AcDbEntity
  8
0
100
AcDbCircle
 10
580.7782081084631
 20
708.6261126514541
 30
0.0
 40
1.0
100
AcDbArc
 50
90.0
 51
179.5000000000344
  0
LINE
  5
11A9
330
2
100
AcDbEntity
  8
0
100
AcDbLine
 10
590.3072318270641
 20
718.2118990891572
 30
0.0
 11
591.1356589518034
 21
719.0403262138966
 31
0.0
  0
LINE
  5
11AA
330
2
100
AcDbEntity
  8
0
100
AcDbLine
 10
595.7214453894374
 20
720.1261126515251
 30
0.0
 11
665.7214453894338
 21
720.1261126515324
 31
0.0
  0
LINE
  5
11AB
330
2
100
AcDbEntity
  8
0
100
AcDbLine
 10
597.9214453894363
 20
723.6261126515251
 30
0.0
 11
663.5214453894413
 21
723.6261126515251
 31
0.0
  0
LINE
  5
11AC
330
2
100
AcDbEntity
  8
0
100
AcDbLine
 10
597.9214453894363
 20
723.6261126515251
 30
0.0
 11
597.7214453894365
 21
723.4261126515243
 31
0.0
  0
LINE
  5
11AD
330
2
100
AcDbEntity
  8
0
100
AcDbLine
 10
597.7214453894365
 20
723.4261126515243
 30
0.0
 11
597.7214453894374
 21
720.1261126515251
 31
0.0
  0
LINE
  5
11AE
330
2
100
AcDbEntity
  8
0
100
AcDbLine
 10
595.7214453894374
 20
720.1261126515251
 30
0.0
 11
595.2214453894375
 21
719.6261126515251
 31
0.0
  0
LINE
  5
11AF
330
2
100
AcDbEntity
  8
0
100
AcDbLine
 10
592.5498725141769
 20
719.6261126515232
 30
0.0
 11
666.2214453894365
 21
719.6261126515287
 31
0.0
  0
LINE
  5
11B0
330
2
100
AcDbEntity
  8
0
100
AcDbLine
 10
597.7214453894365
 20
727.126112651525
 30
0.0
 11
598.2987956586256
 21
728.1261126515251
 31
0.0
  0
LINE
  5
11B1
330
2
100
AcDbEntity
  8
0
100
AcDbLine
 10
597.9214453894363
 20
725.6261126515251
 30
0.0
 11
663.5214453894367
 21
725.6261126515251
 31
0.0
  0
LINE
  5
11B2
330
2
100
AcDbEntity
  8
0
100
AcDbLine
 10
597.7214453894365
 20
727.126112651525
 30
0.0
 11
597.7214453894365
 21
725.826112651524
 31
0.0
  0
LINE
  5
11B3
330
2
100
AcDbEntity
  8
0
100
AcDbLine
 10
598.4214453894363
 20
725.4261126515244
 30
0.0
 11
598.4214453894363
 21
723.8261126515258
 31
0.0
  0
ARC
  5
11B4
330
2
100
AcDbEntity
  8
0
100
AcDbCircle
 10
592.5498725141769
 20
717.6261126515233
 30
0.0
 40
2.0
100
AcDbArc
 50
90.0
 51
134.9999999999766
  0
ARC
  5
11B5
330
2
100
AcDbEntity
  8
0
100
AcDbCircle
 10
588.8930182646908
 20
719.6261126515305
 30
0.0
 40
2.0
100
AcDbArc
 50
270.0
 51
314.9999999999769
  0
ARC
  5
11B6
330
2
100
AcDbEntity
  8
0
100
AcDbCircle
 10
668.8930182646908
 20
717.6261126515287
 30
0.0
 40
2.0
100
AcDbArc
 50
45.00000000002332
 51
90.0
  0
ARC
  5
11B7
330
2
100
AcDbEntity
  8
0
100
AcDbCircle
 10
672.5498725141823
 20
719.6261126515305
 30
0.0
 40
2.0
100
AcDbArc
 50
225.000000000023
 51
270.0
  0
ARC
  5
11B8
330
2
100
AcDbEntity
  8
0
100
AcDbCircle
 10
679.7214453894365
 20
715.6261126515287
 30
0.0
 40
2.0
100
AcDbArc
 50
0.0
 51
90.0
  0
ARC
  5
11B9
330
2
100
AcDbEntity
  8
0
100
AcDbCircle
 10
682.7214453894365
 20
715.6261126514523
 30
0.0
 40
1.0
100
AcDbArc
 50
180.0
 51
270.0
  0
ARC
  5
11BA
330
2
100
AcDbEntity
  8
0
100
AcDbCircle
 10
597.9214453894363
 20
725.8261126515257
 30
0.0
 40
0.2
100
AcDbArc
 50
180.0
 51
270.0
  0
ARC
  5
11BB
330
2
100
AcDbEntity
  8
0
100
AcDbCircle
 10
598.2214453894365
 20
725.4261126515244
 30
0.0
 40
0.2
100
AcDbArc
 50
0.0
 51
90.0
  0
ARC
  5
11BC
330
2
100
AcDbEntity
  8
0
100
AcDbCircle
 10
598.2214453894365
 20
723.8261126515258
 30
0.0
 40
0.2
100
AcDbArc
 50
270.0
 51
0.0
  0
ARC
  5
11BD
330
2
100
AcDbEntity
  8
0
100
AcDbCircle
 10
663.5214453894367
 20
725.8261126515294
 30
0.0
 40
0.2
100
AcDbArc
 50
270.0
 51
0.0
  0
ARC
  5
11BE
330
2
100
AcDbEntity
  8
0
100
AcDbCircle
 10
663.2214453894365
 20
725.4261126515298
 30
0.0
 40
0.2
100
AcDbArc
 50
89.99999999997395
 51
180.0
  0
ARC
  5
11BF
330
2
100
AcDbEntity
  8
0
100
AcDbCircle
 10
663.2214453894365
 20
723.8261126515294
 30
0.0
 40
0.2
100
AcDbArc
 50
180.0
 51
270.0
  0
LINE
  5
11C0
330
2
100
AcDbEntity
  8
0
100
AcDbLine
 10
597.7214453894365
 20
727.126112651525
 30
0.0
 11
663.7214453894365
 21
727.1261126515287
 31
0.0
  0
LINE
  5
11C1
330
2
100
AcDbEntity
  8
0
100
AcDbLine
 10
597.7214453894365
 20
723.4261126515243
 30
0.0
 11
663.7214453894365
 21
723.4261126515298
 31
0.0
  0
LINE
  5
11C2
330
2
100
AcDbEntity
  8
0
100
AcDbLine
 10
681.7214453894393
 20
715.6261126515287
 30
0.0
 11
681.7214453894393
 21
702.1261126515269
 31
0.0
  0
LINE
  5
11C3
330
2
100
AcDbEntity
  8
0
100
AcDbLine
 10
705.8394534327434
 20
709.6261126514541
 30
0.0
 11
717.664682670218
 21
709.6261126514541
 31
0.0
  0
LINE
  5
11C4
330
2
100
AcDbEntity
  8
0
100
AcDbLine
 10
705.3396247702566
 20
710.1130241773002
 30
0.0
 11
705.2724462975437
 21
712.6784665480713
 31
0.0
  0
ARC
  5
11C5
330
2
100
AcDbEntity
  8
0
100
AcDbCircle
 10
703.2731316475928
 20
712.6261126514541
 30
0.0
 40
2.0
100
AcDbArc
 50
1.499999999989693
 51
90.0
  0
ARC
  5
11C6
330
2
100
AcDbEntity
  8
0
100
AcDbCircle
 10
705.8394534327434
 20
710.1261126514541
 30
0.0
 40
0.5
100
AcDbArc
 50
181.4999999999897
 51
270.0
  0
LINE
  5
11C7
330
2
100
AcDbEntity
  8
0
100
AcDbLine
 10
594.7300961019062
 20
710.6173861159545
 30
0.0
 11
594.7739589068259
 21
715.6435657225297
 31
0.0
  0
LINE
  5
11C8
330
2
100
AcDbEntity
  8
0
100
AcDbLine
 10
580.7782081084631
 20
709.6261126514541
 30
0.0
 11
593.7301341788423
 21
709.6261126514541
 31
0.0
  0
ARC
  5
11C9
330
2
100
AcDbEntity
  8
0
100
AcDbCircle
 10
593.7301341788423
 20
710.6261126514541
 30
0.0
 40
1.0
100
AcDbArc
 50
270.0
 51
359.5000000000345
  0
LINE
  5
11CA
330
2
100
AcDbEntity
  8
0
100
AcDbLine
 10
587.7214453894366
 20
708.6348391869519
 30
0.0
 11
587.7214453894366
 21
702.1261126515214
 31
0.0
  0
LINE
  5
11CB
330
2
100
AcDbEntity
  8
0
100
AcDbLine
 10
590.7214453894365
 20
708.6348391869519
 30
0.0
 11
590.7214453894365
 21
702.1261126515214
 31
0.0
  0
LINE
  5
11CC
330
2
100
AcDbEntity
  8
0
100
AcDbLine
 10
610.1813462122617
 20
702.1261126515232
 30
0.0
 11
610.1813462122617
 21
715.6435657225297
 31
0.0
  0
LINE
  5
11CD
330
2
100
AcDbEntity
  8
0
100
AcDbLine
 10
673.7214453894374
 20
715.6435657225297
 30
0.0
 11
673.7214453894374
 21
702.1261126515214
 31
0.0
  0
LINE
  5
11CE
330
2
100
AcDbEntity
  8
0
100
AcDbLine
 10
670.7214453894366
 20
715.6435657225297
 30
0.0
 11
670.7214453894366
 21
702.1261126515214
 31
0.0
  0
LINE
  5
11CF
330
2
100
AcDbEntity
  8
0
100
AcDbLine
 10
651.2615445666114
 20
702.1261126515232
 30
0.0
 11
651.2615445666114
 21
715.6435657225297
 31
0.0
  0
LINE
  5
11D0
330
2
100
AcDbEntity
  8
CENTER
  6
CENS
100
AcDbLine
 10
587.721445389431
 20
697.6699734609678
 30
0.0
 11
587.721445389431
 21
720.1261126514541
 31
0.0
  0
LINE
  5
11D1
330
2
100
AcDbEntity
  8
0
100
AcDbLine
 10
592.721445389431
 20
716.7261126514545
 30
0.0
 11
592.0286250664029
 21
717.1261126514541
 31
0.0
  0
LINE
  5
11D2
330
2
100
AcDbEntity
  8
0
100
AcDbLine
 10
592.721445389431
 20
711.1261126514541
 30
0.0
 11
582.7214453894311
 21
711.1261126514541
 31
0.0
  0
LINE
  5
11D3
330
2
100
AcDbEntity
  8
0
100
AcDbLine
 10
592.721445389431
 20
716.7261126514545
 30
0.0
 11
582.7214453894311
 21
716.7261126514545
 31
0.0
  0
LINE
  5
11D4
330
2
100
AcDbEntity
  8
0
100
AcDbLine
 10
592.721445389431
 20
709.6261126514541
 30
0.0
 11
592.721445389431
 21
716.7261126514545
 31
0.0
  0
LINE
  5
11D5
330
2
100
AcDbEntity
  8
0
100
AcDbLine
 10
582.7214453894311
 20
709.6261126514541
 30
0.0
 11
582.7214453894311
 21
716.7261126514545
 31
0.0
  0
LINE
  5
11D6
330
2
100
AcDbEntity
  8
0
100
AcDbLine
 10
582.7214453894311
 20
716.7261126514545
 30
0.0
 11
583.4142657124584
 21
717.1261126514541
 31
0.0
  0
LINE
  5
11D7
330
2
100
AcDbEntity
  8
0
100
AcDbLine
 10
592.0286250664029
 20
717.1261126514541
 30
0.0
 11
583.4142657124584
 21
717.1261126514541
 31
0.0
  0
LINE
  5
11D8
330
2
100
AcDbEntity
  8
CENTER
  6
CENS
100
AcDbLine
 10
712.2214453894375
 20
697.6699734609678
 30
0.0
 11
712.2214453894375
 21
720.1261126514541
 31
0.0
  0
LINE
  5
11D9
330
2
100
AcDbEntity
  8
0
100
AcDbLine
 10
717.2214453894374
 20
716.7261126514545
 30
0.0
 11
716.5286250664101
 21
717.1261126514541
 31
0.0
  0
LINE
  5
11DA
330
2
100
AcDbEntity
  8
0
100
AcDbLine
 10
717.2214453894374
 20
711.1261126514541
 30
0.0
 11
707.2214453894375
 21
711.1261126514541
 31
0.0
  0
LINE
  5
11DB
330
2
100
AcDbEntity
  8
0
100
AcDbLine
 10
717.2214453894374
 20
716.7261126514545
 30
0.0
 11
707.2214453894375
 21
716.7261126514545
 31
0.0
  0
LINE
  5
11DC
330
2
100
AcDbEntity
  8
0
100
AcDbLine
 10
717.2214453894374
 20
709.6261126514541
 30
0.0
 11
717.2214453894374
 21
716.7261126514545
 31
0.0
  0
LINE
  5
11DD
330
2
100
AcDbEntity
  8
0
100
AcDbLine
 10
707.2214453894375
 20
709.6261126514541
 30
0.0
 11
707.2214453894375
 21
716.7261126514545
 31
0.0
  0
LINE
  5
11DE
330
2
100
AcDbEntity
  8
0
100
AcDbLine
 10
707.2214453894375
 20
716.7261126514545
 30
0.0
 11
707.9142657124647
 21
717.1261126514541
 31
0.0
  0
LINE
  5
11DF
330
2
100
AcDbEntity
  8
0
100
AcDbLine
 10
716.5286250664101
 20
717.1261126514541
 30
0.0
 11
707.9142657124647
 21
717.1261126514541
 31
0.0
  0
LINE
  5
11E0
330
2
100
AcDbEntity
  8
0
100
AcDbLine
 10
415.3088731641486
 20
105.449294768739
 30
0.0
 11
415.3088731641486
 21
140.6686311547906
 31
0.0
  0
LINE
  5
11E1
330
2
100
AcDbEntity
  8
0
100
AcDbLine
 10
415.3088731641486
 20
172.2299583826857
 30
0.0
 11
415.3088731641486
 21
207.4492947687391
 31
0.0
  0
LINE
  5
11E2
330
2
100
AcDbEntity
  8
CENTER
100
AcDbLine
 10
443.3088731641486
 20
95.69364706688025
 30
0.0
 11
443.3088731641486
 21
217.2049424705979
 31
0.0
  0
LINE
  5
11E3
330
2
100
AcDbEntity
  8
0
100
AcDbLine
 10
481.3088731641477
 20
106.0252680429289
 30
0.0
 11
481.3088731641477
 21
141.2234805017956
 31
0.0
  0
LINE
  5
11E4
330
2
100
AcDbEntity
  8
0
100
AcDbLine
 10
481.3088731641477
 20
171.6751090356806
 30
0.0
 11
481.3088731641477
 21
206.8733214945492
 31
0.0
  0
LINE
  5
11E5
330
2
100
AcDbEntity
  8
CENTER
100
AcDbLine
 10
523.308873164149
 20
156.4492947687391
 30
0.0
 11
377.3089801641489
 21
156.4492947687391
 31
0.0
  0
LINE
  5
11E6
330
2
100
AcDbEntity
  8
0
100
AcDbLine
 10
486.3088731641477
 20
111.4492947687391
 30
0.0
 11
486.3088731641458
 21
140.9029637952403
 31
0.0
  0
LINE
  5
11E7
330
2
100
AcDbEntity
  8
0
100
AcDbLine
 10
486.3088731641436
 20
171.9956257422377
 30
0.0
 11
486.3088731641417
 21
201.449294768739
 31
0.0
  0
LINE
  5
11E8
330
2
100
AcDbEntity
  8
0
100
AcDbLine
 10
481.3088731641477
 20
111.4492947687391
 30
0.0
 11
486.3088731641477
 21
111.4492947687391
 31
0.0
  0
LINE
  5
11E9
330
2
100
AcDbEntity
  8
0
100
AcDbLine
 10
481.3088731641477
 20
201.449294768739
 30
0.0
 11
486.3088731641477
 21
201.449294768739
 31
0.0
  0
LINE
  5
11EA
330
2
100
AcDbEntity
  8
0
100
AcDbLine
 10
415.3088731641486
 20
207.4492947687391
 30
0.0
 11
481.3088731641477
 21
206.8733214945492
 31
0.0
  0
LINE
  5
11EB
330
2
100
AcDbEntity
  8
0
100
AcDbLine
 10
415.3088731641486
 20
105.449294768739
 30
0.0
 11
481.3088731641477
 21
106.0252680429289
 31
0.0
  0
LINE
  5
11EC
330
2
100
AcDbEntity
  8
0
100
AcDbLine
 10
500.3088731641486
 20
188.5179172191252
 30
0.0
 11
500.3088731641486
 21
173.4491985541222
 31
0.0
  0
LINE
  5
11ED
330
2
100
AcDbEntity
  8
0
100
AcDbLine
 10
500.308873164149
 20
139.4492905541224
 30
0.0
 11
500.3088731641495
 21
124.3806723183511
 31
0.0
  0
LINE
  5
11EE
330
2
100
AcDbEntity
  8
0
100
AcDbLine
 10
488.2390741707443
 20
122.0278081002775
 30
0.0
 11
498.3786721575541
 21
122.3818906643132
 31
0.0
  0
LINE
  5
11EF
330
2
100
AcDbEntity
  8
0
100
AcDbLine
 10
488.2390741707443
 20
190.8707814371988
 30
0.0
 11
498.3786721575537
 21
190.516698873163
 31
0.0
  0
ARC
  5
11F0
330
2
100
AcDbEntity
  8
0
100
AcDbCircle
 10
498.3088731641486
 20
188.5179172191252
 30
0.0
 40
2.0
100
AcDbArc
 50
0.0
 51
87.99999999999636
  0
ARC
  5
11F1
330
2
100
AcDbEntity
  8
0
100
AcDbCircle
 10
488.3088731641491
 20
192.8695630912366
 30
0.0
 40
2.0
100
AcDbArc
 50
180.0
 51
267.9999999999963
  0
ARC
  5
11F2
330
2
100
AcDbEntity
  8
0
100
AcDbCircle
 10
498.3088731641495
 20
124.3806723183511
 30
0.0
 40
2.0
100
AcDbArc
 50
272.0000000000036
 51
0.0
  0
ARC
  5
11F3
330
2
100
AcDbEntity
  8
0
100
AcDbCircle
 10
488.3088731641491
 20
120.0290264462378
 30
0.0
 40
2.0
100
AcDbArc
 50
92.00000000000365
 51
180.0
  0
LINE
  5
11F4
330
2
100
AcDbEntity
  8
0
100
AcDbLine
 10
415.3088731641486
 20
196.4492947687354
 30
0.0
 11
480.3088731641476
 21
196.4492947687354
 31
0.0
  0
LINE
  5
11F5
330
2
100
AcDbEntity
  8
0
100
AcDbLine
 10
415.3088731641486
 20
199.4492947687372
 30
0.0
 11
480.3088731641476
 21
199.4492947687372
 31
0.0
  0
LINE
  5
11F6
330
2
100
AcDbEntity
  8
0
100
AcDbLine
 10
415.3088731641486
 20
196.4492947687354
 30
0.0
 11
480.3088731641476
 21
196.4492947687354
 31
0.0
  0
LINE
  5
11F7
330
2
100
AcDbEntity
  8
0
100
AcDbLine
 10
415.3088731641486
 20
176.9893939459084
 30
0.0
 11
480.3088731641476
 21
176.9893939459084
 31
0.0
  0
LINE
  5
11F8
330
2
100
AcDbEntity
  8
0
100
AcDbLine
 10
415.3088731641486
 20
116.4492947687372
 30
0.0
 11
480.3088731641476
 21
116.4492947687372
 31
0.0
  0
LINE
  5
11F9
330
2
100
AcDbEntity
  8
0
100
AcDbLine
 10
415.3088731641486
 20
113.4492947687391
 30
0.0
 11
480.3088731641476
 21
113.4492947687391
 31
0.0
  0
LINE
  5
11FA
330
2
100
AcDbEntity
  8
0
100
AcDbLine
 10
415.3088731641486
 20
116.4492947687372
 30
0.0
 11
480.3088731641476
 21
116.4492947687372
 31
0.0
  0
LINE
  5
11FB
330
2
100
AcDbEntity
  8
0
100
AcDbLine
 10
415.3088731641486
 20
135.9091955915678
 30
0.0
 11
480.3088731641476
 21
135.9091955915678
 31
0.0
  0
LINE
  5
11FC
330
2
100
AcDbEntity
  8
0
100
AcDbLine
 10
389.3088731641431
 20
124.0266450379309
 30
0.0
 11
389.3088731641431
 21
139.4492905541224
 31
0.0
  0
LINE
  5
11FD
330
2
100
AcDbEntity
  8
0
100
AcDbLine
 10
389.3088731641431
 20
173.4492905541224
 30
0.0
 11
389.3088731641431
 21
188.8719444995491
 31
0.0
  0
LINE
  5
11FE
330
2
100
AcDbEntity
  8
0
100
AcDbLine
 10
390.3088731641431
 20
130.449294768739
 30
0.0
 11
390.3088731641431
 21
139.4492905541224
 31
0.0
  0
LINE
  5
11FF
330
2
100
AcDbEntity
  8
0
100
AcDbLine
 10
390.3088731641431
 20
173.4492905541224
 30
0.0
 11
390.3088731641431
 21
182.4492947687391
 31
0.0
  0
LINE
  5
1200
330
2
100
AcDbEntity
  8
0
100
AcDbLine
 10
398.3088731641431
 20
183.3445510824636
 30
0.0
 11
398.3088731641431
 21
173.4492905541224
 31
0.0
  0
LINE
  5
1201
330
2
100
AcDbEntity
  8
0
100
AcDbLine
 10
398.3088731641431
 20
139.4492905541224
 30
0.0
 11
398.3088731641431
 21
129.5540384550145
 31
0.0
  0
LINE
  5
1202
330
2
100
AcDbEntity
  8
0
100
AcDbLine
 10
399.2230867265165
 20
196.8635083311106
 30
0.0
 11
398.3946596017707
 21
196.0350812063657
 31
0.0
  0
LINE
  5
1203
330
2
100
AcDbEntity
  8
0
100
AcDbLine
 10
399.8088731641404
 20
107.5671836406868
 30
0.0
 11
399.8088731641408
 21
130.0751270092801
 31
0.0
  0
LINE
  5
1204
330
2
100
AcDbEntity
  8
0
100
AcDbLine
 10
399.8088731641427
 20
182.8234625281943
 30
0.0
 11
399.8088731641431
 21
205.3314058967913
 31
0.0
  0
ARC
  5
1205
330
2
100
AcDbEntity
  8
0
100
AcDbCircle
 10
401.8088731641404
 20
107.5671836406868
 30
0.0
 40
2.0
100
AcDbArc
 50
180.0
 51
269.5000000000084
  0
ARC
  5
1206
330
2
100
AcDbEntity
  8
0
100
AcDbCircle
 10
401.8088731641404
 20
122.5017321322553
 30
0.0
 40
2.0
100
AcDbArc
 50
180.0
 51
269.5000000000084
  0
LINE
  5
1207
330
2
100
AcDbEntity
  8
0
100
AcDbLine
 10
398.3088731641431
 20
182.4492947687391
 30
0.0
 11
390.3088731641431
 21
182.4492947687391
 31
0.0
  0
LINE
  5
1208
330
2
100
AcDbEntity
  8
0
100
AcDbLine
 10
393.8088731641432
 20
189.2492947687383
 30
0.0
 11
394.0088731641429
 21
189.4492947687391
 31
0.0
  0
LINE
  5
1209
330
2
100
AcDbEntity
  8
0
100
AcDbLine
 10
397.3088731641431
 20
191.449294768739
 30
0.0
 11
397.8088731641431
 21
191.949294768739
 31
0.0
  0
LINE
  5
120A
330
2
100
AcDbEntity
  8
0
100
AcDbLine
 10
397.808873164144
 20
194.6208676439924
 30
0.0
 11
397.8088731641431
 21
191.949294768739
 31
0.0
  0
LINE
  5
120B
330
2
100
AcDbEntity
  8
0
100
AcDbLine
 10
394.0088731641429
 20
189.4492947687391
 30
0.0
 11
397.3088731641431
 21
189.4492947687391
 31
0.0
  0
LINE
  5
120C
330
2
100
AcDbEntity
  8
0
100
AcDbLine
 10
399.3991758576234
 20
183.3731016632805
 30
0.0
 11
398.3088731641431
 21
183.3445510824636
 31
0.0
  0
LINE
  5
120D
330
2
100
AcDbEntity
  8
0
100
AcDbLine
 10
390.3088731641431
 20
189.4492947687391
 30
0.0
 11
389.3088731641431
 21
188.8719444995491
 31
0.0
  0
LINE
  5
120E
330
2
100
AcDbEntity
  8
0
100
AcDbLine
 10
390.3088731641431
 20
189.4492947687391
 30
0.0
 11
391.6088731641433
 21
189.4492947687391
 31
0.0
  0
LINE
  5
120F
330
2
100
AcDbEntity
  8
0
100
AcDbLine
 10
392.0088731641429
 20
188.7492947687383
 30
0.0
 11
393.6088731641433
 21
188.7492947687383
 31
0.0
  0
LINE
  5
1210
330
2
100
AcDbEntity
  8
0
100
AcDbLine
 10
390.3088731641431
 20
182.4492947687391
 30
0.0
 11
389.3088731641431
 21
183.026645037929
 31
0.0
  0
LINE
  5
1211
330
2
100
AcDbEntity
  8
0
100
AcDbLine
 10
415.3088731641513
 20
105.449294768739
 30
0.0
 11
401.7914200931439
 21
105.5672597945572
 31
0.0
  0
ARC
  5
1212
330
2
100
AcDbEntity
  8
0
100
AcDbCircle
 10
408.8088731642195
 20
106.5060574877639
 30
0.0
 40
1.0
100
AcDbArc
 50
180.0
 51
269.5000000000084
  0
LINE
  5
1213
330
2
100
AcDbEntity
  8
0
100
AcDbLine
 10
399.2230867265165
 20
116.0350812063657
 30
0.0
 11
398.3946596017762
 21
116.8635083311051
 31
0.0
  0
LINE
  5
1214
330
2
100
AcDbEntity
  8
0
100
AcDbLine
 10
398.3088731641431
 20
130.449294768739
 30
0.0
 11
390.3088731641431
 21
130.449294768739
 31
0.0
  0
LINE
  5
1215
330
2
100
AcDbEntity
  8
0
100
AcDbLine
 10
397.3088731641486
 20
121.449294768739
 30
0.0
 11
397.3088731641477
 21
128.6471088273588
 31
0.0
  0
LINE
  5
1216
330
2
100
AcDbEntity
  8
0
100
AcDbLine
 10
397.3088731641409
 20
184.2514807101174
 30
0.0
 11
397.3088731641404
 21
191.4492947687354
 31
0.0
  0
LINE
  5
1217
330
2
100
AcDbEntity
  8
0
100
AcDbLine
 10
393.8088731641477
 20
123.649294768738
 30
0.0
 11
393.8088731641477
 21
128.6949977192394
 31
0.0
  0
LINE
  5
1218
330
2
100
AcDbEntity
  8
0
100
AcDbLine
 10
393.8088731641477
 20
184.2035918182369
 30
0.0
 11
393.8088731641477
 21
189.2492947687438
 31
0.0
  0
LINE
  5
1219
330
2
100
AcDbEntity
  8
0
100
AcDbLine
 10
393.8088731641477
 20
123.649294768738
 30
0.0
 11
394.0088731641484
 21
123.449294768739
 31
0.0
  0
LINE
  5
121A
330
2
100
AcDbEntity
  8
0
100
AcDbLine
 10
394.0088731641484
 20
123.449294768739
 30
0.0
 11
397.3088731641486
 21
123.449294768739
 31
0.0
  0
LINE
  5
121B
330
2
100
AcDbEntity
  8
0
100
AcDbLine
 10
397.3088731641486
 20
121.449294768739
 30
0.0
 11
397.8088731641486
 21
120.9492947687391
 31
0.0
  0
LINE
  5
121C
330
2
100
AcDbEntity
  8
0
100
AcDbLine
 10
397.8088731641495
 20
118.2777218934784
 30
0.0
 11
397.8088731641486
 21
128.7013384579327
 31
0.0
  0
LINE
  5
121D
330
2
100
AcDbEntity
  8
0
100
AcDbLine
 10
397.808873164144
 20
184.1972510795454
 30
0.0
 11
397.8088731641431
 21
191.949294768739
 31
0.0
  0
LINE
  5
121E
330
2
100
AcDbEntity
  8
0
100
AcDbLine
 10
390.3088731641431
 20
130.449294768739
 30
0.0
 11
389.3088731641431
 21
129.8719444995509
 31
0.0
  0
LINE
  5
121F
330
2
100
AcDbEntity
  8
0
100
AcDbLine
 10
390.3088731641486
 20
123.4492947687372
 30
0.0
 11
389.3088731641477
 21
124.0266450379272
 31
0.0
  0
LINE
  5
1220
330
2
100
AcDbEntity
  8
0
100
AcDbLine
 10
391.8088731641477
 20
123.649294768738
 30
0.0
 11
391.8088731641477
 21
128.575298833222
 31
0.0
  0
LINE
  5
1221
330
2
100
AcDbEntity
  8
0
100
AcDbLine
 10
391.8088731641477
 20
184.3232907042543
 30
0.0
 11
391.8088731641477
 21
189.2492947687383
 31
0.0
  0
LINE
  5
1222
330
2
100
AcDbEntity
  8
0
100
AcDbLine
 10
390.3088731641476
 20
123.4492947687372
 30
0.0
 11
391.6088731641479
 21
123.449294768739
 31
0.0
  0
LINE
  5
1223
330
2
100
AcDbEntity
  8
0
100
AcDbLine
 10
392.0088731641484
 20
124.1492947687379
 30
0.0
 11
393.6088731641479
 21
124.1492947687379
 31
0.0
  0
LINE
  5
1224
330
2
100
AcDbEntity
  8
0
100
AcDbLine
 10
399.3991758576229
 20
129.5254878741958
 30
0.0
 11
398.3088731641431
 21
129.5540384550145
 31
0.0
  0
ARC
  5
1225
330
2
100
AcDbEntity
  8
0
100
AcDbCircle
 10
399.8088731641495
 20
118.2777218934784
 30
0.0
 40
2.0
100
AcDbArc
 50
180.0
 51
225.0000000000091
  0
ARC
  5
1226
330
2
100
AcDbEntity
  8
0
100
AcDbCircle
 10
397.8088731641431
 20
114.6208676439924
 30
0.0
 40
2.0
100
AcDbArc
 50
0.0
 51
45.00000000000949
  0
ARC
  5
1227
330
2
100
AcDbEntity
  8
0
100
AcDbCircle
 10
399.808873164144
 20
194.6208676439924
 30
0.0
 40
2.0
100
AcDbArc
 50
134.9999999999905
 51
180.0
  0
ARC
  5
1228
330
2
100
AcDbEntity
  8
0
100
AcDbCircle
 10
397.8088731641431
 20
198.2777218934839
 30
0.0
 40
2.0
100
AcDbArc
 50
314.9999999999907
 51
0.0
  0
ARC
  5
1229
330
2
100
AcDbEntity
  8
0
100
AcDbCircle
 10
391.6088731641479
 20
123.649294768738
 30
0.0
 40
0.2
100
AcDbArc
 50
270.000000000026
 51
0.0
  0
ARC
  5
122A
330
2
100
AcDbEntity
  8
0
100
AcDbCircle
 10
392.0088731641484
 20
123.9492947687372
 30
0.0
 40
0.2
100
AcDbArc
 50
90.00000000002605
 51
180.0
  0
ARC
  5
122B
330
2
100
AcDbEntity
  8
0
100
AcDbCircle
 10
393.6088731641479
 20
123.9492947687391
 30
0.0
 40
0.2
100
AcDbArc
 50
0.0
 51
90.00000000002605
  0
ARC
  5
122C
330
2
100
AcDbEntity
  8
0
100
AcDbCircle
 10
391.6088731641433
 20
189.2492947687383
 30
0.0
 40
0.2
100
AcDbArc
 50
0.0
 51
90.0
  0
ARC
  5
122D
330
2
100
AcDbEntity
  8
0
100
AcDbCircle
 10
392.0088731641429
 20
188.949294768739
 30
0.0
 40
0.2
100
AcDbArc
 50
180.0
 51
270.0
  0
ARC
  5
122E
330
2
100
AcDbEntity
  8
0
100
AcDbCircle
 10
393.6088731641433
 20
188.949294768739
 30
0.0
 40
0.2
100
AcDbArc
 50
270.0
 51
0.0
  0
LINE
  5
122F
330
2
100
AcDbEntity
  8
0
100
AcDbLine
 10
390.3088731641486
 20
123.4492947687372
 30
0.0
 11
390.3088731641476
 21
128.2205625239071
 31
0.0
  0
LINE
  5
1230
330
2
100
AcDbEntity
  8
0
100
AcDbLine
 10
390.3088731641436
 20
184.6780270135728
 30
0.0
 11
390.3088731641431
 21
189.4492947687391
 31
0.0
  0
LINE
  5
1231
330
2
100
AcDbEntity
  8
0
100
AcDbLine
 10
394.0088731641484
 20
123.449294768739
 30
0.0
 11
394.0088731641475
 21
128.6954884792008
 31
0.0
  0
LINE
  5
1232
330
2
100
AcDbEntity
  8
0
100
AcDbLine
 10
394.0088731641438
 20
184.2031010582755
 30
0.0
 11
394.0088731641429
 21
189.4492947687391
 31
0.0
  0
LINE
  5
1233
330
2
100
AcDbEntity
  8
0
100
AcDbLine
 10
406.8175996997173
 20
120.4579454812078
 30
0.0
 11
401.7914200931439
 21
120.5018082861275
 31
0.0
  0
LINE
  5
1234
330
2
100
AcDbEntity
  8
0
100
AcDbLine
 10
407.8088731642195
 20
106.5060574877639
 30
0.0
 11
407.8088731642195
 21
119.457983558144
 31
0.0
  0
ARC
  5
1235
330
2
100
AcDbEntity
  8
0
100
AcDbCircle
 10
406.8088731642196
 20
119.457983558144
 30
0.0
 40
1.0
100
AcDbArc
 50
0.0
 51
89.5000000000345
  0
ARC
  5
1236
330
2
100
AcDbEntity
  8
0
100
AcDbCircle
 10
401.8088731641404
 20
205.3314058967913
 30
0.0
 40
2.0
100
AcDbArc
 50
90.49999999999155
 51
180.0
  0
ARC
  5
1237
330
2
100
AcDbEntity
  8
0
100
AcDbCircle
 10
401.8088731641404
 20
190.396857405221
 30
0.0
 40
2.0
100
AcDbArc
 50
90.49999999999155
 51
180.0
  0
LINE
  5
1238
330
2
100
AcDbEntity
  8
0
100
AcDbLine
 10
415.3088731641513
 20
207.4492947687372
 30
0.0
 11
401.7914200931439
 21
207.331329742919
 31
0.0
  0
ARC
  5
1239
330
2
100
AcDbEntity
  8
0
100
AcDbCircle
 10
408.8088731642195
 20
206.3925320497124
 30
0.0
 40
1.0
100
AcDbArc
 50
90.49999999999155
 51
180.0
  0
LINE
  5
123A
330
2
100
AcDbEntity
  8
0
100
AcDbLine
 10
406.8175996997173
 20
192.4406440562684
 30
0.0
 11
401.7914200931439
 21
192.3967812513488
 31
0.0
  0
LINE
  5
123B
330
2
100
AcDbEntity
  8
0
100
AcDbLine
 10
407.8088731642195
 20
206.3925320497124
 30
0.0
 11
407.8088731642195
 21
193.4406059793323
 31
0.0
  0
ARC
  5
123C
330
2
100
AcDbEntity
  8
0
100
AcDbCircle
 10
406.8088731642196
 20
193.4406059793323
 30
0.0
 40
1.0
100
AcDbArc
 50
270.4999999999654
 51
0.0
  0
LINE
  5
123D
330
2
100
AcDbEntity
  8
CENTER
  6
CENS
100
AcDbLine
 10
423.2172692758389
 20
199.449294768739
 30
0.0
 11
397.3088731642186
 21
199.449294768739
 31
0.0
  0
LINE
  5
123E
330
2
100
AcDbEntity
  8
0
100
AcDbLine
 10
400.7088731642191
 20
204.449294768739
 30
0.0
 11
400.3088731642195
 21
203.7564744457118
 31
0.0
  0
LINE
  5
123F
330
2
100
AcDbEntity
  8
0
100
AcDbLine
 10
406.308873164219
 20
204.449294768739
 30
0.0
 11
406.3088731642186
 21
194.449294768739
 31
0.0
  0
LINE
  5
1240
330
2
100
AcDbEntity
  8
0
100
AcDbLine
 10
400.7088731642191
 20
204.449294768739
 30
0.0
 11
400.7088731642191
 21
194.449294768739
 31
0.0
  0
LINE
  5
1241
330
2
100
AcDbEntity
  8
0
100
AcDbLine
 10
407.8088731642195
 20
204.449294768739
 30
0.0
 11
400.7088731642191
 21
204.449294768739
 31
0.0
  0
LINE
  5
1242
330
2
100
AcDbEntity
  8
0
100
AcDbLine
 10
407.8088731642195
 20
194.449294768739
 30
0.0
 11
400.7088731642191
 21
194.449294768739
 31
0.0
  0
LINE
  5
1243
330
2
100
AcDbEntity
  8
0
100
AcDbLine
 10
400.7088731642191
 20
194.449294768739
 30
0.0
 11
400.3088731642195
 21
195.1421150917663
 31
0.0
  0
LINE
  5
1244
330
2
100
AcDbEntity
  8
0
100
AcDbLine
 10
400.3088731642195
 20
203.7564744457118
 30
0.0
 11
400.3088731642195
 21
195.1421150917663
 31
0.0
  0
LINE
  5
1245
330
2
100
AcDbEntity
  8
CENTER
  6
CENS
100
AcDbLine
 10
423.2172692758389
 20
113.4492947687391
 30
0.0
 11
397.3088731642186
 21
113.4492947687391
 31
0.0
  0
LINE
  5
1246
330
2
100
AcDbEntity
  8
0
100
AcDbLine
 10
400.7088731642191
 20
108.4492947687391
 30
0.0
 11
400.3088731642195
 21
109.1421150917663
 31
0.0
  0
LINE
  5
1247
330
2
100
AcDbEntity
  8
0
100
AcDbLine
 10
406.308873164219
 20
108.4492947687391
 30
0.0
 11
406.3088731642186
 21
118.449294768739
 31
0.0
  0
LINE
  5
1248
330
2
100
AcDbEntity
  8
0
100
AcDbLine
 10
400.7088731642191
 20
108.4492947687391
 30
0.0
 11
400.7088731642191
 21
118.449294768739
 31
0.0
  0
LINE
  5
1249
330
2
100
AcDbEntity
  8
0
100
AcDbLine
 10
407.8088731642195
 20
108.4492947687391
 30
0.0
 11
400.7088731642191
 21
108.4492947687391
 31
0.0
  0
LINE
  5
124A
330
2
100
AcDbEntity
  8
0
100
AcDbLine
 10
407.8088731642195
 20
118.449294768739
 30
0.0
 11
400.7088731642191
 21
118.449294768739
 31
0.0
  0
LINE
  5
124B
330
2
100
AcDbEntity
  8
0
100
AcDbLine
 10
400.7088731642191
 20
118.449294768739
 30
0.0
 11
400.3088731642195
 21
117.7564744457118
 31
0.0
  0
LINE
  5
124C
330
2
100
AcDbEntity
  8
0
100
AcDbLine
 10
400.3088731642195
 20
109.1421150917663
 30
0.0
 11
400.3088731642195
 21
117.7564744457118
 31
0.0
  0
LINE
  5
124D
330
2
100
AcDbEntity
  8
CENTER
  6
CENS
100
AcDbLine
 10
505.308873164239
 20
162.6481539634911
 30
0.0
 11
505.308873164239
 21
181.050338144752
 31
0.0
  0
LINE
  5
124E
330
2
100
AcDbEntity
  8
0
100
AcDbLine
 10
480.3088731641491
 20
167.9492905541224
 30
0.0
 11
412.3089651641488
 21
167.9492905541224
 31
0.0
  0
LINE
  5
124F
330
2
100
AcDbEntity
  8
0
100
AcDbLine
 10
412.3089651641488
 20
167.4492905541224
 30
0.0
 11
401.3089801641489
 21
167.4492905541224
 31
0.0
  0
LINE
  5
1250
330
2
100
AcDbEntity
  8
0
100
AcDbLine
 10
401.033493211305
 20
173.4492905541224
 30
0.0
 11
387.3089801641489
 21
173.4492905541224
 31
0.0
  0
LINE
  5
1251
330
2
100
AcDbEntity
  8
0
100
AcDbLine
 10
400.1588821641493
 20
167.4492905541224
 30
0.0
 11
389.3089801641489
 21
167.4492905541224
 31
0.0
  0
LINE
  5
1252
330
2
100
AcDbEntity
  8
0
100
AcDbLine
 10
401.3089801641489
 20
167.9492905541224
 30
0.0
 11
400.1588821641493
 21
167.9492905541224
 31
0.0
  0
LINE
  5
1253
330
2
100
AcDbEntity
  8
0
100
AcDbLine
 10
389.3089801641489
 20
167.4492905541224
 30
0.0
 11
387.3089801641489
 21
168.6038925541211
 31
0.0
  0
LINE
  5
1254
330
2
100
AcDbEntity
  8
0
100
AcDbLine
 10
401.0334887931143
 20
139.4492905541224
 30
0.0
 11
387.3089801641489
 21
139.4492905541224
 31
0.0
  0
LINE
  5
1255
330
2
100
AcDbEntity
  8
0
100
AcDbLine
 10
400.1588821641493
 20
145.4492905541224
 30
0.0
 11
389.3089801641489
 21
145.4492905541224
 31
0.0
  0
LINE
  5
1256
330
2
100
AcDbEntity
  8
0
100
AcDbLine
 10
401.3089801641489
 20
144.9492905541224
 30
0.0
 11
400.1588821641493
 21
144.9492905541224
 31
0.0
  0
LINE
  5
1257
330
2
100
AcDbEntity
  8
0
100
AcDbLine
 10
389.3089801641489
 20
145.4492905541224
 30
0.0
 11
387.3089801641489
 21
144.2946885541219
 31
0.0
  0
LINE
  5
1258
330
2
100
AcDbEntity
  8
0
100
AcDbLine
 10
412.3089651641488
 20
167.9492905541224
 30
0.0
 11
412.3089651641488
 21
144.9492916401846
 31
0.0
  0
LINE
  5
1259
330
2
100
AcDbEntity
  8
0
100
AcDbLine
 10
387.3089801641489
 20
173.4492905541224
 30
0.0
 11
387.3089801641489
 21
139.4492905541224
 31
0.0
  0
LINE
  5
125A
330
2
100
AcDbEntity
  8
0
100
AcDbLine
 10
389.3089801641489
 20
145.4492905541224
 30
0.0
 11
389.3089801641489
 21
167.4492905541224
 31
0.0
  0
LINE
  5
125B
330
2
100
AcDbEntity
  8
0
100
AcDbLine
 10
401.3089801641489
 20
144.9492905541224
 30
0.0
 11
401.3089801641489
 21
167.9492905541224
 31
0.0
  0
LINE
  5
125C
330
2
100
AcDbEntity
  8
0
100
AcDbLine
 10
400.1588821641493
 20
144.9492905541224
 30
0.0
 11
400.1588821641493
 21
167.9492905541224
 31
0.0
  0
LINE
  5
125D
330
2
100
AcDbEntity
  8
0
100
AcDbLine
 10
513.3088731641491
 20
170.2492935541209
 30
0.0
 11
387.3089801641484
 21
170.2492935541209
 31
0.0
  0
LINE
  5
125E
330
2
100
AcDbEntity
  8
0
100
AcDbLine
 10
508.8088261777683
 20
144.9493054217887
 30
0.0
 11
501.8088261778201
 21
144.9493341158554
 31
0.0
  0
LINE
  5
125F
330
2
100
AcDbEntity
  8
0
100
AcDbLine
 10
513.3088731641491
 20
139.4492905541224
 30
0.0
 11
490.0007436972449
 21
139.4492905541224
 31
0.0
  0
LINE
  5
1260
330
2
100
AcDbEntity
  8
0
100
AcDbLine
 10
493.3089195953037
 20
144.9492905541224
 30
0.0
 11
493.3090107329734
 21
167.9492905541224
 31
0.0
  0
LINE
  5
1261
330
2
100
AcDbEntity
  8
0
100
AcDbLine
 10
494.458925595295
 20
144.9492857119762
 30
0.0
 11
494.4590167329833
 21
167.9492905541224
 31
0.0
  0
LINE
  5
1262
330
2
100
AcDbEntity
  8
0
100
AcDbLine
 10
501.8088261778201
 20
144.9493341158554
 30
0.0
 11
501.8089201504461
 21
167.949219554122
 31
0.0
  0
LINE
  5
1263
330
2
100
AcDbEntity
  8
0
100
AcDbLine
 10
480.3088731641486
 20
144.9492977185159
 30
0.0
 11
480.3088731641495
 21
167.9492905541224
 31
0.0
  0
LINE
  5
1264
330
2
100
AcDbEntity
  8
0
100
AcDbLine
 10
480.3088731641486
 20
145.4492176966319
 30
0.0
 11
493.3089203296784
 21
145.4492953963468
 31
0.0
  0
LINE
  5
1265
330
2
100
AcDbEntity
  8
0
100
AcDbLine
 10
501.8088283296204
 20
145.4492631158514
 30
0.0
 11
494.4589263296697
 21
145.4492905542025
 31
0.0
  0
LINE
  5
1266
330
2
100
AcDbEntity
  8
0
100
AcDbLine
 10
494.4589263297024
 20
145.4492997673128
 30
0.0
 11
494.6856338758529
 21
145.4493005013314
 31
0.0
  0
LINE
  5
1267
330
2
100
AcDbEntity
  8
0
100
AcDbLine
 10
494.458925595295
 20
144.9492857119762
 30
0.0
 11
493.3089195953037
 21
144.9492905541224
 31
0.0
  0
LINE
  5
1268
330
2
100
AcDbEntity
  8
0
100
AcDbLine
 10
508.8089201505107
 20
167.949219554122
 30
0.0
 11
501.8088731641491
 21
167.949219554122
 31
0.0
  0
LINE
  5
1269
330
2
100
AcDbEntity
  8
0
100
AcDbLine
 10
513.3088731641491
 20
173.4491985541222
 30
0.0
 11
490.0007098887912
 21
173.4491985541222
 31
0.0
  0
LINE
  5
126A
330
2
100
AcDbEntity
  8
0
100
AcDbLine
 10
493.3089651641488
 20
167.4492905541224
 30
0.0
 11
480.3088731641491
 21
167.4492905541224
 31
0.0
  0
LINE
  5
126B
330
2
100
AcDbEntity
  8
0
100
AcDbLine
 10
501.8088731641491
 20
167.4492905541224
 30
0.0
 11
494.4589711641486
 21
167.4492905541224
 31
0.0
  0
LINE
  5
126C
330
2
100
AcDbEntity
  8
0
  6
CONTINUOUS
 62
     7
100
AcDbLine
 10
503.3088731648498
 20
170.2492935541209
 30
0.0
 11
503.3088731648498
 21
173.449305554122
 31
0.0
  0
LINE
  5
126D
330
2
100
AcDbEntity
  8
0
  6
CONTINUOUS
 62
     4
100
AcDbLine
 10
502.8088731648498
 20
170.2492935541209
 30
0.0
 11
502.8088731648498
 21
173.449305554122
 31
0.0
  0
LINE
  5
126E
330
2
100
AcDbEntity
  8
0
100
AcDbLine
 10
494.4590167329833
 20
167.9492905541224
 30
0.0
 11
493.3089651641488
 21
167.9492905541224
 31
0.0
  0
LINE
  5
126F
330
2
100
AcDbEntity
  8
0
100
AcDbLine
 10
513.3088731641491
 20
173.4491985541222
 30
0.0
 11
513.3088731641491
 21
139.4492905541224
 31
0.0
  0
LINE
  5
1270
330
2
100
AcDbEntity
  8
0
100
AcDbLine
 10
511.308873164149
 20
167.4492905541224
 30
0.0
 11
513.3088731641491
 21
168.6038925541211
 31
0.0
  0
LINE
  5
1271
330
2
100
AcDbEntity
  8
0
100
AcDbLine
 10
511.308873164149
 20
167.4492905541224
 30
0.0
 11
508.8088731641481
 21
167.4492905541224
 31
0.0
  0
LINE
  5
1272
330
2
100
AcDbEntity
  8
0
  6
CONTINUOUS
 62
     4
100
AcDbLine
 10
507.8088731641481
 20
170.2492935541209
 30
0.0
 11
507.808873164149
 21
173.449305554122
 31
0.0
  0
LINE
  5
1273
330
2
100
AcDbEntity
  8
0
  6
CONTINUOUS
 62
     7
100
AcDbLine
 10
507.308873164149
 20
170.2492935541209
 30
0.0
 11
507.308873164149
 21
173.449305554122
 31
0.0
  0
LINE
  5
1274
330
2
100
AcDbEntity
  8
0
100
AcDbLine
 10
508.8089201505107
 20
167.949219554122
 30
0.0
 11
508.8088261777683
 21
144.9493054217887
 31
0.0
  0
LINE
  5
1275
330
2
100
AcDbEntity
  8
0
100
AcDbLine
 10
511.3088283295172
 20
145.449205727718
 30
0.0
 11
511.3089179989263
 21
167.4493164372847
 31
0.0
  0
LINE
  5
1276
330
2
100
AcDbEntity
  8
0
100
AcDbLine
 10
511.3088283295172
 20
145.449205727718
 30
0.0
 11
513.3088241882258
 21
144.294596554209
 31
0.0
  0
LINE
  5
1277
330
2
100
AcDbEntity
  8
0
100
AcDbLine
 10
511.3088283295172
 20
145.449205727718
 30
0.0
 11
508.808828329569
 21
145.4492344217847
 31
0.0
  0
LINE
  5
1278
330
2
100
AcDbEntity
  8
0
100
AcDbLine
 10
412.3089651641488
 20
145.4492905541224
 30
0.0
 11
401.3089801641489
 21
145.4492905541224
 31
0.0
  0
LINE
  5
1279
330
2
100
AcDbEntity
  8
0
100
AcDbLine
 10
480.3088731641486
 20
144.9492977185159
 30
0.0
 11
412.3089651641488
 21
144.9492916401846
 31
0.0
  0
LINE
  5
127A
330
2
100
AcDbEntity
  8
0
100
AcDbLine
 10
499.308873164149
 20
130.449294768739
 30
0.0
 11
499.308873164149
 21
139.4492905541224
 31
0.0
  0
LINE
  5
127B
330
2
100
AcDbEntity
  8
0
100
AcDbLine
 10
499.3088731641499
 20
173.4491985541222
 30
0.0
 11
499.3088731641495
 21
182.4492947687391
 31
0.0
  0
LINE
  5
127C
330
2
100
AcDbEntity
  8
0
100
AcDbLine
 10
491.3088731641486
 20
183.2136214746165
 30
0.0
 11
491.3088731641486
 21
173.4491985541222
 31
0.0
  0
LINE
  5
127D
330
2
100
AcDbEntity
  8
0
100
AcDbLine
 10
491.308873164149
 20
139.4492905541224
 30
0.0
 11
491.308873164149
 21
129.6849680628616
 31
0.0
  0
LINE
  5
127E
330
2
100
AcDbEntity
  8
0
100
AcDbLine
 10
491.3088731641486
 20
130.449294768739
 30
0.0
 11
499.308873164149
 21
130.449294768739
 31
0.0
  0
LINE
  5
127F
330
2
100
AcDbEntity
  8
0
100
AcDbLine
 10
499.308873164149
 20
130.449294768739
 30
0.0
 11
500.308873164149
 21
129.8719444995491
 31
0.0
  0
LINE
  5
1280
330
2
100
AcDbEntity
  8
0
100
AcDbLine
 10
490.829163877518
 20
129.6724064331061
 30
0.0
 11
491.308873164149
 21
129.6849680628616
 31
0.0
  0
LINE
  5
1281
330
2
100
AcDbEntity
  8
0
100
AcDbLine
 10
491.308873164149
 20
182.4492947687372
 30
0.0
 11
499.3088731641495
 21
182.4492947687372
 31
0.0
  0
LINE
  5
1282
330
2
100
AcDbEntity
  8
0
100
AcDbLine
 10
499.308873164149
 20
182.4492947687372
 30
0.0
 11
500.308873164149
 21
183.0266450379272
 31
0.0
  0
LINE
  5
1283
330
2
100
AcDbEntity
  8
0
100
AcDbLine
 10
490.8291638775184
 20
183.226183104372
 30
0.0
 11
491.3088731641495
 21
183.2136214746165
 31
0.0
  0
SPLINE
  5
1284
330
2
100
AcDbEntity
  8
HOJO
100
AcDbSpline
210
0.0
220
0.0
230
1.0
 70
     8
 71
     3
 72
    31
 73
    27
 74
     0
 42
0.0000000001
 43
0.0000000001
 40
1.006090418120999
 40
1.006090418120999
 40
1.006090418120999
 40
1.006090418120999
 40
2.214208887200965
 40
4.372114611977804
 40
7.908539174416501
 40
10.6869955506748
 40
13.51956819365521
 40
17.06216826888282
 40
20.99280379806764
 40
23.41299456382895
 40
30.91999047333559
 40
38.68894682021132
 40
50.81685278160026
 40
58.48584632197308
 40
70.31156128461208
 40
79.0586932432537
 40
89.49338633998356
 40
97.17441191234248
 40
107.8778879181509
 40
111.3472347353728
 40
114.8898348106004
 40
118.0447231005161
 40
122.3359256316152
 40
127.2105747731371
 40
132.3338294909638
 40
132.415244059103
 40
132.415244059103
 40
132.415244059103
 40
132.415244059103
 10
389.3088731641431
 20
185.1497000967516
 30
0.0
 10
389.6622165811844
 20
184.9540331236035
 30
0.0
 10
390.6683618493838
 20
184.4630252170368
 30
0.0
 10
393.004069556125
 20
184.1370838120179
 30
0.0
 10
395.7244970865261
 20
184.249017007021
 30
0.0
 10
399.0864823557188
 20
184.3355313221796
 30
0.0
 10
400.7463924646698
 20
181.2540849695192
 30
0.0
 10
400.6870484295167
 20
177.8604906411615
 30
0.0
 10
400.2096724017636
 20
174.480972271756
 30
0.0
 10
403.1770885975401
 20
170.1750381963498
 30
0.0
 10
410.0208007633336
 20
174.2962085041831
 30
0.0
 10
418.6575518746184
 20
170.4766217148222
 30
0.0
 10
428.0110627575498
 20
173.5092927480032
 30
0.0
 10
438.4662324028816
 20
171.141814508062
 30
0.0
 10
447.9041223955531
 20
174.1266349998109
 30
0.0
 10
458.0738536515062
 20
170.5082529039296
 30
0.0
 10
466.9850810441888
 20
173.4332826071727
 30
0.0
 10
476.6838838328316
 20
170.8825403163114
 30
0.0
 10
483.2467263403608
 20
172.0402700962818
 30
0.0
 10
490.3806180041596
 20
172.0364877496245
 30
0.0
 10
490.1804141478181
 20
176.4323269590545
 30
0.0
 10
489.5340265298067
 20
179.6952129152937
 30
0.0
 10
490.358025550321
 20
183.9747991851286
 30
0.0
 10
495.1780642483057
 20
185.3391401482909
 30
0.0
 10
498.7178871914838
 20
184.7700880808511
 30
0.0
 10
500.28443053745
 20
185.365447062371
 30
0.0
 10
500.3088731641486
 20
185.3749716311336
 30
0.0
  0
SPLINE
  5
1285
330
2
100
AcDbEntity
  8
HOJO
100
AcDbSpline
210
0.0
220
0.0
230
1.0
 70
     8
 71
     3
 72
    31
 73
    27
 74
     0
 42
0.0000000001
 43
0.0000000001
 40
1.006090418120999
 40
1.006090418120999
 40
1.006090418120999
 40
1.006090418120999
 40
2.214208887200965
 40
4.372114611977804
 40
7.908539174416501
 40
10.6869955506748
 40
13.51956819365521
 40
17.06216826888282
 40
20.99280379806764
 40
23.41299456382895
 40
30.91999047333559
 40
38.68894682021132
 40
50.81685278160026
 40
58.48584632197308
 40
70.31156128461208
 40
79.0586932432537
 40
89.49338633998356
 40
97.17441191234248
 40
107.8778879181509
 40
111.3472347353728
 40
114.8898348106004
 40
118.0447231005161
 40
122.3359256316152
 40
127.2105747731371
 40
132.3338294909638
 40
132.415244059103
 40
132.415244059103
 40
132.415244059103
 40
132.415244059103
 10
389.3088731641431
 20
127.7488894407247
 30
0.0
 10
389.6622165811844
 20
127.9445564138728
 30
0.0
 10
390.6683618493838
 20
128.4355643204394
 30
0.0
 10
393.004069556125
 20
128.7615057254584
 30
0.0
 10
395.7244970865261
 20
128.6495725304571
 30
0.0
 10
399.0864823557188
 20
128.5630582152985
 30
0.0
 10
400.7463924646698
 20
131.644504567957
 30
0.0
 10
400.6870484295167
 20
135.0380988963166
 30
0.0
 10
400.2096724017636
 20
138.4176172657203
 30
0.0
 10
403.1770885975401
 20
142.7235513411265
 30
0.0
 10
410.0208007633336
 20
138.6023810332949
 30
0.0
 10
418.6575518746184
 20
142.4219678226541
 30
0.0
 10
428.0110627575498
 20
139.3892967894749
 30
0.0
 10
438.4662324028816
 20
141.7567750294143
 30
0.0
 10
447.9041223955531
 20
138.7719545376654
 30
0.0
 10
458.0738536515062
 20
142.3903366335485
 30
0.0
 10
466.9850810441888
 20
139.4653069303054
 30
0.0
 10
476.6838838328316
 20
142.0160492211667
 30
0.0
 10
483.2467263403608
 20
140.8583194411945
 30
0.0
 10
490.3806180041596
 20
140.8621017878518
 30
0.0
 10
490.1804141478181
 20
136.4662625784217
 30
0.0
 10
489.5340265298067
 20
133.2033766221826
 30
0.0
 10
490.358025550321
 20
128.9237903523495
 30
0.0
 10
495.1780642483057
 20
127.5594493891854
 30
0.0
 10
498.7178871914838
 20
128.128501456627
 30
0.0
 10
500.28443053745
 20
127.5331424751071
 30
0.0
 10
500.3088731641486
 20
127.5236179063445
 30
0.0
  0
LINE
  5
1286
330
2
100
AcDbEntity
  8
0
100
AcDbLine
 10
499.308873164149
 20
182.4492947687372
 30
0.0
 11
491.3088731641486
 21
173.4491985541222
 31
0.0
  0
LINE
  5
1287
330
2
100
AcDbEntity
  8
0
100
AcDbLine
 10
491.3088731641486
 20
182.4492947687372
 30
0.0
 11
499.3088731641495
 21
173.4491985541222
 31
0.0
  0
LINE
  5
1288
330
2
100
AcDbEntity
  8
0
100
AcDbLine
 10
491.308873164149
 20
139.4492905541224
 30
0.0
 11
499.308873164149
 21
130.449294768739
 31
0.0
  0
LINE
  5
1289
330
2
100
AcDbEntity
  8
0
100
AcDbLine
 10
499.3088731641495
 20
139.4492905541224
 30
0.0
 11
491.3088731641486
 21
130.449294768739
 31
0.0
  0
LINE
  5
128A
330
2
100
AcDbEntity
  8
0
100
AcDbLine
 10
390.3088731641431
 20
182.4492947687391
 30
0.0
 11
398.3088731641431
 21
173.4492905541224
 31
0.0
  0
LINE
  5
128B
330
2
100
AcDbEntity
  8
0
100
AcDbLine
 10
398.3088731641431
 20
182.4492947687391
 30
0.0
 11
390.3088731641431
 21
173.4492905541224
 31
0.0
  0
LINE
  5
128C
330
2
100
AcDbEntity
  8
0
100
AcDbLine
 10
398.3088731641431
 20
139.4492905541224
 30
0.0
 11
390.3088731641431
 21
130.449294768739
 31
0.0
  0
LINE
  5
128D
330
2
100
AcDbEntity
  8
0
100
AcDbLine
 10
390.3088731641431
 20
139.4492905541224
 30
0.0
 11
398.3088731641431
 21
130.449294768739
 31
0.0
  0
LINE
  5
128E
330
2
100
AcDbEntity
  8
0
100
AcDbLine
 10
388.5419016296249
 20
448.0170999324532
 30
0.0
 11
382.0331750941972
 21
448.0170999324532
 31
0.0
  0
LINE
  5
128F
330
2
100
AcDbEntity
  8
0
100
AcDbLine
 10
388.5419016296249
 20
445.0170999324514
 30
0.0
 11
382.0331750941972
 21
445.0170999324514
 31
0.0
  0
LINE
  5
1290
330
2
100
AcDbEntity
  8
0
100
AcDbLine
 10
375.0244485586203
 20
425.5571991096499
 30
0.0
 11
388.5419016296235
 21
425.5571991096499
 31
0.0
  0
LINE
  5
1291
330
2
100
AcDbEntity
  8
0
100
AcDbLine
 10
375.0244485586203
 20
384.4770007552566
 30
0.0
 11
388.5419016296235
 21
384.4770007552566
 31
0.0
  0
LINE
  5
1292
330
2
100
AcDbEntity
  8
0
100
AcDbLine
 10
408.8001466287209
 20
113.4492947687372
 30
0.0
 11
415.3088731641513
 21
113.4492947687372
 31
0.0
  0
LINE
  5
1293
330
2
100
AcDbEntity
  8
0
100
AcDbLine
 10
408.8001466287209
 20
116.4492947687372
 30
0.0
 11
415.3088731641504
 21
116.4492947687372
 31
0.0
  0
LINE
  5
1294
330
2
100
AcDbEntity
  8
0
100
AcDbLine
 10
415.3088731641486
 20
199.449294768739
 30
0.0
 11
408.8001466287209
 21
199.449294768739
 31
0.0
  0
LINE
  5
1295
330
2
100
AcDbEntity
  8
0
100
AcDbLine
 10
415.3088731641486
 20
196.4492947687354
 30
0.0
 11
408.8001466287209
 21
196.4492947687354
 31
0.0
  0
LINE
  5
1296
330
2
100
AcDbEntity
  8
0
100
AcDbLine
 10
401.7914200931439
 20
176.9893939459357
 30
0.0
 11
415.3088731641473
 21
176.9893939459357
 31
0.0
  0
LINE
  5
1297
330
2
100
AcDbEntity
  8
0
100
AcDbLine
 10
401.7914200931439
 20
135.9091955915424
 30
0.0
 11
415.3088731641473
 21
135.9091955915424
 31
0.0
  0
LINE
  5
1298
330
2
100
AcDbEntity
  8
0
100
AcDbLine
 10
486.5419016296254
 20
388.0170957178366
 30
0.0
 11
473.5419016296254
 21
388.0170957178366
 31
0.0
  0
LINE
  5
1299
330
2
100
AcDbEntity
  8
0
100
AcDbLine
 10
486.5419016296254
 20
422.0170037178363
 30
0.0
 11
473.5419016296249
 21
422.0170037178363
 31
0.0
  0
LINE
  5
129A
330
2
100
AcDbEntity
  8
0
100
AcDbLine
 10
486.5419016296254
 20
422.0170037178363
 30
0.0
 11
486.5419016296254
 21
388.0170957178366
 31
0.0
  0
CIRCLE
  5
129B
330
2
100
AcDbEntity
  8
0
100
AcDbCircle
 10
478.5419016297153
 20
405.0170999324532
 30
0.0
 40
2.0
  0
CIRCLE
  5
129C
330
2
100
AcDbEntity
  8
HOJO
100
AcDbCircle
 10
478.5419016297153
 20
405.0170999324532
 30
0.0
 40
2.5
  0
LINE
  5
129D
330
2
100
AcDbEntity
  8
CENTER
100
AcDbLine
 10
478.541901629714
 20
410.4890305712839
 30
0.0
 11
478.541901629714
 21
399.5451692936226
 31
0.0
  0
LINE
  5
129E
330
2
100
AcDbEntity
  8
CENTER
100
AcDbLine
 10
260.9853792476045
 20
440.6130423200198
 30
0.0
 11
260.9853792476045
 21
432.4211575448867
 31
0.0
  0
LINE
  5
129F
330
2
100
AcDbEntity
  8
CENTER
100
AcDbLine
 10
256.889436860038
 20
436.5170999324532
 30
0.0
 11
265.0813216351711
 21
436.5170999324532
 31
0.0
  0
LINE
  5
12A0
330
2
100
AcDbEntity
  8
CENTER
100
AcDbLine
 10
260.9853792476054
 20
377.8918423378459
 30
0.0
 11
260.9853792476054
 21
369.1423575270624
 31
0.0
  0
LINE
  5
12A1
330
2
100
AcDbEntity
  8
CENTER
100
AcDbLine
 10
256.6106368422136
 20
373.5170999324533
 30
0.0
 11
265.3601216529972
 21
373.5170999324533
 31
0.0
  0
LINE
  5
12A2
330
2
100
AcDbEntity
  8
0
100
AcDbLine
 10
362.5419016296195
 20
422.0170957178384
 30
0.0
 11
360.5420086296252
 21
422.0170957178384
 31
0.0
  0
LINE
  5
12A3
330
2
100
AcDbEntity
  8
0
100
AcDbLine
 10
362.5419016296195
 20
388.0170957178384
 30
0.0
 11
360.5420086296252
 21
388.0170957178384
 31
0.0
  0
LINE
  5
12A4
330
2
100
AcDbEntity
  8
0
100
AcDbLine
 10
360.5420086296252
 20
422.0170957178384
 30
0.0
 11
360.5420086296252
 21
388.0170957178366
 31
0.0
  0
LINE
  5
12A5
330
2
100
AcDbEntity
  8
0
100
AcDbLine
 10
613.7214411748199
 20
604.1261126515232
 30
0.0
 11
613.7214411748199
 21
617.1261126515233
 31
0.0
  0
LINE
  5
12A6
330
2
100
AcDbEntity
  8
0
100
AcDbLine
 10
647.7213491748196
 20
604.1261126515232
 30
0.0
 11
647.7213491748196
 21
617.1261126515233
 31
0.0
  0
LINE
  5
12A7
330
2
100
AcDbEntity
  8
0
100
AcDbLine
 10
647.7213491748196
 20
604.1261126515232
 30
0.0
 11
613.7214411748199
 21
604.1261126515232
 31
0.0
  0
CIRCLE
  5
12A8
330
2
100
AcDbEntity
  8
0
100
AcDbCircle
 10
630.7214453894365
 20
612.1261126514341
 30
0.0
 40
2.0
  0
CIRCLE
  5
12A9
330
2
100
AcDbEntity
  8
HOJO
100
AcDbCircle
 10
630.7214453894365
 20
612.1261126514341
 30
0.0
 40
2.5
  0
LINE
  5
12AA
330
2
100
AcDbEntity
  8
CENTER
100
AcDbLine
 10
636.1933760282671
 20
612.1261126514359
 30
0.0
 11
625.2495147506059
 21
612.1261126514359
 31
0.0
  0
LINE
  5
12AB
330
2
100
AcDbEntity
  8
0
100
AcDbLine
 10
647.7214411748208
 20
728.1261126515305
 30
0.0
 11
647.7214411748208
 21
730.1260056515234
 31
0.0
  0
LINE
  5
12AC
330
2
100
AcDbEntity
  8
0
100
AcDbLine
 10
613.7214411748208
 20
728.1261126515305
 30
0.0
 11
613.7214411748208
 21
730.1260056515234
 31
0.0
  0
LINE
  5
12AD
330
2
100
AcDbEntity
  8
0
100
AcDbLine
 10
647.7214411748208
 20
730.1260056515234
 30
0.0
 11
613.7214411748208
 21
730.1260056515234
 31
0.0
  0
ARC
  5
12AE
330
2
100
AcDbEntity
  8
0
100
AcDbCircle
 10
215.9853792476045
 20
405.0170999324532
 30
0.0
 40
11.0
100
AcDbArc
 50
105.8266201318845
 51
74.17337986811545
  0
LINE
  5
12AF
330
2
100
AcDbEntity
  8
0
100
AcDbLine
 10
218.9853792476045
 20
418.8171029324535
 30
0.0
 11
218.9853792476045
 21
415.6001051767112
 31
0.0
  0
LINE
  5
12B0
330
2
100
AcDbEntity
  8
0
100
AcDbLine
 10
212.9853792476045
 20
418.8171029324535
 30
0.0
 11
218.9853792476045
 21
418.8171029324535
 31
0.0
  0
LINE
  5
12B1
330
2
100
AcDbEntity
  8
0
100
AcDbLine
 10
212.9853792476045
 20
418.8171029324535
 30
0.0
 11
212.9853792476045
 21
415.6001051767112
 31
0.0
  0
CIRCLE
  5
12B2
330
2
100
AcDbEntity
  8
0
100
AcDbCircle
 10
215.9853792476036
 20
405.0170999324532
 30
0.0
 40
16.99999578538367
  0
ARC
  5
12B3
330
2
100
AcDbEntity
  8
0
100
AcDbCircle
 10
215.9853792476036
 20
405.0170999324532
 30
0.0
 40
12.15460621461704
100
AcDbArc
 50
104.2894160763775
 51
75.71058392359595
  0
ARC
  5
12B4
330
2
100
AcDbEntity
  8
0
100
AcDbCircle
 10
630.7214453894374
 20
405.0170999324524
 30
0.0
 40
11.0
100
AcDbArc
 50
105.8266201318845
 51
74.17337986811545
  0
LINE
  5
12B5
330
2
100
AcDbEntity
  8
0
100
AcDbLine
 10
633.7214453894374
 20
418.8171029324508
 30
0.0
 11
633.7214453894374
 21
415.6001051767103
 31
0.0
  0
LINE
  5
12B6
330
2
100
AcDbEntity
  8
0
100
AcDbLine
 10
627.7214453894374
 20
418.8171029324508
 30
0.0
 11
633.7214453894374
 21
418.8171029324508
 31
0.0
  0
LINE
  5
12B7
330
2
100
AcDbEntity
  8
0
100
AcDbLine
 10
627.7214453894374
 20
418.8171029324508
 30
0.0
 11
627.7214453894374
 21
415.6001051767103
 31
0.0
  0
CIRCLE
  5
12B8
330
2
100
AcDbEntity
  8
0
100
AcDbCircle
 10
630.7214453894365
 20
405.0170999324524
 30
0.0
 40
16.99999578538367
  0
ARC
  5
12B9
330
2
100
AcDbEntity
  8
0
100
AcDbCircle
 10
630.7214453894365
 20
405.0170999324524
 30
0.0
 40
12.15460621461704
100
AcDbArc
 50
104.2894160763775
 51
75.71058392359595
  0
LINE
  5
12BB
330
2
100
AcDbEntity
  8
PHAS
100
AcDbLine
 10
370.041901629624
 20
440.0171475945322
 30
0.0
 11
370.041901629624
 21
370.0170522703743
 31
0.0
  0
ARC
  5
12BC
330
2
100
AcDbEntity
  8
PHAS
100
AcDbCircle
 10
345.541901629624
 20
386.1861919462176
 30
0.0
 40
5.0
100
AcDbArc
 50
180.0
 51
259.9999999999948
  0
LINE
  5
12BD
330
2
100
AcDbEntity
  8
PHAS
100
AcDbLine
 10
360.2419016296247
 20
436.8979008447309
 30
0.0
 11
360.2419016296238
 21
373.1362036960186
 31
0.0
  0
ARC
  5
12BE
330
2
100
AcDbEntity
  8
PHAS
100
AcDbCircle
 10
363.2419016296238
 20
373.1362036960186
 30
0.0
 40
3.0
100
AcDbArc
 50
180.0
 51
268.9999999999721
  0
ARC
  5
12BF
330
2
100
AcDbEntity
  8
PHAS
100
AcDbCircle
 10
359.2419016296238
 20
377.677952639197
 30
0.0
 40
1.0
100
AcDbArc
 50
0.0
 51
79.99999999999483
  0
LINE
  5
12C0
330
2
100
AcDbEntity
  8
PHAS
100
AcDbLine
 10
344.6736607412898
 20
381.2621531811569
 30
0.0
 11
359.4155498072908
 21
378.6627603922093
 31
0.0
  0
LINE
  5
12C1
330
2
100
AcDbEntity
  8
PHAS
100
AcDbLine
 10
370.041901629624
 20
370.0170522703743
 30
0.0
 11
363.1895444103123
 21
370.1366606105489
 31
0.0
  0
ARC
  5
12C2
330
2
100
AcDbEntity
  8
PHAS
100
AcDbCircle
 10
359.2419016296238
 20
432.3561519015516
 30
0.0
 40
1.0
100
AcDbArc
 50
280.0000000000051
 51
0.0
  0
ARC
  5
12C3
330
2
100
AcDbEntity
  8
PHAS
100
AcDbCircle
 10
345.541901629624
 20
423.847912594531
 30
0.0
 40
5.0
100
AcDbArc
 50
100.0000000000051
 51
180.0
  0
LINE
  5
12C4
330
2
100
AcDbEntity
  8
PHAS
100
AcDbLine
 10
344.6736607412898
 20
428.7719513595925
 30
0.0
 11
359.4155498072908
 21
431.3713441485393
 31
0.0
  0
LINE
  5
12C5
330
2
100
AcDbEntity
  8
PHAS
100
AcDbLine
 10
340.541901629624
 20
423.847912594531
 30
0.0
 11
340.541901629624
 21
386.1862872703746
 31
0.0
  0
ARC
  5
12C6
330
2
100
AcDbEntity
  8
PHAS
100
AcDbCircle
 10
363.2419016296238
 20
436.8979961688879
 30
0.0
 40
3.0
100
AcDbArc
 50
91.00000000002784
 51
180.0
  0
LINE
  5
12C7
330
2
100
AcDbEntity
  8
PHAS
100
AcDbLine
 10
370.041901629624
 20
440.0171475945312
 30
0.0
 11
363.1895444103123
 21
439.8975392543566
 31
0.0
  0
LINE
  5
1304
330
2
100
AcDbEntity
  8
0
100
AcDbLine
 10
1018.649951927068
 20
456.0170999324541
 30
0.0
 11
1018.649951927068
 21
441.1282110435655
 31
0.0
  0
LINE
  5
1305
330
2
100
AcDbEntity
  8
CENTER
100
AcDbLine
 10
990.6499519270681
 20
465.772747634313
 30
0.0
 11
990.6499519270681
 21
344.2614522305953
 31
0.0
  0
LINE
  5
1306
330
2
100
AcDbEntity
  8
0
100
AcDbLine
 10
952.6499519270682
 20
455.4411266582643
 30
0.0
 11
952.6499519270682
 21
354.5930732066441
 31
0.0
  0
LINE
  5
1307
330
2
100
AcDbEntity
  8
CENTER
100
AcDbLine
 10
910.6499519270672
 20
405.0170999324541
 30
0.0
 11
1056.649844927068
 21
405.0170999324541
 31
0.0
  0
LINE
  5
1308
330
2
100
AcDbEntity
  8
0
100
AcDbLine
 10
947.6499519270682
 20
450.0170999324542
 30
0.0
 11
947.6499519270745
 21
360.0170999324542
 31
0.0
  0
LINE
  5
1309
330
2
100
AcDbEntity
  8
0
100
AcDbLine
 10
952.6499519270682
 20
450.0170999324542
 30
0.0
 11
947.6499519270682
 21
450.0170999324542
 31
0.0
  0
LINE
  5
130A
330
2
100
AcDbEntity
  8
0
100
AcDbLine
 10
952.6499519270682
 20
360.0170999324542
 30
0.0
 11
947.6499519270682
 21
360.0170999324542
 31
0.0
  0
LINE
  5
130B
330
2
100
AcDbEntity
  8
0
100
AcDbLine
 10
1018.649951927068
 20
368.9059888213447
 30
0.0
 11
1018.649951927068
 21
354.0170999324542
 31
0.0
  0
LINE
  5
130C
330
2
100
AcDbEntity
  8
0
100
AcDbLine
 10
1018.649951927068
 20
354.0170999324542
 30
0.0
 11
952.6499519270682
 21
354.5930732066441
 31
0.0
  0
LINE
  5
130D
330
2
100
AcDbEntity
  8
0
100
AcDbLine
 10
1018.649951927068
 20
456.0170999324541
 30
0.0
 11
952.6499519270682
 21
455.4411266582643
 31
0.0
  0
LINE
  5
130E
330
2
100
AcDbEntity
  8
0
100
AcDbLine
 10
933.6499519270681
 20
372.948477482068
 30
0.0
 11
933.6499519270663
 21
437.0857223828421
 31
0.0
  0
LINE
  5
130F
330
2
100
AcDbEntity
  8
0
100
AcDbLine
 10
945.7197509204714
 20
439.4385866009157
 30
0.0
 11
935.5801529336622
 21
439.08450403688
 31
0.0
  0
LINE
  5
1310
330
2
100
AcDbEntity
  8
0
100
AcDbLine
 10
945.7197509204714
 20
370.5956132639944
 30
0.0
 11
935.5801529336631
 21
370.9496958280301
 31
0.0
  0
ARC
  5
1311
330
2
100
AcDbEntity
  8
0
100
AcDbCircle
 10
935.6499519270682
 20
372.948477482068
 30
0.0
 40
2.0
100
AcDbArc
 50
180.0
 51
267.9999999999963
  0
ARC
  5
1312
330
2
100
AcDbEntity
  8
0
100
AcDbCircle
 10
945.6499519270673
 20
368.5968316099565
 30
0.0
 40
2.0
100
AcDbArc
 50
0.0
 51
87.99999999999636
  0
ARC
  5
1313
330
2
100
AcDbEntity
  8
0
100
AcDbCircle
 10
935.6499519270663
 20
437.0857223828421
 30
0.0
 40
2.0
100
AcDbArc
 50
92.00000000000365
 51
180.0
  0
ARC
  5
1314
330
2
100
AcDbEntity
  8
0
100
AcDbCircle
 10
945.6499519270673
 20
441.4373682549554
 30
0.0
 40
2.0
100
AcDbArc
 50
271.9999999999775
 51
0.0
  0
LINE
  5
1315
330
2
100
AcDbEntity
  8
0
100
AcDbLine
 10
990.6499519270672
 20
441.5170999324559
 30
0.0
 11
1021.719389674522
 21
441.0855799637407
 31
0.0
  0
ARC
  5
1316
330
2
100
AcDbEntity
  8
0
100
AcDbCircle
 10
1021.649951927067
 20
436.086062147067
 30
0.0
 40
5.0
100
AcDbArc
 50
44.44120088167796
 51
89.20427644725567
  0
ARC
  5
1317
330
2
100
AcDbEntity
  8
0
100
AcDbCircle
 10
1021.649951927067
 20
373.9481377178431
 30
0.0
 40
5.0
100
AcDbArc
 50
270.7957235527443
 51
315.5587991237561
  0
LINE
  5
1318
330
2
100
AcDbEntity
  8
0
100
AcDbLine
 10
990.6499519270672
 20
368.5170999324542
 30
0.0
 11
1021.719389674522
 21
368.9486199011694
 31
0.0
  0
LINE
  5
1319
330
2
100
AcDbEntity
  8
0
100
AcDbLine
 10
990.6499519270672
 20
368.5170999324542
 30
0.0
 11
959.5805159239105
 21
368.9486198769423
 31
0.0
  0
ARC
  5
131A
330
2
100
AcDbEntity
  8
0
100
AcDbCircle
 10
959.6499536713643
 20
373.948137693616
 30
0.0
 40
5.0
100
AcDbArc
 50
224.4419082425798
 51
269.2042764472556
  0
ARC
  5
131B
330
2
100
AcDbEntity
  8
0
100
AcDbCircle
 10
959.6499536713643
 20
436.0860621712941
 30
0.0
 40
5.0
100
AcDbArc
 50
90.79572355274434
 51
135.5580917519866
  0
LINE
  5
131C
330
2
100
AcDbEntity
  8
0
100
AcDbLine
 10
990.6499519270672
 20
441.5170999324559
 30
0.0
 11
959.5805159239105
 21
441.0855799879678
 31
0.0
  0
LINE
  5
131D
330
2
100
AcDbEntity
  8
0
100
AcDbLine
 10
1018.649951927068
 20
448.0170999324523
 30
0.0
 11
952.6499519270682
 21
448.0170999324523
 31
0.0
  0
LINE
  5
131E
330
2
100
AcDbEntity
  8
0
100
AcDbLine
 10
1018.649951927068
 20
362.017099932456
 30
0.0
 11
952.6499519270682
 21
362.017099932456
 31
0.0
  0
LINE
  5
131F
330
2
100
AcDbEntity
  8
0
100
AcDbLine
 10
1044.649951927072
 20
372.594450201646
 30
0.0
 11
1044.649951927073
 21
437.439749663266
 31
0.0
  0
LINE
  5
1320
330
2
100
AcDbEntity
  8
0
100
AcDbLine
 10
1034.7357383647
 20
445.4313134948275
 30
0.0
 11
1035.564165489445
 21
444.6028863700826
 31
0.0
  0
LINE
  5
1321
330
2
100
AcDbEntity
  8
0
100
AcDbLine
 10
1018.64995192707
 20
456.0170999324541
 30
0.0
 11
1018.64995192707
 21
441.1282110435655
 31
0.0
  0
LINE
  5
1322
330
2
100
AcDbEntity
  8
0
100
AcDbLine
 10
1018.649951927066
 20
368.9059888213428
 30
0.0
 11
1018.649951927064
 21
354.017099932456
 31
0.0
  0
LINE
  5
1323
330
2
100
AcDbEntity
  8
0
100
AcDbLine
 10
1026.14995192707
 20
438.9690260028324
 30
0.0
 11
1026.14995192707
 21
438.3335420630696
 31
0.0
  0
LINE
  5
1324
330
2
100
AcDbEntity
  8
0
100
AcDbLine
 10
1031.149951927069
 20
429.5170999324541
 30
0.0
 11
1031.149951927066
 21
380.5170999324559
 31
0.0
  0
ARC
  5
1325
330
2
100
AcDbEntity
  8
0
100
AcDbCircle
 10
1029.14995192707
 20
438.9253916638804
 30
0.0
 40
2.0
100
AcDbArc
 50
17.20876206250125
 51
89.50000000000846
  0
LINE
  5
1326
330
2
100
AcDbEntity
  8
0
100
AcDbLine
 10
1034.149951927075
 20
356.1349888044019
 30
0.0
 11
1034.149951927072
 21
453.8992110605064
 31
0.0
  0
ARC
  5
1327
330
2
100
AcDbEntity
  8
0
100
AcDbCircle
 10
1032.149951927075
 20
356.1349888044019
 30
0.0
 40
2.0
100
AcDbArc
 50
270.4999999999915
 51
0.0
  0
LINE
  5
1328
330
2
100
AcDbEntity
  8
0
100
AcDbLine
 10
1040.149951927072
 20
437.8170999324552
 30
0.0
 11
1039.949951927072
 21
438.0170999324541
 31
0.0
  0
LINE
  5
1329
330
2
100
AcDbEntity
  8
0
100
AcDbLine
 10
1036.649951927072
 20
440.0170999324542
 30
0.0
 11
1036.149951927072
 21
440.5170999324542
 31
0.0
  0
LINE
  5
132A
330
2
100
AcDbEntity
  8
0
100
AcDbLine
 10
1036.149951927072
 20
443.1886728077093
 30
0.0
 11
1036.149951927072
 21
440.5170999324542
 31
0.0
  0
LINE
  5
132B
330
2
100
AcDbEntity
  8
0
100
AcDbLine
 10
1039.949951927072
 20
438.0170999324541
 30
0.0
 11
1036.649951927072
 21
438.0170999324541
 31
0.0
  0
LINE
  5
132C
330
2
100
AcDbEntity
  8
0
100
AcDbLine
 10
1043.649951927072
 20
438.0170999324541
 30
0.0
 11
1044.649951927072
 21
437.439749663266
 31
0.0
  0
LINE
  5
132D
330
2
100
AcDbEntity
  8
0
100
AcDbLine
 10
1043.649951927073
 20
438.0170999324541
 30
0.0
 11
1042.349951927072
 21
438.0170999324541
 31
0.0
  0
LINE
  5
132E
330
2
100
AcDbEntity
  8
0
100
AcDbLine
 10
1041.949951927072
 20
437.3170999324552
 30
0.0
 11
1040.349951927072
 21
437.3170999324552
 31
0.0
  0
LINE
  5
132F
330
2
100
AcDbEntity
  8
0
100
AcDbLine
 10
1018.649951927064
 20
354.017099932456
 30
0.0
 11
1032.167404998072
 21
354.1350649582742
 31
0.0
  0
LINE
  5
1330
330
2
100
AcDbEntity
  8
0
100
AcDbLine
 10
1034.7357383647
 20
364.6028863700826
 30
0.0
 11
1035.564165489439
 21
365.431313494822
 31
0.0
  0
LINE
  5
1331
330
2
100
AcDbEntity
  8
0
100
AcDbLine
 10
1036.649951927068
 20
370.0170999324559
 30
0.0
 11
1036.649951927075
 21
440.0170999324523
 31
0.0
  0
LINE
  5
1332
330
2
100
AcDbEntity
  8
0
100
AcDbLine
 10
1040.149951927068
 20
372.2170999324549
 30
0.0
 11
1040.149951927068
 21
437.8170999324589
 31
0.0
  0
LINE
  5
1333
330
2
100
AcDbEntity
  8
0
100
AcDbLine
 10
1040.149951927068
 20
372.2170999324549
 30
0.0
 11
1039.949951927067
 21
372.0170999324541
 31
0.0
  0
LINE
  5
1334
330
2
100
AcDbEntity
  8
0
100
AcDbLine
 10
1039.949951927067
 20
372.0170999324541
 30
0.0
 11
1036.649951927068
 21
372.0170999324559
 31
0.0
  0
LINE
  5
1335
330
2
100
AcDbEntity
  8
0
100
AcDbLine
 10
1036.649951927068
 20
370.0170999324559
 30
0.0
 11
1036.149951927068
 21
369.517099932456
 31
0.0
  0
LINE
  5
1336
330
2
100
AcDbEntity
  8
0
100
AcDbLine
 10
1036.149951927066
 20
366.8455270571953
 30
0.0
 11
1036.149951927072
 21
440.5170999324542
 31
0.0
  0
LINE
  5
1337
330
2
100
AcDbEntity
  8
0
100
AcDbLine
 10
1043.649951927068
 20
372.0170999324541
 30
0.0
 11
1044.649951927068
 21
372.5944502016441
 31
0.0
  0
LINE
  5
1338
330
2
100
AcDbEntity
  8
0
100
AcDbLine
 10
1042.149951927068
 20
372.2170999324549
 30
0.0
 11
1042.149951927068
 21
437.8170999324552
 31
0.0
  0
LINE
  5
1339
330
2
100
AcDbEntity
  8
0
100
AcDbLine
 10
1043.649951927068
 20
372.0170999324541
 30
0.0
 11
1042.349951927068
 21
372.0170999324541
 31
0.0
  0
LINE
  5
133A
330
2
100
AcDbEntity
  8
0
100
AcDbLine
 10
1041.949951927067
 20
372.7170999324549
 30
0.0
 11
1040.349951927069
 21
372.7170999324549
 31
0.0
  0
ARC
  5
133B
330
2
100
AcDbEntity
  8
0
100
AcDbCircle
 10
1034.149951927066
 20
366.8455270571953
 30
0.0
 40
2.0
100
AcDbArc
 50
314.9999999999907
 51
0.0
  0
ARC
  5
133C
330
2
100
AcDbEntity
  8
0
100
AcDbCircle
 10
1036.149951927073
 20
363.1886728077093
 30
0.0
 40
2.0
100
AcDbArc
 50
134.9999999999905
 51
180.0
  0
ARC
  5
133D
330
2
100
AcDbEntity
  8
0
100
AcDbCircle
 10
1034.149951927072
 20
443.1886728077093
 30
0.0
 40
2.0
100
AcDbArc
 50
0.0
 51
45.00000000000949
  0
ARC
  5
133E
330
2
100
AcDbEntity
  8
0
100
AcDbCircle
 10
1036.149951927073
 20
446.8455270572008
 30
0.0
 40
2.0
100
AcDbArc
 50
180.0
 51
225.0000000000091
  0
ARC
  5
133F
330
2
100
AcDbEntity
  8
0
100
AcDbCircle
 10
1042.349951927069
 20
372.2170999324549
 30
0.0
 40
0.2
100
AcDbArc
 50
180.0
 51
269.9999999999739
  0
ARC
  5
1340
330
2
100
AcDbEntity
  8
0
100
AcDbCircle
 10
1041.949951927067
 20
372.5170999324542
 30
0.0
 40
0.2
100
AcDbArc
 50
0.0
 51
89.99999999997395
  0
ARC
  5
1341
330
2
100
AcDbEntity
  8
0
100
AcDbCircle
 10
1040.349951927069
 20
372.5170999324542
 30
0.0
 40
0.2
100
AcDbArc
 50
89.99999999997395
 51
180.0
  0
ARC
  5
1342
330
2
100
AcDbEntity
  8
0
100
AcDbCircle
 10
1042.349951927072
 20
437.8170999324552
 30
0.0
 40
0.2
100
AcDbArc
 50
90.0
 51
180.0
  0
ARC
  5
1343
330
2
100
AcDbEntity
  8
0
100
AcDbCircle
 10
1041.949951927072
 20
437.5170999324542
 30
0.0
 40
0.2
100
AcDbArc
 50
270.0
 51
0.0
  0
ARC
  5
1344
330
2
100
AcDbEntity
  8
0
100
AcDbCircle
 10
1040.349951927072
 20
437.5170999324542
 30
0.0
 40
0.2
100
AcDbArc
 50
180.0
 51
270.0
  0
LINE
  5
1345
330
2
100
AcDbEntity
  8
0
100
AcDbLine
 10
1043.649951927068
 20
372.0170999324541
 30
0.0
 11
1043.649951927072
 21
438.0170999324541
 31
0.0
  0
LINE
  5
1346
330
2
100
AcDbEntity
  8
0
100
AcDbLine
 10
1039.949951927067
 20
372.0170999324541
 30
0.0
 11
1039.949951927072
 21
438.0170999324541
 31
0.0
  0
ARC
  5
1347
330
2
100
AcDbEntity
  8
0
100
AcDbCircle
 10
1032.149951927075
 20
453.8992110605064
 30
0.0
 40
2.0
100
AcDbArc
 50
0.0
 51
89.50000000000846
  0
LINE
  5
1348
330
2
100
AcDbEntity
  8
0
100
AcDbLine
 10
1018.649951927064
 20
456.0170999324541
 30
0.0
 11
1032.167404998072
 21
455.8991349066359
 31
0.0
  0
LINE
  5
1349
330
2
100
AcDbEntity
  8
0
100
AcDbLine
 10
1029.167404998066
 20
440.9253155100082
 30
0.0
 11
1022.664419402831
 21
440.982066205544
 31
0.0
  0
LINE
  5
134A
330
2
100
AcDbEntity
  8
0
100
AcDbLine
 10
1026.836929160688
 20
427.554739111915
 30
0.0
 11
1029.167404998065
 21
427.5344013573918
 31
0.0
  0
ARC
  5
134B
330
2
100
AcDbEntity
  8
0
100
AcDbCircle
 10
1024.14995192707
 20
438.9690260028324
 30
0.0
 40
2.0
100
AcDbArc
 50
0.0
 51
89.50000000000846
  0
ARC
  5
134C
330
2
100
AcDbEntity
  8
0
100
AcDbCircle
 10
1029.149951927068
 20
425.5344775112639
 30
0.0
 40
2.0
100
AcDbArc
 50
0.0
 51
89.49999999998238
  0
LINE
  5
134D
330
2
100
AcDbEntity
  8
0
100
AcDbLine
 10
1026.14995192707
 20
370.517099932456
 30
0.0
 11
1026.149951927068
 21
371.7006578018514
 31
0.0
  0
ARC
  5
134E
330
2
100
AcDbEntity
  8
0
100
AcDbCircle
 10
1029.14995192707
 20
371.1088082010297
 30
0.0
 40
2.0
100
AcDbArc
 50
270.4999999999915
 51
342.7912379374987
  0
LINE
  5
134F
330
2
100
AcDbEntity
  8
0
100
AcDbLine
 10
1029.167404998066
 20
369.1088843549001
 30
0.0
 11
1022.664419402831
 21
369.0521336593661
 31
0.0
  0
LINE
  5
1350
330
2
100
AcDbEntity
  8
0
100
AcDbLine
 10
1026.836929160687
 20
382.4794607529949
 30
0.0
 11
1029.167404998065
 21
382.4997985075165
 31
0.0
  0
ARC
  5
1351
330
2
100
AcDbEntity
  8
0
100
AcDbCircle
 10
1024.14995192707
 20
371.0651738620777
 30
0.0
 40
2.0
100
AcDbArc
 50
270.4999999999915
 51
0.0
  0
ARC
  5
1352
330
2
100
AcDbEntity
  8
0
100
AcDbCircle
 10
1029.149951927068
 20
384.4997223536443
 30
0.0
 40
2.0
100
AcDbArc
 50
270.5000000000175
 51
0.0
  0
LINE
  5
1353
330
2
100
AcDbEntity
  8
CENTER
  6
CENS
100
AcDbLine
 10
1012.866164177985
 20
434.5170999324541
 30
0.0
 11
1036.64995192707
 21
434.5170999324541
 31
0.0
  0
LINE
  5
1354
330
2
100
AcDbEntity
  8
0
100
AcDbLine
 10
1033.24995192707
 20
439.5170999324541
 30
0.0
 11
1033.64995192707
 21
438.8242796094269
 31
0.0
  0
LINE
  5
1355
330
2
100
AcDbEntity
  8
0
100
AcDbLine
 10
1027.64995192707
 20
439.5170999324541
 30
0.0
 11
1027.64995192707
 21
429.5170999324541
 31
0.0
  0
LINE
  5
1356
330
2
100
AcDbEntity
  8
0
100
AcDbLine
 10
1033.24995192707
 20
439.5170999324541
 30
0.0
 11
1033.24995192707
 21
429.5170999324541
 31
0.0
  0
LINE
  5
1357
330
2
100
AcDbEntity
  8
0
100
AcDbLine
 10
1026.14995192707
 20
439.5170999324541
 30
0.0
 11
1033.24995192707
 21
439.5170999324541
 31
0.0
  0
LINE
  5
1358
330
2
100
AcDbEntity
  8
0
100
AcDbLine
 10
1026.809674149291
 20
429.5170999324541
 30
0.0
 11
1033.24995192707
 21
429.5170999324541
 31
0.0
  0
LINE
  5
1359
330
2
100
AcDbEntity
  8
0
100
AcDbLine
 10
1033.24995192707
 20
429.5170999324541
 30
0.0
 11
1033.64995192707
 21
430.2099202554814
 31
0.0
  0
LINE
  5
135A
330
2
100
AcDbEntity
  8
0
100
AcDbLine
 10
1033.64995192707
 20
438.8242796094269
 30
0.0
 11
1033.64995192707
 21
430.2099202554814
 31
0.0
  0
LINE
  5
135B
330
2
100
AcDbEntity
  8
0
100
AcDbLine
 10
1026.14995192707
 20
438.3335420630692
 30
0.0
 11
1026.14995192707
 21
439.5170999324541
 31
0.0
  0
LINE
  5
135C
330
2
100
AcDbEntity
  8
CENTER
  6
CENS
100
AcDbLine
 10
1012.866164177985
 20
375.517099932456
 30
0.0
 11
1036.64995192707
 21
375.517099932456
 31
0.0
  0
LINE
  5
135D
330
2
100
AcDbEntity
  8
0
100
AcDbLine
 10
1033.24995192707
 20
370.517099932456
 30
0.0
 11
1033.64995192707
 21
371.2099202554832
 31
0.0
  0
LINE
  5
135E
330
2
100
AcDbEntity
  8
0
100
AcDbLine
 10
1027.64995192707
 20
370.517099932456
 30
0.0
 11
1027.64995192707
 21
380.5170999324559
 31
0.0
  0
LINE
  5
135F
330
2
100
AcDbEntity
  8
0
100
AcDbLine
 10
1033.24995192707
 20
370.517099932456
 30
0.0
 11
1033.24995192707
 21
380.5170999324559
 31
0.0
  0
LINE
  5
1360
330
2
100
AcDbEntity
  8
0
100
AcDbLine
 10
1026.14995192707
 20
370.517099932456
 30
0.0
 11
1033.24995192707
 21
370.517099932456
 31
0.0
  0
LINE
  5
1361
330
2
100
AcDbEntity
  8
0
100
AcDbLine
 10
1026.809674149291
 20
380.5170999324559
 30
0.0
 11
1033.24995192707
 21
380.5170999324559
 31
0.0
  0
LINE
  5
1362
330
2
100
AcDbEntity
  8
0
100
AcDbLine
 10
1033.24995192707
 20
380.5170999324559
 30
0.0
 11
1033.64995192707
 21
379.8242796094287
 31
0.0
  0
LINE
  5
1363
330
2
100
AcDbEntity
  8
0
100
AcDbLine
 10
1033.64995192707
 20
371.2099202554832
 30
0.0
 11
1033.64995192707
 21
379.8242796094287
 31
0.0
  0
LINE
  5
1364
330
2
100
AcDbEntity
  8
0
100
AcDbLine
 10
920.6499519270673
 20
422.0171041470708
 30
0.0
 11
933.6499519270672
 21
422.0171041470708
 31
0.0
  0
LINE
  5
1365
330
2
100
AcDbEntity
  8
0
100
AcDbLine
 10
920.6499519270673
 20
388.017196147071
 30
0.0
 11
933.6499519270681
 21
388.017196147071
 31
0.0
  0
LINE
  5
1366
330
2
100
AcDbEntity
  8
0
100
AcDbLine
 10
920.6499519270673
 20
388.017196147071
 30
0.0
 11
920.6499519270673
 21
422.0171041470708
 31
0.0
  0
LINE
  5
1367
330
2
100
AcDbEntity
  8
0
100
AcDbLine
 10
1044.649951927073
 20
388.0171041470708
 30
0.0
 11
1046.649844927068
 21
388.0171041470708
 31
0.0
  0
LINE
  5
1368
330
2
100
AcDbEntity
  8
0
100
AcDbLine
 10
1044.649951927073
 20
422.0171041470708
 30
0.0
 11
1046.649844927068
 21
422.0171041470708
 31
0.0
  0
LINE
  5
1369
330
2
100
AcDbEntity
  8
0
100
AcDbLine
 10
1046.649844927068
 20
388.0171041470708
 30
0.0
 11
1046.649844927068
 21
422.0171041470708
 31
0.0
  0
LINE
  5
136A
330
2
100
AcDbEntity
  8
0
100
AcDbLine
 10
771.7426023454644
 20
431.8770999324529
 30
0.0
 11
767.0426023454637
 21
431.8770999324529
 31
0.0
  0
LINE
  5
136B
330
2
100
AcDbEntity
  8
0
100
AcDbLine
 10
767.0426023454637
 20
440.3770999324529
 30
0.0
 11
771.7426023454644
 21
440.3770999324529
 31
0.0
  0
LINE
  5
136C
330
2
100
AcDbEntity
  8
CENTER
  6
CENS
100
AcDbLine
 10
749.5114453894365
 20
436.1270999324529
 30
0.0
 11
776.9684183195185
 21
436.1270999324529
 31
0.0
  0
LINE
  5
136D
330
2
100
AcDbEntity
  8
0
100
AcDbLine
 10
772.0426023454637
 20
439.8574846901825
 30
0.0
 11
772.0426023454637
 21
432.3967151747234
 31
0.0
  0
LINE
  5
136E
330
2
100
AcDbEntity
  8
0
100
AcDbLine
 10
771.7426023454644
 20
431.8770999324529
 30
0.0
 11
771.7426023454644
 21
440.3770999324529
 31
0.0
  0
LINE
  5
136F
330
2
100
AcDbEntity
  8
0
100
AcDbLine
 10
771.7426023454644
 20
431.8770999324529
 30
0.0
 11
772.0426023454637
 21
432.3967151747234
 31
0.0
  0
LINE
  5
1370
330
2
100
AcDbEntity
  8
0
100
AcDbLine
 10
772.0426023454637
 20
439.8574846901825
 30
0.0
 11
771.7426023454644
 21
440.3770999324529
 31
0.0
  0
LINE
  5
1371
330
2
100
AcDbEntity
  8
0
100
AcDbLine
 10
767.0426023454637
 20
440.3770999324529
 30
0.0
 11
766.0426023454637
 21
440.3770999324529
 31
0.0
  0
LINE
  5
1372
330
2
100
AcDbEntity
  8
0
100
AcDbLine
 10
766.0426023454637
 20
440.3770999324529
 30
0.0
 11
766.0426023454637
 21
431.8770999324529
 31
0.0
  0
LINE
  5
1373
330
2
100
AcDbEntity
  8
0
100
AcDbLine
 10
766.0426023454637
 20
431.8770999324529
 30
0.0
 11
767.0426023454637
 21
431.8770999324529
 31
0.0
  0
LINE
  5
1374
330
2
100
AcDbEntity
  8
0
100
AcDbLine
 10
767.0426023454637
 20
431.8770999324529
 30
0.0
 11
767.0426023454637
 21
440.3770999324529
 31
0.0
  0
LINE
  5
1375
330
2
100
AcDbEntity
  8
0
100
AcDbLine
 10
767.0426023454637
 20
431.8770999324529
 30
0.0
 11
767.0426023454637
 21
440.3770999324529
 31
0.0
  0
ARC
  5
1376
330
2
100
AcDbEntity
  8
0
100
AcDbCircle
 10
764.5114453911609
 20
708.1261126515251
 30
0.0
 40
2.0
100
AcDbArc
 50
40.04151653422545
 51
90.0
  0
ARC
  5
1377
330
2
100
AcDbEntity
  8
0
100
AcDbCircle
 10
764.5114453911609
 20
640.1261126515251
 30
0.0
 40
2.0
100
AcDbArc
 50
270.0
 51
319.9584834657742
  0
LINE
  5
1378
330
2
100
AcDbEntity
  8
0
100
AcDbLine
 10
773.5114453911609
 20
671.1261126515251
 30
0.0
 11
773.5114453911609
 21
656.626112651525
 31
0.0
  0
LINE
  5
1379
330
2
100
AcDbEntity
  8
0
100
AcDbLine
 10
766.511445391159
 20
700.9861126515256
 30
0.0
 11
766.5114453911609
 21
647.2661126515254
 31
0.0
  0
LINE
  5
137A
330
2
100
AcDbEntity
  8
CENTER
  6
CENS
100
AcDbLine
 10
783.5114453911609
 20
674.376112651525
 30
0.0
 11
783.5114453911609
 21
652.876112651525
 31
0.0
  0
LINE
  5
137B
330
2
100
AcDbEntity
  8
0
100
AcDbLine
 10
782.5114453911609
 20
701.126112651525
 30
0.0
 11
782.5114453911609
 21
677.126112651525
 31
0.0
  0
LINE
  5
137C
330
2
100
AcDbEntity
  8
0
100
AcDbLine
 10
772.0426023471881
 20
704.1261126515251
 30
0.0
 11
797.5114453911609
 21
704.1261126515251
 31
0.0
  0
ARC
  5
137D
330
2
100
AcDbEntity
  8
0
100
AcDbCircle
 10
785.5114453911609
 20
701.126112651525
 30
0.0
 40
3.0
100
AcDbArc
 50
90.0
 51
180.0
  0
ARC
  5
137E
330
2
100
AcDbEntity
  8
0
100
AcDbCircle
 10
779.5114453911609
 20
677.126112651525
 30
0.0
 40
3.0
100
AcDbArc
 50
270.0
 51
0.0
  0
ARC
  5
137F
330
2
100
AcDbEntity
  8
0
100
AcDbCircle
 10
776.5114453911609
 20
671.1261126515251
 30
0.0
 40
3.0
100
AcDbArc
 50
90.0
 51
180.0
  0
LINE
  5
1380
330
2
100
AcDbEntity
  8
0
100
AcDbLine
 10
776.5114453911609
 20
674.1261126515251
 30
0.0
 11
779.5114453911609
 21
674.1261126515251
 31
0.0
  0
LINE
  5
1381
330
2
100
AcDbEntity
  8
0
100
AcDbLine
 10
772.0426023471881
 20
644.126112651525
 30
0.0
 11
797.5114453911609
 21
644.126112651525
 31
0.0
  0
LINE
  5
1382
330
2
100
AcDbEntity
  8
CENTER
  6
CENS
100
AcDbLine
 10
772.7614453911609
 20
663.626112651525
 30
0.0
 11
794.2614453911609
 21
663.626112651525
 31
0.0
  0
ARC
  5
1383
330
2
100
AcDbEntity
  8
0
100
AcDbCircle
 10
776.5114453911609
 20
656.626112651525
 30
0.0
 40
3.0
100
AcDbArc
 50
180.0
 51
270.0
  0
ARC
  5
1384
330
2
100
AcDbEntity
  8
0
100
AcDbCircle
 10
779.5114453911609
 20
650.6261126515251
 30
0.0
 40
3.0
100
AcDbArc
 50
0.0
 51
90.0
  0
LINE
  5
1385
330
2
100
AcDbEntity
  8
0
100
AcDbLine
 10
776.5114453911609
 20
653.6261126515251
 30
0.0
 11
779.5114453911609
 21
653.6261126515251
 31
0.0
  0
LINE
  5
1386
330
2
100
AcDbEntity
  8
0
100
AcDbLine
 10
782.5114453911609
 20
650.6261126515251
 30
0.0
 11
782.5114453911609
 21
647.126112651525
 31
0.0
  0
ARC
  5
1387
330
2
100
AcDbEntity
  8
0
100
AcDbCircle
 10
785.5114453911609
 20
647.126112651525
 30
0.0
 40
3.0
100
AcDbArc
 50
180.0
 51
270.0
  0
LINE
  5
1388
330
2
100
AcDbEntity
  8
0
100
AcDbLine
 10
754.5114453911609
 20
710.126112651525
 30
0.0
 11
764.5114453911609
 21
710.126112651525
 31
0.0
  0
LINE
  5
1389
330
2
100
AcDbEntity
  8
0
100
AcDbLine
 10
754.5114453911609
 20
638.1261126515251
 30
0.0
 11
764.5114453911609
 21
638.1261126515251
 31
0.0
  0
LINE
  5
138A
330
2
100
AcDbEntity
  8
0
100
AcDbLine
 10
797.5114453911609
 20
704.1261126515251
 30
0.0
 11
797.5114453911609
 21
644.126112651525
 31
0.0
  0
LINE
  5
138B
330
2
100
AcDbEntity
  8
0
100
AcDbLine
 10
959.5809897124553
 20
369.0170999324615
 30
0.0
 11
1021.718914141681
 21
369.0170999324615
 31
0.0
  0
LINE
  5
138C
330
2
100
AcDbEntity
  8
0
100
AcDbLine
 10
959.5809897124553
 20
441.0170999324615
 30
0.0
 11
1021.718914141681
 21
441.0170999324615
 31
0.0
  0
CIRCLE
  5
138D
330
2
100
AcDbEntity
  8
HIDS
100
AcDbCircle
 10
990.6499519270681
 20
405.0170999324615
 30
0.0
 40
30.0
  0
ARC
  5
138E
330
2
100
AcDbEntity
  8
0
100
AcDbCircle
 10
965.7226953384096
 20
380.0170999324624
 30
0.0
 40
5.0
100
AcDbArc
 50
180.1666666666621
 51
270.0
  0
LINE
  5
138F
330
2
100
AcDbEntity
  8
CENTER
100
AcDbLine
 10
970.8999519270681
 20
429.7670999324616
 30
0.0
 11
960.8999519270682
 21
429.7670999324616
 31
0.0
  0
LINE
  5
1390
330
2
100
AcDbEntity
  8
CENTER
100
AcDbLine
 10
970.8999519270681
 20
380.2670999324615
 30
0.0
 11
960.8999519270682
 21
380.2670999324615
 31
0.0
  0
ARC
  5
1391
330
2
100
AcDbEntity
  8
0
100
AcDbCircle
 10
965.7226953384096
 20
430.0170999324615
 30
0.0
 40
5.0
100
AcDbArc
 50
90.0
 51
179.8333333333378
  0
LINE
  5
1392
330
2
100
AcDbEntity
  8
0
100
AcDbLine
 10
954.5814718957835
 20
373.9476621850077
 30
0.0
 11
954.1499519270699
 21
405.0170999324634
 31
0.0
  0
LINE
  5
1393
330
2
100
AcDbEntity
  8
0
100
AcDbLine
 10
960.7227164923815
 20
380.0025555425415
 30
0.0
 11
960.6499519270682
 21
405.0170999324615
 31
0.0
  0
ARC
  5
1394
330
2
100
AcDbEntity
  8
0
100
AcDbCircle
 10
959.5809897124553
 20
374.0170999324615
 30
0.0
 40
5.0
100
AcDbArc
 50
180.7957235527443
 51
270.0
  0
LINE
  5
1395
330
2
100
AcDbEntity
  8
0
100
AcDbLine
 10
954.5814718957835
 20
436.0865376799153
 30
0.0
 11
954.149951927069
 21
405.0170999324634
 31
0.0
  0
LINE
  5
1396
330
2
100
AcDbEntity
  8
0
100
AcDbLine
 10
960.7227164923815
 20
430.0316443223834
 30
0.0
 11
960.6499519270682
 21
405.0170999324615
 31
0.0
  0
LINE
  5
1397
330
2
100
AcDbEntity
  8
0
100
AcDbLine
 10
960.6499519270682
 20
405.0170999324615
 30
0.0
 11
954.1499519270681
 21
405.0170999324615
 31
0.0
  0
ARC
  5
1398
330
2
100
AcDbEntity
  8
0
100
AcDbCircle
 10
959.5809897124553
 20
436.0170999324616
 30
0.0
 40
5.0
100
AcDbArc
 50
90.0
 51
179.2042764472556
  0
LINE
  5
1399
330
2
100
AcDbEntity
  8
0
100
AcDbLine
 10
1026.718431958354
 20
373.9476621850077
 30
0.0
 11
1027.149951927068
 21
405.0170999324634
 31
0.0
  0
LINE
  5
139A
330
2
100
AcDbEntity
  8
0
100
AcDbLine
 10
1020.577187361754
 20
380.0025555425415
 30
0.0
 11
1020.649951927068
 21
405.0170999324615
 31
0.0
  0
LINE
  5
139B
330
2
100
AcDbEntity
  8
0
100
AcDbLine
 10
1015.577208515726
 20
375.0170999324615
 30
0.0
 11
965.7226953384096
 21
375.0170999324615
 31
0.0
  0
LINE
  5
139C
330
2
100
AcDbEntity
  8
CENTER
100
AcDbLine
 10
965.8999519270681
 20
385.2670999324615
 30
0.0
 11
965.8999519270681
 21
375.2670999324615
 31
0.0
  0
LINE
  5
139D
330
2
100
AcDbEntity
  8
HIDS
100
AcDbLine
 10
1011.184252791149
 20
376.9821951195878
 30
0.0
 11
1011.272290540865
 21
382.0258744228255
 31
0.0
  0
ARC
  5
139E
330
2
100
AcDbEntity
  8
0
100
AcDbCircle
 10
1015.577208515726
 20
380.0170999324624
 30
0.0
 40
5.0
100
AcDbArc
 50
270.0
 51
359.8333333333378
  0
LINE
  5
139F
330
2
100
AcDbEntity
  8
CENTER
100
AcDbLine
 10
1015.399951927068
 20
385.2670999324615
 30
0.0
 11
1015.399951927068
 21
375.2670999324615
 31
0.0
  0
ARC
  5
13A0
330
2
100
AcDbEntity
  8
0
100
AcDbCircle
 10
1021.718914141681
 20
374.0170999324615
 30
0.0
 40
4.999999999999999
100
AcDbArc
 50
270.0
 51
359.2042764472556
  0
ARC
  5
13A1
330
2
100
AcDbEntity
  8
HIDS
100
AcDbCircle
 10
1009.184557400837
 20
377.0170999324615
 30
0.0
 40
2.0
100
AcDbArc
 50
270.0
 51
358.9999999999982
  0
LINE
  5
13A2
330
2
100
AcDbEntity
  8
CENTER
100
AcDbLine
 10
1020.399951927068
 20
380.2670999324615
 30
0.0
 11
1010.399951927068
 21
380.2670999324615
 31
0.0
  0
ARC
  5
13A3
330
2
100
AcDbEntity
  8
HIDS
100
AcDbCircle
 10
1014.271833626334
 20
381.9735172035131
 30
0.0
 40
3.0
100
AcDbArc
 50
135.7099981688279
 51
178.9999999999982
  0
LINE
  5
13A4
330
2
100
AcDbEntity
  8
0
100
AcDbLine
 10
1015.577208515726
 20
435.0170999324616
 30
0.0
 11
965.7226953384096
 21
435.0170999324616
 31
0.0
  0
LINE
  5
13A5
330
2
100
AcDbEntity
  8
HIDS
100
AcDbLine
 10
974.3999519270682
 20
435.0170999324616
 30
0.0
 11
974.6475200457442
 21
420.8339319124631
 31
0.0
  0
LINE
  5
13A6
330
2
100
AcDbEntity
  8
CENTER
100
AcDbLine
 10
965.8999519270681
 20
434.7670999324615
 30
0.0
 11
965.8999519270681
 21
424.7670999324616
 31
0.0
  0
ARC
  5
13A7
330
2
100
AcDbEntity
  8
HIDS
100
AcDbCircle
 10
967.0280702278022
 20
428.0606826614109
 30
0.0
 40
3.0
100
AcDbArc
 50
315.7099981688279
 51
358.9999999999982
  0
ARC
  5
13A8
330
2
100
AcDbEntity
  8
HIDS
100
AcDbCircle
 10
972.1153464532989
 20
433.0170999324615
 30
0.0
 40
2.0
100
AcDbArc
 50
90.0
 51
178.9999999999982
  0
LINE
  5
13A9
330
2
100
AcDbEntity
  8
HIDS
100
AcDbLine
 10
970.115651062987
 20
433.0520047453362
 30
0.0
 11
970.0276133132728
 21
428.0083254420985
 31
0.0
  0
LINE
  5
13AA
330
2
100
AcDbEntity
  8
HIDS
100
AcDbLine
 10
985.8999519270682
 20
435.0170999324616
 30
0.0
 11
985.7596503032226
 21
426.9792252856202
 31
0.0
  0
LINE
  5
13AB
330
2
100
AcDbEntity
  8
0
100
AcDbLine
 10
1026.718431958354
 20
436.0865376799153
 30
0.0
 11
1027.149951927069
 21
405.0170999324634
 31
0.0
  0
LINE
  5
13AC
330
2
100
AcDbEntity
  8
0
100
AcDbLine
 10
1020.577187361754
 20
430.0316443223834
 30
0.0
 11
1020.649951927068
 21
405.0170999324615
 31
0.0
  0
LINE
  5
13AD
330
2
100
AcDbEntity
  8
CENTER
100
AcDbLine
 10
1015.399951927068
 20
434.7670999324615
 30
0.0
 11
1015.399951927068
 21
424.7670999324616
 31
0.0
  0
LINE
  5
13AE
330
2
100
AcDbEntity
  8
0
100
AcDbLine
 10
1020.649951927068
 20
405.0170999324615
 30
0.0
 11
1027.149951927068
 21
405.0170999324615
 31
0.0
  0
ARC
  5
13AF
330
2
100
AcDbEntity
  8
0
100
AcDbCircle
 10
1021.718914141681
 20
436.0170999324616
 30
0.0
 40
4.999999999999999
100
AcDbArc
 50
0.7957235527443399
 51
90.0
  0
ARC
  5
13B0
330
2
100
AcDbEntity
  8
0
100
AcDbCircle
 10
1015.577208515726
 20
430.0170999324615
 30
0.0
 40
5.0
100
AcDbArc
 50
0.1666666666621044
 51
90.0
  0
LINE
  5
13B1
330
2
100
AcDbEntity
  8
CENTER
100
AcDbLine
 10
1020.399951927068
 20
429.7670999324616
 30
0.0
 11
1010.399951927068
 21
429.7670999324616
 31
0.0
  0
CIRCLE
  5
13B2
330
2
100
AcDbEntity
  8
0
100
AcDbCircle
 10
990.6499519270681
 20
405.0170999324615
 30
0.0
 40
25.00000000022851
  0
ARC
  5
13B3
330
2
100
AcDbEntity
  8
0
100
AcDbCircle
 10
770.8458717560642
 20
370.0170999324523
 30
0.0
 40
5.0
100
AcDbArc
 50
163.8741378563847
 51
171.7867892982521
  0
LINE
  5
13B4
330
2
100
AcDbEntity
  8
0
100
AcDbLine
 10
765.9173639161016
 20
370.9821951195786
 30
0.0
 11
766.5114453894365
 21
405.0170999324524
 31
0.0
  0
LINE
  5
13B5
330
2
100
AcDbEntity
  8
0
100
AcDbLine
 10
754.5114453894365
 20
369.0170999324523
 30
0.0
 11
763.9176685257879
 21
369.0170999324523
 31
0.0
  0
ARC
  5
13B6
330
2
100
AcDbEntity
  8
0
100
AcDbCircle
 10
763.9176685257879
 20
371.0170999324523
 30
0.0
 40
2.0
100
AcDbArc
 50
270.0
 51
358.9999999999982
  0
LINE
  5
13B7
330
2
100
AcDbEntity
  8
CENTER
  6
CENS
100
AcDbLine
 10
783.5114453894365
 20
419.3497204533535
 30
0.0
 11
783.5114453894365
 21
442.7619294964648
 31
0.0
  0
LINE
  5
13B8
330
2
100
AcDbEntity
  8
0
100
AcDbLine
 10
765.9173639161016
 20
439.052004745327
 30
0.0
 11
766.3331149660206
 21
415.2336430474948
 31
0.0
  0
LINE
  5
13B9
330
2
100
AcDbEntity
  8
0
100
AcDbLine
 10
782.9826603632426
 20
432.0129877016748
 30
0.0
 11
782.76511735271
 21
419.549956975185
 31
0.0
  0
LINE
  5
13BA
330
2
100
AcDbEntity
  8
0
100
AcDbLine
 10
754.5114453894365
 20
405.0170999324524
 30
0.0
 11
754.971484742622
 21
405.0170999324514
 31
0.0
  0
LINE
  5
13BB
330
2
100
AcDbEntity
  8
0
100
AcDbLine
 10
772.0426023454637
 20
375.0170999324523
 30
0.0
 11
797.5114453894365
 21
375.0170999324523
 31
0.0
  0
LINE
  5
13BC
330
2
100
AcDbEntity
  8
0
100
AcDbLine
 10
782.9826603632426
 20
378.0212121632299
 30
0.0
 11
782.5114453894365
 21
405.0170999324524
 31
0.0
  0
ARC
  5
13BD
330
2
100
AcDbEntity
  8
0
100
AcDbCircle
 10
785.9831891266293
 20
378.0170999324523
 30
0.0
 40
3.0
100
AcDbArc
 50
181.0000000000017
 51
270.0
  0
ARC
  5
13BE
330
2
100
AcDbEntity
  8
0
100
AcDbCircle
 10
770.419660340045
 20
429.7849185779956
 30
0.0
 40
3.0
100
AcDbArc
 50
270.0
 51
358.9999999999721
  0
LINE
  5
13BF
330
2
100
AcDbEntity
  8
0
100
AcDbLine
 10
779.8909470931083
 20
426.7849185779955
 30
0.0
 11
770.419660340045
 21
426.7849185779964
 31
0.0
  0
LINE
  5
13C0
330
2
100
AcDbEntity
  8
0
100
AcDbLine
 10
773.4192034255155
 20
429.7325613586841
 30
0.0
 11
773.4771445253535
 21
433.0520047453279
 31
0.0
  0
ARC
  5
13C1
330
2
100
AcDbEntity
  8
0
100
AcDbCircle
 10
775.4768399156672
 20
433.0170999324523
 30
0.0
 40
2.0
100
AcDbArc
 50
90.0
 51
178.9999999999721
  0
LINE
  5
13C2
330
2
100
AcDbEntity
  8
0
100
AcDbLine
 10
772.0426023454637
 20
435.0170999324532
 30
0.0
 11
797.5114453894365
 21
435.0170999324523
 31
0.0
  0
ARC
  5
13C3
330
2
100
AcDbEntity
  8
0
100
AcDbCircle
 10
785.9831891266293
 20
432.0170999324523
 30
0.0
 40
3.0
100
AcDbArc
 50
90.0
 51
178.9999999999982
  0
ARC
  5
13C4
330
2
100
AcDbEntity
  8
0
100
AcDbCircle
 10
763.9176685257879
 20
439.0170999324523
 30
0.0
 40
2.0
100
AcDbArc
 50
1.000000000001775
 51
90.0
  0
LINE
  5
13C5
330
2
100
AcDbEntity
  8
0
100
AcDbLine
 10
754.5114453894365
 20
441.0170999324523
 30
0.0
 11
763.9176685257879
 21
441.0170999324523
 31
0.0
  0
ARC
  5
13C6
330
2
100
AcDbEntity
  8
0
100
AcDbCircle
 10
770.8458717560642
 20
440.0170999324532
 30
0.0
 40
5.0
100
AcDbArc
 50
188.2132107017478
 51
196.1258621436152
  0
LINE
  5
13C7
330
2
100
AcDbEntity
  8
0
100
AcDbLine
 10
797.5114453894365
 20
375.0170999324523
 30
0.0
 11
797.5114453894365
 21
435.0170999324523
 31
0.0
  0
CIRCLE
  5
13C8
330
2
100
AcDbEntity
  8
0
100
AcDbCircle
 10
959.5399519270694
 20
373.9070999324618
 30
0.0
 40
2.75
  0
CIRCLE
  5
13C9
330
2
100
AcDbEntity
  8
0
100
AcDbCircle
 10
1021.759951927068
 20
436.1270999324621
 30
0.0
 40
2.75
  0
CIRCLE
  5
13CA
330
2
100
AcDbEntity
  8
0
100
AcDbCircle
 10
1021.759951927068
 20
373.9070999324628
 30
0.0
 40
2.75
  0
LINE
  5
13CB
330
2
100
AcDbEntity
  8
0
100
AcDbLine
 10
771.7426023454644
 20
378.1570999324527
 30
0.0
 11
767.0426023454637
 21
378.1570999324527
 31
0.0
  0
LINE
  5
13CC
330
2
100
AcDbEntity
  8
0
100
AcDbLine
 10
767.0426023454637
 20
369.6570999324527
 30
0.0
 11
771.7426023454644
 21
369.6570999324527
 31
0.0
  0
LINE
  5
13CD
330
2
100
AcDbEntity
  8
CENTER
  6
CENS
100
AcDbLine
 10
749.5114453894365
 20
373.9070999324527
 30
0.0
 11
776.9684183195185
 21
373.9070999324527
 31
0.0
  0
LINE
  5
13CE
330
2
100
AcDbEntity
  8
0
100
AcDbLine
 10
772.0426023454637
 20
370.1767151747231
 30
0.0
 11
772.0426023454637
 21
377.6374846901822
 31
0.0
  0
LINE
  5
13CF
330
2
100
AcDbEntity
  8
0
100
AcDbLine
 10
771.7426023454644
 20
378.1570999324527
 30
0.0
 11
771.7426023454644
 21
369.6570999324527
 31
0.0
  0
LINE
  5
13D0
330
2
100
AcDbEntity
  8
0
100
AcDbLine
 10
771.7426023454644
 20
378.1570999324527
 30
0.0
 11
772.0426023454637
 21
377.6374846901822
 31
0.0
  0
LINE
  5
13D1
330
2
100
AcDbEntity
  8
0
100
AcDbLine
 10
772.0426023454637
 20
370.1767151747231
 30
0.0
 11
771.7426023454644
 21
369.6570999324527
 31
0.0
  0
LINE
  5
13D2
330
2
100
AcDbEntity
  8
0
100
AcDbLine
 10
767.0426023454637
 20
369.6570999324527
 30
0.0
 11
766.0426023454637
 21
369.6570999324527
 31
0.0
  0
LINE
  5
13D3
330
2
100
AcDbEntity
  8
0
100
AcDbLine
 10
766.0426023454637
 20
369.6570999324527
 30
0.0
 11
766.0426023454637
 21
378.1570999324527
 31
0.0
  0
LINE
  5
13D4
330
2
100
AcDbEntity
  8
0
100
AcDbLine
 10
766.0426023454637
 20
378.1570999324527
 30
0.0
 11
767.0426023454637
 21
378.1570999324527
 31
0.0
  0
LINE
  5
13D5
330
2
100
AcDbEntity
  8
0
100
AcDbLine
 10
767.0426023454637
 20
378.1570999324527
 30
0.0
 11
767.0426023454637
 21
369.6570999324527
 31
0.0
  0
LINE
  5
13D6
330
2
100
AcDbEntity
  8
0
100
AcDbLine
 10
767.0426023454637
 20
378.1570999324527
 30
0.0
 11
767.0426023454637
 21
369.6570999324527
 31
0.0
  0
LINE
  5
13D7
330
2
100
AcDbEntity
  8
0
100
AcDbLine
 10
771.7426023471888
 20
647.2661126515254
 30
0.0
 11
767.0426023471881
 21
647.2661126515254
 31
0.0
  0
LINE
  5
13D8
330
2
100
AcDbEntity
  8
0
100
AcDbLine
 10
767.0426023471881
 20
638.7661126515254
 30
0.0
 11
771.7426023471888
 21
638.7661126515254
 31
0.0
  0
LINE
  5
13D9
330
2
100
AcDbEntity
  8
CENTER
  6
CENS
100
AcDbLine
 10
749.5114453911609
 20
643.0161126515254
 30
0.0
 11
776.9684183212429
 21
643.0161126515254
 31
0.0
  0
LINE
  5
13DA
330
2
100
AcDbEntity
  8
0
100
AcDbLine
 10
772.0426023471881
 20
639.2857278937959
 30
0.0
 11
772.0426023471881
 21
646.746497409255
 31
0.0
  0
LINE
  5
13DB
330
2
100
AcDbEntity
  8
0
100
AcDbLine
 10
771.7426023471888
 20
647.2661126515254
 30
0.0
 11
771.7426023471888
 21
638.7661126515254
 31
0.0
  0
LINE
  5
13DC
330
2
100
AcDbEntity
  8
0
100
AcDbLine
 10
771.7426023471888
 20
647.2661126515254
 30
0.0
 11
772.0426023471881
 21
646.746497409255
 31
0.0
  0
LINE
  5
13DD
330
2
100
AcDbEntity
  8
0
100
AcDbLine
 10
772.0426023471881
 20
639.2857278937959
 30
0.0
 11
771.7426023471888
 21
638.7661126515254
 31
0.0
  0
LINE
  5
13DE
330
2
100
AcDbEntity
  8
0
100
AcDbLine
 10
767.0426023471881
 20
638.7661126515254
 30
0.0
 11
766.0426023471881
 21
638.7661126515254
 31
0.0
  0
LINE
  5
13DF
330
2
100
AcDbEntity
  8
0
100
AcDbLine
 10
766.0426023471881
 20
638.7661126515254
 30
0.0
 11
766.0426023471881
 21
647.2661126515254
 31
0.0
  0
LINE
  5
13E0
330
2
100
AcDbEntity
  8
0
100
AcDbLine
 10
766.0426023471881
 20
647.2661126515254
 30
0.0
 11
767.0426023471881
 21
647.2661126515254
 31
0.0
  0
LINE
  5
13E1
330
2
100
AcDbEntity
  8
0
100
AcDbLine
 10
767.0426023471881
 20
647.2661126515254
 30
0.0
 11
767.0426023471881
 21
638.7661126515254
 31
0.0
  0
LINE
  5
13E2
330
2
100
AcDbEntity
  8
0
100
AcDbLine
 10
767.0426023471881
 20
647.2661126515254
 30
0.0
 11
767.0426023471881
 21
638.7661126515254
 31
0.0
  0
LINE
  5
13E3
330
2
100
AcDbEntity
  8
0
100
AcDbLine
 10
771.7426023471888
 20
700.9861126515256
 30
0.0
 11
767.0426023471881
 21
700.9861126515256
 31
0.0
  0
LINE
  5
13E4
330
2
100
AcDbEntity
  8
0
100
AcDbLine
 10
767.0426023471881
 20
709.4861126515256
 30
0.0
 11
771.7426023471888
 21
709.4861126515256
 31
0.0
  0
LINE
  5
13E5
330
2
100
AcDbEntity
  8
CENTER
  6
CENS
100
AcDbLine
 10
749.5114453911609
 20
705.2361126515257
 30
0.0
 11
776.9684183212429
 21
705.2361126515257
 31
0.0
  0
LINE
  5
13E6
330
2
100
AcDbEntity
  8
0
100
AcDbLine
 10
772.0426023471881
 20
708.9664974092552
 30
0.0
 11
772.0426023471881
 21
701.5057278937961
 31
0.0
  0
LINE
  5
13E7
330
2
100
AcDbEntity
  8
0
100
AcDbLine
 10
771.7426023471888
 20
700.9861126515256
 30
0.0
 11
771.7426023471888
 21
709.4861126515256
 31
0.0
  0
LINE
  5
13E8
330
2
100
AcDbEntity
  8
0
100
AcDbLine
 10
771.7426023471888
 20
700.9861126515256
 30
0.0
 11
772.0426023471881
 21
701.5057278937961
 31
0.0
  0
LINE
  5
13E9
330
2
100
AcDbEntity
  8
0
100
AcDbLine
 10
772.0426023471881
 20
708.9664974092552
 30
0.0
 11
771.7426023471888
 21
709.4861126515256
 31
0.0
  0
LINE
  5
13EA
330
2
100
AcDbEntity
  8
0
100
AcDbLine
 10
767.0426023471881
 20
709.4861126515256
 30
0.0
 11
766.0426023471881
 21
709.4861126515256
 31
0.0
  0
LINE
  5
13EB
330
2
100
AcDbEntity
  8
0
100
AcDbLine
 10
766.0426023471881
 20
709.4861126515256
 30
0.0
 11
766.0426023471881
 21
700.9861126515256
 31
0.0
  0
LINE
  5
13EC
330
2
100
AcDbEntity
  8
0
100
AcDbLine
 10
766.0426023471881
 20
700.9861126515256
 30
0.0
 11
767.0426023471881
 21
700.9861126515256
 31
0.0
  0
LINE
  5
13ED
330
2
100
AcDbEntity
  8
0
100
AcDbLine
 10
767.0426023471881
 20
700.9861126515256
 30
0.0
 11
767.0426023471881
 21
709.4861126515256
 31
0.0
  0
LINE
  5
13EE
330
2
100
AcDbEntity
  8
0
100
AcDbLine
 10
767.0426023471881
 20
700.9861126515256
 30
0.0
 11
767.0426023471881
 21
709.4861126515256
 31
0.0
  0
ARC
  5
13EF
330
2
100
AcDbEntity
  8
0
100
AcDbCircle
 10
959.5399519270676
 20
436.1270999324621
 30
0.0
 40
4.25000000000019
100
AcDbArc
 50
337.0991355555411
 51
293.5789623545198
  0
ARC
  5
13F0
330
2
100
AcDbEntity
  8
0
100
AcDbCircle
 10
959.5399519270676
 20
436.1270999324621
 30
0.0
 40
3.730384757729381
100
AcDbArc
 50
321.5287333511419
 51
309.1493645588701
  0
LWPOLYLINE
  5
13F1
330
2
100
AcDbEntity
  8
0
100
AcDbPolyline
 90
        6
 70
     1
 43
0.0
 10
961.5399519270676
 20
437.2818004708412
 10
959.5399519270676
 20
438.4365010092203
 10
957.5399519270675
 20
437.2818004708412
 10
957.5399519270675
 20
434.972399394083
 10
959.5399519270676
 20
433.817698855704
 10
961.5399519270676
 20
434.972399394083
  0
CIRCLE
  5
13F2
330
2
100
AcDbEntity
  8
0
100
AcDbCircle
 10
959.5399519270676
 20
436.1270999324621
 30
0.0
 40
2.3094010767585
  0
LINE
  5
13F3
330
2
100
AcDbEntity
  8
CENTER
100
AcDbLine
 10
959.5399519270676
 20
442.0855301797561
 30
0.0
 11
959.5399519270676
 21
430.1686696851681
 31
0.0
  0
LINE
  5
13F4
330
2
100
AcDbEntity
  8
CENTER
100
AcDbLine
 10
953.5815216797736
 20
436.1270999324621
 30
0.0
 11
965.4983821743616
 21
436.1270999324621
 31
0.0
  0
ARC
  5
13F5
330
2
100
AcDbEntity
  8
0
100
AcDbCircle
 10
1021.759951927068
 20
436.1270999324621
 30
0.0
 40
4.25000000000019
100
AcDbArc
 50
246.4210376454801
 51
202.9008644444588
  0
ARC
  5
13F6
330
2
100
AcDbEntity
  8
0
100
AcDbCircle
 10
1021.759951927068
 20
436.1270999324621
 30
0.0
 40
3.730384757729381
100
AcDbArc
 50
230.8506354409906
 51
218.471266648858
  0
LWPOLYLINE
  5
13F7
330
2
100
AcDbEntity
  8
0
100
AcDbPolyline
 90
        6
 70
     1
 43
0.0
 10
1023.759951927068
 20
437.2818004708412
 10
1021.759951927068
 20
438.4365010092203
 10
1019.759951927068
 20
437.2818004708412
 10
1019.759951927068
 20
434.972399394083
 10
1021.759951927068
 20
433.817698855704
 10
1023.759951927068
 20
434.972399394083
  0
CIRCLE
  5
13F8
330
2
100
AcDbEntity
  8
0
100
AcDbCircle
 10
1021.759951927068
 20
436.1270999324621
 30
0.0
 40
2.3094010767585
  0
LINE
  5
13F9
330
2
100
AcDbEntity
  8
CENTER
100
AcDbLine
 10
1021.759951927068
 20
442.0855301797561
 30
0.0
 11
1021.759951927068
 21
430.1686696851681
 31
0.0
  0
LINE
  5
13FA
330
2
100
AcDbEntity
  8
CENTER
100
AcDbLine
 10
1015.801521679774
 20
436.1270999324621
 30
0.0
 11
1027.718382174362
 21
436.1270999324621
 31
0.0
  0
ARC
  5
13FB
330
2
100
AcDbEntity
  8
0
100
AcDbCircle
 10
1021.759951927068
 20
373.9070999324628
 30
0.0
 40
4.25000000000019
100
AcDbArc
 50
157.0991355555407
 51
113.57896235452
  0
ARC
  5
13FC
330
2
100
AcDbEntity
  8
0
100
AcDbCircle
 10
1021.759951927068
 20
373.9070999324628
 30
0.0
 40
3.730384757729381
100
AcDbArc
 50
141.5287333511416
 51
129.1493645588699
  0
LWPOLYLINE
  5
13FD
330
2
100
AcDbEntity
  8
0
100
AcDbPolyline
 90
        6
 70
     1
 43
0.0
 10
1023.759951927068
 20
375.0618004708409
 10
1021.759951927068
 20
376.2165010092209
 10
1019.759951927068
 20
375.0618004708409
 10
1019.759951927068
 20
372.7523993940828
 10
1021.759951927068
 20
371.5976988557037
 10
1023.759951927068
 20
372.7523993940828
  0
CIRCLE
  5
13FE
330
2
100
AcDbEntity
  8
0
100
AcDbCircle
 10
1021.759951927068
 20
373.9070999324628
 30
0.0
 40
2.3094010767585
  0
LINE
  5
13FF
330
2
100
AcDbEntity
  8
CENTER
100
AcDbLine
 10
1021.759951927068
 20
379.8655301797568
 30
0.0
 11
1021.759951927068
 21
367.9486696851688
 31
0.0
  0
LINE
  5
1400
330
2
100
AcDbEntity
  8
CENTER
100
AcDbLine
 10
1015.801521679774
 20
373.9070999324628
 30
0.0
 11
1027.718382174362
 21
373.9070999324628
 31
0.0
  0
ARC
  5
1401
330
2
100
AcDbEntity
  8
0
100
AcDbCircle
 10
959.5399519270694
 20
373.9070999324618
 30
0.0
 40
4.25000000000019
100
AcDbArc
 50
66.421037645593
 51
22.90086444442912
  0
ARC
  5
1402
330
2
100
AcDbEntity
  8
0
100
AcDbCircle
 10
959.5399519270694
 20
373.9070999324618
 30
0.0
 40
3.730384757729381
100
AcDbArc
 50
50.8506354412629
 51
38.47126664871176
  0
LWPOLYLINE
  5
1403
330
2
100
AcDbEntity
  8
0
100
AcDbPolyline
 90
        6
 70
     1
 43
0.0
 10
961.5399519270694
 20
375.0618004708409
 10
959.5399519270694
 20
376.2165010092209
 10
957.5399519270694
 20
375.0618004708409
 10
957.5399519270694
 20
372.7523993940828
 10
959.5399519270694
 20
371.5976988557037
 10
961.5399519270694
 20
372.7523993940828
  0
CIRCLE
  5
1404
330
2
100
AcDbEntity
  8
0
100
AcDbCircle
 10
959.5399519270694
 20
373.9070999324618
 30
0.0
 40
2.3094010767585
  0
LINE
  5
1405
330
2
100
AcDbEntity
  8
CENTER
100
AcDbLine
 10
959.5399519270694
 20
379.8655301797559
 30
0.0
 11
959.5399519270694
 21
367.9486696851678
 31
0.0
  0
LINE
  5
1406
330
2
100
AcDbEntity
  8
CENTER
100
AcDbLine
 10
953.5815216797754
 20
373.9070999324618
 30
0.0
 11
965.4983821743634
 21
373.9070999324618
 31
0.0
  0
LINE
  5
1407
330
2
100
AcDbEntity
  8
HIDS
100
AcDbLine
 10
982.1499519270682
 20
404.2670999324616
 30
0.0
 11
982.1499519270682
 21
395.8170999324617
 31
0.0
  0
LINE
  5
1408
330
2
100
AcDbEntity
  8
HIDS
100
AcDbLine
 10
981.8166185937341
 20
404.2670999324616
 30
0.0
 11
981.8166185937341
 21
395.4837665991287
 31
0.0
  0
LINE
  5
1409
330
2
100
AcDbEntity
  8
HIDS
100
AcDbLine
 10
978.483285260402
 20
404.2670999324616
 30
0.0
 11
978.483285260402
 21
396.6783516917355
 31
0.0
  0
LINE
  5
140A
330
2
100
AcDbEntity
  8
HIDS
100
AcDbLine
 10
978.1499519270681
 20
404.2670999324616
 30
0.0
 11
978.1499519270681
 21
397.1868700507791
 31
0.0
  0
ARC
  5
140B
330
2
100
AcDbEntity
  8
0
100
AcDbCircle
 10
990.6499519270681
 20
405.0170999324615
 30
0.0
 40
14.75
100
AcDbArc
 50
218.5889464533592
 51
160.1850718514817
  0
LINE
  5
140C
330
2
100
AcDbEntity
  8
CENTER
  6
CENS
100
AcDbLine
 10
980.1499519270681
 20
442.761929496474
 30
0.0
 11
980.1499519270681
 21
393.5648495879047
 31
0.0
  0
LINE
  5
140D
330
2
100
AcDbEntity
  8
HIDS
100
AcDbLine
 10
982.1499519270682
 20
404.2670999324616
 30
0.0
 11
982.1499519270682
 21
392.9625364812206
 31
0.0
  0
ARC
  5
140E
330
2
100
AcDbEntity
  8
0
100
AcDbCircle
 10
990.6499519270681
 20
405.0170999324615
 30
0.0
 40
14.75
100
AcDbArc
 50
180.0
 51
218.5889464533592
  0
LINE
  5
140F
330
2
100
AcDbEntity
  8
HIDS
100
AcDbLine
 10
979.1207498731536
 20
395.8170999324617
 30
0.0
 11
980.1499519270681
 21
395.8170999324617
 31
0.0
  0
LINE
  5
1410
330
2
100
AcDbEntity
  8
0
100
AcDbLine
 10
978.9499519270693
 20
395.0170999324615
 30
0.0
 11
979.8073277059673
 21
395.0170999324615
 31
0.0
  0
LINE
  5
1411
330
2
100
AcDbEntity
  8
0
100
AcDbLine
 10
978.1499519270681
 20
397.1868700507791
 30
0.0
 11
978.1499519270681
 21
395.8170999324617
 31
0.0
  0
LINE
  5
1412
330
2
100
AcDbEntity
  8
HOJO
100
AcDbLine
 10
978.483285260402
 20
396.6783516917355
 30
0.0
 11
978.483285260402
 21
395.4837665991287
 31
0.0
  0
LINE
  5
1413
330
2
100
AcDbEntity
  8
0
100
AcDbLine
 10
978.1499519270681
 20
395.8170999324617
 30
0.0
 11
979.1207498731536
 21
395.8170999324617
 31
0.0
  0
LINE
  5
1414
330
2
100
AcDbEntity
  8
0
100
AcDbLine
 10
978.1499519270681
 20
395.8170999324617
 30
0.0
 11
978.9499519270693
 21
395.0170999324615
 31
0.0
  0
LINE
  5
1415
330
2
100
AcDbEntity
  8
HIDS
100
AcDbLine
 10
979.8073277059673
 20
395.0170999324615
 30
0.0
 11
980.1499519270681
 21
395.0170999324615
 31
0.0
  0
LINE
  5
1416
330
2
100
AcDbEntity
  8
HIDS
100
AcDbLine
 10
982.1499519270682
 20
395.8170999324617
 30
0.0
 11
981.3499519270688
 21
395.0170999324615
 31
0.0
  0
LINE
  5
1417
330
2
100
AcDbEntity
  8
HIDS
100
AcDbLine
 10
981.3499519270688
 20
395.0170999324615
 30
0.0
 11
980.1499519270681
 21
395.0170999324615
 31
0.0
  0
LINE
  5
1418
330
2
100
AcDbEntity
  8
HIDS
100
AcDbLine
 10
982.1499519270682
 20
395.8170999324617
 30
0.0
 11
980.1499519270681
 21
395.8170999324617
 31
0.0
  0
LINE
  5
1419
330
2
100
AcDbEntity
  8
HIDS
100
AcDbLine
 10
981.8166185937341
 20
395.4837665991287
 30
0.0
 11
981.8166185937341
 21
393.2046183040226
 31
0.0
  0
LINE
  5
141A
330
2
100
AcDbEntity
  8
HIDS
100
AcDbLine
 10
976.7732628406911
 20
410.0170999324616
 30
0.0
 11
983.6499519270681
 21
410.0170999324616
 31
0.0
  0
LINE
  5
141B
330
2
100
AcDbEntity
  8
HIDS
100
AcDbLine
 10
978.7389276218281
 20
413.7170999324623
 30
0.0
 11
983.6499519270681
 21
413.7170999324623
 31
0.0
  0
LINE
  5
141C
330
2
100
AcDbEntity
  8
HIDS
100
AcDbLine
 10
983.1303366847977
 20
414.0170999324615
 30
0.0
 11
978.9639560345484
 21
414.0170999324615
 31
0.0
  0
LINE
  5
141D
330
2
100
AcDbEntity
  8
HIDS
100
AcDbLine
 10
982.1499519270682
 20
408.3504332657954
 30
0.0
 11
978.1499519270681
 21
408.3504332657954
 31
0.0
  0
LINE
  5
141E
330
2
100
AcDbEntity
  8
HIDS
100
AcDbLine
 10
976.7732628406891
 20
410.0170999324616
 30
0.0
 11
984.1499519270682
 21
410.0170999324616
 31
0.0
  0
LINE
  5
141F
330
2
100
AcDbEntity
  8
0
100
AcDbLine
 10
975.9190320644128
 20
405.7670999324615
 30
0.0
 11
980.1499519270681
 21
405.7670999324615
 31
0.0
  0
LINE
  5
1420
330
2
100
AcDbEntity
  8
0
100
AcDbLine
 10
975.9190320644128
 20
404.2670999324616
 30
0.0
 11
980.1499519270681
 21
404.2670999324616
 31
0.0
  0
LINE
  5
1421
330
2
100
AcDbEntity
  8
0
100
AcDbLine
 10
976.6499519270681
 20
413.7170999324623
 30
0.0
 11
976.6499519270681
 21
410.0170999324616
 31
0.0
  0
LINE
  5
1422
330
2
100
AcDbEntity
  8
0
100
AcDbLine
 10
978.1499519270681
 20
405.7670999324615
 30
0.0
 11
978.1499519270681
 21
404.2670999324616
 31
0.0
  0
LINE
  5
1423
330
2
100
AcDbEntity
  8
HOJO
100
AcDbLine
 10
978.483285260402
 20
405.7670999324615
 30
0.0
 11
978.483285260402
 21
404.2670999324616
 31
0.0
  0
ARC
  5
1424
330
2
100
AcDbEntity
  8
0
100
AcDbCircle
 10
990.6499519270681
 20
405.0170999324615
 30
0.0
 40
14.75
100
AcDbArc
 50
160.1850718514817
 51
180.0
  0
LINE
  5
1425
330
2
100
AcDbEntity
  8
HIDS
100
AcDbLine
 10
978.1499519270681
 20
410.0170999324616
 30
0.0
 11
978.483285260402
 21
408.3504332657954
 31
0.0
  0
LINE
  5
1426
330
2
100
AcDbEntity
  8
0
100
AcDbLine
 10
976.6499519270681
 20
410.0170999324616
 30
0.0
 11
976.7732628406911
 21
410.0170999324616
 31
0.0
  0
LINE
  5
1427
330
2
100
AcDbEntity
  8
HIDS
100
AcDbLine
 10
978.483285260402
 20
408.3504332657954
 30
0.0
 11
978.483285260402
 21
405.7670999324615
 31
0.0
  0
LINE
  5
1428
330
2
100
AcDbEntity
  8
HIDS
100
AcDbLine
 10
978.1499519270681
 20
410.0170999324616
 30
0.0
 11
978.1499519270681
 21
405.7670999324615
 31
0.0
  0
LINE
  5
1429
330
2
100
AcDbEntity
  8
HIDS
100
AcDbLine
 10
977.6499519270682
 20
410.0170999324616
 30
0.0
 11
977.6499519270682
 21
405.7670999324615
 31
0.0
  0
LINE
  5
142A
330
2
100
AcDbEntity
  8
0
100
AcDbLine
 10
978.9639560345484
 20
414.0170999324615
 30
0.0
 11
977.1695671693386
 21
414.0170999324615
 31
0.0
  0
LINE
  5
142B
330
2
100
AcDbEntity
  8
0
100
AcDbLine
 10
976.6499519270681
 20
413.7170999324623
 30
0.0
 11
977.1695671693386
 21
414.0170999324615
 31
0.0
  0
LINE
  5
142C
330
2
100
AcDbEntity
  8
0
100
AcDbLine
 10
976.6499519270681
 20
413.7170999324623
 30
0.0
 11
978.7389276218281
 21
413.7170999324623
 31
0.0
  0
LINE
  5
142D
330
2
100
AcDbEntity
  8
HIDS
100
AcDbLine
 10
983.6499519270681
 20
410.0170999324616
 30
0.0
 11
983.6499519270681
 21
413.7170999324623
 31
0.0
  0
LINE
  5
142E
330
2
100
AcDbEntity
  8
HIDS
100
AcDbLine
 10
984.1499519270682
 20
418.2576626093275
 30
0.0
 11
984.1499519270682
 21
410.0170999324616
 31
0.0
  0
LINE
  5
142F
330
2
100
AcDbEntity
  8
HOJO
100
AcDbLine
 10
981.8166185937341
 20
405.7670999324615
 30
0.0
 11
981.8166185937341
 21
404.2670999324616
 31
0.0
  0
LINE
  5
1430
330
2
100
AcDbEntity
  8
0
100
AcDbLine
 10
982.1499519270682
 20
405.7670999324615
 30
0.0
 11
982.1499519270682
 21
404.2670999324616
 31
0.0
  0
LINE
  5
1431
330
2
100
AcDbEntity
  8
0
100
AcDbLine
 10
980.1499519270681
 20
404.2670999324616
 30
0.0
 11
983.6902464735294
 21
404.2670999324616
 31
0.0
  0
LINE
  5
1432
330
2
100
AcDbEntity
  8
0
100
AcDbLine
 10
980.1499519270681
 20
405.7670999324615
 30
0.0
 11
983.6902464735294
 21
405.7670999324624
 31
0.0
  0
LINE
  5
1433
330
2
100
AcDbEntity
  8
HIDS
100
AcDbLine
 10
982.1499519270682
 20
410.0170999324616
 30
0.0
 11
981.8166185937341
 21
408.3504332657954
 31
0.0
  0
LINE
  5
1434
330
2
100
AcDbEntity
  8
HIDS
100
AcDbLine
 10
982.1499519270682
 20
410.0170999324616
 30
0.0
 11
982.1499519270682
 21
405.7670999324615
 31
0.0
  0
LINE
  5
1435
330
2
100
AcDbEntity
  8
HIDS
100
AcDbLine
 10
981.8166185937341
 20
408.3504332657954
 30
0.0
 11
981.8166185937341
 21
405.7670999324615
 31
0.0
  0
LINE
  5
1436
330
2
100
AcDbEntity
  8
HIDS
100
AcDbLine
 10
982.6499519270681
 20
410.0170999324616
 30
0.0
 11
982.6499519270681
 21
405.7670999324615
 31
0.0
  0
LINE
  5
1437
330
2
100
AcDbEntity
  8
HIDS
100
AcDbLine
 10
983.1303366847977
 20
414.0170999324615
 30
0.0
 11
983.6499519270681
 21
413.7170999324623
 31
0.0
  0
LINE
  5
1438
330
2
100
AcDbEntity
  8
0
100
AcDbLine
 10
1004.649951927068
 20
404.2670999324616
 30
0.0
 11
997.6096573806033
 21
404.2670999324616
 31
0.0
  0
LINE
  5
1439
330
2
100
AcDbEntity
  8
0
100
AcDbLine
 10
997.6096573806033
 20
405.7670999324615
 30
0.0
 11
1004.649951927068
 21
405.7670999324615
 31
0.0
  0
LINE
  5
143A
330
2
100
AcDbEntity
  8
0
100
AcDbLine
 10
1004.649951927068
 20
405.7670999324615
 30
0.0
 11
1004.649951927068
 21
404.2670999324616
 31
0.0
  0
LINE
  5
143B
330
2
100
AcDbEntity
  8
0
100
AcDbLine
 10
788.0114347803863
 20
412.0170999324533
 30
0.0
 11
778.0114347803845
 21
412.0170999324533
 31
0.0
  0
LINE
  5
143C
330
2
100
AcDbEntity
  8
0
100
AcDbLine
 10
788.0114347803846
 20
412.0170999324533
 30
0.0
 11
788.0114347803846
 21
405.0170999324524
 31
0.0
  0
LINE
  5
143D
330
2
100
AcDbEntity
  8
0
100
AcDbLine
 10
790.0114347803845
 20
413.1718004708323
 30
0.0
 11
788.0114347803846
 21
412.0170999324523
 31
0.0
  0
LINE
  5
143E
330
2
100
AcDbEntity
  8
0
100
AcDbLine
 10
761.0114347803864
 20
412.2670999324523
 30
0.0
 11
761.0114347803864
 21
405.0170999324524
 31
0.0
  0
LINE
  5
143F
330
2
100
AcDbEntity
  8
0
100
AcDbLine
 10
788.0114347803863
 20
412.0170999324533
 30
0.0
 11
778.0114347803845
 21
412.0170999324533
 31
0.0
  0
LINE
  5
1440
330
2
100
AcDbEntity
  8
0
100
AcDbLine
 10
782.9236489590583
 20
419.7670999324532
 30
0.0
 11
790.0114347803845
 21
419.7670999324532
 31
0.0
  0
LINE
  5
1441
330
2
100
AcDbEntity
  8
0
100
AcDbLine
 10
790.0114347803845
 20
419.7670999324532
 30
0.0
 11
790.0114347803845
 21
405.0170999324524
 31
0.0
  0
LINE
  5
1442
330
2
100
AcDbEntity
  8
0
100
AcDbLine
 10
776.0114347803845
 20
415.3017811191762
 30
0.0
 11
776.0114347803845
 21
405.0170999324524
 31
0.0
  0
LINE
  5
1443
330
2
100
AcDbEntity
  8
0
100
AcDbLine
 10
778.0114347803845
 20
415.8271812666076
 30
0.0
 11
778.0114347803845
 21
405.0170999324524
 31
0.0
  0
LINE
  5
1444
330
2
100
AcDbEntity
  8
0
100
AcDbLine
 10
769.0114347803864
 20
412.2670999324523
 30
0.0
 11
761.0114347803864
 21
412.2670999324523
 31
0.0
  0
LINE
  5
1445
330
2
100
AcDbEntity
  8
0
100
AcDbLine
 10
769.0114347803864
 20
405.0170999324524
 30
0.0
 11
769.0114347803864
 21
412.2670999324523
 31
0.0
  0
LINE
  5
1446
330
2
100
AcDbEntity
  8
0
100
AcDbLine
 10
776.0114347803845
 20
412.0170999324523
 30
0.0
 11
769.0114347803864
 21
412.0170999324523
 31
0.0
  0
LINE
  5
1447
330
2
100
AcDbEntity
  8
0
100
AcDbLine
 10
757.2586580306523
 20
405.0170999324524
 30
0.0
 11
761.0114347803864
 21
411.5170999324523
 31
0.0
  0
SPLINE
  5
1448
330
2
100
AcDbEntity
  8
HOJO
100
AcDbSpline
210
0.0
220
0.0
230
1.0
 70
     8
 71
     3
 72
    20
 73
    16
 74
     0
 42
0.0000000001
 43
0.0000000001
 40
0.0
 40
0.0
 40
0.0
 40
0.0
 40
5.311626210389601
 40
7.954639692924123
 40
10.24579206730457
 40
14.18281221953265
 40
18.83794314114633
 40
26.54246833222011
 40
31.19712602527561
 40
34.95638115537181
 40
42.12378530287149
 40
45.78553747213095
 40
50.20353689726185
 40
53.26513166942802
 40
54.23175360515262
 40
54.23175360515262
 40
54.23175360515262
 40
54.23175360515262
 10
797.5114453894347
 20
431.704548654469
 30
0.0
 10
795.7984662235466
 20
431.5965066042422
 30
0.0
 10
793.2331253041355
 20
431.4347038818382
 30
0.0
 10
789.4613714170589
 20
431.1825712096712
 30
0.0
 10
788.1422302009249
 20
428.2501297247041
 30
0.0
 10
785.7070208326348
 20
425.5956209014089
 30
0.0
 10
783.8689724894846
 20
420.4443254682442
 30
0.0
 10
779.7441360800075
 20
415.7345781166191
 30
0.0
 10
774.2664885770007
 20
415.0972466822
 30
0.0
 10
769.3531030674347
 20
414.711675038659
 30
0.0
 10
764.5191037206767
 20
415.875259148113
 30
0.0
 10
759.4813769560386
 20
413.1757289122484
 30
0.0
 10
756.4102263346684
 20
409.3015047831063
 30
0.0
 10
755.4102520399427
 20
406.6232642622158
 30
0.0
 10
755.0542125147111
 20
405.3282512321453
 30
0.0
 10
754.971484742622
 20
405.0170999324524
 30
0.0
  0
LINE
  5
1449
330
2
100
AcDbEntity
  8
0
100
AcDbLine
 10
797.5114453894365
 20
430.0170999324532
 30
0.0
 11
790.5114453894364
 21
430.0170999324532
 31
0.0
  0
LINE
  5
144A
330
2
100
AcDbEntity
  8
0
100
AcDbLine
 10
790.5114453894364
 20
430.0170999324532
 30
0.0
 11
790.5114453894364
 21
405.0170999324524
 31
0.0
  0
LINE
  5
144B
330
2
100
AcDbEntity
  8
0
100
AcDbLine
 10
788.5114515606236
 20
439.0170999324523
 30
0.0
 11
778.5114515606236
 21
439.0170999324523
 31
0.0
  0
ARC
  5
144C
330
2
100
AcDbEntity
  8
0
100
AcDbCircle
 10
778.5114515606236
 20
435.0170999324523
 30
0.0
 40
4.0
100
AcDbArc
 50
90.0
 51
180.0
  0
ARC
  5
144D
330
2
100
AcDbEntity
  8
0
100
AcDbCircle
 10
788.5114515606236
 20
435.0170999324523
 30
0.0
 40
4.0
100
AcDbArc
 50
0.0
 51
90.0
  0
LINE
  5
144E
330
2
100
AcDbEntity
  8
0
100
AcDbLine
 10
975.1499457558811
 20
439.0170977968879
 30
0.0
 11
985.149945755881
 21
439.0170977968879
 31
0.0
  0
ARC
  5
144F
330
2
100
AcDbEntity
  8
0
100
AcDbCircle
 10
985.149945755881
 20
435.0170977968879
 30
0.0
 40
4.0
100
AcDbArc
 50
0.0
 51
90.0
  0
LINE
  5
1450
330
2
100
AcDbEntity
  8
0
100
AcDbLine
 10
989.1499457558809
 20
435.0170977968879
 30
0.0
 11
989.1499457558809
 21
435.0170977968879
 31
0.0
  0
ARC
  5
1451
330
2
100
AcDbEntity
  8
0
100
AcDbCircle
 10
975.1499457558811
 20
435.0170977968879
 30
0.0
 40
4.0
100
AcDbArc
 50
90.0
 51
180.0
  0
CIRCLE
  5
1452
330
2
100
AcDbEntity
  8
0
100
AcDbCircle
 10
783.5114453911609
 20
663.626112651525
 30
0.0
 40
9.000006171187123
  0
CIRCLE
  5
1454
330
2
100
AcDbEntity
  8
0
100
AcDbCircle
 10
990.6499519270663
 20
405.0170999324634
 30
0.0
 40
6.999999999998635
  0
ARC
  5
1455
330
2
100
AcDbEntity
  8
0
100
AcDbCircle
 10
990.6499519270681
 20
405.0170999324634
 30
0.0
 40
8.154700538378165
100
AcDbArc
 50
5.277035934803723
 51
174.7229640651962
  0
ARC
  5
1456
330
2
100
AcDbEntity
  8
0
100
AcDbCircle
 10
990.6499519270681
 20
405.0170999324634
 30
0.0
 40
8.154700538378165
100
AcDbArc
 50
185.2770359348037
 51
354.7229640651962
  0
CIRCLE
  5
1457
330
2
100
AcDbEntity
  8
CENTER
100
AcDbCircle
 10
990.6499519270681
 20
405.0170999324606
 30
0.0
 40
35.0017856687341
  0
LINE
  5
1458
330
2
100
AcDbEntity
  8
0
100
AcDbLine
 10
74.96422229157485
 20
431.8770999324538
 30
0.0
 11
79.66422229157558
 21
431.8770999324538
 31
0.0
  0
LINE
  5
1459
330
2
100
AcDbEntity
  8
0
100
AcDbLine
 10
79.66422229157558
 20
440.3770999324538
 30
0.0
 11
74.96422229157485
 21
440.3770999324538
 31
0.0
  0
LINE
  5
145A
330
2
100
AcDbEntity
  8
CENTER
  6
CENS
100
AcDbLine
 10
97.19537924760278
 20
436.1270999324538
 30
0.0
 11
69.7384063175208
 21
436.1270999324538
 31
0.0
  0
LINE
  5
145B
330
2
100
AcDbEntity
  8
0
100
AcDbLine
 10
74.66422229157558
 20
439.8574846901833
 30
0.0
 11
74.66422229157558
 21
432.3967151747242
 31
0.0
  0
LINE
  5
145C
330
2
100
AcDbEntity
  8
0
100
AcDbLine
 10
74.96422229157485
 20
431.8770999324538
 30
0.0
 11
74.96422229157485
 21
440.3770999324538
 31
0.0
  0
LINE
  5
145D
330
2
100
AcDbEntity
  8
0
100
AcDbLine
 10
74.96422229157485
 20
431.8770999324538
 30
0.0
 11
74.66422229157558
 21
432.3967151747242
 31
0.0
  0
LINE
  5
145E
330
2
100
AcDbEntity
  8
0
100
AcDbLine
 10
74.66422229157558
 20
439.8574846901833
 30
0.0
 11
74.96422229157485
 21
440.3770999324538
 31
0.0
  0
LINE
  5
145F
330
2
100
AcDbEntity
  8
0
100
AcDbLine
 10
79.66422229157558
 20
440.3770999324538
 30
0.0
 11
80.66422229157558
 21
440.3770999324538
 31
0.0
  0
LINE
  5
1460
330
2
100
AcDbEntity
  8
0
100
AcDbLine
 10
80.66422229157558
 20
440.3770999324538
 30
0.0
 11
80.66422229157558
 21
431.8770999324538
 31
0.0
  0
LINE
  5
1461
330
2
100
AcDbEntity
  8
0
100
AcDbLine
 10
80.66422229157558
 20
431.8770999324538
 30
0.0
 11
79.66422229157558
 21
431.8770999324538
 31
0.0
  0
LINE
  5
1462
330
2
100
AcDbEntity
  8
0
100
AcDbLine
 10
79.66422229157558
 20
431.8770999324538
 30
0.0
 11
79.66422229157558
 21
440.3770999324538
 31
0.0
  0
LINE
  5
1463
330
2
100
AcDbEntity
  8
0
100
AcDbLine
 10
79.66422229157558
 20
431.8770999324538
 30
0.0
 11
79.66422229157558
 21
440.3770999324538
 31
0.0
  0
ARC
  5
1464
330
2
100
AcDbEntity
  8
0
100
AcDbCircle
 10
75.8609528809751
 20
370.0170999324532
 30
0.0
 40
5.0
100
AcDbArc
 50
8.213210701722317
 51
16.1258621436153
  0
LINE
  5
1465
330
2
100
AcDbEntity
  8
0
100
AcDbLine
 10
80.78946072093765
 20
370.9821951195795
 30
0.0
 11
80.19537924760276
 21
405.0170999324532
 31
0.0
  0
LINE
  5
1466
330
2
100
AcDbEntity
  8
0
100
AcDbLine
 10
92.19537924760278
 20
369.0170999324532
 30
0.0
 11
82.78915611125137
 21
369.0170999324532
 31
0.0
  0
ARC
  5
1467
330
2
100
AcDbEntity
  8
0
100
AcDbCircle
 10
82.78915611125137
 20
371.0170999324532
 30
0.0
 40
2.0
100
AcDbArc
 50
181.0000000000017
 51
270.0
  0
LINE
  5
1468
330
2
100
AcDbEntity
  8
CENTER
  6
CENS
100
AcDbLine
 10
63.19537924760277
 20
419.3497204533544
 30
0.0
 11
63.19537924760277
 21
442.7619294964657
 31
0.0
  0
LINE
  5
1469
330
2
100
AcDbEntity
  8
0
100
AcDbLine
 10
80.78946072093765
 20
439.0520047453279
 30
0.0
 11
80.19537924760369
 21
405.0170999324532
 31
0.0
  0
LINE
  5
146A
330
2
100
AcDbEntity
  8
0
100
AcDbLine
 10
63.72416427379665
 20
432.0129877016757
 30
0.0
 11
64.19537924760186
 21
405.0170999324532
 31
0.0
  0
LINE
  5
146B
330
2
100
AcDbEntity
  8
0
100
AcDbLine
 10
92.19537924760278
 20
405.0170999324532
 30
0.0
 11
49.19537924760277
 21
405.0170999324532
 31
0.0
  0
LINE
  5
146C
330
2
100
AcDbEntity
  8
0
100
AcDbLine
 10
74.66422229157558
 20
375.0170999324532
 30
0.0
 11
49.19537924760277
 21
375.0170999324532
 31
0.0
  0
LINE
  5
146D
330
2
100
AcDbEntity
  8
0
100
AcDbLine
 10
63.72416427379665
 20
378.0212121632308
 30
0.0
 11
64.19537924760277
 21
405.0170999324532
 31
0.0
  0
ARC
  5
146E
330
2
100
AcDbEntity
  8
0
100
AcDbCircle
 10
60.72363551040997
 20
378.0170999324532
 30
0.0
 40
3.0
100
AcDbArc
 50
270.0
 51
358.9999999999982
  0
ARC
  5
146F
330
2
100
AcDbEntity
  8
0
100
AcDbCircle
 10
76.28716429699432
 20
380.24928128691
 30
0.0
 40
3.0
100
AcDbArc
 50
90.0
 51
178.9999999999721
  0
LINE
  5
1470
330
2
100
AcDbEntity
  8
0
100
AcDbLine
 10
66.81587754393092
 20
383.24928128691
 30
0.0
 11
76.28716429699432
 21
383.24928128691
 31
0.0
  0
LINE
  5
1471
330
2
100
AcDbEntity
  8
0
100
AcDbLine
 10
73.28762121152374
 20
380.3016385062224
 30
0.0
 11
73.22968011168575
 21
376.9821951195795
 31
0.0
  0
ARC
  5
1472
330
2
100
AcDbEntity
  8
0
100
AcDbCircle
 10
71.22998472137203
 20
377.0170999324532
 30
0.0
 40
2.0
100
AcDbArc
 50
270.0
 51
358.9999999999721
  0
LINE
  5
1473
330
2
100
AcDbEntity
  8
0
100
AcDbLine
 10
74.66422229157558
 20
435.0170999324541
 30
0.0
 11
49.19537924760277
 21
435.0170999324532
 31
0.0
  0
ARC
  5
1474
330
2
100
AcDbEntity
  8
0
100
AcDbCircle
 10
60.72363551040997
 20
432.0170999324532
 30
0.0
 40
3.0
100
AcDbArc
 50
1.000000000001775
 51
90.0
  0
ARC
  5
1475
330
2
100
AcDbEntity
  8
0
100
AcDbCircle
 10
82.78915611125137
 20
439.0170999324532
 30
0.0
 40
2.0
100
AcDbArc
 50
90.0
 51
178.9999999999982
  0
LINE
  5
1476
330
2
100
AcDbEntity
  8
0
100
AcDbLine
 10
92.19537924760278
 20
441.0170999324533
 30
0.0
 11
82.78915611125137
 21
441.0170999324533
 31
0.0
  0
ARC
  5
1477
330
2
100
AcDbEntity
  8
0
100
AcDbCircle
 10
75.8609528809751
 20
440.0170999324542
 30
0.0
 40
5.0
100
AcDbArc
 50
343.8741378563846
 51
351.7867892982522
  0
LINE
  5
1478
330
2
100
AcDbEntity
  8
0
100
AcDbLine
 10
49.19537924760277
 20
375.0170999324532
 30
0.0
 11
49.19537924760277
 21
435.0170999324532
 31
0.0
  0
LINE
  5
1479
330
2
100
AcDbEntity
  8
0
100
AcDbLine
 10
74.96422229157485
 20
378.1570999324536
 30
0.0
 11
79.66422229157558
 21
378.1570999324536
 31
0.0
  0
LINE
  5
147A
330
2
100
AcDbEntity
  8
0
100
AcDbLine
 10
79.66422229157558
 20
369.6570999324535
 30
0.0
 11
74.96422229157485
 21
369.6570999324535
 31
0.0
  0
LINE
  5
147B
330
2
100
AcDbEntity
  8
CENTER
  6
CENS
100
AcDbLine
 10
97.19537924760278
 20
373.9070999324535
 30
0.0
 11
69.7384063175208
 21
373.9070999324535
 31
0.0
  0
LINE
  5
147C
330
2
100
AcDbEntity
  8
0
100
AcDbLine
 10
74.66422229157558
 20
370.176715174724
 30
0.0
 11
74.66422229157558
 21
377.6374846901831
 31
0.0
  0
LINE
  5
147D
330
2
100
AcDbEntity
  8
0
100
AcDbLine
 10
74.96422229157485
 20
378.1570999324536
 30
0.0
 11
74.96422229157485
 21
369.6570999324535
 31
0.0
  0
LINE
  5
147E
330
2
100
AcDbEntity
  8
0
100
AcDbLine
 10
74.96422229157485
 20
378.1570999324536
 30
0.0
 11
74.66422229157558
 21
377.6374846901831
 31
0.0
  0
LINE
  5
147F
330
2
100
AcDbEntity
  8
0
100
AcDbLine
 10
74.66422229157558
 20
370.176715174724
 30
0.0
 11
74.96422229157485
 21
369.6570999324535
 31
0.0
  0
LINE
  5
1480
330
2
100
AcDbEntity
  8
0
100
AcDbLine
 10
79.66422229157558
 20
369.6570999324535
 30
0.0
 11
80.66422229157558
 21
369.6570999324535
 31
0.0
  0
LINE
  5
1481
330
2
100
AcDbEntity
  8
0
100
AcDbLine
 10
80.66422229157558
 20
369.6570999324535
 30
0.0
 11
80.66422229157558
 21
378.1570999324536
 31
0.0
  0
LINE
  5
1482
330
2
100
AcDbEntity
  8
0
100
AcDbLine
 10
80.66422229157558
 20
378.1570999324536
 30
0.0
 11
79.66422229157558
 21
378.1570999324536
 31
0.0
  0
LINE
  5
1483
330
2
100
AcDbEntity
  8
0
100
AcDbLine
 10
79.66422229157558
 20
378.1570999324536
 30
0.0
 11
79.66422229157558
 21
369.6570999324535
 31
0.0
  0
LINE
  5
1484
330
2
100
AcDbEntity
  8
0
100
AcDbLine
 10
79.66422229157558
 20
378.1570999324536
 30
0.0
 11
79.66422229157558
 21
369.6570999324535
 31
0.0
  0
LINE
  5
1485
330
2
100
AcDbEntity
  8
0
100
AcDbLine
 10
58.19537307641565
 20
439.0170999324532
 30
0.0
 11
68.19537307641565
 21
439.0170999324532
 31
0.0
  0
ARC
  5
1486
330
2
100
AcDbEntity
  8
0
100
AcDbCircle
 10
68.19537307641565
 20
435.0170999324532
 30
0.0
 40
4.0
100
AcDbArc
 50
0.0
 51
90.0
  0
ARC
  5
1487
330
2
100
AcDbEntity
  8
0
100
AcDbCircle
 10
58.19537307641565
 20
435.0170999324532
 30
0.0
 40
4.0
100
AcDbArc
 50
90.0
 51
180.0
  0
CIRCLE
  5
1488
330
2
100
AcDbEntity
  8
HOJO
100
AcDbCircle
 10
965.89995192707
 20
429.7670999324616
 30
0.0
 40
2.5
  0
CIRCLE
  5
1489
330
2
100
AcDbEntity
  8
0
100
AcDbCircle
 10
965.89995192707
 20
429.7670999324616
 30
0.0
 40
2.0
  0
CIRCLE
  5
148A
330
2
100
AcDbEntity
  8
0
100
AcDbCircle
 10
965.89995192707
 20
380.2670999324615
 30
0.0
 40
2.0
  0
CIRCLE
  5
148B
330
2
100
AcDbEntity
  8
HOJO
100
AcDbCircle
 10
965.89995192707
 20
380.2670999324615
 30
0.0
 40
2.5
  0
CIRCLE
  5
148C
330
2
100
AcDbEntity
  8
0
100
AcDbCircle
 10
1015.399951927069
 20
380.2670999324615
 30
0.0
 40
2.0
  0
CIRCLE
  5
148D
330
2
100
AcDbEntity
  8
HOJO
100
AcDbCircle
 10
1015.399951927069
 20
380.2670999324615
 30
0.0
 40
2.5
  0
CIRCLE
  5
148E
330
2
100
AcDbEntity
  8
0
100
AcDbCircle
 10
1015.399951927069
 20
429.7670999324616
 30
0.0
 40
2.0
  0
CIRCLE
  5
148F
330
2
100
AcDbEntity
  8
HOJO
100
AcDbCircle
 10
1015.399951927069
 20
429.7670999324616
 30
0.0
 40
2.5
  0
LINE
  5
1490
330
2
100
AcDbEntity
  8
0
100
AcDbLine
 10
787.4107787178198
 20
427.5170999324523
 30
0.0
 11
790.5114453894364
 21
427.5170999324523
 31
0.0
  0
CIRCLE
  5
1491
330
2
100
AcDbEntity
  8
0
100
AcDbCircle
 10
990.6499519270681
 20
405.0170999324615
 30
0.0
 40
22.5
  0
CIRCLE
  5
1953
330
2
100
AcDbEntity
  8
0
100
AcDbCircle
 10
630.7214453894374
 20
405.0170999324524
 30
0.0
 40
26.57735026918791
  0
ARC
  5
1958
330
2
100
AcDbEntity
  8
0
100
AcDbCircle
 10
716.6690080259424
 20
640.1261126540698
 30
0.0
 40
2.0
100
AcDbArc
 50
270.0
 51
359.4999999999951
  0
ENDSEC
  0
SECTION
  2
OBJECTS
  0
DICTIONARY
  5
7
330
0
100
AcDbDictionary
  3
ACAD_COLOR
350
18EA
  3
ACAD_GROUP
350
75
  3
ACAD_LAYOUT
350
61
  3
ACAD_MATERIAL
350
18C0
  3
ACAD_MLEADERSTYLE
350
190F
  3
ACAD_MLINESTYLE
350
76
  3
ACAD_PLOTSETTINGS
350
77
  3
ACAD_PLOTSTYLENAME
350
6
  3
ACAD_SCALELIST
350
18ED
  3
ACAD_TABLESTYLE
350
18EB
  3
ACAD_VISUALSTYLE
350
18D9
  3
ACADDIM
350
480
  3
ACDB_RECOMPOSE_DATA
350
1928
  3
ACDBHEADERROUNDTRIPXREC
350
1972
  3
ACDBVARIABLEDICTIONARY
350
102
  3
DWGPROPS
350
1929
  0
DICTIONARY
  5
1931
330
6E
100
AcDbDictionary
280
     1
  3
ACAD_XREC_ROUNDTRIP
360
1932
  0
DICTIONARY
  5
B21
330
66
100
AcDbDictionary
280
     1
  3
ACAD_LAYERSTATES
360
B22
  0
DICTIONARY
  5
1914
330
5E
100
AcDbDictionary
280
     1
  3
ACAD_XREC_ROUNDTRIP
360
192C
  3
ADSK_XREC_LAYER_RECONCILED
360
1915
  0
DICTIONARY
  5
1916
330
3E
100
AcDbDictionary
280
     1
  3
ACAD_XREC_ROUNDTRIP
360
192B
  3
ADSK_XREC_LAYER_RECONCILED
360
1917
  0
DICTIONARY
  5
191C
330
2B5
100
AcDbDictionary
280
     1
  3
ACAD_XREC_ROUNDTRIP
360
1938
  3
ADSK_XREC_LAYER_RECONCILED
360
191D
  0
DICTIONARY
  5
191E
330
2BA
100
AcDbDictionary
280
     1
  3
ACAD_XREC_ROUNDTRIP
360
1939
  3
ADSK_XREC_LAYER_RECONCILED
360
191F
  0
DICTIONARY
  5
1922
330
3FA
100
AcDbDictionary
280
     1
  3
ACAD_XREC_ROUNDTRIP
360
193B
  3
ADSK_XREC_LAYER_RECONCILED
360
1923
  0
DICTIONARY
  5
1924
330
478
100
AcDbDictionary
280
     1
  3
ACAD_XREC_ROUNDTRIP
360
193C
  3
ADSK_XREC_LAYER_RECONCILED
360
1925
  0
DICTIONARY
  5
1993
330
2
100
AcDbDictionary
280
     1
  3
ACAD_LAYOUTSELFREF
360
1994
  0
DICTIONARY
  5
1995
330
196C
100
AcDbDictionary
280
     1
  3
ACAD_LAYOUTSELFREF
360
1996
  0
DICTIONARY
  5
18EA
102
{ACAD_REACTORS
330
7
102
}
330
7
100
AcDbDictionary
  0
DICTIONARY
  5
75
102
{ACAD_REACTORS
330
7
102
}
330
7
100
AcDbDictionary
  0
DICTIONARY
  5
61
102
{ACAD_REACTORS
330
7
102
}
330
7
100
AcDbDictionary
  0
DICTIONARY
  5
18C0
102
{ACAD_REACTORS
330
7
102
}
330
7
100
AcDbDictionary
  3
BYBLOCK
350
18C9
  3
BYLAYER
350
18C1
  3
GLOBAL
350
18D1
  0
DICTIONARY
  5
190F
102
{ACAD_REACTORS
330
7
102
}
330
7
100
AcDbDictionary
  3
STANDARD
350
1910
  0
DICTIONARY
  5
76
102
{ACAD_REACTORS
330
7
102
}
330
7
100
AcDbDictionary
  3
STANDARD
350
78
  0
DICTIONARY
  5
77
102
{ACAD_REACTORS
330
7
102
}
330
7
100
AcDbDictionary
  0
ACDBDICTIONARYWDFLT
  5
6
102
{ACAD_REACTORS
330
7
102
}
330
7
100
AcDbDictionary
281
     1
  3
Normal
350
5
100
AcDbDictionaryWithDefault
340
5
  0
DICTIONARY
  5
18ED
102
{ACAD_REACTORS
330
7
102
}
330
7
100
AcDbDictionary
  3
A0
350
18EE
  3
A1
350
18EF
  3
A2
350
18F0
  3
A3
350
18F1
  3
A4
350
18F2
  3
A5
350
18F3
  3
A6
350
18F4
  3
A7
350
18F5
  3
A8
350
18F6
  3
A9
350
18F7
  3
B0
350
18F8
  3
B1
350
18F9
  3
B2
350
18FA
  3
B3
350
18FB
  3
B4
350
18FC
  3
B5
350
18FD
  3
B6
350
18FE
  3
B7
350
18FF
  3
B8
350
1900
  3
B9
350
1901
  3
C0
350
1902
  3
C1
350
1903
  3
C2
350
1904
  3
C3
350
1905
  3
C4
350
1906
  3
C5
350
1907
  3
C6
350
1908
  3
C7
350
1909
  3
C8
350
190A
  3
C9
350
190B
  3
D0
350
190C
  3
D1
350
190D
  3
D2
350
190E
  0
DICTIONARY
  5
18EB
102
{ACAD_REACTORS
330
7
102
}
330
7
100
AcDbDictionary
  3
STANDARD
350
18EC
  0
DICTIONARY
  5
18D9
102
{ACAD_REACTORS
330
7
102
}
330
7
100
AcDbDictionary
  3
2DWIREFRAME
350
18DF
  3
3D_HIDDEN
350
18E1
  3
3DWIREFRAME
350
18E0
  3
BASIC
350
18DE
  3
BRIGHTEN
350
18E5
  3
COLORCHANGE
350
18E9
  3
CONCEPTUAL
350
18E2
  3
DIM
350
18E4
  3
FACEPATTERN
350
18E8
  3
FLAT
350
18DA
  3
FLATWITHEDGES
350
18DB
  3
GOURAUD
350
18DC
  3
GOURAUDWITHEDGES
350
18DD
  3
LINEPATTERN
350
18E7
  3
REALISTIC
350
18E3
  3
THICKEN
350
18E6
  0
XRECORD
  5
480
102
{ACAD_REACTORS
330
7
102
}
330
7
100
AcDbXrecord
 90
   990106
  3

 60
     0
 61
     0
 62
     1
 63
     3
 64
     1
 65
     0
 66
     0
 67
     3
 68
     1
 69
     0
 70
     0
 71
     0
 72
     0
 40
0.0
170
     2
340
0
  0
XRECORD
  5
1928
102
{ACAD_REACTORS
330
7
102
}
330
7
100
AcDbXrecord
 90
        1
330
18EC
  0
DICTIONARY
  5
1972
102
{ACAD_REACTORS
330
7
102
}
330
7
100
AcDbDictionary
  3
CEPSNTYPE
350
197C
  3
DIMSTYLEDATA
350
1980
  3
FINGERPRINTGUID
350
197D
  3
HYPERLINKBASE
350
1975
  3
INSUNITS
350
197B
  3
LAYOUTDICT
350
1977
  3
LWETCUNION
350
197A
  3
PLOTSETDICT
350
1978
  3
PLOTSTYLNAMDICT
350
1979
  3
PSVPSCALE
350
197F
  3
PUCSBASE
350
1983
  3
PUCSORGBACK
350
1989
  3
PUCSORGBOTTOM
350
1985
  3
PUCSORGFRONT
350
1988
  3
PUCSORGLEFT
350
1986
  3
PUCSORGRIGHT
350
1987
  3
PUCSORGTOP
350
1984
  3
PUCSORTHOREF
350
1981
  3
PUCSORTHOVIEW
350
1982
  3
STYLESHEET
350
1976
  3
TSTACKALIGN
350
1973
  3
TSTACKSIZE
350
1974
  3
UCSBASE
350
198C
  3
UCSORGBACK
350
1992
  3
UCSORGBOTTOM
350
198E
  3
UCSORGFRONT
350
1991
  3
UCSORGLEFT
350
198F
  3
UCSORGRIGHT
350
1990
  3
UCSORGTOP
350
198D
  3
UCSORTHOREF
350
198A
  3
UCSORTHOVIEW
350
198B
  3
VERSIONGUID
350
197E
  0
DICTIONARY
  5
102
102
{ACAD_REACTORS
330
7
102
}
330
7
100
AcDbDictionary
  3
CANNOSCALE
350
1949
  3
CMLEADERSTYLE
350
1948
  3
CTABLESTYLE
350
1947
  3
DIMASSOC
350
103
  3
INDEXCTL
350
194A
  3
SORTENTS
350
549
  0
XRECORD
  5
1929
102
{ACAD_REACTORS
330
7
102
}
330
7
100
AcDbXrecord
  1
DWGPROPS COOKIE
  2

  3

  4

  6

  7

  8
ymorima
  9

300
=
301
=
302
=
303
=
304
=
305
=
306
=
307
=
308
=
309
=
 40
0.0108955324074074
 41
2454412.678472581
 42
2454412.74793294
  1

 90
        0
  0
XRECORD
  5
1932
102
{ACAD_REACTORS
330
1931
102
}
330
1931
100
AcDbXrecord
102
VTR_0.000_0.000_1.000_1.000_VISUALSTYLE
340
18DF
102
VTR_0.000_0.000_1.000_1.000_GRIDDISPLAY
 70
     3
102
VTR_0.000_0.000_1.000_1.000_GRIDMAJOR
 70
     5
102
VTR_0.000_0.000_1.000_1.000_DEFAULTLIGHTING
280
     1
102
VTR_0.000_0.000_1.000_1.000_DEFAULTLIGHTINGTYPE
 70
     1
102
VTR_0.000_0.000_1.000_1.000_BRIGHTNESS
141
0.0
102
VTR_0.000_0.000_1.000_1.000_CONTRAST
142
0.0
  0
DICTIONARY
  5
B22
102
{ACAD_REACTORS
330
B21
102
}
330
B21
100
AcDbDictionary
  0
XRECORD
  5
192C
102
{ACAD_REACTORS
330
1914
102
}
330
1914
100
AcDbXrecord
102
MATERIAL
340
18D1
  0
XRECORD
  5
1915
102
{ACAD_REACTORS
330
1914
102
}
330
1914
100
AcDbXrecord
290
     1
  0
XRECORD
  5
192B
102
{ACAD_REACTORS
330
1916
102
}
330
1916
100
AcDbXrecord
102
MATERIAL
340
18D1
  0
XRECORD
  5
1917
102
{ACAD_REACTORS
330
1916
102
}
330
1916
100
AcDbXrecord
290
     1
  0
XRECORD
  5
1938
102
{ACAD_REACTORS
330
191C
102
}
330
191C
100
AcDbXrecord
102
MATERIAL
340
18D1
  0
XRECORD
  5
191D
102
{ACAD_REACTORS
330
191C
102
}
330
191C
100
AcDbXrecord
290
     1
  0
XRECORD
  5
1939
102
{ACAD_REACTORS
330
191E
102
}
330
191E
100
AcDbXrecord
102
MATERIAL
340
18D1
  0
XRECORD
  5
191F
102
{ACAD_REACTORS
330
191E
102
}
330
191E
100
AcDbXrecord
290
     1
  0
XRECORD
  5
193B
102
{ACAD_REACTORS
330
1922
102
}
330
1922
100
AcDbXrecord
102
MATERIAL
340
18D1
  0
XRECORD
  5
1923
102
{ACAD_REACTORS
330
1922
102
}
330
1922
100
AcDbXrecord
290
     1
  0
XRECORD
  5
193C
102
{ACAD_REACTORS
330
1924
102
}
330
1924
100
AcDbXrecord
102
MATERIAL
340
18D1
  0
XRECORD
  5
1925
102
{ACAD_REACTORS
330
1924
102
}
330
1924
100
AcDbXrecord
290
     1
  0
XRECORD
  5
1994
102
{ACAD_REACTORS
330
1993
102
}
330
1993
100
AcDbXrecord
340
2
  0
XRECORD
  5
1996
102
{ACAD_REACTORS
330
1995
102
}
330
1995
100
AcDbXrecord
340
196C
  0
ACAD_PROXY_OBJECT
  5
18C9
102
{ACAD_XDICTIONARY
360
18CA
102
}
102
{ACAD_REACTORS
330
18C0
102
}
330
18C0
100
AcDbProxyObject
 90
      499
 91
      510
 93
     1340
310
42109E509B1BD8DAC02004014080404555555555555953FAA155555555555654FEA9AA400014080404555555555555953FAA155555555555654FEA9AA400000000000000E03F4080404555555555555953FAA155555555555654FEA9AA4014080404555555555555953FAA155555555555654FEA9AA4010201011555555555
310
55654FEA8555555555555953FAA6A9005020101155555555555654FEA8555555555555953FAA6A9000
 94
        0
1001
ACAD
1000
AcadProxyRoundTripData
1071
      504
1071
   655383
1070
     0
  0
ACAD_PROXY_OBJECT
  5
18C1
102
{ACAD_XDICTIONARY
360
18C2
102
}
102
{ACAD_REACTORS
330
18C0
102
}
330
18C0
100
AcDbProxyObject
 90
      499
 91
      510
 93
     1340
310
42109E53185E595C802004014080404555555555555953FAA155555555555654FEA9AA400014080404555555555555953FAA155555555555654FEA9AA400000000000000E03F4080404555555555555953FAA155555555555654FEA9AA4014080404555555555555953FAA155555555555654FEA9AA4010201011555555555
310
55654FEA8555555555555953FAA6A9005020101155555555555654FEA8555555555555953FAA6A9000
 94
        0
1001
ACAD
1000
AcadProxyRoundTripData
1071
      504
1071
   655383
1070
     0
  0
ACAD_PROXY_OBJECT
  5
18D1
102
{ACAD_XDICTIONARY
360
18D2
102
}
102
{ACAD_REACTORS
330
18C0
102
}
330
18C0
100
AcDbProxyObject
 90
      499
 91
      510
 93
     1332
310
41D1DB1BD8985B002004014080404555555555555953FAA155555555555654FEA9AA400014080404555555555555953FAA155555555555654FEA9AA400000000000000E03F4080404555555555555953FAA155555555555654FEA9AA4014080404555555555555953FAA155555555555654FEA9AA401020101155555555555
310
654FEA8555555555555953FAA6A9005020101155555555555654FEA8555555555555953FAA6A9000
 94
        0
1001
ACAD
1000
AcadProxyRoundTripData
1071
      504
1071
   655383
1070
     0
  0
ACAD_PROXY_OBJECT
  5
1910
102
{ACAD_REACTORS
330
190F
102
}
330
190F
100
AcDbProxyObject
 90
      499
 91
      510
 93
      618
310
40901902A4063FBFFFFFE056BD1B81E855B9FC0AD7A3703D0AD73F4254DD185B99185C990000AD7A3703D0AC73F90141901A02B5E8DC0F42B1CFC02B5E8DC0F42B1CFE5764000000000000300FC6
340
6A
340
0
340
16
340
0
 94
        0
1001
ACAD_MLEADERVER
1070
     2
1001
ACAD
1000
AcadProxyRoundTripData
1071
      508
1071
   655383
1070
     0
  0
MLINESTYLE
  5
78
102
{ACAD_REACTORS
330
76
102
}
330
76
100
AcDbMlineStyle
  2
STANDARD
 70
     0
  3

 62
     0
 51
90.0
 52
90.0
 71
     2
 49
0.5
 62
   256
  6
BYLAYER
 49
-0.5
 62
   256
  6
BYLAYER
  0
ACDBPLACEHOLDER
  5
5
102
{ACAD_REACTORS
330
6
102
}
330
6
100
AcDbPlaceHolder
280
     0
  0
ACAD_PROXY_OBJECT
  5
18EE
102
{ACAD_REACTORS
330
18ED
102
}
330
18ED
100
AcDbProxyObject
 90
      499
 91
      510
 93
       49
310
904313A3100598
 94
        0
1001
ACAD
1000
AcadProxyRoundTripData
1071
      507
1071
   655383
1070
     0
  0
ACAD_PROXY_OBJECT
  5
18EF
102
{ACAD_REACTORS
330
18ED
102
}
330
18ED
100
AcDbProxyObject
 90
      499
 91
      510
 93
      113
310
904313A3200400000000000000406B
 94
        0
1001
ACAD
1000
AcadProxyRoundTripData
1071
      507
1071
   655383
1070
     0
  0
ACAD_PROXY_OBJECT
  5
18F0
102
{ACAD_REACTORS
330
18ED
102
}
330
18ED
100
AcDbProxyObject
 90
      499
 91
      510
 93
      113
310
904313A3400400000000000010406B
 94
        0
1001
ACAD
1000
AcadProxyRoundTripData
1071
      507
1071
   655383
1070
     0
  0
ACAD_PROXY_OBJECT
  5
18F1
102
{ACAD_REACTORS
330
18ED
102
}
330
18ED
100
AcDbProxyObject
 90
      499
 91
      510
 93
      113
310
904313A3500400000000000014406B
 94
        0
1001
ACAD
1000
AcadProxyRoundTripData
1071
      507
1071
   655383
1070
     0
  0
ACAD_PROXY_OBJECT
  5
18F2
102
{ACAD_REACTORS
330
18ED
102
}
330
18ED
100
AcDbProxyObject
 90
      499
 91
      510
 93
      113
310
904313A3800400000000000020406B
 94
        0
1001
ACAD
1000
AcadProxyRoundTripData
1071
      507
1071
   655383
1070
     0
  0
ACAD_PROXY_OBJECT
  5
18F3
102
{ACAD_REACTORS
330
18ED
102
}
330
18ED
100
AcDbProxyObject
 90
      499
 91
      510
 93
      121
310
905313A3130004000000000000244051
 94
        0
1001
ACAD
1000
AcadProxyRoundTripData
1071
      507
1071
   655383
1070
     0
  0
ACAD_PROXY_OBJECT
  5
18F4
102
{ACAD_REACTORS
330
18ED
102
}
330
18ED
100
AcDbProxyObject
 90
      499
 91
      510
 93
      121
310
905313A3136004000000000000304051
 94
        0
1001
ACAD
1000
AcadProxyRoundTripData
1071
      507
1071
   655383
1070
     0
  0
ACAD_PROXY_OBJECT
  5
18F5
102
{ACAD_REACTORS
330
18ED
102
}
330
18ED
100
AcDbProxyObject
 90
      499
 91
      510
 93
      121
310
905313A3230004000000000000344051
 94
        0
1001
ACAD
1000
AcadProxyRoundTripData
1071
      507
1071
   655383
1070
     0
  0
ACAD_PROXY_OBJECT
  5
18F6
102
{ACAD_REACTORS
330
18ED
102
}
330
18ED
100
AcDbProxyObject
 90
      499
 91
      510
 93
      121
310
905313A33300040000000000003E4051
 94
        0
1001
ACAD
1000
AcadProxyRoundTripData
1071
      507
1071
   655383
1070
     0
  0
ACAD_PROXY_OBJECT
  5
18F7
102
{ACAD_REACTORS
330
18ED
102
}
330
18ED
100
AcDbProxyObject
 90
      499
 91
      510
 93
      121
310
905313A3430004000000000000444051
 94
        0
1001
ACAD
1000
AcadProxyRoundTripData
1071
      507
1071
   655383
1070
     0
  0
ACAD_PROXY_OBJECT
  5
18F8
102
{ACAD_REACTORS
330
18ED
102
}
330
18ED
100
AcDbProxyObject
 90
      499
 91
      510
 93
      121
310
905313A3530004000000000000494051
 94
        0
1001
ACAD
1000
AcadProxyRoundTripData
1071
      507
1071
   655383
1070
     0
  0
ACAD_PROXY_OBJECT
  5
18F9
102
{ACAD_REACTORS
330
18ED
102
}
330
18ED
100
AcDbProxyObject
 90
      499
 91
      510
 93
      129
310
906313A313030004000000000000594038
 94
        0
1001
ACAD
1000
AcadProxyRoundTripData
1071
      507
1071
   655383
1070
     0
  0
ACAD_PROXY_OBJECT
  5
18FA
102
{ACAD_REACTORS
330
18ED
102
}
330
18ED
100
AcDbProxyObject
 90
      499
 91
      510
 93
      113
310
904323A31000000000000000010159
 94
        0
1001
ACAD
1000
AcadProxyRoundTripData
1071
      507
1071
   655383
1070
     0
  0
ACAD_PROXY_OBJECT
  5
18FB
102
{ACAD_REACTORS
330
18ED
102
}
330
18ED
100
AcDbProxyObject
 90
      499
 91
      510
 93
      113
310
904343A31000000000000000410159
 94
        0
1001
ACAD
1000
AcadProxyRoundTripData
1071
      507
1071
   655383
1070
     0
  0
ACAD_PROXY_OBJECT
  5
18FC
102
{ACAD_REACTORS
330
18ED
102
}
330
18ED
100
AcDbProxyObject
 90
      499
 91
      510
 93
      113
310
904383A31000000000000000810159
 94
        0
1001
ACAD
1000
AcadProxyRoundTripData
1071
      507
1071
   655383
1070
     0
  0
ACAD_PROXY_OBJECT
  5
18FD
102
{ACAD_REACTORS
330
18ED
102
}
330
18ED
100
AcDbProxyObject
 90
      499
 91
      510
 93
      121
310
90531303A31000000000000000910140
 94
        0
1001
ACAD
1000
AcadProxyRoundTripData
1071
      507
1071
   655383
1070
     0
  0
ACAD_PROXY_OBJECT
  5
18FE
102
{ACAD_REACTORS
330
18ED
102
}
330
18ED
100
AcDbProxyObject
 90
      499
 91
      510
 93
      129
310
9063130303A31000000000000001650138
 94
        0
1001
ACAD
1000
AcadProxyRoundTripData
1071
      507
1071
   655383
1070
     0
  0
ACAD_PROXY_OBJECT
  5
18FF
102
{ACAD_REACTORS
330
18ED
102
}
330
18ED
100
AcDbProxyObject
 90
      499
 91
      510
 93
      265
310
90F312F31323822203D2031272D302200000000000000200FC00000000000028402B
 94
        0
1001
ACAD
1000
AcadProxyRoundTripData
1071
      507
1071
   655383
1070
     0
  0
ACAD_PROXY_OBJECT
  5
1900
102
{ACAD_REACTORS
330
18ED
102
}
330
18ED
100
AcDbProxyObject
 90
      499
 91
      510
 93
      257
310
90E312F363422203D2031272D302200000000000000240FC000000000000284040
 94
        0
1001
ACAD
1000
AcadProxyRoundTripData
1071
      507
1071
   655383
1070
     0
  0
ACAD_PROXY_OBJECT
  5
1901
102
{ACAD_REACTORS
330
18ED
102
}
330
18ED
100
AcDbProxyObject
 90
      499
 91
      510
 93
      257
310
90E312F333222203D2031272D302200000000000000280FC000000000000284040
 94
        0
1001
ACAD
1000
AcadProxyRoundTripData
1071
      507
1071
   655383
1070
     0
  0
ACAD_PROXY_OBJECT
  5
1902
102
{ACAD_REACTORS
330
18ED
102
}
330
18ED
100
AcDbProxyObject
 90
      499
 91
      510
 93
      257
310
90E312F313622203D2031272D3022000000000000002C0FC000000000000284040
 94
        0
1001
ACAD
1000
AcadProxyRoundTripData
1071
      507
1071
   655383
1070
     0
  0
ACAD_PROXY_OBJECT
  5
1903
102
{ACAD_REACTORS
330
18ED
102
}
330
18ED
100
AcDbProxyObject
 90
      499
 91
      510
 93
      257
310
90E332F333222203D2031272D3022000000000000002E0FC000000000000284040
 94
        0
1001
ACAD
1000
AcadProxyRoundTripData
1071
      507
1071
   655383
1070
     0
  0
ACAD_PROXY_OBJECT
  5
1904
102
{ACAD_REACTORS
330
18ED
102
}
330
18ED
100
AcDbProxyObject
 90
      499
 91
      510
 93
      249
310
90D312F3822203D2031272D302200000000000000300FC000000000000284040
 94
        0
1001
ACAD
1000
AcadProxyRoundTripData
1071
      507
1071
   655383
1070
     0
  0
ACAD_PROXY_OBJECT
  5
1905
102
{ACAD_REACTORS
330
18ED
102
}
330
18ED
100
AcDbProxyObject
 90
      499
 91
      510
 93
      257
310
90E332F313622203D2031272D302200000000000000320FC000000000000284040
 94
        0
1001
ACAD
1000
AcadProxyRoundTripData
1071
      507
1071
   655383
1070
     0
  0
ACAD_PROXY_OBJECT
  5
1906
102
{ACAD_REACTORS
330
18ED
102
}
330
18ED
100
AcDbProxyObject
 90
      499
 91
      510
 93
      249
310
90D312F3422203D2031272D302200000000000000340FC000000000000284040
 94
        0
1001
ACAD
1000
AcadProxyRoundTripData
1071
      507
1071
   655383
1070
     0
  0
ACAD_PROXY_OBJECT
  5
1907
102
{ACAD_REACTORS
330
18ED
102
}
330
18ED
100
AcDbProxyObject
 90
      499
 91
      510
 93
      249
310
90D332F3822203D2031272D302200000000000000360FC000000000000284040
 94
        0
1001
ACAD
1000
AcadProxyRoundTripData
1071
      507
1071
   655383
1070
     0
  0
ACAD_PROXY_OBJECT
  5
1908
102
{ACAD_REACTORS
330
18ED
102
}
330
18ED
100
AcDbProxyObject
 90
      499
 91
      510
 93
      249
310
90D312F3222203D2031272D302200000000000000380FC000000000000284040
 94
        0
1001
ACAD
1000
AcadProxyRoundTripData
1071
      507
1071
   655383
1070
     0
  0
ACAD_PROXY_OBJECT
  5
1909
102
{ACAD_REACTORS
330
18ED
102
}
330
18ED
100
AcDbProxyObject
 90
      499
 91
      510
 93
      249
310
90D332F3422203D2031272D3022000000000000003A0FC000000000000284040
 94
        0
1001
ACAD
1000
AcadProxyRoundTripData
1071
      507
1071
   655383
1070
     0
  0
ACAD_PROXY_OBJECT
  5
190A
102
{ACAD_REACTORS
330
18ED
102
}
330
18ED
100
AcDbProxyObject
 90
      499
 91
      510
 93
      169
310
90B3122203D2031272D3022004000000000000284020
 94
        0
1001
ACAD
1000
AcadProxyRoundTripData
1071
      507
1071
   655383
1070
     0
  0
ACAD_PROXY_OBJECT
  5
190B
102
{ACAD_REACTORS
330
18ED
102
}
330
18ED
100
AcDbProxyObject
 90
      499
 91
      510
 93
      265
310
90F312D312F3222203D2031272D3022000000000000003E0FC00000000000028402B
 94
        0
1001
ACAD
1000
AcadProxyRoundTripData
1071
      507
1071
   655383
1070
     0
  0
ACAD_PROXY_OBJECT
  5
190C
102
{ACAD_REACTORS
330
18ED
102
}
330
18ED
100
AcDbProxyObject
 90
      499
 91
      510
 93
      233
310
90B3322203D2031272D30220000000000000002100000000000000284000
 94
        0
1001
ACAD
1000
AcadProxyRoundTripData
1071
      507
1071
   655383
1070
     0
  0
ACAD_PROXY_OBJECT
  5
190D
102
{ACAD_REACTORS
330
18ED
102
}
330
18ED
100
AcDbProxyObject
 90
      499
 91
      510
 93
      233
310
90B3622203D2031272D30220000000000000006100000000000000284000
 94
        0
1001
ACAD
1000
AcadProxyRoundTripData
1071
      507
1071
   655383
1070
     0
  0
ACAD_PROXY_OBJECT
  5
190E
102
{ACAD_REACTORS
330
18ED
102
}
330
18ED
100
AcDbProxyObject
 90
      499
 91
      510
 93
      257
310
90E31272D3022203D2031272D3022000000000000000A100000000000000284040
 94
        0
1001
ACAD
1000
AcadProxyRoundTripData
1071
      507
1071
   655383
1070
     0
  0
ACAD_PROXY_OBJECT
  5
18EC
102
{ACAD_XDICTIONARY
360
1926
102
}
102
{ACAD_REACTORS
330
18EB
102
}
330
18EB
100
AcDbProxyObject
 90
      499
 91
      510
 93
     1849
310
4254DD185B99185C990028B81E85EB51B8AE3F2E07A17AD46E2B8FC02B5E8DC0F42B1CFD028000000C1008070000C3001FDFF8000000C1003FBFF000000182007F7FE00000030400FEFFC00000060801FDFF8000000C1003FBFF00000018200000000000000681FA0B0000001820100E000186003FBFF000000182007F7FE0
310
0000030400FEFFC00000060801FDFF8000000C1003FBFF000000182007F7FE000000304000AD7A3703D0AC73F4160000003040201C00030C007F7FE00000030400FEFFC00000060801FDFF8000000C1003FBFF000000182007F7FE00000030400FEFFC000000608000
340
16
340
16
340
16
 94
        0
1001
ACAD
1000
AcadProxyRoundTripData
1071
      506
1071
   655383
1070
     0
  0
ACAD_PROXY_OBJECT
  5
18DF
102
{ACAD_REACTORS
330
18D9
102
}
330
18D9
100
AcDbProxyObject
 90
      499
 91
      510
 93
      444
310
430C9915DA5C99599C985B59401049028333333333333E3BF0000000000000FB0107901411070040501600405405064090741402480A0340
 94
        0
1001
ACAD
1000
AcDbSavedByObjectVersion
1070
     0
1000
AcadProxyRoundTripData
1071
      505
1071
   655383
1070
     0
  0
ACAD_PROXY_OBJECT
  5
18E1
102
{ACAD_REACTORS
330
18D9
102
}
330
18D9
100
AcDbProxyObject
 90
      499
 91
      510
 93
      508
310
428CD108121A5919195B8010640502408333333333333E3BF0000000000000FB01079024090700405020000000000001110200405405064090740C02480A0340
 94
        0
1001
ACAD
1000
AcDbSavedByObjectVersion
1070
     0
1000
AcadProxyRoundTripData
1071
      505
1071
   655383
1070
     0
  0
ACAD_PROXY_OBJECT
  5
18E0
102
{ACAD_REACTORS
330
18D9
102
}
330
18D9
100
AcDbProxyObject
 90
      499
 91
      510
 93
      444
310
430CD915DA5C99599C985B59401059028333333333333E3BF0000000000000FB0107901411070040501600405405064090741402480A0340
 94
        0
1001
ACAD
1000
AcDbSavedByObjectVersion
1070
     0
1000
AcadProxyRoundTripData
1071
      505
1071
   655383
1070
     0
  0
ACAD_PROXY_OBJECT
  5
18DE
102
{ACAD_REACTORS
330
18D9
102
}
330
18D9
100
AcDbProxyObject
 90
      499
 91
      510
 93
      396
310
4190985CDA58C0107406404333333333333E3BF0000000000000FB0107A41107004050150841D405064090741402480A0356
 94
        0
1001
ACAD
1000
AcDbSavedByObjectVersion
1070
     0
1000
AcadProxyRoundTripData
1071
      505
1071
   655383
1070
     0
  0
ACAD_PROXY_OBJECT
  5
18E5
102
{ACAD_REACTORS
330
18D9
102
}
330
18D9
100
AcDbProxyObject
 90
      499
 91
      510
 93
      436
310
42509C9A59DA1D195B8010C409028333333333333E3BF0000000000000FB010790141107004050150841D405064090741402480A029956
 94
        0
1001
ACAD
1000
AcDbSavedByObjectVersion
1070
     0
1000
AcadProxyRoundTripData
1071
      505
1071
   655383
1070
     0
  0
ACAD_PROXY_OBJECT
  5
18E9
102
{ACAD_REACTORS
330
18D9
102
}
330
18D9
100
AcDbProxyObject
 90
      499
 91
      510
 93
      460
310
4310DBDB1BDC90DA185B99D9401104090240C333333333333E3BF0000000000000FB0108901411070040501508421405064090741402480A0354
 94
        0
1001
ACAD
1000
AcDbSavedByObjectVersion
1070
     0
1000
AcadProxyRoundTripData
1071
      505
1071
   655383
1070
     0
  0
ACAD_PROXY_OBJECT
  5
18E2
102
{ACAD_REACTORS
330
18D9
102
}
330
18D9
100
AcDbProxyObject
 90
      499
 91
      510
 93
      508
310
42D0DBDB98D95C1D1D585B0010940D028333333333333E3BF0000000000000FB0107902409070040501000000000000111010841D405064090740C02480A0340
 94
        0
1001
ACAD
1000
AcDbSavedByObjectVersion
1070
     0
1000
AcadProxyRoundTripData
1071
      505
1071
   655383
1070
     0
  0
ACAD_PROXY_OBJECT
  5
18E4
102
{ACAD_REACTORS
330
18D9
102
}
330
18D9
100
AcDbProxyObject
 90
      499
 91
      510
 93
      420
310
41111A5B4010B409028333333333333E3BF0000000000000FB010790141107004050150841D405064090741402480A02677FFFFFDB
 94
        0
1001
ACAD
1000
AcDbSavedByObjectVersion
1070
     0
1000
AcadProxyRoundTripData
1071
      505
1071
   655383
1070
     0
  0
ACAD_PROXY_OBJECT
  5
18E8
102
{ACAD_REACTORS
330
18D9
102
}
330
18D9
100
AcDbProxyObject
 90
      499
 91
      510
 93
      452
310
43119858D95C185D1D195C9B8010F409028333333333333E3BF0000000000000FB010790141107004050150841D405064090741402480A0350
 94
        0
1001
ACAD
1000
AcDbSavedByObjectVersion
1070
     0
1000
AcadProxyRoundTripData
1071
      505
1071
   655383
1070
     0
  0
ACAD_PROXY_OBJECT
  5
18DA
102
{ACAD_REACTORS
330
18D9
102
}
330
18D9
100
AcDbProxyObject
 90
      499
 91
      510
 93
      396
310
41519B185D00240901404333333333333E3BF0000000000000F9010740A41107004050150841D405064090741402480A1B55
 94
        0
1001
ACAD
1000
AcDbSavedByObjectVersion
1070
     0
1000
AcadProxyRoundTripData
1071
      505
1071
   655383
1070
     0
  0
ACAD_PROXY_OBJECT
  5
18DB
102
{ACAD_REACTORS
330
18D9
102
}
330
18D9
100
AcDbProxyObject
 90
      499
 91
      510
 93
      484
310
43919B185D15DA5D1A115919D95CC010140901404333333333333E3BF0000000000000F9010740901411070040501600405405064090741402480A1B50
 94
        0
1001
ACAD
1000
AcDbSavedByObjectVersion
1070
     0
1000
AcadProxyRoundTripData
1071
      505
1071
   655383
1070
     0
  0
ACAD_PROXY_OBJECT
  5
18DC
102
{ACAD_REACTORS
330
18D9
102
}
330
18D9
100
AcDbProxyObject
 90
      499
 91
      510
 93
      420
310
4211DBDD5C985D590010240902404333333333333E3BF0000000000000F9010740A411070040501641D405064090741402480A1B50
 94
        0
1001
ACAD
1000
AcDbSavedByObjectVersion
1070
     0
1000
AcadProxyRoundTripData
1071
      505
1071
   655383
1070
     0
  0
ACAD_PROXY_OBJECT
  5
18DD
102
{ACAD_REACTORS
330
18D9
102
}
330
18D9
100
AcDbProxyObject
 90
      499
 91
      510
 93
      508
310
4451DBDD5C985D5915DA5D1A115919D95CC010340902404333333333333E3BF0000000000000F9010740901411070040501600405405064090741402480A1B50
 94
        0
1001
ACAD
1000
AcDbSavedByObjectVersion
1070
     0
1000
AcadProxyRoundTripData
1071
      505
1071
   655383
1070
     0
  0
ACAD_PROXY_OBJECT
  5
18E7
102
{ACAD_REACTORS
330
18D9
102
}
330
18D9
100
AcDbProxyObject
 90
      499
 91
      510
 93
      452
310
43131A5B995C185D1D195C9B8010E409028333333333333E3BF0000000000000FB010790141107004050750841D405064090741402483A0350
 94
        0
1001
ACAD
1000
AcDbSavedByObjectVersion
1070
     0
1000
AcadProxyRoundTripData
1071
      505
1071
   655383
1070
     0
  0
ACAD_PROXY_OBJECT
  5
18E3
102
{ACAD_REACTORS
330
18D9
102
}
330
18D9
100
AcDbProxyObject
 90
      499
 91
      510
 93
      428
310
429499585B1A5CDD1A58C0108409028333333333333E3BF0000000000000FB01079019070040501508421405064090741402480A1B45
 94
        0
1001
ACAD
1000
AcDbSavedByObjectVersion
1070
     0
1000
AcadProxyRoundTripData
1071
      505
1071
   655383
1070
     0
  0
ACAD_PROXY_OBJECT
  5
18E6
102
{ACAD_REACTORS
330
18D9
102
}
330
18D9
100
AcDbProxyObject
 90
      499
 91
      510
 93
      420
310
42151A1A58DAD95B8010D409028333333333333E3BF0000000000000FB010790141107004050150C41D405064090741402480A0352
 94
        0
1001
ACAD
1000
AcDbSavedByObjectVersion
1070
     0
1000
AcadProxyRoundTripData
1071
      505
1071
   655383
1070
     0
  0
XRECORD
  5
197C
102
{ACAD_REACTORS
330
1972
102
}
330
1972
100
AcDbXrecord
 90
        0
  0
XRECORD
  5
1980
102
{ACAD_REACTORS
330
1972
102
}
330
1972
100
AcDbXrecord
1000
DSTYLE
1002
{
1070
   179
 70
     2
1070
   277
 70
     6
1002
}
  0
XRECORD
  5
197D
102
{ACAD_REACTORS
330
1972
102
}
330
1972
100
AcDbXrecord
  1
{6385560B-F4B1-4644-A7C2-A3E32AC3D232}
  0
XRECORD
  5
1975
102
{ACAD_REACTORS
330
1972
102
}
330
1972
100
AcDbXrecord
  1

  0
XRECORD
  5
197B
102
{ACAD_REACTORS
330
1972
102
}
330
1972
100
AcDbXrecord
 90
        0
  0
XRECORD
  5
1977
102
{ACAD_REACTORS
330
1972
102
}
330
1972
100
AcDbXrecord
340
61
  0
XRECORD
  5
197A
102
{ACAD_REACTORS
330
1972
102
}
330
1972
100
AcDbXrecord
 90
    10781
  0
XRECORD
  5
1978
102
{ACAD_REACTORS
330
1972
102
}
330
1972
100
AcDbXrecord
340
77
  0
XRECORD
  5
1979
102
{ACAD_REACTORS
330
1972
102
}
330
1972
100
AcDbXrecord
340
6
  0
XRECORD
  5
197F
102
{ACAD_REACTORS
330
1972
102
}
330
1972
100
AcDbXrecord
 40
0.0
  0
XRECORD
  5
1983
102
{ACAD_REACTORS
330
1972
102
}
330
1972
100
AcDbXrecord
340
0
  0
XRECORD
  5
1989
102
{ACAD_REACTORS
330
1972
102
}
330
1972
100
AcDbXrecord
 10
0.0
 20
0.0
 30
0.0
  0
XRECORD
  5
1985
102
{ACAD_REACTORS
330
1972
102
}
330
1972
100
AcDbXrecord
 10
0.0
 20
0.0
 30
0.0
  0
XRECORD
  5
1988
102
{ACAD_REACTORS
330
1972
102
}
330
1972
100
AcDbXrecord
 10
0.0
 20
0.0
 30
0.0
  0
XRECORD
  5
1986
102
{ACAD_REACTORS
330
1972
102
}
330
1972
100
AcDbXrecord
 10
0.0
 20
0.0
 30
0.0
  0
XRECORD
  5
1987
102
{ACAD_REACTORS
330
1972
102
}
330
1972
100
AcDbXrecord
 10
0.0
 20
0.0
 30
0.0
  0
XRECORD
  5
1984
102
{ACAD_REACTORS
330
1972
102
}
330
1972
100
AcDbXrecord
 10
0.0
 20
0.0
 30
0.0
  0
XRECORD
  5
1981
102
{ACAD_REACTORS
330
1972
102
}
330
1972
100
AcDbXrecord
340
0
  0
XRECORD
  5
1982
102
{ACAD_REACTORS
330
1972
102
}
330
1972
100
AcDbXrecord
 70
     0
  0
XRECORD
  5
1976
102
{ACAD_REACTORS
330
1972
102
}
330
1972
100
AcDbXrecord
  1
Sekkei.ctb
  0
XRECORD
  5
1973
102
{ACAD_REACTORS
330
1972
102
}
330
1972
100
AcDbXrecord
 90
        1
  0
XRECORD
  5
1974
102
{ACAD_REACTORS
330
1972
102
}
330
1972
100
AcDbXrecord
 90
       70
  0
XRECORD
  5
198C
102
{ACAD_REACTORS
330
1972
102
}
330
1972
100
AcDbXrecord
340
0
  0
XRECORD
  5
1992
102
{ACAD_REACTORS
330
1972
102
}
330
1972
100
AcDbXrecord
 10
0.0
 20
0.0
 30
0.0
  0
XRECORD
  5
198E
102
{ACAD_REACTORS
330
1972
102
}
330
1972
100
AcDbXrecord
 10
0.0
 20
0.0
 30
0.0
  0
XRECORD
  5
1991
102
{ACAD_REACTORS
330
1972
102
}
330
1972
100
AcDbXrecord
 10
0.0
 20
0.0
 30
0.0
  0
XRECORD
  5
198F
102
{ACAD_REACTORS
330
1972
102
}
330
1972
100
AcDbXrecord
 10
0.0
 20
0.0
 30
0.0
  0
XRECORD
  5
1990
102
{ACAD_REACTORS
330
1972
102
}
330
1972
100
AcDbXrecord
 10
0.0
 20
0.0
 30
0.0
  0
XRECORD
  5
198D
102
{ACAD_REACTORS
330
1972
102
}
330
1972
100
AcDbXrecord
 10
0.0
 20
0.0
 30
0.0
  0
XRECORD
  5
198A
102
{ACAD_REACTORS
330
1972
102
}
330
1972
100
AcDbXrecord
340
0
  0
XRECORD
  5
198B
102
{ACAD_REACTORS
330
1972
102
}
330
1972
100
AcDbXrecord
 70
     0
  0
XRECORD
  5
197E
102
{ACAD_REACTORS
330
1972
102
}
330
1972
100
AcDbXrecord
  1
{C2837C77-AABD-4612-BA26-A6FFBD93B44F}
  0
DICTIONARYVAR
  5
1949
102
{ACAD_REACTORS
330
102
102
}
330
102
100
DictionaryVariables
280
     0
  1
1:1
  0
DICTIONARYVAR
  5
1948
102
{ACAD_REACTORS
330
102
102
}
330
102
100
DictionaryVariables
280
     0
  1
STANDARD
  0
DICTIONARYVAR
  5
1947
102
{ACAD_REACTORS
330
102
102
}
330
102
100
DictionaryVariables
280
     0
  1
STANDARD
  0
DICTIONARYVAR
  5
103
102
{ACAD_REACTORS
330
102
102
}
330
102
100
DictionaryVariables
280
     0
  1
1
  0
DICTIONARYVAR
  5
194A
102
{ACAD_REACTORS
330
102
102
}
330
102
100
DictionaryVariables
280
     0
  1
0
  0
DICTIONARYVAR
  5
549
102
{ACAD_REACTORS
330
102
102
}
330
102
100
DictionaryVariables
280
     0
  1
96
  0
DICTIONARY
  5
18CA
330
18C9
100
AcDbDictionary
280
     1
  3
ACAD_XREC_ROUNDTRIP
360
1944
  3
BUMPTILE
360
18CC
  3
DIFFUSETILE
360
18CB
  3
OPACITYTILE
360
18CF
  3
REFLECTIONTILE
360
18CE
  3
REFRACTIONTILE
360
18D0
  3
SPECULARTILE
360
18CD
  0
DICTIONARY
  5
18C2
330
18C1
100
AcDbDictionary
280
     1
  3
ACAD_XREC_ROUNDTRIP
360
1943
  3
BUMPTILE
360
18C4
  3
DIFFUSETILE
360
18C3
  3
OPACITYTILE
360
18C7
  3
REFLECTIONTILE
360
18C6
  3
REFRACTIONTILE
360
18C8
  3
SPECULARTILE
360
18C5
  0
DICTIONARY
  5
18D2
330
18D1
100
AcDbDictionary
280
     1
  3
ACAD_XREC_ROUNDTRIP
360
1945
  3
BUMPTILE
360
18D4
  3
DIFFUSETILE
360
18D3
  3
OPACITYTILE
360
18D7
  3
REFLECTIONTILE
360
18D6
  3
REFRACTIONTILE
360
18D8
  3
SPECULARTILE
360
18D5
  0
DICTIONARY
  5
1926
330
18EC
100
AcDbDictionary
280
     1
  3
ACAD_ROUNDTRIP_2008_TABLES
360
1927
  3
ACAD_XREC_ROUNDTRIP
360
1946
  0
XRECORD
  5
1944
102
{ACAD_REACTORS
330
18CA
102
}
330
18CA
100
AcDbXrecord
102
MATERIAL
148
0.0
149
0.0
149
0.0
 93
        0
 94
      127
282
     0
 72
     0
 77
     0
171
     0
175
     0
179
     0
273
     0
  0
XRECORD
  5
18CC
102
{ACAD_REACTORS
330
18CA
102
}
330
18CA
100
AcDbXrecord
270
     1
271
     1
  0
XRECORD
  5
18CB
102
{ACAD_REACTORS
330
18CA
102
}
330
18CA
100
AcDbXrecord
270
     1
271
     1
  0
XRECORD
  5
18CF
102
{ACAD_REACTORS
330
18CA
102
}
330
18CA
100
AcDbXrecord
270
     1
271
     1
  0
XRECORD
  5
18CE
102
{ACAD_REACTORS
330
18CA
102
}
330
18CA
100
AcDbXrecord
270
     1
271
     1
  0
XRECORD
  5
18D0
102
{ACAD_REACTORS
330
18CA
102
}
330
18CA
100
AcDbXrecord
270
     1
271
     1
  0
XRECORD
  5
18CD
102
{ACAD_REACTORS
330
18CA
102
}
330
18CA
100
AcDbXrecord
270
     1
271
     1
  0
XRECORD
  5
1943
102
{ACAD_REACTORS
330
18C2
102
}
330
18C2
100
AcDbXrecord
102
MATERIAL
148
0.0
149
0.0
149
0.0
 93
        0
 94
      127
282
     0
 72
     0
 77
     0
171
     0
175
     0
179
     0
273
     0
  0
XRECORD
  5
18C4
102
{ACAD_REACTORS
330
18C2
102
}
330
18C2
100
AcDbXrecord
270
     1
271
     1
  0
XRECORD
  5
18C3
102
{ACAD_REACTORS
330
18C2
102
}
330
18C2
100
AcDbXrecord
270
     1
271
     1
  0
XRECORD
  5
18C7
102
{ACAD_REACTORS
330
18C2
102
}
330
18C2
100
AcDbXrecord
270
     1
271
     1
  0
XRECORD
  5
18C6
102
{ACAD_REACTORS
330
18C2
102
}
330
18C2
100
AcDbXrecord
270
     1
271
     1
  0
XRECORD
  5
18C8
102
{ACAD_REACTORS
330
18C2
102
}
330
18C2
100
AcDbXrecord
270
     1
271
     1
  0
XRECORD
  5
18C5
102
{ACAD_REACTORS
330
18C2
102
}
330
18C2
100
AcDbXrecord
270
     1
271
     1
  0
XRECORD
  5
1945
102
{ACAD_REACTORS
330
18D2
102
}
330
18D2
100
AcDbXrecord
102
MATERIAL
148
0.0
149
0.0
149
0.0
 93
        0
 94
      127
282
     0
 72
     0
 77
     0
171
     0
175
     0
179
     0
273
     0
  0
XRECORD
  5
18D4
102
{ACAD_REACTORS
330
18D2
102
}
330
18D2
100
AcDbXrecord
270
     1
271
     1
  0
XRECORD
  5
18D3
102
{ACAD_REACTORS
330
18D2
102
}
330
18D2
100
AcDbXrecord
270
     1
271
     1
  0
XRECORD
  5
18D7
102
{ACAD_REACTORS
330
18D2
102
}
330
18D2
100
AcDbXrecord
270
     1
271
     1
  0
XRECORD
  5
18D6
102
{ACAD_REACTORS
330
18D2
102
}
330
18D2
100
AcDbXrecord
270
     1
271
     1
  0
XRECORD
  5
18D8
102
{ACAD_REACTORS
330
18D2
102
}
330
18D2
100
AcDbXrecord
270
     1
271
     1
  0
XRECORD
  5
18D5
102
{ACAD_REACTORS
330
18D2
102
}
330
18D2
100
AcDbXrecord
270
     1
271
     1
  0
ACAD_PROXY_OBJECT
  5
1927
102
{ACAD_REACTORS
330
1926
102
}
330
1926
100
AcDbProxyObject
 90
      499
 91
      510
 93
     1044
310
40D054060020000020000003200101A000080002A5058000000C100000000000000340FE901405075F5449544C450041501A8000000C800406800020000A9416000000304000AD7A3703D0AC73FA409014217D2115051115480105406A0000003200101A000080002A5028000000C10002B5E8DC0F42B1CFE903409065F444
310
15441004
340
16
340
16
340
16
 94
        0
1001
ACAD
1000
AcadProxyRoundTripData
1071
      509
1071
   655383
1070
     0
  0
XRECORD
  5
1946
102
{ACAD_REACTORS
330
1926
102
}
330
1926
100
AcDbXrecord
102
ACAD_ROUNDTRIP_PRE2007_TABLESTYLE
 90
      512
 91
        0
  1

 92
      512
 93
        0
  2

 94
      512
 95
        0
  3

  0
ENDSEC
  0
EOF
