  0
SECTION
  2
HEADER
  9
$ACADVER
  1
AC1014
  9
$ACADMAINTVER
 70
     9
  9
$DWGCODEPAGE
  3
ANSI_932
  9
$INSBASE
 10
0.0
 20
0.0
 30
0.0
  9
$EXTMIN
 10
39.41773556191469
 20
96.36043664628411
 30
0.0
  9
$EXTMAX
 10
1056.87220124138
 20
740.7927952309274
 30
0.0
  9
$LIMMIN
 10
0.0
 20
0.0
  9
$LIMMAX
 10
297.0
 20
210.0
  9
$ORTHOMODE
 70
     1
  9
$REGENMODE
 70
     1
  9
$FILLMODE
 70
     1
  9
$QTEXTMODE
 70
     0
  9
$MIRRTEXT
 70
     0
  9
$DRAGMODE
 70
     2
  9
$LTSCALE
 40
3.0
  9
$OSMODE
 70
    37
  9
$ATTMODE
 70
     1
  9
$TEXTSIZE
 40
2.0
  9
$TRACEWID
 40
1.0
  9
$TEXTSTYLE
  7
STANDARD
  9
$CLAYER
  8
0
  9
$CELTYPE
  6
BYLAYER
  9
$CECOLOR
 62
   256
  9
$CELTSCALE
 40
1.0
  9
$DELOBJ
 70
     1
  9
$DISPSILH
 70
     0
  9
$DIMSCALE
 40
3.0
  9
$DIMASZ
 40
1.8
  9
$DIMEXO
 40
0.625
  9
$DIMDLI
 40
3.75
  9
$DIMRND
 40
0.0
  9
$DIMDLE
 40
0.0
  9
$DIMEXE
 40
0.8
  9
$DIMTP
 40
0.0
  9
$DIMTM
 40
0.0
  9
$DIMTXT
 40
1.8
  9
$DIMCEN
 40
2.5
  9
$DIMTSZ
 40
0.0
  9
$DIMTOL
 70
     0
  9
$DIMLIM
 70
     0
  9
$DIMTIH
 70
     0
  9
$DIMTOH
 70
     0
  9
$DIMSE1
 70
     0
  9
$DIMSE2
 70
     0
  9
$DIMTAD
 70
     1
  9
$DIMZIN
 70
     8
  9
$DIMBLK
  1

  9
$DIMASO
 70
     1
  9
$DIMSHO
 70
     1
  9
$DIMPOST
  1

  9
$DIMAPOST
  1

  9
$DIMALT
 70
     0
  9
$DIMALTD
 70
     4
  9
$DIMALTF
 40
0.0394
  9
$DIMLFAC
 40
1.0
  9
$DIMTOFL
 70
     1
  9
$DIMTVP
 40
0.0
  9
$DIMTIX
 70
     0
  9
$DIMSOXD
 70
     0
  9
$DIMSAH
 70
     0
  9
$DIMBLK1
  1

  9
$DIMBLK2
  1

  9
$DIMSTYLE
  2
STANDARD
  9
$DIMCLRD
 70
     0
  9
$DIMCLRE
 70
     0
  9
$DIMCLRT
 70
     0
  9
$DIMTFAC
 40
1.0
  9
$DIMGAP
 40
0.75
  9
$DIMJUST
 70
     0
  9
$DIMSD1
 70
     0
  9
$DIMSD2
 70
     0
  9
$DIMTOLJ
 70
     1
  9
$DIMTZIN
 70
     0
  9
$DIMALTZ
 70
     0
  9
$DIMALTTZ
 70
     0
  9
$DIMFIT
 70
     3
  9
$DIMUPT
 70
     0
  9
$DIMUNIT
 70
     8
  9
$DIMDEC
 70
     2
  9
$DIMTDEC
 70
     2
  9
$DIMALTU
 70
     8
  9
$DIMALTTD
 70
     4
  9
$DIMTXSTY
  7
STANDARD
  9
$DIMAUNIT
 70
     0
  9
$LUNITS
 70
     2
  9
$LUPREC
 70
     3
  9
$SKETCHINC
 40
1.0
  9
$FILLETRAD
 40
2.0
  9
$AUNITS
 70
     0
  9
$AUPREC
 70
     2
  9
$MENU
  1
.
  9
$ELEVATION
 40
0.0
  9
$PELEVATION
 40
0.0
  9
$THICKNESS
 40
0.0
  9
$LIMCHECK
 70
     0
  9
$BLIPMODE
 70
     0
  9
$CHAMFERA
 40
0.0
  9
$CHAMFERB
 40
0.0
  9
$CHAMFERC
 40
20.0
  9
$CHAMFERD
 40
0.0
  9
$SKPOLY
 70
     0
  9
$TDCREATE
 40
2454412.680298565
  9
$TDUPDATE
 40
2454424.600725544
  9
$TDINDWG
 40
0.0037271991
  9
$TDUSRTIMER
 40
0.0037270255
  9
$USRTIMER
 70
     1
  9
$ANGBASE
 50
0.0
  9
$ANGDIR
 70
     0
  9
$PDMODE
 70
     0
  9
$PDSIZE
 40
-10.0
  9
$PLINEWID
 40
0.0
  9
$COORDS
 70
     0
  9
$SPLFRAME
 70
     0
  9
$SPLINETYPE
 70
     6
  9
$SPLINESEGS
 70
     8
  9
$ATTDIA
 70
     0
  9
$ATTREQ
 70
     1
  9
$HANDLING
 70
-16383
  9
$HANDSEED
  5
1926
  9
$SURFTAB1
 70
     6
  9
$SURFTAB2
 70
     6
  9
$SURFTYPE
 70
     6
  9
$SURFU
 70
     6
  9
$SURFV
 70
     6
  9
$UCSNAME
  2

  9
$UCSORG
 10
0.0
 20
0.0
 30
0.0
  9
$UCSXDIR
 10
1.0
 20
0.0
 30
0.0
  9
$UCSYDIR
 10
0.0
 20
1.0
 30
0.0
  9
$PUCSNAME
  2

  9
$PUCSORG
 10
0.0
 20
0.0
 30
0.0
  9
$PUCSXDIR
 10
1.0
 20
0.0
 30
0.0
  9
$PUCSYDIR
 10
0.0
 20
1.0
 30
0.0
  9
$USERI1
 70
     0
  9
$USERI2
 70
     0
  9
$USERI3
 70
     0
  9
$USERI4
 70
     0
  9
$USERI5
 70
     0
  9
$USERR1
 40
0.0
  9
$USERR2
 40
0.0
  9
$USERR3
 40
0.0
  9
$USERR4
 40
0.0
  9
$USERR5
 40
0.0
  9
$WORLDVIEW
 70
     1
  9
$SHADEDGE
 70
     3
  9
$SHADEDIF
 70
    70
  9
$TILEMODE
 70
     1
  9
$MAXACTVP
 70
    48
  9
$PINSBASE
 10
0.0
 20
0.0
 30
0.0
  9
$PLIMCHECK
 70
     0
  9
$PEXTMIN
 10
0.0
 20
0.0
 30
0.0
  9
$PEXTMAX
 10
0.0
 20
0.0
 30
0.0
  9
$PLIMMIN
 10
0.0
 20
0.0
  9
$PLIMMAX
 10
12.0
 20
9.0
  9
$UNITMODE
 70
     0
  9
$VISRETAIN
 70
     1
  9
$PLINEGEN
 70
     0
  9
$PSLTSCALE
 70
     1
  9
$TREEDEPTH
 70
  3020
  9
$PICKSTYLE
 70
     1
  9
$CMLSTYLE
  2
STANDARD
  9
$CMLJUST
 70
     0
  9
$CMLSCALE
 40
1.0
  9
$PROXYGRAPHICS
 70
     1
  9
$MEASUREMENT
 70
     0
  0
ENDSEC
  0
SECTION
  2
CLASSES
  0
CLASS
  1
DICTIONARYVAR
  2
AcDbDictionaryVar
  3
AutoCAD 2000
 90
        0
280
     0
281
     0
  0
CLASS
  1
ACDBDICTIONARYWDFLT
  2
AcDbDictionaryWithDefault
  3
AutoCAD 2000
 90
        0
280
     0
281
     0
  0
CLASS
  1
ACDBPLACEHOLDER
  2
AcDbPlaceHolder
  3
AutoCAD 2000
 90
        0
280
     0
281
     0
  0
CLASS
  1
LAYOUT
  2
AcDbLayout
  3
AutoCAD 2000
 90
        0
280
     0
281
     0
  0
CLASS
  1
LONG_TRANSACTION
  2
AcDbLongTransaction
  3
AutoCAD 2000
 90
        0
280
     0
281
     0
  0
CLASS
  1
LWPOLYLINE
  2
AcDbPolyline
  3
AutoCAD 2000
 90
        0
280
     0
281
     1
  0
CLASS
  1
HATCH
  2
AcDbHatch
  3
AutoCAD 2000
 90
        0
280
     0
281
     1
  0
CLASS
  1
XRECORD
  2
AcDbXrecord
  3
AutoCAD 2000
 90
        0
280
     0
281
     0
  0
ENDSEC
  0
SECTION
  2
TABLES
  0
TABLE
  2
VPORT
  5
6E
330
0
100
AcDbSymbolTable
 70
     2
  0
VPORT
  5
1900
330
6E
100
AcDbSymbolTableRecord
100
AcDbViewportTableRecord
  2
*ACTIVE
 70
     0
 10
0.0
 20
0.0
 11
1.0
 21
1.0
 12
620.3110337797664
 22
402.8782886871495
 13
0.0
 23
0.0
 14
10.0
 24
10.0
 15
10.0
 25
10.0
 16
0.0
 26
0.0
 36
1.0
 17
0.0
 27
0.0
 37
0.0
 40
681.1863549814452
 41
1.753504672897196
 42
50.0
 43
0.0
 44
0.0
 50
0.0
 51
0.0
 71
     0
 72
   100
 73
     1
 74
     3
 75
     0
 76
     0
 77
     0
 78
     0
  0
ENDTAB
  0
TABLE
  2
LTYPE
  5
69
330
0
100
AcDbSymbolTable
 70
     6
  0
LTYPE
  5
6A
330
69
100
AcDbSymbolTableRecord
100
AcDbLinetypeTableRecord
  2
BYBLOCK
 70
     0
  3

 72
    65
 73
     0
 40
0.0
  0
LTYPE
  5
6B
330
69
100
AcDbSymbolTableRecord
100
AcDbLinetypeTableRecord
  2
BYLAYER
 70
     0
  3

 72
    65
 73
     0
 40
0.0
  0
LTYPE
  5
8
330
69
100
AcDbSymbolTableRecord
100
AcDbLinetypeTableRecord
  2
CONTINUOUS
 70
     0
  3
Solid line
 72
    65
 73
     0
 40
0.0
  0
LTYPE
  5
27C
330
69
100
AcDbSymbolTableRecord
100
AcDbLinetypeTableRecord
  2
SEKKEI_A2_
 70
     0
  3
center(A2)  ____ _ ____ _ ____ _ ____ _ ____ _ 
 72
    65
 73
     4
 40
14.28749999999999
 49
9.525
 74
     0
 49
-1.587499999999999
 74
     0
 49
1.587499999999999
 74
     0
 49
-1.587499999999999
 74
     0
  0
LTYPE
  5
7EF
330
69
100
AcDbSymbolTableRecord
100
AcDbLinetypeTableRecord
  2
PHANTOM3
 70
     0
  3
Phantom  ___ _ _ ___ _ _ ___ _ _ ___ _ _
 72
    65
 73
     6
 40
9.0
 49
4.0
 74
     0
 49
-1.0
 74
     0
 49
1.0
 74
     0
 49
-1.0
 74
     0
 49
1.0
 74
     0
 49
-1.0
 74
     0
  0
LTYPE
  5
7F0
330
69
100
AcDbSymbolTableRecord
100
AcDbLinetypeTableRecord
  2
HIDDEN3
 70
     0
  3
Hidden (.3x) _ _ _ _ _ _ _ _ _ _ _ _ _ _ _ _ _
 72
    65
 73
     2
 40
2.857499999999999
 49
1.905
 74
     0
 49
-0.9525
 74
     0
  0
LTYPE
  5
B20
330
69
100
AcDbSymbolTableRecord
100
AcDbLinetypeTableRecord
  2
CENS
 70
     0
  3
(一点鎖線１)---- - ---- - ---- - ---- - ---- - 
 72
    65
 73
     4
 40
7.0
 49
4.0
 74
     0
 49
-1.0
 74
     0
 49
1.0
 74
     0
 49
-1.0
 74
     0
  0
ENDTAB
  0
TABLE
  2
LAYER
  5
66
102
{ACAD_XDICTIONARY
360
B21
102
}
330
0
100
AcDbSymbolTable
 70
    10
  0
LAYER
  5
5E
330
66
100
AcDbSymbolTableRecord
100
AcDbLayerTableRecord
  2
0
 70
     0
 62
     7
  6
CONTINUOUS
  0
LAYER
  5
3E
330
66
100
AcDbSymbolTableRecord
100
AcDbLayerTableRecord
  2
CENTER
 70
     0
 62
     3
  6
SEKKEI_A2_
  0
LAYER
  5
2B5
330
66
100
AcDbSymbolTableRecord
100
AcDbLayerTableRecord
  2
HIDS
 70
     0
 62
     1
  6
HIDDEN3
  0
LAYER
  5
2BA
330
66
100
AcDbSymbolTableRecord
100
AcDbLayerTableRecord
  2
HOJO
 70
     0
 62
     4
  6
CONTINUOUS
  0
LAYER
  5
3FA
330
66
100
AcDbSymbolTableRecord
100
AcDbLayerTableRecord
  2
TITLE
 70
     0
 62
     4
  6
CONTINUOUS
  0
LAYER
  5
478
330
66
100
AcDbSymbolTableRecord
100
AcDbLayerTableRecord
  2
PHAS
 70
     0
 62
     2
  6
PHANTOM3
  0
ENDTAB
  0
TABLE
  2
STYLE
  5
67
330
0
100
AcDbSymbolTable
 70
     2
  0
STYLE
  5
16
330
67
100
AcDbSymbolTableRecord
100
AcDbTextStyleTableRecord
  2
STANDARD
 70
     0
 40
0.0
 41
1.0
 50
0.0
 71
     0
 42
2.0
  3
simplex.shx
  4
extfont.shx
  0
ENDTAB
  0
TABLE
  2
VIEW
  5
6C
330
0
100
AcDbSymbolTable
 70
     0
  0
ENDTAB
  0
TABLE
  2
UCS
  5
6D
330
0
100
AcDbSymbolTable
 70
     0
  0
ENDTAB
  0
TABLE
  2
APPID
  5
70
330
0
100
AcDbSymbolTable
 70
     1
  0
APPID
  5
71
330
70
100
AcDbSymbolTableRecord
100
AcDbRegAppTableRecord
  2
ACAD
 70
     0
  0
ENDTAB
  0
TABLE
  2
DIMSTYLE
  5
72
330
0
100
AcDbSymbolTable
 70
     1
  0
DIMSTYLE
105
73
330
72
100
AcDbSymbolTableRecord
100
AcDbDimStyleTableRecord
  2
STANDARD
 70
     0
  3

  4

  5

  6

  7

 40
3.0
 41
1.8
 42
0.625
 43
3.75
 44
0.8
 45
0.0
 46
0.0
 47
0.0
 48
0.0
140
1.8
141
2.5
142
0.0
143
0.0394
144
1.0
145
0.0
146
1.0
147
0.75
 71
     0
 72
     0
 73
     0
 74
     0
 75
     0
 76
     0
 77
     1
 78
     8
170
     0
171
     4
172
     1
173
     0
174
     0
175
     0
176
     0
177
     0
178
     0
270
     8
271
     2
272
     2
273
     8
274
     4
340
16
275
     0
280
     0
281
     0
282
     0
283
     1
284
     0
285
     0
286
     0
287
     3
288
     0
  0
ENDTAB
  0
TABLE
  2
BLOCK_RECORD
  5
1
330
0
100
AcDbSymbolTable
 70
    56
  0
BLOCK_RECORD
  5
2
102
{ACAD_XDICTIONARY
360
1922
102
}
330
1
100
AcDbSymbolTableRecord
100
AcDbBlockTableRecord
  2
*MODEL_SPACE
  0
BLOCK_RECORD
  5
18FB
102
{ACAD_XDICTIONARY
360
1924
102
}
330
1
100
AcDbSymbolTableRecord
100
AcDbBlockTableRecord
  2
*PAPER_SPACE
  0
ENDTAB
  0
ENDSEC
  0
SECTION
  2
BLOCKS
  0
BLOCK
  5
5D
330
2
100
AcDbEntity
  8
0
100
AcDbBlockBegin
  2
*MODEL_SPACE
 70
     0
 10
0.0
 20
0.0
 30
0.0
  3
*MODEL_SPACE
  1

  0
ENDBLK
  5
5F
330
2
100
AcDbEntity
  8
0
100
AcDbBlockEnd
  0
BLOCK
  5
18FD
330
18FB
100
AcDbEntity
 67
     1
  8
0
100
AcDbBlockBegin
  2
*PAPER_SPACE
 70
     0
 10
0.0
 20
0.0
 30
0.0
  3
*PAPER_SPACE
  1

  0
ENDBLK
  5
18FE
330
18FB
100
AcDbEntity
 67
     1
  8
0
100
AcDbBlockEnd
  0
ENDSEC
  0
SECTION
  2
ENTITIES
  0
TEXT
  5
FDD
330
2
100
AcDbEntity
  8
TITLE
100
AcDbText
 10
351.6648737507256
 20
672.8430326868187
 30
0.0
 40
7.5
  1
AFCZ22S-10~30M400S3
100
AcDbText
  0
TEXT
  5
FDE
330
2
100
AcDbEntity
  8
TITLE
100
AcDbText
 10
351.6648737507256
 20
661.3430326868187
 30
0.0
 40
7.5
  1
AFCZ22S-10~30L400S3
100
AcDbText
  0
LINE
  5
FE0
330
2
100
AcDbEntity
  8
CENTER
100
AcDbLine
 10
277.2077355619164
 20
405.6838895118571
 30
0.0
 11
39.41773556191469
 21
405.6838895118571
 31
0.0
  0
LINE
  5
FE1
330
2
100
AcDbEntity
  8
CENTER
100
AcDbLine
 10
216.2077355619164
 20
344.683889511857
 30
0.0
 11
216.2077355619164
 21
466.6838895118571
 31
0.0
  0
LINE
  5
FE2
330
2
100
AcDbEntity
  8
CENTER
100
AcDbLine
 10
630.9438017037479
 20
594.7929022309272
 30
0.0
 11
630.9438017037479
 21
740.7927952309274
 31
0.0
  0
LINE
  5
FE3
330
2
100
AcDbEntity
  8
CENTER
100
AcDbLine
 10
630.9438017037489
 20
475.6838895118561
 30
0.0
 11
630.9438017037489
 21
335.6838895118562
 31
0.0
  0
LINE
  5
FE4
330
2
100
AcDbEntity
  8
CENTER
100
AcDbLine
 10
684.5504034215489
 20
459.2904912296557
 30
0.0
 11
577.3371999859507
 21
352.0772877940584
 31
0.0
  0
LINE
  5
FE5
330
2
100
AcDbEntity
  8
CENTER
100
AcDbLine
 10
577.3371999859498
 20
459.2904912296536
 30
0.0
 11
684.5504034215462
 21
352.0772877940589
 31
0.0
  0
CIRCLE
  5
FE6
330
2
100
AcDbEntity
  8
CENTER
100
AcDbCircle
 10
630.9438017037479
 20
405.6838895118562
 30
0.0
 40
60.0
  0
LINE
  5
FE7
330
2
100
AcDbEntity
  8
CENTER
100
AcDbLine
 10
560.943801703748
 20
405.6838895118562
 30
0.0
 11
807.7338017054733
 21
405.6838895118562
 31
0.0
  0
CIRCLE
  5
FE8
330
2
100
AcDbEntity
  8
HOJO
100
AcDbCircle
 10
588.5173948325553
 20
363.2574826406634
 30
0.0
 40
4.0
  0
CIRCLE
  5
FE9
330
2
100
AcDbEntity
  8
HOJO
100
AcDbCircle
 10
673.3702085749416
 20
363.2574826406634
 30
0.0
 40
4.0
  0
LINE
  5
FEA
330
2
100
AcDbEntity
  8
CENTER
100
AcDbLine
 10
570.1881540018892
 20
674.792902230929
 30
0.0
 11
807.7338017054724
 21
674.792902230929
 31
0.0
  0
CIRCLE
  5
FEB
330
2
100
AcDbEntity
  8
HOJO
100
AcDbCircle
 10
588.5173948325553
 20
448.1102963830489
 30
0.0
 40
4.0
  0
CIRCLE
  5
FEC
330
2
100
AcDbEntity
  8
HOJO
100
AcDbCircle
 10
673.3702085749416
 20
448.1102963830489
 30
0.0
 40
4.0
  0
LINE
  5
FED
330
2
100
AcDbEntity
  8
CENTER
100
AcDbLine
 10
596.5173948325553
 20
448.1102963830489
 30
0.0
 11
580.5173948325553
 21
448.1102963830489
 31
0.0
  0
LINE
  5
FEE
330
2
100
AcDbEntity
  8
CENTER
100
AcDbLine
 10
588.5173948325553
 20
440.1102963830489
 30
0.0
 11
588.5173948325553
 21
456.1102963830489
 31
0.0
  0
LINE
  5
FEF
330
2
100
AcDbEntity
  8
CENTER
100
AcDbLine
 10
596.5173948325553
 20
363.2574826406652
 30
0.0
 11
580.5173948325553
 21
363.2574826406652
 31
0.0
  0
LINE
  5
FF0
330
2
100
AcDbEntity
  8
CENTER
100
AcDbLine
 10
588.5173948325553
 20
371.2574826406652
 30
0.0
 11
588.5173948325553
 21
355.2574826406652
 31
0.0
  0
LINE
  5
FF1
330
2
100
AcDbEntity
  8
CENTER
100
AcDbLine
 10
673.3702085749398
 20
371.2574826406652
 30
0.0
 11
673.3702085749398
 21
355.2574826406652
 31
0.0
  0
LINE
  5
FF2
330
2
100
AcDbEntity
  8
CENTER
100
AcDbLine
 10
665.3702085749398
 20
363.2574826406634
 30
0.0
 11
681.3702085749398
 21
363.2574826406634
 31
0.0
  0
LINE
  5
FF3
330
2
100
AcDbEntity
  8
CENTER
100
AcDbLine
 10
665.3702085749398
 20
448.1102963830489
 30
0.0
 11
681.3702085749398
 21
448.1102963830489
 31
0.0
  0
LINE
  5
FF4
330
2
100
AcDbEntity
  8
CENTER
100
AcDbLine
 10
673.3702085749398
 20
440.1102963830489
 30
0.0
 11
673.3702085749398
 21
456.1102963830489
 31
0.0
  0
LINE
  5
FF5
330
2
100
AcDbEntity
  8
0
100
AcDbLine
 10
580.5197749779161
 20
636.7929022334737
 30
0.0
 11
681.3634649956863
 21
636.7929022334737
 31
0.0
  0
LINE
  5
FF6
330
2
100
AcDbEntity
  8
0
100
AcDbLine
 10
585.943801703748
 20
631.7929022334737
 30
0.0
 11
675.943801703748
 21
631.792902233481
 31
0.0
  0
LINE
  5
FF7
330
2
100
AcDbEntity
  8
0
100
AcDbLine
 10
580.5197749779161
 20
636.7929022334737
 30
0.0
 11
579.943801703748
 21
702.792902230929
 31
0.0
  0
LINE
  5
FF8
330
2
100
AcDbEntity
  8
0
100
AcDbLine
 10
585.943801703748
 20
636.7929022334737
 30
0.0
 11
585.943801703748
 21
631.7929022334737
 31
0.0
  0
LINE
  5
FF9
330
2
100
AcDbEntity
  8
0
100
AcDbLine
 10
754.7338017054723
 20
710.792902230929
 30
0.0
 11
754.7338017054723
 21
638.792902230929
 31
0.0
  0
LINE
  5
FFA
330
2
100
AcDbEntity
  8
0
100
AcDbLine
 10
716.8913643402539
 20
638.7929022334738
 30
0.0
 11
682.8678855471605
 21
638.7929022334738
 31
0.0
  0
LINE
  5
FFB
330
2
100
AcDbEntity
  8
0
100
AcDbLine
 10
675.943801703748
 20
636.7929022334737
 30
0.0
 11
675.943801703748
 21
631.7929022334737
 31
0.0
  0
LINE
  5
FFD
330
2
100
AcDbEntity
  8
0
100
AcDbLine
 10
744.6821154473152
 20
638.792902230929
 30
0.0
 11
754.7338017054723
 21
638.792902230929
 31
0.0
  0
LINE
  5
FFE
330
2
100
AcDbEntity
  8
0
100
AcDbLine
 10
744.6821154473152
 20
710.792902230929
 30
0.0
 11
754.7338017054723
 21
710.792902230929
 31
0.0
  0
LINE
  5
FFF
330
2
100
AcDbEntity
  8
0
100
AcDbLine
 10
754.7338017054723
 20
710.792902230929
 30
0.0
 11
754.7338017054723
 21
638.792902230929
 31
0.0
  0
ARC
  5
1000
330
2
100
AcDbEntity
  8
0
100
AcDbCircle
 10
521.3185973817615
 20
432.3860184421791
 30
0.0
 40
60.0
100
AcDbArc
 50
354.1053016136503
 51
11.80506781044405
  0
LINE
  5
1001
330
2
100
AcDbEntity
  8
0
100
AcDbLine
 10
742.7338017037479
 20
440.1838895118562
 30
0.0
 11
742.7338017037479
 21
371.1838895118562
 31
0.0
  0
LINE
  5
1002
330
2
100
AcDbEntity
  8
0
100
AcDbLine
 10
754.7338017037479
 20
442.1838895118561
 30
0.0
 11
754.7338017037479
 21
369.1838895118562
 31
0.0
  0
LINE
  5
1003
330
2
100
AcDbEntity
  8
0
100
AcDbLine
 10
718.943801703748
 20
375.6838895118562
 30
0.0
 11
718.943801703748
 21
435.6838895118562
 31
0.0
  0
LINE
  5
1004
330
2
100
AcDbEntity
  8
0
100
AcDbLine
 10
681.9438017037525
 20
448.6838895118544
 30
0.0
 11
681.943801703747
 21
362.6838895118543
 31
0.0
  0
CIRCLE
  5
1005
330
2
100
AcDbEntity
  8
0
100
AcDbCircle
 10
630.9438017037489
 20
405.6838895118562
 30
0.0
 40
34.0
  0
CIRCLE
  5
1006
330
2
100
AcDbEntity
  8
0
100
AcDbCircle
 10
630.9438017037489
 20
405.6838895118562
 30
0.0
 40
45.0
  0
CIRCLE
  5
1007
330
2
100
AcDbEntity
  8
0
100
AcDbCircle
 10
630.9438017037489
 20
405.6838895118562
 30
0.0
 40
26.0
  0
LINE
  5
1008
330
2
100
AcDbEntity
  8
0
100
AcDbLine
 10
712.943801703748
 20
369.6838895118562
 30
0.0
 11
687.9438017037471
 21
369.6838895118562
 31
0.0
  0
ARC
  5
1009
330
2
100
AcDbEntity
  8
0
100
AcDbCircle
 10
630.9438017037462
 20
554.6838895118544
 30
0.0
 40
200.0
100
AcDbArc
 50
264.1053016135962
 51
275.8946983863775
  0
ARC
  5
100A
330
2
100
AcDbEntity
  8
0
100
AcDbCircle
 10
521.3185973817615
 20
378.9817605815296
 30
0.0
 40
60.0
100
AcDbArc
 50
348.1949321895559
 51
5.894698386349728
  0
ARC
  5
100B
330
2
100
AcDbEntity
  8
0
100
AcDbCircle
 10
604.2416727734205
 20
296.0586851898696
 30
0.0
 40
60.0
100
AcDbArc
 50
84.10530161362244
 51
101.8050678104677
  0
ARC
  5
100C
330
2
100
AcDbEntity
  8
0
100
AcDbCircle
 10
587.9438017037489
 20
362.6838895118562
 30
0.0
 40
8.0
100
AcDbArc
 50
180.0
 51
270.0
  0
LINE
  5
100D
330
2
100
AcDbEntity
  8
0
100
AcDbLine
 10
587.9438017037489
 20
354.6838895118562
 30
0.0
 11
590.9438017037461
 21
354.6838895118562
 31
0.0
  0
ARC
  5
100E
330
2
100
AcDbEntity
  8
0
100
AcDbCircle
 10
590.9438017037461
 20
359.6838895118543
 30
0.0
 40
5.0
100
AcDbArc
 50
269.9999999999739
 51
281.8050678104677
  0
ARC
  5
100F
330
2
100
AcDbEntity
  8
0
100
AcDbCircle
 10
584.9438017037462
 20
365.6838895118543
 30
0.0
 40
5.0
100
AcDbArc
 50
168.1949321895559
 51
180.0
  0
LINE
  5
1010
330
2
100
AcDbEntity
  8
0
100
AcDbLine
 10
579.9438017037489
 20
365.6838895118543
 30
0.0
 11
579.9438017037489
 21
362.6838895118562
 31
0.0
  0
CIRCLE
  5
1011
330
2
100
AcDbEntity
  8
0
100
AcDbCircle
 10
588.5173948325553
 20
363.2574826406616
 30
0.0
 40
3.2
  0
ARC
  5
1012
330
2
100
AcDbEntity
  8
0
100
AcDbCircle
 10
779.9438017037462
 20
405.6838895118543
 30
0.0
 40
200.0
100
AcDbArc
 50
174.1053016136502
 51
185.8946983863497
  0
ARC
  5
1013
330
2
100
AcDbEntity
  8
0
100
AcDbCircle
 10
657.6459306340709
 20
296.0586851898696
 30
0.0
 40
60.0
100
AcDbArc
 50
78.19493218953224
 51
95.89469838637755
  0
ARC
  5
1014
330
2
100
AcDbEntity
  8
0
100
AcDbCircle
 10
673.9438017037471
 20
362.6838895118562
 30
0.0
 40
8.0
100
AcDbArc
 50
270.0
 51
0.0
  0
ARC
  5
1015
330
2
100
AcDbEntity
  8
0
100
AcDbCircle
 10
670.9438017037462
 20
359.6838895118543
 30
0.0
 40
5.0
100
AcDbArc
 50
258.1949321895322
 51
270.0
  0
LINE
  5
1016
330
2
100
AcDbEntity
  8
0
100
AcDbLine
 10
670.9438017037462
 20
354.6838895118562
 30
0.0
 11
673.9438017037471
 21
354.6838895118562
 31
0.0
  0
CIRCLE
  5
1017
330
2
100
AcDbEntity
  8
0
100
AcDbCircle
 10
673.3702085749416
 20
363.2574826406616
 30
0.0
 40
3.2
  0
ARC
  5
1018
330
2
100
AcDbEntity
  8
0
100
AcDbCircle
 10
712.943801703748
 20
375.6838895118562
 30
0.0
 40
6.0
100
AcDbArc
 50
270.0
 51
0.0
  0
ARC
  5
1019
330
2
100
AcDbEntity
  8
0
100
AcDbCircle
 10
744.733801703748
 20
371.6838895118562
 30
0.0
 40
2.0
100
AcDbArc
 50
180.0
 51
270.0
  0
LINE
  5
101A
330
2
100
AcDbEntity
  8
0
100
AcDbLine
 10
712.943801703748
 20
441.6838895118561
 30
0.0
 11
687.9438017037516
 21
441.6838895118561
 31
0.0
  0
ARC
  5
101B
330
2
100
AcDbEntity
  8
0
100
AcDbCircle
 10
630.9438017037462
 20
256.6838895118544
 30
0.0
 40
200.0
100
AcDbArc
 50
84.10530161362244
 51
95.89469838637755
  0
ARC
  5
101C
330
2
100
AcDbEntity
  8
0
100
AcDbCircle
 10
604.2416727734214
 20
515.3090938338391
 30
0.0
 40
60.0
100
AcDbArc
 50
258.1949321895322
 51
275.8946983863775
  0
ARC
  5
101D
330
2
100
AcDbEntity
  8
0
100
AcDbCircle
 10
587.9438017037489
 20
448.6838895118562
 30
0.0
 40
8.0
100
AcDbArc
 50
90.0
 51
180.0
  0
CIRCLE
  5
101E
330
2
100
AcDbEntity
  8
0
100
AcDbCircle
 10
588.5173948325553
 20
448.1102963830471
 30
0.0
 40
3.2
  0
ARC
  5
101F
330
2
100
AcDbEntity
  8
0
100
AcDbCircle
 10
584.9438017037462
 20
445.6838895118544
 30
0.0
 40
5.0
100
AcDbArc
 50
180.0
 51
191.805067810444
  0
LINE
  5
1020
330
2
100
AcDbEntity
  8
0
100
AcDbLine
 10
579.9438017037489
 20
448.6838895118562
 30
0.0
 11
579.9438017037489
 21
445.6838895118544
 31
0.0
  0
LINE
  5
1021
330
2
100
AcDbEntity
  8
0
100
AcDbLine
 10
587.9438017037489
 20
456.6838895118562
 30
0.0
 11
590.9438017037461
 21
456.6838895118562
 31
0.0
  0
ARC
  5
1022
330
2
100
AcDbEntity
  8
0
100
AcDbCircle
 10
590.9438017037461
 20
451.6838895118543
 30
0.0
 40
5.0
100
AcDbArc
 50
78.19493218953224
 51
90.0
  0
ARC
  5
1023
330
2
100
AcDbEntity
  8
0
100
AcDbCircle
 10
657.6459306340718
 20
515.3090938338372
 30
0.0
 40
60.0
100
AcDbArc
 50
264.1053016135962
 51
281.8050678104677
  0
ARC
  5
1024
330
2
100
AcDbEntity
  8
0
100
AcDbCircle
 10
673.9438017037525
 20
448.6838895118562
 30
0.0
 40
8.0
100
AcDbArc
 50
0.0
 51
90.0
  0
CIRCLE
  5
1025
330
2
100
AcDbEntity
  8
0
100
AcDbCircle
 10
673.3702085749416
 20
448.1102963830471
 30
0.0
 40
3.2
  0
ARC
  5
1026
330
2
100
AcDbEntity
  8
0
100
AcDbCircle
 10
670.9438017037462
 20
451.6838895118525
 30
0.0
 40
5.0
100
AcDbArc
 50
89.99999999997395
 51
101.8050678104677
  0
LINE
  5
1027
330
2
100
AcDbEntity
  8
0
100
AcDbLine
 10
670.9438017037462
 20
456.6838895118562
 30
0.0
 11
673.9438017037516
 21
456.6838895118562
 31
0.0
  0
ARC
  5
1028
330
2
100
AcDbEntity
  8
0
100
AcDbCircle
 10
712.943801703748
 20
435.6838895118562
 30
0.0
 40
6.0
100
AcDbArc
 50
0.0
 51
90.0
  0
ARC
  5
1029
330
2
100
AcDbEntity
  8
0
100
AcDbCircle
 10
744.733801703748
 20
439.6838895118562
 30
0.0
 40
2.0
100
AcDbArc
 50
90.0
 51
180.0
  0
LINE
  5
102A
330
2
100
AcDbEntity
  8
0
100
AcDbLine
 10
754.7338017037479
 20
441.6838895118561
 30
0.0
 11
744.733801703748
 21
441.6838895118561
 31
0.0
  0
LINE
  5
102B
330
2
100
AcDbEntity
  8
0
100
AcDbLine
 10
744.733801703748
 20
369.6838895118562
 30
0.0
 11
754.7338017037479
 21
369.6838895118562
 31
0.0
  0
LINE
  5
102C
330
2
100
AcDbEntity
  8
0
100
AcDbLine
 10
104.4177355619146
 20
371.1838895118571
 30
0.0
 11
104.4177355619146
 21
440.183889511857
 31
0.0
  0
LINE
  5
102D
330
2
100
AcDbEntity
  8
0
100
AcDbLine
 10
92.4177355619147
 20
369.183889511857
 30
0.0
 11
92.4177355619147
 21
442.1838895118571
 31
0.0
  0
LINE
  5
102E
330
2
100
AcDbEntity
  8
0
100
AcDbLine
 10
102.4177355619146
 20
441.6838895118571
 30
0.0
 11
92.4177355619147
 21
441.6838895118571
 31
0.0
  0
ARC
  5
102F
330
2
100
AcDbEntity
  8
0
100
AcDbCircle
 10
102.4177355619146
 20
439.6838895118571
 30
0.0
 40
2.0
100
AcDbArc
 50
0.0
 51
90.0
  0
LINE
  5
1030
330
2
100
AcDbEntity
  8
0
100
AcDbLine
 10
102.4177355619146
 20
369.683889511857
 30
0.0
 11
92.4177355619147
 21
369.683889511857
 31
0.0
  0
ARC
  5
1031
330
2
100
AcDbEntity
  8
0
100
AcDbCircle
 10
102.4177355619146
 20
371.683889511857
 30
0.0
 40
2.0
100
AcDbArc
 50
270.0
 51
0.0
  0
ARC
  5
1032
330
2
100
AcDbEntity
  8
0
100
AcDbCircle
 10
687.9438017037516
 20
447.6838895118562
 30
0.0
 40
6.0
100
AcDbArc
 50
180.0
 51
270.0
  0
ARC
  5
1033
330
2
100
AcDbEntity
  8
0
100
AcDbCircle
 10
687.9438017037471
 20
363.6838895118561
 30
0.0
 40
6.0
100
AcDbArc
 50
90.0
 51
180.0
  0
LINE
  5
1034
330
2
100
AcDbEntity
  8
0
100
AcDbLine
 10
663.012424154135
 20
617.792902230929
 30
0.0
 11
598.875179253361
 21
617.792902230929
 31
0.0
  0
LINE
  5
1035
330
2
100
AcDbEntity
  8
0
100
AcDbLine
 10
596.5223150352874
 20
629.8627012243323
 30
0.0
 11
596.8763975993231
 21
619.7231032375238
 31
0.0
  0
LINE
  5
1036
330
2
100
AcDbEntity
  8
0
100
AcDbLine
 10
665.3652883722086
 20
629.8627012243323
 30
0.0
 11
665.0112058081729
 21
619.7231032375238
 31
0.0
  0
ARC
  5
1037
330
2
100
AcDbEntity
  8
0
100
AcDbCircle
 10
663.012424154135
 20
619.792902230929
 30
0.0
 40
2.0
100
AcDbArc
 50
270.0
 51
357.9999999999963
  0
ARC
  5
1038
330
2
100
AcDbEntity
  8
0
100
AcDbCircle
 10
667.3640700262474
 20
629.792902230929
 30
0.0
 40
2.0
100
AcDbArc
 50
90.0
 51
177.9999999999963
  0
ARC
  5
1039
330
2
100
AcDbEntity
  8
0
100
AcDbCircle
 10
598.875179253361
 20
619.792902230929
 30
0.0
 40
2.0
100
AcDbArc
 50
182.0000000000036
 51
270.0
  0
ARC
  5
103A
330
2
100
AcDbEntity
  8
0
100
AcDbCircle
 10
594.5235333812486
 20
629.792902230929
 30
0.0
 40
2.0
100
AcDbArc
 50
2.000000000003654
 51
90.0
  0
LINE
  5
103B
330
2
100
AcDbEntity
  8
0
100
AcDbLine
 10
113.9177355636382
 20
430.1838895118571
 30
0.0
 11
113.9177355636382
 21
381.1838895118552
 31
0.0
  0
ARC
  5
103C
330
2
100
AcDbEntity
  8
0
100
AcDbCircle
 10
126.2077355619164
 20
433.6838895118571
 30
0.0
 40
2.0
100
AcDbArc
 50
270.0
 51
0.0
  0
LINE
  5
103D
330
2
100
AcDbEntity
  8
0
100
AcDbLine
 10
109.4177355619146
 20
433.1838895118571
 30
0.0
 11
110.9177355636391
 21
433.1838895118571
 31
0.0
  0
LINE
  5
103E
330
2
100
AcDbEntity
  8
0
100
AcDbLine
 10
126.2076594053385
 20
431.683889511857
 30
0.0
 11
114.48844977791
 21
431.683889511857
 31
0.0
  0
LINE
  5
103F
330
2
100
AcDbEntity
  8
0
100
AcDbLine
 10
123.2077355619164
 20
427.683889511857
 30
0.0
 11
118.5170776404236
 21
427.683889511857
 31
0.0
  0
ARC
  5
1040
330
2
100
AcDbEntity
  8
0
100
AcDbCircle
 10
114.48844977791
 20
433.6838895118571
 30
0.0
 40
2.0
100
AcDbArc
 50
224.4270040008596
 51
270.0
  0
ARC
  5
1041
330
2
100
AcDbEntity
  8
0
100
AcDbCircle
 10
110.9177355636381
 20
430.1838895118571
 30
0.0
 40
3.0
100
AcDbArc
 50
0.0
 51
90.0
  0
ARC
  5
1042
330
2
100
AcDbEntity
  8
0
100
AcDbCircle
 10
109.4177355619146
 20
438.1838895118571
 30
0.0
 40
5.0
100
AcDbArc
 50
180.0
 51
270.0
  0
LINE
  5
1043
330
2
100
AcDbEntity
  8
0
100
AcDbLine
 10
125.2077355619173
 20
403.183889511857
 30
0.0
 11
116.9177355636381
 21
403.183889511857
 31
0.0
  0
ARC
  5
1044
330
2
100
AcDbEntity
  8
0
100
AcDbCircle
 10
126.2077355619164
 20
377.683889511857
 30
0.0
 40
2.0
100
AcDbArc
 50
0.0
 51
90.0
  0
LINE
  5
1045
330
2
100
AcDbEntity
  8
0
100
AcDbLine
 10
109.4177355619146
 20
378.1838895118553
 30
0.0
 11
110.9177355636391
 21
378.1838895118553
 31
0.0
  0
ARC
  5
1046
330
2
100
AcDbEntity
  8
0
100
AcDbCircle
 10
110.9177355636381
 20
381.1838895118552
 30
0.0
 40
3.0
100
AcDbArc
 50
270.0
 51
0.0
  0
LINE
  5
1047
330
2
100
AcDbEntity
  8
0
100
AcDbLine
 10
123.2077355619164
 20
383.6838895118571
 30
0.0
 11
118.5170776404236
 21
383.6838895118571
 31
0.0
  0
LINE
  5
1048
330
2
100
AcDbEntity
  8
0
100
AcDbLine
 10
126.2076594053385
 20
379.683889511857
 30
0.0
 11
114.48844977791
 21
379.683889511857
 31
0.0
  0
ARC
  5
1049
330
2
100
AcDbEntity
  8
0
100
AcDbCircle
 10
114.48844977791
 20
377.683889511857
 30
0.0
 40
2.0
100
AcDbArc
 50
90.0
 51
135.5729959991404
  0
ARC
  5
104A
330
2
100
AcDbEntity
  8
0
100
AcDbCircle
 10
109.4177355619146
 20
373.1838895118552
 30
0.0
 40
5.0
100
AcDbArc
 50
90.0
 51
180.0
  0
ARC
  5
104B
330
2
100
AcDbEntity
  8
0
100
AcDbCircle
 10
125.2077355619173
 20
400.1838895118571
 30
0.0
 40
3.0
100
AcDbArc
 50
0.0
 51
90.0
  0
ARC
  5
104C
330
2
100
AcDbEntity
  8
0
100
AcDbCircle
 10
116.9177355636381
 20
400.1838895118571
 30
0.0
 40
3.0
100
AcDbArc
 50
90.0
 51
180.0
  0
LINE
  5
104D
330
2
100
AcDbEntity
  8
0
100
AcDbLine
 10
125.2077355619173
 20
408.183889511857
 30
0.0
 11
116.9177355636381
 21
408.183889511857
 31
0.0
  0
ARC
  5
104E
330
2
100
AcDbEntity
  8
0
100
AcDbCircle
 10
125.2077355619173
 20
411.183889511857
 30
0.0
 40
3.0
100
AcDbArc
 50
270.0
 51
0.0
  0
ARC
  5
104F
330
2
100
AcDbEntity
  8
0
100
AcDbCircle
 10
116.9177355636381
 20
411.183889511857
 30
0.0
 40
3.0
100
AcDbArc
 50
180.0
 51
270.0
  0
ARC
  5
1050
330
2
100
AcDbEntity
  8
0
100
AcDbCircle
 10
721.9438017037471
 20
400.1838895118561
 30
0.0
 40
3.0
100
AcDbArc
 50
90.0
 51
180.0
  0
LINE
  5
1051
330
2
100
AcDbEntity
  8
0
100
AcDbLine
 10
721.9438017037471
 20
403.1838895118561
 30
0.0
 11
730.2338017020263
 21
403.1838895118561
 31
0.0
  0
ARC
  5
1052
330
2
100
AcDbEntity
  8
0
100
AcDbCircle
 10
730.2338017020263
 20
400.1838895118561
 30
0.0
 40
3.0
100
AcDbArc
 50
0.0
 51
90.0
  0
ARC
  5
1053
330
2
100
AcDbEntity
  8
0
100
AcDbCircle
 10
730.2338017020263
 20
411.1838895118562
 30
0.0
 40
3.0
100
AcDbArc
 50
270.0
 51
0.0
  0
LINE
  5
1054
330
2
100
AcDbEntity
  8
0
100
AcDbLine
 10
721.9438017037471
 20
408.1838895118561
 30
0.0
 11
730.2338017020263
 21
408.1838895118561
 31
0.0
  0
ARC
  5
1055
330
2
100
AcDbEntity
  8
0
100
AcDbCircle
 10
721.9438017037471
 20
411.1838895118562
 30
0.0
 40
3.0
100
AcDbArc
 50
180.0
 51
270.0
  0
LINE
  5
1056
330
2
100
AcDbEntity
  8
0
100
AcDbLine
 10
720.9438778603259
 20
431.6838895118562
 30
0.0
 11
732.6630874877544
 21
431.6838895118562
 31
0.0
  0
ARC
  5
1057
330
2
100
AcDbEntity
  8
0
100
AcDbCircle
 10
720.943801703748
 20
433.6838895118561
 30
0.0
 40
2.0
100
AcDbArc
 50
180.0
 51
270.0
  0
ARC
  5
1058
330
2
100
AcDbEntity
  8
0
100
AcDbCircle
 10
732.6630874877544
 20
433.6838895118561
 30
0.0
 40
2.0
100
AcDbArc
 50
270.0
 51
315.5729959991404
  0
ARC
  5
1059
330
2
100
AcDbEntity
  8
0
100
AcDbCircle
 10
736.2338017020263
 20
430.1838895118562
 30
0.0
 40
3.0
100
AcDbArc
 50
90.0
 51
180.0
  0
LINE
  5
105A
330
2
100
AcDbEntity
  8
0
100
AcDbLine
 10
733.2338017020263
 20
381.1838895118544
 30
0.0
 11
733.2338017020263
 21
430.1838895118562
 31
0.0
  0
ARC
  5
105B
330
2
100
AcDbEntity
  8
0
100
AcDbCircle
 10
737.7338017037498
 20
438.1838895118561
 30
0.0
 40
5.0
100
AcDbArc
 50
270.0
 51
0.0
  0
LINE
  5
105C
330
2
100
AcDbEntity
  8
0
100
AcDbLine
 10
737.7338017037498
 20
433.1838895118561
 30
0.0
 11
736.2338017020253
 21
433.1838895118561
 31
0.0
  0
ARC
  5
105D
330
2
100
AcDbEntity
  8
0
100
AcDbCircle
 10
736.2338017020263
 20
381.1838895118544
 30
0.0
 40
3.0
100
AcDbArc
 50
180.0
 51
270.0
  0
LINE
  5
105E
330
2
100
AcDbEntity
  8
0
100
AcDbLine
 10
720.9438778603259
 20
379.6838895118562
 30
0.0
 11
732.6630874877544
 21
379.6838895118562
 31
0.0
  0
ARC
  5
105F
330
2
100
AcDbEntity
  8
0
100
AcDbCircle
 10
732.6630874877544
 20
377.6838895118562
 30
0.0
 40
2.0
100
AcDbArc
 50
44.42700400085959
 51
90.0
  0
ARC
  5
1060
330
2
100
AcDbEntity
  8
0
100
AcDbCircle
 10
720.943801703748
 20
377.6838895118562
 30
0.0
 40
2.0
100
AcDbArc
 50
90.0
 51
180.0
  0
LINE
  5
1061
330
2
100
AcDbEntity
  8
0
100
AcDbLine
 10
737.7338017037498
 20
378.1838895118543
 30
0.0
 11
736.2338017020253
 21
378.1838895118543
 31
0.0
  0
ARC
  5
1062
330
2
100
AcDbEntity
  8
0
100
AcDbCircle
 10
737.7338017037498
 20
373.1838895118543
 30
0.0
 40
5.0
100
AcDbArc
 50
0.0
 51
90.0
  0
LINE
  5
1063
330
2
100
AcDbEntity
  8
0
100
AcDbLine
 10
712.9568946662573
 20
702.792902230929
 30
0.0
 11
713.6646000161388
 21
675.7667252826213
 31
0.0
  0
LINE
  5
1064
330
2
100
AcDbEntity
  8
0
100
AcDbLine
 10
733.1573003433121
 20
699.3714330758521
 30
0.0
 11
732.5136888623208
 21
674.792902230929
 31
0.0
  0
LINE
  5
1065
330
2
100
AcDbEntity
  8
0
100
AcDbLine
 10
742.6828007973642
 20
708.8452561275444
 30
0.0
 11
741.7911085289913
 21
674.792902230929
 31
0.0
  0
LINE
  5
1066
330
2
100
AcDbEntity
  8
0
100
AcDbLine
 10
733.1573003433121
 20
650.2143713860041
 30
0.0
 11
732.5136888623208
 21
674.792902230929
 31
0.0
  0
LINE
  5
1067
330
2
100
AcDbEntity
  8
0
100
AcDbLine
 10
742.6828007973642
 20
640.7405483343136
 30
0.0
 11
741.791108528995
 21
674.792902230929
 31
0.0
  0
ARC
  5
1068
330
2
100
AcDbEntity
  8
0
100
AcDbCircle
 10
736.1562723182385
 20
650.2929022309272
 30
0.0
 40
3.0
100
AcDbArc
 50
181.4999999999897
 51
270.0
  0
ARC
  5
1069
330
2
100
AcDbEntity
  8
0
100
AcDbCircle
 10
732.5855581039657
 20
646.792902230929
 30
0.0
 40
2.0
100
AcDbArc
 50
44.42700400085959
 51
90.0
  0
ARC
  5
106A
330
2
100
AcDbEntity
  8
0
100
AcDbCircle
 10
728.5569302414521
 20
647.792902230929
 30
0.0
 40
5.0
100
AcDbArc
 50
18.20995686428638
 51
90.0
  0
ARC
  5
106B
330
2
100
AcDbEntity
  8
0
100
AcDbCircle
 10
737.6404370175266
 20
642.2929022309272
 30
0.0
 40
5.0
100
AcDbArc
 50
1.499999999989693
 51
90.0
  0
ARC
  5
106C
330
2
100
AcDbEntity
  8
0
100
AcDbCircle
 10
744.6821154473152
 20
640.792902230929
 30
0.0
 40
2.0
100
AcDbArc
 50
181.4999999999897
 51
270.0
  0
LINE
  5
106D
330
2
100
AcDbEntity
  8
0
100
AcDbLine
 10
736.1562723182385
 20
702.292902230929
 30
0.0
 11
737.6404370175266
 21
702.292902230929
 31
0.0
  0
ARC
  5
106E
330
2
100
AcDbEntity
  8
0
100
AcDbCircle
 10
736.1562723182385
 20
699.292902230929
 30
0.0
 40
3.0
100
AcDbArc
 50
90.0
 51
178.5000000000102
  0
ARC
  5
106F
330
2
100
AcDbEntity
  8
0
100
AcDbCircle
 10
728.5569302414521
 20
701.792902230929
 30
0.0
 40
5.0
100
AcDbArc
 50
270.0
 51
341.7900431357136
  0
ARC
  5
1070
330
2
100
AcDbEntity
  8
0
100
AcDbCircle
 10
732.5855581039657
 20
702.792902230929
 30
0.0
 40
2.0
100
AcDbArc
 50
269.9999999999478
 51
315.5729959991404
  0
ARC
  5
1071
330
2
100
AcDbEntity
  8
0
100
AcDbCircle
 10
737.6404370175266
 20
707.292902230929
 30
0.0
 40
5.0
100
AcDbArc
 50
270.0
 51
358.5000000000103
  0
ARC
  5
1072
330
2
100
AcDbEntity
  8
0
100
AcDbCircle
 10
714.6642573411143
 20
675.792902230929
 30
0.0
 40
1.0
100
AcDbArc
 50
181.4999999999897
 51
270.0
  0
ARC
  5
1073
330
2
100
AcDbEntity
  8
0
100
AcDbCircle
 10
744.6821154473152
 20
708.792902230929
 30
0.0
 40
2.0
100
AcDbArc
 50
90.0
 51
178.5000000000102
  0
LINE
  5
1074
330
2
100
AcDbEntity
  8
0
100
AcDbLine
 10
723.9438017035543
 20
652.792902230929
 30
0.0
 11
728.5569302414521
 21
652.792902230929
 31
0.0
  0
LINE
  5
1075
330
2
100
AcDbEntity
  8
0
100
AcDbLine
 10
720.9438778605206
 20
648.792902230929
 30
0.0
 11
732.5855581039657
 21
648.792902230929
 31
0.0
  0
LINE
  5
1076
330
2
100
AcDbEntity
  8
0
100
AcDbLine
 10
722.1402704641993
 20
672.292902230929
 30
0.0
 11
729.6566830534791
 21
672.292902230929
 31
0.0
  0
LINE
  5
1077
330
2
100
AcDbEntity
  8
0
100
AcDbLine
 10
722.1402704640111
 20
677.292902230929
 30
0.0
 11
729.6566830534791
 21
677.292902230929
 31
0.0
  0
LINE
  5
1078
330
2
100
AcDbEntity
  8
0
100
AcDbLine
 10
723.9438017035533
 20
696.792902230929
 30
0.0
 11
728.5569302414521
 21
696.792902230929
 31
0.0
  0
LINE
  5
1079
330
2
100
AcDbEntity
  8
0
100
AcDbLine
 10
720.9438778605206
 20
700.792902230929
 30
0.0
 11
732.5855581039657
 21
700.792902230929
 31
0.0
  0
LINE
  5
107A
330
2
100
AcDbEntity
  8
0
100
AcDbLine
 10
623.8020309539849
 20
361.9068091052885
 30
0.0
 11
626.682032195317
 21
361.9068091052885
 31
0.0
  0
LINE
  5
107B
330
2
100
AcDbEntity
  8
0
100
AcDbLine
 10
627.8020309539904
 20
369.9068091052994
 30
0.0
 11
623.8020309539849
 21
361.9068091052885
 31
0.0
  0
ARC
  5
107C
330
2
100
AcDbEntity
  8
0
100
AcDbCircle
 10
634.4419581940008
 20
367.1868091052965
 30
0.0
 40
2.720000000003957
100
AcDbArc
 50
307.5189678668328
 51
90.0
  0
LINE
  5
107D
330
2
100
AcDbEntity
  8
0
100
AcDbLine
 10
636.09850357366
 20
365.0294363036809
 30
0.0
 11
638.0855724535146
 21
361.9068091052885
 31
0.0
  0
LINE
  5
107E
330
2
100
AcDbEntity
  8
0
100
AcDbLine
 10
635.2055712121835
 20
361.9068091052885
 30
0.0
 11
638.0855724535146
 21
361.9068091052885
 31
0.0
  0
LINE
  5
107F
330
2
100
AcDbEntity
  8
0
100
AcDbLine
 10
629.3220309539926
 20
361.9068091052885
 30
0.0
 11
631.7219581939959
 21
361.9068091052867
 31
0.0
  0
LINE
  5
1080
330
2
100
AcDbEntity
  8
0
100
AcDbLine
 10
627.2820321953174
 20
363.1068091052911
 30
0.0
 11
626.682032195317
 21
361.9068091052885
 31
0.0
  0
LINE
  5
1081
330
2
100
AcDbEntity
  8
0
100
AcDbLine
 10
627.2820321953174
 20
363.1068091052911
 30
0.0
 11
629.3220309539926
 21
363.1068091052893
 31
0.0
  0
LINE
  5
1082
330
2
100
AcDbEntity
  8
0
100
AcDbLine
 10
629.3220309539926
 20
363.1068091052893
 30
0.0
 11
629.3220309539926
 21
361.9068091052885
 31
0.0
  0
LINE
  5
1083
330
2
100
AcDbEntity
  8
0
100
AcDbLine
 10
628.5620321953199
 20
365.6668091052924
 30
0.0
 11
629.3220309539926
 21
365.6668091052924
 31
0.0
  0
LINE
  5
1084
330
2
100
AcDbEntity
  8
0
100
AcDbLine
 10
629.3220309539926
 20
367.1868066226397
 30
0.0
 11
629.3220309539926
 21
365.6668091052924
 31
0.0
  0
LINE
  5
1085
330
2
100
AcDbEntity
  8
0
100
AcDbLine
 10
629.3220309539926
 20
367.1868066226397
 30
0.0
 11
628.5620321953199
 21
365.6668091052924
 31
0.0
  0
LINE
  5
1086
330
2
100
AcDbEntity
  8
0
100
AcDbLine
 10
632.0620309539961
 20
366.8468091052945
 30
0.0
 11
635.2055712121835
 21
361.9068091052885
 31
0.0
  0
LINE
  5
1087
330
2
100
AcDbEntity
  8
0
100
AcDbLine
 10
631.7219581939959
 20
367.1868091052965
 30
0.0
 11
631.7219581939959
 21
361.9068091052867
 31
0.0
  0
LINE
  5
1088
330
2
100
AcDbEntity
  8
0
100
AcDbLine
 10
631.7219581939959
 20
367.1868091052965
 30
0.0
 11
634.2720309539989
 21
367.1868091052965
 31
0.0
  0
LINE
  5
1089
330
2
100
AcDbEntity
  8
0
100
AcDbLine
 10
632.0620309539961
 20
366.8468091052945
 30
0.0
 11
634.2720309540006
 21
366.8468091052945
 31
0.0
  0
ARC
  5
108A
330
2
100
AcDbEntity
  8
0
100
AcDbCircle
 10
634.2720309540006
 20
367.0168091052946
 30
0.0
 40
0.1700000000002474
100
AcDbArc
 50
270.0
 51
90.0
  0
LINE
  5
108B
330
2
100
AcDbEntity
  8
0
100
AcDbLine
 10
627.8020309539904
 20
369.9068091052994
 30
0.0
 11
634.4419581940008
 21
369.9068091052994
 31
0.0
  0
LINE
  5
108C
330
2
100
AcDbEntity
  8
0
100
AcDbLine
 10
736.1562723182385
 20
647.2929022309272
 30
0.0
 11
737.6404370175266
 21
647.2929022309272
 31
0.0
  0
ARC
  5
108D
330
2
100
AcDbEntity
  8
0
100
AcDbCircle
 10
729.6566830534791
 20
669.292902230929
 30
0.0
 40
3.0
100
AcDbArc
 50
1.499999999989693
 51
90.0
  0
ARC
  5
108E
330
2
100
AcDbEntity
  8
0
100
AcDbCircle
 10
729.6566830534791
 20
680.292902230929
 30
0.0
 40
3.0
100
AcDbArc
 50
270.0
 51
358.5000000000103
  0
LINE
  5
108F
330
2
100
AcDbEntity
  8
0
100
AcDbLine
 10
587.9438017054724
 20
702.292902230929
 30
0.0
 11
587.9438017054706
 21
638.2938603869752
 31
0.0
  0
LINE
  5
1090
330
2
100
AcDbEntity
  8
0
100
AcDbLine
 10
590.9438017054679
 20
702.292902230929
 30
0.0
 11
590.9438017054688
 21
638.2942475670806
 31
0.0
  0
LINE
  5
1091
330
2
100
AcDbEntity
  8
0
100
AcDbLine
 10
610.4037025282949
 20
702.292902230929
 30
0.0
 11
610.4037025282949
 21
638.2967590625721
 31
0.0
  0
LINE
  5
1092
330
2
100
AcDbEntity
  8
0
100
AcDbLine
 10
651.4839008826427
 20
702.292902230929
 30
0.0
 11
651.4839008826418
 21
638.3020608744281
 31
0.0
  0
LINE
  5
1093
330
2
100
AcDbEntity
  8
0
100
AcDbLine
 10
670.9438017054679
 20
702.292902230929
 30
0.0
 11
670.9438017054679
 21
638.3045723699178
 31
0.0
  0
LINE
  5
1094
330
2
100
AcDbEntity
  8
0
100
AcDbLine
 10
673.9438017054697
 20
702.292902230929
 30
0.0
 11
673.9438017054697
 21
638.3049595500251
 31
0.0
  0
LINE
  5
1095
330
2
100
AcDbEntity
  8
0
100
AcDbLine
 10
714.6642573411143
 20
674.792902230929
 30
0.0
 11
719.1881540017755
 21
674.7929022174848
 31
0.0
  0
LINE
  5
1096
330
2
100
AcDbEntity
  8
0
100
AcDbLine
 10
741.791108528995
 20
674.792902230929
 30
0.0
 11
754.7338017054723
 21
674.792902230929
 31
0.0
  0
ARC
  5
1097
330
2
100
AcDbEntity
  8
0
100
AcDbCircle
 10
123.2077355619164
 20
378.6838895118571
 30
0.0
 40
5.0
100
AcDbArc
 50
0.0
 51
90.0
  0
ARC
  5
1098
330
2
100
AcDbEntity
  8
0
100
AcDbCircle
 10
118.5170776404236
 20
378.6838895118571
 30
0.0
 40
5.0
100
AcDbArc
 50
90.0
 51
161.7900431357136
  0
ARC
  5
1099
330
2
100
AcDbEntity
  8
0
100
AcDbCircle
 10
123.2077355619164
 20
432.683889511857
 30
0.0
 40
5.0
100
AcDbArc
 50
270.0
 51
0.0
  0
ARC
  5
109A
330
2
100
AcDbEntity
  8
0
100
AcDbCircle
 10
118.5170776404236
 20
432.683889511857
 30
0.0
 40
5.0
100
AcDbArc
 50
198.2099568642864
 51
270.0
  0
ARC
  5
109B
330
2
100
AcDbEntity
  8
0
100
AcDbCircle
 10
723.943801703748
 20
432.683889511858
 30
0.0
 40
5.0
100
AcDbArc
 50
180.0
 51
270.0
  0
LINE
  5
109C
330
2
100
AcDbEntity
  8
0
100
AcDbLine
 10
723.943801703748
 20
427.6838895118579
 30
0.0
 11
728.6344596252408
 21
427.6838895118579
 31
0.0
  0
ARC
  5
109D
330
2
100
AcDbEntity
  8
0
100
AcDbCircle
 10
728.6344596252408
 20
432.683889511858
 30
0.0
 40
5.0
100
AcDbArc
 50
270.0
 51
341.7900431357136
  0
ARC
  5
109E
330
2
100
AcDbEntity
  8
0
100
AcDbCircle
 10
723.943801703748
 20
378.683889511858
 30
0.0
 40
5.0
100
AcDbArc
 50
90.0
 51
180.0
  0
LINE
  5
109F
330
2
100
AcDbEntity
  8
0
100
AcDbLine
 10
723.943801703748
 20
383.683889511858
 30
0.0
 11
728.6344596252408
 21
383.683889511858
 31
0.0
  0
ARC
  5
10A0
330
2
100
AcDbEntity
  8
0
100
AcDbCircle
 10
728.6344596252408
 20
378.683889511858
 30
0.0
 40
5.0
100
AcDbArc
 50
18.20995686428638
 51
90.0
  0
ARC
  5
10A1
330
2
100
AcDbEntity
  8
0
100
AcDbCircle
 10
102.4177355619146
 20
371.1838895118571
 30
0.0
 40
2.0
100
AcDbArc
 50
270.0
 51
0.0
  0
LINE
  5
10A2
330
2
100
AcDbEntity
  8
0
100
AcDbLine
 10
102.4177355619146
 20
369.183889511857
 30
0.0
 11
92.4177355619147
 21
369.183889511857
 31
0.0
  0
LINE
  5
10A3
330
2
100
AcDbEntity
  8
0
100
AcDbLine
 10
102.4177355619146
 20
442.1838895118571
 30
0.0
 11
92.4177355619147
 21
442.1838895118571
 31
0.0
  0
ARC
  5
10A4
330
2
100
AcDbEntity
  8
0
100
AcDbCircle
 10
102.4177355619146
 20
440.183889511857
 30
0.0
 40
2.0
100
AcDbArc
 50
0.0
 51
90.0
  0
LINE
  5
10A5
330
2
100
AcDbEntity
  8
0
100
AcDbLine
 10
754.7338017037479
 20
442.1838895118561
 30
0.0
 11
744.733801703748
 21
442.1838895118561
 31
0.0
  0
ARC
  5
10A6
330
2
100
AcDbEntity
  8
0
100
AcDbCircle
 10
744.733801703748
 20
440.1838895118562
 30
0.0
 40
2.0
100
AcDbArc
 50
90.0
 51
180.0
  0
LINE
  5
10A7
330
2
100
AcDbEntity
  8
0
100
AcDbLine
 10
744.733801703748
 20
369.1838895118562
 30
0.0
 11
754.7338017037479
 21
369.1838895118562
 31
0.0
  0
ARC
  5
10A8
330
2
100
AcDbEntity
  8
0
100
AcDbCircle
 10
744.733801703748
 20
371.1838895118562
 30
0.0
 40
2.0
100
AcDbArc
 50
180.0
 51
270.0
  0
LINE
  5
10A9
330
2
100
AcDbEntity
  8
CENTER
100
AcDbLine
 10
416.7642579439368
 20
344.9282418099982
 30
0.0
 11
416.7642579439368
 21
466.4395372137159
 31
0.0
  0
LINE
  5
10AA
330
2
100
AcDbEntity
  8
0
100
AcDbLine
 10
454.7642579439359
 20
355.2598627860469
 30
0.0
 11
454.7642579439359
 21
456.1079162376672
 31
0.0
  0
LINE
  5
10AB
330
2
100
AcDbEntity
  8
CENTER
100
AcDbLine
 10
496.7642579439369
 20
405.6838895118571
 30
0.0
 11
330.7642579439359
 21
405.6838895118571
 31
0.0
  0
LINE
  5
10AC
330
2
100
AcDbEntity
  8
0
100
AcDbLine
 10
459.7642579439359
 20
360.6838895118571
 30
0.0
 11
459.7642579439296
 21
450.6838895118571
 31
0.0
  0
LINE
  5
10AD
330
2
100
AcDbEntity
  8
0
100
AcDbLine
 10
454.7642579439359
 20
360.6838895118571
 30
0.0
 11
459.7642579439359
 21
360.6838895118571
 31
0.0
  0
LINE
  5
10AE
330
2
100
AcDbEntity
  8
0
100
AcDbLine
 10
454.7642579439359
 20
450.6838895118571
 30
0.0
 11
459.7642579439359
 21
450.6838895118571
 31
0.0
  0
LINE
  5
10AF
330
2
100
AcDbEntity
  8
0
100
AcDbLine
 10
388.7642579439368
 20
456.683889511857
 30
0.0
 11
454.7642579439359
 21
456.1079162376672
 31
0.0
  0
LINE
  5
10B0
330
2
100
AcDbEntity
  8
0
100
AcDbLine
 10
388.7642579439368
 20
354.683889511857
 30
0.0
 11
454.7642579439359
 21
355.2598627860469
 31
0.0
  0
LINE
  5
10B1
330
2
100
AcDbEntity
  8
0
100
AcDbLine
 10
473.7642579439368
 20
437.7525119622432
 30
0.0
 11
473.7642579439377
 21
373.6152670614691
 31
0.0
  0
LINE
  5
10B2
330
2
100
AcDbEntity
  8
0
100
AcDbLine
 10
461.6944589505326
 20
371.2624028433956
 30
0.0
 11
471.8340569373419
 21
371.6164854074313
 31
0.0
  0
LINE
  5
10B3
330
2
100
AcDbEntity
  8
0
100
AcDbLine
 10
461.6944589505326
 20
440.1053761803168
 30
0.0
 11
471.8340569373419
 21
439.7512936162811
 31
0.0
  0
ARC
  5
10B4
330
2
100
AcDbEntity
  8
0
100
AcDbCircle
 10
471.7642579439369
 20
437.7525119622432
 30
0.0
 40
2.0
100
AcDbArc
 50
0.0
 51
87.99999999999636
  0
ARC
  5
10B5
330
2
100
AcDbEntity
  8
0
100
AcDbCircle
 10
461.7642579439368
 20
442.1041578343564
 30
0.0
 40
2.0
100
AcDbArc
 50
180.0
 51
267.9999999999963
  0
ARC
  5
10B6
330
2
100
AcDbEntity
  8
0
100
AcDbCircle
 10
471.7642579439377
 20
373.6152670614691
 30
0.0
 40
2.0
100
AcDbArc
 50
272.0000000000036
 51
0.0
  0
ARC
  5
10B7
330
2
100
AcDbEntity
  8
0
100
AcDbCircle
 10
461.7642579439368
 20
369.2636211893577
 30
0.0
 40
2.0
100
AcDbArc
 50
92.00000000000365
 51
180.0
  0
LINE
  5
10B8
330
2
100
AcDbEntity
  8
0
100
AcDbLine
 10
388.7642579439368
 20
448.683889511857
 30
0.0
 11
453.7642579439359
 21
448.683889511857
 31
0.0
  0
LINE
  5
10B9
330
2
100
AcDbEntity
  8
0
100
AcDbLine
 10
388.7642579439368
 20
445.6838895118552
 30
0.0
 11
453.7642579439359
 21
445.6838895118552
 31
0.0
  0
LINE
  5
10BA
330
2
100
AcDbEntity
  8
0
100
AcDbLine
 10
388.7642579439368
 20
426.2239886890283
 30
0.0
 11
453.7642579439359
 21
426.2239886890283
 31
0.0
  0
LINE
  5
10BB
330
2
100
AcDbEntity
  8
0
100
AcDbLine
 10
388.7642579439341
 20
365.6838895118571
 30
0.0
 11
453.7642579439332
 21
365.6838895118571
 31
0.0
  0
LINE
  5
10BC
330
2
100
AcDbEntity
  8
0
100
AcDbLine
 10
388.7642579439368
 20
362.6838895118589
 30
0.0
 11
453.7642579439359
 21
362.6838895118589
 31
0.0
  0
LINE
  5
10BD
330
2
100
AcDbEntity
  8
0
100
AcDbLine
 10
388.7642579439341
 20
365.6838895118571
 30
0.0
 11
453.7642579439332
 21
365.6838895118571
 31
0.0
  0
LINE
  5
10BE
330
2
100
AcDbEntity
  8
0
100
AcDbLine
 10
388.7642579439368
 20
385.1437903346877
 30
0.0
 11
453.7642579439359
 21
385.1437903346877
 31
0.0
  0
LINE
  5
10BF
330
2
100
AcDbEntity
  8
0
100
AcDbLine
 10
719.1881540018918
 20
674.792902230929
 30
0.0
 11
718.8912881863822
 21
640.7754491624769
 31
0.0
  0
ARC
  5
10C0
330
2
100
AcDbEntity
  8
0
100
AcDbCircle
 10
720.9438778605206
 20
646.792902230929
 30
0.0
 40
2.0
100
AcDbArc
 50
90.0
 51
179.5000000000344
  0
ARC
  5
10C1
330
2
100
AcDbEntity
  8
0
100
AcDbCircle
 10
723.9527189634689
 20
647.792902230929
 30
0.0
 40
5.0
100
AcDbArc
 50
90.0
 51
179.5000000000344
  0
ARC
  5
10C2
330
2
100
AcDbEntity
  8
0
100
AcDbCircle
 10
722.1402704641993
 20
669.292902230929
 30
0.0
 40
3.0
100
AcDbArc
 50
90.0
 51
179.5000000000344
  0
LINE
  5
10C3
330
2
100
AcDbEntity
  8
0
100
AcDbLine
 10
681.3634649956863
 20
636.7929022334737
 30
0.0
 11
681.9394382698526
 21
702.792902230929
 31
0.0
  0
ARC
  5
10C4
330
2
100
AcDbEntity
  8
0
100
AcDbCircle
 10
682.8678855471605
 20
637.2929022334737
 30
0.0
 40
1.5
100
AcDbArc
 50
90.0
 51
179.5000000000344
  0
LINE
  5
10C5
330
2
100
AcDbEntity
  8
0
100
AcDbLine
 10
719.1881540016573
 20
674.792902230929
 30
0.0
 11
718.9438017037489
 21
702.792902230929
 31
0.0
  0
ARC
  5
10C6
330
2
100
AcDbEntity
  8
0
100
AcDbCircle
 10
720.9438778605196
 20
702.792902230929
 30
0.0
 40
2.0
100
AcDbArc
 50
180.4999999995485
 51
270.0
  0
ARC
  5
10C7
330
2
100
AcDbEntity
  8
0
100
AcDbCircle
 10
723.9527189634598
 20
701.792902230929
 30
0.0
 40
5.0
100
AcDbArc
 50
180.4999999995485
 51
270.0
  0
ARC
  5
10C8
330
2
100
AcDbEntity
  8
0
100
AcDbCircle
 10
722.1402704640111
 20
680.292902230929
 30
0.0
 40
3.0
100
AcDbArc
 50
180.4999999995485
 51
270.0
  0
LINE
  5
10C9
330
2
100
AcDbEntity
  8
CENTER
100
AcDbLine
 10
267.9577355619191
 20
448.683889511857
 30
0.0
 11
250.4577355619192
 21
448.683889511857
 31
0.0
  0
CIRCLE
  5
10CA
330
2
100
AcDbEntity
  8
HOJO
100
AcDbCircle
 10
261.2077355619164
 20
437.183889511857
 30
0.0
 40
2.0
  0
CIRCLE
  5
10CB
330
2
100
AcDbEntity
  8
HOJO
100
AcDbCircle
 10
261.2077355619173
 20
374.1838895118571
 30
0.0
 40
2.0
  0
LINE
  5
10CC
330
2
100
AcDbEntity
  8
CENTER
100
AcDbLine
 10
125.9577355619164
 20
435.1838895118571
 30
0.0
 11
143.4577355619164
 21
435.1838895118571
 31
0.0
  0
CIRCLE
  5
10CD
330
2
100
AcDbEntity
  8
HOJO
100
AcDbCircle
 10
146.2077355619164
 20
437.183889511857
 30
0.0
 40
2.0
  0
LINE
  5
10CE
330
2
100
AcDbEntity
  8
CENTER
100
AcDbLine
 10
146.2077355619164
 20
442.3570945926138
 30
0.0
 11
146.2077355619164
 21
432.0106844311003
 31
0.0
  0
LINE
  5
10CF
330
2
100
AcDbEntity
  8
CENTER
100
AcDbLine
 10
141.0345304811596
 20
437.183889511857
 30
0.0
 11
151.3809406426732
 21
437.183889511857
 31
0.0
  0
LINE
  5
10D0
330
2
100
AcDbEntity
  8
CENTER
100
AcDbLine
 10
134.7077355619155
 20
443.9338895118571
 30
0.0
 11
134.7077355619164
 21
426.433889511857
 31
0.0
  0
LINE
  5
10D1
330
2
100
AcDbEntity
  8
CENTER
100
AcDbLine
 10
141.0345304811633
 20
374.1838895118571
 30
0.0
 11
152.634447500104
 21
374.1838895118571
 31
0.0
  0
LINE
  5
10D2
330
2
100
AcDbEntity
  8
CENTER
100
AcDbLine
 10
146.2077355619201
 20
367.5810638670836
 30
0.0
 11
146.2077355619201
 21
381.3243881641928
 31
0.0
  0
CIRCLE
  5
10D3
330
2
100
AcDbEntity
  8
HOJO
100
AcDbCircle
 10
146.2077355619183
 20
374.1838895118553
 30
0.0
 40
2.0
  0
ARC
  5
10D4
330
2
100
AcDbEntity
  8
0
100
AcDbCircle
 10
250.2077355619146
 20
357.627679642036
 30
0.0
 40
2.0
100
AcDbArc
 50
263.240180066883
 51
0.0
  0
ARC
  5
10D5
330
2
100
AcDbEntity
  8
0
100
AcDbCircle
 10
259.2077355619164
 20
362.6838895118571
 30
0.0
 40
8.0
100
AcDbArc
 50
270.0
 51
0.0
  0
ARC
  5
10D6
330
2
100
AcDbEntity
  8
0
100
AcDbCircle
 10
173.2077355619128
 20
362.6838895118571
 30
0.0
 40
8.0
100
AcDbArc
 50
180.0
 51
270.0
  0
LINE
  5
10D7
330
2
100
AcDbEntity
  8
0
100
AcDbLine
 10
134.2077355619173
 20
369.683889511857
 30
0.0
 11
159.2077355619201
 21
369.683889511857
 31
0.0
  0
LINE
  5
10D8
330
2
100
AcDbEntity
  8
0
100
AcDbLine
 10
134.2077355619173
 20
441.6838895118571
 30
0.0
 11
159.2077355619201
 21
441.6838895118571
 31
0.0
  0
LINE
  5
10D9
330
2
100
AcDbEntity
  8
0
100
AcDbLine
 10
252.2077355619164
 20
448.683889511857
 30
0.0
 11
252.2077355619164
 21
453.7400993816799
 31
0.0
  0
ARC
  5
10DA
330
2
100
AcDbEntity
  8
0
100
AcDbCircle
 10
173.2077355619201
 20
448.683889511857
 30
0.0
 40
8.0
100
AcDbArc
 50
90.0
 51
180.0
  0
ARC
  5
10DB
330
2
100
AcDbEntity
  8
0
100
AcDbCircle
 10
259.2077355619164
 20
448.683889511857
 30
0.0
 40
8.0
100
AcDbArc
 50
0.0
 51
90.0
  0
ARC
  5
10DC
330
2
100
AcDbEntity
  8
0
100
AcDbCircle
 10
216.2077355619164
 20
256.6838895118571
 30
0.0
 40
200.0
100
AcDbArc
 50
84.10530161362244
 51
95.89469838637755
  0
ARC
  5
10DD
330
2
100
AcDbEntity
  8
0
100
AcDbCircle
 10
250.2077355619164
 20
453.7400993816799
 30
0.0
 40
2.0
100
AcDbArc
 50
0.0
 51
96.75981993311687
  0
ARC
  5
10DE
330
2
100
AcDbEntity
  8
0
100
AcDbCircle
 10
242.9098644922421
 20
515.3090938338419
 30
0.0
 40
60.0
100
AcDbArc
 50
264.1053016136225
 51
281.8050678104677
  0
LINE
  5
10DF
330
2
100
AcDbEntity
  8
0
100
AcDbLine
 10
259.2077355619155
 20
456.683889511857
 30
0.0
 11
256.2077355619164
 21
456.683889511857
 31
0.0
  0
ARC
  5
10E0
330
2
100
AcDbEntity
  8
0
100
AcDbCircle
 10
256.2077355619164
 20
451.6838895118571
 30
0.0
 40
5.0
100
AcDbArc
 50
89.99999999997395
 51
101.8050678104677
  0
ARC
  5
10E1
330
2
100
AcDbEntity
  8
0
100
AcDbCircle
 10
189.5056066315917
 20
515.3090938338419
 30
0.0
 40
60.0
100
AcDbArc
 50
258.1949321895322
 51
275.8946983863775
  0
ARC
  5
10E2
330
2
100
AcDbEntity
  8
0
100
AcDbCircle
 10
176.2077355619164
 20
451.6838895118571
 30
0.0
 40
5.0
100
AcDbArc
 50
78.19493218953224
 51
90.0
  0
LINE
  5
10E3
330
2
100
AcDbEntity
  8
0
100
AcDbLine
 10
176.2077355619164
 20
456.683889511857
 30
0.0
 11
173.2077355619201
 21
456.683889511857
 31
0.0
  0
CIRCLE
  5
10E4
330
2
100
AcDbEntity
  8
0
100
AcDbCircle
 10
216.2077355619164
 20
405.6838895118571
 30
0.0
 40
26.57735026918791
  0
CIRCLE
  5
10E5
330
2
100
AcDbEntity
  8
0
100
AcDbCircle
 10
216.2077355619164
 20
405.6838895118571
 30
0.0
 40
32.42260000000154
  0
CIRCLE
  5
10E6
330
2
100
AcDbEntity
  8
0
100
AcDbCircle
 10
216.2077355619164
 20
405.6838895118571
 30
0.0
 40
35.50000000000153
  0
CIRCLE
  5
10E7
330
2
100
AcDbEntity
  8
0
100
AcDbCircle
 10
216.2077355619164
 20
405.6838895118571
 30
0.0
 40
35.00000000000153
  0
LINE
  5
10E8
330
2
100
AcDbEntity
  8
0
100
AcDbLine
 10
240.2077355619165
 20
444.683889511857
 30
0.0
 11
192.2077355619164
 21
444.683889511857
 31
0.0
  0
LINE
  5
10E9
330
2
100
AcDbEntity
  8
0
100
AcDbLine
 10
240.2077355619155
 20
366.6838895118571
 30
0.0
 11
192.2077355619164
 21
366.6838895118571
 31
0.0
  0
CIRCLE
  5
10EA
330
2
100
AcDbEntity
  8
0
100
AcDbCircle
 10
216.2077355619164
 20
405.6838895118571
 30
0.0
 40
33.00000000000153
  0
CIRCLE
  5
10EB
330
2
100
AcDbEntity
  8
0
100
AcDbCircle
 10
216.2077355619164
 20
405.6838895118571
 30
0.0
 40
26.0
  0
LINE
  5
10EC
330
2
100
AcDbEntity
  8
0
100
AcDbLine
 10
255.2077355619155
 20
381.683889511857
 30
0.0
 11
255.2077355619164
 21
429.6838895118571
 31
0.0
  0
ARC
  5
10ED
330
2
100
AcDbEntity
  8
0
100
AcDbCircle
 10
67.20773556191648
 20
405.6838895118571
 30
0.0
 40
200.0
100
AcDbArc
 50
354.1053016136503
 51
5.894698386349728
  0
ARC
  5
10EE
330
2
100
AcDbEntity
  8
0
100
AcDbCircle
 10
262.2077355619155
 20
445.6838895118571
 30
0.0
 40
5.0
100
AcDbArc
 50
348.1949321895559
 51
0.0
  0
LINE
  5
10EF
330
2
100
AcDbEntity
  8
0
100
AcDbLine
 10
267.2077355619165
 20
445.6838895118552
 30
0.0
 11
267.2077355619165
 21
448.683889511857
 31
0.0
  0
CIRCLE
  5
10F0
330
2
100
AcDbEntity
  8
0
100
AcDbCircle
 10
261.2077355619164
 20
437.183889511857
 30
0.0
 40
3.0
  0
CIRCLE
  5
10F1
330
2
100
AcDbEntity
  8
0
100
AcDbCircle
 10
261.2077355619164
 20
437.183889511857
 30
0.0
 40
2.5
  0
CIRCLE
  5
10F2
330
2
100
AcDbEntity
  8
0
100
AcDbCircle
 10
261.2077355619164
 20
437.183889511857
 30
0.0
 40
1.6
  0
ARC
  5
10F3
330
2
100
AcDbEntity
  8
0
100
AcDbCircle
 10
325.8329398839011
 20
432.3860184421818
 30
0.0
 40
60.0
100
AcDbArc
 50
168.1949321895559
 51
185.8946983863497
  0
ARC
  5
10F4
330
2
100
AcDbEntity
  8
0
100
AcDbCircle
 10
259.2077355619164
 20
448.683889511857
 30
0.0
 40
7.0
100
AcDbArc
 50
180.0
 51
270.0
  0
ARC
  5
10F5
330
2
100
AcDbEntity
  8
0
100
AcDbCircle
 10
264.2639454317384
 20
439.6838895118571
 30
0.0
 40
2.0
100
AcDbArc
 50
353.240180066883
 51
90.0
  0
LINE
  5
10F6
330
2
100
AcDbEntity
  8
0
100
AcDbLine
 10
259.2077355619192
 20
441.6838895118571
 30
0.0
 11
264.2639454317384
 21
441.6838895118571
 31
0.0
  0
ARC
  5
10F7
330
2
100
AcDbEntity
  8
0
100
AcDbCircle
 10
325.8329398839002
 20
378.9817605815323
 30
0.0
 40
60.0
100
AcDbArc
 50
174.1053016136502
 51
191.805067810444
  0
ARC
  5
10F8
330
2
100
AcDbEntity
  8
0
100
AcDbCircle
 10
262.2077355619155
 20
365.6838895118571
 30
0.0
 40
5.0
100
AcDbArc
 50
0.0
 51
11.80506781044405
  0
LINE
  5
10F9
330
2
100
AcDbEntity
  8
0
100
AcDbLine
 10
267.2077355619165
 20
362.6838895118571
 30
0.0
 11
267.2077355619165
 21
365.6838895118553
 31
0.0
  0
ARC
  5
10FA
330
2
100
AcDbEntity
  8
0
100
AcDbCircle
 10
259.2077355619155
 20
362.6838895118571
 30
0.0
 40
7.0
100
AcDbArc
 50
89.99999999997395
 51
180.0
  0
CIRCLE
  5
10FB
330
2
100
AcDbEntity
  8
0
100
AcDbCircle
 10
261.2077355619173
 20
374.1838895118571
 30
0.0
 40
3.0
  0
CIRCLE
  5
10FC
330
2
100
AcDbEntity
  8
0
100
AcDbCircle
 10
261.2077355619173
 20
374.1838895118571
 30
0.0
 40
2.5
  0
ARC
  5
10FD
330
2
100
AcDbEntity
  8
0
100
AcDbCircle
 10
264.2639454317384
 20
371.683889511857
 30
0.0
 40
2.0
100
AcDbArc
 50
269.9999999999739
 51
6.759819933116934
  0
CIRCLE
  5
10FE
330
2
100
AcDbEntity
  8
0
100
AcDbCircle
 10
261.2077355619173
 20
374.1838895118571
 30
0.0
 40
1.6
  0
LINE
  5
10FF
330
2
100
AcDbEntity
  8
0
100
AcDbLine
 10
259.2077355619183
 20
369.683889511857
 30
0.0
 11
264.2639454317384
 21
369.683889511857
 31
0.0
  0
LINE
  5
1100
330
2
100
AcDbEntity
  8
0
100
AcDbLine
 10
252.2077355619146
 20
362.6838895118571
 30
0.0
 11
252.2077355619146
 21
357.627679642036
 31
0.0
  0
LINE
  5
1101
330
2
100
AcDbEntity
  8
0
100
AcDbLine
 10
177.2077355619164
 20
381.683889511857
 30
0.0
 11
177.2077355619164
 21
429.6838895118571
 31
0.0
  0
LINE
  5
1102
330
2
100
AcDbEntity
  8
0
100
AcDbLine
 10
165.2077355619201
 20
362.6838895118571
 30
0.0
 11
165.2077355619201
 21
448.683889511857
 31
0.0
  0
LINE
  5
1103
330
2
100
AcDbEntity
  8
0
100
AcDbLine
 10
128.2077355619174
 20
435.6838895118571
 30
0.0
 11
128.2077355619174
 21
375.683889511857
 31
0.0
  0
ARC
  5
1104
330
2
100
AcDbEntity
  8
0
100
AcDbCircle
 10
134.7077355619164
 20
435.1838895118571
 30
0.0
 40
7.0
100
AcDbArc
 50
270.0
 51
0.0
  0
CIRCLE
  5
1105
330
2
100
AcDbEntity
  8
0
100
AcDbCircle
 10
146.2077355619164
 20
437.183889511857
 30
0.0
 40
2.5
  0
CIRCLE
  5
1106
330
2
100
AcDbEntity
  8
0
100
AcDbCircle
 10
146.2077355619164
 20
437.183889511857
 30
0.0
 40
1.6
  0
CIRCLE
  5
1107
330
2
100
AcDbEntity
  8
0
100
AcDbCircle
 10
146.2077355619164
 20
437.183889511857
 30
0.0
 40
3.0
  0
LINE
  5
1108
330
2
100
AcDbEntity
  8
0
100
AcDbLine
 10
141.7077355619164
 20
435.1838895118571
 30
0.0
 11
141.7077355619155
 21
439.6838895118571
 31
0.0
  0
ARC
  5
1109
330
2
100
AcDbEntity
  8
0
100
AcDbCircle
 10
134.2077355619173
 20
435.6838895118571
 30
0.0
 40
6.0
100
AcDbArc
 50
90.0
 51
180.0
  0
LINE
  5
110A
330
2
100
AcDbEntity
  8
0
100
AcDbLine
 10
134.7077355619164
 20
428.183889511857
 30
0.0
 11
130.2077355619164
 21
428.183889511857
 31
0.0
  0
ARC
  5
110B
330
2
100
AcDbEntity
  8
0
100
AcDbCircle
 10
134.7077355619173
 20
376.1838895118571
 30
0.0
 40
7.0
100
AcDbArc
 50
0.0
 51
90.0
  0
LINE
  5
110C
330
2
100
AcDbEntity
  8
0
100
AcDbLine
 10
134.7077355619173
 20
383.1838895118571
 30
0.0
 11
130.2077355619173
 21
383.1838895118571
 31
0.0
  0
CIRCLE
  5
110D
330
2
100
AcDbEntity
  8
0
100
AcDbCircle
 10
146.2077355619201
 20
374.1838895118571
 30
0.0
 40
3.25
  0
CIRCLE
  5
110E
330
2
100
AcDbEntity
  8
0
100
AcDbCircle
 10
146.2077355619201
 20
374.1838895118571
 30
0.0
 40
2.75
  0
LINE
  5
110F
330
2
100
AcDbEntity
  8
0
100
AcDbLine
 10
141.7077355619173
 20
376.1838895118571
 30
0.0
 11
141.7077355619173
 21
371.683889511857
 31
0.0
  0
ARC
  5
1110
330
2
100
AcDbEntity
  8
0
100
AcDbCircle
 10
134.2077355619173
 20
375.683889511857
 30
0.0
 40
6.0
100
AcDbArc
 50
180.0
 51
270.0
  0
ARC
  5
1111
330
2
100
AcDbEntity
  8
0
100
AcDbCircle
 10
216.2077355619164
 20
554.6838895118571
 30
0.0
 40
200.0
100
AcDbArc
 50
264.1053016136225
 51
275.8946983863775
  0
ARC
  5
1112
330
2
100
AcDbEntity
  8
0
100
AcDbCircle
 10
242.9098644922412
 20
296.0586851898724
 30
0.0
 40
60.0
100
AcDbArc
 50
78.19493218953224
 51
95.89469838637755
  0
LINE
  5
1113
330
2
100
AcDbEntity
  8
0
100
AcDbLine
 10
259.2077355619164
 20
354.683889511857
 30
0.0
 11
256.2077355619164
 21
354.683889511857
 31
0.0
  0
ARC
  5
1114
330
2
100
AcDbEntity
  8
0
100
AcDbCircle
 10
256.2077355619164
 20
359.6838895118571
 30
0.0
 40
5.0
100
AcDbArc
 50
258.1949321895322
 51
270.0
  0
ARC
  5
1115
330
2
100
AcDbEntity
  8
0
100
AcDbCircle
 10
189.5056066315908
 20
296.0586851898724
 30
0.0
 40
60.0
100
AcDbArc
 50
84.10530161362244
 51
101.8050678104677
  0
ARC
  5
1116
330
2
100
AcDbEntity
  8
0
100
AcDbCircle
 10
176.2077355619164
 20
359.6838895118571
 30
0.0
 40
5.0
100
AcDbArc
 50
269.9999999999739
 51
281.8050678104677
  0
LINE
  5
1117
330
2
100
AcDbEntity
  8
0
100
AcDbLine
 10
173.2077355619137
 20
354.683889511857
 30
0.0
 11
176.2077355619164
 21
354.683889511857
 31
0.0
  0
CIRCLE
  5
1118
330
2
100
AcDbEntity
  8
0
100
AcDbCircle
 10
146.2077355619201
 20
374.1838895118571
 30
0.0
 40
1.6
  0
ARC
  5
1119
330
2
100
AcDbEntity
  8
0
100
AcDbCircle
 10
159.2077355619201
 20
447.6838895118571
 30
0.0
 40
6.0
100
AcDbArc
 50
270.0
 51
0.0
  0
ARC
  5
111A
330
2
100
AcDbEntity
  8
0
100
AcDbCircle
 10
159.2077355619201
 20
363.6838895118571
 30
0.0
 40
6.0
100
AcDbArc
 50
0.0
 51
90.0
  0
LINE
  5
111B
330
2
100
AcDbEntity
  8
CENTER
100
AcDbLine
 10
259.207735561921
 20
457.4338895118571
 30
0.0
 11
259.2077355619201
 21
439.9338895118571
 31
0.0
  0
ARC
  5
111C
330
2
100
AcDbEntity
  8
0
100
AcDbCircle
 10
143.7077355619155
 20
439.6838895118571
 30
0.0
 40
2.0
100
AcDbArc
 50
90.0
 51
180.0
  0
ARC
  5
111D
330
2
100
AcDbEntity
  8
0
100
AcDbCircle
 10
130.2077355619173
 20
426.1838895118571
 30
0.0
 40
2.0
100
AcDbArc
 50
90.0
 51
180.0
  0
ARC
  5
111E
330
2
100
AcDbEntity
  8
0
100
AcDbCircle
 10
130.2077355619173
 20
385.1838895118571
 30
0.0
 40
2.0
100
AcDbArc
 50
180.0
 51
270.0
  0
ARC
  5
111F
330
2
100
AcDbEntity
  8
0
100
AcDbCircle
 10
143.7077355619173
 20
371.683889511857
 30
0.0
 40
2.0
100
AcDbArc
 50
180.0
 51
270.0
  0
LINE
  5
1120
330
2
100
AcDbEntity
  8
0
100
AcDbLine
 10
257.2077355619164
 20
381.683889511857
 30
0.0
 11
257.2077355619164
 21
429.6838895118571
 31
0.0
  0
LINE
  5
1121
330
2
100
AcDbEntity
  8
0
100
AcDbLine
 10
240.2077355619165
 20
446.6838895118571
 30
0.0
 11
192.2077355619164
 21
446.6838895118571
 31
0.0
  0
LINE
  5
1122
330
2
100
AcDbEntity
  8
0
100
AcDbLine
 10
175.2077355619164
 20
381.683889511857
 30
0.0
 11
175.2077355619164
 21
429.6838895118571
 31
0.0
  0
LINE
  5
1123
330
2
100
AcDbEntity
  8
0
100
AcDbLine
 10
240.2077355619165
 20
364.6838895118571
 30
0.0
 11
192.2077355619164
 21
364.6838895118571
 31
0.0
  0
ARC
  5
1124
330
2
100
AcDbEntity
  8
0
100
AcDbCircle
 10
240.2077355619165
 20
429.6838895118571
 30
0.0
 40
15.0
100
AcDbArc
 50
0.0
 51
90.0
  0
ARC
  5
1125
330
2
100
AcDbEntity
  8
0
100
AcDbCircle
 10
240.2077355619165
 20
429.6838895118571
 30
0.0
 40
17.0
100
AcDbArc
 50
0.0
 51
90.0
  0
LINE
  5
1126
330
2
100
AcDbEntity
  8
0
100
AcDbLine
 10
252.228550842087
 20
441.7047047920286
 30
0.0
 11
250.8143372797146
 21
440.2904912296553
 31
0.0
  0
ARC
  5
1127
330
2
100
AcDbEntity
  8
0
100
AcDbCircle
 10
240.2077355619155
 20
381.683889511857
 30
0.0
 40
15.0
100
AcDbArc
 50
270.0
 51
0.0
  0
ARC
  5
1128
330
2
100
AcDbEntity
  8
0
100
AcDbCircle
 10
192.2077355619164
 20
429.6838895118571
 30
0.0
 40
15.0
100
AcDbArc
 50
90.0
 51
180.0
  0
ARC
  5
1129
330
2
100
AcDbEntity
  8
0
100
AcDbCircle
 10
192.2077355619164
 20
381.683889511857
 30
0.0
 40
15.0
100
AcDbArc
 50
180.0
 51
270.0
  0
ARC
  5
112A
330
2
100
AcDbEntity
  8
0
100
AcDbCircle
 10
192.2077355619164
 20
429.6838895118571
 30
0.0
 40
17.0
100
AcDbArc
 50
90.0
 51
180.0
  0
ARC
  5
112B
330
2
100
AcDbEntity
  8
0
100
AcDbCircle
 10
192.2077355619164
 20
381.683889511857
 30
0.0
 40
17.0
100
AcDbArc
 50
180.0
 51
270.0
  0
ARC
  5
112C
330
2
100
AcDbEntity
  8
0
100
AcDbCircle
 10
240.2077355619165
 20
381.683889511857
 30
0.0
 40
17.0
100
AcDbArc
 50
270.0
 51
0.0
  0
LINE
  5
112D
330
2
100
AcDbEntity
  8
0
100
AcDbLine
 10
250.8143372797137
 20
371.0772877940589
 30
0.0
 11
252.228550842087
 21
369.6630742316855
 31
0.0
  0
LINE
  5
112E
330
2
100
AcDbEntity
  8
0
100
AcDbLine
 10
181.6011338441182
 20
440.2904912296553
 30
0.0
 11
180.1869202817449
 21
441.7047047920286
 31
0.0
  0
LINE
  5
112F
330
2
100
AcDbEntity
  8
0
100
AcDbLine
 10
181.6011338441182
 20
371.0772877940589
 30
0.0
 11
180.1869202817449
 21
369.6630742316855
 31
0.0
  0
LINE
  5
1130
330
2
100
AcDbEntity
  8
CENTER
100
AcDbLine
 10
267.9577355619191
 20
362.6838895118571
 30
0.0
 11
250.4577355619192
 21
362.6838895118571
 31
0.0
  0
LINE
  5
1131
330
2
100
AcDbEntity
  8
CENTER
100
AcDbLine
 10
259.207735561921
 20
353.9338895118589
 30
0.0
 11
259.2077355619201
 21
371.4338895118589
 31
0.0
  0
LINE
  5
1132
330
2
100
AcDbEntity
  8
CENTER
100
AcDbLine
 10
125.9577355619164
 20
376.1838895118589
 30
0.0
 11
143.4577355619164
 21
376.1838895118571
 31
0.0
  0
LINE
  5
1133
330
2
100
AcDbEntity
  8
CENTER
100
AcDbLine
 10
134.7077355619155
 20
367.433889511857
 30
0.0
 11
134.7077355619164
 21
384.9338895118571
 31
0.0
  0
CIRCLE
  5
1134
330
2
100
AcDbEntity
  8
0
100
AcDbCircle
 10
259.2077355619164
 20
448.683889511857
 30
0.0
 40
5.000000000000113
  0
CIRCLE
  5
1135
330
2
100
AcDbEntity
  8
0
100
AcDbCircle
 10
259.2077355619164
 20
448.683889511857
 30
0.0
 40
4.307179676972509
  0
LINE
  5
1136
330
2
100
AcDbEntity
  8
0
100
AcDbLine
 10
261.7077355619164
 20
450.1272651848311
 30
0.0
 11
261.7077355619164
 21
447.240513838883
 31
0.0
  0
LINE
  5
1137
330
2
100
AcDbEntity
  8
0
100
AcDbLine
 10
259.2077355619164
 20
445.7971381659089
 30
0.0
 11
261.7077355619164
 21
447.240513838883
 31
0.0
  0
LINE
  5
1138
330
2
100
AcDbEntity
  8
0
100
AcDbLine
 10
261.7077355619164
 20
450.1272651848311
 30
0.0
 11
259.2077355619164
 21
451.5706408578052
 31
0.0
  0
LINE
  5
1139
330
2
100
AcDbEntity
  8
0
100
AcDbLine
 10
256.7077355619165
 20
450.1272651848311
 30
0.0
 11
256.7077355619165
 21
447.240513838883
 31
0.0
  0
LINE
  5
113A
330
2
100
AcDbEntity
  8
0
100
AcDbLine
 10
259.2077355619164
 20
445.7971381659089
 30
0.0
 11
256.7077355619165
 21
447.240513838883
 31
0.0
  0
LINE
  5
113B
330
2
100
AcDbEntity
  8
0
100
AcDbLine
 10
256.7077355619165
 20
450.1272651848311
 30
0.0
 11
259.2077355619164
 21
451.5706408578052
 31
0.0
  0
CIRCLE
  5
113C
330
2
100
AcDbEntity
  8
0
100
AcDbCircle
 10
259.207735561921
 20
362.6838895118571
 30
0.0
 40
5.000000000000113
  0
CIRCLE
  5
113D
330
2
100
AcDbEntity
  8
0
100
AcDbCircle
 10
259.207735561921
 20
362.6838895118571
 30
0.0
 40
4.307179676972509
  0
LINE
  5
113E
330
2
100
AcDbEntity
  8
0
100
AcDbLine
 10
261.707735561921
 20
364.1272651848311
 30
0.0
 11
261.707735561921
 21
361.240513838883
 31
0.0
  0
LINE
  5
113F
330
2
100
AcDbEntity
  8
0
100
AcDbLine
 10
259.2077355619201
 20
359.7971381659089
 30
0.0
 11
261.707735561921
 21
361.240513838883
 31
0.0
  0
LINE
  5
1140
330
2
100
AcDbEntity
  8
0
100
AcDbLine
 10
261.707735561921
 20
364.1272651848311
 30
0.0
 11
259.207735561921
 21
365.5706408578052
 31
0.0
  0
LINE
  5
1141
330
2
100
AcDbEntity
  8
0
100
AcDbLine
 10
256.707735561921
 20
364.1272651848311
 30
0.0
 11
256.707735561921
 21
361.240513838883
 31
0.0
  0
LINE
  5
1142
330
2
100
AcDbEntity
  8
0
100
AcDbLine
 10
259.2077355619201
 20
359.7971381659089
 30
0.0
 11
256.707735561921
 21
361.240513838883
 31
0.0
  0
LINE
  5
1143
330
2
100
AcDbEntity
  8
0
100
AcDbLine
 10
256.707735561921
 20
364.1272651848311
 30
0.0
 11
259.207735561921
 21
365.5706408578052
 31
0.0
  0
CIRCLE
  5
1144
330
2
100
AcDbEntity
  8
0
100
AcDbCircle
 10
134.7077355619164
 20
376.1838895118571
 30
0.0
 40
5.000000000000113
  0
CIRCLE
  5
1145
330
2
100
AcDbEntity
  8
0
100
AcDbCircle
 10
134.7077355619164
 20
376.1838895118571
 30
0.0
 40
4.307179676972509
  0
LINE
  5
1146
330
2
100
AcDbEntity
  8
0
100
AcDbLine
 10
137.2077355619164
 20
377.6272651848311
 30
0.0
 11
137.2077355619164
 21
374.740513838883
 31
0.0
  0
LINE
  5
1147
330
2
100
AcDbEntity
  8
0
100
AcDbLine
 10
134.7077355619155
 20
373.2971381659089
 30
0.0
 11
137.2077355619164
 21
374.740513838883
 31
0.0
  0
LINE
  5
1148
330
2
100
AcDbEntity
  8
0
100
AcDbLine
 10
137.2077355619164
 20
377.6272651848311
 30
0.0
 11
134.7077355619164
 21
379.0706408578052
 31
0.0
  0
LINE
  5
1149
330
2
100
AcDbEntity
  8
0
100
AcDbLine
 10
132.2077355619164
 20
377.6272651848311
 30
0.0
 11
132.2077355619164
 21
374.740513838883
 31
0.0
  0
LINE
  5
114A
330
2
100
AcDbEntity
  8
0
100
AcDbLine
 10
134.7077355619155
 20
373.2971381659089
 30
0.0
 11
132.2077355619164
 21
374.740513838883
 31
0.0
  0
LINE
  5
114B
330
2
100
AcDbEntity
  8
0
100
AcDbLine
 10
132.2077355619164
 20
377.6272651848311
 30
0.0
 11
134.7077355619164
 21
379.0706408578052
 31
0.0
  0
CIRCLE
  5
114C
330
2
100
AcDbEntity
  8
0
100
AcDbCircle
 10
134.7077355619164
 20
435.1838895118571
 30
0.0
 40
5.000000000000113
  0
CIRCLE
  5
114D
330
2
100
AcDbEntity
  8
0
100
AcDbCircle
 10
134.7077355619164
 20
435.1838895118571
 30
0.0
 40
4.307179676972509
  0
LINE
  5
114E
330
2
100
AcDbEntity
  8
0
100
AcDbLine
 10
137.2077355619164
 20
436.6272651848311
 30
0.0
 11
137.2077355619164
 21
433.740513838883
 31
0.0
  0
LINE
  5
114F
330
2
100
AcDbEntity
  8
0
100
AcDbLine
 10
134.7077355619155
 20
432.297138165909
 30
0.0
 11
137.2077355619164
 21
433.740513838883
 31
0.0
  0
LINE
  5
1150
330
2
100
AcDbEntity
  8
0
100
AcDbLine
 10
137.2077355619164
 20
436.6272651848311
 30
0.0
 11
134.7077355619164
 21
438.0706408578052
 31
0.0
  0
LINE
  5
1151
330
2
100
AcDbEntity
  8
0
100
AcDbLine
 10
132.2077355619164
 20
436.6272651848311
 30
0.0
 11
132.2077355619164
 21
433.740513838883
 31
0.0
  0
LINE
  5
1152
330
2
100
AcDbEntity
  8
0
100
AcDbLine
 10
134.7077355619155
 20
432.297138165909
 30
0.0
 11
132.2077355619164
 21
433.740513838883
 31
0.0
  0
LINE
  5
1153
330
2
100
AcDbEntity
  8
0
100
AcDbLine
 10
132.2077355619164
 20
436.6272651848311
 30
0.0
 11
134.7077355619164
 21
438.0706408578052
 31
0.0
  0
LINE
  5
1154
330
2
100
AcDbEntity
  8
0
100
AcDbLine
 10
362.7642579439314
 20
373.2612397810489
 30
0.0
 11
362.7642579439314
 21
438.1065392426671
 31
0.0
  0
LINE
  5
1155
330
2
100
AcDbEntity
  8
0
100
AcDbLine
 10
372.6784715063047
 20
446.0981030742304
 30
0.0
 11
371.8500443815589
 21
445.2696759494838
 31
0.0
  0
LINE
  5
1156
330
2
100
AcDbEntity
  8
0
100
AcDbLine
 10
388.7642579439341
 20
456.683889511857
 30
0.0
 11
388.7642579439395
 21
354.6838895118589
 31
0.0
  0
LINE
  5
1157
330
2
100
AcDbEntity
  8
0
100
AcDbLine
 10
373.2642579439286
 20
356.8017783838048
 30
0.0
 11
373.2642579439314
 21
454.5660006399093
 31
0.0
  0
ARC
  5
1158
330
2
100
AcDbEntity
  8
0
100
AcDbCircle
 10
375.2642579439286
 20
356.8017783838048
 30
0.0
 40
2.0
100
AcDbArc
 50
180.0
 51
269.5000000000084
  0
ARC
  5
1159
330
2
100
AcDbEntity
  8
0
100
AcDbCircle
 10
375.2642579439286
 20
371.7363268753751
 30
0.0
 40
2.0
100
AcDbArc
 50
180.0
 51
269.5000000000084
  0
LINE
  5
115A
330
2
100
AcDbEntity
  8
0
100
AcDbLine
 10
367.2642579439314
 20
438.4838895118582
 30
0.0
 11
367.4642579439312
 21
438.6838895118571
 31
0.0
  0
LINE
  5
115B
330
2
100
AcDbEntity
  8
0
100
AcDbLine
 10
370.7642579439314
 20
440.683889511857
 30
0.0
 11
371.2642579439314
 21
441.183889511857
 31
0.0
  0
LINE
  5
115C
330
2
100
AcDbEntity
  8
0
100
AcDbLine
 10
371.2642579439322
 20
443.8554623871122
 30
0.0
 11
371.2642579439314
 21
441.183889511857
 31
0.0
  0
LINE
  5
115D
330
2
100
AcDbEntity
  8
0
100
AcDbLine
 10
367.4642579439312
 20
438.6838895118571
 30
0.0
 11
370.7642579439314
 21
438.6838895118571
 31
0.0
  0
LINE
  5
115E
330
2
100
AcDbEntity
  8
0
100
AcDbLine
 10
363.7642579439313
 20
438.6838895118571
 30
0.0
 11
362.7642579439314
 21
438.1065392426671
 31
0.0
  0
LINE
  5
115F
330
2
100
AcDbEntity
  8
0
100
AcDbLine
 10
363.7642579439313
 20
438.6838895118571
 30
0.0
 11
365.0642579439316
 21
438.6838895118571
 31
0.0
  0
LINE
  5
1160
330
2
100
AcDbEntity
  8
0
100
AcDbLine
 10
365.4642579439312
 20
437.9838895118582
 30
0.0
 11
367.0642579439316
 21
437.9838895118582
 31
0.0
  0
LINE
  5
1161
330
2
100
AcDbEntity
  8
0
100
AcDbLine
 10
388.7642579439395
 20
354.6838895118589
 30
0.0
 11
375.2468048729322
 21
354.8018545376771
 31
0.0
  0
ARC
  5
1162
330
2
100
AcDbEntity
  8
0
100
AcDbCircle
 10
382.2642579440078
 20
355.7406522308837
 30
0.0
 40
1.0
100
AcDbArc
 50
180.0
 51
269.5000000000084
  0
LINE
  5
1163
330
2
100
AcDbEntity
  8
0
100
AcDbLine
 10
372.6784715063047
 20
365.2696759494837
 30
0.0
 11
371.8500443815644
 21
366.0981030742249
 31
0.0
  0
LINE
  5
1164
330
2
100
AcDbEntity
  8
0
100
AcDbLine
 10
370.7642579439368
 20
370.6838895118571
 30
0.0
 11
370.7642579439286
 21
440.6838895118534
 31
0.0
  0
LINE
  5
1165
330
2
100
AcDbEntity
  8
0
100
AcDbLine
 10
367.2642579439359
 20
372.8838895118578
 30
0.0
 11
367.2642579439359
 21
438.4838895118618
 31
0.0
  0
LINE
  5
1166
330
2
100
AcDbEntity
  8
0
100
AcDbLine
 10
367.2642579439359
 20
372.8838895118578
 30
0.0
 11
367.4642579439366
 21
372.6838895118571
 31
0.0
  0
LINE
  5
1167
330
2
100
AcDbEntity
  8
0
100
AcDbLine
 10
367.4642579439366
 20
372.6838895118571
 30
0.0
 11
370.7642579439368
 21
372.6838895118571
 31
0.0
  0
LINE
  5
1168
330
2
100
AcDbEntity
  8
0
100
AcDbLine
 10
370.7642579439368
 20
370.6838895118571
 30
0.0
 11
371.2642579439368
 21
370.1838895118589
 31
0.0
  0
LINE
  5
1169
330
2
100
AcDbEntity
  8
0
100
AcDbLine
 10
371.2642579439377
 20
367.5123166365965
 30
0.0
 11
371.2642579439314
 21
441.183889511857
 31
0.0
  0
LINE
  5
116A
330
2
100
AcDbEntity
  8
0
100
AcDbLine
 10
363.7642579439368
 20
372.6838895118571
 30
0.0
 11
362.7642579439359
 21
373.261239781047
 31
0.0
  0
LINE
  5
116B
330
2
100
AcDbEntity
  8
0
100
AcDbLine
 10
365.2642579439359
 20
372.8838895118578
 30
0.0
 11
365.2642579439359
 21
438.4838895118582
 31
0.0
  0
LINE
  5
116C
330
2
100
AcDbEntity
  8
0
100
AcDbLine
 10
363.7642579439359
 20
372.6838895118571
 30
0.0
 11
365.0642579439361
 21
372.6838895118571
 31
0.0
  0
LINE
  5
116D
330
2
100
AcDbEntity
  8
0
100
AcDbLine
 10
365.4642579439366
 20
373.3838895118578
 30
0.0
 11
367.0642579439361
 21
373.3838895118578
 31
0.0
  0
ARC
  5
116E
330
2
100
AcDbEntity
  8
0
100
AcDbCircle
 10
373.2642579439377
 20
367.5123166365983
 30
0.0
 40
2.0
100
AcDbArc
 50
180.0
 51
225.0000000000187
  0
ARC
  5
116F
330
2
100
AcDbEntity
  8
0
100
AcDbCircle
 10
371.2642579439314
 20
363.8554623871104
 30
0.0
 40
2.0
100
AcDbArc
 50
0.0
 51
45.00000000001871
  0
ARC
  5
1170
330
2
100
AcDbEntity
  8
0
100
AcDbCircle
 10
373.2642579439322
 20
443.8554623871122
 30
0.0
 40
2.0
100
AcDbArc
 50
134.9999999999812
 51
180.0
  0
ARC
  5
1171
330
2
100
AcDbEntity
  8
0
100
AcDbCircle
 10
371.2642579439314
 20
447.5123166366038
 30
0.0
 40
2.0
100
AcDbArc
 50
314.9999999999812
 51
0.0
  0
ARC
  5
1172
330
2
100
AcDbEntity
  8
0
100
AcDbCircle
 10
365.0642579439361
 20
372.8838895118578
 30
0.0
 40
0.2
100
AcDbArc
 50
270.000000000026
 51
0.0
  0
ARC
  5
1173
330
2
100
AcDbEntity
  8
0
100
AcDbCircle
 10
365.4642579439366
 20
373.1838895118571
 30
0.0
 40
0.2
100
AcDbArc
 50
90.00000000002605
 51
180.0
  0
ARC
  5
1174
330
2
100
AcDbEntity
  8
0
100
AcDbCircle
 10
367.0642579439361
 20
373.1838895118571
 30
0.0
 40
0.2
100
AcDbArc
 50
0.0
 51
90.00000000002605
  0
ARC
  5
1175
330
2
100
AcDbEntity
  8
0
100
AcDbCircle
 10
365.0642579439316
 20
438.4838895118582
 30
0.0
 40
0.2
100
AcDbArc
 50
0.0
 51
90.0
  0
ARC
  5
1176
330
2
100
AcDbEntity
  8
0
100
AcDbCircle
 10
365.4642579439312
 20
438.1838895118571
 30
0.0
 40
0.2
100
AcDbArc
 50
180.0
 51
270.0
  0
ARC
  5
1177
330
2
100
AcDbEntity
  8
0
100
AcDbCircle
 10
367.0642579439316
 20
438.1838895118571
 30
0.0
 40
0.2
100
AcDbArc
 50
270.0
 51
0.0
  0
LINE
  5
1178
330
2
100
AcDbEntity
  8
0
100
AcDbLine
 10
363.7642579439368
 20
372.6838895118571
 30
0.0
 11
363.7642579439313
 21
438.6838895118571
 31
0.0
  0
LINE
  5
1179
330
2
100
AcDbEntity
  8
0
100
AcDbLine
 10
367.4642579439366
 20
372.6838895118571
 30
0.0
 11
367.4642579439312
 21
438.6838895118571
 31
0.0
  0
LINE
  5
117A
330
2
100
AcDbEntity
  8
0
100
AcDbLine
 10
380.2729844795056
 20
369.6925402243277
 30
0.0
 11
375.2468048729322
 21
369.7364030292473
 31
0.0
  0
LINE
  5
117B
330
2
100
AcDbEntity
  8
0
100
AcDbLine
 10
381.2642579440078
 20
355.7406522308837
 30
0.0
 11
381.2642579440078
 21
368.6925783012638
 31
0.0
  0
ARC
  5
117C
330
2
100
AcDbEntity
  8
0
100
AcDbCircle
 10
380.2642579440078
 20
368.6925783012638
 30
0.0
 40
1.0
100
AcDbArc
 50
0.0
 51
89.5000000000345
  0
LINE
  5
117D
330
2
100
AcDbEntity
  8
0
100
AcDbLine
 10
382.2555314085091
 20
362.6838895118571
 30
0.0
 11
388.7642579439395
 21
362.6838895118571
 31
0.0
  0
LINE
  5
117E
330
2
100
AcDbEntity
  8
0
100
AcDbLine
 10
382.2555314085091
 20
365.6838895118571
 30
0.0
 11
388.7642579439386
 21
365.6838895118571
 31
0.0
  0
ARC
  5
117F
330
2
100
AcDbEntity
  8
0
100
AcDbCircle
 10
375.2642579439286
 20
454.5660006399093
 30
0.0
 40
2.0
100
AcDbArc
 50
90.49999999999155
 51
180.0
  0
ARC
  5
1180
330
2
100
AcDbEntity
  8
0
100
AcDbCircle
 10
375.2642579439286
 20
439.631452148339
 30
0.0
 40
2.0
100
AcDbArc
 50
90.49999999999155
 51
180.0
  0
LINE
  5
1181
330
2
100
AcDbEntity
  8
0
100
AcDbLine
 10
388.7642579439395
 20
456.683889511857
 30
0.0
 11
375.2468048729322
 21
456.5659244860371
 31
0.0
  0
ARC
  5
1182
330
2
100
AcDbEntity
  8
0
100
AcDbCircle
 10
382.2642579440078
 20
455.6271267928304
 30
0.0
 40
1.0
100
AcDbArc
 50
90.49999999999155
 51
180.0
  0
LINE
  5
1183
330
2
100
AcDbEntity
  8
0
100
AcDbLine
 10
380.2729844795056
 20
441.6752387993883
 30
0.0
 11
375.2468048729322
 21
441.6313759944686
 31
0.0
  0
LINE
  5
1184
330
2
100
AcDbEntity
  8
0
100
AcDbLine
 10
381.2642579440078
 20
455.6271267928304
 30
0.0
 11
381.2642579440078
 21
442.6752007224521
 31
0.0
  0
ARC
  5
1185
330
2
100
AcDbEntity
  8
0
100
AcDbCircle
 10
380.2642579440078
 20
442.6752007224521
 30
0.0
 40
1.0
100
AcDbArc
 50
270.4999999999654
 51
0.0
  0
LINE
  5
1186
330
2
100
AcDbEntity
  8
CENTER
  6
CENS
100
AcDbLine
 10
396.6726540556271
 20
448.683889511857
 30
0.0
 11
370.7642579440069
 21
448.683889511857
 31
0.0
  0
LINE
  5
1187
330
2
100
AcDbEntity
  8
0
100
AcDbLine
 10
374.1642579440074
 20
453.683889511857
 30
0.0
 11
373.7642579440077
 21
452.9910691888298
 31
0.0
  0
LINE
  5
1188
330
2
100
AcDbEntity
  8
0
100
AcDbLine
 10
379.7642579440068
 20
453.683889511857
 30
0.0
 11
379.7642579440068
 21
443.6838895118571
 31
0.0
  0
LINE
  5
1189
330
2
100
AcDbEntity
  8
0
100
AcDbLine
 10
374.1642579440074
 20
453.683889511857
 30
0.0
 11
374.1642579440074
 21
443.6838895118571
 31
0.0
  0
LINE
  5
118A
330
2
100
AcDbEntity
  8
0
100
AcDbLine
 10
381.2642579440078
 20
453.683889511857
 30
0.0
 11
374.1642579440074
 21
453.683889511857
 31
0.0
  0
LINE
  5
118B
330
2
100
AcDbEntity
  8
0
100
AcDbLine
 10
381.2642579440078
 20
443.6838895118571
 30
0.0
 11
374.1642579440074
 21
443.6838895118571
 31
0.0
  0
LINE
  5
118C
330
2
100
AcDbEntity
  8
0
100
AcDbLine
 10
374.1642579440074
 20
443.6838895118571
 30
0.0
 11
373.7642579440077
 21
444.3767098348843
 31
0.0
  0
LINE
  5
118D
330
2
100
AcDbEntity
  8
0
100
AcDbLine
 10
373.7642579440077
 20
452.9910691888298
 30
0.0
 11
373.7642579440077
 21
444.3767098348843
 31
0.0
  0
LINE
  5
118E
330
2
100
AcDbEntity
  8
CENTER
  6
CENS
100
AcDbLine
 10
396.6726540556271
 20
362.6838895118571
 30
0.0
 11
370.7642579440069
 21
362.6838895118571
 31
0.0
  0
LINE
  5
118F
330
2
100
AcDbEntity
  8
0
100
AcDbLine
 10
374.1642579440074
 20
357.6838895118571
 30
0.0
 11
373.7642579440077
 21
358.3767098348843
 31
0.0
  0
LINE
  5
1190
330
2
100
AcDbEntity
  8
0
100
AcDbLine
 10
379.7642579440068
 20
357.6838895118571
 30
0.0
 11
379.7642579440068
 21
367.6838895118571
 31
0.0
  0
LINE
  5
1191
330
2
100
AcDbEntity
  8
0
100
AcDbLine
 10
374.1642579440074
 20
357.6838895118571
 30
0.0
 11
374.1642579440074
 21
367.6838895118571
 31
0.0
  0
LINE
  5
1192
330
2
100
AcDbEntity
  8
0
100
AcDbLine
 10
381.2642579440078
 20
357.6838895118571
 30
0.0
 11
374.1642579440074
 21
357.6838895118571
 31
0.0
  0
LINE
  5
1193
330
2
100
AcDbEntity
  8
0
100
AcDbLine
 10
381.2642579440078
 20
367.6838895118571
 30
0.0
 11
374.1642579440074
 21
367.6838895118571
 31
0.0
  0
LINE
  5
1194
330
2
100
AcDbEntity
  8
0
100
AcDbLine
 10
374.1642579440074
 20
367.6838895118571
 30
0.0
 11
373.7642579440077
 21
366.9910691888298
 31
0.0
  0
LINE
  5
1195
330
2
100
AcDbEntity
  8
0
100
AcDbLine
 10
373.7642579440077
 20
358.3767098348843
 30
0.0
 11
373.7642579440077
 21
366.9910691888298
 31
0.0
  0
LINE
  5
1196
330
2
100
AcDbEntity
  8
0
100
AcDbLine
 10
598.5211519729398
 20
728.7929022309326
 30
0.0
 11
663.3664514345589
 21
728.7929022309344
 31
0.0
  0
LINE
  5
1197
330
2
100
AcDbEntity
  8
0
100
AcDbLine
 10
671.3580152661213
 20
718.8786886685611
 30
0.0
 11
670.5295881413755
 21
719.7071157933059
 31
0.0
  0
LINE
  5
1198
330
2
100
AcDbEntity
  8
0
100
AcDbLine
 10
718.9438017035542
 20
702.7929022309308
 30
0.0
 11
718.8520172811084
 21
713.3103553018518
 31
0.0
  0
ARC
  5
1199
330
2
100
AcDbEntity
  8
0
100
AcDbCircle
 10
717.8870389845294
 20
709.2929022308581
 30
0.0
 40
1.0
100
AcDbArc
 50
0.4999999999654926
 51
90.0
  0
LINE
  5
119A
330
2
100
AcDbEntity
  8
0
100
AcDbLine
 10
718.9438017037489
 20
702.7929022309327
 30
0.0
 11
579.9438017037489
 21
702.7929022309254
 31
0.0
  0
LINE
  5
119B
330
2
100
AcDbEntity
  8
0
100
AcDbLine
 10
682.943801703748
 20
715.2929022308562
 30
0.0
 11
707.4438017037489
 21
715.2929022308562
 31
0.0
  0
ARC
  5
119C
330
2
100
AcDbEntity
  8
0
100
AcDbCircle
 10
716.8520934349806
 20
713.2929022308545
 30
0.0
 40
2.0
100
AcDbArc
 50
0.4999999999654926
 51
72.79123793166125
  0
LINE
  5
119D
330
2
100
AcDbEntity
  8
0
100
AcDbLine
 10
582.0616905756958
 20
718.2929022309362
 30
0.0
 11
679.943801703748
 21
718.2929022309326
 31
0.0
  0
ARC
  5
119E
330
2
100
AcDbEntity
  8
0
100
AcDbCircle
 10
582.0616905756958
 20
716.2929022309363
 30
0.0
 40
2.0
100
AcDbArc
 50
90.0
 51
179.5000000000344
  0
ARC
  5
119F
330
2
100
AcDbEntity
  8
0
100
AcDbCircle
 10
596.9962390672661
 20
716.2929022309363
 30
0.0
 40
2.0
100
AcDbArc
 50
90.0
 51
179.5000000000344
  0
LINE
  5
11A0
330
2
100
AcDbEntity
  8
0
100
AcDbLine
 10
663.7438017037482
 20
724.2929022309327
 30
0.0
 11
663.943801703748
 21
724.0929022309337
 31
0.0
  0
LINE
  5
11A1
330
2
100
AcDbEntity
  8
0
100
AcDbLine
 10
665.943801703748
 20
720.7929022309326
 30
0.0
 11
666.443801703748
 21
720.2929022309326
 31
0.0
  0
LINE
  5
11A2
330
2
100
AcDbEntity
  8
0
100
AcDbLine
 10
669.1153745790022
 20
720.2929022309326
 30
0.0
 11
666.443801703748
 21
720.2929022309326
 31
0.0
  0
LINE
  5
11A3
330
2
100
AcDbEntity
  8
0
100
AcDbLine
 10
663.943801703748
 20
724.0929022309337
 30
0.0
 11
663.943801703748
 21
720.7929022309326
 31
0.0
  0
LINE
  5
11A4
330
2
100
AcDbEntity
  8
0
100
AcDbLine
 10
663.943801703748
 20
727.7929022309327
 30
0.0
 11
663.3664514345589
 21
728.7929022309326
 31
0.0
  0
LINE
  5
11A5
330
2
100
AcDbEntity
  8
0
100
AcDbLine
 10
663.943801703748
 20
727.7929022309344
 30
0.0
 11
663.943801703748
 21
726.4929022309334
 31
0.0
  0
LINE
  5
11A6
330
2
100
AcDbEntity
  8
0
100
AcDbLine
 10
663.2438017037482
 20
726.0929022309337
 30
0.0
 11
663.2438017037482
 21
724.4929022309333
 31
0.0
  0
LINE
  5
11A7
330
2
100
AcDbEntity
  8
0
100
AcDbLine
 10
579.9438017037489
 20
702.7929022309254
 30
0.0
 11
580.061766729568
 21
716.3103553019336
 31
0.0
  0
ARC
  5
11A8
330
2
100
AcDbEntity
  8
0
100
AcDbCircle
 10
581.0005644227747
 20
709.2929022308581
 30
0.0
 40
1.0
100
AcDbArc
 50
90.0
 51
179.5000000000344
  0
LINE
  5
11A9
330
2
100
AcDbEntity
  8
0
100
AcDbLine
 10
590.5295881413755
 20
718.8786886685611
 30
0.0
 11
591.358015266115
 21
719.7071157933005
 31
0.0
  0
LINE
  5
11AA
330
2
100
AcDbEntity
  8
0
100
AcDbLine
 10
595.9438017037489
 20
720.792902230929
 30
0.0
 11
665.9438017037452
 21
720.7929022309363
 31
0.0
  0
LINE
  5
11AB
330
2
100
AcDbEntity
  8
0
100
AcDbLine
 10
598.1438017037478
 20
724.292902230929
 30
0.0
 11
663.7438017037527
 21
724.292902230929
 31
0.0
  0
LINE
  5
11AC
330
2
100
AcDbEntity
  8
0
100
AcDbLine
 10
598.1438017037478
 20
724.292902230929
 30
0.0
 11
597.943801703748
 21
724.0929022309282
 31
0.0
  0
LINE
  5
11AD
330
2
100
AcDbEntity
  8
0
100
AcDbLine
 10
597.943801703748
 20
724.0929022309282
 30
0.0
 11
597.9438017037489
 21
720.792902230929
 31
0.0
  0
LINE
  5
11AE
330
2
100
AcDbEntity
  8
0
100
AcDbLine
 10
595.9438017037489
 20
720.792902230929
 30
0.0
 11
595.4438017037489
 21
720.292902230929
 31
0.0
  0
LINE
  5
11AF
330
2
100
AcDbEntity
  8
0
100
AcDbLine
 10
592.7722288284883
 20
720.2929022309271
 30
0.0
 11
666.443801703748
 21
720.2929022309326
 31
0.0
  0
LINE
  5
11B0
330
2
100
AcDbEntity
  8
0
100
AcDbLine
 10
597.943801703748
 20
727.792902230929
 30
0.0
 11
598.5211519729371
 21
728.792902230929
 31
0.0
  0
LINE
  5
11B1
330
2
100
AcDbEntity
  8
0
100
AcDbLine
 10
598.1438017037478
 20
726.292902230929
 30
0.0
 11
663.7438017037482
 21
726.292902230929
 31
0.0
  0
LINE
  5
11B2
330
2
100
AcDbEntity
  8
0
100
AcDbLine
 10
597.943801703748
 20
727.792902230929
 30
0.0
 11
597.943801703748
 21
726.4929022309279
 31
0.0
  0
LINE
  5
11B3
330
2
100
AcDbEntity
  8
0
100
AcDbLine
 10
598.6438017037478
 20
726.0929022309283
 30
0.0
 11
598.6438017037478
 21
724.4929022309297
 31
0.0
  0
ARC
  5
11B4
330
2
100
AcDbEntity
  8
0
100
AcDbCircle
 10
592.7722288284883
 20
718.2929022309272
 30
0.0
 40
2.0
100
AcDbArc
 50
90.0
 51
134.9999999999766
  0
ARC
  5
11B5
330
2
100
AcDbEntity
  8
0
100
AcDbCircle
 10
589.1153745790022
 20
720.2929022309344
 30
0.0
 40
2.0
100
AcDbArc
 50
270.0
 51
314.9999999999767
  0
ARC
  5
11B6
330
2
100
AcDbEntity
  8
0
100
AcDbCircle
 10
669.1153745790022
 20
718.2929022309326
 30
0.0
 40
2.0
100
AcDbArc
 50
45.00000000002332
 51
90.0
  0
ARC
  5
11B7
330
2
100
AcDbEntity
  8
0
100
AcDbCircle
 10
672.7722288284938
 20
720.2929022309344
 30
0.0
 40
2.0
100
AcDbArc
 50
225.0000000000233
 51
270.0
  0
ARC
  5
11B8
330
2
100
AcDbEntity
  8
0
100
AcDbCircle
 10
679.943801703748
 20
716.2929022309326
 30
0.0
 40
2.0
100
AcDbArc
 50
0.0
 51
90.0
  0
ARC
  5
11B9
330
2
100
AcDbEntity
  8
0
100
AcDbCircle
 10
682.943801703748
 20
716.2929022308563
 30
0.0
 40
1.0
100
AcDbArc
 50
180.0
 51
270.0
  0
ARC
  5
11BA
330
2
100
AcDbEntity
  8
0
100
AcDbCircle
 10
598.1438017037478
 20
726.4929022309297
 30
0.0
 40
0.2
100
AcDbArc
 50
180.0
 51
270.0
  0
ARC
  5
11BB
330
2
100
AcDbEntity
  8
0
100
AcDbCircle
 10
598.443801703748
 20
726.0929022309283
 30
0.0
 40
0.2
100
AcDbArc
 50
0.0
 51
90.0
  0
ARC
  5
11BC
330
2
100
AcDbEntity
  8
0
100
AcDbCircle
 10
598.443801703748
 20
724.4929022309297
 30
0.0
 40
0.2
100
AcDbArc
 50
270.0
 51
0.0
  0
ARC
  5
11BD
330
2
100
AcDbEntity
  8
0
100
AcDbCircle
 10
663.7438017037482
 20
726.4929022309334
 30
0.0
 40
0.2
100
AcDbArc
 50
270.0
 51
0.0
  0
ARC
  5
11BE
330
2
100
AcDbEntity
  8
0
100
AcDbCircle
 10
663.443801703748
 20
726.0929022309337
 30
0.0
 40
0.2
100
AcDbArc
 50
89.99999999997395
 51
180.0
  0
ARC
  5
11BF
330
2
100
AcDbEntity
  8
0
100
AcDbCircle
 10
663.443801703748
 20
724.4929022309333
 30
0.0
 40
0.2
100
AcDbArc
 50
180.0
 51
270.0
  0
LINE
  5
11C0
330
2
100
AcDbEntity
  8
0
100
AcDbLine
 10
597.943801703748
 20
727.792902230929
 30
0.0
 11
663.943801703748
 21
727.7929022309327
 31
0.0
  0
LINE
  5
11C1
330
2
100
AcDbEntity
  8
0
100
AcDbLine
 10
597.943801703748
 20
724.0929022309282
 30
0.0
 11
663.943801703748
 21
724.0929022309337
 31
0.0
  0
LINE
  5
11C2
330
2
100
AcDbEntity
  8
0
100
AcDbLine
 10
681.9438017037507
 20
716.2929022309326
 30
0.0
 11
681.9438017037507
 21
702.7929022309308
 31
0.0
  0
LINE
  5
11C3
330
2
100
AcDbEntity
  8
0
100
AcDbLine
 10
706.0618097470548
 20
710.2929022308581
 30
0.0
 11
717.8870389845294
 21
710.2929022308581
 31
0.0
  0
LINE
  5
11C4
330
2
100
AcDbEntity
  8
0
100
AcDbLine
 10
705.561981084568
 20
710.7798137567042
 30
0.0
 11
705.4948026118552
 21
713.3452561274753
 31
0.0
  0
ARC
  5
11C5
330
2
100
AcDbEntity
  8
0
100
AcDbCircle
 10
703.4954879619042
 20
713.292902230858
 30
0.0
 40
2.0
100
AcDbArc
 50
1.499999999989693
 51
90.0
  0
ARC
  5
11C6
330
2
100
AcDbEntity
  8
0
100
AcDbCircle
 10
706.0618097470548
 20
710.7929022308581
 30
0.0
 40
0.5
100
AcDbArc
 50
181.4999999999897
 51
270.0
  0
LINE
  5
11C7
330
2
100
AcDbEntity
  8
0
100
AcDbLine
 10
594.9524524162177
 20
711.2841756953585
 30
0.0
 11
594.9963152211373
 21
716.3103553019336
 31
0.0
  0
LINE
  5
11C8
330
2
100
AcDbEntity
  8
0
100
AcDbLine
 10
581.0005644227747
 20
710.2929022308581
 30
0.0
 11
593.9524904931538
 21
710.2929022308581
 31
0.0
  0
ARC
  5
11C9
330
2
100
AcDbEntity
  8
0
100
AcDbCircle
 10
593.9524904931538
 20
711.2929022308581
 30
0.0
 40
1.0
100
AcDbArc
 50
270.0
 51
359.5000000000345
  0
LINE
  5
11CA
330
2
100
AcDbEntity
  8
0
100
AcDbLine
 10
587.943801703748
 20
709.3016287663559
 30
0.0
 11
587.943801703748
 21
702.7929022309254
 31
0.0
  0
LINE
  5
11CB
330
2
100
AcDbEntity
  8
0
100
AcDbLine
 10
590.943801703748
 20
709.3016287663559
 30
0.0
 11
590.943801703748
 21
702.7929022309254
 31
0.0
  0
LINE
  5
11CC
330
2
100
AcDbEntity
  8
0
100
AcDbLine
 10
610.4037025265731
 20
702.7929022309272
 30
0.0
 11
610.4037025265731
 21
716.3103553019336
 31
0.0
  0
LINE
  5
11CD
330
2
100
AcDbEntity
  8
0
100
AcDbLine
 10
673.9438017037489
 20
716.3103553019336
 30
0.0
 11
673.9438017037489
 21
702.7929022309254
 31
0.0
  0
LINE
  5
11CE
330
2
100
AcDbEntity
  8
0
100
AcDbLine
 10
670.943801703748
 20
716.3103553019336
 30
0.0
 11
670.943801703748
 21
702.7929022309254
 31
0.0
  0
LINE
  5
11CF
330
2
100
AcDbEntity
  8
0
100
AcDbLine
 10
651.4839008809229
 20
702.7929022309272
 30
0.0
 11
651.4839008809229
 21
716.3103553019336
 31
0.0
  0
LINE
  5
11D0
330
2
100
AcDbEntity
  8
CENTER
  6
CENS
100
AcDbLine
 10
587.9438017037426
 20
698.3367630403717
 30
0.0
 11
587.9438017037426
 21
720.792902230858
 31
0.0
  0
LINE
  5
11D1
330
2
100
AcDbEntity
  8
0
100
AcDbLine
 10
592.9438017037425
 20
717.3929022308584
 30
0.0
 11
592.2509813807144
 21
717.7929022308581
 31
0.0
  0
LINE
  5
11D2
330
2
100
AcDbEntity
  8
0
100
AcDbLine
 10
592.9438017037425
 20
711.792902230858
 30
0.0
 11
582.9438017037425
 21
711.792902230858
 31
0.0
  0
LINE
  5
11D3
330
2
100
AcDbEntity
  8
0
100
AcDbLine
 10
592.9438017037425
 20
717.3929022308584
 30
0.0
 11
582.9438017037425
 21
717.3929022308584
 31
0.0
  0
LINE
  5
11D4
330
2
100
AcDbEntity
  8
0
100
AcDbLine
 10
592.9438017037425
 20
710.2929022308581
 30
0.0
 11
592.9438017037425
 21
717.3929022308584
 31
0.0
  0
LINE
  5
11D5
330
2
100
AcDbEntity
  8
0
100
AcDbLine
 10
582.9438017037425
 20
710.2929022308581
 30
0.0
 11
582.9438017037425
 21
717.3929022308584
 31
0.0
  0
LINE
  5
11D6
330
2
100
AcDbEntity
  8
0
100
AcDbLine
 10
582.9438017037425
 20
717.3929022308584
 30
0.0
 11
583.6366220267698
 21
717.7929022308581
 31
0.0
  0
LINE
  5
11D7
330
2
100
AcDbEntity
  8
0
100
AcDbLine
 10
592.2509813807144
 20
717.7929022308581
 30
0.0
 11
583.6366220267698
 21
717.7929022308581
 31
0.0
  0
LINE
  5
11D8
330
2
100
AcDbEntity
  8
CENTER
  6
CENS
100
AcDbLine
 10
712.4438017037489
 20
698.3367630403717
 30
0.0
 11
712.4438017037489
 21
720.792902230858
 31
0.0
  0
LINE
  5
11D9
330
2
100
AcDbEntity
  8
0
100
AcDbLine
 10
717.4438017037489
 20
717.3929022308584
 30
0.0
 11
716.7509813807217
 21
717.7929022308581
 31
0.0
  0
LINE
  5
11DA
330
2
100
AcDbEntity
  8
0
100
AcDbLine
 10
717.4438017037489
 20
711.792902230858
 30
0.0
 11
707.4438017037489
 21
711.792902230858
 31
0.0
  0
LINE
  5
11DB
330
2
100
AcDbEntity
  8
0
100
AcDbLine
 10
717.4438017037489
 20
717.3929022308584
 30
0.0
 11
707.4438017037489
 21
717.3929022308584
 31
0.0
  0
LINE
  5
11DC
330
2
100
AcDbEntity
  8
0
100
AcDbLine
 10
717.4438017037489
 20
710.2929022308581
 30
0.0
 11
717.4438017037489
 21
717.3929022308584
 31
0.0
  0
LINE
  5
11DD
330
2
100
AcDbEntity
  8
0
100
AcDbLine
 10
707.4438017037489
 20
710.2929022308581
 30
0.0
 11
707.4438017037489
 21
717.3929022308584
 31
0.0
  0
LINE
  5
11DE
330
2
100
AcDbEntity
  8
0
100
AcDbLine
 10
707.4438017037489
 20
717.3929022308584
 30
0.0
 11
708.1366220267762
 21
717.7929022308581
 31
0.0
  0
LINE
  5
11DF
330
2
100
AcDbEntity
  8
0
100
AcDbLine
 10
716.7509813807217
 20
717.7929022308581
 30
0.0
 11
708.1366220267762
 21
717.7929022308581
 31
0.0
  0
LINE
  5
11E0
330
2
100
AcDbEntity
  8
0
100
AcDbLine
 10
415.5312294784605
 20
106.1160843481429
 30
0.0
 11
415.5312294784605
 21
141.3354207341944
 31
0.0
  0
LINE
  5
11E1
330
2
100
AcDbEntity
  8
0
100
AcDbLine
 10
415.5312294784605
 20
172.8967479620896
 30
0.0
 11
415.5312294784605
 21
208.1160843481429
 31
0.0
  0
LINE
  5
11E2
330
2
100
AcDbEntity
  8
CENTER
100
AcDbLine
 10
443.5312294784605
 20
96.36043664628411
 30
0.0
 11
443.5312294784605
 21
217.8717320500017
 31
0.0
  0
LINE
  5
11E3
330
2
100
AcDbEntity
  8
0
100
AcDbLine
 10
481.5312294784596
 20
106.6920576223328
 30
0.0
 11
481.5312294784596
 21
141.8902700811995
 31
0.0
  0
LINE
  5
11E4
330
2
100
AcDbEntity
  8
0
100
AcDbLine
 10
481.5312294784596
 20
172.3418986150845
 30
0.0
 11
481.5312294784596
 21
207.540111073953
 31
0.0
  0
LINE
  5
11E5
330
2
100
AcDbEntity
  8
CENTER
100
AcDbLine
 10
523.5312294784605
 20
157.1160843481429
 30
0.0
 11
377.5313364784603
 21
157.1160843481429
 31
0.0
  0
LINE
  5
11E6
330
2
100
AcDbEntity
  8
0
100
AcDbLine
 10
486.5312294784596
 20
112.1160843481429
 30
0.0
 11
486.5312294784578
 21
141.5697533746442
 31
0.0
  0
LINE
  5
11E7
330
2
100
AcDbEntity
  8
0
100
AcDbLine
 10
486.531229478455
 20
172.6624153216416
 30
0.0
 11
486.5312294784533
 21
202.1160843481429
 31
0.0
  0
LINE
  5
11E8
330
2
100
AcDbEntity
  8
0
100
AcDbLine
 10
481.5312294784596
 20
112.1160843481429
 30
0.0
 11
486.5312294784596
 21
112.1160843481429
 31
0.0
  0
LINE
  5
11E9
330
2
100
AcDbEntity
  8
0
100
AcDbLine
 10
481.5312294784596
 20
202.1160843481429
 30
0.0
 11
486.5312294784596
 21
202.1160843481429
 31
0.0
  0
LINE
  5
11EA
330
2
100
AcDbEntity
  8
0
100
AcDbLine
 10
415.5312294784605
 20
208.1160843481429
 30
0.0
 11
481.5312294784596
 21
207.540111073953
 31
0.0
  0
LINE
  5
11EB
330
2
100
AcDbEntity
  8
0
100
AcDbLine
 10
415.5312294784605
 20
106.1160843481429
 30
0.0
 11
481.5312294784596
 21
106.6920576223328
 31
0.0
  0
LINE
  5
11EC
330
2
100
AcDbEntity
  8
0
100
AcDbLine
 10
500.5312294784605
 20
189.184706798529
 30
0.0
 11
500.5312294784605
 21
174.115988133526
 31
0.0
  0
LINE
  5
11ED
330
2
100
AcDbEntity
  8
0
100
AcDbLine
 10
500.5312294784605
 20
140.1160801335263
 30
0.0
 11
500.5312294784614
 21
125.047461897755
 31
0.0
  0
LINE
  5
11EE
330
2
100
AcDbEntity
  8
0
100
AcDbLine
 10
488.4614304850563
 20
122.6945976796814
 30
0.0
 11
498.6010284718656
 21
123.0486802437171
 31
0.0
  0
LINE
  5
11EF
330
2
100
AcDbEntity
  8
0
100
AcDbLine
 10
488.4614304850563
 20
191.5375710166026
 30
0.0
 11
498.6010284718656
 21
191.1834884525669
 31
0.0
  0
ARC
  5
11F0
330
2
100
AcDbEntity
  8
0
100
AcDbCircle
 10
498.5312294784605
 20
189.184706798529
 30
0.0
 40
2.0
100
AcDbArc
 50
0.0
 51
87.99999999999636
  0
ARC
  5
11F1
330
2
100
AcDbEntity
  8
0
100
AcDbCircle
 10
488.5312294784605
 20
193.5363526706405
 30
0.0
 40
2.0
100
AcDbArc
 50
180.0
 51
267.9999999999963
  0
ARC
  5
11F2
330
2
100
AcDbEntity
  8
0
100
AcDbCircle
 10
498.5312294784614
 20
125.047461897755
 30
0.0
 40
2.0
100
AcDbArc
 50
272.0000000000036
 51
0.0
  0
ARC
  5
11F3
330
2
100
AcDbEntity
  8
0
100
AcDbCircle
 10
488.5312294784605
 20
120.6958160256417
 30
0.0
 40
2.0
100
AcDbArc
 50
92.00000000000365
 51
180.0
  0
LINE
  5
11F4
330
2
100
AcDbEntity
  8
0
100
AcDbLine
 10
415.5312294784605
 20
197.1160843481393
 30
0.0
 11
480.5312294784596
 21
197.1160843481393
 31
0.0
  0
LINE
  5
11F5
330
2
100
AcDbEntity
  8
0
100
AcDbLine
 10
415.5312294784605
 20
200.1160843481411
 30
0.0
 11
480.5312294784596
 21
200.1160843481411
 31
0.0
  0
LINE
  5
11F6
330
2
100
AcDbEntity
  8
0
100
AcDbLine
 10
415.5312294784605
 20
197.1160843481393
 30
0.0
 11
480.5312294784596
 21
197.1160843481393
 31
0.0
  0
LINE
  5
11F7
330
2
100
AcDbEntity
  8
0
100
AcDbLine
 10
415.5312294784605
 20
177.6561835253123
 30
0.0
 11
480.5312294784596
 21
177.6561835253123
 31
0.0
  0
LINE
  5
11F8
330
2
100
AcDbEntity
  8
0
100
AcDbLine
 10
415.5312294784605
 20
117.1160843481411
 30
0.0
 11
480.5312294784596
 21
117.1160843481411
 31
0.0
  0
LINE
  5
11F9
330
2
100
AcDbEntity
  8
0
100
AcDbLine
 10
415.5312294784605
 20
114.1160843481429
 30
0.0
 11
480.5312294784596
 21
114.1160843481429
 31
0.0
  0
LINE
  5
11FA
330
2
100
AcDbEntity
  8
0
100
AcDbLine
 10
415.5312294784605
 20
117.1160843481411
 30
0.0
 11
480.5312294784596
 21
117.1160843481411
 31
0.0
  0
LINE
  5
11FB
330
2
100
AcDbEntity
  8
0
100
AcDbLine
 10
415.5312294784605
 20
136.5759851709717
 30
0.0
 11
480.5312294784596
 21
136.5759851709717
 31
0.0
  0
LINE
  5
11FC
330
2
100
AcDbEntity
  8
0
100
AcDbLine
 10
389.5312294784551
 20
124.6934346173347
 30
0.0
 11
389.5312294784551
 21
140.1160801335263
 31
0.0
  0
LINE
  5
11FD
330
2
100
AcDbEntity
  8
0
100
AcDbLine
 10
389.5312294784551
 20
174.1160801335263
 30
0.0
 11
389.5312294784551
 21
189.5387340789529
 31
0.0
  0
LINE
  5
11FE
330
2
100
AcDbEntity
  8
0
100
AcDbLine
 10
390.531229478455
 20
131.1160843481429
 30
0.0
 11
390.531229478455
 21
140.1160801335263
 31
0.0
  0
LINE
  5
11FF
330
2
100
AcDbEntity
  8
0
100
AcDbLine
 10
390.531229478455
 20
174.1160801335263
 30
0.0
 11
390.531229478455
 21
183.1160843481429
 31
0.0
  0
LINE
  5
1200
330
2
100
AcDbEntity
  8
0
100
AcDbLine
 10
398.531229478455
 20
184.0113406618674
 30
0.0
 11
398.531229478455
 21
174.1160801335263
 31
0.0
  0
LINE
  5
1201
330
2
100
AcDbEntity
  8
0
100
AcDbLine
 10
398.531229478455
 20
140.1160801335263
 30
0.0
 11
398.531229478455
 21
130.2208280344184
 31
0.0
  0
LINE
  5
1202
330
2
100
AcDbEntity
  8
0
100
AcDbLine
 10
399.4454430408284
 20
197.5302979105144
 30
0.0
 11
398.6170159160826
 21
196.7018707857696
 31
0.0
  0
LINE
  5
1203
330
2
100
AcDbEntity
  8
0
100
AcDbLine
 10
400.0312294784523
 20
108.2339732200907
 30
0.0
 11
400.0312294784523
 21
130.741916588684
 31
0.0
  0
LINE
  5
1204
330
2
100
AcDbEntity
  8
0
100
AcDbLine
 10
400.0312294784541
 20
183.4902521075982
 30
0.0
 11
400.031229478455
 21
205.9981954761951
 31
0.0
  0
ARC
  5
1205
330
2
100
AcDbEntity
  8
0
100
AcDbCircle
 10
402.0312294784523
 20
108.2339732200907
 30
0.0
 40
2.0
100
AcDbArc
 50
180.0
 51
269.5000000000084
  0
ARC
  5
1206
330
2
100
AcDbEntity
  8
0
100
AcDbCircle
 10
402.0312294784523
 20
123.1685217116591
 30
0.0
 40
2.0
100
AcDbArc
 50
180.0
 51
269.5000000000084
  0
LINE
  5
1207
330
2
100
AcDbEntity
  8
0
100
AcDbLine
 10
398.531229478455
 20
183.1160843481429
 30
0.0
 11
390.531229478455
 21
183.1160843481429
 31
0.0
  0
LINE
  5
1208
330
2
100
AcDbEntity
  8
0
100
AcDbLine
 10
394.0312294784551
 20
189.9160843481422
 30
0.0
 11
394.2312294784549
 21
190.1160843481429
 31
0.0
  0
LINE
  5
1209
330
2
100
AcDbEntity
  8
0
100
AcDbLine
 10
397.5312294784551
 20
192.1160843481429
 30
0.0
 11
398.0312294784551
 21
192.6160843481429
 31
0.0
  0
LINE
  5
120A
330
2
100
AcDbEntity
  8
0
100
AcDbLine
 10
398.0312294784559
 20
195.2876572233962
 30
0.0
 11
398.0312294784551
 21
192.6160843481429
 31
0.0
  0
LINE
  5
120B
330
2
100
AcDbEntity
  8
0
100
AcDbLine
 10
394.2312294784549
 20
190.1160843481429
 30
0.0
 11
397.5312294784551
 21
190.1160843481429
 31
0.0
  0
LINE
  5
120C
330
2
100
AcDbEntity
  8
0
100
AcDbLine
 10
399.6215321719353
 20
184.0398912426844
 30
0.0
 11
398.531229478455
 21
184.0113406618674
 31
0.0
  0
LINE
  5
120D
330
2
100
AcDbEntity
  8
0
100
AcDbLine
 10
390.531229478455
 20
190.1160843481429
 30
0.0
 11
389.5312294784551
 21
189.5387340789529
 31
0.0
  0
LINE
  5
120E
330
2
100
AcDbEntity
  8
0
100
AcDbLine
 10
390.531229478455
 20
190.1160843481429
 30
0.0
 11
391.8312294784552
 21
190.1160843481429
 31
0.0
  0
LINE
  5
120F
330
2
100
AcDbEntity
  8
0
100
AcDbLine
 10
392.2312294784548
 20
189.4160843481422
 30
0.0
 11
393.8312294784552
 21
189.4160843481422
 31
0.0
  0
LINE
  5
1210
330
2
100
AcDbEntity
  8
0
100
AcDbLine
 10
390.531229478455
 20
183.1160843481429
 30
0.0
 11
389.5312294784551
 21
183.6934346173329
 31
0.0
  0
LINE
  5
1211
330
2
100
AcDbEntity
  8
0
100
AcDbLine
 10
415.5312294784632
 20
106.1160843481429
 30
0.0
 11
402.0137764074559
 21
106.2340493739611
 31
0.0
  0
ARC
  5
1212
330
2
100
AcDbEntity
  8
0
100
AcDbCircle
 10
409.0312294785315
 20
107.1728470671677
 30
0.0
 40
1.0
100
AcDbArc
 50
180.0
 51
269.5000000000084
  0
LINE
  5
1213
330
2
100
AcDbEntity
  8
0
100
AcDbLine
 10
399.4454430408284
 20
116.7018707857696
 30
0.0
 11
398.6170159160881
 21
117.530297910509
 31
0.0
  0
LINE
  5
1214
330
2
100
AcDbEntity
  8
0
100
AcDbLine
 10
398.531229478455
 20
131.1160843481429
 30
0.0
 11
390.531229478455
 21
131.1160843481429
 31
0.0
  0
LINE
  5
1215
330
2
100
AcDbEntity
  8
0
100
AcDbLine
 10
397.5312294784605
 20
122.1160843481429
 30
0.0
 11
397.5312294784596
 21
129.3138984067627
 31
0.0
  0
LINE
  5
1216
330
2
100
AcDbEntity
  8
0
100
AcDbLine
 10
397.5312294784523
 20
184.9182702895213
 30
0.0
 11
397.5312294784523
 21
192.1160843481393
 31
0.0
  0
LINE
  5
1217
330
2
100
AcDbEntity
  8
0
100
AcDbLine
 10
394.0312294784596
 20
124.3160843481418
 30
0.0
 11
394.0312294784596
 21
129.3617872986432
 31
0.0
  0
LINE
  5
1218
330
2
100
AcDbEntity
  8
0
100
AcDbLine
 10
394.0312294784596
 20
184.8703813976407
 30
0.0
 11
394.0312294784596
 21
189.9160843481476
 31
0.0
  0
LINE
  5
1219
330
2
100
AcDbEntity
  8
0
100
AcDbLine
 10
394.0312294784596
 20
124.3160843481418
 30
0.0
 11
394.2312294784603
 21
124.1160843481429
 31
0.0
  0
LINE
  5
121A
330
2
100
AcDbEntity
  8
0
100
AcDbLine
 10
394.2312294784603
 20
124.1160843481429
 30
0.0
 11
397.5312294784605
 21
124.1160843481429
 31
0.0
  0
LINE
  5
121B
330
2
100
AcDbEntity
  8
0
100
AcDbLine
 10
397.5312294784605
 20
122.1160843481429
 30
0.0
 11
398.0312294784605
 21
121.6160843481429
 31
0.0
  0
LINE
  5
121C
330
2
100
AcDbEntity
  8
0
100
AcDbLine
 10
398.0312294784614
 20
118.9445114728823
 30
0.0
 11
398.0312294784605
 21
129.3681280373366
 31
0.0
  0
LINE
  5
121D
330
2
100
AcDbEntity
  8
0
100
AcDbLine
 10
398.0312294784559
 20
184.8640406589492
 30
0.0
 11
398.0312294784551
 21
192.6160843481429
 31
0.0
  0
LINE
  5
121E
330
2
100
AcDbEntity
  8
0
100
AcDbLine
 10
390.531229478455
 20
131.1160843481429
 30
0.0
 11
389.5312294784551
 21
130.5387340789547
 31
0.0
  0
LINE
  5
121F
330
2
100
AcDbEntity
  8
0
100
AcDbLine
 10
390.5312294784605
 20
124.1160843481411
 30
0.0
 11
389.5312294784596
 21
124.6934346173311
 31
0.0
  0
LINE
  5
1220
330
2
100
AcDbEntity
  8
0
100
AcDbLine
 10
392.0312294784596
 20
124.3160843481418
 30
0.0
 11
392.0312294784596
 21
129.2420884126258
 31
0.0
  0
LINE
  5
1221
330
2
100
AcDbEntity
  8
0
100
AcDbLine
 10
392.0312294784596
 20
184.9900802836582
 30
0.0
 11
392.0312294784596
 21
189.9160843481422
 31
0.0
  0
LINE
  5
1222
330
2
100
AcDbEntity
  8
0
100
AcDbLine
 10
390.5312294784596
 20
124.1160843481411
 30
0.0
 11
391.8312294784598
 21
124.1160843481429
 31
0.0
  0
LINE
  5
1223
330
2
100
AcDbEntity
  8
0
100
AcDbLine
 10
392.2312294784603
 20
124.8160843481418
 30
0.0
 11
393.8312294784598
 21
124.8160843481418
 31
0.0
  0
LINE
  5
1224
330
2
100
AcDbEntity
  8
0
100
AcDbLine
 10
399.6215321719344
 20
130.1922774535996
 30
0.0
 11
398.531229478455
 21
130.2208280344184
 31
0.0
  0
ARC
  5
1225
330
2
100
AcDbEntity
  8
0
100
AcDbCircle
 10
400.0312294784614
 20
118.9445114728823
 30
0.0
 40
2.0
100
AcDbArc
 50
180.0
 51
225.0000000000187
  0
ARC
  5
1226
330
2
100
AcDbEntity
  8
0
100
AcDbCircle
 10
398.0312294784551
 20
115.2876572233962
 30
0.0
 40
2.0
100
AcDbArc
 50
0.0
 51
45.00000000001871
  0
ARC
  5
1227
330
2
100
AcDbEntity
  8
0
100
AcDbCircle
 10
400.031229478456
 20
195.2876572233962
 30
0.0
 40
2.0
100
AcDbArc
 50
134.9999999999812
 51
180.0
  0
ARC
  5
1228
330
2
100
AcDbEntity
  8
0
100
AcDbCircle
 10
398.0312294784551
 20
198.9445114728878
 30
0.0
 40
2.0
100
AcDbArc
 50
314.9999999999812
 51
0.0
  0
ARC
  5
1229
330
2
100
AcDbEntity
  8
0
100
AcDbCircle
 10
391.8312294784598
 20
124.3160843481418
 30
0.0
 40
0.2
100
AcDbArc
 50
270.000000000026
 51
0.0
  0
ARC
  5
122A
330
2
100
AcDbEntity
  8
0
100
AcDbCircle
 10
392.2312294784603
 20
124.6160843481411
 30
0.0
 40
0.2
100
AcDbArc
 50
90.00000000002605
 51
180.0
  0
ARC
  5
122B
330
2
100
AcDbEntity
  8
0
100
AcDbCircle
 10
393.8312294784598
 20
124.6160843481429
 30
0.0
 40
0.2
100
AcDbArc
 50
0.0
 51
90.00000000002605
  0
ARC
  5
122C
330
2
100
AcDbEntity
  8
0
100
AcDbCircle
 10
391.8312294784552
 20
189.9160843481422
 30
0.0
 40
0.2
100
AcDbArc
 50
0.0
 51
90.0
  0
ARC
  5
122D
330
2
100
AcDbEntity
  8
0
100
AcDbCircle
 10
392.2312294784548
 20
189.6160843481429
 30
0.0
 40
0.2
100
AcDbArc
 50
180.0
 51
270.0
  0
ARC
  5
122E
330
2
100
AcDbEntity
  8
0
100
AcDbCircle
 10
393.8312294784552
 20
189.6160843481429
 30
0.0
 40
0.2
100
AcDbArc
 50
270.0
 51
0.0
  0
LINE
  5
122F
330
2
100
AcDbEntity
  8
0
100
AcDbLine
 10
390.5312294784605
 20
124.1160843481411
 30
0.0
 11
390.5312294784596
 21
128.887352103311
 31
0.0
  0
LINE
  5
1230
330
2
100
AcDbEntity
  8
0
100
AcDbLine
 10
390.531229478455
 20
185.3448165929766
 30
0.0
 11
390.531229478455
 21
190.1160843481429
 31
0.0
  0
LINE
  5
1231
330
2
100
AcDbEntity
  8
0
100
AcDbLine
 10
394.2312294784603
 20
124.1160843481429
 30
0.0
 11
394.2312294784594
 21
129.3622780586046
 31
0.0
  0
LINE
  5
1232
330
2
100
AcDbEntity
  8
0
100
AcDbLine
 10
394.2312294784558
 20
184.8698906376793
 30
0.0
 11
394.2312294784549
 21
190.1160843481429
 31
0.0
  0
LINE
  5
1233
330
2
100
AcDbEntity
  8
0
100
AcDbLine
 10
407.0399560140292
 20
121.1247350606117
 30
0.0
 11
402.0137764074559
 21
121.1685978655313
 31
0.0
  0
LINE
  5
1234
330
2
100
AcDbEntity
  8
0
100
AcDbLine
 10
408.0312294785314
 20
107.1728470671677
 30
0.0
 11
408.0312294785314
 21
120.1247731375478
 31
0.0
  0
ARC
  5
1235
330
2
100
AcDbEntity
  8
0
100
AcDbCircle
 10
407.0312294785314
 20
120.1247731375478
 30
0.0
 40
1.0
100
AcDbArc
 50
0.0
 51
89.5000000000345
  0
ARC
  5
1236
330
2
100
AcDbEntity
  8
0
100
AcDbCircle
 10
402.0312294784523
 20
205.9981954761951
 30
0.0
 40
2.0
100
AcDbArc
 50
90.49999999999155
 51
180.0
  0
ARC
  5
1237
330
2
100
AcDbEntity
  8
0
100
AcDbCircle
 10
402.0312294784523
 20
191.0636469846249
 30
0.0
 40
2.0
100
AcDbArc
 50
90.49999999999155
 51
180.0
  0
LINE
  5
1238
330
2
100
AcDbEntity
  8
0
100
AcDbLine
 10
415.5312294784632
 20
208.1160843481411
 30
0.0
 11
402.0137764074559
 21
207.9981193223229
 31
0.0
  0
ARC
  5
1239
330
2
100
AcDbEntity
  8
0
100
AcDbCircle
 10
409.0312294785315
 20
207.0593216291162
 30
0.0
 40
1.0
100
AcDbArc
 50
90.49999999999155
 51
180.0
  0
LINE
  5
123A
330
2
100
AcDbEntity
  8
0
100
AcDbLine
 10
407.0399560140292
 20
193.1074336356723
 30
0.0
 11
402.0137764074559
 21
193.0635708307526
 31
0.0
  0
LINE
  5
123B
330
2
100
AcDbEntity
  8
0
100
AcDbLine
 10
408.0312294785314
 20
207.0593216291162
 30
0.0
 11
408.0312294785314
 21
194.1073955587362
 31
0.0
  0
ARC
  5
123C
330
2
100
AcDbEntity
  8
0
100
AcDbCircle
 10
407.0312294785314
 20
194.1073955587362
 30
0.0
 40
1.0
100
AcDbArc
 50
270.4999999999654
 51
0.0
  0
LINE
  5
123D
330
2
100
AcDbEntity
  8
CENTER
  6
CENS
100
AcDbLine
 10
423.4396255901508
 20
200.1160843481429
 30
0.0
 11
397.5312294785305
 21
200.1160843481429
 31
0.0
  0
LINE
  5
123E
330
2
100
AcDbEntity
  8
0
100
AcDbLine
 10
400.9312294785311
 20
205.1160843481429
 30
0.0
 11
400.5312294785315
 21
204.4232640251157
 31
0.0
  0
LINE
  5
123F
330
2
100
AcDbEntity
  8
0
100
AcDbLine
 10
406.5312294785305
 20
205.1160843481429
 30
0.0
 11
406.5312294785305
 21
195.1160843481429
 31
0.0
  0
LINE
  5
1240
330
2
100
AcDbEntity
  8
0
100
AcDbLine
 10
400.9312294785311
 20
205.1160843481429
 30
0.0
 11
400.9312294785311
 21
195.1160843481429
 31
0.0
  0
LINE
  5
1241
330
2
100
AcDbEntity
  8
0
100
AcDbLine
 10
408.0312294785314
 20
205.1160843481429
 30
0.0
 11
400.9312294785311
 21
205.1160843481429
 31
0.0
  0
LINE
  5
1242
330
2
100
AcDbEntity
  8
0
100
AcDbLine
 10
408.0312294785314
 20
195.1160843481429
 30
0.0
 11
400.9312294785311
 21
195.1160843481429
 31
0.0
  0
LINE
  5
1243
330
2
100
AcDbEntity
  8
0
100
AcDbLine
 10
400.9312294785311
 20
195.1160843481429
 30
0.0
 11
400.5312294785315
 21
195.8089046711702
 31
0.0
  0
LINE
  5
1244
330
2
100
AcDbEntity
  8
0
100
AcDbLine
 10
400.5312294785315
 20
204.4232640251157
 30
0.0
 11
400.5312294785315
 21
195.8089046711702
 31
0.0
  0
LINE
  5
1245
330
2
100
AcDbEntity
  8
CENTER
  6
CENS
100
AcDbLine
 10
423.4396255901508
 20
114.1160843481429
 30
0.0
 11
397.5312294785305
 21
114.1160843481429
 31
0.0
  0
LINE
  5
1246
330
2
100
AcDbEntity
  8
0
100
AcDbLine
 10
400.9312294785311
 20
109.1160843481429
 30
0.0
 11
400.5312294785315
 21
109.8089046711702
 31
0.0
  0
LINE
  5
1247
330
2
100
AcDbEntity
  8
0
100
AcDbLine
 10
406.5312294785305
 20
109.1160843481429
 30
0.0
 11
406.5312294785305
 21
119.1160843481429
 31
0.0
  0
LINE
  5
1248
330
2
100
AcDbEntity
  8
0
100
AcDbLine
 10
400.9312294785311
 20
109.1160843481429
 30
0.0
 11
400.9312294785311
 21
119.1160843481429
 31
0.0
  0
LINE
  5
1249
330
2
100
AcDbEntity
  8
0
100
AcDbLine
 10
408.0312294785314
 20
109.1160843481429
 30
0.0
 11
400.9312294785311
 21
109.1160843481429
 31
0.0
  0
LINE
  5
124A
330
2
100
AcDbEntity
  8
0
100
AcDbLine
 10
408.0312294785314
 20
119.1160843481429
 30
0.0
 11
400.9312294785311
 21
119.1160843481429
 31
0.0
  0
LINE
  5
124B
330
2
100
AcDbEntity
  8
0
100
AcDbLine
 10
400.9312294785311
 20
119.1160843481429
 30
0.0
 11
400.5312294785315
 21
118.4232640251156
 31
0.0
  0
LINE
  5
124C
330
2
100
AcDbEntity
  8
0
100
AcDbLine
 10
400.5312294785315
 20
109.8089046711702
 30
0.0
 11
400.5312294785315
 21
118.4232640251156
 31
0.0
  0
LINE
  5
124D
330
2
100
AcDbEntity
  8
CENTER
  6
CENS
100
AcDbLine
 10
505.5312294785506
 20
163.3149435428949
 30
0.0
 11
505.5312294785506
 21
181.7171277241559
 31
0.0
  0
LINE
  5
124E
330
2
100
AcDbEntity
  8
0
100
AcDbLine
 10
480.5312294784605
 20
168.6160801335263
 30
0.0
 11
412.5313214784608
 21
168.6160801335263
 31
0.0
  0
LINE
  5
124F
330
2
100
AcDbEntity
  8
0
100
AcDbLine
 10
412.5313214784608
 20
168.1160801335263
 30
0.0
 11
401.5313364784604
 21
168.1160801335263
 31
0.0
  0
LINE
  5
1250
330
2
100
AcDbEntity
  8
0
100
AcDbLine
 10
401.2558495256168
 20
174.1160801335263
 30
0.0
 11
387.5313364784604
 21
174.1160801335263
 31
0.0
  0
LINE
  5
1251
330
2
100
AcDbEntity
  8
0
100
AcDbLine
 10
400.3812384784612
 20
168.1160801335263
 30
0.0
 11
389.5313364784604
 21
168.1160801335263
 31
0.0
  0
LINE
  5
1252
330
2
100
AcDbEntity
  8
0
100
AcDbLine
 10
401.5313364784604
 20
168.6160801335263
 30
0.0
 11
400.3812384784612
 21
168.6160801335263
 31
0.0
  0
LINE
  5
1253
330
2
100
AcDbEntity
  8
0
100
AcDbLine
 10
389.5313364784604
 20
168.1160801335263
 30
0.0
 11
387.5313364784604
 21
169.270682133525
 31
0.0
  0
LINE
  5
1254
330
2
100
AcDbEntity
  8
0
100
AcDbLine
 10
401.2558451074262
 20
140.1160801335263
 30
0.0
 11
387.5313364784604
 21
140.1160801335263
 31
0.0
  0
LINE
  5
1255
330
2
100
AcDbEntity
  8
0
100
AcDbLine
 10
400.3812384784612
 20
146.1160801335263
 30
0.0
 11
389.5313364784604
 21
146.1160801335263
 31
0.0
  0
LINE
  5
1256
330
2
100
AcDbEntity
  8
0
100
AcDbLine
 10
401.5313364784604
 20
145.6160801335263
 30
0.0
 11
400.3812384784612
 21
145.6160801335263
 31
0.0
  0
LINE
  5
1257
330
2
100
AcDbEntity
  8
0
100
AcDbLine
 10
389.5313364784604
 20
146.1160801335263
 30
0.0
 11
387.5313364784604
 21
144.9614781335258
 31
0.0
  0
LINE
  5
1258
330
2
100
AcDbEntity
  8
0
100
AcDbLine
 10
412.5313214784608
 20
168.6160801335263
 30
0.0
 11
412.5313214784608
 21
145.6160812195884
 31
0.0
  0
LINE
  5
1259
330
2
100
AcDbEntity
  8
0
100
AcDbLine
 10
387.5313364784604
 20
174.1160801335263
 30
0.0
 11
387.5313364784604
 21
140.1160801335263
 31
0.0
  0
LINE
  5
125A
330
2
100
AcDbEntity
  8
0
100
AcDbLine
 10
389.5313364784604
 20
146.1160801335263
 30
0.0
 11
389.5313364784604
 21
168.1160801335263
 31
0.0
  0
LINE
  5
125B
330
2
100
AcDbEntity
  8
0
100
AcDbLine
 10
401.5313364784604
 20
145.6160801335263
 30
0.0
 11
401.5313364784604
 21
168.6160801335263
 31
0.0
  0
LINE
  5
125C
330
2
100
AcDbEntity
  8
0
100
AcDbLine
 10
400.3812384784612
 20
145.6160801335263
 30
0.0
 11
400.3812384784612
 21
168.6160801335263
 31
0.0
  0
LINE
  5
125D
330
2
100
AcDbEntity
  8
0
100
AcDbLine
 10
513.5312294784605
 20
170.9160831335247
 30
0.0
 11
387.5313364784604
 21
170.9160831335247
 31
0.0
  0
LINE
  5
125E
330
2
100
AcDbEntity
  8
0
100
AcDbLine
 10
509.0311824920798
 20
145.6160950011926
 30
0.0
 11
502.0311824921316
 21
145.6161236952593
 31
0.0
  0
LINE
  5
125F
330
2
100
AcDbEntity
  8
0
100
AcDbLine
 10
513.5312294784605
 20
140.1160801335263
 30
0.0
 11
490.2231000115569
 21
140.1160801335263
 31
0.0
  0
LINE
  5
1260
330
2
100
AcDbEntity
  8
0
100
AcDbLine
 10
493.5312759096157
 20
145.6160801335263
 30
0.0
 11
493.5313670472849
 21
168.6160801335263
 31
0.0
  0
LINE
  5
1261
330
2
100
AcDbEntity
  8
0
100
AcDbLine
 10
494.6812819096065
 20
145.6160752913801
 30
0.0
 11
494.6813730472947
 21
168.6160801335263
 31
0.0
  0
LINE
  5
1262
330
2
100
AcDbEntity
  8
0
100
AcDbLine
 10
502.0311824921316
 20
145.6161236952593
 30
0.0
 11
502.0312764647576
 21
168.6160091335259
 31
0.0
  0
LINE
  5
1263
330
2
100
AcDbEntity
  8
0
100
AcDbLine
 10
480.5312294784605
 20
145.6160872979198
 30
0.0
 11
480.5312294784614
 21
168.6160801335263
 31
0.0
  0
LINE
  5
1264
330
2
100
AcDbEntity
  8
0
100
AcDbLine
 10
480.5312294784605
 20
146.1160072760358
 30
0.0
 11
493.5312766439899
 21
146.1160849757506
 31
0.0
  0
LINE
  5
1265
330
2
100
AcDbEntity
  8
0
100
AcDbLine
 10
502.0311846439324
 20
146.1160526952553
 30
0.0
 11
494.6812826439816
 21
146.1160801336063
 31
0.0
  0
LINE
  5
1266
330
2
100
AcDbEntity
  8
0
100
AcDbLine
 10
494.6812826440143
 20
146.1160893467167
 30
0.0
 11
494.9079901901647
 21
146.1160900807353
 31
0.0
  0
LINE
  5
1267
330
2
100
AcDbEntity
  8
0
100
AcDbLine
 10
494.6812819096065
 20
145.6160752913801
 30
0.0
 11
493.5312759096157
 21
145.6160801335263
 31
0.0
  0
LINE
  5
1268
330
2
100
AcDbEntity
  8
0
100
AcDbLine
 10
509.0312764648222
 20
168.6160091335259
 30
0.0
 11
502.0312294784605
 21
168.6160091335259
 31
0.0
  0
LINE
  5
1269
330
2
100
AcDbEntity
  8
0
100
AcDbLine
 10
513.5312294784605
 20
174.115988133526
 30
0.0
 11
490.2230662031031
 21
174.115988133526
 31
0.0
  0
LINE
  5
126A
330
2
100
AcDbEntity
  8
0
100
AcDbLine
 10
493.5313214784607
 20
168.1160801335263
 30
0.0
 11
480.5312294784605
 21
168.1160801335263
 31
0.0
  0
LINE
  5
126B
330
2
100
AcDbEntity
  8
0
100
AcDbLine
 10
502.0312294784605
 20
168.1160801335263
 30
0.0
 11
494.6813274784606
 21
168.1160801335263
 31
0.0
  0
LINE
  5
126C
330
2
100
AcDbEntity
  8
0
  6
CONTINUOUS
 62
     7
100
AcDbLine
 10
503.5312294791618
 20
170.9160831335247
 30
0.0
 11
503.5312294791618
 21
174.1160951335259
 31
0.0
  0
LINE
  5
126D
330
2
100
AcDbEntity
  8
0
  6
CONTINUOUS
 62
     4
100
AcDbLine
 10
503.0312294791618
 20
170.9160831335247
 30
0.0
 11
503.0312294791618
 21
174.1160951335259
 31
0.0
  0
LINE
  5
126E
330
2
100
AcDbEntity
  8
0
100
AcDbLine
 10
494.6813730472947
 20
168.6160801335263
 30
0.0
 11
493.5313214784607
 21
168.6160801335263
 31
0.0
  0
LINE
  5
126F
330
2
100
AcDbEntity
  8
0
100
AcDbLine
 10
513.5312294784605
 20
174.115988133526
 30
0.0
 11
513.5312294784605
 21
140.1160801335263
 31
0.0
  0
LINE
  5
1270
330
2
100
AcDbEntity
  8
0
100
AcDbLine
 10
511.5312294784605
 20
168.1160801335263
 30
0.0
 11
513.5312294784605
 21
169.270682133525
 31
0.0
  0
LINE
  5
1271
330
2
100
AcDbEntity
  8
0
100
AcDbLine
 10
511.5312294784605
 20
168.1160801335263
 30
0.0
 11
509.0312294784596
 21
168.1160801335263
 31
0.0
  0
LINE
  5
1272
330
2
100
AcDbEntity
  8
0
  6
CONTINUOUS
 62
     4
100
AcDbLine
 10
508.0312294784596
 20
170.9160831335247
 30
0.0
 11
508.0312294784605
 21
174.1160951335259
 31
0.0
  0
LINE
  5
1273
330
2
100
AcDbEntity
  8
0
  6
CONTINUOUS
 62
     7
100
AcDbLine
 10
507.5312294784605
 20
170.9160831335247
 30
0.0
 11
507.5312294784605
 21
174.1160951335259
 31
0.0
  0
LINE
  5
1274
330
2
100
AcDbEntity
  8
0
100
AcDbLine
 10
509.0312764648222
 20
168.6160091335259
 30
0.0
 11
509.0311824920798
 21
145.6160950011926
 31
0.0
  0
LINE
  5
1275
330
2
100
AcDbEntity
  8
0
100
AcDbLine
 10
511.5311846438287
 20
146.1159953071218
 30
0.0
 11
511.5312743132379
 21
168.1161060166885
 31
0.0
  0
LINE
  5
1276
330
2
100
AcDbEntity
  8
0
100
AcDbLine
 10
511.5311846438287
 20
146.1159953071218
 30
0.0
 11
513.5311805025374
 21
144.9613861336128
 31
0.0
  0
LINE
  5
1277
330
2
100
AcDbEntity
  8
0
100
AcDbLine
 10
511.5311846438287
 20
146.1159953071218
 30
0.0
 11
509.0311846438805
 21
146.1160240011886
 31
0.0
  0
LINE
  5
1278
330
2
100
AcDbEntity
  8
0
100
AcDbLine
 10
412.5313214784608
 20
146.1160801335263
 30
0.0
 11
401.5313364784604
 21
146.1160801335263
 31
0.0
  0
LINE
  5
1279
330
2
100
AcDbEntity
  8
0
100
AcDbLine
 10
480.5312294784605
 20
145.6160872979198
 30
0.0
 11
412.5313214784608
 21
145.6160812195884
 31
0.0
  0
LINE
  5
127A
330
2
100
AcDbEntity
  8
0
100
AcDbLine
 10
499.5312294784605
 20
131.1160843481429
 30
0.0
 11
499.5312294784605
 21
140.1160801335263
 31
0.0
  0
LINE
  5
127B
330
2
100
AcDbEntity
  8
0
100
AcDbLine
 10
499.5312294784614
 20
174.115988133526
 30
0.0
 11
499.5312294784614
 21
183.1160843481429
 31
0.0
  0
LINE
  5
127C
330
2
100
AcDbEntity
  8
0
100
AcDbLine
 10
491.5312294784605
 20
183.8804110540204
 30
0.0
 11
491.5312294784605
 21
174.115988133526
 31
0.0
  0
LINE
  5
127D
330
2
100
AcDbEntity
  8
0
100
AcDbLine
 10
491.5312294784605
 20
140.1160801335263
 30
0.0
 11
491.5312294784605
 21
130.3517576422654
 31
0.0
  0
LINE
  5
127E
330
2
100
AcDbEntity
  8
0
100
AcDbLine
 10
491.5312294784605
 20
131.1160843481429
 30
0.0
 11
499.5312294784605
 21
131.1160843481429
 31
0.0
  0
LINE
  5
127F
330
2
100
AcDbEntity
  8
0
100
AcDbLine
 10
499.5312294784605
 20
131.1160843481429
 30
0.0
 11
500.5312294784605
 21
130.5387340789529
 31
0.0
  0
LINE
  5
1280
330
2
100
AcDbEntity
  8
0
100
AcDbLine
 10
491.0515201918294
 20
130.3391960125099
 30
0.0
 11
491.5312294784605
 21
130.3517576422654
 31
0.0
  0
LINE
  5
1281
330
2
100
AcDbEntity
  8
0
100
AcDbLine
 10
491.5312294784605
 20
183.1160843481411
 30
0.0
 11
499.5312294784614
 21
183.1160843481411
 31
0.0
  0
LINE
  5
1282
330
2
100
AcDbEntity
  8
0
100
AcDbLine
 10
499.5312294784605
 20
183.1160843481411
 30
0.0
 11
500.5312294784605
 21
183.6934346173311
 31
0.0
  0
LINE
  5
1283
330
2
100
AcDbEntity
  8
0
100
AcDbLine
 10
491.0515201918303
 20
183.8929726837759
 30
0.0
 11
491.5312294784614
 21
183.8804110540204
 31
0.0
  0
SPLINE
  5
1284
330
2
100
AcDbEntity
  8
HOJO
100
AcDbSpline
210
0.0
220
0.0
230
1.0
 70
     8
 71
     3
 72
    31
 73
    27
 74
     0
 42
0.0000000001
 43
0.0000000001
 40
1.006090418120999
 40
1.006090418120999
 40
1.006090418120999
 40
1.006090418120999
 40
2.214208887200965
 40
4.372114611977804
 40
7.908539174416501
 40
10.6869955506748
 40
13.51956819365521
 40
17.06216826888282
 40
20.99280379806764
 40
23.41299456382895
 40
30.91999047333559
 40
38.68894682021132
 40
50.81685278160026
 40
58.48584632197308
 40
70.31156128461208
 40
79.0586932432537
 40
89.49338633998356
 40
97.17441191234248
 40
107.8778879181509
 40
111.3472347353728
 40
114.8898348106004
 40
118.0447231005161
 40
122.3359256316152
 40
127.2105747731371
 40
132.3338294909638
 40
132.415244059103
 40
132.415244059103
 40
132.415244059103
 40
132.415244059103
 10
389.5312294784551
 20
185.8164896761554
 30
0.0
 10
389.8845728954963
 20
185.6208227030074
 30
0.0
 10
390.8907181636957
 20
185.1298147964407
 30
0.0
 10
393.2264258704369
 20
184.8038733914217
 30
0.0
 10
395.9468534008381
 20
184.9158065864248
 30
0.0
 10
399.3088386700307
 20
185.0023209015834
 30
0.0
 10
400.9687487789813
 20
181.9208745489231
 30
0.0
 10
400.9094047438281
 20
178.5272802205654
 30
0.0
 10
400.4320287160751
 20
175.1477618511598
 30
0.0
 10
403.3994449118515
 20
170.8418277757536
 30
0.0
 10
410.243157077645
 20
174.962998083587
 30
0.0
 10
418.8799081889299
 20
171.143411294226
 30
0.0
 10
428.2334190718618
 20
174.1760823274071
 30
0.0
 10
438.6885887171936
 20
171.8086040874659
 30
0.0
 10
448.126478709865
 20
174.7934245792148
 30
0.0
 10
458.2962099658177
 20
171.1750424833335
 30
0.0
 10
467.2074373585007
 20
174.1000721865766
 30
0.0
 10
476.9062401471435
 20
171.5493298957153
 30
0.0
 10
483.4690826546728
 20
172.7070596756857
 30
0.0
 10
490.6029743184715
 20
172.7032773290283
 30
0.0
 10
490.40277046213
 20
177.0991165384584
 30
0.0
 10
489.7563828441186
 20
180.3620024946976
 30
0.0
 10
490.5803818646325
 20
184.6415887645325
 30
0.0
 10
495.4004205626176
 20
186.0059297276947
 30
0.0
 10
498.9402435057952
 20
185.436877660255
 30
0.0
 10
500.5067868517614
 20
186.0322366417749
 30
0.0
 10
500.5312294784605
 20
186.0417612105374
 30
0.0
  0
SPLINE
  5
1285
330
2
100
AcDbEntity
  8
HOJO
100
AcDbSpline
210
0.0
220
0.0
230
1.0
 70
     8
 71
     3
 72
    31
 73
    27
 74
     0
 42
0.0000000001
 43
0.0000000001
 40
1.006090418120999
 40
1.006090418120999
 40
1.006090418120999
 40
1.006090418120999
 40
2.214208887200965
 40
4.372114611977804
 40
7.908539174416501
 40
10.6869955506748
 40
13.51956819365521
 40
17.06216826888282
 40
20.99280379806764
 40
23.41299456382895
 40
30.91999047333559
 40
38.68894682021132
 40
50.81685278160026
 40
58.48584632197308
 40
70.31156128461208
 40
79.0586932432537
 40
89.49338633998356
 40
97.17441191234248
 40
107.8778879181509
 40
111.3472347353728
 40
114.8898348106004
 40
118.0447231005161
 40
122.3359256316152
 40
127.2105747731371
 40
132.3338294909638
 40
132.415244059103
 40
132.415244059103
 40
132.415244059103
 40
132.415244059103
 10
389.5312294784551
 20
128.4156790201286
 30
0.0
 10
389.8845728954963
 20
128.6113459932766
 30
0.0
 10
390.8907181636957
 20
129.1023538998433
 30
0.0
 10
393.2264258704369
 20
129.4282953048623
 30
0.0
 10
395.9468534008381
 20
129.316362109861
 30
0.0
 10
399.3088386700307
 20
129.2298477947024
 30
0.0
 10
400.9687487789813
 20
132.3112941473609
 30
0.0
 10
400.9094047438281
 20
135.7048884757204
 30
0.0
 10
400.4320287160751
 20
139.0844068451242
 30
0.0
 10
403.3994449118515
 20
143.3903409205304
 30
0.0
 10
410.243157077645
 20
139.2691706126988
 30
0.0
 10
418.8799081889299
 20
143.088757402058
 30
0.0
 10
428.2334190718618
 20
140.0560863688788
 30
0.0
 10
438.6885887171936
 20
142.4235646088181
 30
0.0
 10
448.126478709865
 20
139.4387441170692
 30
0.0
 10
458.2962099658177
 20
143.0571262129523
 30
0.0
 10
467.2074373585007
 20
140.1320965097092
 30
0.0
 10
476.9062401471435
 20
142.6828388005705
 30
0.0
 10
483.4690826546728
 20
141.5251090205983
 30
0.0
 10
490.6029743184715
 20
141.5288913672556
 30
0.0
 10
490.40277046213
 20
137.1330521578256
 30
0.0
 10
489.7563828441186
 20
133.8701662015864
 30
0.0
 10
490.5803818646325
 20
129.5905799317533
 30
0.0
 10
495.4004205626176
 20
128.2262389685892
 30
0.0
 10
498.9402435057952
 20
128.7952910360308
 30
0.0
 10
500.5067868517614
 20
128.1999320545109
 30
0.0
 10
500.5312294784605
 20
128.1904074857484
 30
0.0
  0
LINE
  5
1286
330
2
100
AcDbEntity
  8
0
100
AcDbLine
 10
499.5312294784605
 20
183.1160843481411
 30
0.0
 11
491.5312294784605
 21
174.115988133526
 31
0.0
  0
LINE
  5
1287
330
2
100
AcDbEntity
  8
0
100
AcDbLine
 10
491.5312294784605
 20
183.1160843481411
 30
0.0
 11
499.5312294784614
 21
174.115988133526
 31
0.0
  0
LINE
  5
1288
330
2
100
AcDbEntity
  8
0
100
AcDbLine
 10
491.5312294784605
 20
140.1160801335263
 30
0.0
 11
499.5312294784605
 21
131.1160843481429
 31
0.0
  0
LINE
  5
1289
330
2
100
AcDbEntity
  8
0
100
AcDbLine
 10
499.5312294784614
 20
140.1160801335263
 30
0.0
 11
491.5312294784605
 21
131.1160843481429
 31
0.0
  0
LINE
  5
128A
330
2
100
AcDbEntity
  8
0
100
AcDbLine
 10
390.531229478455
 20
183.1160843481429
 30
0.0
 11
398.531229478455
 21
174.1160801335263
 31
0.0
  0
LINE
  5
128B
330
2
100
AcDbEntity
  8
0
100
AcDbLine
 10
398.531229478455
 20
183.1160843481429
 30
0.0
 11
390.531229478455
 21
174.1160801335263
 31
0.0
  0
LINE
  5
128C
330
2
100
AcDbEntity
  8
0
100
AcDbLine
 10
398.531229478455
 20
140.1160801335263
 30
0.0
 11
390.531229478455
 21
131.1160843481429
 31
0.0
  0
LINE
  5
128D
330
2
100
AcDbEntity
  8
0
100
AcDbLine
 10
390.531229478455
 20
140.1160801335263
 30
0.0
 11
398.531229478455
 21
131.1160843481429
 31
0.0
  0
LINE
  5
128E
330
2
100
AcDbEntity
  8
0
100
AcDbLine
 10
388.7642579439368
 20
448.683889511857
 30
0.0
 11
382.2555314085091
 21
448.683889511857
 31
0.0
  0
LINE
  5
128F
330
2
100
AcDbEntity
  8
0
100
AcDbLine
 10
388.7642579439368
 20
445.6838895118552
 30
0.0
 11
382.2555314085091
 21
445.6838895118552
 31
0.0
  0
LINE
  5
1290
330
2
100
AcDbEntity
  8
0
100
AcDbLine
 10
375.2468048729322
 20
426.2239886890538
 30
0.0
 11
388.764257943935
 21
426.2239886890538
 31
0.0
  0
LINE
  5
1291
330
2
100
AcDbEntity
  8
0
100
AcDbLine
 10
375.2468048729322
 20
385.1437903346604
 30
0.0
 11
388.764257943935
 21
385.1437903346604
 31
0.0
  0
LINE
  5
1292
330
2
100
AcDbEntity
  8
0
100
AcDbLine
 10
409.0225029430327
 20
114.1160843481411
 30
0.0
 11
415.5312294784632
 21
114.1160843481411
 31
0.0
  0
LINE
  5
1293
330
2
100
AcDbEntity
  8
0
100
AcDbLine
 10
409.0225029430327
 20
117.1160843481411
 30
0.0
 11
415.5312294784623
 21
117.1160843481411
 31
0.0
  0
LINE
  5
1294
330
2
100
AcDbEntity
  8
0
100
AcDbLine
 10
415.5312294784605
 20
200.1160843481429
 30
0.0
 11
409.0225029430327
 21
200.1160843481429
 31
0.0
  0
LINE
  5
1295
330
2
100
AcDbEntity
  8
0
100
AcDbLine
 10
415.5312294784605
 20
197.1160843481393
 30
0.0
 11
409.0225029430327
 21
197.1160843481393
 31
0.0
  0
LINE
  5
1296
330
2
100
AcDbEntity
  8
0
100
AcDbLine
 10
402.0137764074559
 20
177.6561835253396
 30
0.0
 11
415.5312294784587
 21
177.6561835253396
 31
0.0
  0
LINE
  5
1297
330
2
100
AcDbEntity
  8
0
100
AcDbLine
 10
402.0137764074559
 20
136.5759851709462
 30
0.0
 11
415.5312294784587
 21
136.5759851709462
 31
0.0
  0
LINE
  5
1298
330
2
100
AcDbEntity
  8
0
100
AcDbLine
 10
486.7642579439368
 20
388.6838852972404
 30
0.0
 11
473.7642579439368
 21
388.6838852972404
 31
0.0
  0
LINE
  5
1299
330
2
100
AcDbEntity
  8
0
100
AcDbLine
 10
486.7642579439368
 20
422.6837932972402
 30
0.0
 11
473.7642579439368
 21
422.6837932972402
 31
0.0
  0
LINE
  5
129A
330
2
100
AcDbEntity
  8
0
100
AcDbLine
 10
486.7642579439368
 20
422.6837932972402
 30
0.0
 11
486.7642579439368
 21
388.6838852972404
 31
0.0
  0
CIRCLE
  5
129B
330
2
100
AcDbEntity
  8
0
100
AcDbCircle
 10
478.7642579440269
 20
405.6838895118571
 30
0.0
 40
2.0
  0
CIRCLE
  5
129C
330
2
100
AcDbEntity
  8
HOJO
100
AcDbCircle
 10
478.7642579440269
 20
405.6838895118571
 30
0.0
 40
2.5
  0
LINE
  5
129D
330
2
100
AcDbEntity
  8
CENTER
100
AcDbLine
 10
478.764257944026
 20
411.1558201506877
 30
0.0
 11
478.764257944026
 21
400.2119588730264
 31
0.0
  0
LINE
  5
129E
330
2
100
AcDbEntity
  8
CENTER
100
AcDbLine
 10
261.2077355619164
 20
441.2798318994236
 30
0.0
 11
261.2077355619164
 21
433.0879471242905
 31
0.0
  0
LINE
  5
129F
330
2
100
AcDbEntity
  8
CENTER
100
AcDbLine
 10
257.1117931743499
 20
437.183889511857
 30
0.0
 11
265.303677949483
 21
437.183889511857
 31
0.0
  0
LINE
  5
12A0
330
2
100
AcDbEntity
  8
CENTER
100
AcDbLine
 10
261.2077355619173
 20
378.5586319172498
 30
0.0
 11
261.2077355619173
 21
369.8091471064662
 31
0.0
  0
LINE
  5
12A1
330
2
100
AcDbEntity
  8
CENTER
100
AcDbLine
 10
256.8329931565256
 20
374.1838895118571
 30
0.0
 11
265.5824779673091
 21
374.1838895118571
 31
0.0
  0
LINE
  5
12A2
330
2
100
AcDbEntity
  8
0
100
AcDbLine
 10
362.7642579439314
 20
422.6838852972423
 30
0.0
 11
360.7643649439367
 21
422.6838852972423
 31
0.0
  0
LINE
  5
12A3
330
2
100
AcDbEntity
  8
0
100
AcDbLine
 10
362.7642579439314
 20
388.6838852972422
 30
0.0
 11
360.7643649439367
 21
388.6838852972422
 31
0.0
  0
LINE
  5
12A4
330
2
100
AcDbEntity
  8
0
100
AcDbLine
 10
360.7643649439367
 20
422.6838852972423
 30
0.0
 11
360.7643649439367
 21
388.6838852972404
 31
0.0
  0
LINE
  5
12A5
330
2
100
AcDbEntity
  8
0
100
AcDbLine
 10
613.9437974891314
 20
604.7929022309272
 30
0.0
 11
613.9437974891314
 21
617.7929022309272
 31
0.0
  0
LINE
  5
12A6
330
2
100
AcDbEntity
  8
0
100
AcDbLine
 10
647.9437054891311
 20
604.7929022309272
 30
0.0
 11
647.9437054891311
 21
617.7929022309272
 31
0.0
  0
LINE
  5
12A7
330
2
100
AcDbEntity
  8
0
100
AcDbLine
 10
647.9437054891311
 20
604.7929022309272
 30
0.0
 11
613.9437974891314
 21
604.7929022309272
 31
0.0
  0
CIRCLE
  5
12A8
330
2
100
AcDbEntity
  8
0
100
AcDbCircle
 10
630.9438017037479
 20
612.792902230838
 30
0.0
 40
2.0
  0
CIRCLE
  5
12A9
330
2
100
AcDbEntity
  8
HOJO
100
AcDbCircle
 10
630.9438017037479
 20
612.792902230838
 30
0.0
 40
2.5
  0
LINE
  5
12AA
330
2
100
AcDbEntity
  8
CENTER
100
AcDbLine
 10
636.4157323425786
 20
612.7929022308399
 30
0.0
 11
625.4718710649174
 21
612.7929022308399
 31
0.0
  0
LINE
  5
12AB
330
2
100
AcDbEntity
  8
0
100
AcDbLine
 10
647.9437974891323
 20
728.7929022309344
 30
0.0
 11
647.9437974891323
 21
730.7927952309273
 31
0.0
  0
LINE
  5
12AC
330
2
100
AcDbEntity
  8
0
100
AcDbLine
 10
613.9437974891323
 20
728.7929022309344
 30
0.0
 11
613.9437974891323
 21
730.7927952309273
 31
0.0
  0
LINE
  5
12AD
330
2
100
AcDbEntity
  8
0
100
AcDbLine
 10
647.9437974891323
 20
730.7927952309273
 30
0.0
 11
613.9437974891323
 21
730.7927952309273
 31
0.0
  0
ARC
  5
12AE
330
2
100
AcDbEntity
  8
0
100
AcDbCircle
 10
216.2077355619164
 20
405.6838895118571
 30
0.0
 40
11.0
100
AcDbArc
 50
105.8266201318845
 51
74.17337986811545
  0
LINE
  5
12AF
330
2
100
AcDbEntity
  8
0
100
AcDbLine
 10
219.2077355619165
 20
419.4838925118573
 30
0.0
 11
219.2077355619165
 21
416.266894756115
 31
0.0
  0
LINE
  5
12B0
330
2
100
AcDbEntity
  8
0
100
AcDbLine
 10
213.2077355619165
 20
419.4838925118573
 30
0.0
 11
219.2077355619165
 21
419.4838925118573
 31
0.0
  0
LINE
  5
12B1
330
2
100
AcDbEntity
  8
0
100
AcDbLine
 10
213.2077355619165
 20
419.4838925118573
 30
0.0
 11
213.2077355619165
 21
416.266894756115
 31
0.0
  0
CIRCLE
  5
12B2
330
2
100
AcDbEntity
  8
0
100
AcDbCircle
 10
216.2077355619155
 20
405.6838895118571
 30
0.0
 40
16.99999578538367
  0
ARC
  5
12B3
330
2
100
AcDbEntity
  8
0
100
AcDbCircle
 10
216.2077355619155
 20
405.6838895118571
 30
0.0
 40
12.15460621461704
100
AcDbArc
 50
104.2894160763775
 51
75.71058392359595
  0
ARC
  5
12B4
330
2
100
AcDbEntity
  8
0
100
AcDbCircle
 10
630.9438017037489
 20
405.6838895118562
 30
0.0
 40
11.0
100
AcDbArc
 50
105.8266201318845
 51
74.17337986811545
  0
LINE
  5
12B5
330
2
100
AcDbEntity
  8
0
100
AcDbLine
 10
633.9438017037489
 20
419.4838925118546
 30
0.0
 11
633.9438017037489
 21
416.2668947561141
 31
0.0
  0
LINE
  5
12B6
330
2
100
AcDbEntity
  8
0
100
AcDbLine
 10
627.9438017037489
 20
419.4838925118546
 30
0.0
 11
633.9438017037489
 21
419.4838925118546
 31
0.0
  0
LINE
  5
12B7
330
2
100
AcDbEntity
  8
0
100
AcDbLine
 10
627.9438017037489
 20
419.4838925118546
 30
0.0
 11
627.9438017037489
 21
416.2668947561141
 31
0.0
  0
CIRCLE
  5
12B8
330
2
100
AcDbEntity
  8
0
100
AcDbCircle
 10
630.9438017037479
 20
405.6838895118562
 30
0.0
 40
16.99999578538367
  0
ARC
  5
12B9
330
2
100
AcDbEntity
  8
0
100
AcDbCircle
 10
630.9438017037479
 20
405.6838895118562
 30
0.0
 40
12.15460621461704
100
AcDbArc
 50
104.2894160763775
 51
75.71058392359595
  0
LINE
  5
12BB
330
2
100
AcDbEntity
  8
PHAS
100
AcDbLine
 10
370.2642579439359
 20
440.683937173936
 30
0.0
 11
370.2642579439359
 21
370.6838418497781
 31
0.0
  0
ARC
  5
12BC
330
2
100
AcDbEntity
  8
PHAS
100
AcDbCircle
 10
345.7642579439359
 20
386.8529815256215
 30
0.0
 40
5.0
100
AcDbArc
 50
180.0
 51
259.9999999999948
  0
LINE
  5
12BD
330
2
100
AcDbEntity
  8
PHAS
100
AcDbLine
 10
360.4642579439366
 20
437.5646904241348
 30
0.0
 11
360.4642579439357
 21
373.8029932754224
 31
0.0
  0
ARC
  5
12BE
330
2
100
AcDbEntity
  8
PHAS
100
AcDbCircle
 10
363.4642579439357
 20
373.8029932754224
 30
0.0
 40
3.0
100
AcDbArc
 50
180.0
 51
268.9999999999721
  0
ARC
  5
12BF
330
2
100
AcDbEntity
  8
PHAS
100
AcDbCircle
 10
359.4642579439357
 20
378.3447422186008
 30
0.0
 40
1.0
100
AcDbArc
 50
0.0
 51
79.99999999999483
  0
LINE
  5
12C0
330
2
100
AcDbEntity
  8
PHAS
100
AcDbLine
 10
344.8960170556017
 20
381.9289427605608
 30
0.0
 11
359.6379061216028
 21
379.3295499716131
 31
0.0
  0
LINE
  5
12C1
330
2
100
AcDbEntity
  8
PHAS
100
AcDbLine
 10
370.2642579439359
 20
370.6838418497781
 30
0.0
 11
363.4119007246242
 21
370.8034501899528
 31
0.0
  0
ARC
  5
12C2
330
2
100
AcDbEntity
  8
PHAS
100
AcDbCircle
 10
359.4642579439357
 20
433.0229414809554
 30
0.0
 40
1.0
100
AcDbArc
 50
280.0000000000051
 51
0.0
  0
ARC
  5
12C3
330
2
100
AcDbEntity
  8
PHAS
100
AcDbCircle
 10
345.7642579439359
 20
424.5147021739348
 30
0.0
 40
5.0
100
AcDbArc
 50
100.0000000000051
 51
180.0
  0
LINE
  5
12C4
330
2
100
AcDbEntity
  8
PHAS
100
AcDbLine
 10
344.8960170556017
 20
429.4387409389964
 30
0.0
 11
359.6379061216028
 21
432.0381337279431
 31
0.0
  0
LINE
  5
12C5
330
2
100
AcDbEntity
  8
PHAS
100
AcDbLine
 10
340.7642579439359
 20
424.5147021739348
 30
0.0
 11
340.7642579439359
 21
386.8530768497784
 31
0.0
  0
ARC
  5
12C6
330
2
100
AcDbEntity
  8
PHAS
100
AcDbCircle
 10
363.4642579439357
 20
437.5647857482917
 30
0.0
 40
3.0
100
AcDbArc
 50
91.00000000002784
 51
180.0
  0
LINE
  5
12C7
330
2
100
AcDbEntity
  8
PHAS
100
AcDbLine
 10
370.2642579439359
 20
440.6839371739351
 30
0.0
 11
363.4119007246242
 21
440.5643288337604
 31
0.0
  0
LINE
  5
1304
330
2
100
AcDbEntity
  8
0
100
AcDbLine
 10
1018.872308241379
 20
456.6838895118579
 30
0.0
 11
1018.872308241379
 21
441.7950006229693
 31
0.0
  0
LINE
  5
1305
330
2
100
AcDbEntity
  8
CENTER
100
AcDbLine
 10
990.8723082413796
 20
466.4395372137168
 30
0.0
 11
990.8723082413796
 21
344.9282418099991
 31
0.0
  0
LINE
  5
1306
330
2
100
AcDbEntity
  8
0
100
AcDbLine
 10
952.8723082413796
 20
456.1079162376681
 30
0.0
 11
952.8723082413796
 21
355.2598627860479
 31
0.0
  0
LINE
  5
1307
330
2
100
AcDbEntity
  8
CENTER
100
AcDbLine
 10
910.8723082413787
 20
405.683889511858
 30
0.0
 11
1056.87220124138
 21
405.683889511858
 31
0.0
  0
LINE
  5
1308
330
2
100
AcDbEntity
  8
0
100
AcDbLine
 10
947.8723082413797
 20
450.683889511858
 30
0.0
 11
947.8723082413861
 21
360.683889511858
 31
0.0
  0
LINE
  5
1309
330
2
100
AcDbEntity
  8
0
100
AcDbLine
 10
952.8723082413796
 20
450.683889511858
 30
0.0
 11
947.8723082413797
 21
450.683889511858
 31
0.0
  0
LINE
  5
130A
330
2
100
AcDbEntity
  8
0
100
AcDbLine
 10
952.8723082413796
 20
360.683889511858
 30
0.0
 11
947.8723082413797
 21
360.683889511858
 31
0.0
  0
LINE
  5
130B
330
2
100
AcDbEntity
  8
0
100
AcDbLine
 10
1018.872308241379
 20
369.5727784007485
 30
0.0
 11
1018.872308241379
 21
354.683889511858
 31
0.0
  0
LINE
  5
130C
330
2
100
AcDbEntity
  8
0
100
AcDbLine
 10
1018.872308241379
 20
354.683889511858
 30
0.0
 11
952.8723082413796
 21
355.2598627860479
 31
0.0
  0
LINE
  5
130D
330
2
100
AcDbEntity
  8
0
100
AcDbLine
 10
1018.872308241379
 20
456.6838895118579
 30
0.0
 11
952.8723082413796
 21
456.1079162376681
 31
0.0
  0
LINE
  5
130E
330
2
100
AcDbEntity
  8
0
100
AcDbLine
 10
933.8723082413796
 20
373.6152670614719
 30
0.0
 11
933.8723082413778
 21
437.7525119622459
 31
0.0
  0
LINE
  5
130F
330
2
100
AcDbEntity
  8
0
100
AcDbLine
 10
945.9421072347829
 20
440.1053761803195
 30
0.0
 11
935.8025092479735
 21
439.7512936162838
 31
0.0
  0
LINE
  5
1310
330
2
100
AcDbEntity
  8
0
100
AcDbLine
 10
945.9421072347829
 20
371.2624028433983
 30
0.0
 11
935.8025092479746
 21
371.616485407434
 31
0.0
  0
ARC
  5
1311
330
2
100
AcDbEntity
  8
0
100
AcDbCircle
 10
935.8723082413796
 20
373.6152670614719
 30
0.0
 40
2.0
100
AcDbArc
 50
180.0
 51
267.9999999999963
  0
ARC
  5
1312
330
2
100
AcDbEntity
  8
0
100
AcDbCircle
 10
945.8723082413786
 20
369.2636211893604
 30
0.0
 40
2.0
100
AcDbArc
 50
0.0
 51
87.99999999999636
  0
ARC
  5
1313
330
2
100
AcDbEntity
  8
0
100
AcDbCircle
 10
935.8723082413778
 20
437.7525119622459
 30
0.0
 40
2.0
100
AcDbArc
 50
92.00000000000365
 51
180.0
  0
ARC
  5
1314
330
2
100
AcDbEntity
  8
0
100
AcDbCircle
 10
945.8723082413786
 20
442.1041578343592
 30
0.0
 40
2.0
100
AcDbArc
 50
271.9999999999775
 51
0.0
  0
LINE
  5
1315
330
2
100
AcDbEntity
  8
0
100
AcDbLine
 10
990.8723082413787
 20
442.1838895118598
 30
0.0
 11
1021.941745988833
 21
441.7523695431445
 31
0.0
  0
ARC
  5
1316
330
2
100
AcDbEntity
  8
0
100
AcDbCircle
 10
1021.872308241378
 20
436.7528517264708
 30
0.0
 40
5.0
100
AcDbArc
 50
44.44120088201017
 51
89.20427644725567
  0
ARC
  5
1317
330
2
100
AcDbEntity
  8
0
100
AcDbCircle
 10
1021.872308241378
 20
374.6149272972469
 30
0.0
 40
5.0
100
AcDbArc
 50
270.7957235527443
 51
315.5587991240926
  0
LINE
  5
1318
330
2
100
AcDbEntity
  8
0
100
AcDbLine
 10
990.8723082413787
 20
369.183889511858
 30
0.0
 11
1021.941745988833
 21
369.6154094805732
 31
0.0
  0
LINE
  5
1319
330
2
100
AcDbEntity
  8
0
100
AcDbLine
 10
990.8723082413787
 20
369.183889511858
 30
0.0
 11
959.802872238222
 21
369.6154094563461
 31
0.0
  0
ARC
  5
131A
330
2
100
AcDbEntity
  8
0
100
AcDbCircle
 10
959.8723099856758
 20
374.6149272730198
 30
0.0
 40
5.0
100
AcDbArc
 50
224.4419082422435
 51
269.2042764472556
  0
ARC
  5
131B
330
2
100
AcDbEntity
  8
0
100
AcDbCircle
 10
959.8723099856758
 20
436.7528517506979
 30
0.0
 40
5.0
100
AcDbArc
 50
90.79572355274434
 51
135.55809175165
  0
LINE
  5
131C
330
2
100
AcDbEntity
  8
0
100
AcDbLine
 10
990.8723082413787
 20
442.1838895118598
 30
0.0
 11
959.802872238222
 21
441.7523695673716
 31
0.0
  0
LINE
  5
131D
330
2
100
AcDbEntity
  8
0
100
AcDbLine
 10
1018.872308241379
 20
448.6838895118562
 30
0.0
 11
952.8723082413796
 21
448.6838895118562
 31
0.0
  0
LINE
  5
131E
330
2
100
AcDbEntity
  8
0
100
AcDbLine
 10
1018.872308241379
 20
362.6838895118598
 30
0.0
 11
952.8723082413796
 21
362.6838895118598
 31
0.0
  0
LINE
  5
131F
330
2
100
AcDbEntity
  8
0
100
AcDbLine
 10
1044.872308241384
 20
373.2612397810498
 30
0.0
 11
1044.872308241385
 21
438.1065392426698
 31
0.0
  0
LINE
  5
1320
330
2
100
AcDbEntity
  8
0
100
AcDbLine
 10
1034.958094679011
 20
446.0981030742313
 30
0.0
 11
1035.786521803756
 21
445.2696759494864
 31
0.0
  0
LINE
  5
1321
330
2
100
AcDbEntity
  8
0
100
AcDbLine
 10
1018.872308241381
 20
456.6838895118579
 30
0.0
 11
1018.872308241381
 21
441.7950006229693
 31
0.0
  0
LINE
  5
1322
330
2
100
AcDbEntity
  8
0
100
AcDbLine
 10
1018.872308241377
 20
369.5727784007467
 30
0.0
 11
1018.872308241376
 21
354.6838895118598
 31
0.0
  0
LINE
  5
1323
330
2
100
AcDbEntity
  8
0
100
AcDbLine
 10
1026.372308241381
 20
439.6358155822362
 30
0.0
 11
1026.372308241381
 21
439.0003316424736
 31
0.0
  0
LINE
  5
1324
330
2
100
AcDbEntity
  8
0
100
AcDbLine
 10
1031.37230824138
 20
430.183889511858
 30
0.0
 11
1031.372308241377
 21
381.1838895118598
 31
0.0
  0
ARC
  5
1325
330
2
100
AcDbEntity
  8
0
100
AcDbCircle
 10
1029.372308241381
 20
439.5921812432843
 30
0.0
 40
2.0
100
AcDbArc
 50
17.20876206250551
 51
89.50000000000846
  0
LINE
  5
1326
330
2
100
AcDbEntity
  8
0
100
AcDbLine
 10
1034.372308241387
 20
356.8017783838058
 30
0.0
 11
1034.372308241384
 21
454.5660006399102
 31
0.0
  0
ARC
  5
1327
330
2
100
AcDbEntity
  8
0
100
AcDbCircle
 10
1032.372308241386
 20
356.8017783838058
 30
0.0
 40
2.0
100
AcDbArc
 50
270.4999999999915
 51
0.0
  0
LINE
  5
1328
330
2
100
AcDbEntity
  8
0
100
AcDbLine
 10
1040.372308241384
 20
438.4838895118591
 30
0.0
 11
1040.172308241384
 21
438.683889511858
 31
0.0
  0
LINE
  5
1329
330
2
100
AcDbEntity
  8
0
100
AcDbLine
 10
1036.872308241384
 20
440.683889511858
 30
0.0
 11
1036.372308241384
 21
441.183889511858
 31
0.0
  0
LINE
  5
132A
330
2
100
AcDbEntity
  8
0
100
AcDbLine
 10
1036.372308241383
 20
443.8554623871131
 30
0.0
 11
1036.372308241384
 21
441.183889511858
 31
0.0
  0
LINE
  5
132B
330
2
100
AcDbEntity
  8
0
100
AcDbLine
 10
1040.172308241384
 20
438.683889511858
 30
0.0
 11
1036.872308241384
 21
438.683889511858
 31
0.0
  0
LINE
  5
132C
330
2
100
AcDbEntity
  8
0
100
AcDbLine
 10
1043.872308241384
 20
438.683889511858
 30
0.0
 11
1044.872308241384
 21
438.1065392426698
 31
0.0
  0
LINE
  5
132D
330
2
100
AcDbEntity
  8
0
100
AcDbLine
 10
1043.872308241385
 20
438.683889511858
 30
0.0
 11
1042.572308241384
 21
438.683889511858
 31
0.0
  0
LINE
  5
132E
330
2
100
AcDbEntity
  8
0
100
AcDbLine
 10
1042.172308241384
 20
437.9838895118591
 30
0.0
 11
1040.572308241384
 21
437.9838895118591
 31
0.0
  0
LINE
  5
132F
330
2
100
AcDbEntity
  8
0
100
AcDbLine
 10
1018.872308241376
 20
354.6838895118598
 30
0.0
 11
1032.389761312384
 21
354.801854537678
 31
0.0
  0
LINE
  5
1330
330
2
100
AcDbEntity
  8
0
100
AcDbLine
 10
1034.958094679011
 20
365.2696759494864
 30
0.0
 11
1035.786521803751
 21
366.0981030742259
 31
0.0
  0
LINE
  5
1331
330
2
100
AcDbEntity
  8
0
100
AcDbLine
 10
1036.872308241379
 20
370.6838895118598
 30
0.0
 11
1036.872308241386
 21
440.6838895118561
 31
0.0
  0
LINE
  5
1332
330
2
100
AcDbEntity
  8
0
100
AcDbLine
 10
1040.372308241379
 20
372.8838895118587
 30
0.0
 11
1040.372308241379
 21
438.4838895118627
 31
0.0
  0
LINE
  5
1333
330
2
100
AcDbEntity
  8
0
100
AcDbLine
 10
1040.372308241379
 20
372.8838895118587
 30
0.0
 11
1040.172308241378
 21
372.683889511858
 31
0.0
  0
LINE
  5
1334
330
2
100
AcDbEntity
  8
0
100
AcDbLine
 10
1040.172308241378
 20
372.683889511858
 30
0.0
 11
1036.872308241379
 21
372.6838895118598
 31
0.0
  0
LINE
  5
1335
330
2
100
AcDbEntity
  8
0
100
AcDbLine
 10
1036.872308241379
 20
370.6838895118598
 30
0.0
 11
1036.372308241379
 21
370.1838895118598
 31
0.0
  0
LINE
  5
1336
330
2
100
AcDbEntity
  8
0
100
AcDbLine
 10
1036.372308241378
 20
367.5123166365992
 30
0.0
 11
1036.372308241384
 21
441.183889511858
 31
0.0
  0
LINE
  5
1337
330
2
100
AcDbEntity
  8
0
100
AcDbLine
 10
1043.872308241379
 20
372.683889511858
 30
0.0
 11
1044.872308241379
 21
373.261239781048
 31
0.0
  0
LINE
  5
1338
330
2
100
AcDbEntity
  8
0
100
AcDbLine
 10
1042.372308241379
 20
372.8838895118587
 30
0.0
 11
1042.372308241379
 21
438.4838895118591
 31
0.0
  0
LINE
  5
1339
330
2
100
AcDbEntity
  8
0
100
AcDbLine
 10
1043.872308241379
 20
372.683889511858
 30
0.0
 11
1042.572308241379
 21
372.683889511858
 31
0.0
  0
LINE
  5
133A
330
2
100
AcDbEntity
  8
0
100
AcDbLine
 10
1042.172308241378
 20
373.3838895118587
 30
0.0
 11
1040.57230824138
 21
373.3838895118587
 31
0.0
  0
ARC
  5
133B
330
2
100
AcDbEntity
  8
0
100
AcDbCircle
 10
1034.372308241377
 20
367.5123166365992
 30
0.0
 40
2.0
100
AcDbArc
 50
314.9999999999812
 51
0.0
  0
ARC
  5
133C
330
2
100
AcDbEntity
  8
0
100
AcDbCircle
 10
1036.372308241385
 20
363.8554623871131
 30
0.0
 40
2.0
100
AcDbArc
 50
134.9999999999812
 51
180.0
  0
ARC
  5
133D
330
2
100
AcDbEntity
  8
0
100
AcDbCircle
 10
1034.372308241383
 20
443.8554623871131
 30
0.0
 40
2.0
100
AcDbArc
 50
0.0
 51
45.00000000001871
  0
ARC
  5
133E
330
2
100
AcDbEntity
  8
0
100
AcDbCircle
 10
1036.372308241385
 20
447.5123166366047
 30
0.0
 40
2.0
100
AcDbArc
 50
180.0
 51
225.0000000000187
  0
ARC
  5
133F
330
2
100
AcDbEntity
  8
0
100
AcDbCircle
 10
1042.57230824138
 20
372.8838895118587
 30
0.0
 40
0.2
100
AcDbArc
 50
180.0
 51
269.9999999999739
  0
ARC
  5
1340
330
2
100
AcDbEntity
  8
0
100
AcDbCircle
 10
1042.172308241378
 20
373.183889511858
 30
0.0
 40
0.2
100
AcDbArc
 50
0.0
 51
89.99999999997395
  0
ARC
  5
1341
330
2
100
AcDbEntity
  8
0
100
AcDbCircle
 10
1040.57230824138
 20
373.183889511858
 30
0.0
 40
0.2
100
AcDbArc
 50
89.99999999997395
 51
180.0
  0
ARC
  5
1342
330
2
100
AcDbEntity
  8
0
100
AcDbCircle
 10
1042.572308241384
 20
438.4838895118591
 30
0.0
 40
0.2
100
AcDbArc
 50
90.0
 51
180.0
  0
ARC
  5
1343
330
2
100
AcDbEntity
  8
0
100
AcDbCircle
 10
1042.172308241384
 20
438.183889511858
 30
0.0
 40
0.2
100
AcDbArc
 50
270.0
 51
0.0
  0
ARC
  5
1344
330
2
100
AcDbEntity
  8
0
100
AcDbCircle
 10
1040.572308241384
 20
438.183889511858
 30
0.0
 40
0.2
100
AcDbArc
 50
180.0
 51
270.0
  0
LINE
  5
1345
330
2
100
AcDbEntity
  8
0
100
AcDbLine
 10
1043.872308241379
 20
372.683889511858
 30
0.0
 11
1043.872308241384
 21
438.683889511858
 31
0.0
  0
LINE
  5
1346
330
2
100
AcDbEntity
  8
0
100
AcDbLine
 10
1040.172308241378
 20
372.683889511858
 30
0.0
 11
1040.172308241384
 21
438.683889511858
 31
0.0
  0
ARC
  5
1347
330
2
100
AcDbEntity
  8
0
100
AcDbCircle
 10
1032.372308241386
 20
454.5660006399102
 30
0.0
 40
2.0
100
AcDbArc
 50
0.0
 51
89.50000000000846
  0
LINE
  5
1348
330
2
100
AcDbEntity
  8
0
100
AcDbLine
 10
1018.872308241376
 20
456.6838895118579
 30
0.0
 11
1032.389761312384
 21
456.5659244860397
 31
0.0
  0
LINE
  5
1349
330
2
100
AcDbEntity
  8
0
100
AcDbLine
 10
1029.389761312377
 20
441.592105089412
 30
0.0
 11
1022.886775717142
 21
441.6488557849478
 31
0.0
  0
LINE
  5
134A
330
2
100
AcDbEntity
  8
0
100
AcDbLine
 10
1027.059285474999
 20
428.2215286913188
 30
0.0
 11
1029.389761312377
 21
428.2011909367956
 31
0.0
  0
ARC
  5
134B
330
2
100
AcDbEntity
  8
0
100
AcDbCircle
 10
1024.372308241381
 20
439.6358155822362
 30
0.0
 40
2.0
100
AcDbArc
 50
0.0
 51
89.50000000000846
  0
ARC
  5
134C
330
2
100
AcDbEntity
  8
0
100
AcDbCircle
 10
1029.372308241379
 20
426.2012670906678
 30
0.0
 40
2.0
100
AcDbArc
 50
0.0
 51
89.49999999998238
  0
LINE
  5
134D
330
2
100
AcDbEntity
  8
0
100
AcDbLine
 10
1026.372308241381
 20
371.1838895118598
 30
0.0
 11
1026.37230824138
 21
372.3674473812567
 31
0.0
  0
ARC
  5
134E
330
2
100
AcDbEntity
  8
0
100
AcDbCircle
 10
1029.372308241381
 20
371.7755977804335
 30
0.0
 40
2.0
100
AcDbArc
 50
270.4999999999915
 51
342.7912379374944
  0
LINE
  5
134F
330
2
100
AcDbEntity
  8
0
100
AcDbLine
 10
1029.389761312377
 20
369.7756739343039
 30
0.0
 11
1022.886775717142
 21
369.7189232387699
 31
0.0
  0
LINE
  5
1350
330
2
100
AcDbEntity
  8
0
100
AcDbLine
 10
1027.059285474999
 20
383.1462503323988
 30
0.0
 11
1029.389761312377
 21
383.1665880869203
 31
0.0
  0
ARC
  5
1351
330
2
100
AcDbEntity
  8
0
100
AcDbCircle
 10
1024.372308241381
 20
371.7319634414816
 30
0.0
 40
2.0
100
AcDbArc
 50
270.4999999999915
 51
0.0
  0
ARC
  5
1352
330
2
100
AcDbEntity
  8
0
100
AcDbCircle
 10
1029.372308241379
 20
385.1665119330482
 30
0.0
 40
2.0
100
AcDbArc
 50
270.5000000000175
 51
0.0
  0
LINE
  5
1353
330
2
100
AcDbEntity
  8
CENTER
  6
CENS
100
AcDbLine
 10
1013.088520492296
 20
435.183889511858
 30
0.0
 11
1036.872308241381
 21
435.183889511858
 31
0.0
  0
LINE
  5
1354
330
2
100
AcDbEntity
  8
0
100
AcDbLine
 10
1033.472308241381
 20
440.1838895118579
 30
0.0
 11
1033.872308241381
 21
439.4910691888307
 31
0.0
  0
LINE
  5
1355
330
2
100
AcDbEntity
  8
0
100
AcDbLine
 10
1027.872308241381
 20
440.1838895118579
 30
0.0
 11
1027.872308241381
 21
430.183889511858
 31
0.0
  0
LINE
  5
1356
330
2
100
AcDbEntity
  8
0
100
AcDbLine
 10
1033.472308241381
 20
440.1838895118579
 30
0.0
 11
1033.472308241381
 21
430.183889511858
 31
0.0
  0
LINE
  5
1357
330
2
100
AcDbEntity
  8
0
100
AcDbLine
 10
1026.372308241381
 20
440.1838895118579
 30
0.0
 11
1033.472308241381
 21
440.1838895118579
 31
0.0
  0
LINE
  5
1358
330
2
100
AcDbEntity
  8
0
100
AcDbLine
 10
1027.032030463602
 20
430.1838895118579
 30
0.0
 11
1033.472308241381
 21
430.183889511858
 31
0.0
  0
LINE
  5
1359
330
2
100
AcDbEntity
  8
0
100
AcDbLine
 10
1033.472308241381
 20
430.183889511858
 30
0.0
 11
1033.872308241381
 21
430.8767098348853
 31
0.0
  0
LINE
  5
135A
330
2
100
AcDbEntity
  8
0
100
AcDbLine
 10
1033.872308241381
 20
439.4910691888307
 30
0.0
 11
1033.872308241381
 21
430.8767098348853
 31
0.0
  0
LINE
  5
135B
330
2
100
AcDbEntity
  8
0
100
AcDbLine
 10
1026.372308241381
 20
439.0003316424745
 30
0.0
 11
1026.372308241381
 21
440.1838895118579
 31
0.0
  0
LINE
  5
135C
330
2
100
AcDbEntity
  8
CENTER
  6
CENS
100
AcDbLine
 10
1013.088520492296
 20
376.1838895118598
 30
0.0
 11
1036.872308241381
 21
376.1838895118598
 31
0.0
  0
LINE
  5
135D
330
2
100
AcDbEntity
  8
0
100
AcDbLine
 10
1033.472308241381
 20
371.1838895118598
 30
0.0
 11
1033.872308241381
 21
371.876709834887
 31
0.0
  0
LINE
  5
135E
330
2
100
AcDbEntity
  8
0
100
AcDbLine
 10
1027.872308241381
 20
371.1838895118598
 30
0.0
 11
1027.872308241381
 21
381.1838895118598
 31
0.0
  0
LINE
  5
135F
330
2
100
AcDbEntity
  8
0
100
AcDbLine
 10
1033.472308241381
 20
371.1838895118598
 30
0.0
 11
1033.472308241381
 21
381.1838895118598
 31
0.0
  0
LINE
  5
1360
330
2
100
AcDbEntity
  8
0
100
AcDbLine
 10
1026.372308241381
 20
371.1838895118598
 30
0.0
 11
1033.472308241381
 21
371.1838895118598
 31
0.0
  0
LINE
  5
1361
330
2
100
AcDbEntity
  8
0
100
AcDbLine
 10
1027.032030463602
 20
381.1838895118598
 30
0.0
 11
1033.472308241381
 21
381.1838895118598
 31
0.0
  0
LINE
  5
1362
330
2
100
AcDbEntity
  8
0
100
AcDbLine
 10
1033.472308241381
 20
381.1838895118598
 30
0.0
 11
1033.872308241381
 21
380.4910691888325
 31
0.0
  0
LINE
  5
1363
330
2
100
AcDbEntity
  8
0
100
AcDbLine
 10
1033.872308241381
 20
371.876709834887
 30
0.0
 11
1033.872308241381
 21
380.4910691888325
 31
0.0
  0
LINE
  5
1364
330
2
100
AcDbEntity
  8
0
100
AcDbLine
 10
920.8723082413786
 20
422.6838937264746
 30
0.0
 11
933.8723082413787
 21
422.6838937264746
 31
0.0
  0
LINE
  5
1365
330
2
100
AcDbEntity
  8
0
100
AcDbLine
 10
920.8723082413786
 20
388.6839857264748
 30
0.0
 11
933.8723082413796
 21
388.6839857264748
 31
0.0
  0
LINE
  5
1366
330
2
100
AcDbEntity
  8
0
100
AcDbLine
 10
920.8723082413786
 20
388.6839857264748
 30
0.0
 11
920.8723082413786
 21
422.6838937264746
 31
0.0
  0
LINE
  5
1367
330
2
100
AcDbEntity
  8
0
100
AcDbLine
 10
1044.872308241385
 20
388.6838937264746
 30
0.0
 11
1046.872201241379
 21
388.6838937264746
 31
0.0
  0
LINE
  5
1368
330
2
100
AcDbEntity
  8
0
100
AcDbLine
 10
1044.872308241385
 20
422.6838937264746
 30
0.0
 11
1046.872201241379
 21
422.6838937264746
 31
0.0
  0
LINE
  5
1369
330
2
100
AcDbEntity
  8
0
100
AcDbLine
 10
1046.872201241379
 20
388.6838937264746
 30
0.0
 11
1046.872201241379
 21
422.6838937264746
 31
0.0
  0
ARC
  5
136A
330
2
100
AcDbEntity
  8
0
100
AcDbCircle
 10
764.7338017054724
 20
708.792902230929
 30
0.0
 40
2.0
100
AcDbArc
 50
40.04151653423412
 51
90.0
  0
ARC
  5
136B
330
2
100
AcDbEntity
  8
0
100
AcDbCircle
 10
764.7338017054724
 20
640.792902230929
 30
0.0
 40
2.0
100
AcDbArc
 50
270.0
 51
319.9584834657658
  0
LINE
  5
136C
330
2
100
AcDbEntity
  8
0
100
AcDbLine
 10
773.7338017054724
 20
671.792902230929
 30
0.0
 11
773.7338017054724
 21
657.292902230929
 31
0.0
  0
LINE
  5
136D
330
2
100
AcDbEntity
  8
0
100
AcDbLine
 10
766.7338017054706
 20
701.6529022309295
 30
0.0
 11
766.7338017054723
 21
647.9329022309293
 31
0.0
  0
LINE
  5
136E
330
2
100
AcDbEntity
  8
CENTER
  6
CENS
100
AcDbLine
 10
783.7338017054723
 20
675.042902230929
 30
0.0
 11
783.7338017054723
 21
653.542902230929
 31
0.0
  0
LINE
  5
136F
330
2
100
AcDbEntity
  8
0
100
AcDbLine
 10
782.7338017054723
 20
701.792902230929
 30
0.0
 11
782.7338017054723
 21
677.792902230929
 31
0.0
  0
LINE
  5
1370
330
2
100
AcDbEntity
  8
0
100
AcDbLine
 10
772.2649586614996
 20
704.792902230929
 30
0.0
 11
797.7338017054724
 21
704.792902230929
 31
0.0
  0
ARC
  5
1371
330
2
100
AcDbEntity
  8
0
100
AcDbCircle
 10
785.7338017054724
 20
701.792902230929
 30
0.0
 40
3.0
100
AcDbArc
 50
90.0
 51
180.0
  0
ARC
  5
1372
330
2
100
AcDbEntity
  8
0
100
AcDbCircle
 10
779.7338017054723
 20
677.792902230929
 30
0.0
 40
3.0
100
AcDbArc
 50
270.0
 51
0.0
  0
ARC
  5
1373
330
2
100
AcDbEntity
  8
0
100
AcDbCircle
 10
776.7338017054724
 20
671.792902230929
 30
0.0
 40
3.0
100
AcDbArc
 50
90.0
 51
180.0
  0
LINE
  5
1374
330
2
100
AcDbEntity
  8
0
100
AcDbLine
 10
776.7338017054724
 20
674.792902230929
 30
0.0
 11
779.7338017054723
 21
674.792902230929
 31
0.0
  0
LINE
  5
1375
330
2
100
AcDbEntity
  8
0
100
AcDbLine
 10
772.2649586614996
 20
644.792902230929
 30
0.0
 11
797.7338017054724
 21
644.792902230929
 31
0.0
  0
LINE
  5
1376
330
2
100
AcDbEntity
  8
CENTER
  6
CENS
100
AcDbLine
 10
772.9838017054723
 20
664.292902230929
 30
0.0
 11
794.4838017054723
 21
664.292902230929
 31
0.0
  0
ARC
  5
1377
330
2
100
AcDbEntity
  8
0
100
AcDbCircle
 10
776.7338017054724
 20
657.292902230929
 30
0.0
 40
3.0
100
AcDbArc
 50
180.0
 51
270.0
  0
ARC
  5
1378
330
2
100
AcDbEntity
  8
0
100
AcDbCircle
 10
779.7338017054723
 20
651.292902230929
 30
0.0
 40
3.0
100
AcDbArc
 50
0.0
 51
90.0
  0
LINE
  5
1379
330
2
100
AcDbEntity
  8
0
100
AcDbLine
 10
776.7338017054724
 20
654.292902230929
 30
0.0
 11
779.7338017054723
 21
654.292902230929
 31
0.0
  0
LINE
  5
137A
330
2
100
AcDbEntity
  8
0
100
AcDbLine
 10
782.7338017054723
 20
651.292902230929
 30
0.0
 11
782.7338017054723
 21
647.792902230929
 31
0.0
  0
ARC
  5
137B
330
2
100
AcDbEntity
  8
0
100
AcDbCircle
 10
785.7338017054724
 20
647.792902230929
 30
0.0
 40
3.0
100
AcDbArc
 50
180.0
 51
270.0
  0
LINE
  5
137C
330
2
100
AcDbEntity
  8
0
100
AcDbLine
 10
754.7338017054723
 20
710.792902230929
 30
0.0
 11
764.7338017054724
 21
710.792902230929
 31
0.0
  0
LINE
  5
137D
330
2
100
AcDbEntity
  8
0
100
AcDbLine
 10
754.7338017054723
 20
638.792902230929
 30
0.0
 11
764.7338017054724
 21
638.792902230929
 31
0.0
  0
LINE
  5
137E
330
2
100
AcDbEntity
  8
0
100
AcDbLine
 10
797.7338017054724
 20
704.792902230929
 30
0.0
 11
797.7338017054724
 21
644.792902230929
 31
0.0
  0
LINE
  5
137F
330
2
100
AcDbEntity
  8
0
100
AcDbLine
 10
959.8033460267668
 20
369.6838895118661
 30
0.0
 11
1021.941270455992
 21
369.6838895118661
 31
0.0
  0
LINE
  5
1380
330
2
100
AcDbEntity
  8
0
100
AcDbLine
 10
959.8033460267668
 20
441.6838895118662
 30
0.0
 11
1021.941270455992
 21
441.6838895118662
 31
0.0
  0
CIRCLE
  5
1381
330
2
100
AcDbEntity
  8
HIDS
100
AcDbCircle
 10
990.8723082413796
 20
405.6838895118661
 30
0.0
 40
30.0
  0
ARC
  5
1382
330
2
100
AcDbEntity
  8
0
100
AcDbCircle
 10
965.9450516527211
 20
380.6838895118671
 30
0.0
 40
5.0
100
AcDbArc
 50
180.1666666666621
 51
270.0
  0
LINE
  5
1383
330
2
100
AcDbEntity
  8
CENTER
100
AcDbLine
 10
971.1223082413797
 20
430.4338895118662
 30
0.0
 11
961.1223082413797
 21
430.4338895118662
 31
0.0
  0
LINE
  5
1384
330
2
100
AcDbEntity
  8
CENTER
100
AcDbLine
 10
971.1223082413797
 20
380.9338895118662
 30
0.0
 11
961.1223082413797
 21
380.9338895118662
 31
0.0
  0
ARC
  5
1385
330
2
100
AcDbEntity
  8
0
100
AcDbCircle
 10
965.9450516527211
 20
430.6838895118661
 30
0.0
 40
5.0
100
AcDbArc
 50
90.0
 51
179.8333333333378
  0
LINE
  5
1386
330
2
100
AcDbEntity
  8
0
100
AcDbLine
 10
954.8038282100948
 20
374.6144517644124
 30
0.0
 11
954.3723082413814
 21
405.683889511868
 31
0.0
  0
LINE
  5
1387
330
2
100
AcDbEntity
  8
0
100
AcDbLine
 10
960.945072806693
 20
380.6693451219461
 30
0.0
 11
960.8723082413796
 21
405.6838895118661
 31
0.0
  0
ARC
  5
1388
330
2
100
AcDbEntity
  8
0
100
AcDbCircle
 10
959.8033460267668
 20
374.6838895118662
 30
0.0
 40
5.0
100
AcDbArc
 50
180.7957235527443
 51
270.0
  0
LINE
  5
1389
330
2
100
AcDbEntity
  8
0
100
AcDbLine
 10
954.8038282100948
 20
436.7533272593199
 30
0.0
 11
954.3723082413796
 21
405.683889511868
 31
0.0
  0
LINE
  5
138A
330
2
100
AcDbEntity
  8
0
100
AcDbLine
 10
960.945072806693
 20
430.698433901788
 30
0.0
 11
960.8723082413796
 21
405.6838895118661
 31
0.0
  0
LINE
  5
138B
330
2
100
AcDbEntity
  8
0
100
AcDbLine
 10
960.8723082413796
 20
405.6838895118661
 30
0.0
 11
954.3723082413796
 21
405.6838895118661
 31
0.0
  0
ARC
  5
138C
330
2
100
AcDbEntity
  8
0
100
AcDbCircle
 10
959.8033460267668
 20
436.6838895118662
 30
0.0
 40
5.0
100
AcDbArc
 50
90.0
 51
179.2042764472556
  0
LINE
  5
138D
330
2
100
AcDbEntity
  8
0
100
AcDbLine
 10
1026.940788272666
 20
374.6144517644124
 30
0.0
 11
1027.372308241379
 21
405.683889511868
 31
0.0
  0
LINE
  5
138E
330
2
100
AcDbEntity
  8
0
100
AcDbLine
 10
1020.799543676066
 20
380.6693451219461
 30
0.0
 11
1020.872308241379
 21
405.6838895118661
 31
0.0
  0
LINE
  5
138F
330
2
100
AcDbEntity
  8
0
100
AcDbLine
 10
1015.799564830038
 20
375.6838895118661
 30
0.0
 11
965.9450516527211
 21
375.6838895118661
 31
0.0
  0
LINE
  5
1390
330
2
100
AcDbEntity
  8
CENTER
100
AcDbLine
 10
966.1223082413796
 20
385.9338895118662
 30
0.0
 11
966.1223082413796
 21
375.9338895118661
 31
0.0
  0
LINE
  5
1391
330
2
100
AcDbEntity
  8
HIDS
100
AcDbLine
 10
1011.40660910546
 20
377.6489846989925
 30
0.0
 11
1011.494646855176
 21
382.6926640022301
 31
0.0
  0
ARC
  5
1392
330
2
100
AcDbEntity
  8
0
100
AcDbCircle
 10
1015.799564830038
 20
380.6838895118671
 30
0.0
 40
5.0
100
AcDbArc
 50
270.0
 51
359.8333333333378
  0
LINE
  5
1393
330
2
100
AcDbEntity
  8
CENTER
100
AcDbLine
 10
1015.622308241379
 20
385.9338895118662
 30
0.0
 11
1015.622308241379
 21
375.9338895118661
 31
0.0
  0
ARC
  5
1394
330
2
100
AcDbEntity
  8
0
100
AcDbCircle
 10
1021.941270455992
 20
374.6838895118662
 30
0.0
 40
4.999999999999999
100
AcDbArc
 50
270.0
 51
359.2042764472556
  0
ARC
  5
1395
330
2
100
AcDbEntity
  8
HIDS
100
AcDbCircle
 10
1009.406913715148
 20
377.6838895118661
 30
0.0
 40
2.0
100
AcDbArc
 50
270.0
 51
358.9999999999982
  0
LINE
  5
1396
330
2
100
AcDbEntity
  8
CENTER
100
AcDbLine
 10
1020.622308241379
 20
380.9338895118662
 30
0.0
 11
1010.622308241379
 21
380.9338895118662
 31
0.0
  0
ARC
  5
1397
330
2
100
AcDbEntity
  8
HIDS
100
AcDbCircle
 10
1014.494189940645
 20
382.6403067829177
 30
0.0
 40
3.0
100
AcDbArc
 50
135.7099981688279
 51
178.9999999999982
  0
LINE
  5
1398
330
2
100
AcDbEntity
  8
0
100
AcDbLine
 10
1015.799564830038
 20
435.6838895118662
 30
0.0
 11
965.9450516527211
 21
435.6838895118662
 31
0.0
  0
LINE
  5
1399
330
2
100
AcDbEntity
  8
HIDS
100
AcDbLine
 10
974.6223082413797
 20
435.6838895118662
 30
0.0
 11
974.8698763600549
 21
421.5007214918713
 31
0.0
  0
LINE
  5
139A
330
2
100
AcDbEntity
  8
CENTER
100
AcDbLine
 10
966.1223082413796
 20
435.4338895118662
 30
0.0
 11
966.1223082413796
 21
425.4338895118662
 31
0.0
  0
ARC
  5
139B
330
2
100
AcDbEntity
  8
HIDS
100
AcDbCircle
 10
967.2504265421137
 20
428.7274722408155
 30
0.0
 40
3.0
100
AcDbArc
 50
315.7099981688279
 51
358.9999999999982
  0
ARC
  5
139C
330
2
100
AcDbEntity
  8
HIDS
100
AcDbCircle
 10
972.3377027676104
 20
433.6838895118662
 30
0.0
 40
2.0
100
AcDbArc
 50
90.0
 51
178.9999999999982
  0
LINE
  5
139D
330
2
100
AcDbEntity
  8
HIDS
100
AcDbLine
 10
970.3380073772985
 20
433.7187943247408
 30
0.0
 11
970.2499696275843
 21
428.6751150215031
 31
0.0
  0
LINE
  5
139E
330
2
100
AcDbEntity
  8
HIDS
100
AcDbLine
 10
986.1223082413797
 20
435.6838895118662
 30
0.0
 11
985.9820066175341
 21
427.6460148650266
 31
0.0
  0
LINE
  5
139F
330
2
100
AcDbEntity
  8
0
100
AcDbLine
 10
1026.940788272666
 20
436.7533272593199
 30
0.0
 11
1027.372308241379
 21
405.683889511868
 31
0.0
  0
LINE
  5
13A0
330
2
100
AcDbEntity
  8
0
100
AcDbLine
 10
1020.799543676066
 20
430.698433901788
 30
0.0
 11
1020.872308241379
 21
405.6838895118661
 31
0.0
  0
LINE
  5
13A1
330
2
100
AcDbEntity
  8
CENTER
100
AcDbLine
 10
1015.622308241379
 20
435.4338895118662
 30
0.0
 11
1015.622308241379
 21
425.4338895118662
 31
0.0
  0
LINE
  5
13A2
330
2
100
AcDbEntity
  8
0
100
AcDbLine
 10
1020.872308241379
 20
405.6838895118661
 30
0.0
 11
1027.372308241379
 21
405.6838895118661
 31
0.0
  0
ARC
  5
13A3
330
2
100
AcDbEntity
  8
0
100
AcDbCircle
 10
1021.941270455992
 20
436.6838895118662
 30
0.0
 40
4.999999999999999
100
AcDbArc
 50
0.7957235527443399
 51
90.0
  0
ARC
  5
13A4
330
2
100
AcDbEntity
  8
0
100
AcDbCircle
 10
1015.799564830038
 20
430.6838895118661
 30
0.0
 40
5.0
100
AcDbArc
 50
0.1666666666621044
 51
90.0
  0
LINE
  5
13A5
330
2
100
AcDbEntity
  8
CENTER
100
AcDbLine
 10
1020.622308241379
 20
430.4338895118662
 30
0.0
 11
1010.622308241379
 21
430.4338895118662
 31
0.0
  0
CIRCLE
  5
13A6
330
2
100
AcDbEntity
  8
0
100
AcDbCircle
 10
990.8723082413796
 20
405.6838895118661
 30
0.0
 40
25.00000000022851
  0
CIRCLE
  5
13A7
330
2
100
AcDbEntity
  8
0
100
AcDbCircle
 10
959.7623082413809
 20
374.5738895118665
 30
0.0
 40
2.75
  0
CIRCLE
  5
13A8
330
2
100
AcDbEntity
  8
0
100
AcDbCircle
 10
1021.98230824138
 20
436.7938895118667
 30
0.0
 40
2.75
  0
CIRCLE
  5
13A9
330
2
100
AcDbEntity
  8
0
100
AcDbCircle
 10
1021.98230824138
 20
374.5738895118674
 30
0.0
 40
2.75
  0
LINE
  5
13AA
330
2
100
AcDbEntity
  8
0
100
AcDbLine
 10
771.9649586615003
 20
647.9329022309293
 30
0.0
 11
767.2649586614995
 21
647.9329022309293
 31
0.0
  0
LINE
  5
13AB
330
2
100
AcDbEntity
  8
0
100
AcDbLine
 10
767.2649586614995
 20
639.4329022309293
 30
0.0
 11
771.9649586615003
 21
639.4329022309293
 31
0.0
  0
LINE
  5
13AC
330
2
100
AcDbEntity
  8
CENTER
  6
CENS
100
AcDbLine
 10
749.7338017054723
 20
643.6829022309293
 30
0.0
 11
777.1907746355544
 21
643.6829022309293
 31
0.0
  0
LINE
  5
13AD
330
2
100
AcDbEntity
  8
0
100
AcDbLine
 10
772.2649586614996
 20
639.9525174731998
 30
0.0
 11
772.2649586614996
 21
647.4132869886589
 31
0.0
  0
LINE
  5
13AE
330
2
100
AcDbEntity
  8
0
100
AcDbLine
 10
771.9649586615003
 20
647.9329022309293
 30
0.0
 11
771.9649586615003
 21
639.4329022309293
 31
0.0
  0
LINE
  5
13AF
330
2
100
AcDbEntity
  8
0
100
AcDbLine
 10
771.9649586615003
 20
647.9329022309293
 30
0.0
 11
772.2649586614996
 21
647.4132869886589
 31
0.0
  0
LINE
  5
13B0
330
2
100
AcDbEntity
  8
0
100
AcDbLine
 10
772.2649586614996
 20
639.9525174731998
 30
0.0
 11
771.9649586615003
 21
639.4329022309293
 31
0.0
  0
LINE
  5
13B1
330
2
100
AcDbEntity
  8
0
100
AcDbLine
 10
767.2649586614995
 20
639.4329022309293
 30
0.0
 11
766.2649586614995
 21
639.4329022309293
 31
0.0
  0
LINE
  5
13B2
330
2
100
AcDbEntity
  8
0
100
AcDbLine
 10
766.2649586614995
 20
639.4329022309293
 30
0.0
 11
766.2649586614995
 21
647.9329022309293
 31
0.0
  0
LINE
  5
13B3
330
2
100
AcDbEntity
  8
0
100
AcDbLine
 10
766.2649586614995
 20
647.9329022309293
 30
0.0
 11
767.2649586614995
 21
647.9329022309293
 31
0.0
  0
LINE
  5
13B4
330
2
100
AcDbEntity
  8
0
100
AcDbLine
 10
767.2649586614995
 20
647.9329022309293
 30
0.0
 11
767.2649586614995
 21
639.4329022309293
 31
0.0
  0
LINE
  5
13B5
330
2
100
AcDbEntity
  8
0
100
AcDbLine
 10
767.2649586614995
 20
647.9329022309293
 30
0.0
 11
767.2649586614995
 21
639.4329022309293
 31
0.0
  0
LINE
  5
13B6
330
2
100
AcDbEntity
  8
0
100
AcDbLine
 10
771.9649586615003
 20
701.6529022309295
 30
0.0
 11
767.2649586614995
 21
701.6529022309295
 31
0.0
  0
LINE
  5
13B7
330
2
100
AcDbEntity
  8
0
100
AcDbLine
 10
767.2649586614995
 20
710.1529022309295
 30
0.0
 11
771.9649586615003
 21
710.1529022309295
 31
0.0
  0
LINE
  5
13B8
330
2
100
AcDbEntity
  8
CENTER
  6
CENS
100
AcDbLine
 10
749.7338017054723
 20
705.9029022309296
 30
0.0
 11
777.1907746355544
 21
705.9029022309296
 31
0.0
  0
LINE
  5
13B9
330
2
100
AcDbEntity
  8
0
100
AcDbLine
 10
772.2649586614996
 20
709.6332869886591
 30
0.0
 11
772.2649586614996
 21
702.1725174732
 31
0.0
  0
LINE
  5
13BA
330
2
100
AcDbEntity
  8
0
100
AcDbLine
 10
771.9649586615003
 20
701.6529022309295
 30
0.0
 11
771.9649586615003
 21
710.1529022309295
 31
0.0
  0
LINE
  5
13BB
330
2
100
AcDbEntity
  8
0
100
AcDbLine
 10
771.9649586615003
 20
701.6529022309295
 30
0.0
 11
772.2649586614996
 21
702.1725174732
 31
0.0
  0
LINE
  5
13BC
330
2
100
AcDbEntity
  8
0
100
AcDbLine
 10
772.2649586614996
 20
709.6332869886591
 30
0.0
 11
771.9649586615003
 21
710.1529022309295
 31
0.0
  0
LINE
  5
13BD
330
2
100
AcDbEntity
  8
0
100
AcDbLine
 10
767.2649586614995
 20
710.1529022309295
 30
0.0
 11
766.2649586614995
 21
710.1529022309295
 31
0.0
  0
LINE
  5
13BE
330
2
100
AcDbEntity
  8
0
100
AcDbLine
 10
766.2649586614995
 20
710.1529022309295
 30
0.0
 11
766.2649586614995
 21
701.6529022309295
 31
0.0
  0
LINE
  5
13BF
330
2
100
AcDbEntity
  8
0
100
AcDbLine
 10
766.2649586614995
 20
701.6529022309295
 30
0.0
 11
767.2649586614995
 21
701.6529022309295
 31
0.0
  0
LINE
  5
13C0
330
2
100
AcDbEntity
  8
0
100
AcDbLine
 10
767.2649586614995
 20
701.6529022309295
 30
0.0
 11
767.2649586614995
 21
710.1529022309295
 31
0.0
  0
LINE
  5
13C1
330
2
100
AcDbEntity
  8
0
100
AcDbLine
 10
767.2649586614995
 20
701.6529022309295
 30
0.0
 11
767.2649586614995
 21
710.1529022309295
 31
0.0
  0
ARC
  5
13C2
330
2
100
AcDbEntity
  8
0
100
AcDbCircle
 10
959.762308241379
 20
436.7938895118667
 30
0.0
 40
4.25000000000019
100
AcDbArc
 50
337.0991355555407
 51
293.57896235452
  0
ARC
  5
13C3
330
2
100
AcDbEntity
  8
0
100
AcDbCircle
 10
959.762308241379
 20
436.7938895118667
 30
0.0
 40
3.730384757729381
100
AcDbArc
 50
321.5287333511416
 51
309.1493645588698
  0
LWPOLYLINE
  5
13C4
330
2
100
AcDbEntity
  8
0
100
AcDbPolyline
 90
        6
 70
     1
 43
0.0
 10
961.7623082413791
 20
437.9485900502458
 10
959.762308241379
 20
439.1032905886249
 10
957.762308241379
 20
437.9485900502458
 10
957.762308241379
 20
435.6391889734877
 10
959.762308241379
 20
434.4844884351086
 10
961.7623082413791
 20
435.6391889734877
  0
CIRCLE
  5
13C5
330
2
100
AcDbEntity
  8
0
100
AcDbCircle
 10
959.762308241379
 20
436.7938895118667
 30
0.0
 40
2.3094010767585
  0
LINE
  5
13C6
330
2
100
AcDbEntity
  8
CENTER
100
AcDbLine
 10
959.762308241379
 20
442.7523197591607
 30
0.0
 11
959.762308241379
 21
430.8354592645727
 31
0.0
  0
LINE
  5
13C7
330
2
100
AcDbEntity
  8
CENTER
100
AcDbLine
 10
953.8038779940849
 20
436.7938895118667
 30
0.0
 11
965.720738488673
 21
436.7938895118667
 31
0.0
  0
ARC
  5
13C8
330
2
100
AcDbEntity
  8
0
100
AcDbCircle
 10
1021.98230824138
 20
436.7938895118667
 30
0.0
 40
4.25000000000019
100
AcDbArc
 50
246.4210376454799
 51
202.9008644444592
  0
ARC
  5
13C9
330
2
100
AcDbEntity
  8
0
100
AcDbCircle
 10
1021.98230824138
 20
436.7938895118667
 30
0.0
 40
3.730384757729381
100
AcDbArc
 50
230.8506354409909
 51
218.4712666488583
  0
LWPOLYLINE
  5
13CA
330
2
100
AcDbEntity
  8
0
100
AcDbPolyline
 90
        6
 70
     1
 43
0.0
 10
1023.98230824138
 20
437.9485900502458
 10
1021.98230824138
 20
439.1032905886249
 10
1019.98230824138
 20
437.9485900502458
 10
1019.98230824138
 20
435.6391889734877
 10
1021.98230824138
 20
434.4844884351086
 10
1023.98230824138
 20
435.6391889734877
  0
CIRCLE
  5
13CB
330
2
100
AcDbEntity
  8
0
100
AcDbCircle
 10
1021.98230824138
 20
436.7938895118667
 30
0.0
 40
2.3094010767585
  0
LINE
  5
13CC
330
2
100
AcDbEntity
  8
CENTER
100
AcDbLine
 10
1021.98230824138
 20
442.7523197591607
 30
0.0
 11
1021.98230824138
 21
430.8354592645727
 31
0.0
  0
LINE
  5
13CD
330
2
100
AcDbEntity
  8
CENTER
100
AcDbLine
 10
1016.023877994086
 20
436.7938895118667
 30
0.0
 11
1027.940738488674
 21
436.7938895118667
 31
0.0
  0
ARC
  5
13CE
330
2
100
AcDbEntity
  8
0
100
AcDbCircle
 10
1021.98230824138
 20
374.5738895118674
 30
0.0
 40
4.25000000000019
100
AcDbArc
 50
157.0991355555407
 51
113.57896235452
  0
ARC
  5
13CF
330
2
100
AcDbEntity
  8
0
100
AcDbCircle
 10
1021.98230824138
 20
374.5738895118674
 30
0.0
 40
3.730384757729381
100
AcDbArc
 50
141.5287333511416
 51
129.1493645588699
  0
LWPOLYLINE
  5
13D0
330
2
100
AcDbEntity
  8
0
100
AcDbPolyline
 90
        6
 70
     1
 43
0.0
 10
1023.98230824138
 20
375.7285900502456
 10
1021.98230824138
 20
376.8832905886255
 10
1019.98230824138
 20
375.7285900502456
 10
1019.98230824138
 20
373.4191889734874
 10
1021.98230824138
 20
372.2644884351083
 10
1023.98230824138
 20
373.4191889734874
  0
CIRCLE
  5
13D1
330
2
100
AcDbEntity
  8
0
100
AcDbCircle
 10
1021.98230824138
 20
374.5738895118674
 30
0.0
 40
2.3094010767585
  0
LINE
  5
13D2
330
2
100
AcDbEntity
  8
CENTER
100
AcDbLine
 10
1021.98230824138
 20
380.5323197591614
 30
0.0
 11
1021.98230824138
 21
368.6154592645734
 31
0.0
  0
LINE
  5
13D3
330
2
100
AcDbEntity
  8
CENTER
100
AcDbLine
 10
1016.023877994086
 20
374.5738895118674
 30
0.0
 11
1027.940738488674
 21
374.5738895118674
 31
0.0
  0
ARC
  5
13D4
330
2
100
AcDbEntity
  8
0
100
AcDbCircle
 10
959.7623082413809
 20
374.5738895118665
 30
0.0
 40
4.25000000000019
100
AcDbArc
 50
66.421037645593
 51
22.90086444442398
  0
ARC
  5
13D5
330
2
100
AcDbEntity
  8
0
100
AcDbCircle
 10
959.7623082413809
 20
374.5738895118665
 30
0.0
 40
3.730384757729381
100
AcDbArc
 50
50.8506354412629
 51
38.47126664870337
  0
LWPOLYLINE
  5
13D6
330
2
100
AcDbEntity
  8
0
100
AcDbPolyline
 90
        6
 70
     1
 43
0.0
 10
961.7623082413809
 20
375.7285900502456
 10
959.7623082413809
 20
376.8832905886255
 10
957.7623082413808
 20
375.7285900502456
 10
957.7623082413808
 20
373.4191889734874
 10
959.7623082413809
 20
372.2644884351083
 10
961.7623082413809
 20
373.4191889734874
  0
CIRCLE
  5
13D7
330
2
100
AcDbEntity
  8
0
100
AcDbCircle
 10
959.7623082413809
 20
374.5738895118665
 30
0.0
 40
2.3094010767585
  0
LINE
  5
13D8
330
2
100
AcDbEntity
  8
CENTER
100
AcDbLine
 10
959.7623082413809
 20
380.5323197591605
 30
0.0
 11
959.7623082413809
 21
368.6154592645725
 31
0.0
  0
LINE
  5
13D9
330
2
100
AcDbEntity
  8
CENTER
100
AcDbLine
 10
953.8038779940869
 20
374.5738895118665
 30
0.0
 11
965.7207384886749
 21
374.5738895118665
 31
0.0
  0
LINE
  5
13DA
330
2
100
AcDbEntity
  8
HIDS
100
AcDbLine
 10
982.3723082413795
 20
404.9338895118662
 30
0.0
 11
982.3723082413795
 21
396.4838895118663
 31
0.0
  0
LINE
  5
13DB
330
2
100
AcDbEntity
  8
HIDS
100
AcDbLine
 10
982.0389749080456
 20
404.9338895118662
 30
0.0
 11
982.0389749080456
 21
396.1505561785333
 31
0.0
  0
LINE
  5
13DC
330
2
100
AcDbEntity
  8
HIDS
100
AcDbLine
 10
978.7056415747136
 20
404.9338895118662
 30
0.0
 11
978.7056415747136
 21
397.3451412711401
 31
0.0
  0
LINE
  5
13DD
330
2
100
AcDbEntity
  8
HIDS
100
AcDbLine
 10
978.3723082413796
 20
404.9338895118662
 30
0.0
 11
978.3723082413796
 21
397.8536596301836
 31
0.0
  0
ARC
  5
13DE
330
2
100
AcDbEntity
  8
0
100
AcDbCircle
 10
990.8723082413796
 20
405.6838895118661
 30
0.0
 40
14.75
100
AcDbArc
 50
218.5889464533588
 51
160.1850718515033
  0
LINE
  5
13DF
330
2
100
AcDbEntity
  8
CENTER
  6
CENS
100
AcDbLine
 10
980.3723082413796
 20
443.4287190758786
 30
0.0
 11
980.3723082413796
 21
394.2316391673093
 31
0.0
  0
LINE
  5
13E0
330
2
100
AcDbEntity
  8
HIDS
100
AcDbLine
 10
982.3723082413795
 20
404.9338895118662
 30
0.0
 11
982.3723082413795
 21
393.6293260606252
 31
0.0
  0
ARC
  5
13E1
330
2
100
AcDbEntity
  8
0
100
AcDbCircle
 10
990.8723082413796
 20
405.6838895118661
 30
0.0
 40
14.75
100
AcDbArc
 50
180.0
 51
218.5889464533588
  0
LINE
  5
13E2
330
2
100
AcDbEntity
  8
HIDS
100
AcDbLine
 10
979.3431061874651
 20
396.4838895118663
 30
0.0
 11
980.3723082413796
 21
396.4838895118663
 31
0.0
  0
LINE
  5
13E3
330
2
100
AcDbEntity
  8
0
100
AcDbLine
 10
979.1723082413808
 20
395.6838895118662
 30
0.0
 11
980.0296840202788
 21
395.6838895118662
 31
0.0
  0
LINE
  5
13E4
330
2
100
AcDbEntity
  8
0
100
AcDbLine
 10
978.3723082413796
 20
397.8536596301836
 30
0.0
 11
978.3723082413796
 21
396.4838895118663
 31
0.0
  0
LINE
  5
13E5
330
2
100
AcDbEntity
  8
HOJO
100
AcDbLine
 10
978.7056415747136
 20
397.3451412711401
 30
0.0
 11
978.7056415747136
 21
396.1505561785333
 31
0.0
  0
LINE
  5
13E6
330
2
100
AcDbEntity
  8
0
100
AcDbLine
 10
978.3723082413796
 20
396.4838895118663
 30
0.0
 11
979.3431061874651
 21
396.4838895118663
 31
0.0
  0
LINE
  5
13E7
330
2
100
AcDbEntity
  8
0
100
AcDbLine
 10
978.3723082413796
 20
396.4838895118663
 30
0.0
 11
979.1723082413808
 21
395.6838895118662
 31
0.0
  0
LINE
  5
13E8
330
2
100
AcDbEntity
  8
HIDS
100
AcDbLine
 10
980.0296840202788
 20
395.6838895118662
 30
0.0
 11
980.3723082413796
 21
395.6838895118662
 31
0.0
  0
LINE
  5
13E9
330
2
100
AcDbEntity
  8
HIDS
100
AcDbLine
 10
982.3723082413795
 20
396.4838895118663
 30
0.0
 11
981.5723082413803
 21
395.6838895118662
 31
0.0
  0
LINE
  5
13EA
330
2
100
AcDbEntity
  8
HIDS
100
AcDbLine
 10
981.5723082413803
 20
395.6838895118662
 30
0.0
 11
980.3723082413796
 21
395.6838895118662
 31
0.0
  0
LINE
  5
13EB
330
2
100
AcDbEntity
  8
HIDS
100
AcDbLine
 10
982.3723082413795
 20
396.4838895118663
 30
0.0
 11
980.3723082413796
 21
396.4838895118663
 31
0.0
  0
LINE
  5
13EC
330
2
100
AcDbEntity
  8
HIDS
100
AcDbLine
 10
982.0389749080456
 20
396.1505561785333
 30
0.0
 11
982.0389749080456
 21
393.8714078834272
 31
0.0
  0
LINE
  5
13ED
330
2
100
AcDbEntity
  8
HIDS
100
AcDbLine
 10
976.9956191550024
 20
410.6838895118661
 30
0.0
 11
983.8723082413796
 21
410.6838895118661
 31
0.0
  0
LINE
  5
13EE
330
2
100
AcDbEntity
  8
HIDS
100
AcDbLine
 10
978.9612839361396
 20
414.3838895118669
 30
0.0
 11
983.8723082413796
 21
414.3838895118669
 31
0.0
  0
LINE
  5
13EF
330
2
100
AcDbEntity
  8
HIDS
100
AcDbLine
 10
983.3526929991093
 20
414.6838895118661
 30
0.0
 11
979.1863123488599
 21
414.6838895118661
 31
0.0
  0
LINE
  5
13F0
330
2
100
AcDbEntity
  8
HIDS
100
AcDbLine
 10
982.3723082413795
 20
409.0172228452001
 30
0.0
 11
978.3723082413796
 21
409.0172228452001
 31
0.0
  0
LINE
  5
13F1
330
2
100
AcDbEntity
  8
HIDS
100
AcDbLine
 10
976.9956191550006
 20
410.6838895118661
 30
0.0
 11
984.3723082413797
 21
410.6838895118661
 31
0.0
  0
LINE
  5
13F2
330
2
100
AcDbEntity
  8
0
100
AcDbLine
 10
976.1413883787243
 20
406.4338895118662
 30
0.0
 11
980.3723082413796
 21
406.4338895118662
 31
0.0
  0
LINE
  5
13F3
330
2
100
AcDbEntity
  8
0
100
AcDbLine
 10
976.1413883787243
 20
404.9338895118662
 30
0.0
 11
980.3723082413796
 21
404.9338895118662
 31
0.0
  0
LINE
  5
13F4
330
2
100
AcDbEntity
  8
0
100
AcDbLine
 10
976.8723082413796
 20
414.3838895118669
 30
0.0
 11
976.8723082413796
 21
410.6838895118661
 31
0.0
  0
LINE
  5
13F5
330
2
100
AcDbEntity
  8
0
100
AcDbLine
 10
978.3723082413796
 20
406.4338895118662
 30
0.0
 11
978.3723082413796
 21
404.9338895118662
 31
0.0
  0
LINE
  5
13F6
330
2
100
AcDbEntity
  8
HOJO
100
AcDbLine
 10
978.7056415747136
 20
406.4338895118662
 30
0.0
 11
978.7056415747136
 21
404.9338895118662
 31
0.0
  0
ARC
  5
13F7
330
2
100
AcDbEntity
  8
0
100
AcDbCircle
 10
990.8723082413796
 20
405.6838895118661
 30
0.0
 40
14.75
100
AcDbArc
 50
160.1850718515033
 51
180.0
  0
LINE
  5
13F8
330
2
100
AcDbEntity
  8
HIDS
100
AcDbLine
 10
978.3723082413796
 20
410.6838895118661
 30
0.0
 11
978.7056415747136
 21
409.0172228452001
 31
0.0
  0
LINE
  5
13F9
330
2
100
AcDbEntity
  8
0
100
AcDbLine
 10
976.8723082413796
 20
410.6838895118661
 30
0.0
 11
976.9956191550024
 21
410.6838895118661
 31
0.0
  0
LINE
  5
13FA
330
2
100
AcDbEntity
  8
HIDS
100
AcDbLine
 10
978.7056415747136
 20
409.0172228452001
 30
0.0
 11
978.7056415747136
 21
406.4338895118662
 31
0.0
  0
LINE
  5
13FB
330
2
100
AcDbEntity
  8
HIDS
100
AcDbLine
 10
978.3723082413796
 20
410.6838895118661
 30
0.0
 11
978.3723082413796
 21
406.4338895118662
 31
0.0
  0
LINE
  5
13FC
330
2
100
AcDbEntity
  8
HIDS
100
AcDbLine
 10
977.8723082413796
 20
410.6838895118661
 30
0.0
 11
977.8723082413796
 21
406.4338895118662
 31
0.0
  0
LINE
  5
13FD
330
2
100
AcDbEntity
  8
0
100
AcDbLine
 10
979.1863123488599
 20
414.6838895118661
 30
0.0
 11
977.3919234836501
 21
414.6838895118661
 31
0.0
  0
LINE
  5
13FE
330
2
100
AcDbEntity
  8
0
100
AcDbLine
 10
976.8723082413796
 20
414.3838895118669
 30
0.0
 11
977.3919234836501
 21
414.6838895118661
 31
0.0
  0
LINE
  5
13FF
330
2
100
AcDbEntity
  8
0
100
AcDbLine
 10
976.8723082413796
 20
414.3838895118669
 30
0.0
 11
978.9612839361396
 21
414.3838895118669
 31
0.0
  0
LINE
  5
1400
330
2
100
AcDbEntity
  8
HIDS
100
AcDbLine
 10
983.8723082413796
 20
410.6838895118661
 30
0.0
 11
983.8723082413796
 21
414.3838895118669
 31
0.0
  0
LINE
  5
1401
330
2
100
AcDbEntity
  8
HIDS
100
AcDbLine
 10
984.3723082413797
 20
418.9244521887321
 30
0.0
 11
984.3723082413797
 21
410.6838895118661
 31
0.0
  0
LINE
  5
1402
330
2
100
AcDbEntity
  8
HOJO
100
AcDbLine
 10
982.0389749080456
 20
406.4338895118662
 30
0.0
 11
982.0389749080456
 21
404.9338895118662
 31
0.0
  0
LINE
  5
1403
330
2
100
AcDbEntity
  8
0
100
AcDbLine
 10
982.3723082413795
 20
406.4338895118662
 30
0.0
 11
982.3723082413795
 21
404.9338895118662
 31
0.0
  0
LINE
  5
1404
330
2
100
AcDbEntity
  8
0
100
AcDbLine
 10
980.3723082413796
 20
404.9338895118662
 30
0.0
 11
983.9126027878407
 21
404.9338895118662
 31
0.0
  0
LINE
  5
1405
330
2
100
AcDbEntity
  8
0
100
AcDbLine
 10
980.3723082413796
 20
406.4338895118662
 30
0.0
 11
983.9126027878407
 21
406.433889511867
 31
0.0
  0
LINE
  5
1406
330
2
100
AcDbEntity
  8
HIDS
100
AcDbLine
 10
982.3723082413795
 20
410.6838895118661
 30
0.0
 11
982.0389749080456
 21
409.0172228452001
 31
0.0
  0
LINE
  5
1407
330
2
100
AcDbEntity
  8
HIDS
100
AcDbLine
 10
982.3723082413795
 20
410.6838895118661
 30
0.0
 11
982.3723082413795
 21
406.4338895118662
 31
0.0
  0
LINE
  5
1408
330
2
100
AcDbEntity
  8
HIDS
100
AcDbLine
 10
982.0389749080456
 20
409.0172228452001
 30
0.0
 11
982.0389749080456
 21
406.4338895118662
 31
0.0
  0
LINE
  5
1409
330
2
100
AcDbEntity
  8
HIDS
100
AcDbLine
 10
982.8723082413796
 20
410.6838895118661
 30
0.0
 11
982.8723082413796
 21
406.4338895118662
 31
0.0
  0
LINE
  5
140A
330
2
100
AcDbEntity
  8
HIDS
100
AcDbLine
 10
983.3526929991093
 20
414.6838895118661
 30
0.0
 11
983.8723082413796
 21
414.3838895118669
 31
0.0
  0
LINE
  5
140B
330
2
100
AcDbEntity
  8
0
100
AcDbLine
 10
1004.872308241379
 20
404.9338895118662
 30
0.0
 11
997.8320136949148
 21
404.9338895118662
 31
0.0
  0
LINE
  5
140C
330
2
100
AcDbEntity
  8
0
100
AcDbLine
 10
997.8320136949148
 20
406.4338895118662
 30
0.0
 11
1004.872308241379
 21
406.4338895118662
 31
0.0
  0
LINE
  5
140D
330
2
100
AcDbEntity
  8
0
100
AcDbLine
 10
1004.872308241379
 20
406.4338895118662
 30
0.0
 11
1004.872308241379
 21
404.9338895118662
 31
0.0
  0
LINE
  5
140E
330
2
100
AcDbEntity
  8
0
100
AcDbLine
 10
975.3723020701924
 20
439.6838873762925
 30
0.0
 11
985.3723020701925
 21
439.6838873762925
 31
0.0
  0
ARC
  5
140F
330
2
100
AcDbEntity
  8
0
100
AcDbCircle
 10
985.3723020701925
 20
435.6838873762925
 30
0.0
 40
4.0
100
AcDbArc
 50
0.0
 51
90.0
  0
LINE
  5
1410
330
2
100
AcDbEntity
  8
0
100
AcDbLine
 10
989.3723020701925
 20
435.6838873762925
 30
0.0
 11
989.3723020701925
 21
435.6838873762925
 31
0.0
  0
ARC
  5
1411
330
2
100
AcDbEntity
  8
0
100
AcDbCircle
 10
975.3723020701924
 20
435.6838873762925
 30
0.0
 40
4.0
100
AcDbArc
 50
90.0
 51
180.0
  0
CIRCLE
  5
1412
330
2
100
AcDbEntity
  8
0
100
AcDbCircle
 10
783.7338017054723
 20
664.292902230929
 30
0.0
 40
9.000006171187123
  0
CIRCLE
  5
1413
330
2
100
AcDbEntity
  8
HOJO
100
AcDbCircle
 10
1015.622308241379
 20
430.4338895118662
 30
0.0
 40
2.0
  0
CIRCLE
  5
1414
330
2
100
AcDbEntity
  8
0
100
AcDbCircle
 10
1015.622308241379
 20
430.4338895118662
 30
0.0
 40
1.6
  0
CIRCLE
  5
1415
330
2
100
AcDbEntity
  8
HOJO
100
AcDbCircle
 10
966.1223082413796
 20
430.4338895118662
 30
0.0
 40
2.0
  0
CIRCLE
  5
1416
330
2
100
AcDbEntity
  8
0
100
AcDbCircle
 10
966.1223082413796
 20
430.4338895118662
 30
0.0
 40
1.6
  0
CIRCLE
  5
1417
330
2
100
AcDbEntity
  8
HOJO
100
AcDbCircle
 10
966.1223082413796
 20
380.9338895118662
 30
0.0
 40
2.0
  0
CIRCLE
  5
1418
330
2
100
AcDbEntity
  8
0
100
AcDbCircle
 10
966.1223082413796
 20
380.9338895118662
 30
0.0
 40
1.6
  0
CIRCLE
  5
1419
330
2
100
AcDbEntity
  8
HOJO
100
AcDbCircle
 10
1015.622308241379
 20
380.9338895118662
 30
0.0
 40
2.0
  0
CIRCLE
  5
141A
330
2
100
AcDbEntity
  8
0
100
AcDbCircle
 10
1015.622308241379
 20
380.9338895118662
 30
0.0
 40
1.6
  0
CIRCLE
  5
141C
330
2
100
AcDbEntity
  8
0
100
AcDbCircle
 10
990.8723082413779
 20
405.683889511868
 30
0.0
 40
6.999999999998635
  0
ARC
  5
141D
330
2
100
AcDbEntity
  8
0
100
AcDbCircle
 10
990.8723082413796
 20
405.683889511868
 30
0.0
 40
8.154700538378165
100
AcDbArc
 50
5.277035934804533
 51
174.7229640651954
  0
ARC
  5
141E
330
2
100
AcDbEntity
  8
0
100
AcDbCircle
 10
990.8723082413796
 20
405.683889511868
 30
0.0
 40
8.154700538378165
100
AcDbArc
 50
185.2770359348045
 51
354.7229640651954
  0
CIRCLE
  5
141F
330
2
100
AcDbEntity
  8
CENTER
100
AcDbCircle
 10
990.8723082413796
 20
405.6838895118652
 30
0.0
 40
35.0017856687341
  0
LINE
  5
1420
330
2
100
AcDbEntity
  8
0
100
AcDbLine
 10
75.18657860588678
 20
432.5438895118576
 30
0.0
 11
79.88657860588751
 21
432.5438895118576
 31
0.0
  0
LINE
  5
1421
330
2
100
AcDbEntity
  8
0
100
AcDbLine
 10
79.88657860588751
 20
441.0438895118576
 30
0.0
 11
75.18657860588678
 21
441.0438895118576
 31
0.0
  0
LINE
  5
1422
330
2
100
AcDbEntity
  8
CENTER
  6
CENS
100
AcDbLine
 10
97.4177355619147
 20
436.7938895118577
 30
0.0
 11
69.96076263183272
 21
436.7938895118577
 31
0.0
  0
LINE
  5
1423
330
2
100
AcDbEntity
  8
0
100
AcDbLine
 10
74.88657860588751
 20
440.5242742695872
 30
0.0
 11
74.88657860588751
 21
433.0635047541281
 31
0.0
  0
LINE
  5
1424
330
2
100
AcDbEntity
  8
0
100
AcDbLine
 10
75.18657860588678
 20
432.5438895118576
 30
0.0
 11
75.18657860588678
 21
441.0438895118576
 31
0.0
  0
LINE
  5
1425
330
2
100
AcDbEntity
  8
0
100
AcDbLine
 10
75.18657860588678
 20
432.5438895118576
 30
0.0
 11
74.88657860588751
 21
433.0635047541281
 31
0.0
  0
LINE
  5
1426
330
2
100
AcDbEntity
  8
0
100
AcDbLine
 10
74.88657860588751
 20
440.5242742695872
 30
0.0
 11
75.18657860588678
 21
441.0438895118576
 31
0.0
  0
LINE
  5
1427
330
2
100
AcDbEntity
  8
0
100
AcDbLine
 10
79.88657860588751
 20
441.0438895118576
 30
0.0
 11
80.88657860588751
 21
441.0438895118576
 31
0.0
  0
LINE
  5
1428
330
2
100
AcDbEntity
  8
0
100
AcDbLine
 10
80.88657860588751
 20
441.0438895118576
 30
0.0
 11
80.88657860588751
 21
432.5438895118576
 31
0.0
  0
LINE
  5
1429
330
2
100
AcDbEntity
  8
0
100
AcDbLine
 10
80.88657860588751
 20
432.5438895118576
 30
0.0
 11
79.88657860588751
 21
432.5438895118576
 31
0.0
  0
LINE
  5
142A
330
2
100
AcDbEntity
  8
0
100
AcDbLine
 10
79.88657860588751
 20
432.5438895118576
 30
0.0
 11
79.88657860588751
 21
441.0438895118576
 31
0.0
  0
LINE
  5
142B
330
2
100
AcDbEntity
  8
0
100
AcDbLine
 10
79.88657860588751
 20
432.5438895118576
 30
0.0
 11
79.88657860588751
 21
441.0438895118576
 31
0.0
  0
ARC
  5
142C
330
2
100
AcDbEntity
  8
0
100
AcDbCircle
 10
76.08330919528703
 20
370.6838895118571
 30
0.0
 40
5.0
100
AcDbArc
 50
8.213210701749492
 51
16.12586214361865
  0
LINE
  5
142D
330
2
100
AcDbEntity
  8
0
100
AcDbLine
 10
81.01181703524957
 20
371.6489846989833
 30
0.0
 11
80.4177355619147
 21
405.6838895118571
 31
0.0
  0
LINE
  5
142E
330
2
100
AcDbEntity
  8
0
100
AcDbLine
 10
92.4177355619147
 20
369.683889511857
 30
0.0
 11
83.01151242556329
 21
369.683889511857
 31
0.0
  0
ARC
  5
142F
330
2
100
AcDbEntity
  8
0
100
AcDbCircle
 10
83.01151242556329
 20
371.683889511857
 30
0.0
 40
2.0
100
AcDbArc
 50
181.0000000000017
 51
270.0
  0
LINE
  5
1430
330
2
100
AcDbEntity
  8
CENTER
  6
CENS
100
AcDbLine
 10
63.41773556191469
 20
420.0165100327582
 30
0.0
 11
63.41773556191469
 21
443.4287190758695
 31
0.0
  0
LINE
  5
1431
330
2
100
AcDbEntity
  8
0
100
AcDbLine
 10
81.01181703524957
 20
439.7187943247317
 30
0.0
 11
80.4177355619147
 21
405.6838895118571
 31
0.0
  0
LINE
  5
1432
330
2
100
AcDbEntity
  8
0
100
AcDbLine
 10
63.94652058810857
 20
432.6797772810795
 30
0.0
 11
64.41773556191288
 21
405.6838895118571
 31
0.0
  0
LINE
  5
1433
330
2
100
AcDbEntity
  8
0
100
AcDbLine
 10
92.4177355619147
 20
405.6838895118571
 30
0.0
 11
49.4177355619147
 21
405.6838895118571
 31
0.0
  0
LINE
  5
1434
330
2
100
AcDbEntity
  8
0
100
AcDbLine
 10
74.88657860588751
 20
375.683889511857
 30
0.0
 11
49.4177355619147
 21
375.683889511857
 31
0.0
  0
LINE
  5
1435
330
2
100
AcDbEntity
  8
0
100
AcDbLine
 10
63.94652058810857
 20
378.6880017426346
 30
0.0
 11
64.4177355619147
 21
405.6838895118571
 31
0.0
  0
ARC
  5
1436
330
2
100
AcDbEntity
  8
0
100
AcDbCircle
 10
60.94599182472189
 20
378.6838895118571
 30
0.0
 40
3.0
100
AcDbArc
 50
270.0
 51
358.9999999999982
  0
ARC
  5
1437
330
2
100
AcDbEntity
  8
0
100
AcDbCircle
 10
76.50952061130624
 20
380.9160708663138
 30
0.0
 40
3.0
100
AcDbArc
 50
90.0
 51
178.9999999999721
  0
LINE
  5
1438
330
2
100
AcDbEntity
  8
0
100
AcDbLine
 10
67.03823385824285
 20
383.9160708663138
 30
0.0
 11
76.50952061130624
 21
383.9160708663138
 31
0.0
  0
LINE
  5
1439
330
2
100
AcDbEntity
  8
0
100
AcDbLine
 10
73.50997752583566
 20
380.9684280856263
 30
0.0
 11
73.45203642599767
 21
377.6489846989834
 31
0.0
  0
ARC
  5
143A
330
2
100
AcDbEntity
  8
0
100
AcDbCircle
 10
71.45234103568395
 20
377.683889511857
 30
0.0
 40
2.0
100
AcDbArc
 50
270.0
 51
358.9999999999721
  0
LINE
  5
143B
330
2
100
AcDbEntity
  8
0
100
AcDbLine
 10
74.88657860588751
 20
435.6838895118579
 30
0.0
 11
49.4177355619147
 21
435.6838895118571
 31
0.0
  0
ARC
  5
143C
330
2
100
AcDbEntity
  8
0
100
AcDbCircle
 10
60.94599182472189
 20
432.683889511857
 30
0.0
 40
3.0
100
AcDbArc
 50
1.000000000001775
 51
90.0
  0
ARC
  5
143D
330
2
100
AcDbEntity
  8
0
100
AcDbCircle
 10
83.01151242556329
 20
439.6838895118571
 30
0.0
 40
2.0
100
AcDbArc
 50
90.0
 51
178.9999999999982
  0
LINE
  5
143E
330
2
100
AcDbEntity
  8
0
100
AcDbLine
 10
92.4177355619147
 20
441.6838895118571
 30
0.0
 11
83.01151242556329
 21
441.6838895118571
 31
0.0
  0
ARC
  5
143F
330
2
100
AcDbEntity
  8
0
100
AcDbCircle
 10
76.08330919528703
 20
440.683889511858
 30
0.0
 40
5.0
100
AcDbArc
 50
343.8741378563813
 51
351.7867892982504
  0
LINE
  5
1440
330
2
100
AcDbEntity
  8
0
100
AcDbLine
 10
49.4177355619147
 20
375.683889511857
 30
0.0
 11
49.4177355619147
 21
435.6838895118571
 31
0.0
  0
LINE
  5
1441
330
2
100
AcDbEntity
  8
0
100
AcDbLine
 10
75.18657860588678
 20
378.8238895118574
 30
0.0
 11
79.88657860588751
 21
378.8238895118574
 31
0.0
  0
LINE
  5
1442
330
2
100
AcDbEntity
  8
0
100
AcDbLine
 10
79.88657860588751
 20
370.3238895118574
 30
0.0
 11
75.18657860588678
 21
370.3238895118574
 31
0.0
  0
LINE
  5
1443
330
2
100
AcDbEntity
  8
CENTER
  6
CENS
100
AcDbLine
 10
97.4177355619147
 20
374.5738895118574
 30
0.0
 11
69.96076263183272
 21
374.5738895118574
 31
0.0
  0
LINE
  5
1444
330
2
100
AcDbEntity
  8
0
100
AcDbLine
 10
74.88657860588751
 20
370.8435047541279
 30
0.0
 11
74.88657860588751
 21
378.3042742695869
 31
0.0
  0
LINE
  5
1445
330
2
100
AcDbEntity
  8
0
100
AcDbLine
 10
75.18657860588678
 20
378.8238895118574
 30
0.0
 11
75.18657860588678
 21
370.3238895118574
 31
0.0
  0
LINE
  5
1446
330
2
100
AcDbEntity
  8
0
100
AcDbLine
 10
75.18657860588678
 20
378.8238895118574
 30
0.0
 11
74.88657860588751
 21
378.3042742695869
 31
0.0
  0
LINE
  5
1447
330
2
100
AcDbEntity
  8
0
100
AcDbLine
 10
74.88657860588751
 20
370.8435047541279
 30
0.0
 11
75.18657860588678
 21
370.3238895118574
 31
0.0
  0
LINE
  5
1448
330
2
100
AcDbEntity
  8
0
100
AcDbLine
 10
79.88657860588751
 20
370.3238895118574
 30
0.0
 11
80.88657860588751
 21
370.3238895118574
 31
0.0
  0
LINE
  5
1449
330
2
100
AcDbEntity
  8
0
100
AcDbLine
 10
80.88657860588751
 20
370.3238895118574
 30
0.0
 11
80.88657860588751
 21
378.8238895118574
 31
0.0
  0
LINE
  5
144A
330
2
100
AcDbEntity
  8
0
100
AcDbLine
 10
80.88657860588751
 20
378.8238895118574
 30
0.0
 11
79.88657860588751
 21
378.8238895118574
 31
0.0
  0
LINE
  5
144B
330
2
100
AcDbEntity
  8
0
100
AcDbLine
 10
79.88657860588751
 20
378.8238895118574
 30
0.0
 11
79.88657860588751
 21
370.3238895118574
 31
0.0
  0
LINE
  5
144C
330
2
100
AcDbEntity
  8
0
100
AcDbLine
 10
79.88657860588751
 20
378.8238895118574
 30
0.0
 11
79.88657860588751
 21
370.3238895118574
 31
0.0
  0
LINE
  5
144D
330
2
100
AcDbEntity
  8
0
100
AcDbLine
 10
58.41772939072757
 20
439.6838895118571
 30
0.0
 11
68.41772939072757
 21
439.6838895118571
 31
0.0
  0
ARC
  5
144E
330
2
100
AcDbEntity
  8
0
100
AcDbCircle
 10
68.41772939072757
 20
435.6838895118571
 30
0.0
 40
4.0
100
AcDbArc
 50
0.0
 51
90.0
  0
ARC
  5
144F
330
2
100
AcDbEntity
  8
0
100
AcDbCircle
 10
58.41772939072757
 20
435.6838895118571
 30
0.0
 40
4.0
100
AcDbArc
 50
90.0
 51
180.0
  0
CIRCLE
  5
1450
330
2
100
AcDbEntity
  8
0
100
AcDbCircle
 10
990.8723082413779
 20
405.683889511868
 30
0.0
 40
22.5
  0
LINE
  5
1451
330
2
100
AcDbEntity
  8
0
100
AcDbLine
 10
771.9649586597759
 20
432.5438895118567
 30
0.0
 11
767.2649586597751
 21
432.5438895118567
 31
0.0
  0
LINE
  5
1452
330
2
100
AcDbEntity
  8
0
100
AcDbLine
 10
767.2649586597751
 20
441.0438895118567
 30
0.0
 11
771.9649586597759
 21
441.0438895118567
 31
0.0
  0
LINE
  5
1453
330
2
100
AcDbEntity
  8
CENTER
  6
CENS
100
AcDbLine
 10
749.7338017037479
 20
436.7938895118568
 30
0.0
 11
777.19077463383
 21
436.7938895118568
 31
0.0
  0
LINE
  5
1454
330
2
100
AcDbEntity
  8
0
100
AcDbLine
 10
772.2649586597752
 20
440.5242742695863
 30
0.0
 11
772.2649586597752
 21
433.0635047541272
 31
0.0
  0
LINE
  5
1455
330
2
100
AcDbEntity
  8
0
100
AcDbLine
 10
771.9649586597759
 20
432.5438895118567
 30
0.0
 11
771.9649586597759
 21
441.0438895118567
 31
0.0
  0
LINE
  5
1456
330
2
100
AcDbEntity
  8
0
100
AcDbLine
 10
771.9649586597759
 20
432.5438895118567
 30
0.0
 11
772.2649586597752
 21
433.0635047541272
 31
0.0
  0
LINE
  5
1457
330
2
100
AcDbEntity
  8
0
100
AcDbLine
 10
772.2649586597752
 20
440.5242742695863
 30
0.0
 11
771.9649586597759
 21
441.0438895118567
 31
0.0
  0
LINE
  5
1458
330
2
100
AcDbEntity
  8
0
100
AcDbLine
 10
767.2649586597751
 20
441.0438895118567
 30
0.0
 11
766.2649586597751
 21
441.0438895118567
 31
0.0
  0
LINE
  5
1459
330
2
100
AcDbEntity
  8
0
100
AcDbLine
 10
766.2649586597751
 20
441.0438895118567
 30
0.0
 11
766.2649586597751
 21
432.5438895118567
 31
0.0
  0
LINE
  5
145A
330
2
100
AcDbEntity
  8
0
100
AcDbLine
 10
766.2649586597751
 20
432.5438895118567
 30
0.0
 11
767.2649586597751
 21
432.5438895118567
 31
0.0
  0
LINE
  5
145B
330
2
100
AcDbEntity
  8
0
100
AcDbLine
 10
767.2649586597751
 20
432.5438895118567
 30
0.0
 11
767.2649586597751
 21
441.0438895118567
 31
0.0
  0
LINE
  5
145C
330
2
100
AcDbEntity
  8
0
100
AcDbLine
 10
767.2649586597751
 20
432.5438895118567
 30
0.0
 11
767.2649586597751
 21
441.0438895118567
 31
0.0
  0
ARC
  5
145D
330
2
100
AcDbEntity
  8
0
100
AcDbCircle
 10
771.0682280703756
 20
370.6838895118561
 30
0.0
 40
5.0
100
AcDbArc
 50
163.8741378563813
 51
171.7867892982505
  0
LINE
  5
145E
330
2
100
AcDbEntity
  8
0
100
AcDbLine
 10
766.139720230413
 20
371.6489846989824
 30
0.0
 11
766.7338017037479
 21
405.6838895118562
 31
0.0
  0
LINE
  5
145F
330
2
100
AcDbEntity
  8
0
100
AcDbLine
 10
754.7338017037479
 20
369.6838895118562
 30
0.0
 11
764.1400248400993
 21
369.6838895118562
 31
0.0
  0
ARC
  5
1460
330
2
100
AcDbEntity
  8
0
100
AcDbCircle
 10
764.1400248400993
 20
371.6838895118562
 30
0.0
 40
2.0
100
AcDbArc
 50
270.0
 51
358.9999999999982
  0
LINE
  5
1461
330
2
100
AcDbEntity
  8
CENTER
  6
CENS
100
AcDbLine
 10
783.7338017037479
 20
420.0165100327573
 30
0.0
 11
783.7338017037479
 21
443.4287190758686
 31
0.0
  0
LINE
  5
1462
330
2
100
AcDbEntity
  8
0
100
AcDbLine
 10
766.139720230413
 20
439.7187943247308
 30
0.0
 11
766.555471280332
 21
415.9004326268986
 31
0.0
  0
LINE
  5
1463
330
2
100
AcDbEntity
  8
0
100
AcDbLine
 10
783.2050166775541
 20
432.6797772810786
 30
0.0
 11
782.9874736670214
 21
420.2167465545889
 31
0.0
  0
LINE
  5
1464
330
2
100
AcDbEntity
  8
0
100
AcDbLine
 10
754.7338017037479
 20
405.6838895118562
 30
0.0
 11
755.1938410569334
 21
405.6838895118562
 31
0.0
  0
LINE
  5
1465
330
2
100
AcDbEntity
  8
0
100
AcDbLine
 10
772.2649586597752
 20
375.6838895118562
 30
0.0
 11
797.733801703748
 21
375.6838895118562
 31
0.0
  0
LINE
  5
1466
330
2
100
AcDbEntity
  8
0
100
AcDbLine
 10
783.2050166775541
 20
378.6880017426337
 30
0.0
 11
782.733801703748
 21
405.6838895118562
 31
0.0
  0
ARC
  5
1467
330
2
100
AcDbEntity
  8
0
100
AcDbCircle
 10
786.2055454409408
 20
378.6838895118561
 30
0.0
 40
3.0
100
AcDbArc
 50
181.0000000000017
 51
270.0
  0
ARC
  5
1468
330
2
100
AcDbEntity
  8
0
100
AcDbCircle
 10
770.6420166543564
 20
430.4517081573994
 30
0.0
 40
3.0
100
AcDbArc
 50
270.0
 51
358.9999999999721
  0
LINE
  5
1469
330
2
100
AcDbEntity
  8
0
100
AcDbLine
 10
780.1133034074198
 20
427.4517081573994
 30
0.0
 11
770.6420166543564
 21
427.4517081574003
 31
0.0
  0
LINE
  5
146A
330
2
100
AcDbEntity
  8
0
100
AcDbLine
 10
773.641559739827
 20
430.3993509380879
 30
0.0
 11
773.6995008396649
 21
433.7187943247317
 31
0.0
  0
ARC
  5
146B
330
2
100
AcDbEntity
  8
0
100
AcDbCircle
 10
775.6991962299787
 20
433.6838895118561
 30
0.0
 40
2.0
100
AcDbArc
 50
90.0
 51
178.9999999999721
  0
LINE
  5
146C
330
2
100
AcDbEntity
  8
0
100
AcDbLine
 10
772.2649586597752
 20
435.6838895118571
 30
0.0
 11
797.733801703748
 21
435.6838895118562
 31
0.0
  0
ARC
  5
146D
330
2
100
AcDbEntity
  8
0
100
AcDbCircle
 10
786.2055454409408
 20
432.6838895118561
 30
0.0
 40
3.0
100
AcDbArc
 50
90.0
 51
178.9999999999982
  0
ARC
  5
146E
330
2
100
AcDbEntity
  8
0
100
AcDbCircle
 10
764.1400248400993
 20
439.6838895118562
 30
0.0
 40
2.0
100
AcDbArc
 50
1.000000000001775
 51
90.0
  0
LINE
  5
146F
330
2
100
AcDbEntity
  8
0
100
AcDbLine
 10
754.7338017037479
 20
441.6838895118561
 30
0.0
 11
764.1400248400993
 21
441.6838895118561
 31
0.0
  0
ARC
  5
1470
330
2
100
AcDbEntity
  8
0
100
AcDbCircle
 10
771.0682280703756
 20
440.683889511857
 30
0.0
 40
5.0
100
AcDbArc
 50
188.2132107017494
 51
196.1258621436186
  0
LINE
  5
1471
330
2
100
AcDbEntity
  8
0
100
AcDbLine
 10
797.733801703748
 20
375.6838895118562
 30
0.0
 11
797.733801703748
 21
435.6838895118562
 31
0.0
  0
LINE
  5
1472
330
2
100
AcDbEntity
  8
0
100
AcDbLine
 10
771.9649586597759
 20
378.8238895118565
 30
0.0
 11
767.2649586597751
 21
378.8238895118565
 31
0.0
  0
LINE
  5
1473
330
2
100
AcDbEntity
  8
0
100
AcDbLine
 10
767.2649586597751
 20
370.3238895118565
 30
0.0
 11
771.9649586597759
 21
370.3238895118565
 31
0.0
  0
LINE
  5
1474
330
2
100
AcDbEntity
  8
CENTER
  6
CENS
100
AcDbLine
 10
749.7338017037479
 20
374.5738895118565
 30
0.0
 11
777.19077463383
 21
374.5738895118565
 31
0.0
  0
LINE
  5
1475
330
2
100
AcDbEntity
  8
0
100
AcDbLine
 10
772.2649586597752
 20
370.8435047541269
 30
0.0
 11
772.2649586597752
 21
378.304274269586
 31
0.0
  0
LINE
  5
1476
330
2
100
AcDbEntity
  8
0
100
AcDbLine
 10
771.9649586597759
 20
378.8238895118565
 30
0.0
 11
771.9649586597759
 21
370.3238895118565
 31
0.0
  0
LINE
  5
1477
330
2
100
AcDbEntity
  8
0
100
AcDbLine
 10
771.9649586597759
 20
378.8238895118565
 30
0.0
 11
772.2649586597752
 21
378.304274269586
 31
0.0
  0
LINE
  5
1478
330
2
100
AcDbEntity
  8
0
100
AcDbLine
 10
772.2649586597752
 20
370.8435047541269
 30
0.0
 11
771.9649586597759
 21
370.3238895118565
 31
0.0
  0
LINE
  5
1479
330
2
100
AcDbEntity
  8
0
100
AcDbLine
 10
767.2649586597751
 20
370.3238895118565
 30
0.0
 11
766.2649586597751
 21
370.3238895118565
 31
0.0
  0
LINE
  5
147A
330
2
100
AcDbEntity
  8
0
100
AcDbLine
 10
766.2649586597751
 20
370.3238895118565
 30
0.0
 11
766.2649586597751
 21
378.8238895118565
 31
0.0
  0
LINE
  5
147B
330
2
100
AcDbEntity
  8
0
100
AcDbLine
 10
766.2649586597751
 20
378.8238895118565
 30
0.0
 11
767.2649586597751
 21
378.8238895118565
 31
0.0
  0
LINE
  5
147C
330
2
100
AcDbEntity
  8
0
100
AcDbLine
 10
767.2649586597751
 20
378.8238895118565
 30
0.0
 11
767.2649586597751
 21
370.3238895118565
 31
0.0
  0
LINE
  5
147D
330
2
100
AcDbEntity
  8
0
100
AcDbLine
 10
767.2649586597751
 20
378.8238895118565
 30
0.0
 11
767.2649586597751
 21
370.3238895118565
 31
0.0
  0
LINE
  5
147E
330
2
100
AcDbEntity
  8
0
100
AcDbLine
 10
788.2337910946978
 20
412.6838895118571
 30
0.0
 11
778.233791094696
 21
412.6838895118571
 31
0.0
  0
LINE
  5
147F
330
2
100
AcDbEntity
  8
0
100
AcDbLine
 10
788.233791094696
 20
412.6838895118571
 30
0.0
 11
788.233791094696
 21
405.6838895118562
 31
0.0
  0
LINE
  5
1480
330
2
100
AcDbEntity
  8
0
100
AcDbLine
 10
790.233791094696
 20
413.8385900502361
 30
0.0
 11
788.233791094696
 21
412.6838895118561
 31
0.0
  0
LINE
  5
1481
330
2
100
AcDbEntity
  8
0
100
AcDbLine
 10
761.2337910946978
 20
412.9338895118562
 30
0.0
 11
761.2337910946978
 21
405.6838895118562
 31
0.0
  0
LINE
  5
1482
330
2
100
AcDbEntity
  8
0
100
AcDbLine
 10
788.2337910946978
 20
412.6838895118571
 30
0.0
 11
778.233791094696
 21
412.6838895118571
 31
0.0
  0
LINE
  5
1483
330
2
100
AcDbEntity
  8
0
100
AcDbLine
 10
783.1460052733698
 20
420.4338895118571
 30
0.0
 11
790.233791094696
 21
420.4338895118571
 31
0.0
  0
LINE
  5
1484
330
2
100
AcDbEntity
  8
0
100
AcDbLine
 10
790.233791094696
 20
420.4338895118571
 30
0.0
 11
790.233791094696
 21
405.6838895118562
 31
0.0
  0
LINE
  5
1485
330
2
100
AcDbEntity
  8
0
100
AcDbLine
 10
776.233791094696
 20
415.9685706985801
 30
0.0
 11
776.233791094696
 21
405.6838895118562
 31
0.0
  0
LINE
  5
1486
330
2
100
AcDbEntity
  8
0
100
AcDbLine
 10
778.233791094696
 20
416.4939708460114
 30
0.0
 11
778.233791094696
 21
405.6838895118562
 31
0.0
  0
LINE
  5
1487
330
2
100
AcDbEntity
  8
0
100
AcDbLine
 10
769.2337910946978
 20
412.9338895118562
 30
0.0
 11
761.2337910946978
 21
412.9338895118562
 31
0.0
  0
LINE
  5
1488
330
2
100
AcDbEntity
  8
0
100
AcDbLine
 10
769.2337910946978
 20
405.6838895118562
 30
0.0
 11
769.2337910946978
 21
412.9338895118562
 31
0.0
  0
LINE
  5
1489
330
2
100
AcDbEntity
  8
0
100
AcDbLine
 10
776.233791094696
 20
412.6838895118561
 30
0.0
 11
769.2337910946978
 21
412.6838895118561
 31
0.0
  0
LINE
  5
148A
330
2
100
AcDbEntity
  8
0
100
AcDbLine
 10
757.4810143449638
 20
405.6838895118562
 30
0.0
 11
761.2337910946978
 21
412.1838895118561
 31
0.0
  0
SPLINE
  5
148B
330
2
100
AcDbEntity
  8
HOJO
100
AcDbSpline
210
0.0
220
0.0
230
1.0
 70
     8
 71
     3
 72
    20
 73
    16
 74
     0
 42
0.0000000001
 43
0.0000000001
 40
0.0
 40
0.0
 40
0.0
 40
0.0
 40
5.311626210389601
 40
7.954639692924123
 40
10.24579206730457
 40
14.18281221953265
 40
18.83794314114633
 40
26.54246833222011
 40
31.19712602527561
 40
34.95638115537181
 40
42.12378530287149
 40
45.78553747213095
 40
50.20353689726185
 40
53.26513166942802
 40
54.23175360515262
 40
54.23175360515262
 40
54.23175360515262
 40
54.23175360515262
 10
797.7338017037461
 20
432.3713382338728
 30
0.0
 10
796.020822537858
 20
432.263296183646
 30
0.0
 10
793.455481618447
 20
432.1014934612421
 30
0.0
 10
789.6837277313704
 20
431.849360789075
 30
0.0
 10
788.3645865152364
 20
428.9169193041079
 30
0.0
 10
785.9293771469463
 20
426.2624104808128
 30
0.0
 10
784.0913288037961
 20
421.111115047648
 30
0.0
 10
779.9664923943189
 20
416.4013676960229
 30
0.0
 10
774.4888448913123
 20
415.7640362616038
 30
0.0
 10
769.5754593817462
 20
415.3784646180628
 30
0.0
 10
764.7414600349882
 20
416.5420487275168
 30
0.0
 10
759.70373327035
 20
413.8425184916522
 30
0.0
 10
756.6325826489799
 20
409.9682943625102
 30
0.0
 10
755.6326083542542
 20
407.2900538416196
 30
0.0
 10
755.2765688290226
 20
405.9950408115491
 30
0.0
 10
755.1938410569334
 20
405.6838895118562
 30
0.0
  0
LINE
  5
148C
330
2
100
AcDbEntity
  8
0
100
AcDbLine
 10
797.733801703748
 20
430.6838895118571
 30
0.0
 11
790.733801703748
 21
430.6838895118571
 31
0.0
  0
LINE
  5
148D
330
2
100
AcDbEntity
  8
0
100
AcDbLine
 10
790.733801703748
 20
430.6838895118571
 30
0.0
 11
790.733801703748
 21
405.6838895118562
 31
0.0
  0
LINE
  5
148E
330
2
100
AcDbEntity
  8
0
100
AcDbLine
 10
788.7338078749351
 20
439.6838895118562
 30
0.0
 11
778.7338078749351
 21
439.6838895118562
 31
0.0
  0
ARC
  5
148F
330
2
100
AcDbEntity
  8
0
100
AcDbCircle
 10
778.7338078749351
 20
435.6838895118562
 30
0.0
 40
4.0
100
AcDbArc
 50
90.0
 51
180.0
  0
ARC
  5
1490
330
2
100
AcDbEntity
  8
0
100
AcDbCircle
 10
788.7338078749351
 20
435.6838895118562
 30
0.0
 40
4.0
100
AcDbArc
 50
0.0
 51
90.0
  0
LINE
  5
1491
330
2
100
AcDbEntity
  8
0
100
AcDbLine
 10
787.6331350321313
 20
428.1838895118561
 30
0.0
 11
790.733801703748
 21
428.1838895118561
 31
0.0
  0
CIRCLE
  5
18E2
330
2
100
AcDbEntity
  8
0
100
AcDbCircle
 10
630.9438017037498
 20
405.6838895118562
 30
0.0
 40
26.57735026918791
  0
ARC
  5
18E7
330
2
100
AcDbEntity
  8
0
100
AcDbCircle
 10
716.8913643402539
 20
640.7929022334737
 30
0.0
 40
2.0
100
AcDbArc
 50
270.0
 51
359.4999999999951
  0
ENDSEC
  0
SECTION
  2
OBJECTS
  0
DICTIONARY
  5
7
330
0
100
AcDbDictionary
  3
ACAD_GROUP
350
75
  3
ACAD_LAYOUT
350
61
  3
ACAD_MLINESTYLE
350
76
  3
ACAD_PLOTSETTINGS
350
77
  3
ACAD_PLOTSTYLENAME
350
6
  3
ACADDIM
350
480
  3
ACDBHEADERROUNDTRIPXREC
350
1901
  3
ACDBVARIABLEDICTIONARY
350
102
  3
DWGPROPS
350
3D2
  0
DICTIONARY
  5
B21
330
66
100
AcDbDictionary
280
     1
  3
ACAD_LAYERSTATES
360
B22
  0
DICTIONARY
  5
1922
330
2
100
AcDbDictionary
280
     1
  3
ACAD_LAYOUTSELFREF
360
1923
  0
DICTIONARY
  5
1924
330
18FB
100
AcDbDictionary
280
     1
  3
ACAD_LAYOUTSELFREF
360
1925
  0
DICTIONARY
  5
75
102
{ACAD_REACTORS
330
7
102
}
330
7
100
AcDbDictionary
  0
DICTIONARY
  5
61
102
{ACAD_REACTORS
330
7
102
}
330
7
100
AcDbDictionary
  0
DICTIONARY
  5
76
102
{ACAD_REACTORS
330
7
102
}
330
7
100
AcDbDictionary
  3
STANDARD
350
78
  0
DICTIONARY
  5
77
102
{ACAD_REACTORS
330
7
102
}
330
7
100
AcDbDictionary
  0
ACDBDICTIONARYWDFLT
  5
6
102
{ACAD_REACTORS
330
7
102
}
330
7
100
AcDbDictionary
281
     1
  3
Normal
350
5
100
AcDbDictionaryWithDefault
340
5
  0
XRECORD
  5
480
102
{ACAD_REACTORS
330
7
102
}
330
7
100
AcDbXrecord
 90
   990106
  3

 60
     0
 61
     0
 62
     1
 63
     3
 64
     1
 65
     0
 66
     0
 67
     3
 68
     1
 69
     0
 70
     0
 71
     0
 72
     0
 40
0.0
170
     2
340
0
  0
DICTIONARY
  5
1901
102
{ACAD_REACTORS
330
7
102
}
330
7
100
AcDbDictionary
  3
CEPSNTYPE
350
190B
  3
DIMSTYLEDATA
350
190F
  3
FINGERPRINTGUID
350
190C
  3
HYPERLINKBASE
350
1904
  3
INSUNITS
350
190A
  3
LAYOUTDICT
350
1906
  3
LWETCUNION
350
1909
  3
PLOTSETDICT
350
1907
  3
PLOTSTYLNAMDICT
350
1908
  3
PSVPSCALE
350
190E
  3
PUCSBASE
350
1912
  3
PUCSORGBACK
350
1918
  3
PUCSORGBOTTOM
350
1914
  3
PUCSORGFRONT
350
1917
  3
PUCSORGLEFT
350
1915
  3
PUCSORGRIGHT
350
1916
  3
PUCSORGTOP
350
1913
  3
PUCSORTHOREF
350
1910
  3
PUCSORTHOVIEW
350
1911
  3
STYLESHEET
350
1905
  3
TSTACKALIGN
350
1902
  3
TSTACKSIZE
350
1903
  3
UCSBASE
350
191B
  3
UCSORGBACK
350
1921
  3
UCSORGBOTTOM
350
191D
  3
UCSORGFRONT
350
1920
  3
UCSORGLEFT
350
191E
  3
UCSORGRIGHT
350
191F
  3
UCSORGTOP
350
191C
  3
UCSORTHOREF
350
1919
  3
UCSORTHOVIEW
350
191A
  3
VERSIONGUID
350
190D
  0
DICTIONARY
  5
102
102
{ACAD_REACTORS
330
7
102
}
330
7
100
AcDbDictionary
  3
DIMASSOC
350
103
  3
SORTENTS
350
549
  0
XRECORD
  5
3D2
102
{ACAD_REACTORS
330
7
102
}
330
7
100
AcDbXrecord
  1
DWGPROPS COOKIE
  2

  3

  4

  6

  7

  8

  9

300
=
301
=
302
=
303
=
304
=
305
=
306
=
307
=
308
=
309
=
 40
0.5353330671296296
 41
2452052.431989363
 42
2453406.550756377
  1

 90
        0
  0
DICTIONARY
  5
B22
102
{ACAD_REACTORS
330
B21
102
}
330
B21
100
AcDbDictionary
  0
XRECORD
  5
1923
102
{ACAD_REACTORS
330
1922
102
}
330
1922
100
AcDbXrecord
340
2
  0
XRECORD
  5
1925
102
{ACAD_REACTORS
330
1924
102
}
330
1924
100
AcDbXrecord
340
18FB
  0
MLINESTYLE
  5
78
102
{ACAD_REACTORS
330
76
102
}
330
76
100
AcDbMlineStyle
  2
STANDARD
 70
     0
  3

 62
     0
 51
90.0
 52
90.0
 71
     2
 49
0.5
 62
   256
  6
BYLAYER
 49
-0.5
 62
   256
  6
BYLAYER
  0
ACDBPLACEHOLDER
  5
5
102
{ACAD_REACTORS
330
6
102
}
330
6
100
AcDbPlaceHolder
280
     0
  0
XRECORD
  5
190B
102
{ACAD_REACTORS
330
1901
102
}
330
1901
100
AcDbXrecord
 90
        0
  0
XRECORD
  5
190F
102
{ACAD_REACTORS
330
1901
102
}
330
1901
100
AcDbXrecord
1000
DSTYLE
1002
{
1070
   179
 70
     2
1070
   277
 70
     6
1002
}
  0
XRECORD
  5
190C
102
{ACAD_REACTORS
330
1901
102
}
330
1901
100
AcDbXrecord
  1
{6385560B-F4B1-4644-A7C2-A3E32AC3D232}
  0
XRECORD
  5
1904
102
{ACAD_REACTORS
330
1901
102
}
330
1901
100
AcDbXrecord
  1

  0
XRECORD
  5
190A
102
{ACAD_REACTORS
330
1901
102
}
330
1901
100
AcDbXrecord
 90
        0
  0
XRECORD
  5
1906
102
{ACAD_REACTORS
330
1901
102
}
330
1901
100
AcDbXrecord
340
61
  0
XRECORD
  5
1909
102
{ACAD_REACTORS
330
1901
102
}
330
1901
100
AcDbXrecord
 90
    10781
  0
XRECORD
  5
1907
102
{ACAD_REACTORS
330
1901
102
}
330
1901
100
AcDbXrecord
340
77
  0
XRECORD
  5
1908
102
{ACAD_REACTORS
330
1901
102
}
330
1901
100
AcDbXrecord
340
6
  0
XRECORD
  5
190E
102
{ACAD_REACTORS
330
1901
102
}
330
1901
100
AcDbXrecord
 40
0.0
  0
XRECORD
  5
1912
102
{ACAD_REACTORS
330
1901
102
}
330
1901
100
AcDbXrecord
340
0
  0
XRECORD
  5
1918
102
{ACAD_REACTORS
330
1901
102
}
330
1901
100
AcDbXrecord
 10
0.0
 20
0.0
 30
0.0
  0
XRECORD
  5
1914
102
{ACAD_REACTORS
330
1901
102
}
330
1901
100
AcDbXrecord
 10
0.0
 20
0.0
 30
0.0
  0
XRECORD
  5
1917
102
{ACAD_REACTORS
330
1901
102
}
330
1901
100
AcDbXrecord
 10
0.0
 20
0.0
 30
0.0
  0
XRECORD
  5
1915
102
{ACAD_REACTORS
330
1901
102
}
330
1901
100
AcDbXrecord
 10
0.0
 20
0.0
 30
0.0
  0
XRECORD
  5
1916
102
{ACAD_REACTORS
330
1901
102
}
330
1901
100
AcDbXrecord
 10
0.0
 20
0.0
 30
0.0
  0
XRECORD
  5
1913
102
{ACAD_REACTORS
330
1901
102
}
330
1901
100
AcDbXrecord
 10
0.0
 20
0.0
 30
0.0
  0
XRECORD
  5
1910
102
{ACAD_REACTORS
330
1901
102
}
330
1901
100
AcDbXrecord
340
0
  0
XRECORD
  5
1911
102
{ACAD_REACTORS
330
1901
102
}
330
1901
100
AcDbXrecord
 70
     0
  0
XRECORD
  5
1905
102
{ACAD_REACTORS
330
1901
102
}
330
1901
100
AcDbXrecord
  1
Sekkei.ctb
  0
XRECORD
  5
1902
102
{ACAD_REACTORS
330
1901
102
}
330
1901
100
AcDbXrecord
 90
        1
  0
XRECORD
  5
1903
102
{ACAD_REACTORS
330
1901
102
}
330
1901
100
AcDbXrecord
 90
       70
  0
XRECORD
  5
191B
102
{ACAD_REACTORS
330
1901
102
}
330
1901
100
AcDbXrecord
340
0
  0
XRECORD
  5
1921
102
{ACAD_REACTORS
330
1901
102
}
330
1901
100
AcDbXrecord
 10
0.0
 20
0.0
 30
0.0
  0
XRECORD
  5
191D
102
{ACAD_REACTORS
330
1901
102
}
330
1901
100
AcDbXrecord
 10
0.0
 20
0.0
 30
0.0
  0
XRECORD
  5
1920
102
{ACAD_REACTORS
330
1901
102
}
330
1901
100
AcDbXrecord
 10
0.0
 20
0.0
 30
0.0
  0
XRECORD
  5
191E
102
{ACAD_REACTORS
330
1901
102
}
330
1901
100
AcDbXrecord
 10
0.0
 20
0.0
 30
0.0
  0
XRECORD
  5
191F
102
{ACAD_REACTORS
330
1901
102
}
330
1901
100
AcDbXrecord
 10
0.0
 20
0.0
 30
0.0
  0
XRECORD
  5
191C
102
{ACAD_REACTORS
330
1901
102
}
330
1901
100
AcDbXrecord
 10
0.0
 20
0.0
 30
0.0
  0
XRECORD
  5
1919
102
{ACAD_REACTORS
330
1901
102
}
330
1901
100
AcDbXrecord
340
0
  0
XRECORD
  5
191A
102
{ACAD_REACTORS
330
1901
102
}
330
1901
100
AcDbXrecord
 70
     0
  0
XRECORD
  5
190D
102
{ACAD_REACTORS
330
1901
102
}
330
1901
100
AcDbXrecord
  1
{FE9D4DCE-3CC3-4F94-8964-1F6376483FAA}
  0
DICTIONARYVAR
  5
103
102
{ACAD_REACTORS
330
102
102
}
330
102
100
DictionaryVariables
280
     0
  1
1
  0
DICTIONARYVAR
  5
549
102
{ACAD_REACTORS
330
102
102
}
330
102
100
DictionaryVariables
280
     0
  1
96
  0
ENDSEC
  0
EOF
