  0
SECTION
  2
HEADER
  9
$ACADVER
  1
AC1014
  9
$ACADMAINTVER
 70
     9
  9
$DWGCODEPAGE
  3
ANSI_932
  9
$INSBASE
 10
0.0
 20
0.0
 30
0.0
  9
$EXTMIN
 10
40.08482972368097
 20
96.58270148451215
 30
0.0
  9
$EXTMAX
 10
1054.529045291579
 20
747.1792060663874
 30
0.0
  9
$LIMMIN
 10
0.0
 20
0.0
  9
$LIMMAX
 10
297.0
 20
210.0
  9
$ORTHOMODE
 70
     1
  9
$REGENMODE
 70
     1
  9
$FILLMODE
 70
     1
  9
$QTEXTMODE
 70
     0
  9
$MIRRTEXT
 70
     0
  9
$DRAGMODE
 70
     2
  9
$LTSCALE
 40
3.0
  9
$OSMODE
 70
    37
  9
$ATTMODE
 70
     1
  9
$TEXTSIZE
 40
2.0
  9
$TRACEWID
 40
1.0
  9
$TEXTSTYLE
  7
STANDARD
  9
$CLAYER
  8
0
  9
$CELTYPE
  6
BYLAYER
  9
$CECOLOR
 62
   256
  9
$CELTSCALE
 40
1.0
  9
$DELOBJ
 70
     1
  9
$DISPSILH
 70
     0
  9
$DIMSCALE
 40
3.0
  9
$DIMASZ
 40
1.8
  9
$DIMEXO
 40
0.625
  9
$DIMDLI
 40
3.75
  9
$DIMRND
 40
0.0
  9
$DIMDLE
 40
0.0
  9
$DIMEXE
 40
0.8
  9
$DIMTP
 40
0.0
  9
$DIMTM
 40
0.0
  9
$DIMTXT
 40
1.8
  9
$DIMCEN
 40
2.5
  9
$DIMTSZ
 40
0.0
  9
$DIMTOL
 70
     0
  9
$DIMLIM
 70
     0
  9
$DIMTIH
 70
     0
  9
$DIMTOH
 70
     0
  9
$DIMSE1
 70
     0
  9
$DIMSE2
 70
     0
  9
$DIMTAD
 70
     1
  9
$DIMZIN
 70
     8
  9
$DIMBLK
  1

  9
$DIMASO
 70
     1
  9
$DIMSHO
 70
     1
  9
$DIMPOST
  1

  9
$DIMAPOST
  1

  9
$DIMALT
 70
     0
  9
$DIMALTD
 70
     4
  9
$DIMALTF
 40
0.0394
  9
$DIMLFAC
 40
1.0
  9
$DIMTOFL
 70
     1
  9
$DIMTVP
 40
0.0
  9
$DIMTIX
 70
     0
  9
$DIMSOXD
 70
     0
  9
$DIMSAH
 70
     0
  9
$DIMBLK1
  1

  9
$DIMBLK2
  1

  9
$DIMSTYLE
  2
STANDARD
  9
$DIMCLRD
 70
     0
  9
$DIMCLRE
 70
     0
  9
$DIMCLRT
 70
     0
  9
$DIMTFAC
 40
1.0
  9
$DIMGAP
 40
0.75
  9
$DIMJUST
 70
     0
  9
$DIMSD1
 70
     0
  9
$DIMSD2
 70
     0
  9
$DIMTOLJ
 70
     1
  9
$DIMTZIN
 70
     0
  9
$DIMALTZ
 70
     0
  9
$DIMALTTZ
 70
     0
  9
$DIMFIT
 70
     3
  9
$DIMUPT
 70
     0
  9
$DIMUNIT
 70
     8
  9
$DIMDEC
 70
     2
  9
$DIMTDEC
 70
     2
  9
$DIMALTU
 70
     8
  9
$DIMALTTD
 70
     4
  9
$DIMTXSTY
  7
STANDARD
  9
$DIMAUNIT
 70
     0
  9
$LUNITS
 70
     2
  9
$LUPREC
 70
     3
  9
$SKETCHINC
 40
1.0
  9
$FILLETRAD
 40
10.0
  9
$AUNITS
 70
     0
  9
$AUPREC
 70
     2
  9
$MENU
  1
.
  9
$ELEVATION
 40
0.0
  9
$PELEVATION
 40
0.0
  9
$THICKNESS
 40
0.0
  9
$LIMCHECK
 70
     0
  9
$BLIPMODE
 70
     0
  9
$CHAMFERA
 40
0.0
  9
$CHAMFERB
 40
0.0
  9
$CHAMFERC
 40
20.0
  9
$CHAMFERD
 40
0.0
  9
$SKPOLY
 70
     0
  9
$TDCREATE
 40
2454411.432936921
  9
$TDUPDATE
 40
2454425.689743738
  9
$TDINDWG
 40
0.0106776389
  9
$TDUSRTIMER
 40
0.0106774537
  9
$USRTIMER
 70
     1
  9
$ANGBASE
 50
0.0
  9
$ANGDIR
 70
     0
  9
$PDMODE
 70
     0
  9
$PDSIZE
 40
-10.0
  9
$PLINEWID
 40
0.0
  9
$COORDS
 70
     0
  9
$SPLFRAME
 70
     0
  9
$SPLINETYPE
 70
     6
  9
$SPLINESEGS
 70
     8
  9
$ATTDIA
 70
     0
  9
$ATTREQ
 70
     1
  9
$HANDLING
 70
-16383
  9
$HANDSEED
  5
1F8C
  9
$SURFTAB1
 70
     6
  9
$SURFTAB2
 70
     6
  9
$SURFTYPE
 70
     6
  9
$SURFU
 70
     6
  9
$SURFV
 70
     6
  9
$UCSNAME
  2

  9
$UCSORG
 10
0.0
 20
0.0
 30
0.0
  9
$UCSXDIR
 10
1.0
 20
0.0
 30
0.0
  9
$UCSYDIR
 10
0.0
 20
1.0
 30
0.0
  9
$PUCSNAME
  2

  9
$PUCSORG
 10
0.0
 20
0.0
 30
0.0
  9
$PUCSXDIR
 10
1.0
 20
0.0
 30
0.0
  9
$PUCSYDIR
 10
0.0
 20
1.0
 30
0.0
  9
$USERI1
 70
     0
  9
$USERI2
 70
     0
  9
$USERI3
 70
     0
  9
$USERI4
 70
     0
  9
$USERI5
 70
     0
  9
$USERR1
 40
0.0
  9
$USERR2
 40
0.0
  9
$USERR3
 40
0.0
  9
$USERR4
 40
0.0
  9
$USERR5
 40
0.0
  9
$WORLDVIEW
 70
     1
  9
$SHADEDGE
 70
     3
  9
$SHADEDIF
 70
    70
  9
$TILEMODE
 70
     1
  9
$MAXACTVP
 70
    48
  9
$PINSBASE
 10
0.0
 20
0.0
 30
0.0
  9
$PLIMCHECK
 70
     0
  9
$PEXTMIN
 10
0.0
 20
0.0
 30
0.0
  9
$PEXTMAX
 10
0.0
 20
0.0
 30
0.0
  9
$PLIMMIN
 10
0.0
 20
0.0
  9
$PLIMMAX
 10
12.0
 20
9.0
  9
$UNITMODE
 70
     0
  9
$VISRETAIN
 70
     1
  9
$PLINEGEN
 70
     0
  9
$PSLTSCALE
 70
     1
  9
$TREEDEPTH
 70
  3020
  9
$PICKSTYLE
 70
     1
  9
$CMLSTYLE
  2
STANDARD
  9
$CMLJUST
 70
     0
  9
$CMLSCALE
 40
1.0
  9
$PROXYGRAPHICS
 70
     1
  9
$MEASUREMENT
 70
     0
  0
ENDSEC
  0
SECTION
  2
CLASSES
  0
CLASS
  1
DICTIONARYVAR
  2
AcDbDictionaryVar
  3
AutoCAD 2000
 90
        0
280
     0
281
     0
  0
CLASS
  1
ACDBDICTIONARYWDFLT
  2
AcDbDictionaryWithDefault
  3
AutoCAD 2000
 90
        0
280
     0
281
     0
  0
CLASS
  1
ACDBPLACEHOLDER
  2
AcDbPlaceHolder
  3
AutoCAD 2000
 90
        0
280
     0
281
     0
  0
CLASS
  1
LAYOUT
  2
AcDbLayout
  3
AutoCAD 2000
 90
        0
280
     0
281
     0
  0
CLASS
  1
MATERIAL
  2
AcDbMaterial
  3
ObjectDBX Classes
 90
     1153
280
     0
281
     0
  0
CLASS
  1
VISUALSTYLE
  2
AcDbVisualStyle
  3
ObjectDBX Classes
 90
     4095
280
     0
281
     0
  0
CLASS
  1
TABLESTYLE
  2
AcDbTableStyle
  3
ObjectDBX Classes
 90
     4095
280
     0
281
     0
  0
CLASS
  1
SCALE
  2
AcDbScale
  3
ObjectDBX Classes
 90
     1153
280
     0
281
     0
  0
CLASS
  1
MLEADERSTYLE
  2
AcDbMLeaderStyle
  3
ACDB_MLEADERSTYLE_CLASS
 90
     4095
280
     0
281
     0
  0
CLASS
  1
CELLSTYLEMAP
  2
AcDbCellStyleMap
  3
ObjectDBX Classes
 90
     1152
280
     0
281
     0
  0
CLASS
  1
SORTENTSTABLE
  2
AcDbSortentsTable
  3
AutoCAD 2000
 90
        0
280
     0
281
     0
  0
CLASS
  1
ACAD_PROXY_OBJECT_WRAPPER
  2
AcDbProxyObjectWrapper
  3
AutoCAD 2000
 90
        0
280
     0
281
     0
  0
CLASS
  1
LONG_TRANSACTION
  2
AcDbLongTransaction
  3
AutoCAD 2000
 90
        0
280
     0
281
     0
  0
CLASS
  1
LWPOLYLINE
  2
AcDbPolyline
  3
AutoCAD 2000
 90
        0
280
     0
281
     1
  0
CLASS
  1
HATCH
  2
AcDbHatch
  3
AutoCAD 2000
 90
        0
280
     0
281
     1
  0
CLASS
  1
XRECORD
  2
AcDbXrecord
  3
AutoCAD 2000
 90
        0
280
     0
281
     0
  0
ENDSEC
  0
SECTION
  2
TABLES
  0
TABLE
  2
VPORT
  5
6E
102
{ACAD_XDICTIONARY
360
1E8C
102
}
330
0
100
AcDbSymbolTable
 70
     2
  0
VPORT
  5
1F66
330
6E
100
AcDbSymbolTableRecord
100
AcDbViewportTableRecord
  2
*ACTIVE
 70
     0
 10
0.0
 20
0.0
 11
1.0
 21
1.0
 12
555.7751469013543
 22
406.1681048921835
 13
0.0
 23
0.0
 14
10.0
 24
10.0
 15
10.0
 25
10.0
 16
0.0
 26
0.0
 36
1.0
 17
0.0
 27
0.0
 37
0.0
 40
686.6867793955061
 41
1.753504672897196
 42
50.0
 43
0.0
 44
0.0
 50
0.0
 51
0.0
 71
     0
 72
   100
 73
     1
 74
     3
 75
     0
 76
     0
 77
     0
 78
     0
  0
ENDTAB
  0
TABLE
  2
LTYPE
  5
69
330
0
100
AcDbSymbolTable
 70
     7
  0
LTYPE
  5
6A
330
69
100
AcDbSymbolTableRecord
100
AcDbLinetypeTableRecord
  2
BYBLOCK
 70
     0
  3

 72
    65
 73
     0
 40
0.0
  0
LTYPE
  5
6B
330
69
100
AcDbSymbolTableRecord
100
AcDbLinetypeTableRecord
  2
BYLAYER
 70
     0
  3

 72
    65
 73
     0
 40
0.0
  0
LTYPE
  5
8
330
69
100
AcDbSymbolTableRecord
100
AcDbLinetypeTableRecord
  2
CONTINUOUS
 70
     0
  3
Solid line
 72
    65
 73
     0
 40
0.0
  0
LTYPE
  5
27C
330
69
100
AcDbSymbolTableRecord
100
AcDbLinetypeTableRecord
  2
SEKKEI_A2_
 70
     0
  3
center(A2)  ____ _ ____ _ ____ _ ____ _ ____ _ 
 72
    65
 73
     4
 40
14.28749999999999
 49
9.525
 74
     0
 49
-1.587499999999999
 74
     0
 49
1.587499999999999
 74
     0
 49
-1.587499999999999
 74
     0
  0
LTYPE
  5
7F0
330
69
100
AcDbSymbolTableRecord
100
AcDbLinetypeTableRecord
  2
HIDDEN3
 70
     0
  3
Hidden (.3x) _ _ _ _ _ _ _ _ _ _ _ _ _ _ _ _ _
 72
    65
 73
     2
 40
2.857499999999999
 49
1.905
 74
     0
 49
-0.9525
 74
     0
  0
LTYPE
  5
ADB
330
69
100
AcDbSymbolTableRecord
100
AcDbLinetypeTableRecord
  2
CENS
 70
     0
  3
(一点鎖線１)---- - ---- - ---- - ---- - ---- - 
 72
    65
 73
     4
 40
7.0
 49
4.0
 74
     0
 49
-1.0
 74
     0
 49
1.0
 74
     0
 49
-1.0
 74
     0
  0
LTYPE
  5
1883
330
69
100
AcDbSymbolTableRecord
100
AcDbLinetypeTableRecord
  2
SEKKEI-P_A4_
 70
     0
  3
Phantom(A4)  ____ _ _ ____ _ _ ____ _ _ _____
 72
    65
 73
     6
 40
15.0
 49
7.5
 74
     0
 49
-1.5
 74
     0
 49
1.5
 74
     0
 49
-1.5
 74
     0
 49
1.5
 74
     0
 49
-1.5
 74
     0
  0
LTYPE
  5
1884
330
69
100
AcDbSymbolTableRecord
100
AcDbLinetypeTableRecord
  2
SEKKEI_P_S
 70
     0
  3
Phantom_S   __ _ _ __ _ _ __ _ _ ___
 72
    65
 73
     6
 40
7.5
 49
3.75
 74
     0
 49
-0.75
 74
     0
 49
0.75
 74
     0
 49
-0.75
 74
     0
 49
0.75
 74
     0
 49
-0.75
 74
     0
  0
ENDTAB
  0
TABLE
  2
LAYER
  5
66
102
{ACAD_XDICTIONARY
360
ADC
102
}
330
0
100
AcDbSymbolTable
 70
    10
  0
LAYER
  5
5E
102
{ACAD_XDICTIONARY
360
1E71
102
}
330
66
100
AcDbSymbolTableRecord
100
AcDbLayerTableRecord
  2
0
 70
     0
 62
     7
  6
CONTINUOUS
  0
LAYER
  5
3E
102
{ACAD_XDICTIONARY
360
1E73
102
}
330
66
100
AcDbSymbolTableRecord
100
AcDbLayerTableRecord
  2
CENTER
 70
     0
 62
     3
  6
SEKKEI_A2_
  0
LAYER
  5
2B5
102
{ACAD_XDICTIONARY
360
1E79
102
}
330
66
100
AcDbSymbolTableRecord
100
AcDbLayerTableRecord
  2
HIDS
 70
     0
 62
     1
  6
HIDDEN3
  0
LAYER
  5
2BA
102
{ACAD_XDICTIONARY
360
1E7B
102
}
330
66
100
AcDbSymbolTableRecord
100
AcDbLayerTableRecord
  2
HOJO
 70
     0
 62
     4
  6
CONTINUOUS
  0
LAYER
  5
3FA
102
{ACAD_XDICTIONARY
360
1E7F
102
}
330
66
100
AcDbSymbolTableRecord
100
AcDbLayerTableRecord
  2
TITLE
 70
     0
 62
     4
  6
CONTINUOUS
  0
LAYER
  5
1885
102
{ACAD_XDICTIONARY
360
1886
102
}
330
66
100
AcDbSymbolTableRecord
100
AcDbLayerTableRecord
  2
PHAS
 70
     0
 62
     2
  6
SEKKEI-P_A4_
  0
ENDTAB
  0
TABLE
  2
STYLE
  5
67
330
0
100
AcDbSymbolTable
 70
     2
  0
STYLE
  5
16
330
67
100
AcDbSymbolTableRecord
100
AcDbTextStyleTableRecord
  2
STANDARD
 70
     0
 40
0.0
 41
1.0
 50
0.0
 71
     0
 42
2.0
  3
simplex.shx
  4
extfont.shx
  0
ENDTAB
  0
TABLE
  2
VIEW
  5
6C
330
0
100
AcDbSymbolTable
 70
     0
  0
ENDTAB
  0
TABLE
  2
UCS
  5
6D
330
0
100
AcDbSymbolTable
 70
     0
  0
ENDTAB
  0
TABLE
  2
APPID
  5
70
330
0
100
AcDbSymbolTable
 70
     2
  0
APPID
  5
71
330
70
100
AcDbSymbolTableRecord
100
AcDbRegAppTableRecord
  2
ACAD
 70
     0
  0
APPID
  5
1E47
330
70
100
AcDbSymbolTableRecord
100
AcDbRegAppTableRecord
  2
ACAD_MLEADERVER
 70
     0
  0
ENDTAB
  0
TABLE
  2
DIMSTYLE
  5
72
330
0
100
AcDbSymbolTable
 70
     1
  0
DIMSTYLE
105
73
330
72
100
AcDbSymbolTableRecord
100
AcDbDimStyleTableRecord
  2
STANDARD
 70
     0
  3

  4

  5

  6

  7

 40
3.0
 41
1.8
 42
0.625
 43
3.75
 44
0.8
 45
0.0
 46
0.0
 47
0.0
 48
0.0
140
1.8
141
2.5
142
0.0
143
0.0394
144
1.0
145
0.0
146
1.0
147
0.75
 71
     0
 72
     0
 73
     0
 74
     0
 75
     0
 76
     0
 77
     1
 78
     8
170
     0
171
     4
172
     1
173
     0
174
     0
175
     0
176
     0
177
     0
178
     0
270
     8
271
     2
272
     2
273
     8
274
     4
340
16
275
     0
280
     0
281
     0
282
     0
283
     1
284
     0
285
     0
286
     0
287
     3
288
     0
  0
ENDTAB
  0
TABLE
  2
BLOCK_RECORD
  5
1
330
0
100
AcDbSymbolTable
 70
    55
  0
BLOCK_RECORD
  5
2
102
{ACAD_XDICTIONARY
360
1F88
102
}
330
1
100
AcDbSymbolTableRecord
100
AcDbBlockTableRecord
  2
*MODEL_SPACE
  0
BLOCK_RECORD
  5
1F61
102
{ACAD_XDICTIONARY
360
1F8A
102
}
330
1
100
AcDbSymbolTableRecord
100
AcDbBlockTableRecord
  2
*PAPER_SPACE
  0
ENDTAB
  0
ENDSEC
  0
SECTION
  2
BLOCKS
  0
BLOCK
  5
5D
330
2
100
AcDbEntity
  8
0
100
AcDbBlockBegin
  2
*MODEL_SPACE
 70
     0
 10
0.0
 20
0.0
 30
0.0
  3
*MODEL_SPACE
  1

  0
ENDBLK
  5
5F
330
2
100
AcDbEntity
  8
0
100
AcDbBlockEnd
  0
BLOCK
  5
1F63
330
1F61
100
AcDbEntity
 67
     1
  8
0
100
AcDbBlockBegin
  2
*PAPER_SPACE
 70
     0
 10
0.0
 20
0.0
 30
0.0
  3
*PAPER_SPACE
  1

  0
ENDBLK
  5
1F64
330
1F61
100
AcDbEntity
 67
     1
  8
0
100
AcDbBlockEnd
  0
ENDSEC
  0
SECTION
  2
ENTITIES
  0
TEXT
  5
EF2
330
2
100
AcDbEntity
  8
TITLE
100
AcDbText
 10
329.4608413706349
 20
680.6393450956322
 30
0.0
 40
7.5
  1
AFCZ22S-7~10M750S2
100
AcDbText
  0
TEXT
  5
EF3
330
2
100
AcDbEntity
  8
TITLE
100
AcDbText
 10
329.4608413706349
 20
669.1393450956322
 30
0.0
 40
7.5
  1
AFCZ22S-7~10L750S2
100
AcDbText
  0
LINE
  5
EF5
330
2
100
AcDbEntity
  8
CENTER
100
AcDbLine
 10
201.0848517236793
 20
342.4692764757141
 30
0.0
 11
201.0848517236793
 21
464.4692764757142
 31
0.0
  0
LINE
  5
EF6
330
2
100
AcDbEntity
  8
CENTER
100
AcDbLine
 10
262.0848517236757
 20
403.4692764757141
 30
0.0
 11
40.08482972368097
 21
403.4692764757141
 31
0.0
  0
LINE
  5
EF7
330
2
100
AcDbEntity
  8
CENTER
100
AcDbLine
 10
674.6344161788394
 20
457.075878193511
 30
0.0
 11
567.4212127432412
 21
349.8626747579125
 31
0.0
  0
LINE
  5
EF8
330
2
100
AcDbEntity
  8
CENTER
100
AcDbLine
 10
567.4212127432476
 20
457.0758781935096
 30
0.0
 11
674.6344161788426
 21
349.8626747579141
 31
0.0
  0
LINE
  5
EF9
330
2
100
AcDbEntity
  8
CENTER
100
AcDbLine
 10
621.0278144610422
 20
747.1792060663874
 30
0.0
 11
621.027814461044
 21
589.1793130663873
 31
0.0
  0
LINE
  5
EFA
330
2
100
AcDbEntity
  8
CENTER
100
AcDbLine
 10
560.2852570608717
 20
684.1793130663945
 30
0.0
 11
782.0278364610442
 21
684.1793130663945
 31
0.0
  0
LINE
  5
EFB
330
2
100
AcDbEntity
  8
CENTER
100
AcDbLine
 10
586.6014075898513
 20
445.8956833469092
 30
0.0
 11
570.6014075898512
 21
445.8956833469092
 31
0.0
  0
LINE
  5
EFC
330
2
100
AcDbEntity
  8
CENTER
100
AcDbLine
 10
578.6014075898476
 20
453.8956833469092
 30
0.0
 11
578.6014075898476
 21
437.8956833469092
 31
0.0
  0
LINE
  5
EFD
330
2
100
AcDbEntity
  8
CENTER
100
AcDbLine
 10
586.6014075898513
 20
361.042869604525
 30
0.0
 11
570.6014075898512
 21
361.042869604525
 31
0.0
  0
LINE
  5
EFE
330
2
100
AcDbEntity
  8
CENTER
100
AcDbLine
 10
578.6014075898513
 20
369.0428696045234
 30
0.0
 11
578.6014075898513
 21
353.0428696045234
 31
0.0
  0
LINE
  5
EFF
330
2
100
AcDbEntity
  8
CENTER
100
AcDbLine
 10
671.4542213322386
 20
361.0428696045234
 30
0.0
 11
655.4542213322386
 21
361.0428696045234
 31
0.0
  0
LINE
  5
F00
330
2
100
AcDbEntity
  8
CENTER
100
AcDbLine
 10
663.4542213322349
 20
369.0428696045234
 30
0.0
 11
663.4542213322349
 21
353.0428696045234
 31
0.0
  0
LINE
  5
F01
330
2
100
AcDbEntity
  8
CENTER
100
AcDbLine
 10
671.4542213322367
 20
445.8956833469089
 30
0.0
 11
655.4542213322368
 21
445.8956833469089
 31
0.0
  0
LINE
  5
F02
330
2
100
AcDbEntity
  8
CENTER
100
AcDbLine
 10
663.4542213322368
 20
453.8956833469094
 30
0.0
 11
663.4542213322368
 21
437.8956833469094
 31
0.0
  0
CIRCLE
  5
F03
330
2
100
AcDbEntity
  8
CENTER
100
AcDbCircle
 10
621.027814461044
 20
403.4692764757163
 30
0.0
 40
60.0
  0
CIRCLE
  5
F04
330
2
100
AcDbEntity
  8
0
100
AcDbCircle
 10
621.027814461044
 20
403.4692764757163
 30
0.0
 40
34.0
  0
CIRCLE
  5
F05
330
2
100
AcDbEntity
  8
0
100
AcDbCircle
 10
621.027814461044
 20
403.4692764757163
 30
0.0
 40
45.0
  0
CIRCLE
  5
F06
330
2
100
AcDbEntity
  8
HOJO
100
AcDbCircle
 10
578.6014075898513
 20
361.0428696045234
 30
0.0
 40
4.0
  0
CIRCLE
  5
F07
330
2
100
AcDbEntity
  8
0
100
AcDbCircle
 10
578.6014075898513
 20
361.0428696045234
 30
0.0
 40
3.2
  0
CIRCLE
  5
F08
330
2
100
AcDbEntity
  8
0
100
AcDbCircle
 10
621.027814461044
 20
403.4692764757163
 30
0.0
 40
26.0
  0
CIRCLE
  5
F09
330
2
100
AcDbEntity
  8
HOJO
100
AcDbCircle
 10
578.6014075898513
 20
445.8956833469092
 30
0.0
 40
4.0
  0
CIRCLE
  5
F0A
330
2
100
AcDbEntity
  8
0
100
AcDbCircle
 10
578.6014075898513
 20
445.8956833469092
 30
0.0
 40
3.2
  0
LINE
  5
F0B
330
2
100
AcDbEntity
  8
0
100
AcDbLine
 10
701.5278364610442
 20
452.9692764757169
 30
0.0
 11
701.5278364610406
 21
353.9692764757162
 31
0.0
  0
LINE
  5
F0C
330
2
100
AcDbEntity
  8
0
100
AcDbLine
 10
717.0278364610441
 20
351.9692764757162
 30
0.0
 11
717.0278364610441
 21
454.9692764757164
 31
0.0
  0
CIRCLE
  5
F0D
330
2
100
AcDbEntity
  8
0
100
AcDbCircle
 10
663.4542213322386
 20
361.0428696045234
 30
0.0
 40
3.2
  0
CIRCLE
  5
F0E
330
2
100
AcDbEntity
  8
HOJO
100
AcDbCircle
 10
663.4542213322386
 20
361.0428696045234
 30
0.0
 40
4.0
  0
ARC
  5
F0F
330
2
100
AcDbEntity
  8
0
100
AcDbCircle
 10
703.5278364610405
 20
354.4692764757159
 30
0.0
 40
2.0
100
AcDbArc
 50
179.9999999999934
 51
270.0
  0
LINE
  5
F10
330
2
100
AcDbEntity
  8
0
100
AcDbLine
 10
717.0278364610441
 20
352.4692764757161
 30
0.0
 11
703.5278364610405
 21
352.4692764757159
 31
0.0
  0
CIRCLE
  5
F11
330
2
100
AcDbEntity
  8
0
100
AcDbCircle
 10
663.4542213322368
 20
445.8956833469094
 30
0.0
 40
3.2
  0
CIRCLE
  5
F12
330
2
100
AcDbEntity
  8
HOJO
100
AcDbCircle
 10
663.4542213322368
 20
445.8956833469094
 30
0.0
 40
4.0
  0
ARC
  5
F13
330
2
100
AcDbEntity
  8
0
100
AcDbCircle
 10
703.5278364610442
 20
452.4692764757166
 30
0.0
 40
2.0
100
AcDbArc
 50
90.0
 51
179.9999999999934
  0
LINE
  5
F14
330
2
100
AcDbEntity
  8
0
100
AcDbLine
 10
717.0278364610441
 20
454.4692764757164
 30
0.0
 11
703.5278364610442
 21
454.4692764757167
 31
0.0
  0
LINE
  5
F15
330
2
100
AcDbEntity
  8
0
100
AcDbLine
 10
572.1725211189043
 20
721.1793130663923
 30
0.0
 11
669.4141041314562
 21
721.1793130663968
 31
0.0
  0
LINE
  5
F16
330
2
100
AcDbEntity
  8
0
100
AcDbLine
 10
570.027814461044
 20
713.6793130663946
 30
0.0
 11
570.7477810537823
 21
631.1793130663946
 31
0.0
  0
LINE
  5
F17
330
2
100
AcDbEntity
  8
0
100
AcDbLine
 10
576.027814461044
 20
626.1793130663946
 30
0.0
 11
666.027814461044
 21
626.1793130663946
 31
0.0
  0
LINE
  5
F18
330
2
100
AcDbEntity
  8
0
100
AcDbLine
 10
576.027814461044
 20
631.1793130663946
 30
0.0
 11
576.027814461044
 21
626.1793130663946
 31
0.0
  0
LINE
  5
F19
330
2
100
AcDbEntity
  8
0
100
AcDbLine
 10
570.7477810537823
 20
631.1793130663946
 30
0.0
 11
671.3052904681346
 21
631.1793130663946
 31
0.0
  0
LINE
  5
F1A
330
2
100
AcDbEntity
  8
0
100
AcDbLine
 10
666.027814461044
 20
631.1793130663946
 30
0.0
 11
666.027814461044
 21
626.1793130663946
 31
0.0
  0
LINE
  5
F1B
330
2
100
AcDbEntity
  8
0
100
AcDbLine
 10
671.7678144610429
 20
684.1793130663945
 30
0.0
 11
671.3052904681346
 21
631.1793130663946
 31
0.0
  0
ARC
  5
F1C
330
2
100
AcDbEntity
  8
0
100
AcDbCircle
 10
676.4625644802975
 20
649.1793130663945
 30
0.0
 40
5.0
100
AcDbArc
 50
90.0
 51
179.5000000000019
  0
ARC
  5
F1D
330
2
100
AcDbEntity
  8
0
100
AcDbCircle
 10
673.7286197127571
 20
679.6793130663948
 30
0.0
 40
2.0
100
AcDbArc
 50
90.0
 51
179.5000000000019
  0
ARC
  5
F1E
330
2
100
AcDbEntity
  8
0
100
AcDbCircle
 10
673.8097189230431
 20
688.6793130663946
 30
0.0
 40
2.0
100
AcDbArc
 50
179.5000000000019
 51
270.0
  0
LINE
  5
F1F
330
2
100
AcDbEntity
  8
0
100
AcDbLine
 10
694.4761282028869
 20
646.1793130663945
 30
0.0
 11
696.3166131260352
 21
646.1793130663945
 31
0.0
  0
LINE
  5
F20
330
2
100
AcDbEntity
  8
0
100
AcDbLine
 10
694.4761282028869
 20
722.1793130663946
 30
0.0
 11
696.3166131260352
 21
722.1793130663946
 31
0.0
  0
LINE
  5
F21
330
2
100
AcDbEntity
  8
0
100
AcDbLine
 10
691.5327494414088
 20
684.1793130663945
 30
0.0
 11
692.4768135529359
 21
720.2316669630102
 31
0.0
  0
ARC
  5
F22
330
2
100
AcDbEntity
  8
0
100
AcDbCircle
 10
694.4761282028869
 20
720.1793130663945
 30
0.0
 40
2.0
100
AcDbArc
 50
90.0
 51
178.4999999999973
  0
LINE
  5
F23
330
2
100
AcDbEntity
  8
0
100
AcDbLine
 10
687.4213568123143
 20
713.1793130663986
 30
0.0
 11
672.0103718612119
 21
713.1793130663986
 31
0.0
  0
ARC
  5
F24
330
2
100
AcDbEntity
  8
0
100
AcDbCircle
 10
125.5848297236809
 20
446.4692764757194
 30
0.0
 40
5.0
100
AcDbArc
 50
180.0
 51
270.0
  0
LINE
  5
F25
330
2
100
AcDbEntity
  8
0
100
AcDbLine
 10
120.5848297236809
 20
353.9692764757191
 30
0.0
 11
120.5848297236827
 21
452.9692764757198
 31
0.0
  0
LINE
  5
F26
330
2
100
AcDbEntity
  8
0
100
AcDbLine
 10
105.0848297236809
 20
454.9692764757199
 30
0.0
 11
105.0848297236809
 21
403.4692764757195
 31
0.0
  0
ARC
  5
F27
330
2
100
AcDbEntity
  8
0
100
AcDbCircle
 10
118.5848297236827
 20
452.4692764757201
 30
0.0
 40
2.0
100
AcDbArc
 50
359.9999999999934
 51
90.0
  0
LINE
  5
F28
330
2
100
AcDbEntity
  8
0
100
AcDbLine
 10
105.0848297236809
 20
454.4692764757196
 30
0.0
 11
118.5848297236827
 21
454.4692764757201
 31
0.0
  0
LINE
  5
F29
330
2
100
AcDbEntity
  8
0
100
AcDbLine
 10
105.0848297236809
 20
351.9692764757195
 30
0.0
 11
105.0848297236809
 21
403.4692764757195
 31
0.0
  0
ARC
  5
F2A
330
2
100
AcDbEntity
  8
0
100
AcDbCircle
 10
118.5848297236809
 20
354.4692764757191
 30
0.0
 40
2.0
100
AcDbArc
 50
270.0
 51
0.0
  0
ARC
  5
F2B
330
2
100
AcDbEntity
  8
0
100
AcDbCircle
 10
125.5848297236809
 20
360.4692764757196
 30
0.0
 40
5.0
100
AcDbArc
 50
90.0
 51
179.9999999999934
  0
LINE
  5
F2C
330
2
100
AcDbEntity
  8
0
100
AcDbLine
 10
105.0848297236809
 20
352.4692764757196
 30
0.0
 11
118.5848297236809
 21
352.4692764757191
 31
0.0
  0
ARC
  5
F2D
330
2
100
AcDbEntity
  8
0
100
AcDbCircle
 10
201.0848517236756
 20
552.4692764757141
 30
0.0
 40
200.0
100
AcDbArc
 50
264.1053016135962
 51
275.8946983864037
  0
ARC
  5
F2E
330
2
100
AcDbEntity
  8
0
100
AcDbCircle
 10
174.3827227933509
 20
293.8440721537298
 30
0.0
 40
60.0
100
AcDbArc
 50
84.10530161359629
 51
101.8050678104414
  0
LINE
  5
F2F
330
2
100
AcDbEntity
  8
0
100
AcDbLine
 10
158.0848517236738
 20
352.4692764757143
 30
0.0
 11
161.0848517236756
 21
352.4692764757145
 31
0.0
  0
ARC
  5
F30
330
2
100
AcDbEntity
  8
0
100
AcDbCircle
 10
161.0848517236756
 20
357.4692764757145
 30
0.0
 40
5.0
100
AcDbArc
 50
270.0
 51
281.8050678104415
  0
LINE
  5
F31
330
2
100
AcDbEntity
  8
0
100
AcDbLine
 10
244.0848517236756
 20
352.4692764757143
 30
0.0
 11
241.0848517236757
 21
352.4692764757141
 31
0.0
  0
ARC
  5
F32
330
2
100
AcDbEntity
  8
0
100
AcDbCircle
 10
227.7869806540004
 20
293.8440721537296
 30
0.0
 40
60.0
100
AcDbArc
 50
78.19493218955852
 51
95.89469838640374
  0
ARC
  5
F33
330
2
100
AcDbEntity
  8
0
100
AcDbCircle
 10
241.0848517236757
 20
357.4692764757141
 30
0.0
 40
5.0
100
AcDbArc
 50
258.1949321895585
 51
270.0
  0
ARC
  5
F34
330
2
100
AcDbEntity
  8
0
100
AcDbCircle
 10
247.0848517236756
 20
363.4692764757141
 30
0.0
 40
5.0
100
AcDbArc
 50
0.0
 51
11.80506781047567
  0
LINE
  5
F35
330
2
100
AcDbEntity
  8
0
100
AcDbLine
 10
252.0848517236756
 20
360.4692764757143
 30
0.0
 11
252.0848517236756
 21
363.4692764757118
 31
0.0
  0
ARC
  5
F36
330
2
100
AcDbEntity
  8
0
100
AcDbCircle
 10
310.7100560456604
 20
376.7671475453886
 30
0.0
 40
60.0
100
AcDbArc
 50
174.1053016136101
 51
191.8050678104756
  0
ARC
  5
F37
330
2
100
AcDbEntity
  8
0
100
AcDbCircle
 10
52.08485172367568
 20
403.4692764757141
 30
0.0
 40
200.0
100
AcDbArc
 50
354.1053016136101
 51
5.894698386389833
  0
ARC
  5
F38
330
2
100
AcDbEntity
  8
0
100
AcDbCircle
 10
310.7100560456604
 20
430.1714054060389
 30
0.0
 40
60.0
100
AcDbArc
 50
168.1949321895243
 51
185.8946983863898
  0
ARC
  5
F39
330
2
100
AcDbEntity
  8
0
100
AcDbCircle
 10
247.0848517236756
 20
443.4692764757142
 30
0.0
 40
5.0
100
AcDbArc
 50
348.1949321895235
 51
0.0
  0
LINE
  5
F3A
330
2
100
AcDbEntity
  8
0
100
AcDbLine
 10
252.0848517236756
 20
443.4692764757119
 30
0.0
 11
252.0848517236756
 21
446.4692764757142
 31
0.0
  0
ARC
  5
F3B
330
2
100
AcDbEntity
  8
0
100
AcDbCircle
 10
227.7869806540004
 20
513.0944807976984
 30
0.0
 40
60.0
100
AcDbArc
 50
264.1053016135962
 51
281.8050678104415
  0
ARC
  5
F3C
330
2
100
AcDbEntity
  8
0
100
AcDbCircle
 10
241.0848517236757
 20
449.4692764757137
 30
0.0
 40
5.0
100
AcDbArc
 50
90.0
 51
101.8050678104414
  0
LINE
  5
F3D
330
2
100
AcDbEntity
  8
0
100
AcDbLine
 10
244.0848517236756
 20
454.4692764757142
 30
0.0
 11
241.0848517236757
 21
454.4692764757142
 31
0.0
  0
ARC
  5
F3E
330
2
100
AcDbEntity
  8
0
100
AcDbCircle
 10
201.0848517236756
 20
254.4692764757141
 30
0.0
 40
200.0
100
AcDbArc
 50
84.10530161359629
 51
95.89469838640374
  0
ARC
  5
F3F
330
2
100
AcDbEntity
  8
0
100
AcDbCircle
 10
174.3827227933509
 20
513.0944807976988
 30
0.0
 40
60.0
100
AcDbArc
 50
258.1949321895585
 51
275.8946983864037
  0
ARC
  5
F40
330
2
100
AcDbEntity
  8
0
100
AcDbCircle
 10
161.0848517236756
 20
449.4692764757141
 30
0.0
 40
5.0
100
AcDbArc
 50
78.19493218955852
 51
90.0
  0
LINE
  5
F41
330
2
100
AcDbEntity
  8
0
100
AcDbLine
 10
161.0848517236756
 20
454.4692764757142
 30
0.0
 11
158.0848517236866
 21
454.4692764757142
 31
0.0
  0
ARC
  5
F42
330
2
100
AcDbEntity
  8
0
100
AcDbCircle
 10
621.027814461044
 20
254.4692764757139
 30
0.0
 40
200.0
100
AcDbArc
 50
84.10530161364862
 51
95.89469838635137
  0
ARC
  5
F43
330
2
100
AcDbEntity
  8
0
100
AcDbCircle
 10
647.7299433913688
 20
513.0944807976984
 30
0.0
 40
60.0
100
AcDbArc
 50
264.1053016135962
 51
281.8050678104415
  0
LINE
  5
F44
330
2
100
AcDbEntity
  8
0
100
AcDbLine
 10
664.027814461044
 20
454.4692764757137
 30
0.0
 11
661.027814461044
 21
454.4692764757135
 31
0.0
  0
ARC
  5
F45
330
2
100
AcDbEntity
  8
0
100
AcDbCircle
 10
661.027814461044
 20
449.4692764757135
 30
0.0
 40
5.0
100
AcDbArc
 50
90.0
 51
101.8050678104414
  0
LINE
  5
F46
330
2
100
AcDbEntity
  8
0
100
AcDbLine
 10
578.027814461044
 20
454.4692764757139
 30
0.0
 11
581.027814461044
 21
454.4692764757139
 31
0.0
  0
ARC
  5
F47
330
2
100
AcDbEntity
  8
0
100
AcDbCircle
 10
594.3256855307175
 20
513.0944807976987
 30
0.0
 40
60.0
100
AcDbArc
 50
258.1949321895047
 51
275.8946983863513
  0
ARC
  5
F48
330
2
100
AcDbEntity
  8
0
100
AcDbCircle
 10
581.027814461044
 20
449.4692764757139
 30
0.0
 40
5.0
100
AcDbArc
 50
78.19493218950476
 51
90.0
  0
ARC
  5
F49
330
2
100
AcDbEntity
  8
0
100
AcDbCircle
 10
575.027814461044
 20
443.4692764757142
 30
0.0
 40
5.0
100
AcDbArc
 50
180.0
 51
191.8050678104698
  0
LINE
  5
F4A
330
2
100
AcDbEntity
  8
0
100
AcDbLine
 10
570.027814461044
 20
446.4692764757139
 30
0.0
 11
570.027814461044
 21
443.4692764757165
 31
0.0
  0
ARC
  5
F4B
330
2
100
AcDbEntity
  8
0
100
AcDbCircle
 10
511.4026101390575
 20
430.1714054060395
 30
0.0
 40
60.0
100
AcDbArc
 50
354.1053016136101
 51
11.80506781046984
  0
ARC
  5
F4C
330
2
100
AcDbEntity
  8
0
100
AcDbCircle
 10
770.027814461044
 20
403.4692764757141
 30
0.0
 40
200.0
100
AcDbArc
 50
174.1053016136101
 51
185.8946983863898
  0
ARC
  5
F4D
330
2
100
AcDbEntity
  8
0
100
AcDbCircle
 10
511.4026101390575
 20
376.7671475453894
 30
0.0
 40
60.0
100
AcDbArc
 50
348.1949321895301
 51
5.894698386389833
  0
ARC
  5
F4E
330
2
100
AcDbEntity
  8
0
100
AcDbCircle
 10
575.027814461044
 20
363.4692764757141
 30
0.0
 40
5.0
100
AcDbArc
 50
168.1949321895301
 51
180.0
  0
LINE
  5
F4F
330
2
100
AcDbEntity
  8
0
100
AcDbLine
 10
570.027814461044
 20
363.4692764757164
 30
0.0
 11
570.027814461044
 21
360.4692764757141
 31
0.0
  0
ARC
  5
F50
330
2
100
AcDbEntity
  8
0
100
AcDbCircle
 10
594.3256855307175
 20
293.8440721537296
 30
0.0
 40
60.0
100
AcDbArc
 50
84.10530161364862
 51
101.8050678104414
  0
ARC
  5
F51
330
2
100
AcDbEntity
  8
0
100
AcDbCircle
 10
581.027814461044
 20
357.4692764757145
 30
0.0
 40
5.0
100
AcDbArc
 50
270.0
 51
281.8050678104415
  0
LINE
  5
F52
330
2
100
AcDbEntity
  8
0
100
AcDbLine
 10
578.027814461044
 20
352.4692764757139
 30
0.0
 11
581.027814461044
 21
352.4692764757141
 31
0.0
  0
ARC
  5
F53
330
2
100
AcDbEntity
  8
0
100
AcDbCircle
 10
621.027814461044
 20
552.469276475714
 30
0.0
 40
200.0
100
AcDbArc
 50
264.1053016135962
 51
275.8946983863513
  0
ARC
  5
F54
330
2
100
AcDbEntity
  8
0
100
AcDbCircle
 10
647.7299433913669
 20
293.8440721537294
 30
0.0
 40
60.0
100
AcDbArc
 50
78.19493218950476
 51
95.89469838635137
  0
ARC
  5
F55
330
2
100
AcDbEntity
  8
0
100
AcDbCircle
 10
661.027814461044
 20
357.4692764757139
 30
0.0
 40
5.0
100
AcDbArc
 50
258.1949321895047
 51
270.0
  0
LINE
  5
F56
330
2
100
AcDbEntity
  8
0
100
AcDbLine
 10
661.027814461044
 20
352.4692764757141
 30
0.0
 11
664.0278144610403
 21
352.4692764757141
 31
0.0
  0
ARC
  5
F57
330
2
100
AcDbEntity
  8
0
100
AcDbCircle
 10
244.0848517236793
 20
360.4692764757196
 30
0.0
 40
8.0
100
AcDbArc
 50
270.0
 51
0.0
  0
ARC
  5
F58
330
2
100
AcDbEntity
  8
0
100
AcDbCircle
 10
158.0848517236756
 20
360.4692764757198
 30
0.0
 40
8.0
100
AcDbArc
 50
179.9999999999934
 51
270.0
  0
ARC
  5
F59
330
2
100
AcDbEntity
  8
0
100
AcDbCircle
 10
244.0848517236793
 20
446.4692764757196
 30
0.0
 40
8.0
100
AcDbArc
 50
0.0
 51
90.0
  0
LINE
  5
F5A
330
2
100
AcDbEntity
  8
0
100
AcDbLine
 10
127.5848297236773
 20
365.4692764757143
 30
0.0
 11
125.5848297236809
 21
365.4692764757145
 31
0.0
  0
LINE
  5
F5B
330
2
100
AcDbEntity
  8
0
100
AcDbLine
 10
127.5848297236809
 20
441.4692764757201
 30
0.0
 11
125.5848297236791
 21
441.4692764757205
 31
0.0
  0
ARC
  5
F5C
330
2
100
AcDbEntity
  8
0
100
AcDbCircle
 10
578.0278144610422
 20
446.4692764757078
 30
0.0
 40
8.0
100
AcDbArc
 50
90.0
 51
180.0
  0
ARC
  5
F5D
330
2
100
AcDbEntity
  8
0
100
AcDbCircle
 10
664.0278144610459
 20
446.4692764757078
 30
0.0
 40
8.0
100
AcDbArc
 50
359.9999999999934
 51
90.0
  0
ARC
  5
F5E
330
2
100
AcDbEntity
  8
0
100
AcDbCircle
 10
578.0278144610422
 20
360.4692764757079
 30
0.0
 40
8.0
100
AcDbArc
 50
180.0
 51
270.0
  0
ARC
  5
F5F
330
2
100
AcDbEntity
  8
0
100
AcDbCircle
 10
664.0278144610403
 20
360.4692764757082
 30
0.0
 40
8.0
100
AcDbArc
 50
270.0
 51
0.0
  0
LINE
  5
F60
330
2
100
AcDbEntity
  8
0
100
AcDbLine
 10
150.0848517236866
 20
360.4692764757193
 30
0.0
 11
150.0848517236866
 21
446.4692764757142
 31
0.0
  0
LINE
  5
F61
330
2
100
AcDbEntity
  8
0
100
AcDbLine
 10
672.0278144610386
 20
446.4692764757081
 30
0.0
 11
672.0278144610422
 21
360.4692764757084
 31
0.0
  0
LINE
  5
F62
330
2
100
AcDbEntity
  8
0
100
AcDbLine
 10
149.5848517236774
 20
395.7881307278546
 30
0.0
 11
149.5848517236793
 21
411.1504222235736
 31
0.0
  0
LINE
  5
F63
330
2
100
AcDbEntity
  8
0
100
AcDbLine
 10
145.0848517236811
 20
433.4692764757141
 30
0.0
 11
134.5848297236809
 21
433.4692764757141
 31
0.0
  0
LINE
  5
F64
330
2
100
AcDbEntity
  8
0
100
AcDbLine
 10
129.5848297236809
 20
439.4692764757191
 30
0.0
 11
129.5848297236809
 21
367.4692764757096
 31
0.0
  0
ARC
  5
F65
330
2
100
AcDbEntity
  8
0
100
AcDbCircle
 10
134.5848297236809
 20
438.4692764757142
 30
0.0
 40
5.0
100
AcDbArc
 50
180.0
 51
270.0
  0
ARC
  5
F66
330
2
100
AcDbEntity
  8
0
100
AcDbCircle
 10
145.0848517236811
 20
438.4692764757142
 30
0.0
 40
5.0
100
AcDbArc
 50
270.0
 51
0.0
  0
ARC
  5
F67
330
2
100
AcDbEntity
  8
0
100
AcDbCircle
 10
127.5848297236809
 20
439.4692764757191
 30
0.0
 40
2.0
100
AcDbArc
 50
0.0
 51
89.99999999994789
  0
LINE
  5
F68
330
2
100
AcDbEntity
  8
0
100
AcDbLine
 10
129.5848297236809
 20
395.7881307278546
 30
0.0
 11
150.0848517236847
 21
395.7881307278546
 31
0.0
  0
LINE
  5
F69
330
2
100
AcDbEntity
  8
0
100
AcDbLine
 10
129.5848297236809
 20
411.1504222235739
 30
0.0
 11
150.0848517236847
 21
411.1504222235734
 31
0.0
  0
ARC
  5
F6A
330
2
100
AcDbEntity
  8
0
100
AcDbCircle
 10
145.0848517236811
 20
368.4692764757136
 30
0.0
 40
5.0
100
AcDbArc
 50
359.9999999999934
 51
90.0
  0
LINE
  5
F6B
330
2
100
AcDbEntity
  8
0
100
AcDbLine
 10
145.0848517236811
 20
373.4692764757137
 30
0.0
 11
134.5848297236791
 21
373.4692764757143
 31
0.0
  0
ARC
  5
F6C
330
2
100
AcDbEntity
  8
0
100
AcDbCircle
 10
134.5848297236773
 20
368.4692764757141
 30
0.0
 40
5.0
100
AcDbArc
 50
90.0
 51
179.9999999999934
  0
ARC
  5
F6D
330
2
100
AcDbEntity
  8
0
100
AcDbCircle
 10
127.5848297236773
 20
367.4692764757096
 30
0.0
 40
2.0
100
AcDbArc
 50
270.0
 51
0.0
  0
LINE
  5
F6E
330
2
100
AcDbEntity
  8
0
100
AcDbLine
 10
674.0278144610404
 20
405.9692764757141
 30
0.0
 11
690.5278364610405
 21
405.9692764757141
 31
0.0
  0
LINE
  5
F6F
330
2
100
AcDbEntity
  8
0
100
AcDbLine
 10
674.0278144610404
 20
400.9692764757141
 30
0.0
 11
690.5278364610405
 21
400.9692764757141
 31
0.0
  0
LINE
  5
F70
330
2
100
AcDbEntity
  8
0
100
AcDbLine
 10
673.8097189230431
 20
686.6793130663945
 30
0.0
 11
689.6499005034895
 21
686.6793130663945
 31
0.0
  0
LINE
  5
F71
330
2
100
AcDbEntity
  8
0
100
AcDbLine
 10
673.7286197127571
 20
681.6793130663947
 30
0.0
 11
689.649900503495
 21
681.6793130663947
 31
0.0
  0
LINE
  5
F72
330
2
100
AcDbEntity
  8
0
100
AcDbLine
 10
691.5327494414143
 20
684.1793130663945
 30
0.0
 11
692.4768135529359
 21
648.1269591697787
 31
0.0
  0
ARC
  5
F73
330
2
100
AcDbEntity
  8
0
100
AcDbCircle
 10
694.4761282028869
 20
648.1793130663946
 30
0.0
 40
2.0
100
AcDbArc
 50
181.5000000000027
 51
270.0
  0
LINE
  5
F74
330
2
100
AcDbEntity
  8
0
100
AcDbLine
 10
676.4625644802975
 20
654.1793130663945
 30
0.0
 11
687.4475427338823
 21
654.1793130663948
 31
0.0
  0
ARC
  5
F75
330
2
100
AcDbEntity
  8
0
100
AcDbCircle
 10
687.4475427338823
 20
649.1793130663948
 30
0.0
 40
5.0
100
AcDbArc
 50
1.500000000002716
 51
90.0
  0
ARC
  5
F76
330
2
100
AcDbEntity
  8
0
100
AcDbCircle
 10
158.0848517236866
 20
446.4692764757142
 30
0.0
 40
8.0
100
AcDbArc
 50
90.0
 51
180.0
  0
ARC
  5
F77
330
2
100
AcDbEntity
  8
0
100
AcDbCircle
 10
687.4213568123143
 20
718.1793130663987
 30
0.0
 40
5.0
100
AcDbArc
 50
270.0
 51
358.4999999999908
  0
LINE
  5
F78
330
2
100
AcDbEntity
  8
0
100
AcDbLine
 10
615.6714863987183
 20
360.4692764757023
 30
0.0
 11
617.8314873297188
 21
360.4692764757018
 31
0.0
  0
LINE
  5
F79
330
2
100
AcDbEntity
  8
0
100
AcDbLine
 10
618.6714863987238
 20
366.4692764757109
 30
0.0
 11
615.6714863987183
 21
360.4692764757023
 31
0.0
  0
ARC
  5
F7A
330
2
100
AcDbEntity
  8
0
100
AcDbCircle
 10
623.6514318287301
 20
364.4292764757075
 30
0.0
 40
2.040000000002968
100
AcDbArc
 50
307.5189678668038
 51
90.0
  0
LINE
  5
F7B
330
2
100
AcDbEntity
  8
0
100
AcDbLine
 10
624.8938408634751
 20
362.8112468744961
 30
0.0
 11
626.384142523366
 21
360.4692764757023
 31
0.0
  0
LINE
  5
F7C
330
2
100
AcDbEntity
  8
0
100
AcDbLine
 10
624.2241415923674
 20
360.4692764757018
 30
0.0
 11
626.384142523366
 21
360.4692764757023
 31
0.0
  0
LINE
  5
F7D
330
2
100
AcDbEntity
  8
0
100
AcDbLine
 10
619.811486398725
 20
360.4692764757018
 30
0.0
 11
621.6114318287274
 21
360.4692764757016
 31
0.0
  0
LINE
  5
F7E
330
2
100
AcDbEntity
  8
0
100
AcDbLine
 10
618.2814873297177
 20
361.3692764757035
 30
0.0
 11
617.8314873297188
 21
360.4692764757018
 31
0.0
  0
LINE
  5
F7F
330
2
100
AcDbEntity
  8
0
100
AcDbLine
 10
618.2814873297177
 20
361.3692764757035
 30
0.0
 11
619.811486398725
 21
361.3692764757033
 31
0.0
  0
LINE
  5
F80
330
2
100
AcDbEntity
  8
0
100
AcDbLine
 10
619.811486398725
 20
361.3692764757033
 30
0.0
 11
619.811486398725
 21
360.4692764757018
 31
0.0
  0
LINE
  5
F81
330
2
100
AcDbEntity
  8
0
100
AcDbLine
 10
619.2414873297204
 20
363.2892764757056
 30
0.0
 11
619.811486398725
 21
363.2892764757059
 31
0.0
  0
LINE
  5
F82
330
2
100
AcDbEntity
  8
0
100
AcDbLine
 10
619.811486398725
 20
364.4292746137152
 30
0.0
 11
619.811486398725
 21
363.2892764757059
 31
0.0
  0
LINE
  5
F83
330
2
100
AcDbEntity
  8
0
100
AcDbLine
 10
619.811486398725
 20
364.4292746137152
 30
0.0
 11
619.2414873297204
 21
363.2892764757056
 31
0.0
  0
LINE
  5
F84
330
2
100
AcDbEntity
  8
0
100
AcDbLine
 10
621.8664863987271
 20
364.1742764757072
 30
0.0
 11
624.2241415923674
 21
360.4692764757018
 31
0.0
  0
LINE
  5
F85
330
2
100
AcDbEntity
  8
0
100
AcDbLine
 10
621.6114318287274
 20
364.4292764757078
 30
0.0
 11
621.6114318287274
 21
360.4692764757016
 31
0.0
  0
LINE
  5
F86
330
2
100
AcDbEntity
  8
0
100
AcDbLine
 10
621.6114318287274
 20
364.4292764757078
 30
0.0
 11
623.5239863987301
 21
364.4292764757078
 31
0.0
  0
LINE
  5
F87
330
2
100
AcDbEntity
  8
0
100
AcDbLine
 10
621.8664863987271
 20
364.1742764757072
 30
0.0
 11
623.5239863987301
 21
364.1742764757072
 31
0.0
  0
ARC
  5
F88
330
2
100
AcDbEntity
  8
0
100
AcDbCircle
 10
623.5239863987301
 20
364.3017764757075
 30
0.0
 40
0.1275000000001855
100
AcDbArc
 50
270.0
 51
90.0
  0
LINE
  5
F89
330
2
100
AcDbEntity
  8
0
100
AcDbLine
 10
618.6714863987238
 20
366.4692764757109
 30
0.0
 11
623.6514318287301
 21
366.4692764757109
 31
0.0
  0
LINE
  5
F8A
330
2
100
AcDbEntity
  8
0
100
AcDbLine
 10
588.959192010656
 20
612.1793130663932
 30
0.0
 11
653.0964369114301
 21
612.1793130663932
 31
0.0
  0
LINE
  5
F8B
330
2
100
AcDbEntity
  8
0
100
AcDbLine
 10
586.6063277925843
 20
624.2491120597978
 30
0.0
 11
586.9604103566182
 21
614.1095140729885
 31
0.0
  0
ARC
  5
F8C
330
2
100
AcDbEntity
  8
0
100
AcDbCircle
 10
584.6075461385464
 20
624.1793130663932
 30
0.0
 40
2.0
100
AcDbArc
 50
1.99999999999713
 51
90.0
  0
ARC
  5
F8D
330
2
100
AcDbEntity
  8
0
100
AcDbCircle
 10
588.959192010656
 20
614.1793130663931
 30
0.0
 40
2.0
100
AcDbArc
 50
181.9999999999971
 51
270.0
  0
LINE
  5
F8E
330
2
100
AcDbEntity
  8
0
100
AcDbLine
 10
655.4493011295037
 20
624.2491120597983
 30
0.0
 11
655.095218565468
 21
614.1095140729885
 31
0.0
  0
ARC
  5
F8F
330
2
100
AcDbEntity
  8
0
100
AcDbCircle
 10
657.4480827835416
 20
624.1793130663932
 30
0.0
 40
2.0
100
AcDbArc
 50
90.0
 51
178.0000000000028
  0
ARC
  5
F90
330
2
100
AcDbEntity
  8
0
100
AcDbCircle
 10
653.0964369114301
 20
614.1793130663931
 30
0.0
 40
2.0
100
AcDbArc
 50
270.0
 51
358.0000000000028
  0
LINE
  5
F91
330
2
100
AcDbEntity
  8
0
100
AcDbLine
 10
578.0278144610422
 20
713.1793130663945
 30
0.0
 11
578.0278144610404
 21
632.6793130663964
 31
0.0
  0
LINE
  5
F92
330
2
100
AcDbEntity
  8
0
100
AcDbLine
 10
581.027814461044
 20
713.1793130663945
 30
0.0
 11
581.0278144610422
 21
632.6793130663964
 31
0.0
  0
LINE
  5
F93
330
2
100
AcDbEntity
  8
0
100
AcDbLine
 10
661.0409074218262
 20
713.6793130663981
 30
0.0
 11
661.7878916540632
 21
685.1531361180868
 31
0.0
  0
ARC
  5
F94
330
2
100
AcDbEntity
  8
0
100
AcDbCircle
 10
662.7875489790388
 20
685.1793130663947
 30
0.0
 40
1.0
100
AcDbArc
 50
181.5000000000027
 51
270.0
  0
LINE
  5
F95
330
2
100
AcDbEntity
  8
0
100
AcDbLine
 10
661.027814461044
 20
684.1793130663945
 30
0.0
 11
661.027814461044
 21
632.6793130663964
 31
0.0
  0
LINE
  5
F96
330
2
100
AcDbEntity
  8
0
100
AcDbLine
 10
600.4877152838692
 20
713.1793130663945
 30
0.0
 11
600.4877152838692
 21
632.6793130663964
 31
0.0
  0
LINE
  5
F97
330
2
100
AcDbEntity
  8
0
100
AcDbLine
 10
641.5679136382189
 20
713.1793130663945
 30
0.0
 11
641.5679136382152
 21
632.6793130663964
 31
0.0
  0
LINE
  5
F98
330
2
100
AcDbEntity
  8
0
100
AcDbLine
 10
663.7660084272995
 20
713.670586530897
 30
0.0
 11
663.7660084272995
 21
632.6793130663964
 31
0.0
  0
LINE
  5
F99
330
2
100
AcDbEntity
  8
0
100
AcDbLine
 10
662.7875489790405
 20
684.1793130663948
 30
0.0
 11
671.7678144610429
 21
684.1793130663945
 31
0.0
  0
LINE
  5
F9A
330
2
100
AcDbEntity
  8
0
100
AcDbLine
 10
662.7875489790405
 20
684.1793130663948
 30
0.0
 11
662.7875489790388
 21
684.1793130663948
 31
0.0
  0
ARC
  5
F9B
330
2
100
AcDbEntity
  8
0
100
AcDbCircle
 10
696.3166131260352
 20
727.179313066395
 30
0.0
 40
5.0
100
AcDbArc
 50
270.0
 51
358.4999999999972
  0
ARC
  5
F9C
330
2
100
AcDbEntity
  8
0
100
AcDbCircle
 10
696.3166131260352
 20
641.1793130663945
 30
0.0
 40
5.0
100
AcDbArc
 50
1.499999999996204
 51
90.0
  0
ARC
  5
F9D
330
2
100
AcDbEntity
  8
0
100
AcDbCircle
 10
674.0278144610404
 20
407.9692764757141
 30
0.0
 40
2.0
100
AcDbArc
 50
180.0
 51
270.0
  0
ARC
  5
F9E
330
2
100
AcDbEntity
  8
0
100
AcDbCircle
 10
690.5278364610405
 20
407.9692764757141
 30
0.0
 40
2.0
100
AcDbArc
 50
270.0
 51
0.0
  0
ARC
  5
F9F
330
2
100
AcDbEntity
  8
0
100
AcDbCircle
 10
690.5278364610405
 20
398.9692764757141
 30
0.0
 40
2.0
100
AcDbArc
 50
0.0
 51
90.0
  0
ARC
  5
FA0
330
2
100
AcDbEntity
  8
0
100
AcDbCircle
 10
674.0278144610404
 20
398.9692764757141
 30
0.0
 40
2.0
100
AcDbArc
 50
90.0
 51
180.0
  0
ARC
  5
FA1
330
2
100
AcDbEntity
  8
0
100
AcDbCircle
 10
689.649900503495
 20
679.6793130663948
 30
0.0
 40
2.0
100
AcDbArc
 50
1.500000000002716
 51
90.0
  0
ARC
  5
FA2
330
2
100
AcDbEntity
  8
0
100
AcDbCircle
 10
689.6499005034895
 20
688.6793130663946
 30
0.0
 40
2.0
100
AcDbArc
 50
270.0
 51
358.4999999999842
  0
LINE
  5
FA3
330
2
100
AcDbEntity
  8
0
100
AcDbLine
 10
131.4578350698886
 20
368.4692764757114
 30
0.0
 11
148.0848517236865
 21
368.4692764757111
 31
0.0
  0
LINE
  5
FA4
330
2
100
AcDbEntity
  8
0
100
AcDbLine
 10
131.4578350698868
 20
438.4692764757112
 30
0.0
 11
148.0848517236865
 21
438.4692764757112
 31
0.0
  0
ARC
  5
FA5
330
2
100
AcDbEntity
  8
0
100
AcDbCircle
 10
131.4578350698868
 20
440.4692764757112
 30
0.0
 40
2.0
100
AcDbArc
 50
194.4775121859484
 51
270.0
  0
ARC
  5
FA6
330
2
100
AcDbEntity
  8
0
100
AcDbCircle
 10
131.4578350698886
 20
366.4692764757114
 30
0.0
 40
2.0
100
AcDbArc
 50
90.0
 51
165.5224878140515
  0
ARC
  5
FA7
330
2
100
AcDbEntity
  8
0
100
AcDbCircle
 10
148.0848517236865
 20
440.4692764757112
 30
0.0
 40
2.0
100
AcDbArc
 50
270.0
 51
0.0
  0
ARC
  5
FA8
330
2
100
AcDbEntity
  8
0
100
AcDbCircle
 10
148.0848517236865
 20
366.4692764757111
 30
0.0
 40
2.0
100
AcDbArc
 50
0.0
 51
90.0
  0
ARC
  5
FA9
330
2
100
AcDbEntity
  8
0
100
AcDbCircle
 10
674.0278144610422
 20
366.4692764757141
 30
0.0
 40
2.0
100
AcDbArc
 50
90.0
 51
180.0
  0
ARC
  5
FAA
330
2
100
AcDbEntity
  8
0
100
AcDbCircle
 10
696.5278144610313
 20
360.4692764757146
 30
0.0
 40
5.0
100
AcDbArc
 50
359.9999999999934
 51
90.0
  0
LINE
  5
FAB
330
2
100
AcDbEntity
  8
0
100
AcDbLine
 10
690.6548311148328
 20
438.4692764757144
 30
0.0
 11
674.027814461044
 21
438.4692764757146
 31
0.0
  0
ARC
  5
FAC
330
2
100
AcDbEntity
  8
0
100
AcDbCircle
 10
674.027814461044
 20
440.4692764757146
 30
0.0
 40
2.0
100
AcDbArc
 50
180.0
 51
270.0
  0
LINE
  5
FAD
330
2
100
AcDbEntity
  8
0
100
AcDbLine
 10
690.654831114831
 20
368.4692764757141
 30
0.0
 11
674.0278144610422
 21
368.4692764757141
 31
0.0
  0
LINE
  5
FAE
330
2
100
AcDbEntity
  8
0
100
AcDbLine
 10
696.5278144610422
 20
441.4692764757141
 30
0.0
 11
694.5278144610404
 21
441.4692764757144
 31
0.0
  0
ARC
  5
FAF
330
2
100
AcDbEntity
  8
0
100
AcDbCircle
 10
696.5278144610422
 20
446.4692764757142
 30
0.0
 40
5.0
100
AcDbArc
 50
270.0
 51
0.0
  0
LINE
  5
FB0
330
2
100
AcDbEntity
  8
0
100
AcDbLine
 10
696.5278144610313
 20
365.4692764757145
 30
0.0
 11
694.5278144610385
 21
365.4692764757145
 31
0.0
  0
ARC
  5
FB1
330
2
100
AcDbEntity
  8
0
100
AcDbCircle
 10
694.5278144610385
 20
367.4692764757145
 30
0.0
 40
2.0
100
AcDbArc
 50
180.0
 51
270.0
  0
ARC
  5
FB2
330
2
100
AcDbEntity
  8
0
100
AcDbCircle
 10
690.654831114831
 20
366.4692764757141
 30
0.0
 40
2.0
100
AcDbArc
 50
14.47751218594842
 51
90.0
  0
LINE
  5
FB3
330
2
100
AcDbEntity
  8
0
100
AcDbLine
 10
692.5278144610404
 20
439.4692764757144
 30
0.0
 11
692.5278144610386
 21
367.4692764757145
 31
0.0
  0
ARC
  5
FB4
330
2
100
AcDbEntity
  8
0
100
AcDbCircle
 10
694.5278144610404
 20
439.4692764757144
 30
0.0
 40
2.0
100
AcDbArc
 50
90.0
 51
180.0
  0
ARC
  5
FB5
330
2
100
AcDbEntity
  8
0
100
AcDbCircle
 10
690.6548311148328
 20
440.4692764757141
 30
0.0
 40
2.0
100
AcDbArc
 50
270.0
 51
345.5224878140516
  0
ARC
  5
FB6
330
2
100
AcDbEntity
  8
0
100
AcDbCircle
 10
690.6031448566775
 20
647.179313066395
 30
0.0
 40
2.0
100
AcDbArc
 50
14.47751218590389
 51
90.0
  0
LINE
  5
FB7
330
2
100
AcDbEntity
  8
0
100
AcDbLine
 10
673.4449965095593
 20
649.1793130663945
 30
0.0
 11
690.6031448566775
 21
649.179313066395
 31
0.0
  0
ARC
  5
FB8
330
2
100
AcDbEntity
  8
0
100
AcDbCircle
 10
673.4449965095593
 20
647.1793130663946
 30
0.0
 40
2.0
100
AcDbArc
 50
90.0
 51
179.5000000000019
  0
ARC
  5
FB9
330
2
100
AcDbEntity
  8
0
100
AcDbCircle
 10
687.5278364610424
 20
438.4692764757164
 30
0.0
 40
5.0
100
AcDbArc
 50
270.0
 51
359.9999999999934
  0
ARC
  5
FBA
330
2
100
AcDbEntity
  8
0
100
AcDbCircle
 10
677.0278144610403
 20
438.4692764757168
 30
0.0
 40
5.0
100
AcDbArc
 50
179.9999999999934
 51
270.0
  0
LINE
  5
FBB
330
2
100
AcDbEntity
  8
0
100
AcDbLine
 10
677.0278144610403
 20
433.4692764757169
 30
0.0
 11
687.5278364610424
 21
433.4692764757162
 31
0.0
  0
ARC
  5
FBC
330
2
100
AcDbEntity
  8
0
100
AcDbCircle
 10
687.5278364610405
 20
368.4692764757164
 30
0.0
 40
5.0
100
AcDbArc
 50
0.0
 51
90.0
  0
ARC
  5
FBD
330
2
100
AcDbEntity
  8
0
100
AcDbCircle
 10
677.0278144610386
 20
368.4692764757164
 30
0.0
 40
5.0
100
AcDbArc
 50
90.0
 51
180.0
  0
LINE
  5
FBE
330
2
100
AcDbEntity
  8
0
100
AcDbLine
 10
677.0278144610386
 20
373.4692764757164
 30
0.0
 11
687.5278364610405
 21
373.4692764757164
 31
0.0
  0
LINE
  5
FBF
330
2
100
AcDbEntity
  8
0
100
AcDbLine
 10
105.0848297236809
 20
454.9692764757196
 30
0.0
 11
118.5848297236827
 21
454.96927647572
 31
0.0
  0
ARC
  5
FC0
330
2
100
AcDbEntity
  8
0
100
AcDbCircle
 10
118.5848297236827
 20
452.9692764757201
 30
0.0
 40
2.0
100
AcDbArc
 50
359.9999999999934
 51
90.0
  0
LINE
  5
FC1
330
2
100
AcDbEntity
  8
0
100
AcDbLine
 10
105.0848297236809
 20
351.9692764757195
 30
0.0
 11
118.5848297236809
 21
351.9692764757191
 31
0.0
  0
ARC
  5
FC2
330
2
100
AcDbEntity
  8
0
100
AcDbCircle
 10
118.5848297236809
 20
353.9692764757191
 30
0.0
 40
2.0
100
AcDbArc
 50
270.0
 51
0.0
  0
LINE
  5
FC3
330
2
100
AcDbEntity
  8
0
100
AcDbLine
 10
717.0278364610441
 20
454.9692764757164
 30
0.0
 11
703.5278364610442
 21
454.9692764757167
 31
0.0
  0
ARC
  5
FC4
330
2
100
AcDbEntity
  8
0
100
AcDbCircle
 10
703.5278364610442
 20
452.9692764757166
 30
0.0
 40
2.0
100
AcDbArc
 50
90.0
 51
179.9999999999934
  0
LINE
  5
FC5
330
2
100
AcDbEntity
  8
0
100
AcDbLine
 10
717.0278364610441
 20
351.9692764757162
 30
0.0
 11
703.5278364610405
 21
351.9692764757159
 31
0.0
  0
ARC
  5
FC6
330
2
100
AcDbEntity
  8
0
100
AcDbCircle
 10
703.5278364610405
 20
353.9692764757159
 30
0.0
 40
2.0
100
AcDbArc
 50
179.9999999999934
 51
270.0
  0
LINE
  5
FC7
330
2
100
AcDbEntity
  8
0
100
AcDbLine
 10
701.5278364610442
 20
733.179313066397
 30
0.0
 11
701.5278364610406
 21
635.1793130663966
 31
0.0
  0
LINE
  5
FC8
330
2
100
AcDbEntity
  8
0
100
AcDbLine
 10
717.0278364610441
 20
633.1793130663966
 30
0.0
 11
717.0278364610441
 21
735.1793130663968
 31
0.0
  0
ARC
  5
FC9
330
2
100
AcDbEntity
  8
0
100
AcDbCircle
 10
703.5278364610405
 20
635.1793130663963
 30
0.0
 40
2.0
100
AcDbArc
 50
179.9999999999934
 51
270.0
  0
LINE
  5
FCA
330
2
100
AcDbEntity
  8
0
100
AcDbLine
 10
717.0278364610441
 20
633.1793130663966
 30
0.0
 11
703.5278364610405
 21
633.1793130663964
 31
0.0
  0
ARC
  5
FCB
330
2
100
AcDbEntity
  8
0
100
AcDbCircle
 10
703.5278364610442
 20
733.179313066397
 30
0.0
 40
2.0
100
AcDbArc
 50
90.0
 51
179.9999999999934
  0
LINE
  5
FCC
330
2
100
AcDbEntity
  8
0
100
AcDbLine
 10
717.0278364610441
 20
735.1793130663968
 30
0.0
 11
703.5278364610442
 21
735.179313066397
 31
0.0
  0
LINE
  5
FCD
330
2
100
AcDbEntity
  8
CENTER
100
AcDbLine
 10
621.0278144610458
 20
473.4692764757165
 30
0.0
 11
621.0278144610458
 21
333.4692764757164
 31
0.0
  0
LINE
  5
FCE
330
2
100
AcDbEntity
  8
CENTER
100
AcDbLine
 10
551.027814461044
 20
403.4692764757137
 30
0.0
 11
782.0278364610442
 21
403.4692764757134
 31
0.0
  0
LINE
  5
FCF
330
2
100
AcDbEntity
  8
0
100
AcDbLine
 10
486.4619043422137
 20
107.0452254774299
 30
0.0
 11
486.4619043422137
 21
142.0567879693716
 31
0.0
  0
LINE
  5
FD0
330
2
100
AcDbEntity
  8
0
100
AcDbLine
 10
486.4619043422155
 20
172.5850029322227
 30
0.0
 11
486.4619043422137
 21
207.5965654241635
 31
0.0
  0
LINE
  5
FD1
330
2
100
AcDbEntity
  8
0
100
AcDbLine
 10
491.4619043422137
 20
112.3208954507999
 30
0.0
 11
491.4619043422137
 21
142.1625158308226
 31
0.0
  0
LINE
  5
FD2
330
2
100
AcDbEntity
  8
0
100
AcDbLine
 10
491.4619043422137
 20
172.4792750707719
 30
0.0
 11
491.4619043422137
 21
202.3208954507994
 31
0.0
  0
LINE
  5
FD3
330
2
100
AcDbEntity
  8
0
100
AcDbLine
 10
486.4619043422137
 20
112.3208954507999
 30
0.0
 11
491.4619043422137
 21
112.3208954507999
 31
0.0
  0
LINE
  5
FD4
330
2
100
AcDbEntity
  8
0
100
AcDbLine
 10
486.4619043422137
 20
202.3208954507994
 30
0.0
 11
491.4619043422137
 21
202.3208954507994
 31
0.0
  0
LINE
  5
FD5
330
2
100
AcDbEntity
  8
0
100
AcDbLine
 10
505.4619043422156
 20
125.2522730004119
 30
0.0
 11
505.4619043422156
 21
140.3208954507972
 31
0.0
  0
LINE
  5
FD6
330
2
100
AcDbEntity
  8
0
100
AcDbLine
 10
505.4619043422156
 20
174.3208034507972
 30
0.0
 11
505.4619043422156
 21
189.3895179011851
 31
0.0
  0
LINE
  5
FD7
330
2
100
AcDbEntity
  8
0
100
AcDbLine
 10
493.3921053488104
 20
122.8994087823384
 30
0.0
 11
503.5317033356206
 21
123.2534913463741
 31
0.0
  0
ARC
  5
FD8
330
2
100
AcDbEntity
  8
0
100
AcDbCircle
 10
493.4619043422156
 20
120.9006271283005
 30
0.0
 40
2.0
100
AcDbArc
 50
92.00000000000365
 51
180.0
  0
ARC
  5
FD9
330
2
100
AcDbEntity
  8
0
100
AcDbCircle
 10
503.4619043422155
 20
125.2522730004119
 30
0.0
 40
2.0
100
AcDbArc
 50
272.0000000000036
 51
0.0
  0
LINE
  5
FDA
330
2
100
AcDbEntity
  8
0
100
AcDbLine
 10
493.3921053488104
 20
191.7423821192587
 30
0.0
 11
503.5317033356206
 21
191.388299555223
 31
0.0
  0
ARC
  5
FDB
330
2
100
AcDbEntity
  8
0
100
AcDbCircle
 10
493.4619043422156
 20
193.7411637732965
 30
0.0
 40
2.0
100
AcDbArc
 50
180.0
 51
267.9999999999963
  0
ARC
  5
FDC
330
2
100
AcDbEntity
  8
0
100
AcDbCircle
 10
503.4619043422155
 20
189.3895179011851
 30
0.0
 40
2.0
100
AcDbArc
 50
0.0
 51
87.99999999999636
  0
LINE
  5
FDD
330
2
100
AcDbEntity
  8
0
100
AcDbLine
 10
403.9619043422137
 20
106.3252588846806
 30
0.0
 11
486.4619043422137
 21
107.0452254774299
 31
0.0
  0
LINE
  5
FDE
330
2
100
AcDbEntity
  8
0
100
AcDbLine
 10
403.9619043422137
 20
208.3165320169127
 30
0.0
 11
486.4619043422137
 21
207.5965654241635
 31
0.0
  0
LINE
  5
FDF
330
2
100
AcDbEntity
  8
0
100
AcDbLine
 10
403.9619043422137
 20
106.3252588846806
 30
0.0
 11
403.9619043422137
 21
141.1278807129378
 31
0.0
  0
LINE
  5
FE0
330
2
100
AcDbEntity
  8
0
100
AcDbLine
 10
403.9619043422137
 20
173.5139101886565
 30
0.0
 11
403.9619043422137
 21
208.3165320169127
 31
0.0
  0
LINE
  5
FE1
330
2
100
AcDbEntity
  8
CENTER
100
AcDbLine
 10
433.4619043422082
 20
218.0590894170813
 30
0.0
 11
433.4619043422082
 21
96.58270148451215
 31
0.0
  0
ARC
  5
FE2
330
2
100
AcDbEntity
  8
0
100
AcDbCircle
 10
158.0848517236793
 20
360.4692764757141
 30
0.0
 40
8.0
100
AcDbArc
 50
180.0
 51
270.0
  0
LINE
  5
FE3
330
2
100
AcDbEntity
  8
CENTER
100
AcDbLine
 10
158.0848517236756
 20
351.7192764757139
 30
0.0
 11
158.0848517236756
 21
369.2192764757139
 31
0.0
  0
LINE
  5
FE4
330
2
100
AcDbEntity
  8
0
100
AcDbLine
 10
158.0848517236793
 20
352.4692764757141
 30
0.0
 11
161.0848517236793
 21
352.4692764757143
 31
0.0
  0
ARC
  5
FE5
330
2
100
AcDbEntity
  8
0
100
AcDbCircle
 10
161.0848517236793
 20
357.4692764757145
 30
0.0
 40
5.0
100
AcDbArc
 50
270.0
 51
281.8050678104415
  0
LINE
  5
FE6
330
2
100
AcDbEntity
  8
CENTER
100
AcDbLine
 10
149.3348517236756
 20
360.4692764757139
 30
0.0
 11
166.8348517236756
 21
360.4692764757139
 31
0.0
  0
LINE
  5
FE7
330
2
100
AcDbEntity
  8
0
100
AcDbLine
 10
150.0848517236793
 20
363.4692764757166
 30
0.0
 11
150.0848517236793
 21
360.4692764757141
 31
0.0
  0
LINE
  5
FE8
330
2
100
AcDbEntity
  8
CENTER
100
AcDbLine
 10
251.7580568044325
 20
368.9692764757139
 30
0.0
 11
241.4116466429188
 21
368.9692764757139
 31
0.0
  0
LINE
  5
FE9
330
2
100
AcDbEntity
  8
CENTER
100
AcDbLine
 10
252.8348517236793
 20
360.4692764757109
 30
0.0
 11
235.3348517236793
 21
360.4692764757109
 31
0.0
  0
CIRCLE
  5
FEA
330
2
100
AcDbEntity
  8
0
100
AcDbCircle
 10
246.5848517236756
 20
368.9692764757139
 30
0.0
 40
1.6
  0
CIRCLE
  5
FEB
330
2
100
AcDbEntity
  8
HOJO
100
AcDbCircle
 10
246.5848517236756
 20
368.9692764757139
 30
0.0
 40
2.0
  0
LINE
  5
FEC
330
2
100
AcDbEntity
  8
CENTER
100
AcDbLine
 10
246.5848517236756
 20
363.7960713949568
 30
0.0
 11
246.5848517236756
 21
374.1424815564709
 31
0.0
  0
ARC
  5
FED
330
2
100
AcDbEntity
  8
0
100
AcDbCircle
 10
158.0848517236793
 20
446.4692764757142
 30
0.0
 40
8.0
100
AcDbArc
 50
90.0
 51
180.0
  0
LINE
  5
FEE
330
2
100
AcDbEntity
  8
CENTER
100
AcDbLine
 10
158.0848517236774
 20
455.2192764757176
 30
0.0
 11
158.0848517236774
 21
437.7192764757175
 31
0.0
  0
LINE
  5
FEF
330
2
100
AcDbEntity
  8
CENTER
100
AcDbLine
 10
149.3348517236775
 20
446.4692764757176
 30
0.0
 11
166.8348517236775
 21
446.4692764757176
 31
0.0
  0
LINE
  5
FF0
330
2
100
AcDbEntity
  8
CENTER
100
AcDbLine
 10
150.4116466429279
 20
437.9692764757144
 30
0.0
 11
160.7580568044415
 21
437.9692764757144
 31
0.0
  0
CIRCLE
  5
FF1
330
2
100
AcDbEntity
  8
HOJO
100
AcDbCircle
 10
155.5848517236847
 20
437.9692764757144
 30
0.0
 40
2.0
  0
LINE
  5
FF2
330
2
100
AcDbEntity
  8
CENTER
100
AcDbLine
 10
155.5848517236847
 20
443.1424815564715
 30
0.0
 11
155.5848517236847
 21
432.7960713949573
 31
0.0
  0
LINE
  5
FF3
330
2
100
AcDbEntity
  8
0
100
AcDbLine
 10
150.0848517236793
 20
446.4692764757142
 30
0.0
 11
150.0848517236793
 21
443.4692764757167
 31
0.0
  0
CIRCLE
  5
FF4
330
2
100
AcDbEntity
  8
0
100
AcDbCircle
 10
155.5848517236847
 20
437.9692764757144
 30
0.0
 40
1.6
  0
LINE
  5
FF5
330
2
100
AcDbEntity
  8
0
100
AcDbLine
 10
158.0848517236793
 20
454.4692764757142
 30
0.0
 11
161.0848517236793
 21
454.4692764757142
 31
0.0
  0
ARC
  5
FF6
330
2
100
AcDbEntity
  8
0
100
AcDbCircle
 10
161.0848517236793
 20
449.4692764757141
 30
0.0
 40
5.0
100
AcDbArc
 50
78.19493218950476
 51
90.0
  0
LINE
  5
FF7
330
2
100
AcDbEntity
  8
CENTER
100
AcDbLine
 10
252.8348517236811
 20
446.4692764757144
 30
0.0
 11
235.3348517236811
 21
446.4692764757144
 31
0.0
  0
ARC
  5
FF8
330
2
100
AcDbEntity
  8
0
100
AcDbCircle
 10
225.8960349057272
 20
439.469276475708
 30
0.0
 40
10.5
100
AcDbArc
 50
44.99999999999107
 51
90.0
  0
LINE
  5
FF9
330
2
100
AcDbEntity
  8
0
100
AcDbLine
 10
229.4315688116605
 20
443.0048103816409
 30
0.0
 11
240.6203856296053
 21
431.815993563696
 31
0.0
  0
CIRCLE
  5
FFA
330
2
100
AcDbEntity
  8
0
100
AcDbCircle
 10
201.0848517236793
 20
403.4692764757141
 30
0.0
 40
33.00000000000153
  0
CIRCLE
  5
FFB
330
2
100
AcDbEntity
  8
0
100
AcDbCircle
 10
201.0848517236793
 20
403.4692764757141
 30
0.0
 40
35.00000000000153
  0
CIRCLE
  5
FFC
330
2
100
AcDbEntity
  8
0
100
AcDbCircle
 10
201.0848517236793
 20
403.4692764757141
 30
0.0
 40
35.50000000000153
  0
CIRCLE
  5
FFD
330
2
100
AcDbEntity
  8
0
100
AcDbCircle
 10
201.0848517236793
 20
403.4692764757141
 30
0.0
 40
32.42260000000154
  0
CIRCLE
  5
FFE
330
2
100
AcDbEntity
  8
0
100
AcDbCircle
 10
201.0848517236793
 20
403.4692764757143
 30
0.0
 40
26.0
  0
CIRCLE
  5
FFF
330
2
100
AcDbEntity
  8
0
100
AcDbCircle
 10
201.0848517236793
 20
403.4692764757143
 30
0.0
 40
26.57735026918937
  0
LINE
  5
1000
330
2
100
AcDbEntity
  8
0
100
AcDbLine
 10
225.8960349057272
 20
444.469276475708
 30
0.0
 11
176.2736685416296
 21
444.4692764757085
 31
0.0
  0
LINE
  5
1001
330
2
100
AcDbEntity
  8
0
100
AcDbLine
 10
225.8960349057272
 20
449.969276475708
 30
0.0
 11
176.2736685416296
 21
449.9692764757084
 31
0.0
  0
LINE
  5
1002
330
2
100
AcDbEntity
  8
0
100
AcDbLine
 10
229.9142109455608
 20
449.1700115670769
 30
0.0
 11
227.8094520675533
 21
444.0886741382648
 31
0.0
  0
ARC
  5
1003
330
2
100
AcDbEntity
  8
0
100
AcDbCircle
 10
225.8960349057272
 20
439.469276475708
 30
0.0
 40
5.0
100
AcDbArc
 50
44.99999999999107
 51
90.0
  0
LINE
  5
1004
330
2
100
AcDbEntity
  8
0
100
AcDbLine
 10
161.5493178177514
 20
431.815993563696
 30
0.0
 11
172.7381346356962
 21
443.0048103816411
 31
0.0
  0
LINE
  5
1005
330
2
100
AcDbEntity
  8
0
100
AcDbLine
 10
157.6602305212256
 20
435.705080860222
 30
0.0
 11
168.8490473391705
 21
446.8938976781671
 31
0.0
  0
LINE
  5
1006
330
2
100
AcDbEntity
  8
0
100
AcDbLine
 10
172.2554925017959
 20
449.1700115670769
 30
0.0
 11
174.3602513798034
 21
444.0886741382648
 31
0.0
  0
ARC
  5
1007
330
2
100
AcDbEntity
  8
0
100
AcDbCircle
 10
176.2736685416296
 20
439.4692764757085
 30
0.0
 40
10.5
100
AcDbArc
 50
90.0
 51
135.0000000000089
  0
ARC
  5
1008
330
2
100
AcDbEntity
  8
0
100
AcDbCircle
 10
176.2736685416296
 20
439.4692764757085
 30
0.0
 40
5.0
100
AcDbArc
 50
90.0
 51
135.0000000000089
  0
LINE
  5
1009
330
2
100
AcDbEntity
  8
0
100
AcDbLine
 10
160.0848517236847
 20
428.2804596577632
 30
0.0
 11
160.0848517236847
 21
378.6580932936648
 31
0.0
  0
LINE
  5
100A
330
2
100
AcDbEntity
  8
0
100
AcDbLine
 10
154.5848517236847
 20
428.2804596577632
 30
0.0
 11
154.5848517236847
 21
378.6580932936651
 31
0.0
  0
LINE
  5
100B
330
2
100
AcDbEntity
  8
0
100
AcDbLine
 10
155.3841166323165
 20
432.2986356975963
 30
0.0
 11
160.4654540611284
 21
430.1938768195884
 31
0.0
  0
ARC
  5
100C
330
2
100
AcDbEntity
  8
0
100
AcDbCircle
 10
165.0848517236847
 20
428.2804596577632
 30
0.0
 40
10.5
100
AcDbArc
 50
135.0000000000089
 51
180.0
  0
ARC
  5
100D
330
2
100
AcDbEntity
  8
0
100
AcDbCircle
 10
165.0848517236847
 20
428.2804596577632
 30
0.0
 40
5.0
100
AcDbArc
 50
135.0000000000089
 51
180.0
  0
LINE
  5
100E
330
2
100
AcDbEntity
  8
0
100
AcDbLine
 10
172.7381346356962
 20
363.9337425697874
 30
0.0
 11
161.5493178177514
 21
375.1225593877322
 31
0.0
  0
LINE
  5
100F
330
2
100
AcDbEntity
  8
0
100
AcDbLine
 10
155.3841166323165
 20
374.6399172538319
 30
0.0
 11
160.4654540611284
 21
376.7446761318396
 31
0.0
  0
ARC
  5
1010
330
2
100
AcDbEntity
  8
0
100
AcDbCircle
 10
165.0848517236847
 20
378.6580932936651
 30
0.0
 40
10.5
100
AcDbArc
 50
180.0
 51
224.9999999999911
  0
ARC
  5
1011
330
2
100
AcDbEntity
  8
0
100
AcDbCircle
 10
165.0848517236847
 20
378.6580932936648
 30
0.0
 40
5.0
100
AcDbArc
 50
180.0
 51
224.9999999999911
  0
LINE
  5
1012
330
2
100
AcDbEntity
  8
0
100
AcDbLine
 10
168.8490473391705
 20
360.0446552732611
 30
0.0
 11
157.6602305212256
 21
371.2334720912062
 31
0.0
  0
LINE
  5
1013
330
2
100
AcDbEntity
  8
0
100
AcDbLine
 10
176.2736685416296
 20
362.46927647572
 30
0.0
 11
225.8960349057272
 21
362.4692764757202
 31
0.0
  0
LINE
  5
1014
330
2
100
AcDbEntity
  8
0
100
AcDbLine
 10
176.2736685416296
 20
356.96927647572
 30
0.0
 11
225.8960349057272
 21
356.9692764757202
 31
0.0
  0
LINE
  5
1015
330
2
100
AcDbEntity
  8
0
100
AcDbLine
 10
172.2554925017959
 20
357.7685413843514
 30
0.0
 11
174.3602513798034
 21
362.8498788131634
 31
0.0
  0
ARC
  5
1016
330
2
100
AcDbEntity
  8
0
100
AcDbCircle
 10
176.2736685416296
 20
367.46927647572
 30
0.0
 40
10.5
100
AcDbArc
 50
224.9999999999911
 51
270.0
  0
ARC
  5
1017
330
2
100
AcDbEntity
  8
0
100
AcDbCircle
 10
176.2736685416296
 20
367.46927647572
 30
0.0
 40
5.0
100
AcDbArc
 50
224.9999999999911
 51
270.0
  0
ARC
  5
1018
330
2
100
AcDbEntity
  8
0
100
AcDbCircle
 10
225.8960349057272
 20
367.4692764757202
 30
0.0
 40
10.5
100
AcDbArc
 50
270.0
 51
315.0000000000089
  0
LINE
  5
1019
330
2
100
AcDbEntity
  8
0
100
AcDbLine
 10
240.6203856296053
 20
375.1225593877322
 30
0.0
 11
229.4315688116605
 21
363.9337425697874
 31
0.0
  0
LINE
  5
101A
330
2
100
AcDbEntity
  8
0
100
AcDbLine
 10
229.9142109455608
 20
357.7685413843511
 30
0.0
 11
227.8094520675533
 21
362.8498788131634
 31
0.0
  0
ARC
  5
101B
330
2
100
AcDbEntity
  8
0
100
AcDbCircle
 10
225.8960349057272
 20
367.4692764757202
 30
0.0
 40
5.0
100
AcDbArc
 50
270.0
 51
315.0000000000089
  0
LINE
  5
101C
330
2
100
AcDbEntity
  8
0
100
AcDbLine
 10
244.5094729261311
 20
371.233472091206
 30
0.0
 11
233.3206561081863
 21
360.0446552732614
 31
0.0
  0
LINE
  5
101D
330
2
100
AcDbEntity
  8
0
100
AcDbLine
 10
242.084851723672
 20
378.6580932936651
 30
0.0
 11
242.084851723672
 21
428.2804596577632
 31
0.0
  0
LINE
  5
101E
330
2
100
AcDbEntity
  8
0
100
AcDbLine
 10
247.584851723672
 20
378.6580932936648
 30
0.0
 11
247.584851723672
 21
428.2804596577632
 31
0.0
  0
ARC
  5
101F
330
2
100
AcDbEntity
  8
0
100
AcDbCircle
 10
237.084851723672
 20
378.6580932936648
 30
0.0
 40
10.5
100
AcDbArc
 50
315.0000000000089
 51
0.0
  0
LINE
  5
1020
330
2
100
AcDbEntity
  8
0
100
AcDbLine
 10
246.785586815042
 20
374.6399172538317
 30
0.0
 11
241.7042493862284
 21
376.7446761318396
 31
0.0
  0
ARC
  5
1021
330
2
100
AcDbEntity
  8
0
100
AcDbCircle
 10
237.084851723672
 20
378.6580932936651
 30
0.0
 40
5.0
100
AcDbArc
 50
315.0000000000089
 51
0.0
  0
LINE
  5
1022
330
2
100
AcDbEntity
  8
0
100
AcDbLine
 10
233.3206561081863
 20
446.8938976781669
 30
0.0
 11
244.5094729261311
 21
435.705080860222
 31
0.0
  0
ARC
  5
1023
330
2
100
AcDbEntity
  8
0
100
AcDbCircle
 10
237.084851723672
 20
428.2804596577632
 30
0.0
 40
10.5
100
AcDbArc
 50
0.0
 51
44.99999999999107
  0
LINE
  5
1024
330
2
100
AcDbEntity
  8
0
100
AcDbLine
 10
246.785586815042
 20
432.2986356975963
 30
0.0
 11
241.7042493862284
 21
430.1938768195884
 31
0.0
  0
ARC
  5
1025
330
2
100
AcDbEntity
  8
0
100
AcDbCircle
 10
237.084851723672
 20
428.2804596577632
 30
0.0
 40
5.0
100
AcDbArc
 50
0.0
 51
44.99999999999107
  0
LINE
  5
1026
330
2
100
AcDbEntity
  8
CENTER
100
AcDbLine
 10
147.478250005882
 20
349.8626747579173
 30
0.0
 11
254.6914534414797
 21
457.0758781935155
 31
0.0
  0
LINE
  5
1027
330
2
100
AcDbEntity
  8
CENTER
100
AcDbLine
 10
244.0848517236793
 20
455.2192764757173
 30
0.0
 11
244.0848517236793
 21
437.7192764757174
 31
0.0
  0
LINE
  5
1028
330
2
100
AcDbEntity
  8
CENTER
100
AcDbLine
 10
244.0848517236793
 20
351.7192764757111
 30
0.0
 11
244.0848517236793
 21
369.2192764757111
 31
0.0
  0
LINE
  5
1029
330
2
100
AcDbEntity
  8
CENTER
100
AcDbLine
 10
254.6914534414743
 20
349.8626747579182
 30
0.0
 11
147.4782500058843
 21
457.0758781935082
 31
0.0
  0
LINE
  5
102A
330
2
100
AcDbEntity
  8
0
100
AcDbLine
 10
485.4619043422137
 20
200.3208954508119
 30
0.0
 11
403.9619043422137
 21
200.3208954508119
 31
0.0
  0
LINE
  5
102B
330
2
100
AcDbEntity
  8
0
100
AcDbLine
 10
485.4619043422137
 20
197.3208954508144
 30
0.0
 11
403.9619043422137
 21
197.3208954508144
 31
0.0
  0
LINE
  5
102C
330
2
100
AcDbEntity
  8
0
100
AcDbLine
 10
485.4619043422137
 20
177.8609946279888
 30
0.0
 11
403.9619043422137
 21
177.8609946279888
 31
0.0
  0
LINE
  5
102D
330
2
100
AcDbEntity
  8
0
100
AcDbLine
 10
485.4619043422137
 20
114.3208954507824
 30
0.0
 11
403.9619043422137
 21
114.3208954507824
 31
0.0
  0
LINE
  5
102E
330
2
100
AcDbEntity
  8
0
100
AcDbLine
 10
485.4619043422137
 20
117.3208954507799
 30
0.0
 11
403.9619043422137
 21
117.3208954507799
 31
0.0
  0
LINE
  5
102F
330
2
100
AcDbEntity
  8
0
100
AcDbLine
 10
485.4619043422137
 20
136.7807962736055
 30
0.0
 11
403.9619043422137
 21
136.7807962736055
 31
0.0
  0
LINE
  5
1030
330
2
100
AcDbEntity
  8
0
100
AcDbLine
 10
387.1619043422217
 20
124.3208954507958
 30
0.0
 11
390.461904342221
 21
124.3208954507962
 31
0.0
  0
LINE
  5
1031
330
2
100
AcDbEntity
  8
0
100
AcDbLine
 10
383.4619043422173
 20
183.3208954507967
 30
0.0
 11
391.4619043422155
 21
183.3208954507967
 31
0.0
  0
LINE
  5
1032
330
2
100
AcDbEntity
  8
0
100
AcDbLine
 10
383.4619043422173
 20
131.3208954507971
 30
0.0
 11
391.4619043422155
 21
131.3208954507971
 31
0.0
  0
LINE
  5
1033
330
2
100
AcDbEntity
  8
0
100
AcDbLine
 10
391.4619043422174
 20
130.4256391370733
 30
0.0
 11
391.4619043422174
 21
140.3208954507981
 31
0.0
  0
LINE
  5
1034
330
2
100
AcDbEntity
  8
0
100
AcDbLine
 10
391.4619043422174
 20
174.3208954507978
 30
0.0
 11
391.4619043422174
 21
184.2161517645205
 31
0.0
  0
LINE
  5
1035
330
2
100
AcDbEntity
  8
0
100
AcDbLine
 10
390.461904342221
 20
122.3208954507962
 30
0.0
 11
390.4619043422192
 21
129.2832672174532
 31
0.0
  0
LINE
  5
1036
330
2
100
AcDbEntity
  8
0
100
AcDbLine
 10
390.4619043422064
 20
185.3585236841462
 30
0.0
 11
390.4619043422046
 21
192.3208954507758
 31
0.0
  0
LINE
  5
1037
330
2
100
AcDbEntity
  8
0
100
AcDbLine
 10
390.461904342221
 20
122.3208954507962
 30
0.0
 11
390.961904342221
 21
121.8208954507967
 31
0.0
  0
LINE
  5
1038
330
2
100
AcDbEntity
  8
0
100
AcDbLine
 10
390.4619043422155
 20
124.3208954507962
 30
0.0
 11
390.4619043422155
 21
122.3208954508017
 31
0.0
  0
LINE
  5
1039
330
2
100
AcDbEntity
  8
0
100
AcDbLine
 10
391.4619043422174
 20
130.4256391370733
 30
0.0
 11
392.2057930496905
 21
130.4061597257232
 31
0.0
  0
LINE
  5
103A
330
2
100
AcDbEntity
  8
0
100
AcDbLine
 10
382.4619043422028
 20
189.743545181596
 30
0.0
 11
382.4619043422064
 21
174.3208954507978
 31
0.0
  0
LINE
  5
103B
330
2
100
AcDbEntity
  8
0
100
AcDbLine
 10
382.4619043422155
 20
140.3208954507983
 30
0.0
 11
382.461904342221
 21
124.8982457199849
 31
0.0
  0
LINE
  5
103C
330
2
100
AcDbEntity
  8
0
100
AcDbLine
 10
383.4619043422173
 20
183.3208954507967
 30
0.0
 11
383.4619043422173
 21
174.3208954507981
 31
0.0
  0
LINE
  5
103D
330
2
100
AcDbEntity
  8
0
100
AcDbLine
 10
383.4619043422173
 20
140.3208954507982
 30
0.0
 11
383.4619043422155
 21
131.3208954507971
 31
0.0
  0
LINE
  5
103E
330
2
100
AcDbEntity
  8
0
100
AcDbLine
 10
383.461904342221
 20
124.3208954507953
 30
0.0
 11
384.7619043422202
 21
124.3208954507958
 31
0.0
  0
LINE
  5
103F
330
2
100
AcDbEntity
  8
0
100
AcDbLine
 10
383.461904342221
 20
124.3208954507953
 30
0.0
 11
382.461904342221
 21
124.8982457199849
 31
0.0
  0
LINE
  5
1040
330
2
100
AcDbEntity
  8
0
100
AcDbLine
 10
384.961904342221
 20
124.5208954507956
 30
0.0
 11
384.9619043422301
 21
127.614675244847
 31
0.0
  0
LINE
  5
1041
330
2
100
AcDbEntity
  8
0
100
AcDbLine
 10
384.9619043424102
 20
187.0271156567084
 30
0.0
 11
384.9619043424193
 21
190.1208954507978
 31
0.0
  0
LINE
  5
1042
330
2
100
AcDbEntity
  8
0
100
AcDbLine
 10
386.961904342221
 20
124.520895450796
 30
0.0
 11
387.1619043422217
 21
124.3208954507958
 31
0.0
  0
LINE
  5
1043
330
2
100
AcDbEntity
  8
0
100
AcDbLine
 10
386.961904342221
 20
124.520895450796
 30
0.0
 11
386.961904342221
 21
128.2010850623469
 31
0.0
  0
LINE
  5
1044
330
2
100
AcDbEntity
  8
0
100
AcDbLine
 10
386.961904342221
 20
186.4407058392475
 30
0.0
 11
386.961904342221
 21
190.1208954507932
 31
0.0
  0
LINE
  5
1045
330
2
100
AcDbEntity
  8
0
100
AcDbLine
 10
385.1619043422217
 20
125.0208954507956
 30
0.0
 11
386.7619043422203
 21
125.0208954507958
 31
0.0
  0
LINE
  5
1046
330
2
100
AcDbEntity
  8
0
100
AcDbLine
 10
383.4619043422173
 20
131.3208954507971
 30
0.0
 11
382.4619043422174
 21
130.7435451816076
 31
0.0
  0
LINE
  5
1047
330
2
100
AcDbEntity
  8
0
100
AcDbLine
 10
383.4619043422173
 20
183.3208954507967
 30
0.0
 11
382.4619043422174
 21
183.8982457199862
 31
0.0
  0
LINE
  5
1048
330
2
100
AcDbEntity
  8
0
100
AcDbLine
 10
387.1619043422254
 20
190.3208954507981
 30
0.0
 11
390.4619043422247
 21
190.3208954507972
 31
0.0
  0
LINE
  5
1049
330
2
100
AcDbEntity
  8
HIDS
100
AcDbLine
 10
395.8761179045889
 20
203.2351090131598
 30
0.0
 11
391.5476907798549
 21
198.9066818884311
 31
0.0
  0
LINE
  5
104A
330
2
100
AcDbEntity
  8
0
100
AcDbLine
 10
390.4619043422046
 20
192.3208954507758
 30
0.0
 11
390.9619043422265
 21
192.8208954507967
 31
0.0
  0
LINE
  5
104B
330
2
100
AcDbEntity
  8
0
100
AcDbLine
 10
396.4619043422155
 20
206.3208954507962
 30
0.0
 11
396.4619043422155
 21
172.8289690884875
 31
0.0
  0
LINE
  5
104C
330
2
100
AcDbEntity
  8
0
100
AcDbLine
 10
396.4619043422155
 20
141.8128218131068
 30
0.0
 11
396.4619043422155
 21
108.3208954507978
 31
0.0
  0
LINE
  5
104D
330
2
100
AcDbEntity
  8
0
100
AcDbLine
 10
385.1619043422254
 20
189.6208954507985
 30
0.0
 11
386.7619043422257
 21
189.620895450798
 31
0.0
  0
LINE
  5
104E
330
2
100
AcDbEntity
  8
0
100
AcDbLine
 10
386.961904342221
 20
190.1208954507932
 30
0.0
 11
387.1619043422254
 21
190.3208954507981
 31
0.0
  0
LINE
  5
104F
330
2
100
AcDbEntity
  8
0
100
AcDbLine
 10
383.4619043422246
 20
190.320895450799
 30
0.0
 11
382.4619043422246
 21
189.7435451816094
 31
0.0
  0
LINE
  5
1050
330
2
100
AcDbEntity
  8
0
100
AcDbLine
 10
383.4619043422246
 20
190.320895450799
 30
0.0
 11
384.7619043422257
 21
190.3208954507985
 31
0.0
  0
LINE
  5
1051
330
2
100
AcDbEntity
  8
0
100
AcDbLine
 10
391.4619043422155
 20
184.2161517645205
 30
0.0
 11
392.2057930496905
 21
184.2356311758707
 31
0.0
  0
ARC
  5
1052
330
2
100
AcDbEntity
  8
HIDS
100
AcDbCircle
 10
394.4619043422155
 20
204.6493225755336
 30
0.0
 40
2.0
100
AcDbArc
 50
314.9999999999398
 51
0.0
  0
ARC
  5
1053
330
2
100
AcDbEntity
  8
HIDS
100
AcDbCircle
 10
392.9619043422283
 20
197.4924683260573
 30
0.0
 40
2.0
100
AcDbArc
 50
134.9999999999398
 51
180.0
  0
ARC
  5
1054
330
2
100
AcDbEntity
  8
0
100
AcDbCircle
 10
384.7619043422202
 20
124.5208954507956
 30
0.0
 40
0.2
100
AcDbArc
 50
270.0
 51
359.9999999999348
  0
ARC
  5
1055
330
2
100
AcDbEntity
  8
0
100
AcDbCircle
 10
385.1619043422217
 20
124.8208954507955
 30
0.0
 40
0.2
100
AcDbArc
 50
90.0
 51
179.9999999999348
  0
ARC
  5
1056
330
2
100
AcDbEntity
  8
0
100
AcDbCircle
 10
386.7619043422203
 20
124.8208954507958
 30
0.0
 40
0.2
100
AcDbArc
 50
0.0
 51
90.0
  0
ARC
  5
1057
330
2
100
AcDbEntity
  8
0
100
AcDbCircle
 10
384.7619043422257
 20
190.1208954507982
 30
0.0
 40
0.2
100
AcDbArc
 50
0.0
 51
90.0
  0
ARC
  5
1058
330
2
100
AcDbEntity
  8
0
100
AcDbCircle
 10
385.1619043422254
 20
189.8208954507985
 30
0.0
 40
0.2
100
AcDbArc
 50
180.0
 51
269.9999999999478
  0
ARC
  5
1059
330
2
100
AcDbEntity
  8
0
100
AcDbCircle
 10
386.7619043422257
 20
189.820895450798
 30
0.0
 40
0.2
100
AcDbArc
 50
269.9999999999478
 51
0.0
  0
LINE
  5
105A
330
2
100
AcDbEntity
  8
0
100
AcDbLine
 10
403.9619043422137
 20
173.5139101886565
 30
0.0
 11
403.9619043422119
 21
208.3208954507962
 31
0.0
  0
CIRCLE
  5
105B
330
2
100
AcDbEntity
  8
0
100
AcDbCircle
 10
244.0848517236793
 20
446.4692764757144
 30
0.0
 40
5.000000000000113
  0
LINE
  5
105C
330
2
100
AcDbEntity
  8
0
100
AcDbLine
 10
246.5848517236793
 20
445.0259008027403
 30
0.0
 11
246.5848517236793
 21
447.9126521486882
 31
0.0
  0
LINE
  5
105D
330
2
100
AcDbEntity
  8
0
100
AcDbLine
 10
241.5848517236793
 20
445.0259008027403
 30
0.0
 11
241.5848517236793
 21
447.9126521486884
 31
0.0
  0
CIRCLE
  5
105E
330
2
100
AcDbEntity
  8
0
100
AcDbCircle
 10
244.0848517236793
 20
446.4692764757144
 30
0.0
 40
4.307179676972509
  0
LINE
  5
105F
330
2
100
AcDbEntity
  8
0
100
AcDbLine
 10
241.5848517236793
 20
445.0259008027403
 30
0.0
 11
244.0848517236793
 21
443.5825251297663
 31
0.0
  0
LINE
  5
1060
330
2
100
AcDbEntity
  8
0
100
AcDbLine
 10
246.5848517236793
 20
445.0259008027403
 30
0.0
 11
244.0848517236793
 21
443.5825251297663
 31
0.0
  0
LINE
  5
1061
330
2
100
AcDbEntity
  8
0
100
AcDbLine
 10
244.0848517236793
 20
449.3560278216626
 30
0.0
 11
241.5848517236793
 21
447.9126521486884
 31
0.0
  0
LINE
  5
1062
330
2
100
AcDbEntity
  8
0
100
AcDbLine
 10
244.0848517236793
 20
449.3560278216626
 30
0.0
 11
246.5848517236793
 21
447.9126521486882
 31
0.0
  0
CIRCLE
  5
1063
330
2
100
AcDbEntity
  8
0
100
AcDbCircle
 10
244.0848517236811
 20
360.4692764757109
 30
0.0
 40
5.000000000000113
  0
LINE
  5
1064
330
2
100
AcDbEntity
  8
0
100
AcDbLine
 10
246.5848517236811
 20
359.0259008027369
 30
0.0
 11
246.5848517236811
 21
361.9126521486847
 31
0.0
  0
LINE
  5
1065
330
2
100
AcDbEntity
  8
0
100
AcDbLine
 10
241.5848517236829
 20
359.0259008027369
 30
0.0
 11
241.5848517236829
 21
361.912652148685
 31
0.0
  0
CIRCLE
  5
1066
330
2
100
AcDbEntity
  8
0
100
AcDbCircle
 10
244.0848517236811
 20
360.4692764757109
 30
0.0
 40
4.307179676972509
  0
LINE
  5
1067
330
2
100
AcDbEntity
  8
0
100
AcDbLine
 10
241.5848517236829
 20
359.0259008027369
 30
0.0
 11
244.0848517236829
 21
357.5825251297628
 31
0.0
  0
LINE
  5
1068
330
2
100
AcDbEntity
  8
0
100
AcDbLine
 10
246.5848517236811
 20
359.0259008027369
 30
0.0
 11
244.0848517236829
 21
357.5825251297628
 31
0.0
  0
LINE
  5
1069
330
2
100
AcDbEntity
  8
0
100
AcDbLine
 10
244.0848517236811
 20
363.3560278216591
 30
0.0
 11
241.5848517236829
 21
361.912652148685
 31
0.0
  0
LINE
  5
106A
330
2
100
AcDbEntity
  8
0
100
AcDbLine
 10
244.0848517236811
 20
363.3560278216591
 30
0.0
 11
246.5848517236811
 21
361.9126521486847
 31
0.0
  0
CIRCLE
  5
106B
330
2
100
AcDbEntity
  8
0
100
AcDbCircle
 10
158.0848517236793
 20
360.4692764757139
 30
0.0
 40
5.000000000000113
  0
LINE
  5
106C
330
2
100
AcDbEntity
  8
0
100
AcDbLine
 10
160.5848517236793
 20
359.0259008027398
 30
0.0
 11
160.5848517236793
 21
361.9126521486877
 31
0.0
  0
LINE
  5
106D
330
2
100
AcDbEntity
  8
0
100
AcDbLine
 10
155.5848517236793
 20
359.0259008027398
 30
0.0
 11
155.5848517236793
 21
361.9126521486879
 31
0.0
  0
CIRCLE
  5
106E
330
2
100
AcDbEntity
  8
0
100
AcDbCircle
 10
158.0848517236793
 20
360.4692764757139
 30
0.0
 40
4.307179676972509
  0
LINE
  5
106F
330
2
100
AcDbEntity
  8
0
100
AcDbLine
 10
155.5848517236793
 20
359.0259008027398
 30
0.0
 11
158.0848517236793
 21
357.5825251297657
 31
0.0
  0
LINE
  5
1070
330
2
100
AcDbEntity
  8
0
100
AcDbLine
 10
160.5848517236793
 20
359.0259008027398
 30
0.0
 11
158.0848517236793
 21
357.5825251297657
 31
0.0
  0
LINE
  5
1071
330
2
100
AcDbEntity
  8
0
100
AcDbLine
 10
158.0848517236793
 20
363.356027821662
 30
0.0
 11
155.5848517236793
 21
361.9126521486879
 31
0.0
  0
LINE
  5
1072
330
2
100
AcDbEntity
  8
0
100
AcDbLine
 10
158.0848517236793
 20
363.356027821662
 30
0.0
 11
160.5848517236793
 21
361.9126521486877
 31
0.0
  0
CIRCLE
  5
1073
330
2
100
AcDbEntity
  8
0
100
AcDbCircle
 10
158.0848517236774
 20
446.4692764757148
 30
0.0
 40
5.000000000000113
  0
LINE
  5
1074
330
2
100
AcDbEntity
  8
0
100
AcDbLine
 10
160.5848517236775
 20
445.0259008027408
 30
0.0
 11
160.5848517236775
 21
447.9126521486887
 31
0.0
  0
LINE
  5
1075
330
2
100
AcDbEntity
  8
0
100
AcDbLine
 10
155.5848517236793
 20
445.0259008027408
 30
0.0
 11
155.5848517236793
 21
447.9126521486889
 31
0.0
  0
CIRCLE
  5
1076
330
2
100
AcDbEntity
  8
0
100
AcDbCircle
 10
158.0848517236774
 20
446.4692764757148
 30
0.0
 40
4.307179676972509
  0
LINE
  5
1077
330
2
100
AcDbEntity
  8
0
100
AcDbLine
 10
155.5848517236793
 20
445.0259008027408
 30
0.0
 11
158.0848517236793
 21
443.5825251297667
 31
0.0
  0
LINE
  5
1078
330
2
100
AcDbEntity
  8
0
100
AcDbLine
 10
160.5848517236775
 20
445.0259008027408
 30
0.0
 11
158.0848517236793
 21
443.5825251297667
 31
0.0
  0
LINE
  5
1079
330
2
100
AcDbEntity
  8
0
100
AcDbLine
 10
158.0848517236774
 20
449.356027821663
 30
0.0
 11
155.5848517236793
 21
447.9126521486889
 31
0.0
  0
LINE
  5
107A
330
2
100
AcDbEntity
  8
0
100
AcDbLine
 10
158.0848517236774
 20
449.356027821663
 30
0.0
 11
160.5848517236775
 21
447.9126521486887
 31
0.0
  0
LINE
  5
107B
330
2
100
AcDbEntity
  8
CENTER
  6
CENS
100
AcDbLine
 10
383.9619043422174
 20
200.3208954508124
 30
0.0
 11
410.0272301274783
 21
200.3208954508124
 31
0.0
  0
LINE
  5
107C
330
2
100
AcDbEntity
  8
0
100
AcDbLine
 10
394.9619043422174
 20
195.3208954508124
 30
0.0
 11
389.361904342217
 21
195.3208954508124
 31
0.0
  0
LINE
  5
107D
330
2
100
AcDbEntity
  8
0
100
AcDbLine
 10
394.9619043422174
 20
205.3208954508124
 30
0.0
 11
389.361904342217
 21
205.3208954508124
 31
0.0
  0
LINE
  5
107E
330
2
100
AcDbEntity
  8
0
100
AcDbLine
 10
394.9619043422174
 20
205.3208954508124
 30
0.0
 11
394.9619043422174
 21
195.3208954508126
 31
0.0
  0
LINE
  5
107F
330
2
100
AcDbEntity
  8
0
100
AcDbLine
 10
388.9619043422174
 20
204.6280751277847
 30
0.0
 11
388.9619043422155
 21
196.0137157738401
 31
0.0
  0
LINE
  5
1080
330
2
100
AcDbEntity
  8
0
100
AcDbLine
 10
389.3619043422152
 20
205.3208954508124
 30
0.0
 11
389.361904342217
 21
195.3208954508124
 31
0.0
  0
LINE
  5
1081
330
2
100
AcDbEntity
  8
0
100
AcDbLine
 10
389.361904342217
 20
205.3208954508124
 30
0.0
 11
388.9619043422174
 21
204.6280751277847
 31
0.0
  0
LINE
  5
1082
330
2
100
AcDbEntity
  8
0
100
AcDbLine
 10
389.361904342217
 20
195.3208954508124
 30
0.0
 11
388.9619043422174
 21
196.0137157738401
 31
0.0
  0
LINE
  5
1083
330
2
100
AcDbEntity
  8
0
100
AcDbLine
 10
394.9619043422155
 20
205.3208954508124
 30
0.0
 11
396.4619043422155
 21
205.3208954508124
 31
0.0
  0
LINE
  5
1084
330
2
100
AcDbEntity
  8
0
100
AcDbLine
 10
394.9619043422174
 20
195.3208954508124
 30
0.0
 11
396.4619043422155
 21
195.3208954508124
 31
0.0
  0
LINE
  5
1085
330
2
100
AcDbEntity
  8
HIDS
100
AcDbLine
 10
390.9619043422283
 20
197.4924683260573
 30
0.0
 11
390.9619043422155
 21
195.3208954508124
 31
0.0
  0
LINE
  5
1086
330
2
100
AcDbEntity
  8
0
100
AcDbLine
 10
394.9619043422174
 20
119.3208954507819
 30
0.0
 11
389.361904342217
 21
119.3208954507819
 31
0.0
  0
LINE
  5
1087
330
2
100
AcDbEntity
  8
0
100
AcDbLine
 10
394.9619043422174
 20
109.3208954507819
 30
0.0
 11
389.361904342217
 21
109.3208954507819
 31
0.0
  0
LINE
  5
1088
330
2
100
AcDbEntity
  8
0
100
AcDbLine
 10
394.9619043422174
 20
109.3208954507819
 30
0.0
 11
394.9619043422174
 21
119.3208954507818
 31
0.0
  0
LINE
  5
1089
330
2
100
AcDbEntity
  8
0
100
AcDbLine
 10
388.9619043422174
 20
110.0137157738096
 30
0.0
 11
388.9619043422155
 21
118.6280751277542
 31
0.0
  0
LINE
  5
108A
330
2
100
AcDbEntity
  8
0
100
AcDbLine
 10
389.3619043422152
 20
109.3208954507819
 30
0.0
 11
389.361904342217
 21
119.3208954507819
 31
0.0
  0
LINE
  5
108B
330
2
100
AcDbEntity
  8
0
100
AcDbLine
 10
389.361904342217
 20
109.3208954507819
 30
0.0
 11
388.9619043422174
 21
110.0137157738096
 31
0.0
  0
LINE
  5
108C
330
2
100
AcDbEntity
  8
0
100
AcDbLine
 10
389.361904342217
 20
119.3208954507819
 30
0.0
 11
388.9619043422174
 21
118.6280751277542
 31
0.0
  0
LINE
  5
108D
330
2
100
AcDbEntity
  8
0
100
AcDbLine
 10
394.9619043422155
 20
109.3208954507819
 30
0.0
 11
396.4619043422155
 21
109.3208954507819
 31
0.0
  0
LINE
  5
108E
330
2
100
AcDbEntity
  8
0
100
AcDbLine
 10
394.9619043422174
 20
119.3208954507819
 30
0.0
 11
396.4619043422155
 21
119.3208954507819
 31
0.0
  0
LINE
  5
108F
330
2
100
AcDbEntity
  8
HIDS
100
AcDbLine
 10
395.8761179045889
 20
111.4066818884345
 30
0.0
 11
391.5476907798549
 21
115.7351090131632
 31
0.0
  0
ARC
  5
1090
330
2
100
AcDbEntity
  8
HIDS
100
AcDbCircle
 10
394.4619043422155
 20
109.9924683260607
 30
0.0
 40
2.0
100
AcDbArc
 50
0.0
 51
45.00000000006016
  0
ARC
  5
1091
330
2
100
AcDbEntity
  8
HIDS
100
AcDbCircle
 10
392.9619043422283
 20
117.149322575537
 30
0.0
 40
2.0
100
AcDbArc
 50
180.0
 51
225.0000000000602
  0
LINE
  5
1092
330
2
100
AcDbEntity
  8
HIDS
100
AcDbLine
 10
390.9619043422283
 20
117.149322575537
 30
0.0
 11
390.9619043422155
 21
119.3208954507819
 31
0.0
  0
LINE
  5
1093
330
2
100
AcDbEntity
  8
0
100
AcDbLine
 10
390.9619043422155
 20
195.3208954508124
 30
0.0
 11
390.9619043422155
 21
185.140761947658
 31
0.0
  0
LINE
  5
1094
330
2
100
AcDbEntity
  8
0
100
AcDbLine
 10
390.9619043422155
 20
129.5010289539362
 30
0.0
 11
390.9619043422155
 21
119.3208954507819
 31
0.0
  0
LINE
  5
1095
330
2
100
AcDbEntity
  8
0
100
AcDbLine
 10
383.4619043422246
 20
190.320895450799
 30
0.0
 11
383.4619043422246
 21
187.2697360428127
 31
0.0
  0
LINE
  5
1096
330
2
100
AcDbEntity
  8
0
100
AcDbLine
 10
383.461904342221
 20
127.3720548587811
 30
0.0
 11
383.461904342221
 21
124.3208954507953
 31
0.0
  0
LINE
  5
1097
330
2
100
AcDbEntity
  8
0
100
AcDbLine
 10
387.1619043422217
 20
124.3208954507958
 30
0.0
 11
387.1619043422217
 21
128.2686637861182
 31
0.0
  0
LINE
  5
1098
330
2
100
AcDbEntity
  8
0
100
AcDbLine
 10
387.1619043422254
 20
186.3731271154749
 30
0.0
 11
387.1619043422254
 21
190.3208954507981
 31
0.0
  0
LINE
  5
1099
330
2
100
AcDbEntity
  8
0
100
AcDbLine
 10
570.0321778949257
 20
713.6793130663968
 30
0.0
 11
671.5103718612147
 21
713.6793130663964
 31
0.0
  0
LINE
  5
109A
330
2
100
AcDbEntity
  8
0
100
AcDbLine
 10
588.0278144610421
 20
730.4793130663893
 30
0.0
 11
588.0278144610421
 21
727.1793130663895
 31
0.0
  0
LINE
  5
109B
330
2
100
AcDbEntity
  8
0
100
AcDbLine
 10
586.0278144610422
 20
727.179313066389
 30
0.0
 11
656.0278144610222
 21
727.1793130664055
 31
0.0
  0
LINE
  5
109C
330
2
100
AcDbEntity
  8
0
100
AcDbLine
 10
586.0278144610422
 20
727.179313066389
 30
0.0
 11
585.5278144610422
 21
726.6793130663891
 31
0.0
  0
LINE
  5
109D
330
2
100
AcDbEntity
  8
0
100
AcDbLine
 10
588.0278144610421
 20
727.1793130663946
 30
0.0
 11
586.0278144610476
 21
727.1793130663946
 31
0.0
  0
LINE
  5
109E
330
2
100
AcDbEntity
  8
0
100
AcDbLine
 10
653.4504641918413
 20
735.1793130664082
 30
0.0
 11
588.6051647302304
 21
735.1793130663899
 31
0.0
  0
LINE
  5
109F
330
2
100
AcDbEntity
  8
0
100
AcDbLine
 10
588.0278144610404
 20
734.17931306639
 30
0.0
 11
588.0278144610421
 21
732.8793130663898
 31
0.0
  0
LINE
  5
10A0
330
2
100
AcDbEntity
  8
0
100
AcDbLine
 10
588.0278144610404
 20
734.1793130663895
 30
0.0
 11
588.6051647302304
 21
735.1793130663899
 31
0.0
  0
LINE
  5
10A1
330
2
100
AcDbEntity
  8
0
100
AcDbLine
 10
588.2278144610411
 20
732.67931306639
 30
0.0
 11
653.8278144610432
 21
732.6793130661912
 31
0.0
  0
LINE
  5
10A2
330
2
100
AcDbEntity
  8
0
100
AcDbLine
 10
588.2278144610411
 20
730.67931306639
 30
0.0
 11
588.0278144610421
 21
730.4793130663893
 31
0.0
  0
LINE
  5
10A3
330
2
100
AcDbEntity
  8
0
100
AcDbLine
 10
588.2278144610411
 20
730.67931306639
 30
0.0
 11
653.8278144610396
 21
730.67931306639
 31
0.0
  0
LINE
  5
10A4
330
2
100
AcDbEntity
  8
0
100
AcDbLine
 10
588.7278144610411
 20
732.4793130663892
 30
0.0
 11
588.7278144610411
 21
730.8793130663898
 31
0.0
  0
LINE
  5
10A5
330
2
100
AcDbEntity
  8
0
100
AcDbLine
 10
654.027814461044
 20
730.4793130663852
 30
0.0
 11
654.0278144610422
 21
727.1793130663854
 31
0.0
  0
LINE
  5
10A6
330
2
100
AcDbEntity
  8
HIDS
100
AcDbLine
 10
666.9420280234064
 20
721.7650995040221
 30
0.0
 11
662.6136008986762
 21
726.0935266287551
 31
0.0
  0
LINE
  5
10A7
330
2
100
AcDbEntity
  8
0
100
AcDbLine
 10
656.0278144610222
 20
727.1793130664055
 30
0.0
 11
656.5278144610422
 21
726.6793130663845
 31
0.0
  0
LINE
  5
10A8
330
2
100
AcDbEntity
  8
0
100
AcDbLine
 10
671.414027977585
 20
719.1967661373942
 30
0.0
 11
671.462178061078
 21
713.6793130663991
 31
0.0
  0
ARC
  5
10A9
330
2
100
AcDbEntity
  8
0
100
AcDbCircle
 10
669.4141041314562
 20
719.1793130663968
 30
0.0
 40
2.0
100
AcDbArc
 50
0.5000000000176044
 51
90.0
  0
ARC
  5
10AA
330
2
100
AcDbEntity
  8
0
100
AcDbCircle
 10
572.1725211189043
 20
719.1793130663945
 30
0.0
 40
2.0
100
AcDbArc
 50
90.0
 51
178.4999999999973
  0
LINE
  5
10AB
330
2
100
AcDbEntity
  8
0
100
AcDbLine
 10
653.3278144610433
 20
732.4793130663856
 30
0.0
 11
653.3278144610433
 21
730.8793130663852
 31
0.0
  0
LINE
  5
10AC
330
2
100
AcDbEntity
  8
0
100
AcDbLine
 10
653.8278144610396
 20
730.67931306639
 30
0.0
 11
654.027814461044
 21
730.4793130663852
 31
0.0
  0
LINE
  5
10AD
330
2
100
AcDbEntity
  8
0
100
AcDbLine
 10
654.027814461044
 20
734.1793130663854
 30
0.0
 11
653.4504641918559
 21
735.1793130663854
 31
0.0
  0
LINE
  5
10AE
330
2
100
AcDbEntity
  8
0
100
AcDbLine
 10
654.027814461044
 20
734.1793130663854
 30
0.0
 11
654.027814461044
 21
732.8793130663853
 31
0.0
  0
ARC
  5
10AF
330
2
100
AcDbEntity
  8
HIDS
100
AcDbCircle
 10
668.3562415857798
 20
723.1793130663946
 30
0.0
 40
2.0
100
AcDbArc
 50
224.9999999999864
 51
270.0
  0
ARC
  5
10B0
330
2
100
AcDbEntity
  8
HIDS
100
AcDbCircle
 10
661.1993873363028
 20
724.6793130663827
 30
0.0
 40
2.0
100
AcDbArc
 50
44.99999999998647
 51
90.0
  0
ARC
  5
10B1
330
2
100
AcDbEntity
  8
0
100
AcDbCircle
 10
588.2278144610411
 20
732.8793130663898
 30
0.0
 40
0.2
100
AcDbArc
 50
180.0
 51
269.9999999998957
  0
ARC
  5
10B2
330
2
100
AcDbEntity
  8
0
100
AcDbCircle
 10
588.5278144610404
 20
732.4793130663892
 30
0.0
 40
0.2
100
AcDbArc
 50
0.0
 51
89.99999999989578
  0
ARC
  5
10B3
330
2
100
AcDbEntity
  8
0
100
AcDbCircle
 10
588.5278144610422
 20
730.8793130663898
 30
0.0
 40
0.2
100
AcDbArc
 50
270.0
 51
0.0
  0
ARC
  5
10B4
330
2
100
AcDbEntity
  8
0
100
AcDbCircle
 10
653.8278144610432
 20
732.8793130663853
 30
0.0
 40
0.2
100
AcDbArc
 50
270.0
 51
0.0
  0
ARC
  5
10B5
330
2
100
AcDbEntity
  8
0
100
AcDbCircle
 10
653.527814461044
 20
732.4793130663851
 30
0.0
 40
0.2
100
AcDbArc
 50
90.0
 51
179.9999999999479
  0
ARC
  5
10B6
330
2
100
AcDbEntity
  8
0
100
AcDbCircle
 10
653.527814461044
 20
730.8793130663852
 30
0.0
 40
0.2
100
AcDbArc
 50
179.9999999999479
 51
270.0
  0
LINE
  5
10B7
330
2
100
AcDbEntity
  8
0
100
AcDbLine
 10
570.1732064689533
 20
719.2316669630104
 30
0.0
 11
570.0278129652927
 21
713.6793130663936
 31
0.0
  0
LINE
  5
10B8
330
2
100
AcDbEntity
  8
0
100
AcDbLine
 10
570.027814461044
 20
713.6793130663936
 30
0.0
 11
671.5103718612101
 21
713.6793130663991
 31
0.0
  0
LINE
  5
10B9
330
2
100
AcDbEntity
  8
CENTER
  6
CENS
100
AcDbLine
 10
664.0278144610586
 20
733.6793130663989
 30
0.0
 11
664.0278144610586
 21
700.1139872811343
 31
0.0
  0
LINE
  5
10BA
330
2
100
AcDbEntity
  8
0
100
AcDbLine
 10
659.0278144610586
 20
722.6793130663941
 30
0.0
 11
659.0278144610586
 21
728.2793130663939
 31
0.0
  0
LINE
  5
10BB
330
2
100
AcDbEntity
  8
0
100
AcDbLine
 10
669.0278144610585
 20
722.6793130663941
 30
0.0
 11
669.0278144610585
 21
728.2793130663939
 31
0.0
  0
LINE
  5
10BC
330
2
100
AcDbEntity
  8
0
100
AcDbLine
 10
669.0278144610585
 20
722.6793130663941
 30
0.0
 11
659.0278144610586
 21
722.6793130663941
 31
0.0
  0
LINE
  5
10BD
330
2
100
AcDbEntity
  8
0
100
AcDbLine
 10
668.3349941380313
 20
728.6793130663941
 30
0.0
 11
659.7206347840859
 21
728.6793130663945
 31
0.0
  0
LINE
  5
10BE
330
2
100
AcDbEntity
  8
0
100
AcDbLine
 10
669.0278144610585
 20
728.2793130663945
 30
0.0
 11
659.0278144610586
 21
728.2793130663939
 31
0.0
  0
LINE
  5
10BF
330
2
100
AcDbEntity
  8
0
100
AcDbLine
 10
669.0278144610585
 20
728.2793130663939
 30
0.0
 11
668.3349941380313
 21
728.6793130663941
 31
0.0
  0
LINE
  5
10C0
330
2
100
AcDbEntity
  8
0
100
AcDbLine
 10
659.0278144610586
 20
728.2793130663939
 30
0.0
 11
659.7206347840859
 21
728.6793130663941
 31
0.0
  0
LINE
  5
10C1
330
2
100
AcDbEntity
  8
0
100
AcDbLine
 10
669.0278144610585
 20
722.6793130663946
 30
0.0
 11
669.0278144610585
 21
721.1793130663945
 31
0.0
  0
LINE
  5
10C2
330
2
100
AcDbEntity
  8
0
100
AcDbLine
 10
659.0278144610586
 20
722.6793130663941
 30
0.0
 11
659.0278144610586
 21
721.1793130663945
 31
0.0
  0
LINE
  5
10C3
330
2
100
AcDbEntity
  8
HIDS
100
AcDbLine
 10
661.1993873363028
 20
726.6793130663828
 30
0.0
 11
659.0278144610586
 21
726.6793130663946
 31
0.0
  0
LINE
  5
10C4
330
2
100
AcDbEntity
  8
0
100
AcDbLine
 10
583.0278144610276
 20
722.6793130663941
 30
0.0
 11
583.0278144610276
 21
728.2793130663939
 31
0.0
  0
LINE
  5
10C5
330
2
100
AcDbEntity
  8
0
100
AcDbLine
 10
573.0278144610276
 20
722.6793130663941
 30
0.0
 11
573.0278144610276
 21
728.2793130663939
 31
0.0
  0
LINE
  5
10C6
330
2
100
AcDbEntity
  8
0
100
AcDbLine
 10
573.0278144610276
 20
722.6793130663941
 30
0.0
 11
583.0278144610276
 21
722.6793130663941
 31
0.0
  0
LINE
  5
10C7
330
2
100
AcDbEntity
  8
0
100
AcDbLine
 10
573.7206347840549
 20
728.6793130663941
 30
0.0
 11
582.3349941380004
 21
728.6793130663945
 31
0.0
  0
LINE
  5
10C8
330
2
100
AcDbEntity
  8
0
100
AcDbLine
 10
573.0278144610276
 20
728.2793130663945
 30
0.0
 11
583.0278144610276
 21
728.2793130663939
 31
0.0
  0
LINE
  5
10C9
330
2
100
AcDbEntity
  8
0
100
AcDbLine
 10
573.0278144610276
 20
728.2793130663939
 30
0.0
 11
573.7206347840549
 21
728.6793130663941
 31
0.0
  0
LINE
  5
10CA
330
2
100
AcDbEntity
  8
0
100
AcDbLine
 10
583.0278144610276
 20
728.2793130663939
 30
0.0
 11
582.3349941380004
 21
728.6793130663941
 31
0.0
  0
LINE
  5
10CB
330
2
100
AcDbEntity
  8
0
100
AcDbLine
 10
573.0278144610276
 20
722.6793130663946
 30
0.0
 11
573.0278144610276
 21
721.1793130663945
 31
0.0
  0
LINE
  5
10CC
330
2
100
AcDbEntity
  8
0
100
AcDbLine
 10
583.0278144610276
 20
722.6793130663941
 30
0.0
 11
583.0278144610276
 21
721.1793130663945
 31
0.0
  0
LINE
  5
10CD
330
2
100
AcDbEntity
  8
HIDS
100
AcDbLine
 10
575.1136008986797
 20
721.7650995040221
 30
0.0
 11
579.4420280234082
 21
726.0935266287551
 31
0.0
  0
ARC
  5
10CE
330
2
100
AcDbEntity
  8
HIDS
100
AcDbCircle
 10
573.6993873363064
 20
723.1793130663946
 30
0.0
 40
2.0
100
AcDbArc
 50
270.0
 51
315.0000000000135
  0
ARC
  5
10CF
330
2
100
AcDbEntity
  8
HIDS
100
AcDbCircle
 10
580.8562415857834
 20
724.6793130663827
 30
0.0
 40
2.0
100
AcDbArc
 50
90.0
 51
135.0000000000135
  0
LINE
  5
10D0
330
2
100
AcDbEntity
  8
HIDS
100
AcDbLine
 10
580.8562415857834
 20
726.6793130663828
 30
0.0
 11
583.0278144610276
 21
726.6793130663946
 31
0.0
  0
LINE
  5
10D1
330
2
100
AcDbEntity
  8
0
100
AcDbLine
 10
659.0278144610586
 20
726.6793130663946
 30
0.0
 11
583.0278144610276
 21
726.6793130663946
 31
0.0
  0
LINE
  5
10D2
330
2
100
AcDbEntity
  8
0
100
AcDbLine
 10
654.027814461044
 20
734.1793130663854
 30
0.0
 11
588.0278144610404
 21
734.17931306639
 31
0.0
  0
LINE
  5
10D3
330
2
100
AcDbEntity
  8
0
100
AcDbLine
 10
588.0278144610421
 20
730.4793130663893
 30
0.0
 11
654.027814461044
 21
730.4793130663852
 31
0.0
  0
LINE
  5
10D4
330
2
100
AcDbEntity
  8
CENTER
  6
CENS
100
AcDbLine
 10
578.0278144610276
 20
733.6793130663943
 30
0.0
 11
578.0278144610276
 21
700.1139872811343
 31
0.0
  0
LINE
  5
10D5
330
2
100
AcDbEntity
  8
CENTER
  6
CENS
100
AcDbLine
 10
383.9619043422174
 20
114.3208954507819
 30
0.0
 11
410.0272301274783
 21
114.3208954507819
 31
0.0
  0
LINE
  5
10D6
330
2
100
AcDbEntity
  8
CENTER
100
AcDbLine
 10
528.4619043422155
 20
157.3208954507971
 30
0.0
 11
370.4620113422154
 21
157.3208954507971
 31
0.0
  0
LINE
  5
10D7
330
2
100
AcDbEntity
  8
0
100
AcDbLine
 10
518.4619043422156
 20
171.120898450797
 30
0.0
 11
380.4620113422154
 21
171.1208984507972
 31
0.0
  0
LINE
  5
10D8
330
2
100
AcDbEntity
  8
0
100
AcDbLine
 10
485.4619043422156
 20
168.8208954507971
 30
0.0
 11
405.4620113422154
 21
168.8208954507971
 31
0.0
  0
LINE
  5
10D9
330
2
100
AcDbEntity
  8
0
100
AcDbLine
 10
513.9618573558347
 20
145.8209103184648
 30
0.0
 11
506.9618573558876
 21
145.8209390125315
 31
0.0
  0
LINE
  5
10DA
330
2
100
AcDbEntity
  8
0
100
AcDbLine
 10
513.9619043422156
 20
168.8208244507972
 30
0.0
 11
506.9619043422155
 21
168.8208244507972
 31
0.0
  0
LINE
  5
10DB
330
2
100
AcDbEntity
  8
0
100
AcDbLine
 10
518.4619043422156
 20
174.3208034507972
 30
0.0
 11
493.9070331206569
 21
174.3208034507972
 31
0.0
  0
LINE
  5
10DC
330
2
100
AcDbEntity
  8
0
100
AcDbLine
 10
518.4619043422156
 20
140.3208954507972
 30
0.0
 11
493.9070844175205
 21
140.3208954507972
 31
0.0
  0
LINE
  5
10DD
330
2
100
AcDbEntity
  8
0
100
AcDbLine
 10
513.9619043422792
 20
157.3208853183804
 30
0.0
 11
513.9618573558347
 21
145.8209103184648
 31
0.0
  0
LINE
  5
10DE
330
2
100
AcDbEntity
  8
0
100
AcDbLine
 10
516.4618595075847
 20
146.3208106243941
 30
0.0
 11
516.4619043420645
 21
157.3208106243138
 31
0.0
  0
LINE
  5
10DF
330
2
100
AcDbEntity
  8
0
100
AcDbLine
 10
518.4619043422156
 20
174.3208034507972
 30
0.0
 11
518.4619043422156
 21
140.3208954507972
 31
0.0
  0
LINE
  5
10E0
330
2
100
AcDbEntity
  8
0
100
AcDbLine
 10
516.4618595075847
 20
146.3208106243941
 30
0.0
 11
518.4618553662933
 21
145.166201450885
 31
0.0
  0
LINE
  5
10E1
330
2
100
AcDbEntity
  8
0
100
AcDbLine
 10
516.4618595075847
 20
146.3208106243941
 30
0.0
 11
513.9618595076355
 21
146.320839318461
 31
0.0
  0
LINE
  5
10E2
330
2
100
AcDbEntity
  8
0
100
AcDbLine
 10
513.9619043422156
 20
157.320849450797
 30
0.0
 11
513.9619043422156
 21
168.8208244507972
 31
0.0
  0
LINE
  5
10E3
330
2
100
AcDbEntity
  8
CENTER
100
AcDbLine
 10
510.4619043422156
 20
166.6140506019482
 30
0.0
 11
510.4619043422156
 21
176.6930966659292
 31
0.0
  0
LINE
  5
10E4
330
2
100
AcDbEntity
  8
0
100
AcDbLine
 10
516.4619043422155
 20
168.3208954507971
 30
0.0
 11
516.4619043422155
 21
157.3208954507971
 31
0.0
  0
LINE
  5
10E5
330
2
100
AcDbEntity
  8
0
100
AcDbLine
 10
516.4619043422155
 20
168.3208954507971
 30
0.0
 11
518.4619043422156
 21
169.4754974507972
 31
0.0
  0
LINE
  5
10E6
330
2
100
AcDbEntity
  8
0
100
AcDbLine
 10
516.4619043422155
 20
168.3208954507971
 30
0.0
 11
513.9619043422156
 21
168.3208954507971
 31
0.0
  0
LINE
  5
10E7
330
2
100
AcDbEntity
  8
HOJO
100
AcDbLine
 10
512.9619043422155
 20
171.120898450797
 30
0.0
 11
512.9619043422155
 21
174.3209104507972
 31
0.0
  0
LINE
  5
10E8
330
2
100
AcDbEntity
  8
0
100
AcDbLine
 10
512.4619043422155
 20
171.120898450797
 30
0.0
 11
512.4619043422155
 21
174.3209104507972
 31
0.0
  0
LINE
  5
10E9
330
2
100
AcDbEntity
  8
0
100
AcDbLine
 10
498.4619507733698
 20
145.8208954507971
 30
0.0
 11
498.4619963422231
 21
157.3209002929424
 31
0.0
  0
LINE
  5
10EA
330
2
100
AcDbEntity
  8
0
100
AcDbLine
 10
499.6119567733623
 20
145.8208906086519
 30
0.0
 11
499.6120023422156
 21
157.3208954507971
 31
0.0
  0
LINE
  5
10EB
330
2
100
AcDbEntity
  8
0
100
AcDbLine
 10
506.9618573558876
 20
145.8209390125315
 30
0.0
 11
506.961904342332
 21
157.3209140124474
 31
0.0
  0
LINE
  5
10EC
330
2
100
AcDbEntity
  8
0
100
AcDbLine
 10
486.4619043422155
 20
139.8208034507971
 30
0.0
 11
486.4619043422155
 21
140.3208954507972
 31
0.0
  0
LINE
  5
10ED
330
2
100
AcDbEntity
  8
0
100
AcDbLine
 10
485.4619043422156
 20
146.3208091046767
 30
0.0
 11
498.4619515077449
 21
146.3209002930229
 31
0.0
  0
LINE
  5
10EE
330
2
100
AcDbEntity
  8
0
100
AcDbLine
 10
506.9618595076865
 20
146.3208680125277
 30
0.0
 11
499.6119575077357
 21
146.3208954508776
 31
0.0
  0
LINE
  5
10EF
330
2
100
AcDbEntity
  8
0
100
AcDbLine
 10
499.6119575077684
 20
146.3209046639878
 30
0.0
 11
499.8386650539198
 21
146.3209053980073
 31
0.0
  0
LINE
  5
10F0
330
2
100
AcDbEntity
  8
0
100
AcDbLine
 10
499.6119567733623
 20
145.8208906086519
 30
0.0
 11
498.4619507733698
 21
145.8208954507971
 31
0.0
  0
LINE
  5
10F1
330
2
100
AcDbEntity
  8
0
100
AcDbLine
 10
498.4619963422158
 20
168.3208954507971
 30
0.0
 11
485.4619043422156
 21
168.3208954507971
 31
0.0
  0
LINE
  5
10F2
330
2
100
AcDbEntity
  8
0
100
AcDbLine
 10
506.9619043422155
 20
168.8208244507972
 30
0.0
 11
506.9619043422155
 21
157.320849450797
 31
0.0
  0
LINE
  5
10F3
330
2
100
AcDbEntity
  8
0
100
AcDbLine
 10
498.4619963422158
 20
168.8208954507971
 30
0.0
 11
498.4619963422158
 21
157.3208954507971
 31
0.0
  0
LINE
  5
10F4
330
2
100
AcDbEntity
  8
0
100
AcDbLine
 10
499.6120023422156
 20
168.8208954507971
 30
0.0
 11
499.6120023422156
 21
157.3208954507971
 31
0.0
  0
LINE
  5
10F5
330
2
100
AcDbEntity
  8
0
100
AcDbLine
 10
506.9619043422155
 20
168.3208954507971
 30
0.0
 11
499.6120023422156
 21
168.3208954507971
 31
0.0
  0
LINE
  5
10F6
330
2
100
AcDbEntity
  8
0
100
AcDbLine
 10
508.4619043429158
 20
171.120898450797
 30
0.0
 11
508.4619043429158
 21
174.3209104507972
 31
0.0
  0
LINE
  5
10F7
330
2
100
AcDbEntity
  8
HOJO
100
AcDbLine
 10
507.9619043429159
 20
171.120898450797
 30
0.0
 11
507.9619043429159
 21
174.3209104507972
 31
0.0
  0
LINE
  5
10F8
330
2
100
AcDbEntity
  8
0
100
AcDbLine
 10
499.6120023422156
 20
168.8208954507971
 30
0.0
 11
498.4619963422158
 21
168.8208954507971
 31
0.0
  0
LINE
  5
10F9
330
2
100
AcDbEntity
  8
0
100
AcDbLine
 10
485.4619043422156
 20
168.8208954507971
 30
0.0
 11
485.4619043422156
 21
145.8208954507974
 31
0.0
  0
LINE
  5
10FA
330
2
100
AcDbEntity
  8
0
100
AcDbLine
 10
486.4619043422155
 20
174.8208954507972
 30
0.0
 11
486.4619043422155
 21
174.3208034507972
 31
0.0
  0
LINE
  5
10FB
330
2
100
AcDbEntity
  8
0
100
AcDbLine
 10
380.4620113422154
 20
174.3208954507978
 30
0.0
 11
380.4620113422154
 21
140.3208954507977
 31
0.0
  0
LINE
  5
10FC
330
2
100
AcDbEntity
  8
0
100
AcDbLine
 10
382.4620113422154
 20
146.3208954507972
 30
0.0
 11
382.4620113422154
 21
157.3208954507971
 31
0.0
  0
LINE
  5
10FD
330
2
100
AcDbEntity
  8
0
100
AcDbLine
 10
394.4620113422154
 20
145.8208954507971
 30
0.0
 11
394.4620113422154
 21
157.3208954507971
 31
0.0
  0
LINE
  5
10FE
330
2
100
AcDbEntity
  8
0
100
AcDbLine
 10
393.3119133422153
 20
145.8208954507971
 30
0.0
 11
393.3119133422153
 21
157.3208954507971
 31
0.0
  0
LINE
  5
10FF
330
2
100
AcDbEntity
  8
0
100
AcDbLine
 10
405.4620113422154
 20
168.8208954507971
 30
0.0
 11
405.4620113422154
 21
145.8208954507981
 31
0.0
  0
LINE
  5
1100
330
2
100
AcDbEntity
  8
0
100
AcDbLine
 10
394.7559166732537
 20
140.3208954507979
 30
0.0
 11
380.4620113422154
 21
140.3208954507983
 31
0.0
  0
LINE
  5
1101
330
2
100
AcDbEntity
  8
0
100
AcDbLine
 10
405.4620113422154
 20
146.3208954507972
 30
0.0
 11
394.4620113422154
 21
146.3208954507972
 31
0.0
  0
LINE
  5
1102
330
2
100
AcDbEntity
  8
0
100
AcDbLine
 10
393.3119133422153
 20
146.3208954507972
 30
0.0
 11
382.4620113422154
 21
146.3208954507972
 31
0.0
  0
LINE
  5
1103
330
2
100
AcDbEntity
  8
0
100
AcDbLine
 10
394.4620113422154
 20
145.8208954507971
 30
0.0
 11
393.3119133422153
 21
145.8208954507971
 31
0.0
  0
LINE
  5
1104
330
2
100
AcDbEntity
  8
0
100
AcDbLine
 10
382.4620113422154
 20
146.3208954507972
 30
0.0
 11
380.4620113422154
 21
145.1662934507971
 31
0.0
  0
LINE
  5
1105
330
2
100
AcDbEntity
  8
0
100
AcDbLine
 10
394.7559166732537
 20
174.3208954507978
 30
0.0
 11
380.4620113422154
 21
174.3208954507978
 31
0.0
  0
LINE
  5
1106
330
2
100
AcDbEntity
  8
0
100
AcDbLine
 10
405.4620113422154
 20
168.3208954507971
 30
0.0
 11
394.4620113422154
 21
168.3208954507971
 31
0.0
  0
LINE
  5
1107
330
2
100
AcDbEntity
  8
0
100
AcDbLine
 10
394.4620113422154
 20
168.8208954507971
 30
0.0
 11
394.4620113422154
 21
157.3208954507971
 31
0.0
  0
LINE
  5
1108
330
2
100
AcDbEntity
  8
0
100
AcDbLine
 10
393.3119133422153
 20
168.8208954507971
 30
0.0
 11
393.3119133422153
 21
157.3208954507971
 31
0.0
  0
LINE
  5
1109
330
2
100
AcDbEntity
  8
0
100
AcDbLine
 10
382.4620113422154
 20
168.3208954507971
 30
0.0
 11
382.4620113422154
 21
157.3208954507971
 31
0.0
  0
LINE
  5
110A
330
2
100
AcDbEntity
  8
0
100
AcDbLine
 10
393.3119133422153
 20
168.3208954507971
 30
0.0
 11
382.4620113422154
 21
168.3208954507971
 31
0.0
  0
LINE
  5
110B
330
2
100
AcDbEntity
  8
0
100
AcDbLine
 10
394.4620113422154
 20
168.8208954507971
 30
0.0
 11
393.3119133422153
 21
168.8208954507971
 31
0.0
  0
LINE
  5
110C
330
2
100
AcDbEntity
  8
0
100
AcDbLine
 10
382.4620113422154
 20
168.3208954507971
 30
0.0
 11
380.4620113422154
 21
169.4754974507972
 31
0.0
  0
LINE
  5
110D
330
2
100
AcDbEntity
  8
0
100
AcDbLine
 10
485.4619043422156
 20
145.8208954507974
 30
0.0
 11
405.4620113422154
 21
145.8208954507981
 31
0.0
  0
LINE
  5
110E
330
2
100
AcDbEntity
  8
0
100
AcDbLine
 10
496.4619043422174
 20
130.5827546664887
 30
0.0
 11
496.4619043422174
 21
140.3208954507972
 31
0.0
  0
LINE
  5
110F
330
2
100
AcDbEntity
  8
0
100
AcDbLine
 10
496.4619043422174
 20
174.3208034507972
 30
0.0
 11
496.4619043422174
 21
184.0590362351048
 31
0.0
  0
LINE
  5
1110
330
2
100
AcDbEntity
  8
0
100
AcDbLine
 10
504.4619043422174
 20
131.3208954507968
 30
0.0
 11
504.4619043422174
 21
140.320895450797
 31
0.0
  0
LINE
  5
1111
330
2
100
AcDbEntity
  8
0
100
AcDbLine
 10
504.4619043422174
 20
174.3208034507972
 30
0.0
 11
504.4619043422174
 21
183.3208954507962
 31
0.0
  0
LINE
  5
1112
330
2
100
AcDbEntity
  8
0
100
AcDbLine
 10
495.645699068644
 20
130.5613815792106
 30
0.0
 11
496.4619043422174
 21
130.5827546664887
 31
0.0
  0
LINE
  5
1113
330
2
100
AcDbEntity
  8
0
100
AcDbLine
 10
504.4619043422174
 20
131.3208954507968
 30
0.0
 11
505.4619043422174
 21
130.7435451816073
 31
0.0
  0
LINE
  5
1114
330
2
100
AcDbEntity
  8
0
100
AcDbLine
 10
496.4619043422174
 20
131.3208954507968
 30
0.0
 11
504.4619043422174
 21
131.3208954507968
 31
0.0
  0
LINE
  5
1115
330
2
100
AcDbEntity
  8
0
100
AcDbLine
 10
504.4619043422174
 20
183.3208954507962
 30
0.0
 11
505.4619043422174
 21
183.8982457199862
 31
0.0
  0
LINE
  5
1116
330
2
100
AcDbEntity
  8
0
100
AcDbLine
 10
496.4619043422174
 20
183.3208954507962
 30
0.0
 11
504.4619043422174
 21
183.3208954507962
 31
0.0
  0
LINE
  5
1117
330
2
100
AcDbEntity
  8
0
100
AcDbLine
 10
495.645699068644
 20
184.0804093223832
 30
0.0
 11
496.4619043422174
 21
184.0590362351048
 31
0.0
  0
SPLINE
  5
1118
330
2
100
AcDbEntity
  8
HOJO
100
AcDbSpline
210
0.0
220
0.0
230
1.0
 70
     8
 71
     3
 72
    29
 73
    25
 74
     0
 42
0.0000000001
 43
0.0000000001
 40
1.090399320308462
 40
1.090399320308462
 40
1.090399320308462
 40
1.090399320308462
 40
4.040739644829187
 40
6.997787495336805
 40
10.73237305618972
 40
12.84118264411926
 40
16.26049801359844
 40
19.61887715227126
 40
22.64931725531719
 40
30.22181573300487
 40
36.16263111558746
 40
44.88883488220451
 40
55.50706864912782
 40
63.29892504772643
 40
76.3740363571969
 40
84.54534817615707
 40
97.35021782080984
 40
109.0809591827178
 40
120.5301602098909
 40
124.9940898217377
 40
128.7067778711773
 40
133.1761160685756
 40
137.3397663791125
 40
142.8191071547317
 40
142.8191071547317
 40
142.8191071547317
 40
142.8191071547317
 10
382.461904342221
 20
187.3683428726416
 30
0.0
 10
383.4491892703156
 20
187.2861880013128
 30
0.0
 10
385.4078452310971
 20
187.0547359825654
 30
0.0
 10
388.3848302170883
 20
185.8660848170538
 30
0.0
 10
391.4195889686418
 20
185.3135890176083
 30
0.0
 10
393.4474728143816
 20
182.7697377397612
 30
0.0
 10
393.7899128401988
 20
179.7149683923311
 30
0.0
 10
393.9703637143232
 20
176.5833399477543
 30
0.0
 10
395.4306522977315
 20
171.4911735735735
 30
0.0
 10
402.6258998128798
 20
173.7082430266959
 30
0.0
 10
409.5487305488133
 20
173.7032140544837
 30
0.0
 10
418.1118733083788
 20
172.3940279389257
 30
0.0
 10
427.1036237635091
 20
173.3889570684315
 30
0.0
 10
437.6081333438162
 20
173.0956503795068
 30
0.0
 10
447.3012824754261
 20
173.4851116521799
 30
0.0
 10
458.5953469965227
 20
172.5087069719033
 30
0.0
 10
469.7052281599138
 20
173.623727412407
 30
0.0
 10
480.837555544271
 20
174.4211844682576
 30
0.0
 10
492.7605140692651
 20
170.5864866694391
 30
0.0
 10
495.0252828124596
 20
176.8065792479705
 30
0.0
 10
493.2909603368318
 20
180.8215851959739
 30
0.0
 10
495.7926676085738
 20
185.0165947046197
 30
0.0
 10
500.4640880518202
 20
186.1374722533168
 30
0.0
 10
503.7847252012473
 20
186.5853474339868
 30
0.0
 10
505.4619043422156
 20
187.2388569687986
 30
0.0
  0
SPLINE
  5
1119
330
2
100
AcDbEntity
  8
HOJO
100
AcDbSpline
210
0.0
220
0.0
230
1.0
 70
     8
 71
     3
 72
    29
 73
    25
 74
     0
 42
0.0000000001
 43
0.0000000001
 40
1.090399320308462
 40
1.090399320308462
 40
1.090399320308462
 40
1.090399320308462
 40
4.040739644829187
 40
6.997787495336805
 40
10.73237305618972
 40
12.84118264411926
 40
16.26049801359844
 40
19.61887715227126
 40
22.64931725531719
 40
30.22181573300487
 40
36.16263111558746
 40
44.88883488220451
 40
55.50706864912782
 40
63.29892504772643
 40
76.3740363571969
 40
84.54534817615707
 40
97.35021782080984
 40
109.0809591827178
 40
120.5301602098909
 40
124.9940898217377
 40
128.7067778711773
 40
133.1761160685756
 40
137.3397663791125
 40
142.8191071547317
 40
142.8191071547317
 40
142.8191071547317
 40
142.8191071547317
 10
382.461904342221
 20
127.2734480289528
 30
0.0
 10
383.4491892703156
 20
127.3556029002814
 30
0.0
 10
385.4078452310971
 20
127.587054919029
 30
0.0
 10
388.3848302170883
 20
128.7757060845406
 30
0.0
 10
391.4195889686418
 20
129.328201883986
 30
0.0
 10
393.4474728143816
 20
131.8720531618333
 30
0.0
 10
393.7899128401988
 20
134.9268225092632
 30
0.0
 10
393.9703637143232
 20
138.05845095384
 30
0.0
 10
395.4306522977315
 20
143.1506173280208
 30
0.0
 10
402.6258998128798
 20
140.9335478748985
 30
0.0
 10
409.5487305488133
 20
140.9385768471104
 30
0.0
 10
418.1118733083788
 20
142.2477629626685
 30
0.0
 10
427.1036237635091
 20
141.2528338331628
 30
0.0
 10
437.6081333438162
 20
141.5461405220876
 30
0.0
 10
447.3012824754261
 20
141.1566792494143
 30
0.0
 10
458.5953469965227
 20
142.1330839296911
 30
0.0
 10
469.7052281599138
 20
141.0180634891873
 30
0.0
 10
480.837555544271
 20
140.2206064333366
 30
0.0
 10
492.7605140692651
 20
144.0553042321552
 30
0.0
 10
495.0252828124596
 20
137.8352116536239
 30
0.0
 10
493.2909603368318
 20
133.8202057056205
 30
0.0
 10
495.7926676085738
 20
129.6251961969745
 30
0.0
 10
500.4640880518202
 20
128.5043186482775
 30
0.0
 10
503.7847252012473
 20
128.0564434676073
 30
0.0
 10
505.4619043422156
 20
127.4029339327958
 30
0.0
  0
LINE
  5
111A
330
2
100
AcDbEntity
  8
0
100
AcDbLine
 10
391.4619043422174
 20
183.3208954507967
 30
0.0
 11
383.4619043422173
 21
174.3208954507981
 31
0.0
  0
LINE
  5
111B
330
2
100
AcDbEntity
  8
0
100
AcDbLine
 10
383.4619043422173
 20
183.3208954507965
 30
0.0
 11
391.4619043422174
 21
174.3208954507978
 31
0.0
  0
LINE
  5
111C
330
2
100
AcDbEntity
  8
0
100
AcDbLine
 10
391.4619043422174
 20
140.3208954507981
 30
0.0
 11
383.4619043422173
 21
131.3208954507971
 31
0.0
  0
LINE
  5
111D
330
2
100
AcDbEntity
  8
0
100
AcDbLine
 10
383.4619043422173
 20
140.3208954507982
 30
0.0
 11
391.4619043422155
 21
131.3208954507971
 31
0.0
  0
LINE
  5
111E
330
2
100
AcDbEntity
  8
0
100
AcDbLine
 10
496.4619043422174
 20
140.3208954507972
 30
0.0
 11
504.4619043422174
 21
131.3208954507968
 31
0.0
  0
LINE
  5
111F
330
2
100
AcDbEntity
  8
0
100
AcDbLine
 10
504.4619043422174
 20
140.320895450797
 30
0.0
 11
496.4619043422174
 21
131.3208954507968
 31
0.0
  0
LINE
  5
1120
330
2
100
AcDbEntity
  8
0
100
AcDbLine
 10
496.4619043422174
 20
183.3208954507962
 30
0.0
 11
504.4619043422174
 21
174.3208034507972
 31
0.0
  0
LINE
  5
1121
330
2
100
AcDbEntity
  8
0
100
AcDbLine
 10
504.4619043422174
 20
183.3208954507962
 30
0.0
 11
496.4619043422174
 21
174.3208034507972
 31
0.0
  0
LINE
  5
1122
330
2
100
AcDbEntity
  8
0
100
AcDbLine
 10
624.027814461044
 20
417.2692794757105
 30
0.0
 11
618.027814461044
 21
417.2692794757107
 31
0.0
  0
LINE
  5
1123
330
2
100
AcDbEntity
  8
0
100
AcDbLine
 10
624.027814461044
 20
417.2692794757105
 30
0.0
 11
624.027814461044
 21
414.0522817199689
 31
0.0
  0
LINE
  5
1124
330
2
100
AcDbEntity
  8
0
100
AcDbLine
 10
618.027814461044
 20
417.2692794757105
 30
0.0
 11
618.027814461044
 21
414.0522817199689
 31
0.0
  0
ARC
  5
1125
330
2
100
AcDbEntity
  8
0
100
AcDbCircle
 10
621.027814461044
 20
403.4692764757105
 30
0.0
 40
11.0
100
AcDbArc
 50
105.8266201318575
 51
74.17337986814252
  0
CIRCLE
  5
1126
330
2
100
AcDbEntity
  8
0
100
AcDbCircle
 10
621.0278144610458
 20
403.4692764757114
 30
0.0
 40
16.99990799998784
  0
LINE
  5
1127
330
2
100
AcDbEntity
  8
0
100
AcDbLine
 10
437.9543284126668
 20
353.1892430684637
 30
0.0
 11
437.9543284126668
 21
453.7493098829636
 31
0.0
  0
LINE
  5
1128
330
2
100
AcDbEntity
  8
0
100
AcDbLine
 10
442.9543284126668
 20
358.4692764757164
 30
0.0
 11
442.9543284126668
 21
448.469276475716
 31
0.0
  0
LINE
  5
1129
330
2
100
AcDbEntity
  8
0
100
AcDbLine
 10
437.9543284126668
 20
358.4692764757164
 30
0.0
 11
442.9543284126668
 21
358.4692764757164
 31
0.0
  0
LINE
  5
112A
330
2
100
AcDbEntity
  8
0
100
AcDbLine
 10
437.9543284126668
 20
448.469276475716
 30
0.0
 11
442.9543284126668
 21
448.469276475716
 31
0.0
  0
LINE
  5
112B
330
2
100
AcDbEntity
  8
0
100
AcDbLine
 10
456.9543284126686
 20
371.4006540253285
 30
0.0
 11
456.9543284126686
 21
435.5378989261014
 31
0.0
  0
ARC
  5
112C
330
2
100
AcDbEntity
  8
0
100
AcDbCircle
 10
454.9543284126687
 20
435.5378989261014
 30
0.0
 40
2.0
100
AcDbArc
 50
0.0
 51
87.99999999999636
  0
LINE
  5
112D
330
2
100
AcDbEntity
  8
0
100
AcDbLine
 10
444.8845294192635
 20
369.0477898072549
 30
0.0
 11
455.0241274060738
 21
369.4018723712906
 31
0.0
  0
ARC
  5
112E
330
2
100
AcDbEntity
  8
0
100
AcDbCircle
 10
444.9543284126686
 20
367.049008153217
 30
0.0
 40
2.0
100
AcDbArc
 50
92.00000000000365
 51
180.0
  0
ARC
  5
112F
330
2
100
AcDbEntity
  8
0
100
AcDbCircle
 10
454.9543284126687
 20
371.4006540253285
 30
0.0
 40
2.0
100
AcDbArc
 50
272.0000000000036
 51
0.0
  0
LINE
  5
1130
330
2
100
AcDbEntity
  8
0
100
AcDbLine
 10
444.8845294192635
 20
437.8907631441752
 30
0.0
 11
455.0241274060738
 21
437.5366805801395
 31
0.0
  0
ARC
  5
1131
330
2
100
AcDbEntity
  8
0
100
AcDbCircle
 10
444.9543284126686
 20
439.8895447982131
 30
0.0
 40
2.0
100
AcDbArc
 50
180.0
 51
267.9999999999963
  0
ARC
  5
1132
330
2
100
AcDbEntity
  8
0
100
AcDbCircle
 10
454.9543284126687
 20
435.5378989261017
 30
0.0
 40
2.0
100
AcDbArc
 50
0.0
 51
0.0
  0
LINE
  5
1133
330
2
100
AcDbEntity
  8
0
100
AcDbLine
 10
333.9543284126741
 20
360.3912295614327
 30
0.0
 11
333.9543284126741
 21
446.547323389981
 31
0.0
  0
ARC
  5
1134
330
2
100
AcDbEntity
  8
0
100
AcDbCircle
 10
427.9543284126742
 20
446.547323389982
 30
0.0
 40
8.0
100
AcDbArc
 50
65.08518224130989
 51
89.43829466741624
  0
LINE
  5
1135
330
2
100
AcDbEntity
  8
0
100
AcDbLine
 10
384.9543284126741
 20
351.9692764757073
 30
0.0
 11
341.875900809144
 21
352.3916140012324
 31
0.0
  0
ARC
  5
1136
330
2
100
AcDbEntity
  8
0
100
AcDbCircle
 10
341.9543284126741
 20
360.3912295614327
 30
0.0
 40
8.0
100
AcDbArc
 50
180.0
 51
269.4382946674162
  0
LINE
  5
1137
330
2
100
AcDbEntity
  8
0
100
AcDbLine
 10
384.9543284126741
 20
351.9692764757073
 30
0.0
 11
428.0327560162061
 21
352.3916140012315
 31
0.0
  0
ARC
  5
1138
330
2
100
AcDbEntity
  8
0
100
AcDbCircle
 10
427.9543284126742
 20
360.3912295614317
 30
0.0
 40
8.0
100
AcDbArc
 50
270.5617053325316
 51
294.9148177589203
  0
LINE
  5
1139
330
2
100
AcDbEntity
  8
0
100
AcDbLine
 10
384.9543284126741
 20
454.9692764757065
 30
0.0
 11
341.875900809144
 21
454.5469389501813
 31
0.0
  0
ARC
  5
113A
330
2
100
AcDbEntity
  8
0
100
AcDbCircle
 10
341.9543284126741
 20
446.547323389981
 30
0.0
 40
8.0
100
AcDbArc
 50
90.56170533253165
 51
180.0
  0
LINE
  5
113B
330
2
100
AcDbEntity
  8
0
100
AcDbLine
 10
384.9543284126741
 20
454.9692764757065
 30
0.0
 11
428.0327560162061
 21
454.5469389501822
 31
0.0
  0
LINE
  5
113C
330
2
100
AcDbEntity
  8
0
100
AcDbLine
 10
355.4543284126705
 20
352.4692764757145
 30
0.0
 11
437.9543284126668
 21
353.1892430684637
 31
0.0
  0
LINE
  5
113D
330
2
100
AcDbEntity
  8
0
100
AcDbLine
 10
355.454328412665
 20
454.4692764757128
 30
0.0
 11
437.9543284126668
 21
453.7493098829636
 31
0.0
  0
LINE
  5
113E
330
2
100
AcDbEntity
  8
0
100
AcDbLine
 10
355.4543284126669
 20
352.4692764757145
 30
0.0
 11
355.4543284126669
 21
454.4649130418292
 31
0.0
  0
LINE
  5
113F
330
2
100
AcDbEntity
  8
CENTER
100
AcDbLine
 10
384.9543284126614
 20
464.9692764757064
 30
0.0
 11
384.9543284126614
 21
341.9692764757073
 31
0.0
  0
LINE
  5
1140
330
2
100
AcDbEntity
  8
0
100
AcDbLine
 10
436.9543284126669
 20
446.4692764757285
 30
0.0
 11
355.4543284126669
 21
446.4692764757285
 31
0.0
  0
LINE
  5
1141
330
2
100
AcDbEntity
  8
0
100
AcDbLine
 10
436.9543284126669
 20
443.469276475731
 30
0.0
 11
355.4543284126669
 21
443.469276475731
 31
0.0
  0
LINE
  5
1142
330
2
100
AcDbEntity
  8
0
100
AcDbLine
 10
436.9543284126669
 20
424.0093756529053
 30
0.0
 11
355.4543284126669
 21
424.0093756529053
 31
0.0
  0
LINE
  5
1143
330
2
100
AcDbEntity
  8
0
100
AcDbLine
 10
436.9543284126669
 20
360.4692764756989
 30
0.0
 11
355.4543284126669
 21
360.4692764756989
 31
0.0
  0
LINE
  5
1144
330
2
100
AcDbEntity
  8
0
100
AcDbLine
 10
436.9543284126669
 20
363.4692764756964
 30
0.0
 11
355.4543284126669
 21
363.4692764756964
 31
0.0
  0
LINE
  5
1145
330
2
100
AcDbEntity
  8
0
100
AcDbLine
 10
436.9543284126669
 20
382.929177298522
 30
0.0
 11
355.4543284126669
 21
382.929177298522
 31
0.0
  0
LINE
  5
1146
330
2
100
AcDbEntity
  8
0
100
AcDbLine
 10
338.6543284126748
 20
370.4692764757123
 30
0.0
 11
341.9543284126741
 21
370.4692764757127
 31
0.0
  0
LINE
  5
1147
330
2
100
AcDbEntity
  8
0
100
AcDbLine
 10
341.9543284126741
 20
368.4692764757127
 30
0.0
 11
341.9543284126559
 21
438.4692764756905
 31
0.0
  0
LINE
  5
1148
330
2
100
AcDbEntity
  8
0
100
AcDbLine
 10
341.9543284126741
 20
368.4692764757127
 30
0.0
 11
342.4543284126741
 21
367.9692764757132
 31
0.0
  0
LINE
  5
1149
330
2
100
AcDbEntity
  8
0
100
AcDbLine
 10
341.9543284126687
 20
370.4692764757127
 30
0.0
 11
341.9543284126687
 21
368.4692764757182
 31
0.0
  0
LINE
  5
114A
330
2
100
AcDbEntity
  8
0
100
AcDbLine
 10
333.9543284126559
 20
435.8919262065126
 30
0.0
 11
333.9543284126595
 21
420.4692764757143
 31
0.0
  0
LINE
  5
114B
330
2
100
AcDbEntity
  8
0
100
AcDbLine
 10
333.9543284126686
 20
386.4692764757148
 30
0.0
 11
333.9543284126741
 21
371.0466267449014
 31
0.0
  0
LINE
  5
114C
330
2
100
AcDbEntity
  8
0
100
AcDbLine
 10
334.9543284126741
 20
370.4692764757118
 30
0.0
 11
336.2543284126734
 21
370.4692764757123
 31
0.0
  0
LINE
  5
114D
330
2
100
AcDbEntity
  8
0
100
AcDbLine
 10
334.9543284126741
 20
370.4692764757118
 30
0.0
 11
333.9543284126741
 21
371.0466267449014
 31
0.0
  0
LINE
  5
114E
330
2
100
AcDbEntity
  8
0
100
AcDbLine
 10
336.4543284126705
 20
370.6692764757117
 30
0.0
 11
336.4543284128724
 21
436.2692764757143
 31
0.0
  0
LINE
  5
114F
330
2
100
AcDbEntity
  8
0
100
AcDbLine
 10
338.4543284126741
 20
370.6692764757125
 30
0.0
 11
338.6543284126748
 21
370.4692764757123
 31
0.0
  0
LINE
  5
1150
330
2
100
AcDbEntity
  8
0
100
AcDbLine
 10
338.4543284126741
 20
370.6692764757128
 30
0.0
 11
338.4543284126741
 21
436.2692764757098
 31
0.0
  0
LINE
  5
1151
330
2
100
AcDbEntity
  8
0
100
AcDbLine
 10
336.6543284126748
 20
371.1692764757121
 30
0.0
 11
338.2543284126734
 21
371.1692764757123
 31
0.0
  0
LINE
  5
1152
330
2
100
AcDbEntity
  8
0
100
AcDbLine
 10
338.6543284126785
 20
436.4692764757146
 30
0.0
 11
341.9543284126778
 21
436.4692764757137
 31
0.0
  0
LINE
  5
1153
330
2
100
AcDbEntity
  8
HIDS
100
AcDbLine
 10
347.368541975042
 20
449.3834900380764
 30
0.0
 11
343.0401148503081
 21
445.0550629133476
 31
0.0
  0
LINE
  5
1154
330
2
100
AcDbEntity
  8
0
100
AcDbLine
 10
341.9543284126559
 20
438.4692764756905
 30
0.0
 11
342.4543284126796
 21
438.9692764757133
 31
0.0
  0
LINE
  5
1155
330
2
100
AcDbEntity
  8
0
100
AcDbLine
 10
349.9368753416713
 20
454.421126558373
 30
0.0
 11
355.4542903350049
 21
454.4692763095666
 31
0.0
  0
ARC
  5
1156
330
2
100
AcDbEntity
  8
0
100
AcDbCircle
 10
349.9543284126687
 20
452.4212027122445
 30
0.0
 40
2.0
100
AcDbArc
 50
90.50000000001761
 51
180.0
  0
LINE
  5
1157
330
2
100
AcDbEntity
  8
0
100
AcDbLine
 10
347.9543284126687
 20
452.4212027122445
 30
0.0
 11
347.9543284126687
 21
354.5173504053352
 31
0.0
  0
LINE
  5
1158
330
2
100
AcDbEntity
  8
0
100
AcDbLine
 10
336.6543284126785
 20
435.7692764757151
 30
0.0
 11
338.2543284126788
 21
435.7692764757145
 31
0.0
  0
LINE
  5
1159
330
2
100
AcDbEntity
  8
0
100
AcDbLine
 10
338.4543284126741
 20
436.2692764757098
 30
0.0
 11
338.6543284126785
 21
436.4692764757146
 31
0.0
  0
LINE
  5
115A
330
2
100
AcDbEntity
  8
0
100
AcDbLine
 10
334.9543284126777
 20
436.4692764757156
 30
0.0
 11
333.9543284126778
 21
435.891926206526
 31
0.0
  0
LINE
  5
115B
330
2
100
AcDbEntity
  8
0
100
AcDbLine
 10
334.9543284126777
 20
436.4692764757156
 30
0.0
 11
336.2543284126788
 21
436.469276475715
 31
0.0
  0
ARC
  5
115C
330
2
100
AcDbEntity
  8
HIDS
100
AcDbCircle
 10
345.9543284126687
 20
450.7977036004501
 30
0.0
 40
2.0
100
AcDbArc
 50
314.9999999999398
 51
0.0
  0
ARC
  5
115D
330
2
100
AcDbEntity
  8
HIDS
100
AcDbCircle
 10
344.4543284126814
 20
443.6408493509738
 30
0.0
 40
2.0
100
AcDbArc
 50
134.9999999999398
 51
180.0
  0
ARC
  5
115E
330
2
100
AcDbEntity
  8
0
100
AcDbCircle
 10
336.2543284126734
 20
370.6692764757121
 30
0.0
 40
0.2
100
AcDbArc
 50
270.0
 51
359.9999999999348
  0
ARC
  5
115F
330
2
100
AcDbEntity
  8
0
100
AcDbCircle
 10
336.6543284126748
 20
370.9692764757121
 30
0.0
 40
0.2
100
AcDbArc
 50
90.0
 51
179.9999999999348
  0
ARC
  5
1160
330
2
100
AcDbEntity
  8
0
100
AcDbCircle
 10
338.2543284126734
 20
370.9692764757123
 30
0.0
 40
0.2
100
AcDbArc
 50
0.0
 51
90.0
  0
ARC
  5
1161
330
2
100
AcDbEntity
  8
0
100
AcDbCircle
 10
336.2543284126788
 20
436.2692764757148
 30
0.0
 40
0.2
100
AcDbArc
 50
0.0
 51
90.0
  0
ARC
  5
1162
330
2
100
AcDbEntity
  8
0
100
AcDbCircle
 10
336.6543284126785
 20
435.969276475715
 30
0.0
 40
0.2
100
AcDbArc
 50
180.0
 51
269.9999999999478
  0
ARC
  5
1163
330
2
100
AcDbEntity
  8
0
100
AcDbCircle
 10
338.2543284126788
 20
435.9692764757146
 30
0.0
 40
0.2
100
AcDbArc
 50
269.9999999999478
 51
0.0
  0
LINE
  5
1164
330
2
100
AcDbEntity
  8
0
100
AcDbLine
 10
349.9368753416713
 20
352.5174265592067
 30
0.0
 11
355.4543284126669
 21
352.4692764757145
 31
0.0
  0
ARC
  5
1165
330
2
100
AcDbEntity
  8
0
100
AcDbCircle
 10
349.9543284126687
 20
354.5173504053352
 30
0.0
 40
2.0
100
AcDbArc
 50
180.0
 51
269.4999999999824
  0
LINE
  5
1166
330
2
100
AcDbEntity
  8
0
100
AcDbLine
 10
355.4543284126669
 20
419.662291213573
 30
0.0
 11
355.454328412665
 21
454.4692764757128
 31
0.0
  0
LINE
  5
1167
330
2
100
AcDbEntity
  8
CENTER
  6
CENS
100
AcDbLine
 10
335.4543284126705
 20
446.4692764757289
 30
0.0
 11
361.5196541979314
 21
446.4692764757289
 31
0.0
  0
LINE
  5
1168
330
2
100
AcDbEntity
  8
0
100
AcDbLine
 10
346.4543284126705
 20
441.4692764757289
 30
0.0
 11
340.8543284126701
 21
441.4692764757289
 31
0.0
  0
LINE
  5
1169
330
2
100
AcDbEntity
  8
0
100
AcDbLine
 10
346.4543284126705
 20
451.4692764757289
 30
0.0
 11
340.8543284126701
 21
451.4692764757289
 31
0.0
  0
LINE
  5
116A
330
2
100
AcDbEntity
  8
0
100
AcDbLine
 10
346.4543284126705
 20
451.4692764757289
 30
0.0
 11
346.4543284126705
 21
441.4692764757291
 31
0.0
  0
LINE
  5
116B
330
2
100
AcDbEntity
  8
0
100
AcDbLine
 10
340.4543284126705
 20
450.7764561527012
 30
0.0
 11
340.4543284126686
 21
442.1620967987567
 31
0.0
  0
LINE
  5
116C
330
2
100
AcDbEntity
  8
0
100
AcDbLine
 10
340.8543284126683
 20
451.4692764757289
 30
0.0
 11
340.8543284126701
 21
441.4692764757289
 31
0.0
  0
LINE
  5
116D
330
2
100
AcDbEntity
  8
0
100
AcDbLine
 10
340.8543284126701
 20
451.4692764757289
 30
0.0
 11
340.4543284126705
 21
450.7764561527012
 31
0.0
  0
LINE
  5
116E
330
2
100
AcDbEntity
  8
0
100
AcDbLine
 10
340.8543284126701
 20
441.4692764757289
 30
0.0
 11
340.4543284126705
 21
442.1620967987567
 31
0.0
  0
LINE
  5
116F
330
2
100
AcDbEntity
  8
0
100
AcDbLine
 10
346.4543284126686
 20
451.4692764757289
 30
0.0
 11
347.9543284126687
 21
451.4692764757289
 31
0.0
  0
LINE
  5
1170
330
2
100
AcDbEntity
  8
0
100
AcDbLine
 10
346.4543284126705
 20
441.4692764757289
 30
0.0
 11
347.9543284126687
 21
441.4692764757289
 31
0.0
  0
LINE
  5
1171
330
2
100
AcDbEntity
  8
HIDS
100
AcDbLine
 10
342.4543284126814
 20
443.6408493509738
 30
0.0
 11
342.4543284126686
 21
441.4692764757289
 31
0.0
  0
LINE
  5
1172
330
2
100
AcDbEntity
  8
0
100
AcDbLine
 10
346.4543284126705
 20
365.4692764756984
 30
0.0
 11
340.8543284126701
 21
365.4692764756984
 31
0.0
  0
LINE
  5
1173
330
2
100
AcDbEntity
  8
0
100
AcDbLine
 10
346.4543284126705
 20
355.4692764756984
 30
0.0
 11
340.8543284126701
 21
355.4692764756984
 31
0.0
  0
LINE
  5
1174
330
2
100
AcDbEntity
  8
0
100
AcDbLine
 10
346.4543284126705
 20
355.4692764756984
 30
0.0
 11
346.4543284126705
 21
365.4692764756982
 31
0.0
  0
LINE
  5
1175
330
2
100
AcDbEntity
  8
0
100
AcDbLine
 10
340.4543284126705
 20
356.1620967987261
 30
0.0
 11
340.4543284126686
 21
364.7764561526707
 31
0.0
  0
LINE
  5
1176
330
2
100
AcDbEntity
  8
0
100
AcDbLine
 10
340.8543284126683
 20
355.4692764756984
 30
0.0
 11
340.8543284126701
 21
365.4692764756984
 31
0.0
  0
LINE
  5
1177
330
2
100
AcDbEntity
  8
0
100
AcDbLine
 10
340.8543284126701
 20
355.4692764756984
 30
0.0
 11
340.4543284126705
 21
356.1620967987261
 31
0.0
  0
LINE
  5
1178
330
2
100
AcDbEntity
  8
0
100
AcDbLine
 10
340.8543284126701
 20
365.4692764756984
 30
0.0
 11
340.4543284126705
 21
364.7764561526707
 31
0.0
  0
LINE
  5
1179
330
2
100
AcDbEntity
  8
0
100
AcDbLine
 10
346.4543284126686
 20
355.4692764756984
 30
0.0
 11
347.9543284126687
 21
355.4692764756984
 31
0.0
  0
LINE
  5
117A
330
2
100
AcDbEntity
  8
0
100
AcDbLine
 10
346.4543284126705
 20
365.4692764756984
 30
0.0
 11
347.9543284126687
 21
365.4692764756984
 31
0.0
  0
LINE
  5
117B
330
2
100
AcDbEntity
  8
HIDS
100
AcDbLine
 10
347.368541975042
 20
357.555062913351
 30
0.0
 11
343.0401148503081
 21
361.8834900380797
 31
0.0
  0
ARC
  5
117C
330
2
100
AcDbEntity
  8
HIDS
100
AcDbCircle
 10
345.9543284126687
 20
356.1408493509772
 30
0.0
 40
2.0
100
AcDbArc
 50
0.0
 51
45.00000000006016
  0
ARC
  5
117D
330
2
100
AcDbEntity
  8
HIDS
100
AcDbCircle
 10
344.4543284126814
 20
363.2977036004535
 30
0.0
 40
2.0
100
AcDbArc
 50
180.0
 51
225.0000000000602
  0
LINE
  5
117E
330
2
100
AcDbEntity
  8
HIDS
100
AcDbLine
 10
342.4543284126814
 20
363.2977036004535
 30
0.0
 11
342.4543284126686
 21
365.4692764756984
 31
0.0
  0
LINE
  5
117F
330
2
100
AcDbEntity
  8
0
100
AcDbLine
 10
342.4543284126686
 20
441.4692764757291
 30
0.0
 11
342.4543284126686
 21
365.4692764756984
 31
0.0
  0
LINE
  5
1180
330
2
100
AcDbEntity
  8
0
100
AcDbLine
 10
334.9543284126777
 20
436.4692764757156
 30
0.0
 11
334.9543284126777
 21
370.4692764757095
 31
0.0
  0
LINE
  5
1181
330
2
100
AcDbEntity
  8
0
100
AcDbLine
 10
338.6543284126785
 20
370.4692764757123
 30
0.0
 11
338.6543284126785
 21
436.4692764757146
 31
0.0
  0
LINE
  5
1182
330
2
100
AcDbEntity
  8
CENTER
  6
CENS
100
AcDbLine
 10
335.4543284126705
 20
360.4692764756984
 30
0.0
 11
361.5196541979314
 21
360.4692764756984
 31
0.0
  0
LINE
  5
1183
330
2
100
AcDbEntity
  8
CENTER
100
AcDbLine
 10
479.9543284126687
 20
403.4692764757137
 30
0.0
 11
301.9543284127714
 21
403.4692764757137
 31
0.0
  0
LINE
  5
1184
330
2
100
AcDbEntity
  8
0
100
AcDbLine
 10
469.9543284126686
 20
420.4691844757136
 30
0.0
 11
456.9543284126686
 21
420.4691844757136
 31
0.0
  0
LINE
  5
1185
330
2
100
AcDbEntity
  8
0
100
AcDbLine
 10
469.9543284126686
 20
386.4692764757137
 30
0.0
 11
456.9543284126686
 21
386.4692764757137
 31
0.0
  0
LINE
  5
1186
330
2
100
AcDbEntity
  8
0
100
AcDbLine
 10
469.9543284126686
 20
420.4691844757136
 30
0.0
 11
469.9543284126686
 21
386.4692764757137
 31
0.0
  0
LINE
  5
1187
330
2
100
AcDbEntity
  8
0
100
AcDbLine
 10
331.9544354126685
 20
420.4692764757143
 30
0.0
 11
331.9544354126685
 21
386.4692764757141
 31
0.0
  0
LINE
  5
1188
330
2
100
AcDbEntity
  8
0
100
AcDbLine
 10
333.9543284126741
 20
386.4692764757148
 30
0.0
 11
331.9544354126685
 21
386.4692764757148
 31
0.0
  0
LINE
  5
1189
330
2
100
AcDbEntity
  8
0
100
AcDbLine
 10
333.9543284126741
 20
420.4692764757143
 30
0.0
 11
331.9544354126685
 21
420.4692764757143
 31
0.0
  0
ARC
  5
118A
330
2
100
AcDbEntity
  8
0
100
AcDbCircle
 10
621.0278144610458
 20
403.4692764757114
 30
0.0
 40
12.15460200000234
100
AcDbArc
 50
104.2894211365814
 51
75.71057886341858
  0
LINE
  5
118B
330
2
100
AcDbEntity
  8
0
100
AcDbLine
 10
204.0848517236793
 20
417.2692794757139
 30
0.0
 11
198.0848517236793
 21
417.2692794757142
 31
0.0
  0
LINE
  5
118C
330
2
100
AcDbEntity
  8
0
100
AcDbLine
 10
204.0848517236793
 20
417.2692794757139
 30
0.0
 11
204.0848517236793
 21
414.0522817199725
 31
0.0
  0
LINE
  5
118D
330
2
100
AcDbEntity
  8
0
100
AcDbLine
 10
198.0848517236793
 20
417.2692794757139
 30
0.0
 11
198.0848517236793
 21
414.0522817199725
 31
0.0
  0
ARC
  5
118E
330
2
100
AcDbEntity
  8
0
100
AcDbCircle
 10
201.0848517236793
 20
403.4692764757141
 30
0.0
 40
11.0
100
AcDbArc
 50
105.8266201318575
 51
74.17337986814252
  0
CIRCLE
  5
118F
330
2
100
AcDbEntity
  8
0
100
AcDbCircle
 10
201.0848517236793
 20
403.4692764757147
 30
0.0
 40
16.99990799998784
  0
ARC
  5
1190
330
2
100
AcDbEntity
  8
0
100
AcDbCircle
 10
201.0848517236793
 20
403.4692764757147
 30
0.0
 40
12.15460200000234
100
AcDbArc
 50
104.2894211365814
 51
75.71057886341858
  0
CIRCLE
  5
1191
330
2
100
AcDbEntity
  8
0
100
AcDbCircle
 10
461.9543284126686
 20
403.4692304757135
 30
0.0
 40
2.0
  0
CIRCLE
  5
1192
330
2
100
AcDbEntity
  8
HOJO
100
AcDbCircle
 10
461.9543284126686
 20
403.4692304757135
 30
0.0
 40
2.5
  0
LINE
  5
1193
330
2
100
AcDbEntity
  8
CENTER
100
AcDbLine
 10
461.9543284126686
 20
408.5748181999956
 30
0.0
 11
461.9543284126686
 21
398.3636427514324
 31
0.0
  0
LINE
  5
1194
330
2
100
AcDbEntity
  8
0
100
AcDbLine
 10
672.0103718612119
 20
713.1793130663986
 30
0.0
 11
671.5103718612111
 21
713.6793130663991
 31
0.0
  0
LINE
  5
1195
330
2
100
AcDbEntity
  8
0
100
AcDbLine
 10
604.0279064610424
 20
599.1793130663872
 30
0.0
 11
604.0279064610424
 21
612.1793130663881
 31
0.0
  0
LINE
  5
1196
330
2
100
AcDbEntity
  8
0
100
AcDbLine
 10
638.0278144610421
 20
599.1793130663872
 30
0.0
 11
638.0278144610421
 21
612.1793130663872
 31
0.0
  0
LINE
  5
1197
330
2
100
AcDbEntity
  8
0
100
AcDbLine
 10
604.0279064610424
 20
599.1793130663872
 30
0.0
 11
638.0278144610421
 21
599.1793130663872
 31
0.0
  0
LINE
  5
1198
330
2
100
AcDbEntity
  8
0
100
AcDbLine
 10
604.0278144610422
 20
737.1792060663874
 30
0.0
 11
638.0278144610421
 21
737.1792060663874
 31
0.0
  0
LINE
  5
1199
330
2
100
AcDbEntity
  8
0
100
AcDbLine
 10
638.0278144610421
 20
735.1793130663828
 30
0.0
 11
638.0278144610421
 21
737.1792060663874
 31
0.0
  0
LINE
  5
119A
330
2
100
AcDbEntity
  8
0
100
AcDbLine
 10
604.0278144610422
 20
735.1793130663818
 30
0.0
 11
604.0278144610422
 21
737.1792060663874
 31
0.0
  0
CIRCLE
  5
119B
330
2
100
AcDbEntity
  8
0
100
AcDbCircle
 10
621.027768461043
 20
607.1793130663873
 30
0.0
 40
2.0
  0
CIRCLE
  5
119C
330
2
100
AcDbEntity
  8
HOJO
100
AcDbCircle
 10
621.027768461043
 20
607.1793130663873
 30
0.0
 40
2.5
  0
LINE
  5
119D
330
2
100
AcDbEntity
  8
CENTER
100
AcDbLine
 10
626.1333561853263
 20
607.1793130663873
 30
0.0
 11
615.9221807367632
 21
607.1793130663873
 31
0.0
  0
LINE
  5
119E
330
2
100
AcDbEntity
  8
0
100
AcDbLine
 10
398.4444512712182
 20
208.2727455334563
 30
0.0
 11
403.9618662645518
 21
208.32089528465
 31
0.0
  0
ARC
  5
119F
330
2
100
AcDbEntity
  8
0
100
AcDbCircle
 10
398.4619043422156
 20
206.2728216873281
 30
0.0
 40
2.0
100
AcDbArc
 50
90.50000000001761
 51
180.0
  0
LINE
  5
11A0
330
2
100
AcDbEntity
  8
0
100
AcDbLine
 10
398.4444512712182
 20
106.3690455342902
 30
0.0
 11
403.9619043422137
 21
106.3208954507981
 31
0.0
  0
ARC
  5
11A1
330
2
100
AcDbEntity
  8
0
100
AcDbCircle
 10
398.4619043422156
 20
108.3689693804187
 30
0.0
 40
2.0
100
AcDbArc
 50
180.0
 51
269.4999999999824
  0
LINE
  5
11A3
330
2
100
AcDbEntity
  8
0
100
AcDbLine
 10
671.7678144610429
 20
684.1793130663945
 30
0.0
 11
671.5103718612165
 21
713.6793130663964
 31
0.0
  0
LINE
  5
11A4
330
2
100
AcDbEntity
  8
0
100
AcDbLine
 10
150.6048517236761
 20
360.4692764757132
 30
0.0
 11
150.6048517236761
 21
446.469276475713
 31
0.0
  0
ARC
  5
11A5
330
2
100
AcDbEntity
  8
0
 48
0.5
100
AcDbCircle
 10
158.6048517236824
 20
446.469276475713
 30
0.0
 40
8.0
100
AcDbArc
 50
90.0
 51
179.9999999999739
  0
ARC
  5
11A6
330
2
100
AcDbEntity
  8
0
100
AcDbCircle
 10
158.6048517236761
 20
360.4692764757132
 30
0.0
 40
8.0
100
AcDbArc
 50
179.9999999999739
 51
270.0
  0
LINE
  5
11DD
330
2
100
AcDbEntity
  8
0
100
AcDbLine
 10
938.5291522915943
 20
453.7449464490824
 30
0.0
 11
938.5291522915943
 21
353.1936065023487
 31
0.0
  0
LINE
  5
11DE
330
2
100
AcDbEntity
  8
0
100
AcDbLine
 10
933.5291522915943
 20
448.4692764757124
 30
0.0
 11
933.5291522915943
 21
358.4692764757127
 31
0.0
  0
LINE
  5
11DF
330
2
100
AcDbEntity
  8
0
100
AcDbLine
 10
938.5291522915943
 20
448.4692764757124
 30
0.0
 11
933.5291522915943
 21
448.4692764757124
 31
0.0
  0
LINE
  5
11E0
330
2
100
AcDbEntity
  8
0
100
AcDbLine
 10
938.5291522915943
 20
358.4692764757127
 30
0.0
 11
933.5291522915943
 21
358.4692764757127
 31
0.0
  0
LINE
  5
11E1
330
2
100
AcDbEntity
  8
0
100
AcDbLine
 10
919.5291522915942
 20
435.5378989261002
 30
0.0
 11
919.5291522915942
 21
371.4006540253271
 31
0.0
  0
LINE
  5
11E2
330
2
100
AcDbEntity
  8
0
100
AcDbLine
 10
931.5989512849975
 20
437.8907631441738
 30
0.0
 11
921.4593532981892
 21
437.5366805801381
 31
0.0
  0
ARC
  5
11E3
330
2
100
AcDbEntity
  8
0
100
AcDbCircle
 10
931.5291522915943
 20
439.8895447982117
 30
0.0
 40
2.0
100
AcDbArc
 50
272.0000000000036
 51
0.0
  0
ARC
  5
11E4
330
2
100
AcDbEntity
  8
0
100
AcDbCircle
 10
921.5291522915944
 20
435.5378989261002
 30
0.0
 40
2.0
100
AcDbArc
 50
92.00000000000365
 51
180.0
  0
LINE
  5
11E5
330
2
100
AcDbEntity
  8
0
100
AcDbLine
 10
931.5989512849993
 20
369.0477898072535
 30
0.0
 11
921.4593532981892
 21
369.4018723712892
 31
0.0
  0
ARC
  5
11E6
330
2
100
AcDbEntity
  8
0
100
AcDbCircle
 10
931.5291522915943
 20
367.0490081532156
 30
0.0
 40
2.0
100
AcDbArc
 50
0.0
 51
87.99999999999636
  0
ARC
  5
11E7
330
2
100
AcDbEntity
  8
0
100
AcDbCircle
 10
921.5291522915944
 20
371.4006540253271
 30
0.0
 40
2.0
100
AcDbArc
 50
180.0
 51
267.9999999999963
  0
LINE
  5
11E8
330
2
100
AcDbEntity
  8
0
100
AcDbLine
 10
1042.529152291587
 20
446.547323389996
 30
0.0
 11
1042.529152291587
 21
360.3912295614477
 31
0.0
  0
LINE
  5
11E9
330
2
100
AcDbEntity
  8
0
100
AcDbLine
 10
940.529152291587
 20
446.5473233899969
 30
0.0
 11
940.529152291587
 21
360.3912295614467
 31
0.0
  0
ARC
  5
11EA
330
2
100
AcDbEntity
  8
0
100
AcDbCircle
 10
948.529152291587
 20
360.3912295614467
 30
0.0
 40
8.0
100
AcDbArc
 50
180.0
 51
269.4382946674683
  0
LINE
  5
11EB
330
2
100
AcDbEntity
  8
0
100
AcDbLine
 10
991.529152291587
 20
454.9692764757215
 30
0.0
 11
1034.607579895119
 21
454.5469389501963
 31
0.0
  0
ARC
  5
11EC
330
2
100
AcDbEntity
  8
0
100
AcDbCircle
 10
1034.529152291587
 20
446.547323389996
 30
0.0
 40
8.0
100
AcDbArc
 50
0.0
 51
89.43829466741624
  0
LINE
  5
11ED
330
2
100
AcDbEntity
  8
0
100
AcDbLine
 10
991.529152291587
 20
454.9692764757215
 30
0.0
 11
948.4507246880568
 21
454.5469389501972
 31
0.0
  0
ARC
  5
11EE
330
2
100
AcDbEntity
  8
0
100
AcDbCircle
 10
948.529152291587
 20
446.5473233899969
 30
0.0
 40
8.0
100
AcDbArc
 50
90.56170533253165
 51
180.0
  0
LINE
  5
11EF
330
2
100
AcDbEntity
  8
0
100
AcDbLine
 10
991.529152291587
 20
351.9692764757223
 30
0.0
 11
1034.607579895119
 21
352.3916140012474
 31
0.0
  0
ARC
  5
11F0
330
2
100
AcDbEntity
  8
0
100
AcDbCircle
 10
1034.529152291587
 20
360.3912295614477
 30
0.0
 40
8.0
100
AcDbArc
 50
270.5617053325316
 51
0.0
  0
LINE
  5
11F1
330
2
100
AcDbEntity
  8
0
100
AcDbLine
 10
991.529152291587
 20
351.9692764757223
 30
0.0
 11
948.4507246880568
 21
352.3916140012465
 31
0.0
  0
LINE
  5
11F2
330
2
100
AcDbEntity
  8
0
100
AcDbLine
 10
945.1589892691192
 20
453.8028041598604
 30
0.0
 11
938.5291522915943
 21
453.7449464490824
 31
0.0
  0
LINE
  5
11F3
330
2
100
AcDbEntity
  8
0
100
AcDbLine
 10
945.1589892691192
 20
353.1357487915706
 30
0.0
 11
938.5291522915943
 21
353.1936065023487
 31
0.0
  0
LINE
  5
11F4
330
2
100
AcDbEntity
  8
CENTER
100
AcDbLine
 10
991.529152291587
 20
464.9692764757214
 30
0.0
 11
991.529152291587
 21
341.9692764757223
 31
0.0
  0
LINE
  5
11F5
330
2
100
AcDbEntity
  8
CENTER
100
AcDbLine
 10
896.5291522915798
 20
403.4692764757137
 30
0.0
 11
1054.529045291579
 21
403.4692764757137
 31
0.0
  0
LINE
  5
11F6
330
2
100
AcDbEntity
  8
0
100
AcDbLine
 10
906.5291522915797
 20
420.4691844757221
 30
0.0
 11
919.5291522915796
 21
420.4691844757221
 31
0.0
  0
LINE
  5
11F7
330
2
100
AcDbEntity
  8
0
100
AcDbLine
 10
906.5291522915797
 20
386.469276475722
 30
0.0
 11
919.5291522915796
 21
386.469276475722
 31
0.0
  0
LINE
  5
11F8
330
2
100
AcDbEntity
  8
0
100
AcDbLine
 10
906.5291522915797
 20
420.4691844757221
 30
0.0
 11
906.5291522915797
 21
386.469276475722
 31
0.0
  0
LINE
  5
11F9
330
2
100
AcDbEntity
  8
0
100
AcDbLine
 10
1044.529045291579
 20
420.4692764757227
 30
0.0
 11
1044.529045291579
 21
386.4692764757228
 31
0.0
  0
LINE
  5
11FA
330
2
100
AcDbEntity
  8
0
100
AcDbLine
 10
1042.529152291576
 20
386.4692764757232
 30
0.0
 11
1044.529045291579
 21
386.4692764757232
 31
0.0
  0
LINE
  5
11FB
330
2
100
AcDbEntity
  8
0
100
AcDbLine
 10
1042.529152291574
 20
420.4692764757227
 30
0.0
 11
1044.529045291579
 21
420.4692764757227
 31
0.0
  0
LINE
  5
11FC
330
2
100
AcDbEntity
  8
CENTER
100
AcDbLine
 10
1025.459152291587
 20
445.899276475714
 30
0.0
 11
1042.459152291587
 21
445.899276475714
 31
0.0
  0
LINE
  5
11FD
330
2
100
AcDbEntity
  8
0
100
AcDbLine
 10
948.5291522915888
 20
454.4692764757137
 30
0.0
 11
1034.529152291587
 21
454.4692764757137
 31
0.0
  0
LINE
  5
11FE
330
2
100
AcDbEntity
  8
CENTER
100
AcDbLine
 10
1025.459152291587
 20
361.0392764757138
 30
0.0
 11
1042.459152291587
 21
361.0392764757138
 31
0.0
  0
ARC
  5
11FF
330
2
100
AcDbEntity
  8
0
100
AcDbCircle
 10
1018.529152291587
 20
376.4692764757136
 30
0.0
 40
15.0
100
AcDbArc
 50
270.0
 51
0.0
  0
ARC
  5
1200
330
2
100
AcDbEntity
  8
0
100
AcDbCircle
 10
1018.529152291585
 20
376.4692764757136
 30
0.0
 40
13.0
100
AcDbArc
 50
270.0
 51
0.0
  0
LINE
  5
1201
330
2
100
AcDbEntity
  8
0
100
AcDbLine
 10
948.529152291587
 20
352.4692764757137
 30
0.0
 11
1034.529152291587
 21
352.4692764757137
 31
0.0
  0
ARC
  5
1202
330
2
100
AcDbEntity
  8
0
100
AcDbCircle
 10
1018.529152291585
 20
430.4692764757136
 30
0.0
 40
13.0
100
AcDbArc
 50
0.0
 51
90.0
  0
ARC
  5
1203
330
2
100
AcDbEntity
  8
0
100
AcDbCircle
 10
1018.529152291587
 20
430.4692764757136
 30
0.0
 40
15.0
100
AcDbArc
 50
0.0
 51
90.0
  0
LINE
  5
1204
330
2
100
AcDbEntity
  8
0
100
AcDbLine
 10
1031.529152291585
 20
430.4692764757136
 30
0.0
 11
1031.529152291585
 21
376.4692764757136
 31
0.0
  0
LINE
  5
1205
330
2
100
AcDbEntity
  8
0
100
AcDbLine
 10
951.529152291587
 20
430.4692764757136
 30
0.0
 11
951.529152291587
 21
376.4692764757136
 31
0.0
  0
LINE
  5
1206
330
2
100
AcDbEntity
  8
0
100
AcDbLine
 10
949.529152291587
 20
430.4692764757136
 30
0.0
 11
949.529152291587
 21
376.4692764757136
 31
0.0
  0
LINE
  5
1207
330
2
100
AcDbEntity
  8
CENTER
100
AcDbLine
 10
1023.348957444981
 20
364.1494713223191
 30
0.0
 11
1023.348957444981
 21
379.1494713223191
 31
0.0
  0
LINE
  5
1208
330
2
100
AcDbEntity
  8
CENTER
100
AcDbLine
 10
959.7093471381924
 20
364.1494713223191
 30
0.0
 11
959.7093471381924
 21
379.1494713223191
 31
0.0
  0
ARC
  5
1209
330
2
100
AcDbEntity
  8
0
100
AcDbCircle
 10
964.529152291587
 20
376.4692764757136
 30
0.0
 40
15.0
100
AcDbArc
 50
180.0
 51
270.0
  0
ARC
  5
120A
330
2
100
AcDbEntity
  8
0
100
AcDbCircle
 10
964.529152291587
 20
376.4692764757136
 30
0.0
 40
13.0
100
AcDbArc
 50
180.0
 51
270.0
  0
LINE
  5
120B
330
2
100
AcDbEntity
  8
0
100
AcDbLine
 10
964.529152291587
 20
361.4692764757136
 30
0.0
 11
1018.529152291587
 21
361.4692764757136
 31
0.0
  0
LINE
  5
120C
330
2
100
AcDbEntity
  8
0
100
AcDbLine
 10
964.529152291587
 20
363.4692764757136
 30
0.0
 11
1018.529152291585
 21
363.4692764757136
 31
0.0
  0
ARC
  5
120D
330
2
100
AcDbEntity
  8
0
100
AcDbCircle
 10
948.529152291587
 20
360.4692764757136
 30
0.0
 40
8.0
100
AcDbArc
 50
180.0
 51
270.0
  0
LINE
  5
120E
330
2
100
AcDbEntity
  8
CENTER
100
AcDbLine
 10
949.0991522915868
 20
352.5392764757138
 30
0.0
 11
949.0991522915868
 21
369.5392764757138
 31
0.0
  0
LINE
  5
120F
330
2
100
AcDbEntity
  8
CENTER
100
AcDbLine
 10
957.5991522915867
 20
361.0392764757138
 30
0.0
 11
940.5991522915867
 21
361.0392764757138
 31
0.0
  0
LINE
  5
1210
330
2
100
AcDbEntity
  8
CENTER
100
AcDbLine
 10
967.2093471381925
 20
371.6494713223191
 30
0.0
 11
952.2093471381925
 21
371.6494713223191
 31
0.0
  0
LINE
  5
1211
330
2
100
AcDbEntity
  8
CENTER
100
AcDbLine
 10
1015.848957444981
 20
371.6494713223191
 30
0.0
 11
1030.848957444981
 21
371.6494713223191
 31
0.0
  0
LINE
  5
1212
330
2
100
AcDbEntity
  8
0
100
AcDbLine
 10
964.529152291587
 20
445.4692764757137
 30
0.0
 11
1018.529152291587
 21
445.4692764757137
 31
0.0
  0
LINE
  5
1213
330
2
100
AcDbEntity
  8
0
100
AcDbLine
 10
964.529152291587
 20
443.4692764757137
 30
0.0
 11
1018.529152291585
 21
443.4692764757137
 31
0.0
  0
ARC
  5
1214
330
2
100
AcDbEntity
  8
0
100
AcDbCircle
 10
948.5291522915888
 20
446.4692764757137
 30
0.0
 40
8.0
100
AcDbArc
 50
90.0
 51
180.0
  0
LINE
  5
1215
330
2
100
AcDbEntity
  8
CENTER
100
AcDbLine
 10
949.0991522915868
 20
454.399276475714
 30
0.0
 11
949.0991522915868
 21
437.399276475714
 31
0.0
  0
ARC
  5
1216
330
2
100
AcDbEntity
  8
0
100
AcDbCircle
 10
964.529152291587
 20
430.4692764757136
 30
0.0
 40
15.0
100
AcDbArc
 50
90.0
 51
180.0
  0
LINE
  5
1217
330
2
100
AcDbEntity
  8
CENTER
100
AcDbLine
 10
967.2093471381925
 20
435.2890816291085
 30
0.0
 11
952.2093471381925
 21
435.2890816291085
 31
0.0
  0
ARC
  5
1218
330
2
100
AcDbEntity
  8
0
100
AcDbCircle
 10
964.529152291587
 20
430.4692764757136
 30
0.0
 40
13.0
100
AcDbArc
 50
90.0
 51
180.0
  0
LINE
  5
1219
330
2
100
AcDbEntity
  8
CENTER
100
AcDbLine
 10
959.7093471381924
 20
442.7890816291085
 30
0.0
 11
959.7093471381924
 21
427.7890816291084
 31
0.0
  0
LINE
  5
121A
330
2
100
AcDbEntity
  8
CENTER
100
AcDbLine
 10
957.5991522915867
 20
445.899276475714
 30
0.0
 11
940.5991522915867
 21
445.899276475714
 31
0.0
  0
LINE
  5
121B
330
2
100
AcDbEntity
  8
CENTER
100
AcDbLine
 10
1023.348957444981
 20
442.7890816291085
 30
0.0
 11
1023.348957444981
 21
427.7890816291084
 31
0.0
  0
LINE
  5
121C
330
2
100
AcDbEntity
  8
CENTER
100
AcDbLine
 10
1015.848957444981
 20
435.2890816291085
 30
0.0
 11
1030.848957444981
 21
435.2890816291085
 31
0.0
  0
LINE
  5
121D
330
2
100
AcDbEntity
  8
0
100
AcDbLine
 10
1033.529152291587
 20
430.4692764757136
 30
0.0
 11
1033.529152291587
 21
376.4692764757136
 31
0.0
  0
ARC
  5
121E
330
2
100
AcDbEntity
  8
0
100
AcDbCircle
 10
1034.529152291587
 20
360.4692764757136
 30
0.0
 40
8.0
100
AcDbArc
 50
270.0
 51
0.0
  0
LINE
  5
121F
330
2
100
AcDbEntity
  8
CENTER
100
AcDbLine
 10
1033.959152291587
 20
352.5392764757138
 30
0.0
 11
1033.959152291587
 21
369.5392764757138
 31
0.0
  0
ARC
  5
1220
330
2
100
AcDbEntity
  8
0
100
AcDbCircle
 10
1034.529152291587
 20
446.4692764757137
 30
0.0
 40
8.0
100
AcDbArc
 50
0.0
 51
90.0
  0
LINE
  5
1221
330
2
100
AcDbEntity
  8
CENTER
100
AcDbLine
 10
1033.959152291587
 20
454.399276475714
 30
0.0
 11
1033.959152291587
 21
437.399276475714
 31
0.0
  0
LINE
  5
1222
330
2
100
AcDbEntity
  8
0
100
AcDbLine
 10
766.0278364610478
 20
642.1793130663977
 30
0.0
 11
766.0278364610478
 21
665.0562074407821
 31
0.0
  0
LINE
  5
1223
330
2
100
AcDbEntity
  8
0
100
AcDbLine
 10
766.0278364610478
 20
673.3024186920069
 30
0.0
 11
766.0278364610478
 21
726.1793130663914
 31
0.0
  0
LINE
  5
1224
330
2
100
AcDbEntity
  8
0
100
AcDbLine
 10
768.0278364610479
 20
644.109492806682
 30
0.0
 11
768.027836461046
 21
724.2491333261068
 31
0.0
  0
LINE
  5
1225
330
2
100
AcDbEntity
  8
0
100
AcDbLine
 10
732.0278364610442
 20
634.3015272938512
 30
0.0
 11
732.027836461046
 21
734.0570988389377
 31
0.0
  0
LINE
  5
1226
330
2
100
AcDbEntity
  8
0
100
AcDbLine
 10
768.027836461046
 20
724.2491333261068
 30
0.0
 11
766.0278364610442
 21
726.179313066394
 31
0.0
  0
LINE
  5
1227
330
2
100
AcDbEntity
  8
0
100
AcDbLine
 10
772.0278364610442
 20
724.1793130663941
 30
0.0
 11
768.027836461046
 21
724.2491333261068
 31
0.0
  0
LINE
  5
1228
330
2
100
AcDbEntity
  8
0
100
AcDbLine
 10
717.0278364610441
 20
735.1793130663941
 30
0.0
 11
731.0365629965438
 21
735.057060762002
 31
0.0
  0
LINE
  5
1229
330
2
100
AcDbEntity
  8
0
100
AcDbLine
 10
766.0278364610442
 20
726.179313066394
 30
0.0
 11
739.0278364610442
 21
726.33639447129
 31
0.0
  0
LINE
  5
122A
330
2
100
AcDbEntity
  8
0
100
AcDbLine
 10
768.0278364610479
 20
644.109492806682
 30
0.0
 11
766.0278364610478
 21
642.1793130663977
 31
0.0
  0
LINE
  5
122B
330
2
100
AcDbEntity
  8
0
100
AcDbLine
 10
772.0278364610442
 20
644.179313066395
 30
0.0
 11
768.0278364610479
 21
644.109492806682
 31
0.0
  0
LINE
  5
122C
330
2
100
AcDbEntity
  8
0
100
AcDbLine
 10
717.0278364610441
 20
633.179313066395
 30
0.0
 11
731.0365629965438
 21
633.3015653707871
 31
0.0
  0
LINE
  5
122D
330
2
100
AcDbEntity
  8
0
100
AcDbLine
 10
766.027836461046
 20
642.1793130663949
 30
0.0
 11
739.0278364610442
 21
642.022231661499
 31
0.0
  0
CIRCLE
  5
122E
330
2
100
AcDbEntity
  8
0
100
AcDbCircle
 10
991.529152291587
 20
403.4692764757137
 30
0.0
 40
34.99999999953029
  0
ARC
  5
122F
330
2
100
AcDbEntity
  8
0
100
AcDbCircle
 10
731.0278364610442
 20
634.3015272938512
 30
0.0
 40
1.0
100
AcDbArc
 50
270.4999999999654
 51
0.0
  0
ARC
  5
1230
330
2
100
AcDbEntity
  8
0
100
AcDbCircle
 10
731.027836461046
 20
734.0570988389377
 30
0.0
 40
1.0
100
AcDbArc
 50
0.0
 51
89.5000000000345
  0
LINE
  5
1231
330
2
100
AcDbEntity
  8
0
100
AcDbLine
 10
772.0278364610442
 20
644.179313066395
 30
0.0
 11
772.0278364610442
 21
724.1793130663941
 31
0.0
  0
CIRCLE
  5
1232
330
2
100
AcDbEntity
  8
HOJO
100
AcDbCircle
 10
959.7093471381924
 20
435.2890816291085
 30
0.0
 40
3.0
  0
CIRCLE
  5
1233
330
2
100
AcDbEntity
  8
0
100
AcDbCircle
 10
959.7093471381924
 20
435.2890816291085
 30
0.0
 40
2.5
  0
CIRCLE
  5
1234
330
2
100
AcDbEntity
  8
HOJO
100
AcDbCircle
 10
959.7093471381924
 20
371.6494713223191
 30
0.0
 40
3.0
  0
CIRCLE
  5
1235
330
2
100
AcDbEntity
  8
0
100
AcDbCircle
 10
959.7093471381924
 20
371.6494713223191
 30
0.0
 40
2.5
  0
CIRCLE
  5
1236
330
2
100
AcDbEntity
  8
HOJO
100
AcDbCircle
 10
1023.348957444981
 20
371.6494713223191
 30
0.0
 40
3.0
  0
CIRCLE
  5
1237
330
2
100
AcDbEntity
  8
0
100
AcDbCircle
 10
1023.348957444981
 20
371.6494713223191
 30
0.0
 40
2.5
  0
CIRCLE
  5
1238
330
2
100
AcDbEntity
  8
HOJO
100
AcDbCircle
 10
1023.348957444981
 20
435.2890816291085
 30
0.0
 40
3.0
  0
CIRCLE
  5
1239
330
2
100
AcDbEntity
  8
0
100
AcDbCircle
 10
1023.348957444981
 20
435.2890816291085
 30
0.0
 40
2.5
  0
CIRCLE
  5
123A
330
2
100
AcDbEntity
  8
CENTER
100
AcDbCircle
 10
991.529152291587
 20
403.4692764757137
 30
0.0
 40
45.0
  0
LINE
  5
123B
330
2
100
AcDbEntity
  8
HIDS
100
AcDbLine
 10
982.779152291587
 20
445.4692764757137
 30
0.0
 11
982.7791522915878
 21
431.1177393624641
 31
0.0
  0
LINE
  5
123C
330
2
100
AcDbEntity
  8
HIDS
100
AcDbLine
 10
970.279152291587
 20
445.4692764757137
 30
0.0
 11
970.279152291587
 21
423.2034473475795
 31
0.0
  0
LINE
  5
123D
330
2
100
AcDbEntity
  8
0
100
AcDbLine
 10
766.0278364610478
 20
445.4692764757105
 30
0.0
 11
766.0278364610478
 21
441.9685767912462
 31
0.0
  0
LINE
  5
123E
330
2
100
AcDbEntity
  8
0
100
AcDbLine
 10
768.0278364610479
 20
443.539096735426
 30
0.0
 11
768.0278364610479
 21
443.3497849622776
 31
0.0
  0
LINE
  5
123F
330
2
100
AcDbEntity
  8
0
100
AcDbLine
 10
732.0278364610442
 20
453.3470622482568
 30
0.0
 11
732.027836461046
 21
414.5119774811971
 31
0.0
  0
LINE
  5
1240
330
2
100
AcDbEntity
  8
0
100
AcDbLine
 10
732.027836461046
 20
403.4692764757134
 30
0.0
 11
732.027836461046
 21
353.5914907031703
 31
0.0
  0
LINE
  5
1241
330
2
100
AcDbEntity
  8
0
100
AcDbLine
 10
768.027836461046
 20
363.3994562160011
 30
0.0
 11
766.0278364610442
 21
361.4692764757139
 31
0.0
  0
LINE
  5
1242
330
2
100
AcDbEntity
  8
0
100
AcDbLine
 10
772.0278364610442
 20
363.4692764757139
 30
0.0
 11
768.027836461046
 21
363.3994562160011
 31
0.0
  0
LINE
  5
1243
330
2
100
AcDbEntity
  8
0
100
AcDbLine
 10
717.0278364610441
 20
352.4692764757139
 30
0.0
 11
731.0365629965438
 21
352.5915287801059
 31
0.0
  0
LINE
  5
1244
330
2
100
AcDbEntity
  8
0
100
AcDbLine
 10
766.0278364610442
 20
361.4692764757139
 30
0.0
 11
739.0278364610442
 21
361.3121950708179
 31
0.0
  0
LINE
  5
1245
330
2
100
AcDbEntity
  8
0
100
AcDbLine
 10
768.0278364610479
 20
443.539096735426
 30
0.0
 11
766.0278364610478
 21
445.4692764757105
 31
0.0
  0
LINE
  5
1246
330
2
100
AcDbEntity
  8
0
100
AcDbLine
 10
772.0278364610442
 20
443.4692764757133
 30
0.0
 11
768.0278364610479
 21
443.539096735426
 31
0.0
  0
LINE
  5
1247
330
2
100
AcDbEntity
  8
0
100
AcDbLine
 10
717.0278364610441
 20
454.469276475713
 30
0.0
 11
731.0365629965438
 21
454.3470241713209
 31
0.0
  0
LINE
  5
1248
330
2
100
AcDbEntity
  8
0
100
AcDbLine
 10
767.0276841337274
 20
445.4634595321167
 30
0.0
 11
739.0278364610442
 21
445.626357880609
 31
0.0
  0
ARC
  5
1249
330
2
100
AcDbEntity
  8
0
100
AcDbCircle
 10
731.0278364610442
 20
453.3470622482568
 30
0.0
 40
1.0
100
AcDbArc
 50
0.0
 51
89.5000000000345
  0
ARC
  5
124A
330
2
100
AcDbEntity
  8
0
100
AcDbCircle
 10
731.027836461046
 20
353.5914907031703
 30
0.0
 40
1.0
100
AcDbArc
 50
270.4999999999654
 51
0.0
  0
LINE
  5
124B
330
2
100
AcDbEntity
  8
0
100
AcDbLine
 10
772.0278364610442
 20
443.4692764757133
 30
0.0
 11
772.0278364610442
 21
363.4692764757139
 31
0.0
  0
CIRCLE
  5
124C
330
2
100
AcDbEntity
  8
0
100
AcDbCircle
 10
949.0991522915868
 20
445.899276475714
 30
0.0
 40
5.0
  0
CIRCLE
  5
124D
330
2
100
AcDbEntity
  8
0
100
AcDbCircle
 10
949.0991522915868
 20
445.899276475714
 30
0.0
 40
4.307179676972423
  0
CIRCLE
  5
124E
330
2
100
AcDbEntity
  8
0
100
AcDbCircle
 10
949.0991522915868
 20
445.899276475714
 30
0.0
 40
2.886751345948113
  0
LWPOLYLINE
  5
124F
330
2
100
AcDbEntity
  8
0
100
AcDbPolyline
 90
        6
 70
     1
 43
0.0
 10
951.5991522915866
 20
447.342652148688
 10
949.0991522915868
 20
448.7860278216621
 10
946.5991522915867
 20
447.342652148688
 10
946.5991522915867
 20
444.4559008027399
 10
949.0991522915868
 20
443.0125251297658
 10
951.5991522915866
 20
444.4559008027399
  0
CIRCLE
  5
1250
330
2
100
AcDbEntity
  8
0
100
AcDbCircle
 10
1033.959152291587
 20
445.899276475714
 30
0.0
 40
5.0
  0
CIRCLE
  5
1251
330
2
100
AcDbEntity
  8
0
100
AcDbCircle
 10
1033.959152291587
 20
445.899276475714
 30
0.0
 40
4.307179676972423
  0
CIRCLE
  5
1252
330
2
100
AcDbEntity
  8
0
100
AcDbCircle
 10
1033.959152291587
 20
445.899276475714
 30
0.0
 40
2.886751345948113
  0
LWPOLYLINE
  5
1253
330
2
100
AcDbEntity
  8
0
100
AcDbPolyline
 90
        6
 70
     1
 43
0.0
 10
1036.459152291587
 20
447.342652148688
 10
1033.959152291587
 20
448.7860278216621
 10
1031.459152291587
 20
447.342652148688
 10
1031.459152291587
 20
444.4559008027399
 10
1033.959152291587
 20
443.0125251297658
 10
1036.459152291587
 20
444.4559008027399
  0
CIRCLE
  5
1254
330
2
100
AcDbEntity
  8
0
100
AcDbCircle
 10
1033.959152291587
 20
361.0392764757138
 30
0.0
 40
5.0
  0
CIRCLE
  5
1255
330
2
100
AcDbEntity
  8
0
100
AcDbCircle
 10
1033.959152291587
 20
361.0392764757138
 30
0.0
 40
4.307179676972423
  0
CIRCLE
  5
1256
330
2
100
AcDbEntity
  8
0
100
AcDbCircle
 10
1033.959152291587
 20
361.0392764757138
 30
0.0
 40
2.886751345948113
  0
LWPOLYLINE
  5
1257
330
2
100
AcDbEntity
  8
0
100
AcDbPolyline
 90
        6
 70
     1
 43
0.0
 10
1036.459152291587
 20
362.4826521486879
 10
1033.959152291587
 20
363.926027821662
 10
1031.459152291587
 20
362.4826521486879
 10
1031.459152291587
 20
359.5959008027397
 10
1033.959152291587
 20
358.1525251297656
 10
1036.459152291587
 20
359.5959008027397
  0
CIRCLE
  5
1258
330
2
100
AcDbEntity
  8
0
100
AcDbCircle
 10
949.0991522915868
 20
361.0392764757138
 30
0.0
 40
5.0
  0
CIRCLE
  5
1259
330
2
100
AcDbEntity
  8
0
100
AcDbCircle
 10
949.0991522915868
 20
361.0392764757138
 30
0.0
 40
4.307179676972423
  0
CIRCLE
  5
125A
330
2
100
AcDbEntity
  8
0
100
AcDbCircle
 10
949.0991522915868
 20
361.0392764757138
 30
0.0
 40
2.886751345948113
  0
LWPOLYLINE
  5
125B
330
2
100
AcDbEntity
  8
0
100
AcDbPolyline
 90
        6
 70
     1
 43
0.0
 10
951.5991522915866
 20
362.4826521486879
 10
949.0991522915868
 20
363.926027821662
 10
946.5991522915867
 20
362.4826521486879
 10
946.5991522915867
 20
359.5959008027397
 10
949.0991522915868
 20
358.1525251297656
 10
951.5991522915866
 20
359.5959008027397
  0
LINE
  5
125C
330
2
100
AcDbEntity
  8
0
100
AcDbLine
 10
738.6278364610445
 20
440.8992764757136
 30
0.0
 11
739.0278364610442
 21
441.5920967987412
 31
0.0
  0
LINE
  5
125D
330
2
100
AcDbEntity
  8
0
100
AcDbLine
 10
738.6278364610445
 20
440.8992764757136
 30
0.0
 11
738.6278364610445
 21
450.8992764757135
 31
0.0
  0
LINE
  5
125E
330
2
100
AcDbEntity
  8
0
100
AcDbLine
 10
733.0278364610442
 20
440.8992764757136
 30
0.0
 11
733.0278364610442
 21
450.8992764757135
 31
0.0
  0
LINE
  5
125F
330
2
100
AcDbEntity
  8
0
100
AcDbLine
 10
733.0278364610442
 20
450.8992764757135
 30
0.0
 11
732.0278364610442
 21
450.8992764757135
 31
0.0
  0
LINE
  5
1260
330
2
100
AcDbEntity
  8
0
100
AcDbLine
 10
732.0278364610442
 20
450.8992764757135
 30
0.0
 11
732.0278364610442
 21
440.8992764757136
 31
0.0
  0
LINE
  5
1261
330
2
100
AcDbEntity
  8
0
100
AcDbLine
 10
732.0278364610442
 20
440.8992764757136
 30
0.0
 11
733.0278364610442
 21
440.8992764757136
 31
0.0
  0
LINE
  5
1262
330
2
100
AcDbEntity
  8
0
100
AcDbLine
 10
733.0278364610442
 20
440.8992764757136
 30
0.0
 11
733.0278364610442
 21
450.8992764757135
 31
0.0
  0
LINE
  5
1263
330
2
100
AcDbEntity
  8
0
100
AcDbLine
 10
738.6278364610445
 20
440.8992764757136
 30
0.0
 11
733.0278364610442
 21
440.8992764757136
 31
0.0
  0
LINE
  5
1264
330
2
100
AcDbEntity
  8
0
100
AcDbLine
 10
739.0278364610442
 20
450.2064561526863
 30
0.0
 11
739.0278364610442
 21
441.5920967987412
 31
0.0
  0
LINE
  5
1265
330
2
100
AcDbEntity
  8
0
100
AcDbLine
 10
733.0278364610442
 20
450.8992764757135
 30
0.0
 11
738.6278364610445
 21
450.8992764757135
 31
0.0
  0
LINE
  5
1266
330
2
100
AcDbEntity
  8
0
100
AcDbLine
 10
738.6278364610445
 20
450.8992764757137
 30
0.0
 11
739.0278364610442
 21
450.2064561526863
 31
0.0
  0
LINE
  5
1267
330
2
100
AcDbEntity
  8
CENTER
  6
CENS
100
AcDbLine
 10
712.0278364610442
 20
445.8992764757136
 30
0.0
 11
744.0278364610442
 21
445.8992764757136
 31
0.0
  0
LINE
  5
1268
330
2
100
AcDbEntity
  8
0
100
AcDbLine
 10
738.6278364610445
 20
366.0392764757136
 30
0.0
 11
739.0278364610442
 21
365.3464561526859
 31
0.0
  0
LINE
  5
1269
330
2
100
AcDbEntity
  8
0
100
AcDbLine
 10
738.6278364610445
 20
366.0392764757136
 30
0.0
 11
738.6278364610445
 21
356.0392764757136
 31
0.0
  0
LINE
  5
126A
330
2
100
AcDbEntity
  8
0
100
AcDbLine
 10
733.0278364610442
 20
366.0392764757136
 30
0.0
 11
733.0278364610442
 21
356.0392764757136
 31
0.0
  0
LINE
  5
126B
330
2
100
AcDbEntity
  8
0
100
AcDbLine
 10
733.0278364610442
 20
356.0392764757136
 30
0.0
 11
732.0278364610442
 21
356.0392764757136
 31
0.0
  0
LINE
  5
126C
330
2
100
AcDbEntity
  8
0
100
AcDbLine
 10
732.0278364610442
 20
356.0392764757136
 30
0.0
 11
732.0278364610442
 21
366.0392764757136
 31
0.0
  0
LINE
  5
126D
330
2
100
AcDbEntity
  8
0
100
AcDbLine
 10
732.0278364610442
 20
366.0392764757136
 30
0.0
 11
733.0278364610442
 21
366.0392764757136
 31
0.0
  0
LINE
  5
126E
330
2
100
AcDbEntity
  8
0
100
AcDbLine
 10
733.0278364610442
 20
366.0392764757136
 30
0.0
 11
733.0278364610442
 21
356.0392764757136
 31
0.0
  0
LINE
  5
126F
330
2
100
AcDbEntity
  8
0
100
AcDbLine
 10
738.6278364610445
 20
366.0392764757136
 30
0.0
 11
733.0278364610442
 21
366.0392764757136
 31
0.0
  0
LINE
  5
1270
330
2
100
AcDbEntity
  8
0
100
AcDbLine
 10
739.0278364610442
 20
356.7320967987408
 30
0.0
 11
739.0278364610442
 21
365.3464561526859
 31
0.0
  0
LINE
  5
1271
330
2
100
AcDbEntity
  8
0
100
AcDbLine
 10
733.0278364610442
 20
356.0392764757136
 30
0.0
 11
738.6278364610445
 21
356.0392764757136
 31
0.0
  0
LINE
  5
1272
330
2
100
AcDbEntity
  8
0
100
AcDbLine
 10
738.6278364610445
 20
356.0392764757133
 30
0.0
 11
739.0278364610442
 21
356.7320967987408
 31
0.0
  0
LINE
  5
1273
330
2
100
AcDbEntity
  8
CENTER
  6
CENS
100
AcDbLine
 10
712.0278364610442
 20
361.0392764757136
 30
0.0
 11
744.0278364610442
 21
361.0392764757136
 31
0.0
  0
LINE
  5
1274
330
2
100
AcDbEntity
  8
0
100
AcDbLine
 10
738.6278364610445
 20
646.7493130663947
 30
0.0
 11
739.0278364610442
 21
646.056492743367
 31
0.0
  0
LINE
  5
1275
330
2
100
AcDbEntity
  8
0
100
AcDbLine
 10
738.6278364610445
 20
646.7493130663947
 30
0.0
 11
738.6278364610445
 21
636.7493130663947
 31
0.0
  0
LINE
  5
1276
330
2
100
AcDbEntity
  8
0
100
AcDbLine
 10
733.0278364610442
 20
646.7493130663947
 30
0.0
 11
733.0278364610442
 21
636.7493130663947
 31
0.0
  0
LINE
  5
1277
330
2
100
AcDbEntity
  8
0
100
AcDbLine
 10
733.0278364610442
 20
636.7493130663947
 30
0.0
 11
732.0278364610442
 21
636.7493130663947
 31
0.0
  0
LINE
  5
1278
330
2
100
AcDbEntity
  8
0
100
AcDbLine
 10
732.0278364610442
 20
636.7493130663947
 30
0.0
 11
732.0278364610442
 21
646.7493130663947
 31
0.0
  0
LINE
  5
1279
330
2
100
AcDbEntity
  8
0
100
AcDbLine
 10
732.0278364610442
 20
646.7493130663947
 30
0.0
 11
733.0278364610442
 21
646.7493130663947
 31
0.0
  0
LINE
  5
127A
330
2
100
AcDbEntity
  8
0
100
AcDbLine
 10
733.0278364610442
 20
646.7493130663947
 30
0.0
 11
733.0278364610442
 21
636.7493130663947
 31
0.0
  0
LINE
  5
127B
330
2
100
AcDbEntity
  8
0
100
AcDbLine
 10
738.6278364610445
 20
646.7493130663947
 30
0.0
 11
733.0278364610442
 21
646.7493130663947
 31
0.0
  0
LINE
  5
127C
330
2
100
AcDbEntity
  8
0
100
AcDbLine
 10
739.0278364610442
 20
637.4421333894219
 30
0.0
 11
739.0278364610442
 21
646.056492743367
 31
0.0
  0
LINE
  5
127D
330
2
100
AcDbEntity
  8
0
100
AcDbLine
 10
733.0278364610442
 20
636.7493130663947
 30
0.0
 11
738.6278364610445
 21
636.7493130663947
 31
0.0
  0
LINE
  5
127E
330
2
100
AcDbEntity
  8
0
100
AcDbLine
 10
738.6278364610445
 20
636.7493130663943
 30
0.0
 11
739.0278364610442
 21
637.4421333894219
 31
0.0
  0
LINE
  5
127F
330
2
100
AcDbEntity
  8
CENTER
  6
CENS
100
AcDbLine
 10
712.0278364610442
 20
641.7493130663947
 30
0.0
 11
744.0278364610442
 21
641.7493130663947
 31
0.0
  0
LINE
  5
1280
330
2
100
AcDbEntity
  8
0
100
AcDbLine
 10
738.6278364610445
 20
721.6093130663944
 30
0.0
 11
739.0278364610442
 21
722.3021333894221
 31
0.0
  0
LINE
  5
1281
330
2
100
AcDbEntity
  8
0
100
AcDbLine
 10
738.6278364610445
 20
721.6093130663944
 30
0.0
 11
738.6278364610445
 21
731.6093130663944
 31
0.0
  0
LINE
  5
1282
330
2
100
AcDbEntity
  8
0
100
AcDbLine
 10
733.0278364610442
 20
721.6093130663944
 30
0.0
 11
733.0278364610442
 21
731.6093130663944
 31
0.0
  0
LINE
  5
1283
330
2
100
AcDbEntity
  8
0
100
AcDbLine
 10
733.0278364610442
 20
731.6093130663944
 30
0.0
 11
732.0278364610442
 21
731.6093130663944
 31
0.0
  0
LINE
  5
1284
330
2
100
AcDbEntity
  8
0
100
AcDbLine
 10
732.0278364610442
 20
731.6093130663944
 30
0.0
 11
732.0278364610442
 21
721.6093130663944
 31
0.0
  0
LINE
  5
1285
330
2
100
AcDbEntity
  8
0
100
AcDbLine
 10
732.0278364610442
 20
721.6093130663944
 30
0.0
 11
733.0278364610442
 21
721.6093130663944
 31
0.0
  0
LINE
  5
1286
330
2
100
AcDbEntity
  8
0
100
AcDbLine
 10
733.0278364610442
 20
721.6093130663944
 30
0.0
 11
733.0278364610442
 21
731.6093130663944
 31
0.0
  0
LINE
  5
1287
330
2
100
AcDbEntity
  8
0
100
AcDbLine
 10
738.6278364610445
 20
721.6093130663944
 30
0.0
 11
733.0278364610442
 21
721.6093130663944
 31
0.0
  0
LINE
  5
1288
330
2
100
AcDbEntity
  8
0
100
AcDbLine
 10
739.0278364610442
 20
730.9164927433671
 30
0.0
 11
739.0278364610442
 21
722.3021333894221
 31
0.0
  0
LINE
  5
1289
330
2
100
AcDbEntity
  8
0
100
AcDbLine
 10
733.0278364610442
 20
731.6093130663944
 30
0.0
 11
738.6278364610445
 21
731.6093130663944
 31
0.0
  0
LINE
  5
128A
330
2
100
AcDbEntity
  8
0
100
AcDbLine
 10
738.6278364610445
 20
731.6093130663948
 30
0.0
 11
739.0278364610442
 21
730.9164927433671
 31
0.0
  0
LINE
  5
128B
330
2
100
AcDbEntity
  8
CENTER
  6
CENS
100
AcDbLine
 10
712.0278364610442
 20
726.6093130663944
 30
0.0
 11
744.0278364610442
 21
726.6093130663944
 31
0.0
  0
LINE
  5
128C
330
2
100
AcDbEntity
  8
0
100
AcDbLine
 10
763.0507917479337
 20
449.4869549952702
 30
0.0
 11
753.0509576116603
 21
449.5445505421503
 31
0.0
  0
ARC
  5
128D
330
2
100
AcDbEntity
  8
0
100
AcDbCircle
 10
753.0279193929075
 20
445.5446168876408
 30
0.0
 40
4.000000000000014
100
AcDbArc
 50
89.67000000001375
 51
179.6700000000007
  0
ARC
  5
128E
330
2
100
AcDbEntity
  8
0
100
AcDbCircle
 10
763.0277535291809
 20
445.4870213407609
 30
0.0
 40
4.000000000000014
100
AcDbArc
 50
359.6700000000007
 51
89.67000000001375
  0
LINE
  5
128F
330
2
100
AcDbEntity
  8
CENTER
  6
CENS
100
AcDbLine
 10
758.0278364610442
 20
454.4116763492313
 30
0.0
 11
758.0278364610442
 21
431.0517503468644
 31
0.0
  0
CIRCLE
  5
1290
330
2
100
AcDbEntity
  8
0
100
AcDbCircle
 10
758.0278364610442
 20
669.1793130663945
 30
0.0
 40
9.0
  0
LINE
  5
1291
330
2
100
AcDbEntity
  8
CENTER
  6
CENS
100
AcDbLine
 10
758.0278364610405
 20
657.3003831674005
 30
0.0
 11
758.0278364610405
 21
681.0582429653886
 31
0.0
  0
LINE
  5
1292
330
2
100
AcDbEntity
  8
CENTER
  6
CENS
100
AcDbLine
 10
769.9067663600346
 20
669.1793130663945
 30
0.0
 11
746.1489065620464
 21
669.1793130663945
 31
0.0
  0
LINE
  5
1293
330
2
100
AcDbEntity
  8
0
100
AcDbLine
 10
772.0278364610442
 20
438.4692764757137
 30
0.0
 11
765.0278364610442
 21
438.4692764757135
 31
0.0
  0
LINE
  5
1294
330
2
100
AcDbEntity
  8
0
100
AcDbLine
 10
765.0278364610442
 20
438.4692764757135
 30
0.0
 11
765.0278364610442
 21
403.4692764757134
 31
0.0
  0
LINE
  5
1295
330
2
100
AcDbEntity
  8
0
100
AcDbLine
 10
765.0278364610442
 20
423.2192764757134
 30
0.0
 11
765.027836461046
 21
403.4692764757134
 31
0.0
  0
LINE
  5
1296
330
2
100
AcDbEntity
  8
0
100
AcDbLine
 10
765.0278364610442
 20
423.2192764757134
 30
0.0
 11
755.2900318905269
 21
423.2192764757134
 31
0.0
  0
SPLINE
  5
1297
330
2
100
AcDbEntity
  8
HOJO
100
AcDbSpline
210
0.0
220
0.0
230
1.0
 70
     8
 71
     3
 72
    20
 73
    16
 74
     0
 42
0.0000000001
 43
0.0000000001
 40
1.221331719906463
 40
1.221331719906463
 40
1.221331719906463
 40
1.221331719906463
 40
5.647385924430076
 40
9.759277458584113
 40
14.59638394258456
 40
18.6386056126129
 40
22.25598020257161
 40
26.57819511411361
 40
31.00332353479096
 40
40.39337194914635
 40
45.49899296170218
 40
52.02718752358933
 40
57.17041693382338
 40
65.63449353306062
 40
69.3611614947018
 40
69.3611614947018
 40
69.3611614947018
 40
69.3611614947018
 10
768.3283190180739
 20
443.5338517928832
 30
0.0
 10
766.9611588144818
 20
442.6985785796447
 30
0.0
 10
764.5054870835504
 20
441.1699559340817
 30
0.0
 10
763.1961886550727
 20
436.6456137465126
 30
0.0
 10
762.0462793295248
 20
433.2540442519941
 30
0.0
 10
758.558522917536
 20
429.5802790407498
 30
0.0
 10
756.886687741173
 20
426.0549189107707
 30
0.0
 10
754.9094411807184
 20
422.5042022132758
 30
0.0
 10
751.5216598681547
 20
416.9151576248218
 30
0.0
 10
743.9973008238396
 20
417.0907340724131
 30
0.0
 10
737.268961467191
 20
415.9443635389154
 30
0.0
 10
731.9256949217836
 20
414.2257514344348
 30
0.0
 10
724.9269144073971
 20
413.8895801497114
 30
0.0
 10
721.2121816081728
 20
408.4035858177564
 30
0.0
 10
719.8903401693772
 20
404.6336793245802
 30
0.0
 10
719.4776673962681
 20
403.4692764757134
 30
0.0
  0
LINE
  5
1298
330
2
100
AcDbEntity
  8
CENTER
  6
CENS
100
AcDbLine
 10
976.529152291587
 20
454.4116763492316
 30
0.0
 11
976.529152291587
 21
387.6216113181842
 31
0.0
  0
LINE
  5
1299
330
2
100
AcDbEntity
  8
0
100
AcDbLine
 10
971.7933979355969
 20
402.7192764757137
 30
0.0
 11
982.0588038291491
 21
402.7192764757137
 31
0.0
  0
LINE
  5
129A
330
2
100
AcDbEntity
  8
0
100
AcDbLine
 10
971.7933979355969
 20
404.2192764757136
 30
0.0
 11
982.0588038291491
 21
404.2192764757139
 31
0.0
  0
LINE
  5
129B
330
2
100
AcDbEntity
  8
0
100
AcDbLine
 10
1008.729152291585
 20
402.7192764757137
 30
0.0
 11
1008.729152291585
 21
404.2192764757136
 31
0.0
  0
LINE
  5
129C
330
2
100
AcDbEntity
  8
0
100
AcDbLine
 10
1000.999500754024
 20
402.7192764757137
 30
0.0
 11
1008.729152291585
 21
402.7192764757137
 31
0.0
  0
LINE
  5
129D
330
2
100
AcDbEntity
  8
0
100
AcDbLine
 10
1000.999500754024
 20
404.2192764757136
 30
0.0
 11
1008.729152291585
 21
404.2192764757136
 31
0.0
  0
LINE
  5
129E
330
2
100
AcDbEntity
  8
HIDS
100
AcDbLine
 10
979.029152291587
 20
402.7192764757137
 30
0.0
 11
979.029152291587
 21
388.1783477923408
 31
0.0
  0
LINE
  5
129F
330
2
100
AcDbEntity
  8
HIDS
100
AcDbLine
 10
974.445818958253
 20
402.7192764757137
 30
0.0
 11
974.445818958253
 21
393.5585639775012
 31
0.0
  0
LINE
  5
12A0
330
2
100
AcDbEntity
  8
HIDS
100
AcDbLine
 10
974.0291522915869
 20
402.7192764757137
 30
0.0
 11
974.0291522915869
 21
394.3143597639135
 31
0.0
  0
LINE
  5
12A1
330
2
100
AcDbEntity
  8
HIDS
100
AcDbLine
 10
979.5291522915871
 20
408.4692764757137
 30
0.0
 11
979.5291522915871
 21
404.2192764757136
 31
0.0
  0
LINE
  5
12A2
330
2
100
AcDbEntity
  8
HIDS
100
AcDbLine
 10
973.529152291587
 20
408.4692764757137
 30
0.0
 11
973.529152291587
 21
404.2192764757136
 31
0.0
  0
LINE
  5
12A3
330
2
100
AcDbEntity
  8
HIDS
100
AcDbLine
 10
980.779152291587
 20
408.4692764757137
 30
0.0
 11
980.779152291587
 21
413.1692764757137
 31
0.0
  0
LINE
  5
12A4
330
2
100
AcDbEntity
  8
0
100
AcDbLine
 10
972.2791522915869
 20
413.1692764757137
 30
0.0
 11
972.2791522915869
 21
408.4692764757137
 31
0.0
  0
LINE
  5
12A5
330
2
100
AcDbEntity
  8
HIDS
100
AcDbLine
 10
979.029152291587
 20
394.4692764757137
 30
0.0
 11
978.029152291587
 21
393.4692764757136
 31
0.0
  0
LINE
  5
12A6
330
2
100
AcDbEntity
  8
HIDS
100
AcDbLine
 10
974.0291522915869
 20
394.4692764757137
 30
0.0
 11
975.0291522915871
 21
393.4692764757136
 31
0.0
  0
LINE
  5
12A7
330
2
100
AcDbEntity
  8
HIDS
100
AcDbLine
 10
978.029152291587
 20
393.4692764757136
 30
0.0
 11
975.0291522915871
 21
393.4692764757136
 31
0.0
  0
LINE
  5
12A8
330
2
100
AcDbEntity
  8
HIDS
100
AcDbLine
 10
979.029152291587
 20
408.4692764757137
 30
0.0
 11
979.029152291587
 21
404.2192764757136
 31
0.0
  0
LINE
  5
12A9
330
2
100
AcDbEntity
  8
HIDS
100
AcDbLine
 10
978.6124856249209
 20
406.3859431423804
 30
0.0
 11
978.6124856249209
 21
404.2192764757136
 31
0.0
  0
LINE
  5
12AA
330
2
100
AcDbEntity
  8
HIDS
100
AcDbLine
 10
974.445818958253
 20
406.3859431423804
 30
0.0
 11
974.445818958253
 21
404.2192764757136
 31
0.0
  0
LINE
  5
12AB
330
2
100
AcDbEntity
  8
HIDS
100
AcDbLine
 10
974.0291522915869
 20
408.4692764757137
 30
0.0
 11
974.0291522915869
 21
404.2192764757136
 31
0.0
  0
LINE
  5
12AC
330
2
100
AcDbEntity
  8
HIDS
100
AcDbLine
 10
979.029152291587
 20
394.4692764757137
 30
0.0
 11
974.0291522915869
 21
394.4692764757137
 31
0.0
  0
LINE
  5
12AD
330
2
100
AcDbEntity
  8
HIDS
100
AcDbLine
 10
979.029152291587
 20
406.3859431423804
 30
0.0
 11
974.0291522915869
 21
406.3859431423804
 31
0.0
  0
LINE
  5
12AE
330
2
100
AcDbEntity
  8
0
100
AcDbLine
 10
972.2791522915869
 20
408.4692764757137
 30
0.0
 11
972.4225434873027
 21
408.4692764757137
 31
0.0
  0
LINE
  5
12AF
330
2
100
AcDbEntity
  8
HIDS
100
AcDbLine
 10
974.0291522915869
 20
408.4692764757137
 30
0.0
 11
974.445818958253
 21
406.3859431423804
 31
0.0
  0
LINE
  5
12B0
330
2
100
AcDbEntity
  8
HIDS
100
AcDbLine
 10
979.029152291587
 20
408.4692764757137
 30
0.0
 11
978.6124856249209
 21
406.3859431423804
 31
0.0
  0
LINE
  5
12B1
330
2
100
AcDbEntity
  8
0
100
AcDbLine
 10
972.2791522915869
 20
413.1692764757137
 30
0.0
 11
974.3253009785824
 21
413.1692764757137
 31
0.0
  0
LINE
  5
12B2
330
2
100
AcDbEntity
  8
HIDS
100
AcDbLine
 10
980.2595370493165
 20
413.4692764757136
 30
0.0
 11
974.4979309613356
 21
413.4692764757136
 31
0.0
  0
LINE
  5
12B3
330
2
100
AcDbEntity
  8
0
100
AcDbLine
 10
972.2791522915869
 20
413.1692764757137
 30
0.0
 11
972.7987675338575
 21
413.4692764757136
 31
0.0
  0
LINE
  5
12B4
330
2
100
AcDbEntity
  8
HIDS
100
AcDbLine
 10
980.2595370493165
 20
413.4692764757136
 30
0.0
 11
980.779152291587
 21
413.1692764757137
 31
0.0
  0
LINE
  5
12B5
330
2
100
AcDbEntity
  8
HIDS
100
AcDbLine
 10
972.4225434873027
 20
408.4692764757137
 30
0.0
 11
981.529152291587
 21
408.4692764757137
 31
0.0
  0
LINE
  5
12B6
330
2
100
AcDbEntity
  8
0
100
AcDbLine
 10
974.4979309613356
 20
413.4692764757136
 30
0.0
 11
972.7987675338575
 21
413.4692764757136
 31
0.0
  0
LINE
  5
12B7
330
2
100
AcDbEntity
  8
HIDS
100
AcDbLine
 10
974.3253009785824
 20
413.1692764757137
 30
0.0
 11
980.779152291587
 21
413.1692764757139
 31
0.0
  0
LINE
  5
12B8
330
2
100
AcDbEntity
  8
0
100
AcDbLine
 10
979.029152291587
 20
404.2192764757136
 30
0.0
 11
979.029152291587
 21
402.7192764757138
 31
0.0
  0
LINE
  5
12B9
330
2
100
AcDbEntity
  8
HOJO
100
AcDbLine
 10
978.6124856249209
 20
404.2192764757136
 30
0.0
 11
978.6124856249209
 21
402.7192764757138
 31
0.0
  0
LINE
  5
12BA
330
2
100
AcDbEntity
  8
HOJO
100
AcDbLine
 10
974.445818958253
 20
404.2192764757136
 30
0.0
 11
974.445818958253
 21
402.7192764757138
 31
0.0
  0
LINE
  5
12BB
330
2
100
AcDbEntity
  8
0
100
AcDbLine
 10
974.0291522915869
 20
404.2192764757136
 30
0.0
 11
974.0291522915869
 21
402.7192764757137
 31
0.0
  0
LINE
  5
12BC
330
2
100
AcDbEntity
  8
HIDS
100
AcDbLine
 10
974.0291522915869
 20
402.7192764757137
 30
0.0
 11
974.0291522915869
 21
394.4692764757137
 31
0.0
  0
LINE
  5
12BD
330
2
100
AcDbEntity
  8
HIDS
100
AcDbLine
 10
978.6124856249209
 20
402.7192764757137
 30
0.0
 11
978.6124856249209
 21
394.0526098090471
 31
0.0
  0
LINE
  5
12BE
330
2
100
AcDbEntity
  8
HIDS
100
AcDbLine
 10
974.445818958253
 20
402.7192764757137
 30
0.0
 11
974.445818958253
 21
394.0526098090471
 31
0.0
  0
CIRCLE
  5
12BF
330
2
100
AcDbEntity
  8
0
100
AcDbCircle
 10
991.529152291587
 20
403.4692764757137
 30
0.0
 40
19.75
  0
LINE
  5
12C1
330
2
100
AcDbEntity
  8
0
100
AcDbLine
 10
971.6541533150396
 20
449.5445505421505
 30
0.0
 11
981.4041533150396
 21
449.5445505421505
 31
0.0
  0
ARC
  5
12C2
330
2
100
AcDbEntity
  8
0
100
AcDbCircle
 10
971.6541533150396
 20
445.2945505421505
 30
0.0
 40
4.25
100
AcDbArc
 50
90.0
 51
177.6437927484598
  0
ARC
  5
12C3
330
2
100
AcDbEntity
  8
0
100
AcDbCircle
 10
981.1541533150396
 20
445.2945505421505
 30
0.0
 40
4.25
100
AcDbArc
 50
2.356207251540161
 51
90.0
  0
LINE
  5
12C4
330
2
100
AcDbEntity
  8
0
100
AcDbLine
 10
56.08482972367733
 20
445.4692764757112
 30
0.0
 11
56.08482972367733
 21
361.4692764757175
 31
0.0
  0
LINE
  5
12C5
330
2
100
AcDbEntity
  8
0
100
AcDbLine
 10
54.08482972367733
 20
443.5390967354266
 30
0.0
 11
54.08482972367915
 21
363.3994562160016
 31
0.0
  0
LINE
  5
12C6
330
2
100
AcDbEntity
  8
0
100
AcDbLine
 10
90.08482972367824
 20
453.3470622482575
 30
0.0
 11
90.08482972367914
 21
353.591490703171
 31
0.0
  0
LINE
  5
12C7
330
2
100
AcDbEntity
  8
0
100
AcDbLine
 10
54.08482972367915
 20
363.3994562160018
 30
0.0
 11
56.08482972368097
 21
361.4692764757145
 31
0.0
  0
LINE
  5
12C8
330
2
100
AcDbEntity
  8
0
100
AcDbLine
 10
50.08482972368097
 20
363.4692764757145
 30
0.0
 11
54.08482972367915
 21
363.3994562160018
 31
0.0
  0
LINE
  5
12C9
330
2
100
AcDbEntity
  8
0
100
AcDbLine
 10
105.0848297236809
 20
352.4692764757145
 30
0.0
 11
91.07610318818137
 21
352.5915287801066
 31
0.0
  0
LINE
  5
12CA
330
2
100
AcDbEntity
  8
0
100
AcDbLine
 10
56.08482972368097
 20
361.4692764757145
 30
0.0
 11
83.08482972368096
 21
361.3121950708186
 31
0.0
  0
LINE
  5
12CB
330
2
100
AcDbEntity
  8
0
100
AcDbLine
 10
54.08482972367733
 20
443.5390967354266
 30
0.0
 11
56.08482972367733
 21
445.4692764757112
 31
0.0
  0
LINE
  5
12CC
330
2
100
AcDbEntity
  8
0
100
AcDbLine
 10
50.08482972368097
 20
443.4692764757139
 30
0.0
 11
54.08482972367733
 21
443.5390967354266
 31
0.0
  0
LINE
  5
12CD
330
2
100
AcDbEntity
  8
0
100
AcDbLine
 10
105.0848297236809
 20
454.4692764757137
 30
0.0
 11
91.07610318818137
 21
454.3470241713216
 31
0.0
  0
LINE
  5
12CE
330
2
100
AcDbEntity
  8
0
100
AcDbLine
 10
55.08498205099773
 20
445.4634595321174
 30
0.0
 11
83.08482972368096
 21
445.6263578806097
 31
0.0
  0
ARC
  5
12CF
330
2
100
AcDbEntity
  8
0
100
AcDbCircle
 10
91.08482972368097
 20
453.3470622482575
 30
0.0
 40
1.0
100
AcDbArc
 50
90.49999999996549
 51
180.0
  0
ARC
  5
12D0
330
2
100
AcDbEntity
  8
0
100
AcDbCircle
 10
91.08482972367914
 20
353.591490703171
 30
0.0
 40
1.0
100
AcDbArc
 50
180.0
 51
269.5000000000345
  0
LINE
  5
12D1
330
2
100
AcDbEntity
  8
0
100
AcDbLine
 10
50.08482972368097
 20
443.4692764757139
 30
0.0
 11
50.08482972368097
 21
363.4692764757145
 31
0.0
  0
LINE
  5
12D2
330
2
100
AcDbEntity
  8
0
100
AcDbLine
 10
83.4848297236806
 20
440.8992764757142
 30
0.0
 11
83.08482972368096
 21
441.5920967987419
 31
0.0
  0
LINE
  5
12D3
330
2
100
AcDbEntity
  8
0
100
AcDbLine
 10
83.4848297236806
 20
440.8992764757142
 30
0.0
 11
83.4848297236806
 21
450.8992764757143
 31
0.0
  0
LINE
  5
12D4
330
2
100
AcDbEntity
  8
0
100
AcDbLine
 10
89.08482972368096
 20
440.8992764757142
 30
0.0
 11
89.08482972368096
 21
450.8992764757143
 31
0.0
  0
LINE
  5
12D5
330
2
100
AcDbEntity
  8
0
100
AcDbLine
 10
89.08482972368096
 20
450.8992764757143
 30
0.0
 11
90.08482972368097
 21
450.8992764757143
 31
0.0
  0
LINE
  5
12D6
330
2
100
AcDbEntity
  8
0
100
AcDbLine
 10
90.08482972368097
 20
450.8992764757143
 30
0.0
 11
90.08482972368097
 21
440.8992764757142
 31
0.0
  0
LINE
  5
12D7
330
2
100
AcDbEntity
  8
0
100
AcDbLine
 10
90.08482972368097
 20
440.8992764757142
 30
0.0
 11
89.08482972368096
 21
440.8992764757142
 31
0.0
  0
LINE
  5
12D8
330
2
100
AcDbEntity
  8
0
100
AcDbLine
 10
89.08482972368096
 20
440.8992764757142
 30
0.0
 11
89.08482972368096
 21
450.8992764757143
 31
0.0
  0
LINE
  5
12D9
330
2
100
AcDbEntity
  8
0
100
AcDbLine
 10
83.4848297236806
 20
440.8992764757142
 30
0.0
 11
89.08482972368096
 21
440.8992764757142
 31
0.0
  0
LINE
  5
12DA
330
2
100
AcDbEntity
  8
0
100
AcDbLine
 10
83.08482972368096
 20
450.206456152687
 30
0.0
 11
83.08482972368096
 21
441.5920967987419
 31
0.0
  0
LINE
  5
12DB
330
2
100
AcDbEntity
  8
0
100
AcDbLine
 10
89.08482972368096
 20
450.8992764757143
 30
0.0
 11
83.4848297236806
 21
450.8992764757143
 31
0.0
  0
LINE
  5
12DC
330
2
100
AcDbEntity
  8
0
100
AcDbLine
 10
83.4848297236806
 20
450.8992764757144
 30
0.0
 11
83.08482972368096
 21
450.206456152687
 31
0.0
  0
LINE
  5
12DD
330
2
100
AcDbEntity
  8
CENTER
  6
CENS
100
AcDbLine
 10
110.0848297236809
 20
445.8992764757142
 30
0.0
 11
78.08482972368096
 21
445.8992764757142
 31
0.0
  0
LINE
  5
12DE
330
2
100
AcDbEntity
  8
0
100
AcDbLine
 10
83.4848297236806
 20
366.0392764757143
 30
0.0
 11
83.08482972368096
 21
365.3464561526865
 31
0.0
  0
LINE
  5
12DF
330
2
100
AcDbEntity
  8
0
100
AcDbLine
 10
83.4848297236806
 20
366.0392764757143
 30
0.0
 11
83.4848297236806
 21
356.0392764757143
 31
0.0
  0
LINE
  5
12E0
330
2
100
AcDbEntity
  8
0
100
AcDbLine
 10
89.08482972368096
 20
366.0392764757143
 30
0.0
 11
89.08482972368096
 21
356.0392764757143
 31
0.0
  0
LINE
  5
12E1
330
2
100
AcDbEntity
  8
0
100
AcDbLine
 10
89.08482972368096
 20
356.0392764757143
 30
0.0
 11
90.08482972368097
 21
356.0392764757143
 31
0.0
  0
LINE
  5
12E2
330
2
100
AcDbEntity
  8
0
100
AcDbLine
 10
90.08482972368097
 20
356.0392764757143
 30
0.0
 11
90.08482972368097
 21
366.0392764757143
 31
0.0
  0
LINE
  5
12E3
330
2
100
AcDbEntity
  8
0
100
AcDbLine
 10
90.08482972368097
 20
366.0392764757143
 30
0.0
 11
89.08482972368096
 21
366.0392764757143
 31
0.0
  0
LINE
  5
12E4
330
2
100
AcDbEntity
  8
0
100
AcDbLine
 10
89.08482972368096
 20
366.0392764757143
 30
0.0
 11
89.08482972368096
 21
356.0392764757143
 31
0.0
  0
LINE
  5
12E5
330
2
100
AcDbEntity
  8
0
100
AcDbLine
 10
83.4848297236806
 20
366.0392764757143
 30
0.0
 11
89.08482972368096
 21
366.0392764757143
 31
0.0
  0
LINE
  5
12E6
330
2
100
AcDbEntity
  8
0
100
AcDbLine
 10
83.08482972368096
 20
356.7320967987415
 30
0.0
 11
83.08482972368096
 21
365.3464561526865
 31
0.0
  0
LINE
  5
12E7
330
2
100
AcDbEntity
  8
0
100
AcDbLine
 10
89.08482972368096
 20
356.0392764757143
 30
0.0
 11
83.4848297236806
 21
356.0392764757143
 31
0.0
  0
LINE
  5
12E8
330
2
100
AcDbEntity
  8
0
100
AcDbLine
 10
83.4848297236806
 20
356.039276475714
 30
0.0
 11
83.08482972368096
 21
356.7320967987415
 31
0.0
  0
LINE
  5
12E9
330
2
100
AcDbEntity
  8
CENTER
  6
CENS
100
AcDbLine
 10
110.0848297236809
 20
361.0392764757142
 30
0.0
 11
78.08482972368096
 21
361.0392764757142
 31
0.0
  0
LINE
  5
12EA
330
2
100
AcDbEntity
  8
0
100
AcDbLine
 10
59.06187443679141
 20
449.4869549952709
 30
0.0
 11
69.06170857306483
 21
449.544550542151
 31
0.0
  0
ARC
  5
12EB
330
2
100
AcDbEntity
  8
0
100
AcDbCircle
 10
69.08474679181768
 20
445.5446168876415
 30
0.0
 40
4.000000000000014
100
AcDbArc
 50
0.32999999999927
 51
90.32999999998624
  0
ARC
  5
12EC
330
2
100
AcDbEntity
  8
0
100
AcDbCircle
 10
59.08491265554426
 20
445.4870213407616
 30
0.0
 40
4.000000000000014
100
AcDbArc
 50
90.32999999998624
 51
180.3299999999993
  0
LINE
  5
12ED
330
2
100
AcDbEntity
  8
CENTER
  6
CENS
100
AcDbLine
 10
64.08482972368097
 20
454.411676349232
 30
0.0
 11
64.08482972368097
 21
431.0517503468651
 31
0.0
  0
LINE
  5
12EE
330
2
100
AcDbEntity
  8
0
100
AcDbLine
 10
765.0278364610442
 20
438.4692764757135
 30
0.0
 11
765.0278364610442
 21
403.4692764757134
 31
0.0
  0
LINE
  5
12EF
330
2
100
AcDbEntity
  8
0
100
AcDbLine
 10
765.0278364610442
 20
423.2192764757134
 30
0.0
 11
765.0278364610442
 21
403.4692764757134
 31
0.0
  0
LINE
  5
12F0
330
2
100
AcDbEntity
  8
0
100
AcDbLine
 10
763.0278364610441
 20
412.9692764757134
 30
0.0
 11
752.0278364610442
 21
412.9692764757137
 31
0.0
  0
LINE
  5
12F1
330
2
100
AcDbEntity
  8
0
100
AcDbLine
 10
733.5278364610442
 20
413.2192764757134
 30
0.0
 11
733.5278364610442
 21
403.4692764757134
 31
0.0
  0
LINE
  5
12F2
330
2
100
AcDbEntity
  8
0
100
AcDbLine
 10
733.5278364610442
 20
413.2192764757134
 30
0.0
 11
727.5278364610442
 21
413.2192764757134
 31
0.0
  0
LINE
  5
12F3
330
2
100
AcDbEntity
  8
0
100
AcDbLine
 10
727.5278364610442
 20
413.2192764757134
 30
0.0
 11
727.5278364610442
 21
403.4692764757134
 31
0.0
  0
LINE
  5
12F4
330
2
100
AcDbEntity
  8
0
100
AcDbLine
 10
750.0278364610442
 20
417.7446866964086
 30
0.0
 11
750.0278364610442
 21
403.4692764757134
 31
0.0
  0
LINE
  5
12F5
330
2
100
AcDbEntity
  8
0
100
AcDbLine
 10
752.0278364610442
 20
418.7984200367901
 30
0.0
 11
752.0278364610442
 21
403.4692764757134
 31
0.0
  0
LINE
  5
12F6
330
2
100
AcDbEntity
  8
0
100
AcDbLine
 10
750.0278364610442
 20
412.9692764757137
 30
0.0
 11
733.5278364610442
 21
412.9692764757134
 31
0.0
  0
LINE
  5
12F7
330
2
100
AcDbEntity
  8
0
100
AcDbLine
 10
765.0278364610442
 20
414.123977014093
 30
0.0
 11
763.0278364610441
 21
412.9692764757134
 31
0.0
  0
LINE
  5
12F8
330
2
100
AcDbEntity
  8
0
100
AcDbLine
 10
763.0278364610441
 20
412.9692764757134
 30
0.0
 11
763.0278364610424
 21
403.4692764757134
 31
0.0
  0
LINE
  5
12F9
330
2
100
AcDbEntity
  8
0
100
AcDbLine
 10
727.5278364610442
 20
412.4692764757134
 30
0.0
 11
722.3316840383361
 21
403.4692764757134
 31
0.0
  0
ARC
  5
12FA
330
2
100
AcDbEntity
  8
0
100
AcDbCircle
 10
991.529152291587
 20
403.4692764757137
 30
0.0
 40
10.6547005383793
100
AcDbArc
 50
184.0364720827379
 51
355.963527917262
  0
ARC
  5
12FB
330
2
100
AcDbEntity
  8
0
100
AcDbCircle
 10
991.529152291587
 20
403.4692764757137
 30
0.0
 40
10.6547005383793
100
AcDbArc
 50
4.036472082737907
 51
175.9635279172621
  0
CIRCLE
  5
12FC
330
2
100
AcDbEntity
  8
0
100
AcDbCircle
 10
991.529152291587
 20
403.4692764757137
 30
0.0
 40
9.5
  0
LINE
  5
12FD
330
2
100
AcDbEntity
  8
HIDS
100
AcDbLine
 10
981.529152291587
 20
408.4692764757137
 30
0.0
 11
981.5291522915879
 21
420.5004978059652
 31
0.0
  0
LINE
  5
12FE
330
2
100
AcDbEntity
  8
0
100
AcDbLine
 10
766.0278364610442
 20
361.4692764757139
 30
0.0
 11
766.0278364610442
 21
403.4692764757134
 31
0.0
  0
LINE
  5
12FF
330
2
100
AcDbEntity
  8
0
100
AcDbLine
 10
768.027836461046
 20
363.3994562160011
 30
0.0
 11
768.027836461046
 21
403.4692764757134
 31
0.0
  0
LINE
  5
1300
330
2
100
AcDbEntity
  8
0
100
AcDbLine
 10
765.0278364610442
 20
432.4692764757132
 30
0.0
 11
761.1181831122578
 21
432.4692764757134
 31
0.0
  0
CIRCLE
  5
1301
330
2
100
AcDbEntity
  8
0
100
AcDbCircle
 10
991.529152291587
 20
403.4692764757137
 30
0.0
 40
29.0
  0
LINE
  5
189C
330
2
100
AcDbEntity
  8
PHAS
  6
SEKKEI_P_S
100
AcDbLine
 10
331.6543284127722
 20
435.3500773879916
 30
0.0
 11
331.6543284127713
 21
371.5883802392788
 31
0.0
  0
LINE
  5
189D
330
2
100
AcDbEntity
  8
PHAS
  6
SEKKEI_P_S
100
AcDbLine
 10
341.4543284127714
 20
438.4693241377921
 30
0.0
 11
341.4543284127714
 21
368.469228813635
 31
0.0
  0
ARC
  5
189E
330
2
100
AcDbEntity
  8
PHAS
  6
SEKKEI_P_S
100
AcDbCircle
 10
334.6543284127712
 20
371.5883802392788
 30
0.0
 40
3.0
100
AcDbArc
 50
180.0
 51
268.9999999999721
  0
LINE
  5
189F
330
2
100
AcDbEntity
  8
PHAS
  6
SEKKEI_P_S
100
AcDbLine
 10
341.4543284127714
 20
368.469228813635
 30
0.0
 11
334.6019711934598
 21
368.5888371538096
 31
0.0
  0
LINE
  5
18A0
330
2
100
AcDbEntity
  8
PHAS
  6
SEKKEI_P_S
100
AcDbLine
 10
316.0860875244372
 20
379.7143297244172
 30
0.0
 11
330.8279765904383
 21
377.11493693547
 31
0.0
  0
LINE
  5
18A1
330
2
100
AcDbEntity
  8
PHAS
  6
SEKKEI_P_S
100
AcDbLine
 10
316.0860875244372
 20
427.2241279028532
 30
0.0
 11
330.8279765904383
 21
429.8235206918
 31
0.0
  0
LINE
  5
18A2
330
2
100
AcDbEntity
  8
PHAS
  6
SEKKEI_P_S
100
AcDbLine
 10
311.9543284127714
 20
422.3000891377917
 30
0.0
 11
311.9543284127714
 21
384.6384638136353
 31
0.0
  0
ARC
  5
18A3
330
2
100
AcDbEntity
  8
PHAS
  6
SEKKEI_P_S
100
AcDbCircle
 10
316.9543284127714
 20
384.6383684894783
 30
0.0
 40
5.0
100
AcDbArc
 50
180.0
 51
259.9999999999949
  0
ARC
  5
18A4
330
2
100
AcDbEntity
  8
PHAS
  6
SEKKEI_P_S
100
AcDbCircle
 10
316.9543284127714
 20
422.3000891377917
 30
0.0
 40
5.0
100
AcDbArc
 50
100.000000000005
 51
180.0
  0
ARC
  5
18A5
330
2
100
AcDbEntity
  8
PHAS
  6
SEKKEI_P_S
100
AcDbCircle
 10
330.6543284127712
 20
376.1301291824577
 30
0.0
 40
1.0
100
AcDbArc
 50
0.0
 51
79.99999999999499
  0
ARC
  5
18A6
330
2
100
AcDbEntity
  8
PHAS
  6
SEKKEI_P_S
100
AcDbCircle
 10
330.6543284127712
 20
430.8083284448123
 30
0.0
 40
1.0
100
AcDbArc
 50
280.000000000005
 51
0.0
  0
ARC
  5
18A7
330
2
100
AcDbEntity
  8
PHAS
  6
SEKKEI_P_S
100
AcDbCircle
 10
334.6543284127712
 20
435.3501727121481
 30
0.0
 40
3.0
100
AcDbArc
 50
91.00000000002781
 51
180.0
  0
LINE
  5
18A8
330
2
100
AcDbEntity
  8
PHAS
  6
SEKKEI_P_S
100
AcDbLine
 10
341.4543284127714
 20
438.4693241377919
 30
0.0
 11
334.6019711934598
 21
438.3497157976173
 31
0.0
  0
LINE
  5
1EB5
330
2
100
AcDbEntity
  8
0
100
AcDbLine
 10
355.4543284126669
 20
424.0093756529052
 30
0.0
 11
349.9368753416713
 21
424.0093756529052
 31
0.0
  0
LINE
  5
1EB6
330
2
100
AcDbEntity
  8
0
100
AcDbLine
 10
355.4543284126669
 20
382.9291772985218
 30
0.0
 11
349.9368753416713
 21
382.9291772985218
 31
0.0
  0
LINE
  5
1EB7
330
2
100
AcDbEntity
  8
0
100
AcDbLine
 10
355.4543284126669
 20
363.4692764756962
 30
0.0
 11
349.9368753416713
 21
363.4692764756962
 31
0.0
  0
LINE
  5
1EB8
330
2
100
AcDbEntity
  8
0
100
AcDbLine
 10
355.4543284126659
 20
443.4692764757308
 30
0.0
 11
349.9368753416713
 21
443.4692764757308
 31
0.0
  0
LINE
  5
1EB9
330
2
100
AcDbEntity
  8
0
100
AcDbLine
 10
355.454328412665
 20
446.4692764757283
 30
0.0
 11
349.9368753416713
 21
446.4692764757283
 31
0.0
  0
LINE
  5
1EBA
330
2
100
AcDbEntity
  8
0
100
AcDbLine
 10
355.4543284126669
 20
360.4692764756987
 30
0.0
 11
349.9368753416713
 21
360.4692764756987
 31
0.0
  0
LINE
  5
1EC7
330
2
100
AcDbEntity
  8
0
100
AcDbLine
 10
403.9619043422137
 20
177.8609946279887
 30
0.0
 11
398.4444512712182
 21
177.8609946279887
 31
0.0
  0
LINE
  5
1EC8
330
2
100
AcDbEntity
  8
0
100
AcDbLine
 10
403.9619043422137
 20
136.7807962736053
 30
0.0
 11
398.4444512712182
 21
136.7807962736053
 31
0.0
  0
LINE
  5
1EC9
330
2
100
AcDbEntity
  8
0
100
AcDbLine
 10
403.9619043422137
 20
117.3208954507797
 30
0.0
 11
398.4444512712182
 21
117.3208954507797
 31
0.0
  0
LINE
  5
1ECA
330
2
100
AcDbEntity
  8
0
100
AcDbLine
 10
403.9619043422128
 20
197.3208954508143
 30
0.0
 11
398.4444512712182
 21
197.3208954508143
 31
0.0
  0
LINE
  5
1ECB
330
2
100
AcDbEntity
  8
0
100
AcDbLine
 10
403.9619043422119
 20
200.3208954508118
 30
0.0
 11
398.4444512712182
 21
200.3208954508118
 31
0.0
  0
LINE
  5
1ECC
330
2
100
AcDbEntity
  8
0
100
AcDbLine
 10
403.9619043422137
 20
114.3208954507823
 30
0.0
 11
398.4444512712182
 21
114.3208954507823
 31
0.0
  0
CIRCLE
  5
1EF3
330
2
100
AcDbEntity
  8
0
100
AcDbCircle
 10
621.027814461044
 20
403.4692764757166
 30
0.0
 40
26.57735026918937
  0
LINE
  5
1F2C
330
2
100
AcDbEntity
  8
0
100
AcDbLine
 10
581.027814461044
 20
713.6793130663942
 30
0.0
 11
581.027814461044
 21
719.2316669630103
 31
0.0
  0
LINE
  5
1F2D
330
2
100
AcDbEntity
  8
0
100
AcDbLine
 10
578.0278144610422
 20
713.679313066394
 30
0.0
 11
578.0278144610422
 21
719.2316669630102
 31
0.0
  0
LINE
  5
1F2E
330
2
100
AcDbEntity
  8
0
100
AcDbLine
 10
600.4877152838692
 20
713.6793130663952
 30
0.0
 11
600.4877152838692
 21
719.2316669630113
 31
0.0
  0
LINE
  5
1F2F
330
2
100
AcDbEntity
  8
0
100
AcDbLine
 10
661.027814461041
 20
713.679313066395
 30
0.0
 11
661.0278144610409
 21
719.2316669630111
 31
0.0
  0
LINE
  5
1F30
330
2
100
AcDbEntity
  8
0
100
AcDbLine
 10
664.0278144610428
 20
713.679313066395
 30
0.0
 11
664.0278144610427
 21
719.2316669630111
 31
0.0
  0
LINE
  5
1F31
330
2
100
AcDbEntity
  8
0
100
AcDbLine
 10
641.5679136382159
 20
713.6793130663956
 30
0.0
 11
641.5679136382158
 21
719.2316669630117
 31
0.0
  0
ENDSEC
  0
SECTION
  2
OBJECTS
  0
DICTIONARY
  5
7
330
0
100
AcDbDictionary
  3
ACAD_COLOR
350
1E20
  3
ACAD_GROUP
350
75
  3
ACAD_LAYOUT
350
61
  3
ACAD_MATERIAL
350
1DF6
  3
ACAD_MLEADERSTYLE
350
1E45
  3
ACAD_MLINESTYLE
350
76
  3
ACAD_PLOTSETTINGS
350
77
  3
ACAD_PLOTSTYLENAME
350
6
  3
ACAD_SCALELIST
350
1E23
  3
ACAD_TABLESTYLE
350
1E21
  3
ACAD_VISUALSTYLE
350
1E0F
  3
ACADDIM
350
480
  3
ACDB_RECOMPOSE_DATA
350
1E83
  3
ACDBHEADERROUNDTRIPXREC
350
1F67
  3
ACDBVARIABLEDICTIONARY
350
102
  3
DWGPROPS
350
1F33
  0
DICTIONARY
  5
1E8C
330
6E
100
AcDbDictionary
280
     1
  3
ACAD_XREC_ROUNDTRIP
360
1F3A
  0
DICTIONARY
  5
ADC
330
66
100
AcDbDictionary
280
     1
  3
ACAD_LAYERSTATES
360
ADD
  0
DICTIONARY
  5
1E71
330
5E
100
AcDbDictionary
280
     1
  3
ACAD_XREC_ROUNDTRIP
360
1F36
  3
ADSK_XREC_LAYER_RECONCILED
360
1E72
  0
DICTIONARY
  5
1E73
330
3E
100
AcDbDictionary
280
     1
  3
ACAD_XREC_ROUNDTRIP
360
1F35
  3
ADSK_XREC_LAYER_RECONCILED
360
1E74
  0
DICTIONARY
  5
1E79
330
2B5
100
AcDbDictionary
280
     1
  3
ACAD_XREC_ROUNDTRIP
360
1F40
  3
ADSK_XREC_LAYER_RECONCILED
360
1E7A
  0
DICTIONARY
  5
1E7B
330
2BA
100
AcDbDictionary
280
     1
  3
ACAD_XREC_ROUNDTRIP
360
1F41
  3
ADSK_XREC_LAYER_RECONCILED
360
1E7C
  0
DICTIONARY
  5
1E7F
330
3FA
100
AcDbDictionary
280
     1
  3
ACAD_XREC_ROUNDTRIP
360
1F43
  3
ADSK_XREC_LAYER_RECONCILED
360
1E80
  0
DICTIONARY
  5
1886
330
1885
100
AcDbDictionary
280
     1
  3
ACAD_XREC_ROUNDTRIP
360
1F48
  3
ADSK_XREC_LAYER_RECONCILED
360
1888
  0
DICTIONARY
  5
1F88
330
2
100
AcDbDictionary
280
     1
  3
ACAD_LAYOUTSELFREF
360
1F89
  0
DICTIONARY
  5
1F8A
330
1F61
100
AcDbDictionary
280
     1
  3
ACAD_LAYOUTSELFREF
360
1F8B
  0
DICTIONARY
  5
1E20
102
{ACAD_REACTORS
330
7
102
}
330
7
100
AcDbDictionary
  0
DICTIONARY
  5
75
102
{ACAD_REACTORS
330
7
102
}
330
7
100
AcDbDictionary
  0
DICTIONARY
  5
61
102
{ACAD_REACTORS
330
7
102
}
330
7
100
AcDbDictionary
  0
DICTIONARY
  5
1DF6
102
{ACAD_REACTORS
330
7
102
}
330
7
100
AcDbDictionary
  3
BYBLOCK
350
1DFF
  3
BYLAYER
350
1DF7
  3
GLOBAL
350
1E07
  0
DICTIONARY
  5
1E45
102
{ACAD_REACTORS
330
7
102
}
330
7
100
AcDbDictionary
  3
STANDARD
350
1E46
  0
DICTIONARY
  5
76
102
{ACAD_REACTORS
330
7
102
}
330
7
100
AcDbDictionary
  3
STANDARD
350
78
  0
DICTIONARY
  5
77
102
{ACAD_REACTORS
330
7
102
}
330
7
100
AcDbDictionary
  0
ACDBDICTIONARYWDFLT
  5
6
102
{ACAD_REACTORS
330
7
102
}
330
7
100
AcDbDictionary
281
     1
  3
Normal
350
5
100
AcDbDictionaryWithDefault
340
5
  0
DICTIONARY
  5
1E23
102
{ACAD_REACTORS
330
7
102
}
330
7
100
AcDbDictionary
  3
A0
350
1E24
  3
A1
350
1E25
  3
A2
350
1E26
  3
A3
350
1E27
  3
A4
350
1E28
  3
A5
350
1E29
  3
A6
350
1E2A
  3
A7
350
1E2B
  3
A8
350
1E2C
  3
A9
350
1E2D
  3
B0
350
1E2E
  3
B1
350
1E2F
  3
B2
350
1E30
  3
B3
350
1E31
  3
B4
350
1E32
  3
B5
350
1E33
  3
B6
350
1E34
  3
B7
350
1E35
  3
B8
350
1E36
  3
B9
350
1E37
  3
C0
350
1E38
  3
C1
350
1E39
  3
C2
350
1E3A
  3
C3
350
1E3B
  3
C4
350
1E3C
  3
C5
350
1E3D
  3
C6
350
1E3E
  3
C7
350
1E3F
  3
C8
350
1E40
  3
C9
350
1E41
  3
D0
350
1E42
  3
D1
350
1E43
  3
D2
350
1E44
  0
DICTIONARY
  5
1E21
102
{ACAD_REACTORS
330
7
102
}
330
7
100
AcDbDictionary
  3
STANDARD
350
1E22
  0
DICTIONARY
  5
1E0F
102
{ACAD_REACTORS
330
7
102
}
330
7
100
AcDbDictionary
  3
2DWIREFRAME
350
1E15
  3
3D_HIDDEN
350
1E17
  3
3DWIREFRAME
350
1E16
  3
BASIC
350
1E14
  3
BRIGHTEN
350
1E1B
  3
COLORCHANGE
350
1E1F
  3
CONCEPTUAL
350
1E18
  3
DIM
350
1E1A
  3
FACEPATTERN
350
1E1E
  3
FLAT
350
1E10
  3
FLATWITHEDGES
350
1E11
  3
GOURAUD
350
1E12
  3
GOURAUDWITHEDGES
350
1E13
  3
LINEPATTERN
350
1E1D
  3
REALISTIC
350
1E19
  3
THICKEN
350
1E1C
  0
XRECORD
  5
480
102
{ACAD_REACTORS
330
7
102
}
330
7
100
AcDbXrecord
 90
   990106
  3

 60
     0
 61
     0
 62
     1
 63
     3
 64
     1
 65
     0
 66
     0
 67
     3
 68
     1
 69
     0
 70
     0
 71
     0
 72
     0
 40
0.0
170
     2
340
0
  0
XRECORD
  5
1E83
102
{ACAD_REACTORS
330
7
102
}
330
7
100
AcDbXrecord
 90
        1
330
1E22
  0
DICTIONARY
  5
1F67
102
{ACAD_REACTORS
330
7
102
}
330
7
100
AcDbDictionary
  3
CEPSNTYPE
350
1F71
  3
DIMSTYLEDATA
350
1F75
  3
FINGERPRINTGUID
350
1F72
  3
HYPERLINKBASE
350
1F6A
  3
INSUNITS
350
1F70
  3
LAYOUTDICT
350
1F6C
  3
LWETCUNION
350
1F6F
  3
PLOTSETDICT
350
1F6D
  3
PLOTSTYLNAMDICT
350
1F6E
  3
PSVPSCALE
350
1F74
  3
PUCSBASE
350
1F78
  3
PUCSORGBACK
350
1F7E
  3
PUCSORGBOTTOM
350
1F7A
  3
PUCSORGFRONT
350
1F7D
  3
PUCSORGLEFT
350
1F7B
  3
PUCSORGRIGHT
350
1F7C
  3
PUCSORGTOP
350
1F79
  3
PUCSORTHOREF
350
1F76
  3
PUCSORTHOVIEW
350
1F77
  3
STYLESHEET
350
1F6B
  3
TSTACKALIGN
350
1F68
  3
TSTACKSIZE
350
1F69
  3
UCSBASE
350
1F81
  3
UCSORGBACK
350
1F87
  3
UCSORGBOTTOM
350
1F83
  3
UCSORGFRONT
350
1F86
  3
UCSORGLEFT
350
1F84
  3
UCSORGRIGHT
350
1F85
  3
UCSORGTOP
350
1F82
  3
UCSORTHOREF
350
1F7F
  3
UCSORTHOVIEW
350
1F80
  3
VERSIONGUID
350
1F73
  0
DICTIONARY
  5
102
102
{ACAD_REACTORS
330
7
102
}
330
7
100
AcDbDictionary
  3
CANNOSCALE
350
1EA4
  3
CMLEADERSTYLE
350
1EA3
  3
CTABLESTYLE
350
1EA2
  3
DIMASSOC
350
103
  3
INDEXCTL
350
1EA5
  3
SORTENTS
350
549
  0
XRECORD
  5
1F33
102
{ACAD_REACTORS
330
7
102
}
330
7
100
AcDbXrecord
  1
DWGPROPS COOKIE
  2

  3

  4

  6

  7

  8
ymorima
  9

300
=
301
=
302
=
303
=
304
=
305
=
306
=
307
=
308
=
309
=
 40
0.0104931828703704
 41
2454411.432936921
 42
2454425.688813472
  1

 90
        0
  0
XRECORD
  5
1F3A
102
{ACAD_REACTORS
330
1E8C
102
}
330
1E8C
100
AcDbXrecord
102
VTR_0.000_0.000_1.000_1.000_VISUALSTYLE
340
1E15
102
VTR_0.000_0.000_1.000_1.000_GRIDDISPLAY
 70
     3
102
VTR_0.000_0.000_1.000_1.000_GRIDMAJOR
 70
     5
102
VTR_0.000_0.000_1.000_1.000_DEFAULTLIGHTING
280
     1
102
VTR_0.000_0.000_1.000_1.000_DEFAULTLIGHTINGTYPE
 70
     1
102
VTR_0.000_0.000_1.000_1.000_BRIGHTNESS
141
0.0
102
VTR_0.000_0.000_1.000_1.000_CONTRAST
142
0.0
  0
DICTIONARY
  5
ADD
102
{ACAD_REACTORS
330
ADC
102
}
330
ADC
100
AcDbDictionary
  0
XRECORD
  5
1F36
102
{ACAD_REACTORS
330
1E71
102
}
330
1E71
100
AcDbXrecord
102
MATERIAL
340
1E07
  0
XRECORD
  5
1E72
102
{ACAD_REACTORS
330
1E71
102
}
330
1E71
100
AcDbXrecord
290
     1
  0
XRECORD
  5
1F35
102
{ACAD_REACTORS
330
1E73
102
}
330
1E73
100
AcDbXrecord
102
MATERIAL
340
1E07
  0
XRECORD
  5
1E74
102
{ACAD_REACTORS
330
1E73
102
}
330
1E73
100
AcDbXrecord
290
     1
  0
XRECORD
  5
1F40
102
{ACAD_REACTORS
330
1E79
102
}
330
1E79
100
AcDbXrecord
102
MATERIAL
340
1E07
  0
XRECORD
  5
1E7A
102
{ACAD_REACTORS
330
1E79
102
}
330
1E79
100
AcDbXrecord
290
     1
  0
XRECORD
  5
1F41
102
{ACAD_REACTORS
330
1E7B
102
}
330
1E7B
100
AcDbXrecord
102
MATERIAL
340
1E07
  0
XRECORD
  5
1E7C
102
{ACAD_REACTORS
330
1E7B
102
}
330
1E7B
100
AcDbXrecord
290
     1
  0
XRECORD
  5
1F43
102
{ACAD_REACTORS
330
1E7F
102
}
330
1E7F
100
AcDbXrecord
102
MATERIAL
340
1E07
  0
XRECORD
  5
1E80
102
{ACAD_REACTORS
330
1E7F
102
}
330
1E7F
100
AcDbXrecord
290
     1
  0
XRECORD
  5
1F48
102
{ACAD_REACTORS
330
1886
102
}
330
1886
100
AcDbXrecord
102
MATERIAL
340
1E07
  0
XRECORD
  5
1888
102
{ACAD_REACTORS
330
1886
102
}
330
1886
100
AcDbXrecord
290
     1
  0
XRECORD
  5
1F89
102
{ACAD_REACTORS
330
1F88
102
}
330
1F88
100
AcDbXrecord
340
2
  0
XRECORD
  5
1F8B
102
{ACAD_REACTORS
330
1F8A
102
}
330
1F8A
100
AcDbXrecord
340
1F61
  0
ACAD_PROXY_OBJECT
  5
1DFF
102
{ACAD_XDICTIONARY
360
1E00
102
}
102
{ACAD_REACTORS
330
1DF6
102
}
330
1DF6
100
AcDbProxyObject
 90
      499
 91
      511
 93
     1340
310
42109E509B1BD8DAC02004014080404555555555555953FAA155555555555654FEA9AA400014080404555555555555953FAA155555555555654FEA9AA400000000000000E03F4080404555555555555953FAA155555555555654FEA9AA4014080404555555555555953FAA155555555555654FEA9AA4010201011555555555
310
55654FEA8555555555555953FAA6A9005020101155555555555654FEA8555555555555953FAA6A9007
 94
        0
1001
ACAD
1000
AcadProxyRoundTripData
1071
      504
1071
   655383
1070
     0
  0
ACAD_PROXY_OBJECT
  5
1DF7
102
{ACAD_XDICTIONARY
360
1DF8
102
}
102
{ACAD_REACTORS
330
1DF6
102
}
330
1DF6
100
AcDbProxyObject
 90
      499
 91
      511
 93
     1340
310
42109E53185E595C802004014080404555555555555953FAA155555555555654FEA9AA400014080404555555555555953FAA155555555555654FEA9AA400000000000000E03F4080404555555555555953FAA155555555555654FEA9AA4014080404555555555555953FAA155555555555654FEA9AA4010201011555555555
310
55654FEA8555555555555953FAA6A9005020101155555555555654FEA8555555555555953FAA6A9007
 94
        0
1001
ACAD
1000
AcadProxyRoundTripData
1071
      504
1071
   655383
1070
     0
  0
ACAD_PROXY_OBJECT
  5
1E07
102
{ACAD_XDICTIONARY
360
1E08
102
}
102
{ACAD_REACTORS
330
1DF6
102
}
330
1DF6
100
AcDbProxyObject
 90
      499
 91
      511
 93
     1332
310
41D1DB1BD8985B002004014080404555555555555953FAA155555555555654FEA9AA400014080404555555555555953FAA155555555555654FEA9AA400000000000000E03F4080404555555555555953FAA155555555555654FEA9AA4014080404555555555555953FAA155555555555654FEA9AA401020101155555555555
310
654FEA8555555555555953FAA6A9005020101155555555555654FEA8555555555555953FAA6A9000
 94
        0
1001
ACAD
1000
AcadProxyRoundTripData
1071
      504
1071
   655383
1070
     0
  0
ACAD_PROXY_OBJECT
  5
1E46
102
{ACAD_REACTORS
330
1E45
102
}
330
1E45
100
AcDbProxyObject
 90
      499
 91
      511
 93
      618
310
40901902A4063FBFFFFFE056BD1B81E855B9FC0AD7A3703D0AD73F4254DD185B99185C990000AD7A3703D0AC73F90141901A02B5E8DC0F42B1CFC02B5E8DC0F42B1CFE5764000000000000300FC6
340
6A
340
0
340
16
340
0
 94
        0
1001
ACAD_MLEADERVER
1070
     2
1001
ACAD
1000
AcadProxyRoundTripData
1071
      508
1071
   655383
1070
     0
  0
MLINESTYLE
  5
78
102
{ACAD_REACTORS
330
76
102
}
330
76
100
AcDbMlineStyle
  2
STANDARD
 70
     0
  3

 62
     0
 51
90.0
 52
90.0
 71
     2
 49
0.5
 62
   256
  6
BYLAYER
 49
-0.5
 62
   256
  6
BYLAYER
  0
ACDBPLACEHOLDER
  5
5
102
{ACAD_REACTORS
330
6
102
}
330
6
100
AcDbPlaceHolder
280
     0
  0
ACAD_PROXY_OBJECT
  5
1E24
102
{ACAD_REACTORS
330
1E23
102
}
330
1E23
100
AcDbProxyObject
 90
      499
 91
      511
 93
       49
310
904313A3100598
 94
        0
1001
ACAD
1000
AcadProxyRoundTripData
1071
      507
1071
   655383
1070
     0
  0
ACAD_PROXY_OBJECT
  5
1E25
102
{ACAD_REACTORS
330
1E23
102
}
330
1E23
100
AcDbProxyObject
 90
      499
 91
      511
 93
      113
310
904313A3200400000000000000406B
 94
        0
1001
ACAD
1000
AcadProxyRoundTripData
1071
      507
1071
   655383
1070
     0
  0
ACAD_PROXY_OBJECT
  5
1E26
102
{ACAD_REACTORS
330
1E23
102
}
330
1E23
100
AcDbProxyObject
 90
      499
 91
      511
 93
      113
310
904313A3400400000000000010406B
 94
        0
1001
ACAD
1000
AcadProxyRoundTripData
1071
      507
1071
   655383
1070
     0
  0
ACAD_PROXY_OBJECT
  5
1E27
102
{ACAD_REACTORS
330
1E23
102
}
330
1E23
100
AcDbProxyObject
 90
      499
 91
      511
 93
      113
310
904313A3500400000000000014406B
 94
        0
1001
ACAD
1000
AcadProxyRoundTripData
1071
      507
1071
   655383
1070
     0
  0
ACAD_PROXY_OBJECT
  5
1E28
102
{ACAD_REACTORS
330
1E23
102
}
330
1E23
100
AcDbProxyObject
 90
      499
 91
      511
 93
      113
310
904313A3800400000000000020406B
 94
        0
1001
ACAD
1000
AcadProxyRoundTripData
1071
      507
1071
   655383
1070
     0
  0
ACAD_PROXY_OBJECT
  5
1E29
102
{ACAD_REACTORS
330
1E23
102
}
330
1E23
100
AcDbProxyObject
 90
      499
 91
      511
 93
      121
310
905313A3130004000000000000244051
 94
        0
1001
ACAD
1000
AcadProxyRoundTripData
1071
      507
1071
   655383
1070
     0
  0
ACAD_PROXY_OBJECT
  5
1E2A
102
{ACAD_REACTORS
330
1E23
102
}
330
1E23
100
AcDbProxyObject
 90
      499
 91
      511
 93
      121
310
905313A3136004000000000000304051
 94
        0
1001
ACAD
1000
AcadProxyRoundTripData
1071
      507
1071
   655383
1070
     0
  0
ACAD_PROXY_OBJECT
  5
1E2B
102
{ACAD_REACTORS
330
1E23
102
}
330
1E23
100
AcDbProxyObject
 90
      499
 91
      511
 93
      121
310
905313A3230004000000000000344051
 94
        0
1001
ACAD
1000
AcadProxyRoundTripData
1071
      507
1071
   655383
1070
     0
  0
ACAD_PROXY_OBJECT
  5
1E2C
102
{ACAD_REACTORS
330
1E23
102
}
330
1E23
100
AcDbProxyObject
 90
      499
 91
      511
 93
      121
310
905313A33300040000000000003E4051
 94
        0
1001
ACAD
1000
AcadProxyRoundTripData
1071
      507
1071
   655383
1070
     0
  0
ACAD_PROXY_OBJECT
  5
1E2D
102
{ACAD_REACTORS
330
1E23
102
}
330
1E23
100
AcDbProxyObject
 90
      499
 91
      511
 93
      121
310
905313A3430004000000000000444051
 94
        0
1001
ACAD
1000
AcadProxyRoundTripData
1071
      507
1071
   655383
1070
     0
  0
ACAD_PROXY_OBJECT
  5
1E2E
102
{ACAD_REACTORS
330
1E23
102
}
330
1E23
100
AcDbProxyObject
 90
      499
 91
      511
 93
      121
310
905313A3530004000000000000494051
 94
        0
1001
ACAD
1000
AcadProxyRoundTripData
1071
      507
1071
   655383
1070
     0
  0
ACAD_PROXY_OBJECT
  5
1E2F
102
{ACAD_REACTORS
330
1E23
102
}
330
1E23
100
AcDbProxyObject
 90
      499
 91
      511
 93
      129
310
906313A313030004000000000000594038
 94
        0
1001
ACAD
1000
AcadProxyRoundTripData
1071
      507
1071
   655383
1070
     0
  0
ACAD_PROXY_OBJECT
  5
1E30
102
{ACAD_REACTORS
330
1E23
102
}
330
1E23
100
AcDbProxyObject
 90
      499
 91
      511
 93
      113
310
904323A31000000000000000010159
 94
        0
1001
ACAD
1000
AcadProxyRoundTripData
1071
      507
1071
   655383
1070
     0
  0
ACAD_PROXY_OBJECT
  5
1E31
102
{ACAD_REACTORS
330
1E23
102
}
330
1E23
100
AcDbProxyObject
 90
      499
 91
      511
 93
      113
310
904343A31000000000000000410159
 94
        0
1001
ACAD
1000
AcadProxyRoundTripData
1071
      507
1071
   655383
1070
     0
  0
ACAD_PROXY_OBJECT
  5
1E32
102
{ACAD_REACTORS
330
1E23
102
}
330
1E23
100
AcDbProxyObject
 90
      499
 91
      511
 93
      113
310
904383A31000000000000000810159
 94
        0
1001
ACAD
1000
AcadProxyRoundTripData
1071
      507
1071
   655383
1070
     0
  0
ACAD_PROXY_OBJECT
  5
1E33
102
{ACAD_REACTORS
330
1E23
102
}
330
1E23
100
AcDbProxyObject
 90
      499
 91
      511
 93
      121
310
90531303A31000000000000000910140
 94
        0
1001
ACAD
1000
AcadProxyRoundTripData
1071
      507
1071
   655383
1070
     0
  0
ACAD_PROXY_OBJECT
  5
1E34
102
{ACAD_REACTORS
330
1E23
102
}
330
1E23
100
AcDbProxyObject
 90
      499
 91
      511
 93
      129
310
9063130303A31000000000000001650138
 94
        0
1001
ACAD
1000
AcadProxyRoundTripData
1071
      507
1071
   655383
1070
     0
  0
ACAD_PROXY_OBJECT
  5
1E35
102
{ACAD_REACTORS
330
1E23
102
}
330
1E23
100
AcDbProxyObject
 90
      499
 91
      511
 93
      265
310
90F312F31323822203D2031272D302200000000000000200FC00000000000028402B
 94
        0
1001
ACAD
1000
AcadProxyRoundTripData
1071
      507
1071
   655383
1070
     0
  0
ACAD_PROXY_OBJECT
  5
1E36
102
{ACAD_REACTORS
330
1E23
102
}
330
1E23
100
AcDbProxyObject
 90
      499
 91
      511
 93
      257
310
90E312F363422203D2031272D302200000000000000240FC000000000000284040
 94
        0
1001
ACAD
1000
AcadProxyRoundTripData
1071
      507
1071
   655383
1070
     0
  0
ACAD_PROXY_OBJECT
  5
1E37
102
{ACAD_REACTORS
330
1E23
102
}
330
1E23
100
AcDbProxyObject
 90
      499
 91
      511
 93
      257
310
90E312F333222203D2031272D302200000000000000280FC000000000000284040
 94
        0
1001
ACAD
1000
AcadProxyRoundTripData
1071
      507
1071
   655383
1070
     0
  0
ACAD_PROXY_OBJECT
  5
1E38
102
{ACAD_REACTORS
330
1E23
102
}
330
1E23
100
AcDbProxyObject
 90
      499
 91
      511
 93
      257
310
90E312F313622203D2031272D3022000000000000002C0FC000000000000284040
 94
        0
1001
ACAD
1000
AcadProxyRoundTripData
1071
      507
1071
   655383
1070
     0
  0
ACAD_PROXY_OBJECT
  5
1E39
102
{ACAD_REACTORS
330
1E23
102
}
330
1E23
100
AcDbProxyObject
 90
      499
 91
      511
 93
      257
310
90E332F333222203D2031272D3022000000000000002E0FC000000000000284040
 94
        0
1001
ACAD
1000
AcadProxyRoundTripData
1071
      507
1071
   655383
1070
     0
  0
ACAD_PROXY_OBJECT
  5
1E3A
102
{ACAD_REACTORS
330
1E23
102
}
330
1E23
100
AcDbProxyObject
 90
      499
 91
      511
 93
      249
310
90D312F3822203D2031272D302200000000000000300FC000000000000284040
 94
        0
1001
ACAD
1000
AcadProxyRoundTripData
1071
      507
1071
   655383
1070
     0
  0
ACAD_PROXY_OBJECT
  5
1E3B
102
{ACAD_REACTORS
330
1E23
102
}
330
1E23
100
AcDbProxyObject
 90
      499
 91
      511
 93
      257
310
90E332F313622203D2031272D302200000000000000320FC000000000000284040
 94
        0
1001
ACAD
1000
AcadProxyRoundTripData
1071
      507
1071
   655383
1070
     0
  0
ACAD_PROXY_OBJECT
  5
1E3C
102
{ACAD_REACTORS
330
1E23
102
}
330
1E23
100
AcDbProxyObject
 90
      499
 91
      511
 93
      249
310
90D312F3422203D2031272D302200000000000000340FC000000000000284040
 94
        0
1001
ACAD
1000
AcadProxyRoundTripData
1071
      507
1071
   655383
1070
     0
  0
ACAD_PROXY_OBJECT
  5
1E3D
102
{ACAD_REACTORS
330
1E23
102
}
330
1E23
100
AcDbProxyObject
 90
      499
 91
      511
 93
      249
310
90D332F3822203D2031272D302200000000000000360FC000000000000284040
 94
        0
1001
ACAD
1000
AcadProxyRoundTripData
1071
      507
1071
   655383
1070
     0
  0
ACAD_PROXY_OBJECT
  5
1E3E
102
{ACAD_REACTORS
330
1E23
102
}
330
1E23
100
AcDbProxyObject
 90
      499
 91
      511
 93
      249
310
90D312F3222203D2031272D302200000000000000380FC000000000000284040
 94
        0
1001
ACAD
1000
AcadProxyRoundTripData
1071
      507
1071
   655383
1070
     0
  0
ACAD_PROXY_OBJECT
  5
1E3F
102
{ACAD_REACTORS
330
1E23
102
}
330
1E23
100
AcDbProxyObject
 90
      499
 91
      511
 93
      249
310
90D332F3422203D2031272D3022000000000000003A0FC000000000000284040
 94
        0
1001
ACAD
1000
AcadProxyRoundTripData
1071
      507
1071
   655383
1070
     0
  0
ACAD_PROXY_OBJECT
  5
1E40
102
{ACAD_REACTORS
330
1E23
102
}
330
1E23
100
AcDbProxyObject
 90
      499
 91
      511
 93
      169
310
90B3122203D2031272D3022004000000000000284020
 94
        0
1001
ACAD
1000
AcadProxyRoundTripData
1071
      507
1071
   655383
1070
     0
  0
ACAD_PROXY_OBJECT
  5
1E41
102
{ACAD_REACTORS
330
1E23
102
}
330
1E23
100
AcDbProxyObject
 90
      499
 91
      511
 93
      265
310
90F312D312F3222203D2031272D3022000000000000003E0FC00000000000028402B
 94
        0
1001
ACAD
1000
AcadProxyRoundTripData
1071
      507
1071
   655383
1070
     0
  0
ACAD_PROXY_OBJECT
  5
1E42
102
{ACAD_REACTORS
330
1E23
102
}
330
1E23
100
AcDbProxyObject
 90
      499
 91
      511
 93
      233
310
90B3322203D2031272D30220000000000000002100000000000000284000
 94
        0
1001
ACAD
1000
AcadProxyRoundTripData
1071
      507
1071
   655383
1070
     0
  0
ACAD_PROXY_OBJECT
  5
1E43
102
{ACAD_REACTORS
330
1E23
102
}
330
1E23
100
AcDbProxyObject
 90
      499
 91
      511
 93
      233
310
90B3622203D2031272D30220000000000000006100000000000000284000
 94
        0
1001
ACAD
1000
AcadProxyRoundTripData
1071
      507
1071
   655383
1070
     0
  0
ACAD_PROXY_OBJECT
  5
1E44
102
{ACAD_REACTORS
330
1E23
102
}
330
1E23
100
AcDbProxyObject
 90
      499
 91
      511
 93
      257
310
90E31272D3022203D2031272D3022000000000000000A100000000000000284040
 94
        0
1001
ACAD
1000
AcadProxyRoundTripData
1071
      507
1071
   655383
1070
     0
  0
ACAD_PROXY_OBJECT
  5
1E22
102
{ACAD_XDICTIONARY
360
1E81
102
}
102
{ACAD_REACTORS
330
1E21
102
}
330
1E21
100
AcDbProxyObject
 90
      499
 91
      511
 93
     1849
310
4254DD185B99185C990028B81E85EB51B8AE3F2E07A17AD46E2B8FC02B5E8DC0F42B1CFD028000000C1008070000C3001FDFF8000000C1003FBFF000000182007F7FE00000030400FEFFC00000060801FDFF8000000C1003FBFF00000018200000000000000681FA0B0000001820100E000186003FBFF000000182007F7FE0
310
0000030400FEFFC00000060801FDFF8000000C1003FBFF000000182007F7FE000000304000AD7A3703D0AC73F4160000003040201C00030C007F7FE00000030400FEFFC00000060801FDFF8000000C1003FBFF000000182007F7FE00000030400FEFFC00000060800E
340
16
340
16
340
16
 94
        0
1001
ACAD
1000
AcadProxyRoundTripData
1071
      506
1071
   655383
1070
     0
  0
ACAD_PROXY_OBJECT
  5
1E15
102
{ACAD_REACTORS
330
1E0F
102
}
330
1E0F
100
AcDbProxyObject
 90
      499
 91
      511
 93
      444
310
430C9915DA5C99599C985B59401049028333333333333E3BF0000000000000FB0107901411070040501600405405064090741402480A0340
 94
        0
1001
ACAD
1000
AcDbSavedByObjectVersion
1070
     0
1000
AcadProxyRoundTripData
1071
      505
1071
   655383
1070
     0
  0
ACAD_PROXY_OBJECT
  5
1E17
102
{ACAD_REACTORS
330
1E0F
102
}
330
1E0F
100
AcDbProxyObject
 90
      499
 91
      511
 93
      508
310
428CD108121A5919195B8010640502408333333333333E3BF0000000000000FB01079024090700405020000000000001110200405405064090740C02480A0340
 94
        0
1001
ACAD
1000
AcDbSavedByObjectVersion
1070
     0
1000
AcadProxyRoundTripData
1071
      505
1071
   655383
1070
     0
  0
ACAD_PROXY_OBJECT
  5
1E16
102
{ACAD_REACTORS
330
1E0F
102
}
330
1E0F
100
AcDbProxyObject
 90
      499
 91
      511
 93
      444
310
430CD915DA5C99599C985B59401059028333333333333E3BF0000000000000FB0107901411070040501600405405064090741402480A0340
 94
        0
1001
ACAD
1000
AcDbSavedByObjectVersion
1070
     0
1000
AcadProxyRoundTripData
1071
      505
1071
   655383
1070
     0
  0
ACAD_PROXY_OBJECT
  5
1E14
102
{ACAD_REACTORS
330
1E0F
102
}
330
1E0F
100
AcDbProxyObject
 90
      499
 91
      511
 93
      396
310
4190985CDA58C0107406404333333333333E3BF0000000000000FB0107A41107004050150841D405064090741402480A0356
 94
        0
1001
ACAD
1000
AcDbSavedByObjectVersion
1070
     0
1000
AcadProxyRoundTripData
1071
      505
1071
   655383
1070
     0
  0
ACAD_PROXY_OBJECT
  5
1E1B
102
{ACAD_REACTORS
330
1E0F
102
}
330
1E0F
100
AcDbProxyObject
 90
      499
 91
      511
 93
      436
310
42509C9A59DA1D195B8010C409028333333333333E3BF0000000000000FB010790141107004050150841D405064090741402480A029956
 94
        0
1001
ACAD
1000
AcDbSavedByObjectVersion
1070
     0
1000
AcadProxyRoundTripData
1071
      505
1071
   655383
1070
     0
  0
ACAD_PROXY_OBJECT
  5
1E1F
102
{ACAD_REACTORS
330
1E0F
102
}
330
1E0F
100
AcDbProxyObject
 90
      499
 91
      511
 93
      460
310
4310DBDB1BDC90DA185B99D9401104090240C333333333333E3BF0000000000000FB0108901411070040501508421405064090741402480A0354
 94
        0
1001
ACAD
1000
AcDbSavedByObjectVersion
1070
     0
1000
AcadProxyRoundTripData
1071
      505
1071
   655383
1070
     0
  0
ACAD_PROXY_OBJECT
  5
1E18
102
{ACAD_REACTORS
330
1E0F
102
}
330
1E0F
100
AcDbProxyObject
 90
      499
 91
      511
 93
      508
310
42D0DBDB98D95C1D1D585B0010940D028333333333333E3BF0000000000000FB0107902409070040501000000000000111010841D405064090740C02480A0340
 94
        0
1001
ACAD
1000
AcDbSavedByObjectVersion
1070
     0
1000
AcadProxyRoundTripData
1071
      505
1071
   655383
1070
     0
  0
ACAD_PROXY_OBJECT
  5
1E1A
102
{ACAD_REACTORS
330
1E0F
102
}
330
1E0F
100
AcDbProxyObject
 90
      499
 91
      511
 93
      420
310
41111A5B4010B409028333333333333E3BF0000000000000FB010790141107004050150841D405064090741402480A02677FFFFFDB
 94
        0
1001
ACAD
1000
AcDbSavedByObjectVersion
1070
     0
1000
AcadProxyRoundTripData
1071
      505
1071
   655383
1070
     0
  0
ACAD_PROXY_OBJECT
  5
1E1E
102
{ACAD_REACTORS
330
1E0F
102
}
330
1E0F
100
AcDbProxyObject
 90
      499
 91
      511
 93
      452
310
43119858D95C185D1D195C9B8010F409028333333333333E3BF0000000000000FB010790141107004050150841D405064090741402480A0350
 94
        0
1001
ACAD
1000
AcDbSavedByObjectVersion
1070
     0
1000
AcadProxyRoundTripData
1071
      505
1071
   655383
1070
     0
  0
ACAD_PROXY_OBJECT
  5
1E10
102
{ACAD_REACTORS
330
1E0F
102
}
330
1E0F
100
AcDbProxyObject
 90
      499
 91
      511
 93
      396
310
41519B185D00240901404333333333333E3BF0000000000000F9010740A41107004050150841D405064090741402480A1B55
 94
        0
1001
ACAD
1000
AcDbSavedByObjectVersion
1070
     0
1000
AcadProxyRoundTripData
1071
      505
1071
   655383
1070
     0
  0
ACAD_PROXY_OBJECT
  5
1E11
102
{ACAD_REACTORS
330
1E0F
102
}
330
1E0F
100
AcDbProxyObject
 90
      499
 91
      511
 93
      484
310
43919B185D15DA5D1A115919D95CC010140901404333333333333E3BF0000000000000F9010740901411070040501600405405064090741402480A1B50
 94
        0
1001
ACAD
1000
AcDbSavedByObjectVersion
1070
     0
1000
AcadProxyRoundTripData
1071
      505
1071
   655383
1070
     0
  0
ACAD_PROXY_OBJECT
  5
1E12
102
{ACAD_REACTORS
330
1E0F
102
}
330
1E0F
100
AcDbProxyObject
 90
      499
 91
      511
 93
      420
310
4211DBDD5C985D590010240902404333333333333E3BF0000000000000F9010740A411070040501641D405064090741402480A1B50
 94
        0
1001
ACAD
1000
AcDbSavedByObjectVersion
1070
     0
1000
AcadProxyRoundTripData
1071
      505
1071
   655383
1070
     0
  0
ACAD_PROXY_OBJECT
  5
1E13
102
{ACAD_REACTORS
330
1E0F
102
}
330
1E0F
100
AcDbProxyObject
 90
      499
 91
      511
 93
      508
310
4451DBDD5C985D5915DA5D1A115919D95CC010340902404333333333333E3BF0000000000000F9010740901411070040501600405405064090741402480A1B50
 94
        0
1001
ACAD
1000
AcDbSavedByObjectVersion
1070
     0
1000
AcadProxyRoundTripData
1071
      505
1071
   655383
1070
     0
  0
ACAD_PROXY_OBJECT
  5
1E1D
102
{ACAD_REACTORS
330
1E0F
102
}
330
1E0F
100
AcDbProxyObject
 90
      499
 91
      511
 93
      452
310
43131A5B995C185D1D195C9B8010E409028333333333333E3BF0000000000000FB010790141107004050750841D405064090741402483A0350
 94
        0
1001
ACAD
1000
AcDbSavedByObjectVersion
1070
     0
1000
AcadProxyRoundTripData
1071
      505
1071
   655383
1070
     0
  0
ACAD_PROXY_OBJECT
  5
1E19
102
{ACAD_REACTORS
330
1E0F
102
}
330
1E0F
100
AcDbProxyObject
 90
      499
 91
      511
 93
      428
310
429499585B1A5CDD1A58C0108409028333333333333E3BF0000000000000FB01079019070040501508421405064090741402480A1B45
 94
        0
1001
ACAD
1000
AcDbSavedByObjectVersion
1070
     0
1000
AcadProxyRoundTripData
1071
      505
1071
   655383
1070
     0
  0
ACAD_PROXY_OBJECT
  5
1E1C
102
{ACAD_REACTORS
330
1E0F
102
}
330
1E0F
100
AcDbProxyObject
 90
      499
 91
      511
 93
      420
310
42151A1A58DAD95B8010D409028333333333333E3BF0000000000000FB010790141107004050150C41D405064090741402480A0352
 94
        0
1001
ACAD
1000
AcDbSavedByObjectVersion
1070
     0
1000
AcadProxyRoundTripData
1071
      505
1071
   655383
1070
     0
  0
XRECORD
  5
1F71
102
{ACAD_REACTORS
330
1F67
102
}
330
1F67
100
AcDbXrecord
 90
        0
  0
XRECORD
  5
1F75
102
{ACAD_REACTORS
330
1F67
102
}
330
1F67
100
AcDbXrecord
1000
DSTYLE
1002
{
1070
   179
 70
     2
1070
   277
 70
     6
1002
}
  0
XRECORD
  5
1F72
102
{ACAD_REACTORS
330
1F67
102
}
330
1F67
100
AcDbXrecord
  1
{6385560B-F4B1-4644-A7C2-A3E32AC3D232}
  0
XRECORD
  5
1F6A
102
{ACAD_REACTORS
330
1F67
102
}
330
1F67
100
AcDbXrecord
  1

  0
XRECORD
  5
1F70
102
{ACAD_REACTORS
330
1F67
102
}
330
1F67
100
AcDbXrecord
 90
        0
  0
XRECORD
  5
1F6C
102
{ACAD_REACTORS
330
1F67
102
}
330
1F67
100
AcDbXrecord
340
61
  0
XRECORD
  5
1F6F
102
{ACAD_REACTORS
330
1F67
102
}
330
1F67
100
AcDbXrecord
 90
    10781
  0
XRECORD
  5
1F6D
102
{ACAD_REACTORS
330
1F67
102
}
330
1F67
100
AcDbXrecord
340
77
  0
XRECORD
  5
1F6E
102
{ACAD_REACTORS
330
1F67
102
}
330
1F67
100
AcDbXrecord
340
6
  0
XRECORD
  5
1F74
102
{ACAD_REACTORS
330
1F67
102
}
330
1F67
100
AcDbXrecord
 40
0.0
  0
XRECORD
  5
1F78
102
{ACAD_REACTORS
330
1F67
102
}
330
1F67
100
AcDbXrecord
340
0
  0
XRECORD
  5
1F7E
102
{ACAD_REACTORS
330
1F67
102
}
330
1F67
100
AcDbXrecord
 10
0.0
 20
0.0
 30
0.0
  0
XRECORD
  5
1F7A
102
{ACAD_REACTORS
330
1F67
102
}
330
1F67
100
AcDbXrecord
 10
0.0
 20
0.0
 30
0.0
  0
XRECORD
  5
1F7D
102
{ACAD_REACTORS
330
1F67
102
}
330
1F67
100
AcDbXrecord
 10
0.0
 20
0.0
 30
0.0
  0
XRECORD
  5
1F7B
102
{ACAD_REACTORS
330
1F67
102
}
330
1F67
100
AcDbXrecord
 10
0.0
 20
0.0
 30
0.0
  0
XRECORD
  5
1F7C
102
{ACAD_REACTORS
330
1F67
102
}
330
1F67
100
AcDbXrecord
 10
0.0
 20
0.0
 30
0.0
  0
XRECORD
  5
1F79
102
{ACAD_REACTORS
330
1F67
102
}
330
1F67
100
AcDbXrecord
 10
0.0
 20
0.0
 30
0.0
  0
XRECORD
  5
1F76
102
{ACAD_REACTORS
330
1F67
102
}
330
1F67
100
AcDbXrecord
340
0
  0
XRECORD
  5
1F77
102
{ACAD_REACTORS
330
1F67
102
}
330
1F67
100
AcDbXrecord
 70
     0
  0
XRECORD
  5
1F6B
102
{ACAD_REACTORS
330
1F67
102
}
330
1F67
100
AcDbXrecord
  1
Sekkei.ctb
  0
XRECORD
  5
1F68
102
{ACAD_REACTORS
330
1F67
102
}
330
1F67
100
AcDbXrecord
 90
        1
  0
XRECORD
  5
1F69
102
{ACAD_REACTORS
330
1F67
102
}
330
1F67
100
AcDbXrecord
 90
       70
  0
XRECORD
  5
1F81
102
{ACAD_REACTORS
330
1F67
102
}
330
1F67
100
AcDbXrecord
340
0
  0
XRECORD
  5
1F87
102
{ACAD_REACTORS
330
1F67
102
}
330
1F67
100
AcDbXrecord
 10
0.0
 20
0.0
 30
0.0
  0
XRECORD
  5
1F83
102
{ACAD_REACTORS
330
1F67
102
}
330
1F67
100
AcDbXrecord
 10
0.0
 20
0.0
 30
0.0
  0
XRECORD
  5
1F86
102
{ACAD_REACTORS
330
1F67
102
}
330
1F67
100
AcDbXrecord
 10
0.0
 20
0.0
 30
0.0
  0
XRECORD
  5
1F84
102
{ACAD_REACTORS
330
1F67
102
}
330
1F67
100
AcDbXrecord
 10
0.0
 20
0.0
 30
0.0
  0
XRECORD
  5
1F85
102
{ACAD_REACTORS
330
1F67
102
}
330
1F67
100
AcDbXrecord
 10
0.0
 20
0.0
 30
0.0
  0
XRECORD
  5
1F82
102
{ACAD_REACTORS
330
1F67
102
}
330
1F67
100
AcDbXrecord
 10
0.0
 20
0.0
 30
0.0
  0
XRECORD
  5
1F7F
102
{ACAD_REACTORS
330
1F67
102
}
330
1F67
100
AcDbXrecord
340
0
  0
XRECORD
  5
1F80
102
{ACAD_REACTORS
330
1F67
102
}
330
1F67
100
AcDbXrecord
 70
     0
  0
XRECORD
  5
1F73
102
{ACAD_REACTORS
330
1F67
102
}
330
1F67
100
AcDbXrecord
  1
{500C225B-71C4-4F3F-A214-BDAFB78F6642}
  0
DICTIONARYVAR
  5
1EA4
102
{ACAD_REACTORS
330
102
102
}
330
102
100
DictionaryVariables
280
     0
  1
1:1
  0
DICTIONARYVAR
  5
1EA3
102
{ACAD_REACTORS
330
102
102
}
330
102
100
DictionaryVariables
280
     0
  1
STANDARD
  0
DICTIONARYVAR
  5
1EA2
102
{ACAD_REACTORS
330
102
102
}
330
102
100
DictionaryVariables
280
     0
  1
STANDARD
  0
DICTIONARYVAR
  5
103
102
{ACAD_REACTORS
330
102
102
}
330
102
100
DictionaryVariables
280
     0
  1
1
  0
DICTIONARYVAR
  5
1EA5
102
{ACAD_REACTORS
330
102
102
}
330
102
100
DictionaryVariables
280
     0
  1
0
  0
DICTIONARYVAR
  5
549
102
{ACAD_REACTORS
330
102
102
}
330
102
100
DictionaryVariables
280
     0
  1
96
  0
DICTIONARY
  5
1E00
330
1DFF
100
AcDbDictionary
280
     1
  3
ACAD_XREC_ROUNDTRIP
360
1F4C
  3
BUMPTILE
360
1E02
  3
DIFFUSETILE
360
1E01
  3
OPACITYTILE
360
1E05
  3
REFLECTIONTILE
360
1E04
  3
REFRACTIONTILE
360
1E06
  3
SPECULARTILE
360
1E03
  0
DICTIONARY
  5
1DF8
330
1DF7
100
AcDbDictionary
280
     1
  3
ACAD_XREC_ROUNDTRIP
360
1F4B
  3
BUMPTILE
360
1DFA
  3
DIFFUSETILE
360
1DF9
  3
OPACITYTILE
360
1DFD
  3
REFLECTIONTILE
360
1DFC
  3
REFRACTIONTILE
360
1DFE
  3
SPECULARTILE
360
1DFB
  0
DICTIONARY
  5
1E08
330
1E07
100
AcDbDictionary
280
     1
  3
ACAD_XREC_ROUNDTRIP
360
1F4D
  3
BUMPTILE
360
1E0A
  3
DIFFUSETILE
360
1E09
  3
OPACITYTILE
360
1E0D
  3
REFLECTIONTILE
360
1E0C
  3
REFRACTIONTILE
360
1E0E
  3
SPECULARTILE
360
1E0B
  0
DICTIONARY
  5
1E81
330
1E22
100
AcDbDictionary
280
     1
  3
ACAD_ROUNDTRIP_2008_TABLES
360
1F32
  3
ACAD_XREC_ROUNDTRIP
360
1F4E
  0
XRECORD
  5
1F4C
102
{ACAD_REACTORS
330
1E00
102
}
330
1E00
100
AcDbXrecord
102
MATERIAL
148
0.0
149
0.0
149
0.0
 93
        0
 94
      127
282
     0
 72
     0
 77
     0
171
     0
175
     0
179
     0
273
     0
  0
XRECORD
  5
1E02
102
{ACAD_REACTORS
330
1E00
102
}
330
1E00
100
AcDbXrecord
270
     1
271
     1
  0
XRECORD
  5
1E01
102
{ACAD_REACTORS
330
1E00
102
}
330
1E00
100
AcDbXrecord
270
     1
271
     1
  0
XRECORD
  5
1E05
102
{ACAD_REACTORS
330
1E00
102
}
330
1E00
100
AcDbXrecord
270
     1
271
     1
  0
XRECORD
  5
1E04
102
{ACAD_REACTORS
330
1E00
102
}
330
1E00
100
AcDbXrecord
270
     1
271
     1
  0
XRECORD
  5
1E06
102
{ACAD_REACTORS
330
1E00
102
}
330
1E00
100
AcDbXrecord
270
     1
271
     1
  0
XRECORD
  5
1E03
102
{ACAD_REACTORS
330
1E00
102
}
330
1E00
100
AcDbXrecord
270
     1
271
     1
  0
XRECORD
  5
1F4B
102
{ACAD_REACTORS
330
1DF8
102
}
330
1DF8
100
AcDbXrecord
102
MATERIAL
148
0.0
149
0.0
149
0.0
 93
        0
 94
      127
282
     0
 72
     0
 77
     0
171
     0
175
     0
179
     0
273
     0
  0
XRECORD
  5
1DFA
102
{ACAD_REACTORS
330
1DF8
102
}
330
1DF8
100
AcDbXrecord
270
     1
271
     1
  0
XRECORD
  5
1DF9
102
{ACAD_REACTORS
330
1DF8
102
}
330
1DF8
100
AcDbXrecord
270
     1
271
     1
  0
XRECORD
  5
1DFD
102
{ACAD_REACTORS
330
1DF8
102
}
330
1DF8
100
AcDbXrecord
270
     1
271
     1
  0
XRECORD
  5
1DFC
102
{ACAD_REACTORS
330
1DF8
102
}
330
1DF8
100
AcDbXrecord
270
     1
271
     1
  0
XRECORD
  5
1DFE
102
{ACAD_REACTORS
330
1DF8
102
}
330
1DF8
100
AcDbXrecord
270
     1
271
     1
  0
XRECORD
  5
1DFB
102
{ACAD_REACTORS
330
1DF8
102
}
330
1DF8
100
AcDbXrecord
270
     1
271
     1
  0
XRECORD
  5
1F4D
102
{ACAD_REACTORS
330
1E08
102
}
330
1E08
100
AcDbXrecord
102
MATERIAL
148
0.0
149
0.0
149
0.0
 93
        0
 94
      127
282
     0
 72
     0
 77
     0
171
     0
175
     0
179
     0
273
     0
  0
XRECORD
  5
1E0A
102
{ACAD_REACTORS
330
1E08
102
}
330
1E08
100
AcDbXrecord
270
     1
271
     1
  0
XRECORD
  5
1E09
102
{ACAD_REACTORS
330
1E08
102
}
330
1E08
100
AcDbXrecord
270
     1
271
     1
  0
XRECORD
  5
1E0D
102
{ACAD_REACTORS
330
1E08
102
}
330
1E08
100
AcDbXrecord
270
     1
271
     1
  0
XRECORD
  5
1E0C
102
{ACAD_REACTORS
330
1E08
102
}
330
1E08
100
AcDbXrecord
270
     1
271
     1
  0
XRECORD
  5
1E0E
102
{ACAD_REACTORS
330
1E08
102
}
330
1E08
100
AcDbXrecord
270
     1
271
     1
  0
XRECORD
  5
1E0B
102
{ACAD_REACTORS
330
1E08
102
}
330
1E08
100
AcDbXrecord
270
     1
271
     1
  0
ACAD_PROXY_OBJECT
  5
1F32
102
{ACAD_REACTORS
330
1E81
102
}
330
1E81
100
AcDbProxyObject
 90
      499
 91
      511
 93
     5304
310
40D054060020000020000003200101A000080002A5058000000C100000000000000340FD012E07A17AD46E2B8FCB81E85EB51B8AE3F2E07A17AD46E2B8FCB81E85EB51B8AE3F02B5E8DC0F42B1CFC0AD7A3703D0AC73F419019018000000C1003FBFFFFFE02B5E8DC0F42A9CFD029018000000C1003FBFFFFFE02B5E8DC0F4
310
2A9CFD049018000000C1003FBFFFFFE02B5E8DC0F42A9CFD089018000000C1003FBFFFFFE02B5E8DC0F42A9CFD109018000000C1003FBFFFFFE02B5E8DC0F42A9CFD209018000000C1003FBFFFFFE02B5E8DC0F42A9CFD01405075F5449544C450041501A8000000C800406800020000A9416000000304000AD7A3703D0AC7
310
3F404B81E85EB51B8AE3F2E07A17AD46E2B8FCB81E85EB51B8AE3F2E07A17AD46E2B8FC0AD7A3703D0AC73F02B5E8DC0F42B1CFD0640640600000030400FEFFFFFF80AD7A3703D0AA73F40A40600000030400FEFFFFFF80AD7A3703D0AA73F41240600000030400FEFFFFFF80AD7A3703D0AA73F42240600000030400FEFFF
310
FFF80AD7A3703D0AA73F44240600000030400FEFFFFFF80AD7A3703D0AA73F48240600000030400FEFFFFFF80AD7A3703D0AA73F409014217D2115051115480105406A0000003200101A000080002A5028000000C10002B5E8DC0F42B1CFD012E07A17AD46E2B8FCB81E85EB51B8AE3F2E07A17AD46E2B8FCB81E85EB51B8A
310
E3F02B5E8DC0F42B1CFC0AD7A3703D0AC73F419019018000000C1003FBFFFFFE02B5E8DC0F42A9CFD029018000000C1003FBFFFFFE02B5E8DC0F42A9CFD049018000000C1003FBFFFFFE02B5E8DC0F42A9CFD089018000000C1003FBFFFFFE02B5E8DC0F42A9CFD109018000000C1003FBFFFFFE02B5E8DC0F42A9CFD20901
310
8000000C1003FBFFFFFE02B5E8DC0F42A9CFD03409065F444154410000
340
16
340
0
340
0
340
0
340
0
340
0
340
0
340
16
340
0
340
0
340
0
340
0
340
0
340
0
340
16
340
0
340
0
340
0
340
0
340
0
340
0
 94
        0
1001
ACAD
1000
AcadProxyRoundTripData
1071
      509
1071
   655383
1070
     0
  0
XRECORD
  5
1F4E
102
{ACAD_REACTORS
330
1E81
102
}
330
1E81
100
AcDbXrecord
102
ACAD_ROUNDTRIP_PRE2007_TABLESTYLE
 90
      512
 91
        0
  1

 92
      512
 93
        0
  2

 94
      512
 95
        0
  3

  0
ENDSEC
  0
EOF
