  0
SECTION
  2
HEADER
  9
$ACADVER
  1
AC1014
  9
$ACADMAINTVER
 70
     9
  9
$DWGCODEPAGE
  3
ANSI_932
  9
$INSBASE
 10
0.0
 20
0.0
 30
0.0
  9
$EXTMIN
 10
40.30718446534786
 20
96.80496885088684
 30
0.0
  9
$EXTMAX
 10
1054.751400033246
 20
747.401473432762
 30
0.0
  9
$LIMMIN
 10
0.0
 20
0.0
  9
$LIMMAX
 10
297.0
 20
210.0
  9
$ORTHOMODE
 70
     1
  9
$REGENMODE
 70
     1
  9
$FILLMODE
 70
     1
  9
$QTEXTMODE
 70
     0
  9
$MIRRTEXT
 70
     0
  9
$DRAGMODE
 70
     2
  9
$LTSCALE
 40
3.0
  9
$OSMODE
 70
    37
  9
$ATTMODE
 70
     1
  9
$TEXTSIZE
 40
2.0
  9
$TRACEWID
 40
1.0
  9
$TEXTSTYLE
  7
STANDARD
  9
$CLAYER
  8
0
  9
$CELTYPE
  6
BYLAYER
  9
$CECOLOR
 62
   256
  9
$CELTSCALE
 40
1.0
  9
$DELOBJ
 70
     1
  9
$DISPSILH
 70
     0
  9
$DIMSCALE
 40
3.0
  9
$DIMASZ
 40
1.8
  9
$DIMEXO
 40
0.625
  9
$DIMDLI
 40
3.75
  9
$DIMRND
 40
0.0
  9
$DIMDLE
 40
0.0
  9
$DIMEXE
 40
0.8
  9
$DIMTP
 40
0.0
  9
$DIMTM
 40
0.0
  9
$DIMTXT
 40
1.8
  9
$DIMCEN
 40
2.5
  9
$DIMTSZ
 40
0.0
  9
$DIMTOL
 70
     0
  9
$DIMLIM
 70
     0
  9
$DIMTIH
 70
     0
  9
$DIMTOH
 70
     0
  9
$DIMSE1
 70
     0
  9
$DIMSE2
 70
     0
  9
$DIMTAD
 70
     1
  9
$DIMZIN
 70
     8
  9
$DIMBLK
  1

  9
$DIMASO
 70
     1
  9
$DIMSHO
 70
     1
  9
$DIMPOST
  1

  9
$DIMAPOST
  1

  9
$DIMALT
 70
     0
  9
$DIMALTD
 70
     4
  9
$DIMALTF
 40
0.0394
  9
$DIMLFAC
 40
1.0
  9
$DIMTOFL
 70
     1
  9
$DIMTVP
 40
0.0
  9
$DIMTIX
 70
     0
  9
$DIMSOXD
 70
     0
  9
$DIMSAH
 70
     0
  9
$DIMBLK1
  1

  9
$DIMBLK2
  1

  9
$DIMSTYLE
  2
STANDARD
  9
$DIMCLRD
 70
     0
  9
$DIMCLRE
 70
     0
  9
$DIMCLRT
 70
     0
  9
$DIMTFAC
 40
1.0
  9
$DIMGAP
 40
0.75
  9
$DIMJUST
 70
     0
  9
$DIMSD1
 70
     0
  9
$DIMSD2
 70
     0
  9
$DIMTOLJ
 70
     1
  9
$DIMTZIN
 70
     0
  9
$DIMALTZ
 70
     0
  9
$DIMALTTZ
 70
     0
  9
$DIMFIT
 70
     3
  9
$DIMUPT
 70
     0
  9
$DIMUNIT
 70
     8
  9
$DIMDEC
 70
     2
  9
$DIMTDEC
 70
     2
  9
$DIMALTU
 70
     8
  9
$DIMALTTD
 70
     4
  9
$DIMTXSTY
  7
STANDARD
  9
$DIMAUNIT
 70
     0
  9
$LUNITS
 70
     2
  9
$LUPREC
 70
     3
  9
$SKETCHINC
 40
1.0
  9
$FILLETRAD
 40
10.0
  9
$AUNITS
 70
     0
  9
$AUPREC
 70
     2
  9
$MENU
  1
.
  9
$ELEVATION
 40
0.0
  9
$PELEVATION
 40
0.0
  9
$THICKNESS
 40
0.0
  9
$LIMCHECK
 70
     0
  9
$BLIPMODE
 70
     0
  9
$CHAMFERA
 40
0.0
  9
$CHAMFERB
 40
0.0
  9
$CHAMFERC
 40
20.0
  9
$CHAMFERD
 40
0.0
  9
$SKPOLY
 70
     0
  9
$TDCREATE
 40
2454411.434690023
  9
$TDUPDATE
 40
2454425.689543727
  9
$TDINDWG
 40
0.0101546296
  9
$TDUSRTIMER
 40
0.0101546296
  9
$USRTIMER
 70
     1
  9
$ANGBASE
 50
0.0
  9
$ANGDIR
 70
     0
  9
$PDMODE
 70
     0
  9
$PDSIZE
 40
-10.0
  9
$PLINEWID
 40
0.0
  9
$COORDS
 70
     0
  9
$SPLFRAME
 70
     0
  9
$SPLINETYPE
 70
     6
  9
$SPLINESEGS
 70
     8
  9
$ATTDIA
 70
     0
  9
$ATTREQ
 70
     1
  9
$HANDLING
 70
-16383
  9
$HANDSEED
  5
1FC1
  9
$SURFTAB1
 70
     6
  9
$SURFTAB2
 70
     6
  9
$SURFTYPE
 70
     6
  9
$SURFU
 70
     6
  9
$SURFV
 70
     6
  9
$UCSNAME
  2

  9
$UCSORG
 10
0.0
 20
0.0
 30
0.0
  9
$UCSXDIR
 10
1.0
 20
0.0
 30
0.0
  9
$UCSYDIR
 10
0.0
 20
1.0
 30
0.0
  9
$PUCSNAME
  2

  9
$PUCSORG
 10
0.0
 20
0.0
 30
0.0
  9
$PUCSXDIR
 10
1.0
 20
0.0
 30
0.0
  9
$PUCSYDIR
 10
0.0
 20
1.0
 30
0.0
  9
$USERI1
 70
     0
  9
$USERI2
 70
     0
  9
$USERI3
 70
     0
  9
$USERI4
 70
     0
  9
$USERI5
 70
     0
  9
$USERR1
 40
0.0
  9
$USERR2
 40
0.0
  9
$USERR3
 40
0.0
  9
$USERR4
 40
0.0
  9
$USERR5
 40
0.0
  9
$WORLDVIEW
 70
     1
  9
$SHADEDGE
 70
     3
  9
$SHADEDIF
 70
    70
  9
$TILEMODE
 70
     1
  9
$MAXACTVP
 70
    48
  9
$PINSBASE
 10
0.0
 20
0.0
 30
0.0
  9
$PLIMCHECK
 70
     0
  9
$PEXTMIN
 10
0.0
 20
0.0
 30
0.0
  9
$PEXTMAX
 10
0.0
 20
0.0
 30
0.0
  9
$PLIMMIN
 10
0.0
 20
0.0
  9
$PLIMMAX
 10
12.0
 20
9.0
  9
$UNITMODE
 70
     0
  9
$VISRETAIN
 70
     1
  9
$PLINEGEN
 70
     0
  9
$PSLTSCALE
 70
     1
  9
$TREEDEPTH
 70
  3020
  9
$PICKSTYLE
 70
     1
  9
$CMLSTYLE
  2
STANDARD
  9
$CMLJUST
 70
     0
  9
$CMLSCALE
 40
1.0
  9
$PROXYGRAPHICS
 70
     1
  9
$MEASUREMENT
 70
     0
  0
ENDSEC
  0
SECTION
  2
CLASSES
  0
CLASS
  1
DICTIONARYVAR
  2
AcDbDictionaryVar
  3
AutoCAD 2000
 90
        0
280
     0
281
     0
  0
CLASS
  1
ACDBDICTIONARYWDFLT
  2
AcDbDictionaryWithDefault
  3
AutoCAD 2000
 90
        0
280
     0
281
     0
  0
CLASS
  1
ACDBPLACEHOLDER
  2
AcDbPlaceHolder
  3
AutoCAD 2000
 90
        0
280
     0
281
     0
  0
CLASS
  1
LAYOUT
  2
AcDbLayout
  3
AutoCAD 2000
 90
        0
280
     0
281
     0
  0
CLASS
  1
MATERIAL
  2
AcDbMaterial
  3
ObjectDBX Classes
 90
     1153
280
     0
281
     0
  0
CLASS
  1
VISUALSTYLE
  2
AcDbVisualStyle
  3
ObjectDBX Classes
 90
     4095
280
     0
281
     0
  0
CLASS
  1
TABLESTYLE
  2
AcDbTableStyle
  3
ObjectDBX Classes
 90
     4095
280
     0
281
     0
  0
CLASS
  1
SCALE
  2
AcDbScale
  3
ObjectDBX Classes
 90
     1153
280
     0
281
     0
  0
CLASS
  1
MLEADERSTYLE
  2
AcDbMLeaderStyle
  3
ACDB_MLEADERSTYLE_CLASS
 90
     4095
280
     0
281
     0
  0
CLASS
  1
CELLSTYLEMAP
  2
AcDbCellStyleMap
  3
ObjectDBX Classes
 90
     1152
280
     0
281
     0
  0
CLASS
  1
SORTENTSTABLE
  2
AcDbSortentsTable
  3
AutoCAD 2000
 90
        0
280
     0
281
     0
  0
CLASS
  1
ACAD_PROXY_OBJECT_WRAPPER
  2
AcDbProxyObjectWrapper
  3
AutoCAD 2000
 90
        0
280
     0
281
     0
  0
CLASS
  1
LONG_TRANSACTION
  2
AcDbLongTransaction
  3
AutoCAD 2000
 90
        0
280
     0
281
     0
  0
CLASS
  1
LWPOLYLINE
  2
AcDbPolyline
  3
AutoCAD 2000
 90
        0
280
     0
281
     1
  0
CLASS
  1
HATCH
  2
AcDbHatch
  3
AutoCAD 2000
 90
        0
280
     0
281
     1
  0
CLASS
  1
XRECORD
  2
AcDbXrecord
  3
AutoCAD 2000
 90
        0
280
     0
281
     0
  0
ENDSEC
  0
SECTION
  2
TABLES
  0
TABLE
  2
VPORT
  5
6E
102
{ACAD_XDICTIONARY
360
1E79
102
}
330
0
100
AcDbSymbolTable
 70
     2
  0
VPORT
  5
1F9B
330
6E
100
AcDbSymbolTableRecord
100
AcDbViewportTableRecord
  2
*ACTIVE
 70
     0
 10
0.0
 20
0.0
 11
1.0
 21
1.0
 12
556.0109420103835
 22
406.4029742897427
 13
0.0
 23
0.0
 14
10.0
 24
10.0
 15
10.0
 25
10.0
 16
0.0
 26
0.0
 36
1.0
 17
0.0
 27
0.0
 37
0.0
 40
686.6614183100335
 41
1.753504672897196
 42
50.0
 43
0.0
 44
0.0
 50
0.0
 51
0.0
 71
     0
 72
   100
 73
     1
 74
     3
 75
     0
 76
     0
 77
     0
 78
     0
  0
ENDTAB
  0
TABLE
  2
LTYPE
  5
69
330
0
100
AcDbSymbolTable
 70
     7
  0
LTYPE
  5
6A
330
69
100
AcDbSymbolTableRecord
100
AcDbLinetypeTableRecord
  2
BYBLOCK
 70
     0
  3

 72
    65
 73
     0
 40
0.0
  0
LTYPE
  5
6B
330
69
100
AcDbSymbolTableRecord
100
AcDbLinetypeTableRecord
  2
BYLAYER
 70
     0
  3

 72
    65
 73
     0
 40
0.0
  0
LTYPE
  5
8
330
69
100
AcDbSymbolTableRecord
100
AcDbLinetypeTableRecord
  2
CONTINUOUS
 70
     0
  3
Solid line
 72
    65
 73
     0
 40
0.0
  0
LTYPE
  5
27C
330
69
100
AcDbSymbolTableRecord
100
AcDbLinetypeTableRecord
  2
SEKKEI_A2_
 70
     0
  3
center(A2)  ____ _ ____ _ ____ _ ____ _ ____ _ 
 72
    65
 73
     4
 40
14.28749999999999
 49
9.525
 74
     0
 49
-1.587499999999999
 74
     0
 49
1.587499999999999
 74
     0
 49
-1.587499999999999
 74
     0
  0
LTYPE
  5
7F0
330
69
100
AcDbSymbolTableRecord
100
AcDbLinetypeTableRecord
  2
HIDDEN3
 70
     0
  3
Hidden (.3x) _ _ _ _ _ _ _ _ _ _ _ _ _ _ _ _ _
 72
    65
 73
     2
 40
2.857499999999999
 49
1.905
 74
     0
 49
-0.9525
 74
     0
  0
LTYPE
  5
ADB
330
69
100
AcDbSymbolTableRecord
100
AcDbLinetypeTableRecord
  2
CENS
 70
     0
  3
(一点鎖線１)---- - ---- - ---- - ---- - ---- - 
 72
    65
 73
     4
 40
7.0
 49
4.0
 74
     0
 49
-1.0
 74
     0
 49
1.0
 74
     0
 49
-1.0
 74
     0
  0
LTYPE
  5
1885
330
69
100
AcDbSymbolTableRecord
100
AcDbLinetypeTableRecord
  2
SEKKEI-P_A4_
 70
     0
  3
Phantom(A4)  ____ _ _ ____ _ _ ____ _ _ _____
 72
    65
 73
     6
 40
15.0
 49
7.5
 74
     0
 49
-1.5
 74
     0
 49
1.5
 74
     0
 49
-1.5
 74
     0
 49
1.5
 74
     0
 49
-1.5
 74
     0
  0
LTYPE
  5
1886
330
69
100
AcDbSymbolTableRecord
100
AcDbLinetypeTableRecord
  2
SEKKEI_P_S
 70
     0
  3
Phantom_S   __ _ _ __ _ _ __ _ _ ___
 72
    65
 73
     6
 40
7.5
 49
3.75
 74
     0
 49
-0.75
 74
     0
 49
0.75
 74
     0
 49
-0.75
 74
     0
 49
0.75
 74
     0
 49
-0.75
 74
     0
  0
ENDTAB
  0
TABLE
  2
LAYER
  5
66
102
{ACAD_XDICTIONARY
360
ADC
102
}
330
0
100
AcDbSymbolTable
 70
    10
  0
LAYER
  5
5E
102
{ACAD_XDICTIONARY
360
1E5E
102
}
330
66
100
AcDbSymbolTableRecord
100
AcDbLayerTableRecord
  2
0
 70
     0
 62
     7
  6
CONTINUOUS
  0
LAYER
  5
3E
102
{ACAD_XDICTIONARY
360
1E60
102
}
330
66
100
AcDbSymbolTableRecord
100
AcDbLayerTableRecord
  2
CENTER
 70
     0
 62
     3
  6
SEKKEI_A2_
  0
LAYER
  5
2B5
102
{ACAD_XDICTIONARY
360
1E66
102
}
330
66
100
AcDbSymbolTableRecord
100
AcDbLayerTableRecord
  2
HIDS
 70
     0
 62
     1
  6
HIDDEN3
  0
LAYER
  5
2BA
102
{ACAD_XDICTIONARY
360
1E68
102
}
330
66
100
AcDbSymbolTableRecord
100
AcDbLayerTableRecord
  2
HOJO
 70
     0
 62
     4
  6
CONTINUOUS
  0
LAYER
  5
3FA
102
{ACAD_XDICTIONARY
360
1E6C
102
}
330
66
100
AcDbSymbolTableRecord
100
AcDbLayerTableRecord
  2
TITLE
 70
     0
 62
     4
  6
CONTINUOUS
  0
LAYER
  5
1887
102
{ACAD_XDICTIONARY
360
1888
102
}
330
66
100
AcDbSymbolTableRecord
100
AcDbLayerTableRecord
  2
PHAS
 70
     0
 62
     2
  6
SEKKEI-P_A4_
  0
ENDTAB
  0
TABLE
  2
STYLE
  5
67
330
0
100
AcDbSymbolTable
 70
     2
  0
STYLE
  5
16
330
67
100
AcDbSymbolTableRecord
100
AcDbTextStyleTableRecord
  2
STANDARD
 70
     0
 40
0.0
 41
1.0
 50
0.0
 71
     0
 42
2.0
  3
simplex.shx
  4
extfont.shx
  0
ENDTAB
  0
TABLE
  2
VIEW
  5
6C
330
0
100
AcDbSymbolTable
 70
     0
  0
ENDTAB
  0
TABLE
  2
UCS
  5
6D
330
0
100
AcDbSymbolTable
 70
     0
  0
ENDTAB
  0
TABLE
  2
APPID
  5
70
330
0
100
AcDbSymbolTable
 70
     3
  0
APPID
  5
71
330
70
100
AcDbSymbolTableRecord
100
AcDbRegAppTableRecord
  2
ACAD
 70
     0
  0
APPID
  5
1E5A
330
70
100
AcDbSymbolTableRecord
100
AcDbRegAppTableRecord
  2
ACAD_MLEADERVER
 70
     0
  0
APPID
  5
1E5D
330
70
100
AcDbSymbolTableRecord
100
AcDbRegAppTableRecord
  2
ACAD_DSTYLE_DIMRADIAL_EXTENSION
 70
     0
  0
ENDTAB
  0
TABLE
  2
DIMSTYLE
  5
72
330
0
100
AcDbSymbolTable
 70
     1
  0
DIMSTYLE
105
73
330
72
100
AcDbSymbolTableRecord
100
AcDbDimStyleTableRecord
  2
STANDARD
 70
     0
  3

  4

  5

  6

  7

 40
3.0
 41
1.8
 42
0.625
 43
3.75
 44
0.8
 45
0.0
 46
0.0
 47
0.0
 48
0.0
140
1.8
141
2.5
142
0.0
143
0.0394
144
1.0
145
0.0
146
1.0
147
0.75
 71
     0
 72
     0
 73
     0
 74
     0
 75
     0
 76
     0
 77
     1
 78
     8
170
     0
171
     4
172
     1
173
     0
174
     0
175
     0
176
     0
177
     0
178
     0
270
     8
271
     2
272
     2
273
     8
274
     4
340
16
275
     0
280
     0
281
     0
282
     0
283
     1
284
     0
285
     0
286
     0
287
     3
288
     0
  0
ENDTAB
  0
TABLE
  2
BLOCK_RECORD
  5
1
330
0
100
AcDbSymbolTable
 70
    55
  0
BLOCK_RECORD
  5
2
102
{ACAD_XDICTIONARY
360
1FBD
102
}
330
1
100
AcDbSymbolTableRecord
100
AcDbBlockTableRecord
  2
*MODEL_SPACE
  0
BLOCK_RECORD
  5
1F96
102
{ACAD_XDICTIONARY
360
1FBF
102
}
330
1
100
AcDbSymbolTableRecord
100
AcDbBlockTableRecord
  2
*PAPER_SPACE
  0
ENDTAB
  0
ENDSEC
  0
SECTION
  2
BLOCKS
  0
BLOCK
  5
5D
330
2
100
AcDbEntity
  8
0
100
AcDbBlockBegin
  2
*MODEL_SPACE
 70
     0
 10
0.0
 20
0.0
 30
0.0
  3
*MODEL_SPACE
  1

  0
ENDBLK
  5
5F
330
2
100
AcDbEntity
  8
0
100
AcDbBlockEnd
  0
BLOCK
  5
1F98
330
1F96
100
AcDbEntity
 67
     1
  8
0
100
AcDbBlockBegin
  2
*PAPER_SPACE
 70
     0
 10
0.0
 20
0.0
 30
0.0
  3
*PAPER_SPACE
  1

  0
ENDBLK
  5
1F99
330
1F96
100
AcDbEntity
 67
     1
  8
0
100
AcDbBlockEnd
  0
ENDSEC
  0
SECTION
  2
ENTITIES
  0
TEXT
  5
EF2
330
2
100
AcDbEntity
  8
TITLE
100
AcDbText
 10
327.4562837644969
 20
679.0808812781099
 30
0.0
 40
7.5
  1
AFCZ22S-7~10M750S3
100
AcDbText
  0
TEXT
  5
EF3
330
2
100
AcDbEntity
  8
TITLE
100
AcDbText
 10
327.4562837644969
 20
667.5808812781099
 30
0.0
 40
7.5
  1
AFCZ22S-7~10L750S3
100
AcDbText
  0
LINE
  5
EF5
330
2
100
AcDbEntity
  8
CENTER
100
AcDbLine
 10
201.3072064653462
 20
342.6915438420888
 30
0.0
 11
201.3072064653462
 21
464.6915438420888
 31
0.0
  0
LINE
  5
EF6
330
2
100
AcDbEntity
  8
CENTER
100
AcDbLine
 10
262.3072064653425
 20
403.6915438420888
 30
0.0
 11
40.30718446534786
 21
403.6915438420888
 31
0.0
  0
LINE
  5
EF7
330
2
100
AcDbEntity
  8
CENTER
100
AcDbLine
 10
674.8567709205063
 20
457.2981455598856
 30
0.0
 11
567.6435674849082
 21
350.0849421242872
 31
0.0
  0
LINE
  5
EF8
330
2
100
AcDbEntity
  8
CENTER
100
AcDbLine
 10
567.6435674849146
 20
457.2981455598842
 30
0.0
 11
674.8567709205095
 21
350.0849421242888
 31
0.0
  0
LINE
  5
EF9
330
2
100
AcDbEntity
  8
CENTER
100
AcDbLine
 10
621.2501692027091
 20
747.401473432762
 30
0.0
 11
621.2501692027109
 21
589.4015804327619
 31
0.0
  0
LINE
  5
EFA
330
2
100
AcDbEntity
  8
CENTER
100
AcDbLine
 10
560.5076118025387
 20
684.4015804327691
 30
0.0
 11
782.2501912027111
 21
684.4015804327691
 31
0.0
  0
LINE
  5
EFB
330
2
100
AcDbEntity
  8
CENTER
100
AcDbLine
 10
586.8237623315182
 20
446.1179507132838
 30
0.0
 11
570.8237623315182
 21
446.1179507132838
 31
0.0
  0
LINE
  5
EFC
330
2
100
AcDbEntity
  8
CENTER
100
AcDbLine
 10
578.8237623315145
 20
454.1179507132838
 30
0.0
 11
578.8237623315145
 21
438.1179507132838
 31
0.0
  0
LINE
  5
EFD
330
2
100
AcDbEntity
  8
CENTER
100
AcDbLine
 10
586.8237623315182
 20
361.2651369708997
 30
0.0
 11
570.8237623315182
 21
361.2651369708997
 31
0.0
  0
LINE
  5
EFE
330
2
100
AcDbEntity
  8
CENTER
100
AcDbLine
 10
578.8237623315182
 20
369.2651369708981
 30
0.0
 11
578.8237623315182
 21
353.2651369708981
 31
0.0
  0
LINE
  5
EFF
330
2
100
AcDbEntity
  8
CENTER
100
AcDbLine
 10
671.6765760739055
 20
361.2651369708981
 30
0.0
 11
655.6765760739055
 21
361.2651369708981
 31
0.0
  0
LINE
  5
F00
330
2
100
AcDbEntity
  8
CENTER
100
AcDbLine
 10
663.6765760739018
 20
369.2651369708981
 30
0.0
 11
663.6765760739018
 21
353.2651369708981
 31
0.0
  0
LINE
  5
F01
330
2
100
AcDbEntity
  8
CENTER
100
AcDbLine
 10
671.6765760739036
 20
446.1179507132836
 30
0.0
 11
655.6765760739036
 21
446.1179507132836
 31
0.0
  0
LINE
  5
F02
330
2
100
AcDbEntity
  8
CENTER
100
AcDbLine
 10
663.6765760739036
 20
454.1179507132841
 30
0.0
 11
663.6765760739036
 21
438.117950713284
 31
0.0
  0
CIRCLE
  5
F03
330
2
100
AcDbEntity
  8
CENTER
100
AcDbCircle
 10
621.2501692027109
 20
403.691543842091
 30
0.0
 40
60.0
  0
CIRCLE
  5
F04
330
2
100
AcDbEntity
  8
0
100
AcDbCircle
 10
621.2501692027109
 20
403.691543842091
 30
0.0
 40
34.0
  0
CIRCLE
  5
F05
330
2
100
AcDbEntity
  8
0
100
AcDbCircle
 10
621.2501692027109
 20
403.691543842091
 30
0.0
 40
45.0
  0
CIRCLE
  5
F06
330
2
100
AcDbEntity
  8
HOJO
100
AcDbCircle
 10
578.8237623315182
 20
361.2651369708981
 30
0.0
 40
4.0
  0
CIRCLE
  5
F07
330
2
100
AcDbEntity
  8
0
100
AcDbCircle
 10
578.8237623315182
 20
361.2651369708981
 30
0.0
 40
3.2
  0
CIRCLE
  5
F08
330
2
100
AcDbEntity
  8
0
100
AcDbCircle
 10
621.2501692027109
 20
403.691543842091
 30
0.0
 40
26.0
  0
CIRCLE
  5
F09
330
2
100
AcDbEntity
  8
HOJO
100
AcDbCircle
 10
578.8237623315182
 20
446.1179507132838
 30
0.0
 40
4.0
  0
CIRCLE
  5
F0A
330
2
100
AcDbEntity
  8
0
100
AcDbCircle
 10
578.8237623315182
 20
446.1179507132838
 30
0.0
 40
3.2
  0
LINE
  5
F0B
330
2
100
AcDbEntity
  8
0
100
AcDbLine
 10
701.750191202711
 20
453.1915438420916
 30
0.0
 11
701.7501912027074
 21
354.1915438420908
 31
0.0
  0
LINE
  5
F0C
330
2
100
AcDbEntity
  8
0
100
AcDbLine
 10
717.2501912027111
 20
352.1915438420908
 30
0.0
 11
717.2501912027111
 21
455.1915438420911
 31
0.0
  0
CIRCLE
  5
F0D
330
2
100
AcDbEntity
  8
0
100
AcDbCircle
 10
663.6765760739055
 20
361.2651369708981
 30
0.0
 40
3.2
  0
CIRCLE
  5
F0E
330
2
100
AcDbEntity
  8
HOJO
100
AcDbCircle
 10
663.6765760739055
 20
361.2651369708981
 30
0.0
 40
4.0
  0
ARC
  5
F0F
330
2
100
AcDbEntity
  8
0
100
AcDbCircle
 10
703.7501912027074
 20
354.6915438420906
 30
0.0
 40
2.0
100
AcDbArc
 50
179.9999999999967
 51
270.0
  0
LINE
  5
F10
330
2
100
AcDbEntity
  8
0
100
AcDbLine
 10
717.2501912027111
 20
352.6915438420908
 30
0.0
 11
703.7501912027074
 21
352.6915438420906
 31
0.0
  0
CIRCLE
  5
F11
330
2
100
AcDbEntity
  8
0
100
AcDbCircle
 10
663.6765760739036
 20
446.1179507132841
 30
0.0
 40
3.2
  0
CIRCLE
  5
F12
330
2
100
AcDbEntity
  8
HOJO
100
AcDbCircle
 10
663.6765760739036
 20
446.1179507132841
 30
0.0
 40
4.0
  0
ARC
  5
F13
330
2
100
AcDbEntity
  8
0
100
AcDbCircle
 10
703.7501912027111
 20
452.6915438420913
 30
0.0
 40
2.0
100
AcDbArc
 50
90.0
 51
179.9999999999967
  0
LINE
  5
F14
330
2
100
AcDbEntity
  8
0
100
AcDbLine
 10
717.2501912027111
 20
454.6915438420911
 30
0.0
 11
703.7501912027111
 21
454.6915438420913
 31
0.0
  0
LINE
  5
F15
330
2
100
AcDbEntity
  8
0
100
AcDbLine
 10
572.3948758605712
 20
721.4015804327669
 30
0.0
 11
669.6364588731231
 21
721.4015804327714
 31
0.0
  0
LINE
  5
F16
330
2
100
AcDbEntity
  8
0
100
AcDbLine
 10
570.2501692027109
 20
713.9015804327691
 30
0.0
 11
570.9701357954492
 21
631.4015804327691
 31
0.0
  0
LINE
  5
F17
330
2
100
AcDbEntity
  8
0
100
AcDbLine
 10
576.2501692027109
 20
626.4015804327691
 30
0.0
 11
666.2501692027109
 21
626.4015804327691
 31
0.0
  0
LINE
  5
F18
330
2
100
AcDbEntity
  8
0
100
AcDbLine
 10
576.2501692027109
 20
631.4015804327691
 30
0.0
 11
576.2501692027109
 21
626.4015804327691
 31
0.0
  0
LINE
  5
F19
330
2
100
AcDbEntity
  8
0
100
AcDbLine
 10
570.9701357954492
 20
631.4015804327691
 30
0.0
 11
671.5276452098016
 21
631.4015804327691
 31
0.0
  0
LINE
  5
F1A
330
2
100
AcDbEntity
  8
0
100
AcDbLine
 10
666.2501692027109
 20
631.4015804327691
 30
0.0
 11
666.2501692027109
 21
626.4015804327691
 31
0.0
  0
LINE
  5
F1B
330
2
100
AcDbEntity
  8
0
100
AcDbLine
 10
671.9901692027097
 20
684.4015804327691
 30
0.0
 11
671.5276452098016
 21
631.4015804327691
 31
0.0
  0
ARC
  5
F1C
330
2
100
AcDbEntity
  8
0
100
AcDbCircle
 10
676.6849192219644
 20
649.4015804327691
 30
0.0
 40
5.0
100
AcDbArc
 50
90.0
 51
179.5000000000019
  0
ARC
  5
F1D
330
2
100
AcDbEntity
  8
0
100
AcDbCircle
 10
673.950974454424
 20
679.9015804327694
 30
0.0
 40
2.0
100
AcDbArc
 50
90.0
 51
179.5000000000019
  0
ARC
  5
F1E
330
2
100
AcDbEntity
  8
0
100
AcDbCircle
 10
674.0320736647101
 20
688.9015804327691
 30
0.0
 40
2.0
100
AcDbArc
 50
179.5000000000019
 51
270.0
  0
LINE
  5
F1F
330
2
100
AcDbEntity
  8
0
100
AcDbLine
 10
694.6984829445538
 20
646.4015804327691
 30
0.0
 11
696.5389678677021
 21
646.4015804327691
 31
0.0
  0
LINE
  5
F20
330
2
100
AcDbEntity
  8
0
100
AcDbLine
 10
694.6984829445538
 20
722.4015804327692
 30
0.0
 11
696.5389678677021
 21
722.4015804327692
 31
0.0
  0
LINE
  5
F21
330
2
100
AcDbEntity
  8
0
100
AcDbLine
 10
691.7551041830757
 20
684.4015804327691
 30
0.0
 11
692.6991682946028
 21
720.4539343293848
 31
0.0
  0
ARC
  5
F22
330
2
100
AcDbEntity
  8
0
100
AcDbCircle
 10
694.6984829445538
 20
720.4015804327691
 30
0.0
 40
2.0
100
AcDbArc
 50
90.0
 51
178.5000000000005
  0
LINE
  5
F23
330
2
100
AcDbEntity
  8
0
100
AcDbLine
 10
687.6437115539812
 20
713.4015804327732
 30
0.0
 11
672.2327266028789
 21
713.4015804327732
 31
0.0
  0
ARC
  5
F24
330
2
100
AcDbEntity
  8
0
100
AcDbCircle
 10
125.8071844653478
 20
446.691543842094
 30
0.0
 40
5.0
100
AcDbArc
 50
180.0000000000032
 51
270.0
  0
LINE
  5
F25
330
2
100
AcDbEntity
  8
0
100
AcDbLine
 10
120.8071844653478
 20
354.1915438420938
 30
0.0
 11
120.8071844653496
 21
453.1915438420945
 31
0.0
  0
LINE
  5
F26
330
2
100
AcDbEntity
  8
0
100
AcDbLine
 10
105.3071844653478
 20
455.1915438420945
 30
0.0
 11
105.3071844653478
 21
403.6915438420942
 31
0.0
  0
ARC
  5
F27
330
2
100
AcDbEntity
  8
0
100
AcDbCircle
 10
118.8071844653496
 20
452.6915438420947
 30
0.0
 40
2.0
100
AcDbArc
 50
359.9999999999967
 51
90.0
  0
LINE
  5
F28
330
2
100
AcDbEntity
  8
0
100
AcDbLine
 10
105.3071844653478
 20
454.6915438420943
 30
0.0
 11
118.8071844653496
 21
454.6915438420947
 31
0.0
  0
LINE
  5
F29
330
2
100
AcDbEntity
  8
0
100
AcDbLine
 10
105.3071844653478
 20
352.1915438420943
 30
0.0
 11
105.3071844653478
 21
403.6915438420942
 31
0.0
  0
ARC
  5
F2A
330
2
100
AcDbEntity
  8
0
100
AcDbCircle
 10
118.8071844653478
 20
354.6915438420938
 30
0.0
 40
2.0
100
AcDbArc
 50
270.0
 51
0.0
  0
ARC
  5
F2B
330
2
100
AcDbEntity
  8
0
100
AcDbCircle
 10
125.8071844653478
 20
360.6915438420942
 30
0.0
 40
5.0
100
AcDbArc
 50
90.0
 51
179.9999999999967
  0
LINE
  5
F2C
330
2
100
AcDbEntity
  8
0
100
AcDbLine
 10
105.3071844653478
 20
352.6915438420942
 30
0.0
 11
118.8071844653478
 21
352.6915438420938
 31
0.0
  0
ARC
  5
F2D
330
2
100
AcDbEntity
  8
0
100
AcDbCircle
 10
201.3072064653425
 20
552.6915438420887
 30
0.0
 40
200.0
100
AcDbArc
 50
264.1053016135962
 51
275.8946983864037
  0
ARC
  5
F2E
330
2
100
AcDbEntity
  8
0
100
AcDbCircle
 10
174.6050775350178
 20
294.0663395201045
 30
0.0
 40
60.0
100
AcDbArc
 50
84.10530161359629
 51
101.8050678104414
  0
LINE
  5
F2F
330
2
100
AcDbEntity
  8
0
100
AcDbLine
 10
158.3072064653407
 20
352.691543842089
 30
0.0
 11
161.3072064653425
 21
352.6915438420893
 31
0.0
  0
ARC
  5
F30
330
2
100
AcDbEntity
  8
0
100
AcDbCircle
 10
161.3072064653425
 20
357.6915438420892
 30
0.0
 40
5.0
100
AcDbArc
 50
270.0
 51
281.8050678104415
  0
LINE
  5
F31
330
2
100
AcDbEntity
  8
0
100
AcDbLine
 10
244.3072064653425
 20
352.691543842089
 30
0.0
 11
241.3072064653425
 21
352.6915438420888
 31
0.0
  0
ARC
  5
F32
330
2
100
AcDbEntity
  8
0
100
AcDbCircle
 10
228.0093353956673
 20
294.0663395201043
 30
0.0
 40
60.0
100
AcDbArc
 50
78.19493218955852
 51
95.89469838640374
  0
ARC
  5
F33
330
2
100
AcDbEntity
  8
0
100
AcDbCircle
 10
241.3072064653425
 20
357.6915438420888
 30
0.0
 40
5.0
100
AcDbArc
 50
258.1949321895585
 51
270.0
  0
ARC
  5
F34
330
2
100
AcDbEntity
  8
0
100
AcDbCircle
 10
247.3072064653425
 20
363.6915438420888
 30
0.0
 40
5.0
100
AcDbArc
 50
0.0
 51
11.80506781046984
  0
LINE
  5
F35
330
2
100
AcDbEntity
  8
0
100
AcDbLine
 10
252.3072064653425
 20
360.691543842089
 30
0.0
 11
252.3072064653425
 21
363.6915438420865
 31
0.0
  0
ARC
  5
F36
330
2
100
AcDbEntity
  8
0
100
AcDbCircle
 10
310.9324107873272
 20
376.9894149117634
 30
0.0
 40
60.0
100
AcDbArc
 50
174.1053016136085
 51
191.8050678104698
  0
ARC
  5
F37
330
2
100
AcDbEntity
  8
0
100
AcDbCircle
 10
52.30720646534257
 20
403.6915438420888
 30
0.0
 40
200.0
100
AcDbArc
 50
354.1053016136085
 51
5.894698386391452
  0
ARC
  5
F38
330
2
100
AcDbEntity
  8
0
100
AcDbCircle
 10
310.9324107873272
 20
430.3936727724136
 30
0.0
 40
60.0
100
AcDbArc
 50
168.1949321895301
 51
185.8946983863914
  0
ARC
  5
F39
330
2
100
AcDbEntity
  8
0
100
AcDbCircle
 10
247.3072064653425
 20
443.6915438420888
 30
0.0
 40
5.0
100
AcDbArc
 50
348.1949321895301
 51
0.0
  0
LINE
  5
F3A
330
2
100
AcDbEntity
  8
0
100
AcDbLine
 10
252.3072064653425
 20
443.6915438420865
 30
0.0
 11
252.3072064653425
 21
446.6915438420888
 31
0.0
  0
ARC
  5
F3B
330
2
100
AcDbEntity
  8
0
100
AcDbCircle
 10
228.0093353956673
 20
513.316748164073
 30
0.0
 40
60.0
100
AcDbArc
 50
264.1053016135962
 51
281.8050678104415
  0
ARC
  5
F3C
330
2
100
AcDbEntity
  8
0
100
AcDbCircle
 10
241.3072064653425
 20
449.6915438420884
 30
0.0
 40
5.0
100
AcDbArc
 50
90.0
 51
101.8050678104414
  0
LINE
  5
F3D
330
2
100
AcDbEntity
  8
0
100
AcDbLine
 10
244.3072064653425
 20
454.6915438420888
 30
0.0
 11
241.3072064653425
 21
454.6915438420888
 31
0.0
  0
ARC
  5
F3E
330
2
100
AcDbEntity
  8
0
100
AcDbCircle
 10
201.3072064653425
 20
254.6915438420888
 30
0.0
 40
200.0
100
AcDbArc
 50
84.10530161359629
 51
95.89469838640374
  0
ARC
  5
F3F
330
2
100
AcDbEntity
  8
0
100
AcDbCircle
 10
174.6050775350178
 20
513.3167481640734
 30
0.0
 40
60.0
100
AcDbArc
 50
258.1949321895585
 51
275.8946983864037
  0
ARC
  5
F40
330
2
100
AcDbEntity
  8
0
100
AcDbCircle
 10
161.3072064653425
 20
449.6915438420888
 30
0.0
 40
5.0
100
AcDbArc
 50
78.19493218955852
 51
90.0
  0
LINE
  5
F41
330
2
100
AcDbEntity
  8
0
100
AcDbLine
 10
161.3072064653425
 20
454.6915438420888
 30
0.0
 11
158.3072064653535
 21
454.6915438420888
 31
0.0
  0
ARC
  5
F42
330
2
100
AcDbEntity
  8
0
100
AcDbCircle
 10
621.2501692027109
 20
254.6915438420886
 30
0.0
 40
200.0
100
AcDbArc
 50
84.10530161364862
 51
95.89469838635137
  0
ARC
  5
F43
330
2
100
AcDbEntity
  8
0
100
AcDbCircle
 10
647.9522981330356
 20
513.316748164073
 30
0.0
 40
60.0
100
AcDbArc
 50
264.1053016135962
 51
281.8050678104415
  0
LINE
  5
F44
330
2
100
AcDbEntity
  8
0
100
AcDbLine
 10
664.2501692027109
 20
454.6915438420883
 30
0.0
 11
661.2501692027109
 21
454.6915438420881
 31
0.0
  0
ARC
  5
F45
330
2
100
AcDbEntity
  8
0
100
AcDbCircle
 10
661.2501692027109
 20
449.6915438420881
 30
0.0
 40
5.0
100
AcDbArc
 50
90.0
 51
101.8050678104414
  0
LINE
  5
F46
330
2
100
AcDbEntity
  8
0
100
AcDbLine
 10
578.2501692027109
 20
454.6915438420886
 30
0.0
 11
581.2501692027109
 21
454.6915438420886
 31
0.0
  0
ARC
  5
F47
330
2
100
AcDbEntity
  8
0
100
AcDbCircle
 10
594.5480402723843
 20
513.3167481640732
 30
0.0
 40
60.0
100
AcDbArc
 50
258.1949321895051
 51
275.8946983863513
  0
ARC
  5
F48
330
2
100
AcDbEntity
  8
0
100
AcDbCircle
 10
581.2501692027109
 20
449.6915438420885
 30
0.0
 40
5.0
100
AcDbArc
 50
78.19493218950516
 51
90.0
  0
ARC
  5
F49
330
2
100
AcDbEntity
  8
0
100
AcDbCircle
 10
575.2501692027109
 20
443.6915438420888
 30
0.0
 40
5.0
100
AcDbArc
 50
180.0
 51
191.8050678104639
  0
LINE
  5
F4A
330
2
100
AcDbEntity
  8
0
100
AcDbLine
 10
570.2501692027109
 20
446.6915438420886
 30
0.0
 11
570.2501692027109
 21
443.6915438420911
 31
0.0
  0
ARC
  5
F4B
330
2
100
AcDbEntity
  8
0
100
AcDbCircle
 10
511.6249648807244
 20
430.3936727724142
 30
0.0
 40
60.0
100
AcDbArc
 50
354.1053016136085
 51
11.80506781046401
  0
ARC
  5
F4C
330
2
100
AcDbEntity
  8
0
100
AcDbCircle
 10
770.2501692027109
 20
403.6915438420888
 30
0.0
 40
200.0
100
AcDbArc
 50
174.1053016136085
 51
185.8946983863914
  0
ARC
  5
F4D
330
2
100
AcDbEntity
  8
0
100
AcDbCircle
 10
511.6249648807244
 20
376.989414911764
 30
0.0
 40
60.0
100
AcDbArc
 50
348.194932189536
 51
5.894698386391452
  0
ARC
  5
F4E
330
2
100
AcDbEntity
  8
0
100
AcDbCircle
 10
575.2501692027109
 20
363.6915438420888
 30
0.0
 40
5.0
100
AcDbArc
 50
168.1949321895359
 51
180.0
  0
LINE
  5
F4F
330
2
100
AcDbEntity
  8
0
100
AcDbLine
 10
570.2501692027109
 20
363.6915438420911
 30
0.0
 11
570.2501692027109
 21
360.6915438420888
 31
0.0
  0
ARC
  5
F50
330
2
100
AcDbEntity
  8
0
100
AcDbCircle
 10
594.5480402723843
 20
294.0663395201043
 30
0.0
 40
60.0
100
AcDbArc
 50
84.10530161364862
 51
101.8050678104414
  0
ARC
  5
F51
330
2
100
AcDbEntity
  8
0
100
AcDbCircle
 10
581.2501692027109
 20
357.6915438420892
 30
0.0
 40
5.0
100
AcDbArc
 50
270.0
 51
281.8050678104415
  0
LINE
  5
F52
330
2
100
AcDbEntity
  8
0
100
AcDbLine
 10
578.2501692027109
 20
352.6915438420886
 30
0.0
 11
581.2501692027109
 21
352.6915438420888
 31
0.0
  0
ARC
  5
F53
330
2
100
AcDbEntity
  8
0
100
AcDbCircle
 10
621.2501692027109
 20
552.6915438420885
 30
0.0
 40
200.0
100
AcDbArc
 50
264.1053016135962
 51
275.8946983863513
  0
ARC
  5
F54
330
2
100
AcDbEntity
  8
0
100
AcDbCircle
 10
647.9522981330338
 20
294.0663395201041
 30
0.0
 40
60.0
100
AcDbArc
 50
78.19493218950516
 51
95.89469838635137
  0
ARC
  5
F55
330
2
100
AcDbEntity
  8
0
100
AcDbCircle
 10
661.2501692027109
 20
357.6915438420886
 30
0.0
 40
5.0
100
AcDbArc
 50
258.1949321895051
 51
270.0
  0
LINE
  5
F56
330
2
100
AcDbEntity
  8
0
100
AcDbLine
 10
661.2501692027109
 20
352.6915438420888
 30
0.0
 11
664.2501692027073
 21
352.6915438420888
 31
0.0
  0
ARC
  5
F57
330
2
100
AcDbEntity
  8
0
100
AcDbCircle
 10
244.3072064653462
 20
360.6915438420942
 30
0.0
 40
8.0
100
AcDbArc
 50
270.0
 51
0.0
  0
ARC
  5
F58
330
2
100
AcDbEntity
  8
0
100
AcDbCircle
 10
158.3072064653425
 20
360.6915438420945
 30
0.0
 40
8.0
100
AcDbArc
 50
179.9999999999967
 51
270.0
  0
ARC
  5
F59
330
2
100
AcDbEntity
  8
0
100
AcDbCircle
 10
244.3072064653462
 20
446.6915438420943
 30
0.0
 40
8.0
100
AcDbArc
 50
0.0
 51
90.0
  0
LINE
  5
F5A
330
2
100
AcDbEntity
  8
0
100
AcDbLine
 10
127.8071844653442
 20
365.691543842089
 30
0.0
 11
125.8071844653478
 21
365.6915438420893
 31
0.0
  0
LINE
  5
F5B
330
2
100
AcDbEntity
  8
0
100
AcDbLine
 10
127.8071844653478
 20
441.6915438420947
 30
0.0
 11
125.807184465346
 21
441.6915438420952
 31
0.0
  0
ARC
  5
F5C
330
2
100
AcDbEntity
  8
0
100
AcDbCircle
 10
578.2501692027091
 20
446.6915438420825
 30
0.0
 40
8.0
100
AcDbArc
 50
90.0
 51
180.0
  0
ARC
  5
F5D
330
2
100
AcDbEntity
  8
0
100
AcDbCircle
 10
664.2501692027127
 20
446.6915438420825
 30
0.0
 40
8.0
100
AcDbArc
 50
359.9999999999967
 51
90.0
  0
ARC
  5
F5E
330
2
100
AcDbEntity
  8
0
100
AcDbCircle
 10
578.2501692027091
 20
360.6915438420827
 30
0.0
 40
8.0
100
AcDbArc
 50
180.0
 51
270.0
  0
ARC
  5
F5F
330
2
100
AcDbEntity
  8
0
100
AcDbCircle
 10
664.2501692027073
 20
360.6915438420829
 30
0.0
 40
8.0
100
AcDbArc
 50
270.0
 51
0.0
  0
LINE
  5
F60
330
2
100
AcDbEntity
  8
0
100
AcDbLine
 10
150.3072064653534
 20
360.691543842094
 30
0.0
 11
150.3072064653534
 21
446.6915438420888
 31
0.0
  0
LINE
  5
F61
330
2
100
AcDbEntity
  8
0
100
AcDbLine
 10
672.2501692027054
 20
446.6915438420826
 30
0.0
 11
672.2501692027091
 21
360.6915438420831
 31
0.0
  0
LINE
  5
F62
330
2
100
AcDbEntity
  8
0
100
AcDbLine
 10
149.8072064653444
 20
396.0103980942292
 30
0.0
 11
149.8072064653462
 21
411.3726895899484
 31
0.0
  0
LINE
  5
F63
330
2
100
AcDbEntity
  8
0
100
AcDbLine
 10
145.307206465348
 20
433.6915438420888
 30
0.0
 11
134.8071844653478
 21
433.6915438420888
 31
0.0
  0
LINE
  5
F64
330
2
100
AcDbEntity
  8
0
100
AcDbLine
 10
129.8071844653478
 20
439.6915438420938
 30
0.0
 11
129.8071844653478
 21
367.6915438420842
 31
0.0
  0
ARC
  5
F65
330
2
100
AcDbEntity
  8
0
100
AcDbCircle
 10
134.8071844653478
 20
438.6915438420888
 30
0.0
 40
5.0
100
AcDbArc
 50
180.0
 51
270.0
  0
ARC
  5
F66
330
2
100
AcDbEntity
  8
0
100
AcDbCircle
 10
145.307206465348
 20
438.6915438420888
 30
0.0
 40
5.0
100
AcDbArc
 50
270.0
 51
0.0
  0
ARC
  5
F67
330
2
100
AcDbEntity
  8
0
100
AcDbCircle
 10
127.8071844653478
 20
439.6915438420938
 30
0.0
 40
2.0
100
AcDbArc
 50
0.0
 51
89.99999999994789
  0
LINE
  5
F68
330
2
100
AcDbEntity
  8
0
100
AcDbLine
 10
129.8071844653478
 20
396.0103980942292
 30
0.0
 11
150.3072064653516
 21
396.0103980942292
 31
0.0
  0
LINE
  5
F69
330
2
100
AcDbEntity
  8
0
100
AcDbLine
 10
129.8071844653478
 20
411.3726895899485
 30
0.0
 11
150.3072064653516
 21
411.3726895899481
 31
0.0
  0
ARC
  5
F6A
330
2
100
AcDbEntity
  8
0
100
AcDbCircle
 10
145.307206465348
 20
368.6915438420883
 30
0.0
 40
5.0
100
AcDbArc
 50
359.9999999999967
 51
90.0
  0
LINE
  5
F6B
330
2
100
AcDbEntity
  8
0
100
AcDbLine
 10
145.307206465348
 20
373.6915438420883
 30
0.0
 11
134.807184465346
 21
373.691543842089
 31
0.0
  0
ARC
  5
F6C
330
2
100
AcDbEntity
  8
0
100
AcDbCircle
 10
134.8071844653442
 20
368.6915438420888
 30
0.0
 40
5.0
100
AcDbArc
 50
90.0
 51
179.9999999999967
  0
ARC
  5
F6D
330
2
100
AcDbEntity
  8
0
100
AcDbCircle
 10
127.8071844653442
 20
367.6915438420842
 30
0.0
 40
2.0
100
AcDbArc
 50
270.0
 51
0.0
  0
LINE
  5
F6E
330
2
100
AcDbEntity
  8
0
100
AcDbLine
 10
674.2501692027072
 20
406.1915438420887
 30
0.0
 11
690.7501912027075
 21
406.1915438420887
 31
0.0
  0
LINE
  5
F6F
330
2
100
AcDbEntity
  8
0
100
AcDbLine
 10
674.2501692027072
 20
401.1915438420888
 30
0.0
 11
690.7501912027075
 21
401.1915438420888
 31
0.0
  0
LINE
  5
F70
330
2
100
AcDbEntity
  8
0
100
AcDbLine
 10
674.0320736647101
 20
686.9015804327691
 30
0.0
 11
689.8722552451564
 21
686.9015804327691
 31
0.0
  0
LINE
  5
F71
330
2
100
AcDbEntity
  8
0
100
AcDbLine
 10
673.950974454424
 20
681.9015804327693
 30
0.0
 11
689.8722552451618
 21
681.9015804327693
 31
0.0
  0
LINE
  5
F72
330
2
100
AcDbEntity
  8
0
100
AcDbLine
 10
691.7551041830812
 20
684.4015804327691
 30
0.0
 11
692.6991682946028
 21
648.3492265361533
 31
0.0
  0
ARC
  5
F73
330
2
100
AcDbEntity
  8
0
100
AcDbCircle
 10
694.6984829445538
 20
648.4015804327691
 30
0.0
 40
2.0
100
AcDbArc
 50
181.5000000000027
 51
270.0
  0
LINE
  5
F74
330
2
100
AcDbEntity
  8
0
100
AcDbLine
 10
676.6849192219644
 20
654.4015804327691
 30
0.0
 11
687.6698974755491
 21
654.4015804327694
 31
0.0
  0
ARC
  5
F75
330
2
100
AcDbEntity
  8
0
100
AcDbCircle
 10
687.6698974755491
 20
649.4015804327694
 30
0.0
 40
5.0
100
AcDbArc
 50
1.500000000002716
 51
90.0
  0
ARC
  5
F76
330
2
100
AcDbEntity
  8
0
100
AcDbCircle
 10
158.3072064653535
 20
446.6915438420888
 30
0.0
 40
8.0
100
AcDbArc
 50
90.0
 51
180.0
  0
ARC
  5
F77
330
2
100
AcDbEntity
  8
0
100
AcDbCircle
 10
687.6437115539812
 20
718.4015804327732
 30
0.0
 40
5.0
100
AcDbArc
 50
270.0
 51
358.499999999994
  0
LINE
  5
F78
330
2
100
AcDbEntity
  8
0
100
AcDbLine
 10
615.8938411403852
 20
360.691543842077
 30
0.0
 11
618.0538420713856
 21
360.6915438420765
 31
0.0
  0
LINE
  5
F79
330
2
100
AcDbEntity
  8
0
100
AcDbLine
 10
618.8938411403906
 20
366.6915438420856
 30
0.0
 11
615.8938411403852
 21
360.691543842077
 31
0.0
  0
ARC
  5
F7A
330
2
100
AcDbEntity
  8
0
100
AcDbCircle
 10
623.8737865703971
 20
364.6515438420822
 30
0.0
 40
2.040000000002968
100
AcDbArc
 50
307.5189678668038
 51
90.0
  0
LINE
  5
F7B
330
2
100
AcDbEntity
  8
0
100
AcDbLine
 10
625.1161956051419
 20
363.0335142408708
 30
0.0
 11
626.606497265033
 21
360.691543842077
 31
0.0
  0
LINE
  5
F7C
330
2
100
AcDbEntity
  8
0
100
AcDbLine
 10
624.4464963340343
 20
360.6915438420765
 30
0.0
 11
626.606497265033
 21
360.691543842077
 31
0.0
  0
LINE
  5
F7D
330
2
100
AcDbEntity
  8
0
100
AcDbLine
 10
620.0338411403919
 20
360.6915438420765
 30
0.0
 11
621.8337865703944
 21
360.6915438420763
 31
0.0
  0
LINE
  5
F7E
330
2
100
AcDbEntity
  8
0
100
AcDbLine
 10
618.5038420713846
 20
361.5915438420782
 30
0.0
 11
618.0538420713856
 21
360.6915438420765
 31
0.0
  0
LINE
  5
F7F
330
2
100
AcDbEntity
  8
0
100
AcDbLine
 10
618.5038420713846
 20
361.5915438420782
 30
0.0
 11
620.0338411403919
 21
361.591543842078
 31
0.0
  0
LINE
  5
F80
330
2
100
AcDbEntity
  8
0
100
AcDbLine
 10
620.0338411403919
 20
361.591543842078
 30
0.0
 11
620.0338411403919
 21
360.6915438420765
 31
0.0
  0
LINE
  5
F81
330
2
100
AcDbEntity
  8
0
100
AcDbLine
 10
619.4638420713873
 20
363.5115438420803
 30
0.0
 11
620.0338411403919
 21
363.5115438420805
 31
0.0
  0
LINE
  5
F82
330
2
100
AcDbEntity
  8
0
100
AcDbLine
 10
620.0338411403919
 20
364.6515419800899
 30
0.0
 11
620.0338411403919
 21
363.5115438420805
 31
0.0
  0
LINE
  5
F83
330
2
100
AcDbEntity
  8
0
100
AcDbLine
 10
620.0338411403919
 20
364.6515419800899
 30
0.0
 11
619.4638420713873
 21
363.5115438420803
 31
0.0
  0
LINE
  5
F84
330
2
100
AcDbEntity
  8
0
100
AcDbLine
 10
622.088841140394
 20
364.3965438420819
 30
0.0
 11
624.4464963340343
 21
360.6915438420765
 31
0.0
  0
LINE
  5
F85
330
2
100
AcDbEntity
  8
0
100
AcDbLine
 10
621.8337865703944
 20
364.6515438420824
 30
0.0
 11
621.8337865703944
 21
360.6915438420763
 31
0.0
  0
LINE
  5
F86
330
2
100
AcDbEntity
  8
0
100
AcDbLine
 10
621.8337865703944
 20
364.6515438420824
 30
0.0
 11
623.746341140397
 21
364.6515438420824
 31
0.0
  0
LINE
  5
F87
330
2
100
AcDbEntity
  8
0
100
AcDbLine
 10
622.088841140394
 20
364.3965438420819
 30
0.0
 11
623.746341140397
 21
364.3965438420819
 31
0.0
  0
ARC
  5
F88
330
2
100
AcDbEntity
  8
0
100
AcDbCircle
 10
623.746341140397
 20
364.5240438420822
 30
0.0
 40
0.1275000000001855
100
AcDbArc
 50
270.0
 51
90.0
  0
LINE
  5
F89
330
2
100
AcDbEntity
  8
0
100
AcDbLine
 10
618.8938411403906
 20
366.6915438420856
 30
0.0
 11
623.8737865703971
 21
366.6915438420856
 31
0.0
  0
LINE
  5
F8A
330
2
100
AcDbEntity
  8
0
100
AcDbLine
 10
589.181546752323
 20
612.4015804327678
 30
0.0
 11
653.318791653097
 21
612.4015804327678
 31
0.0
  0
LINE
  5
F8B
330
2
100
AcDbEntity
  8
0
100
AcDbLine
 10
586.8286825342512
 20
624.4713794261724
 30
0.0
 11
587.1827650982851
 21
614.3317814393631
 31
0.0
  0
ARC
  5
F8C
330
2
100
AcDbEntity
  8
0
100
AcDbCircle
 10
584.8299008802134
 20
624.4015804327678
 30
0.0
 40
2.0
100
AcDbArc
 50
1.999999999997944
 51
90.0
  0
ARC
  5
F8D
330
2
100
AcDbEntity
  8
0
100
AcDbCircle
 10
589.181546752323
 20
614.4015804327677
 30
0.0
 40
2.0
100
AcDbArc
 50
181.9999999999979
 51
270.0
  0
LINE
  5
F8E
330
2
100
AcDbEntity
  8
0
100
AcDbLine
 10
655.6716558711705
 20
624.4713794261729
 30
0.0
 11
655.3175733071348
 21
614.3317814393631
 31
0.0
  0
ARC
  5
F8F
330
2
100
AcDbEntity
  8
0
100
AcDbCircle
 10
657.6704375252084
 20
624.4015804327678
 30
0.0
 40
2.0
100
AcDbArc
 50
90.0
 51
178.000000000002
  0
ARC
  5
F90
330
2
100
AcDbEntity
  8
0
100
AcDbCircle
 10
653.318791653097
 20
614.4015804327677
 30
0.0
 40
2.0
100
AcDbArc
 50
270.0
 51
358.000000000002
  0
LINE
  5
F91
330
2
100
AcDbEntity
  8
0
100
AcDbLine
 10
578.2501692027091
 20
713.4015804327691
 30
0.0
 11
578.2501692027072
 21
632.901580432771
 31
0.0
  0
LINE
  5
F92
330
2
100
AcDbEntity
  8
0
100
AcDbLine
 10
581.2501692027109
 20
713.4015804327691
 30
0.0
 11
581.250169202709
 21
632.901580432771
 31
0.0
  0
LINE
  5
F93
330
2
100
AcDbEntity
  8
0
100
AcDbLine
 10
661.263262163493
 20
713.9015804327727
 30
0.0
 11
662.0102463957302
 21
685.3754034844614
 31
0.0
  0
ARC
  5
F94
330
2
100
AcDbEntity
  8
0
100
AcDbCircle
 10
663.0099037207056
 20
685.4015804327693
 30
0.0
 40
1.0
100
AcDbArc
 50
181.5000000000027
 51
270.0
  0
LINE
  5
F95
330
2
100
AcDbEntity
  8
0
100
AcDbLine
 10
661.2501692027109
 20
684.4015804327691
 30
0.0
 11
661.2501692027109
 21
632.901580432771
 31
0.0
  0
LINE
  5
F96
330
2
100
AcDbEntity
  8
0
100
AcDbLine
 10
600.710070025536
 20
713.4015804327691
 30
0.0
 11
600.710070025536
 21
632.901580432771
 31
0.0
  0
LINE
  5
F97
330
2
100
AcDbEntity
  8
0
100
AcDbLine
 10
641.7902683798858
 20
713.4015804327691
 30
0.0
 11
641.7902683798821
 21
632.901580432771
 31
0.0
  0
LINE
  5
F98
330
2
100
AcDbEntity
  8
0
100
AcDbLine
 10
663.9883631689664
 20
713.8928538972716
 30
0.0
 11
663.9883631689664
 21
632.901580432771
 31
0.0
  0
LINE
  5
F99
330
2
100
AcDbEntity
  8
0
100
AcDbLine
 10
663.0099037207075
 20
684.4015804327693
 30
0.0
 11
671.9901692027097
 21
684.4015804327691
 31
0.0
  0
LINE
  5
F9A
330
2
100
AcDbEntity
  8
0
100
AcDbLine
 10
663.0099037207075
 20
684.4015804327693
 30
0.0
 11
663.0099037207056
 21
684.4015804327693
 31
0.0
  0
ARC
  5
F9B
330
2
100
AcDbEntity
  8
0
100
AcDbCircle
 10
696.5389678677021
 20
727.4015804327696
 30
0.0
 40
5.0
100
AcDbArc
 50
270.0
 51
358.4999999999972
  0
ARC
  5
F9C
330
2
100
AcDbEntity
  8
0
100
AcDbCircle
 10
696.5389678677021
 20
641.4015804327691
 30
0.0
 40
5.0
100
AcDbArc
 50
1.499999999996204
 51
90.0
  0
ARC
  5
F9D
330
2
100
AcDbEntity
  8
0
100
AcDbCircle
 10
674.2501692027072
 20
408.1915438420888
 30
0.0
 40
2.0
100
AcDbArc
 50
180.0000000000032
 51
270.0
  0
ARC
  5
F9E
330
2
100
AcDbEntity
  8
0
100
AcDbCircle
 10
690.7501912027075
 20
408.1915438420888
 30
0.0
 40
2.0
100
AcDbArc
 50
270.0
 51
0.0
  0
ARC
  5
F9F
330
2
100
AcDbEntity
  8
0
100
AcDbCircle
 10
690.7501912027075
 20
399.1915438420888
 30
0.0
 40
2.0
100
AcDbArc
 50
0.0
 51
90.0
  0
ARC
  5
FA0
330
2
100
AcDbEntity
  8
0
100
AcDbCircle
 10
674.2501692027072
 20
399.1915438420888
 30
0.0
 40
2.0
100
AcDbArc
 50
90.0
 51
180.0000000000032
  0
ARC
  5
FA1
330
2
100
AcDbEntity
  8
0
100
AcDbCircle
 10
689.8722552451618
 20
679.9015804327694
 30
0.0
 40
2.0
100
AcDbArc
 50
1.500000000002716
 51
90.0
  0
ARC
  5
FA2
330
2
100
AcDbEntity
  8
0
100
AcDbCircle
 10
689.8722552451564
 20
688.9015804327691
 30
0.0
 40
2.0
100
AcDbArc
 50
270.0
 51
358.4999999999875
  0
LINE
  5
FA3
330
2
100
AcDbEntity
  8
0
100
AcDbLine
 10
131.6801898115555
 20
368.6915438420861
 30
0.0
 11
148.3072064653534
 21
368.6915438420858
 31
0.0
  0
LINE
  5
FA4
330
2
100
AcDbEntity
  8
0
100
AcDbLine
 10
131.6801898115537
 20
438.6915438420858
 30
0.0
 11
148.3072064653534
 21
438.6915438420858
 31
0.0
  0
ARC
  5
FA5
330
2
100
AcDbEntity
  8
0
100
AcDbCircle
 10
131.6801898115537
 20
440.6915438420859
 30
0.0
 40
2.0
100
AcDbArc
 50
194.4775121859458
 51
270.0
  0
ARC
  5
FA6
330
2
100
AcDbEntity
  8
0
100
AcDbCircle
 10
131.6801898115555
 20
366.6915438420861
 30
0.0
 40
2.0
100
AcDbArc
 50
90.0
 51
165.5224878140541
  0
ARC
  5
FA7
330
2
100
AcDbEntity
  8
0
100
AcDbCircle
 10
148.3072064653534
 20
440.6915438420859
 30
0.0
 40
2.0
100
AcDbArc
 50
270.0
 51
0.0
  0
ARC
  5
FA8
330
2
100
AcDbEntity
  8
0
100
AcDbCircle
 10
148.3072064653534
 20
366.6915438420858
 30
0.0
 40
2.0
100
AcDbArc
 50
0.0
 51
90.0
  0
ARC
  5
FA9
330
2
100
AcDbEntity
  8
0
100
AcDbCircle
 10
674.2501692027091
 20
366.6915438420888
 30
0.0
 40
2.0
100
AcDbArc
 50
90.0
 51
180.0
  0
ARC
  5
FAA
330
2
100
AcDbEntity
  8
0
100
AcDbCircle
 10
696.7501692026981
 20
360.6915438420892
 30
0.0
 40
5.0
100
AcDbArc
 50
359.9999999999934
 51
90.0
  0
LINE
  5
FAB
330
2
100
AcDbEntity
  8
0
100
AcDbLine
 10
690.8771858564997
 20
438.691543842089
 30
0.0
 11
674.2501692027109
 21
438.6915438420892
 31
0.0
  0
ARC
  5
FAC
330
2
100
AcDbEntity
  8
0
100
AcDbCircle
 10
674.2501692027109
 20
440.6915438420893
 30
0.0
 40
2.0
100
AcDbArc
 50
180.0
 51
270.0
  0
LINE
  5
FAD
330
2
100
AcDbEntity
  8
0
100
AcDbLine
 10
690.8771858564979
 20
368.6915438420888
 30
0.0
 11
674.2501692027091
 21
368.6915438420888
 31
0.0
  0
LINE
  5
FAE
330
2
100
AcDbEntity
  8
0
100
AcDbLine
 10
696.7501692027091
 20
441.6915438420888
 30
0.0
 11
694.7501692027072
 21
441.6915438420891
 31
0.0
  0
ARC
  5
FAF
330
2
100
AcDbEntity
  8
0
100
AcDbCircle
 10
696.7501692027091
 20
446.6915438420888
 30
0.0
 40
5.0
100
AcDbArc
 50
270.0
 51
0.0
  0
LINE
  5
FB0
330
2
100
AcDbEntity
  8
0
100
AcDbLine
 10
696.7501692026981
 20
365.6915438420893
 30
0.0
 11
694.7501692027055
 21
365.6915438420893
 31
0.0
  0
ARC
  5
FB1
330
2
100
AcDbEntity
  8
0
100
AcDbCircle
 10
694.7501692027055
 20
367.6915438420893
 30
0.0
 40
2.0
100
AcDbArc
 50
180.0
 51
270.0
  0
ARC
  5
FB2
330
2
100
AcDbEntity
  8
0
100
AcDbCircle
 10
690.8771858564979
 20
366.6915438420888
 30
0.0
 40
2.0
100
AcDbArc
 50
14.47751218594586
 51
90.0
  0
LINE
  5
FB3
330
2
100
AcDbEntity
  8
0
100
AcDbLine
 10
692.7501692027073
 20
439.691543842089
 30
0.0
 11
692.7501692027054
 21
367.6915438420893
 31
0.0
  0
ARC
  5
FB4
330
2
100
AcDbEntity
  8
0
100
AcDbCircle
 10
694.7501692027072
 20
439.691543842089
 30
0.0
 40
2.0
100
AcDbArc
 50
90.0
 51
180.0
  0
ARC
  5
FB5
330
2
100
AcDbEntity
  8
0
100
AcDbCircle
 10
690.8771858564997
 20
440.6915438420888
 30
0.0
 40
2.0
100
AcDbArc
 50
270.0
 51
345.5224878140541
  0
ARC
  5
FB6
330
2
100
AcDbEntity
  8
0
100
AcDbCircle
 10
690.8254995983444
 20
647.4015804327696
 30
0.0
 40
2.0
100
AcDbArc
 50
14.47751218590557
 51
90.0
  0
LINE
  5
FB7
330
2
100
AcDbEntity
  8
0
100
AcDbLine
 10
673.6673512512262
 20
649.4015804327691
 30
0.0
 11
690.8254995983444
 21
649.4015804327696
 31
0.0
  0
ARC
  5
FB8
330
2
100
AcDbEntity
  8
0
100
AcDbCircle
 10
673.6673512512262
 20
647.4015804327692
 30
0.0
 40
2.0
100
AcDbArc
 50
90.0
 51
179.5000000000019
  0
ARC
  5
FB9
330
2
100
AcDbEntity
  8
0
100
AcDbCircle
 10
687.7501912027092
 20
438.6915438420911
 30
0.0
 40
5.0
100
AcDbArc
 50
270.0
 51
359.9999999999967
  0
ARC
  5
FBA
330
2
100
AcDbEntity
  8
0
100
AcDbCircle
 10
677.2501692027073
 20
438.6915438420915
 30
0.0
 40
5.0
100
AcDbArc
 50
179.9999999999967
 51
270.0
  0
LINE
  5
FBB
330
2
100
AcDbEntity
  8
0
100
AcDbLine
 10
677.2501692027073
 20
433.6915438420915
 30
0.0
 11
687.7501912027092
 21
433.6915438420908
 31
0.0
  0
ARC
  5
FBC
330
2
100
AcDbEntity
  8
0
100
AcDbCircle
 10
687.7501912027074
 20
368.6915438420911
 30
0.0
 40
5.0
100
AcDbArc
 50
0.0
 51
90.0
  0
ARC
  5
FBD
330
2
100
AcDbEntity
  8
0
100
AcDbCircle
 10
677.2501692027055
 20
368.6915438420911
 30
0.0
 40
5.0
100
AcDbArc
 50
90.0
 51
180.0
  0
LINE
  5
FBE
330
2
100
AcDbEntity
  8
0
100
AcDbLine
 10
677.2501692027055
 20
373.6915438420911
 30
0.0
 11
687.7501912027074
 21
373.6915438420911
 31
0.0
  0
LINE
  5
FBF
330
2
100
AcDbEntity
  8
0
100
AcDbLine
 10
105.3071844653478
 20
455.1915438420943
 30
0.0
 11
118.8071844653496
 21
455.1915438420947
 31
0.0
  0
ARC
  5
FC0
330
2
100
AcDbEntity
  8
0
100
AcDbCircle
 10
118.8071844653496
 20
453.1915438420947
 30
0.0
 40
2.0
100
AcDbArc
 50
359.9999999999967
 51
90.0
  0
LINE
  5
FC1
330
2
100
AcDbEntity
  8
0
100
AcDbLine
 10
105.3071844653478
 20
352.1915438420943
 30
0.0
 11
118.8071844653478
 21
352.1915438420938
 31
0.0
  0
ARC
  5
FC2
330
2
100
AcDbEntity
  8
0
100
AcDbCircle
 10
118.8071844653478
 20
354.1915438420938
 30
0.0
 40
2.0
100
AcDbArc
 50
270.0
 51
0.0
  0
LINE
  5
FC3
330
2
100
AcDbEntity
  8
0
100
AcDbLine
 10
717.2501912027111
 20
455.1915438420911
 30
0.0
 11
703.7501912027111
 21
455.1915438420913
 31
0.0
  0
ARC
  5
FC4
330
2
100
AcDbEntity
  8
0
100
AcDbCircle
 10
703.7501912027111
 20
453.1915438420913
 30
0.0
 40
2.0
100
AcDbArc
 50
90.0
 51
179.9999999999967
  0
LINE
  5
FC5
330
2
100
AcDbEntity
  8
0
100
AcDbLine
 10
717.2501912027111
 20
352.1915438420908
 30
0.0
 11
703.7501912027074
 21
352.1915438420906
 31
0.0
  0
ARC
  5
FC6
330
2
100
AcDbEntity
  8
0
100
AcDbCircle
 10
703.7501912027074
 20
354.1915438420906
 30
0.0
 40
2.0
100
AcDbArc
 50
179.9999999999967
 51
270.0
  0
LINE
  5
FC7
330
2
100
AcDbEntity
  8
0
100
AcDbLine
 10
701.750191202711
 20
733.4015804327716
 30
0.0
 11
701.7501912027074
 21
635.4015804327712
 31
0.0
  0
LINE
  5
FC8
330
2
100
AcDbEntity
  8
0
100
AcDbLine
 10
717.2501912027111
 20
633.4015804327711
 30
0.0
 11
717.2501912027111
 21
735.4015804327714
 31
0.0
  0
ARC
  5
FC9
330
2
100
AcDbEntity
  8
0
100
AcDbCircle
 10
703.7501912027074
 20
635.4015804327709
 30
0.0
 40
2.0
100
AcDbArc
 50
179.9999999999967
 51
270.0
  0
LINE
  5
FCA
330
2
100
AcDbEntity
  8
0
100
AcDbLine
 10
717.2501912027111
 20
633.4015804327711
 30
0.0
 11
703.7501912027074
 21
633.401580432771
 31
0.0
  0
ARC
  5
FCB
330
2
100
AcDbEntity
  8
0
100
AcDbCircle
 10
703.7501912027111
 20
733.4015804327716
 30
0.0
 40
2.0
100
AcDbArc
 50
90.0
 51
179.9999999999967
  0
LINE
  5
FCC
330
2
100
AcDbEntity
  8
0
100
AcDbLine
 10
717.2501912027111
 20
735.4015804327714
 30
0.0
 11
703.7501912027111
 21
735.4015804327716
 31
0.0
  0
LINE
  5
FCD
330
2
100
AcDbEntity
  8
CENTER
100
AcDbLine
 10
621.2501692027127
 20
473.691543842091
 30
0.0
 11
621.2501692027127
 21
333.691543842091
 31
0.0
  0
LINE
  5
FCE
330
2
100
AcDbEntity
  8
CENTER
100
AcDbLine
 10
551.2501692027109
 20
403.6915438420884
 30
0.0
 11
782.2501912027111
 21
403.6915438420881
 31
0.0
  0
LINE
  5
FCF
330
2
100
AcDbEntity
  8
0
100
AcDbLine
 10
486.6842590838806
 20
107.2674928438046
 30
0.0
 11
486.6842590838806
 21
142.2790553357463
 31
0.0
  0
LINE
  5
FD0
330
2
100
AcDbEntity
  8
0
100
AcDbLine
 10
486.6842590838825
 20
172.8072702985974
 30
0.0
 11
486.6842590838806
 21
207.8188327905382
 31
0.0
  0
LINE
  5
FD1
330
2
100
AcDbEntity
  8
0
100
AcDbLine
 10
491.6842590838806
 20
112.5431628171746
 30
0.0
 11
491.6842590838806
 21
142.3847831971973
 31
0.0
  0
LINE
  5
FD2
330
2
100
AcDbEntity
  8
0
100
AcDbLine
 10
491.6842590838806
 20
172.7015424371466
 30
0.0
 11
491.6842590838806
 21
202.5431628171741
 31
0.0
  0
LINE
  5
FD3
330
2
100
AcDbEntity
  8
0
100
AcDbLine
 10
486.6842590838806
 20
112.5431628171746
 30
0.0
 11
491.6842590838806
 21
112.5431628171746
 31
0.0
  0
LINE
  5
FD4
330
2
100
AcDbEntity
  8
0
100
AcDbLine
 10
486.6842590838806
 20
202.5431628171741
 30
0.0
 11
491.6842590838806
 21
202.5431628171741
 31
0.0
  0
LINE
  5
FD5
330
2
100
AcDbEntity
  8
0
100
AcDbLine
 10
505.6842590838824
 20
125.4745403667866
 30
0.0
 11
505.6842590838824
 21
140.5431628171719
 31
0.0
  0
LINE
  5
FD6
330
2
100
AcDbEntity
  8
0
100
AcDbLine
 10
505.6842590838824
 20
174.5430708171719
 30
0.0
 11
505.6842590838824
 21
189.6117852675598
 31
0.0
  0
LINE
  5
FD7
330
2
100
AcDbEntity
  8
0
100
AcDbLine
 10
493.6144600904773
 20
123.121676148713
 30
0.0
 11
503.7540580772875
 21
123.4757587127488
 31
0.0
  0
ARC
  5
FD8
330
2
100
AcDbEntity
  8
0
100
AcDbCircle
 10
493.6842590838824
 20
121.1228944946752
 30
0.0
 40
2.0
100
AcDbArc
 50
92.00000000000365
 51
180.0
  0
ARC
  5
FD9
330
2
100
AcDbEntity
  8
0
100
AcDbCircle
 10
503.6842590838825
 20
125.4745403667866
 30
0.0
 40
2.0
100
AcDbArc
 50
272.0000000000036
 51
0.0
  0
LINE
  5
FDA
330
2
100
AcDbEntity
  8
0
100
AcDbLine
 10
493.6144600904773
 20
191.9646494856334
 30
0.0
 11
503.7540580772875
 21
191.6105669215976
 31
0.0
  0
ARC
  5
FDB
330
2
100
AcDbEntity
  8
0
100
AcDbCircle
 10
493.6842590838824
 20
193.9634311396712
 30
0.0
 40
2.0
100
AcDbArc
 50
180.0
 51
267.9999999999963
  0
ARC
  5
FDC
330
2
100
AcDbEntity
  8
0
100
AcDbCircle
 10
503.6842590838825
 20
189.6117852675598
 30
0.0
 40
2.0
100
AcDbArc
 50
0.0
 51
87.99999999999636
  0
LINE
  5
FDD
330
2
100
AcDbEntity
  8
0
100
AcDbLine
 10
404.1842590838806
 20
106.5475262510553
 30
0.0
 11
486.6842590838806
 21
107.2674928438046
 31
0.0
  0
LINE
  5
FDE
330
2
100
AcDbEntity
  8
0
100
AcDbLine
 10
404.1842590838806
 20
208.5387993832874
 30
0.0
 11
486.6842590838806
 21
207.8188327905382
 31
0.0
  0
LINE
  5
FDF
330
2
100
AcDbEntity
  8
0
100
AcDbLine
 10
404.1842590838806
 20
106.5475262510553
 30
0.0
 11
404.1842590838806
 21
141.3501480793125
 31
0.0
  0
LINE
  5
FE0
330
2
100
AcDbEntity
  8
0
100
AcDbLine
 10
404.1842590838806
 20
173.7361775550312
 30
0.0
 11
404.1842590838806
 21
208.5387993832874
 31
0.0
  0
LINE
  5
FE1
330
2
100
AcDbEntity
  8
CENTER
100
AcDbLine
 10
433.6842590838752
 20
218.281356783456
 30
0.0
 11
433.6842590838752
 21
96.80496885088684
 31
0.0
  0
ARC
  5
FE2
330
2
100
AcDbEntity
  8
0
100
AcDbCircle
 10
158.3072064653462
 20
360.6915438420888
 30
0.0
 40
8.0
100
AcDbArc
 50
180.0
 51
270.0
  0
LINE
  5
FE3
330
2
100
AcDbEntity
  8
CENTER
100
AcDbLine
 10
158.3072064653425
 20
351.9415438420886
 30
0.0
 11
158.3072064653425
 21
369.4415438420886
 31
0.0
  0
LINE
  5
FE4
330
2
100
AcDbEntity
  8
0
100
AcDbLine
 10
158.3072064653462
 20
352.6915438420888
 30
0.0
 11
161.3072064653462
 21
352.691543842089
 31
0.0
  0
ARC
  5
FE5
330
2
100
AcDbEntity
  8
0
100
AcDbCircle
 10
161.3072064653462
 20
357.6915438420892
 30
0.0
 40
5.0
100
AcDbArc
 50
270.0
 51
281.8050678104415
  0
LINE
  5
FE6
330
2
100
AcDbEntity
  8
CENTER
100
AcDbLine
 10
149.5572064653425
 20
360.6915438420886
 30
0.0
 11
167.0572064653425
 21
360.6915438420886
 31
0.0
  0
LINE
  5
FE7
330
2
100
AcDbEntity
  8
0
100
AcDbLine
 10
150.3072064653462
 20
363.6915438420913
 30
0.0
 11
150.3072064653462
 21
360.6915438420888
 31
0.0
  0
LINE
  5
FE8
330
2
100
AcDbEntity
  8
CENTER
100
AcDbLine
 10
251.9804115460993
 20
369.1915438420886
 30
0.0
 11
241.6340013845857
 21
369.1915438420886
 31
0.0
  0
LINE
  5
FE9
330
2
100
AcDbEntity
  8
CENTER
100
AcDbLine
 10
253.0572064653461
 20
360.6915438420856
 30
0.0
 11
235.5572064653462
 21
360.6915438420856
 31
0.0
  0
CIRCLE
  5
FEA
330
2
100
AcDbEntity
  8
0
100
AcDbCircle
 10
246.8072064653425
 20
369.1915438420886
 30
0.0
 40
1.6
  0
CIRCLE
  5
FEB
330
2
100
AcDbEntity
  8
HOJO
100
AcDbCircle
 10
246.8072064653425
 20
369.1915438420886
 30
0.0
 40
2.0
  0
LINE
  5
FEC
330
2
100
AcDbEntity
  8
CENTER
100
AcDbLine
 10
246.8072064653425
 20
364.0183387613315
 30
0.0
 11
246.8072064653425
 21
374.3647489228456
 31
0.0
  0
ARC
  5
FED
330
2
100
AcDbEntity
  8
0
100
AcDbCircle
 10
158.3072064653462
 20
446.6915438420888
 30
0.0
 40
8.0
100
AcDbArc
 50
90.0
 51
180.0
  0
LINE
  5
FEE
330
2
100
AcDbEntity
  8
CENTER
100
AcDbLine
 10
158.3072064653443
 20
455.4415438420922
 30
0.0
 11
158.3072064653443
 21
437.9415438420922
 31
0.0
  0
LINE
  5
FEF
330
2
100
AcDbEntity
  8
CENTER
100
AcDbLine
 10
149.5572064653444
 20
446.6915438420922
 30
0.0
 11
167.0572064653443
 21
446.6915438420922
 31
0.0
  0
LINE
  5
FF0
330
2
100
AcDbEntity
  8
CENTER
100
AcDbLine
 10
150.6340013845948
 20
438.191543842089
 30
0.0
 11
160.9804115461084
 21
438.191543842089
 31
0.0
  0
CIRCLE
  5
FF1
330
2
100
AcDbEntity
  8
HOJO
100
AcDbCircle
 10
155.8072064653516
 20
438.191543842089
 30
0.0
 40
2.0
  0
LINE
  5
FF2
330
2
100
AcDbEntity
  8
CENTER
100
AcDbLine
 10
155.8072064653516
 20
443.364748922846
 30
0.0
 11
155.8072064653516
 21
433.018338761332
 31
0.0
  0
LINE
  5
FF3
330
2
100
AcDbEntity
  8
0
100
AcDbLine
 10
150.3072064653462
 20
446.6915438420888
 30
0.0
 11
150.3072064653462
 21
443.6915438420913
 31
0.0
  0
CIRCLE
  5
FF4
330
2
100
AcDbEntity
  8
0
100
AcDbCircle
 10
155.8072064653516
 20
438.191543842089
 30
0.0
 40
1.6
  0
LINE
  5
FF5
330
2
100
AcDbEntity
  8
0
100
AcDbLine
 10
158.3072064653462
 20
454.6915438420888
 30
0.0
 11
161.3072064653462
 21
454.6915438420888
 31
0.0
  0
ARC
  5
FF6
330
2
100
AcDbEntity
  8
0
100
AcDbCircle
 10
161.3072064653462
 20
449.6915438420888
 30
0.0
 40
5.0
100
AcDbArc
 50
78.19493218950516
 51
90.0
  0
LINE
  5
FF7
330
2
100
AcDbEntity
  8
CENTER
100
AcDbLine
 10
253.057206465348
 20
446.691543842089
 30
0.0
 11
235.557206465348
 21
446.691543842089
 31
0.0
  0
ARC
  5
FF8
330
2
100
AcDbEntity
  8
0
100
AcDbCircle
 10
226.1183896473941
 20
439.6915438420826
 30
0.0
 40
10.5
100
AcDbArc
 50
44.99999999999107
 51
90.0
  0
LINE
  5
FF9
330
2
100
AcDbEntity
  8
0
100
AcDbLine
 10
229.6539235533274
 20
443.2270777480155
 30
0.0
 11
240.8427403712722
 21
432.0382609300707
 31
0.0
  0
CIRCLE
  5
FFA
330
2
100
AcDbEntity
  8
0
100
AcDbCircle
 10
201.3072064653462
 20
403.6915438420888
 30
0.0
 40
33.00000000000153
  0
CIRCLE
  5
FFB
330
2
100
AcDbEntity
  8
0
100
AcDbCircle
 10
201.3072064653462
 20
403.6915438420888
 30
0.0
 40
35.00000000000153
  0
CIRCLE
  5
FFC
330
2
100
AcDbEntity
  8
0
100
AcDbCircle
 10
201.3072064653462
 20
403.6915438420888
 30
0.0
 40
35.50000000000153
  0
CIRCLE
  5
FFD
330
2
100
AcDbEntity
  8
0
100
AcDbCircle
 10
201.3072064653462
 20
403.6915438420888
 30
0.0
 40
32.42260000000154
  0
CIRCLE
  5
FFE
330
2
100
AcDbEntity
  8
0
100
AcDbCircle
 10
201.3072064653462
 20
403.691543842089
 30
0.0
 40
26.0
  0
CIRCLE
  5
FFF
330
2
100
AcDbEntity
  8
0
100
AcDbCircle
 10
201.3072064653462
 20
403.691543842089
 30
0.0
 40
26.57735026918937
  0
LINE
  5
1000
330
2
100
AcDbEntity
  8
0
100
AcDbLine
 10
226.1183896473941
 20
444.6915438420827
 30
0.0
 11
176.4960232832964
 21
444.6915438420831
 31
0.0
  0
LINE
  5
1001
330
2
100
AcDbEntity
  8
0
100
AcDbLine
 10
226.1183896473941
 20
450.1915438420827
 30
0.0
 11
176.4960232832964
 21
450.1915438420831
 31
0.0
  0
LINE
  5
1002
330
2
100
AcDbEntity
  8
0
100
AcDbLine
 10
230.1365656872277
 20
449.3922789334515
 30
0.0
 11
228.0318068092202
 21
444.3109415046395
 31
0.0
  0
ARC
  5
1003
330
2
100
AcDbEntity
  8
0
100
AcDbCircle
 10
226.1183896473941
 20
439.6915438420826
 30
0.0
 40
5.0
100
AcDbArc
 50
44.99999999999107
 51
90.0
  0
LINE
  5
1004
330
2
100
AcDbEntity
  8
0
100
AcDbLine
 10
161.7716725594183
 20
432.0382609300707
 30
0.0
 11
172.9604893773631
 21
443.2270777480158
 31
0.0
  0
LINE
  5
1005
330
2
100
AcDbEntity
  8
0
100
AcDbLine
 10
157.8825852628925
 20
435.9273482265967
 30
0.0
 11
169.0714020808373
 21
447.1161650445417
 31
0.0
  0
LINE
  5
1006
330
2
100
AcDbEntity
  8
0
100
AcDbLine
 10
172.4778472434628
 20
449.3922789334515
 30
0.0
 11
174.5826061214703
 21
444.3109415046395
 31
0.0
  0
ARC
  5
1007
330
2
100
AcDbEntity
  8
0
100
AcDbCircle
 10
176.4960232832964
 20
439.6915438420831
 30
0.0
 40
10.5
100
AcDbArc
 50
90.0
 51
135.0000000000089
  0
ARC
  5
1008
330
2
100
AcDbEntity
  8
0
100
AcDbCircle
 10
176.4960232832964
 20
439.6915438420831
 30
0.0
 40
5.0
100
AcDbArc
 50
90.0
 51
135.0000000000089
  0
LINE
  5
1009
330
2
100
AcDbEntity
  8
0
100
AcDbLine
 10
160.3072064653516
 20
428.5027270241378
 30
0.0
 11
160.3072064653516
 21
378.8803606600395
 31
0.0
  0
LINE
  5
100A
330
2
100
AcDbEntity
  8
0
100
AcDbLine
 10
154.8072064653516
 20
428.5027270241378
 30
0.0
 11
154.8072064653516
 21
378.8803606600398
 31
0.0
  0
LINE
  5
100B
330
2
100
AcDbEntity
  8
0
100
AcDbLine
 10
155.6064713739834
 20
432.520903063971
 30
0.0
 11
160.6878088027952
 21
430.4161441859631
 31
0.0
  0
ARC
  5
100C
330
2
100
AcDbEntity
  8
0
100
AcDbCircle
 10
165.3072064653516
 20
428.5027270241378
 30
0.0
 40
10.5
100
AcDbArc
 50
135.0000000000089
 51
180.0
  0
ARC
  5
100D
330
2
100
AcDbEntity
  8
0
100
AcDbCircle
 10
165.3072064653516
 20
428.5027270241378
 30
0.0
 40
5.0
100
AcDbArc
 50
135.0000000000089
 51
180.0
  0
LINE
  5
100E
330
2
100
AcDbEntity
  8
0
100
AcDbLine
 10
172.9604893773631
 20
364.156009936162
 30
0.0
 11
161.7716725594183
 21
375.3448267541069
 31
0.0
  0
LINE
  5
100F
330
2
100
AcDbEntity
  8
0
100
AcDbLine
 10
155.6064713739834
 20
374.8621846202066
 30
0.0
 11
160.6878088027952
 21
376.9669434982143
 31
0.0
  0
ARC
  5
1010
330
2
100
AcDbEntity
  8
0
100
AcDbCircle
 10
165.3072064653516
 20
378.8803606600398
 30
0.0
 40
10.5
100
AcDbArc
 50
180.0
 51
224.9999999999911
  0
ARC
  5
1011
330
2
100
AcDbEntity
  8
0
100
AcDbCircle
 10
165.3072064653516
 20
378.8803606600395
 30
0.0
 40
5.0
100
AcDbArc
 50
180.0
 51
224.9999999999911
  0
LINE
  5
1012
330
2
100
AcDbEntity
  8
0
100
AcDbLine
 10
169.0714020808373
 20
360.2669226396358
 30
0.0
 11
157.8825852628925
 21
371.4557394575809
 31
0.0
  0
LINE
  5
1013
330
2
100
AcDbEntity
  8
0
100
AcDbLine
 10
176.4960232832964
 20
362.6915438420947
 30
0.0
 11
226.1183896473941
 21
362.6915438420949
 31
0.0
  0
LINE
  5
1014
330
2
100
AcDbEntity
  8
0
100
AcDbLine
 10
176.4960232832964
 20
357.1915438420947
 30
0.0
 11
226.1183896473941
 21
357.1915438420949
 31
0.0
  0
LINE
  5
1015
330
2
100
AcDbEntity
  8
0
100
AcDbLine
 10
172.4778472434628
 20
357.9908087507261
 30
0.0
 11
174.5826061214703
 21
363.0721461795381
 31
0.0
  0
ARC
  5
1016
330
2
100
AcDbEntity
  8
0
100
AcDbCircle
 10
176.4960232832964
 20
367.6915438420947
 30
0.0
 40
10.5
100
AcDbArc
 50
224.9999999999911
 51
270.0
  0
ARC
  5
1017
330
2
100
AcDbEntity
  8
0
100
AcDbCircle
 10
176.4960232832964
 20
367.6915438420947
 30
0.0
 40
5.0
100
AcDbArc
 50
224.9999999999911
 51
270.0
  0
ARC
  5
1018
330
2
100
AcDbEntity
  8
0
100
AcDbCircle
 10
226.1183896473941
 20
367.6915438420949
 30
0.0
 40
10.5
100
AcDbArc
 50
270.0
 51
315.0000000000089
  0
LINE
  5
1019
330
2
100
AcDbEntity
  8
0
100
AcDbLine
 10
240.8427403712722
 20
375.3448267541069
 30
0.0
 11
229.6539235533274
 21
364.156009936162
 31
0.0
  0
LINE
  5
101A
330
2
100
AcDbEntity
  8
0
100
AcDbLine
 10
230.1365656872277
 20
357.9908087507258
 30
0.0
 11
228.0318068092202
 21
363.0721461795381
 31
0.0
  0
ARC
  5
101B
330
2
100
AcDbEntity
  8
0
100
AcDbCircle
 10
226.1183896473941
 20
367.6915438420949
 30
0.0
 40
5.0
100
AcDbArc
 50
270.0
 51
315.0000000000089
  0
LINE
  5
101C
330
2
100
AcDbEntity
  8
0
100
AcDbLine
 10
244.731827667798
 20
371.4557394575807
 30
0.0
 11
233.5430108498532
 21
360.2669226396361
 31
0.0
  0
LINE
  5
101D
330
2
100
AcDbEntity
  8
0
100
AcDbLine
 10
242.3072064653389
 20
378.8803606600398
 30
0.0
 11
242.3072064653389
 21
428.5027270241378
 31
0.0
  0
LINE
  5
101E
330
2
100
AcDbEntity
  8
0
100
AcDbLine
 10
247.8072064653389
 20
378.8803606600395
 30
0.0
 11
247.8072064653389
 21
428.5027270241378
 31
0.0
  0
ARC
  5
101F
330
2
100
AcDbEntity
  8
0
100
AcDbCircle
 10
237.3072064653389
 20
378.8803606600395
 30
0.0
 40
10.5
100
AcDbArc
 50
315.0000000000089
 51
0.0
  0
LINE
  5
1020
330
2
100
AcDbEntity
  8
0
100
AcDbLine
 10
247.0079415567089
 20
374.8621846202063
 30
0.0
 11
241.9266041278953
 21
376.9669434982143
 31
0.0
  0
ARC
  5
1021
330
2
100
AcDbEntity
  8
0
100
AcDbCircle
 10
237.3072064653389
 20
378.8803606600398
 30
0.0
 40
5.0
100
AcDbArc
 50
315.0000000000089
 51
0.0
  0
LINE
  5
1022
330
2
100
AcDbEntity
  8
0
100
AcDbLine
 10
233.5430108498532
 20
447.1161650445416
 30
0.0
 11
244.731827667798
 21
435.9273482265967
 31
0.0
  0
ARC
  5
1023
330
2
100
AcDbEntity
  8
0
100
AcDbCircle
 10
237.3072064653389
 20
428.5027270241378
 30
0.0
 40
10.5
100
AcDbArc
 50
0.0
 51
44.99999999999107
  0
LINE
  5
1024
330
2
100
AcDbEntity
  8
0
100
AcDbLine
 10
247.0079415567089
 20
432.520903063971
 30
0.0
 11
241.9266041278953
 21
430.4161441859631
 31
0.0
  0
ARC
  5
1025
330
2
100
AcDbEntity
  8
0
100
AcDbCircle
 10
237.3072064653389
 20
428.5027270241378
 30
0.0
 40
5.0
100
AcDbArc
 50
0.0
 51
44.99999999999107
  0
LINE
  5
1026
330
2
100
AcDbEntity
  8
CENTER
100
AcDbLine
 10
147.7006047475489
 20
350.084942124292
 30
0.0
 11
254.9138081831466
 21
457.2981455598902
 31
0.0
  0
LINE
  5
1027
330
2
100
AcDbEntity
  8
CENTER
100
AcDbLine
 10
244.3072064653462
 20
455.441543842092
 30
0.0
 11
244.3072064653462
 21
437.9415438420919
 31
0.0
  0
LINE
  5
1028
330
2
100
AcDbEntity
  8
CENTER
100
AcDbLine
 10
244.3072064653462
 20
351.9415438420858
 30
0.0
 11
244.3072064653462
 21
369.4415438420858
 31
0.0
  0
LINE
  5
1029
330
2
100
AcDbEntity
  8
CENTER
100
AcDbLine
 10
254.9138081831411
 20
350.0849421242929
 30
0.0
 11
147.7006047475512
 21
457.2981455598829
 31
0.0
  0
LINE
  5
102A
330
2
100
AcDbEntity
  8
0
100
AcDbLine
 10
485.6842590838806
 20
200.5431628171866
 30
0.0
 11
404.1842590838806
 21
200.5431628171866
 31
0.0
  0
LINE
  5
102B
330
2
100
AcDbEntity
  8
0
100
AcDbLine
 10
485.6842590838806
 20
197.5431628171891
 30
0.0
 11
404.1842590838806
 21
197.5431628171891
 31
0.0
  0
LINE
  5
102C
330
2
100
AcDbEntity
  8
0
100
AcDbLine
 10
485.6842590838806
 20
178.0832619943635
 30
0.0
 11
404.1842590838806
 21
178.0832619943635
 31
0.0
  0
LINE
  5
102D
330
2
100
AcDbEntity
  8
0
100
AcDbLine
 10
485.6842590838806
 20
114.5431628171571
 30
0.0
 11
404.1842590838806
 21
114.5431628171571
 31
0.0
  0
LINE
  5
102E
330
2
100
AcDbEntity
  8
0
100
AcDbLine
 10
485.6842590838806
 20
117.5431628171546
 30
0.0
 11
404.1842590838806
 21
117.5431628171546
 31
0.0
  0
LINE
  5
102F
330
2
100
AcDbEntity
  8
0
100
AcDbLine
 10
485.6842590838806
 20
137.0030636399802
 30
0.0
 11
404.1842590838806
 21
137.0030636399802
 31
0.0
  0
LINE
  5
1030
330
2
100
AcDbEntity
  8
0
100
AcDbLine
 10
387.3842590838886
 20
124.5431628171705
 30
0.0
 11
390.6842590838879
 21
124.5431628171709
 31
0.0
  0
LINE
  5
1031
330
2
100
AcDbEntity
  8
0
100
AcDbLine
 10
383.6842590838843
 20
183.5431628171714
 30
0.0
 11
391.6842590838824
 21
183.5431628171714
 31
0.0
  0
LINE
  5
1032
330
2
100
AcDbEntity
  8
0
100
AcDbLine
 10
383.6842590838843
 20
131.5431628171718
 30
0.0
 11
391.6842590838824
 21
131.5431628171718
 31
0.0
  0
LINE
  5
1033
330
2
100
AcDbEntity
  8
0
100
AcDbLine
 10
391.6842590838843
 20
130.647906503448
 30
0.0
 11
391.6842590838843
 21
140.5431628171728
 31
0.0
  0
LINE
  5
1034
330
2
100
AcDbEntity
  8
0
100
AcDbLine
 10
391.6842590838843
 20
174.5431628171725
 30
0.0
 11
391.6842590838843
 21
184.4384191308952
 31
0.0
  0
LINE
  5
1035
330
2
100
AcDbEntity
  8
0
100
AcDbLine
 10
390.6842590838879
 20
122.5431628171709
 30
0.0
 11
390.6842590838861
 21
129.5055345838279
 31
0.0
  0
LINE
  5
1036
330
2
100
AcDbEntity
  8
0
100
AcDbLine
 10
390.6842590838733
 20
185.5807910505209
 30
0.0
 11
390.6842590838715
 21
192.5431628171505
 31
0.0
  0
LINE
  5
1037
330
2
100
AcDbEntity
  8
0
100
AcDbLine
 10
390.6842590838879
 20
122.5431628171709
 30
0.0
 11
391.1842590838879
 21
122.0431628171714
 31
0.0
  0
LINE
  5
1038
330
2
100
AcDbEntity
  8
0
100
AcDbLine
 10
390.6842590838824
 20
124.5431628171709
 30
0.0
 11
390.6842590838824
 21
122.5431628171764
 31
0.0
  0
LINE
  5
1039
330
2
100
AcDbEntity
  8
0
100
AcDbLine
 10
391.6842590838843
 20
130.647906503448
 30
0.0
 11
392.4281477913574
 21
130.6284270920979
 31
0.0
  0
LINE
  5
103A
330
2
100
AcDbEntity
  8
0
100
AcDbLine
 10
382.6842590838697
 20
189.9658125479707
 30
0.0
 11
382.6842590838733
 21
174.5431628171725
 31
0.0
  0
LINE
  5
103B
330
2
100
AcDbEntity
  8
0
100
AcDbLine
 10
382.6842590838824
 20
140.543162817173
 30
0.0
 11
382.6842590838879
 21
125.1205130863596
 31
0.0
  0
LINE
  5
103C
330
2
100
AcDbEntity
  8
0
100
AcDbLine
 10
383.6842590838843
 20
183.5431628171714
 30
0.0
 11
383.6842590838843
 21
174.5431628171727
 31
0.0
  0
LINE
  5
103D
330
2
100
AcDbEntity
  8
0
100
AcDbLine
 10
383.6842590838843
 20
140.5431628171729
 30
0.0
 11
383.6842590838824
 21
131.5431628171718
 31
0.0
  0
LINE
  5
103E
330
2
100
AcDbEntity
  8
0
100
AcDbLine
 10
383.6842590838879
 20
124.54316281717
 30
0.0
 11
384.9842590838872
 21
124.5431628171705
 31
0.0
  0
LINE
  5
103F
330
2
100
AcDbEntity
  8
0
100
AcDbLine
 10
383.6842590838879
 20
124.54316281717
 30
0.0
 11
382.6842590838879
 21
125.1205130863596
 31
0.0
  0
LINE
  5
1040
330
2
100
AcDbEntity
  8
0
100
AcDbLine
 10
385.1842590838879
 20
124.7431628171703
 30
0.0
 11
385.184259083897
 21
127.8369426112217
 31
0.0
  0
LINE
  5
1041
330
2
100
AcDbEntity
  8
0
100
AcDbLine
 10
385.1842590840771
 20
187.2493830230831
 30
0.0
 11
385.1842590840862
 21
190.3431628171725
 31
0.0
  0
LINE
  5
1042
330
2
100
AcDbEntity
  8
0
100
AcDbLine
 10
387.1842590838879
 20
124.7431628171707
 30
0.0
 11
387.3842590838886
 21
124.5431628171705
 31
0.0
  0
LINE
  5
1043
330
2
100
AcDbEntity
  8
0
100
AcDbLine
 10
387.1842590838879
 20
124.7431628171707
 30
0.0
 11
387.1842590838879
 21
128.4233524287216
 31
0.0
  0
LINE
  5
1044
330
2
100
AcDbEntity
  8
0
100
AcDbLine
 10
387.1842590838879
 20
186.6629732056222
 30
0.0
 11
387.1842590838879
 21
190.3431628171679
 31
0.0
  0
LINE
  5
1045
330
2
100
AcDbEntity
  8
0
100
AcDbLine
 10
385.3842590838886
 20
125.2431628171703
 30
0.0
 11
386.9842590838871
 21
125.2431628171705
 31
0.0
  0
LINE
  5
1046
330
2
100
AcDbEntity
  8
0
100
AcDbLine
 10
383.6842590838843
 20
131.5431628171718
 30
0.0
 11
382.6842590838842
 21
130.9658125479823
 31
0.0
  0
LINE
  5
1047
330
2
100
AcDbEntity
  8
0
100
AcDbLine
 10
383.6842590838843
 20
183.5431628171714
 30
0.0
 11
382.6842590838842
 21
184.1205130863609
 31
0.0
  0
LINE
  5
1048
330
2
100
AcDbEntity
  8
0
100
AcDbLine
 10
387.3842590838922
 20
190.5431628171728
 30
0.0
 11
390.6842590838915
 21
190.5431628171719
 31
0.0
  0
LINE
  5
1049
330
2
100
AcDbEntity
  8
HIDS
100
AcDbLine
 10
396.0984726462557
 20
203.4573763795345
 30
0.0
 11
391.7700455215218
 21
199.1289492548058
 31
0.0
  0
LINE
  5
104A
330
2
100
AcDbEntity
  8
0
100
AcDbLine
 10
390.6842590838715
 20
192.5431628171505
 30
0.0
 11
391.1842590838933
 21
193.0431628171714
 31
0.0
  0
LINE
  5
104B
330
2
100
AcDbEntity
  8
0
100
AcDbLine
 10
396.6842590838824
 20
206.5431628171709
 30
0.0
 11
396.6842590838824
 21
173.0512364548622
 31
0.0
  0
LINE
  5
104C
330
2
100
AcDbEntity
  8
0
100
AcDbLine
 10
396.6842590838824
 20
142.0350891794815
 30
0.0
 11
396.6842590838824
 21
108.5431628171725
 31
0.0
  0
LINE
  5
104D
330
2
100
AcDbEntity
  8
0
100
AcDbLine
 10
385.3842590838922
 20
189.8431628171732
 30
0.0
 11
386.9842590838926
 21
189.8431628171727
 31
0.0
  0
LINE
  5
104E
330
2
100
AcDbEntity
  8
0
100
AcDbLine
 10
387.1842590838879
 20
190.3431628171679
 30
0.0
 11
387.3842590838922
 21
190.5431628171728
 31
0.0
  0
LINE
  5
104F
330
2
100
AcDbEntity
  8
0
100
AcDbLine
 10
383.6842590838915
 20
190.5431628171737
 30
0.0
 11
382.6842590838915
 21
189.9658125479841
 31
0.0
  0
LINE
  5
1050
330
2
100
AcDbEntity
  8
0
100
AcDbLine
 10
383.6842590838915
 20
190.5431628171737
 30
0.0
 11
384.9842590838926
 21
190.5431628171732
 31
0.0
  0
LINE
  5
1051
330
2
100
AcDbEntity
  8
0
100
AcDbLine
 10
391.6842590838824
 20
184.4384191308952
 30
0.0
 11
392.4281477913574
 21
184.4578985422454
 31
0.0
  0
ARC
  5
1052
330
2
100
AcDbEntity
  8
HIDS
100
AcDbCircle
 10
394.6842590838824
 20
204.8715899419083
 30
0.0
 40
2.0
100
AcDbArc
 50
314.9999999999499
 51
0.0
  0
ARC
  5
1053
330
2
100
AcDbEntity
  8
HIDS
100
AcDbCircle
 10
393.1842590838952
 20
197.714735692432
 30
0.0
 40
2.0
100
AcDbArc
 50
134.9999999999498
 51
180.0
  0
ARC
  5
1054
330
2
100
AcDbEntity
  8
0
100
AcDbCircle
 10
384.9842590838872
 20
124.7431628171703
 30
0.0
 40
0.2
100
AcDbArc
 50
270.0
 51
359.9999999999348
  0
ARC
  5
1055
330
2
100
AcDbEntity
  8
0
100
AcDbCircle
 10
385.3842590838886
 20
125.0431628171702
 30
0.0
 40
0.2
100
AcDbArc
 50
90.0
 51
179.9999999999348
  0
ARC
  5
1056
330
2
100
AcDbEntity
  8
0
100
AcDbCircle
 10
386.9842590838871
 20
125.0431628171705
 30
0.0
 40
0.2
100
AcDbArc
 50
0.0
 51
90.0
  0
ARC
  5
1057
330
2
100
AcDbEntity
  8
0
100
AcDbCircle
 10
384.9842590838926
 20
190.3431628171729
 30
0.0
 40
0.2
100
AcDbArc
 50
0.0
 51
90.0
  0
ARC
  5
1058
330
2
100
AcDbEntity
  8
0
100
AcDbCircle
 10
385.3842590838922
 20
190.0431628171732
 30
0.0
 40
0.2
100
AcDbArc
 50
180.0
 51
269.9999999999478
  0
ARC
  5
1059
330
2
100
AcDbEntity
  8
0
100
AcDbCircle
 10
386.9842590838926
 20
190.0431628171727
 30
0.0
 40
0.2
100
AcDbArc
 50
269.9999999999478
 51
0.0
  0
LINE
  5
105A
330
2
100
AcDbEntity
  8
0
100
AcDbLine
 10
404.1842590838806
 20
173.7361775550312
 30
0.0
 11
404.1842590838788
 21
208.543162817171
 31
0.0
  0
CIRCLE
  5
105B
330
2
100
AcDbEntity
  8
0
100
AcDbCircle
 10
244.3072064653462
 20
446.691543842089
 30
0.0
 40
5.000000000000113
  0
LINE
  5
105C
330
2
100
AcDbEntity
  8
0
100
AcDbLine
 10
246.8072064653461
 20
445.248168169115
 30
0.0
 11
246.8072064653461
 21
448.1349195150628
 31
0.0
  0
LINE
  5
105D
330
2
100
AcDbEntity
  8
0
100
AcDbLine
 10
241.8072064653462
 20
445.248168169115
 30
0.0
 11
241.8072064653462
 21
448.1349195150631
 31
0.0
  0
CIRCLE
  5
105E
330
2
100
AcDbEntity
  8
0
100
AcDbCircle
 10
244.3072064653462
 20
446.691543842089
 30
0.0
 40
4.307179676972509
  0
LINE
  5
105F
330
2
100
AcDbEntity
  8
0
100
AcDbLine
 10
241.8072064653462
 20
445.248168169115
 30
0.0
 11
244.3072064653462
 21
443.8047924961408
 31
0.0
  0
LINE
  5
1060
330
2
100
AcDbEntity
  8
0
100
AcDbLine
 10
246.8072064653461
 20
445.248168169115
 30
0.0
 11
244.3072064653462
 21
443.8047924961408
 31
0.0
  0
LINE
  5
1061
330
2
100
AcDbEntity
  8
0
100
AcDbLine
 10
244.3072064653462
 20
449.5782951880372
 30
0.0
 11
241.8072064653462
 21
448.1349195150631
 31
0.0
  0
LINE
  5
1062
330
2
100
AcDbEntity
  8
0
100
AcDbLine
 10
244.3072064653462
 20
449.5782951880372
 30
0.0
 11
246.8072064653461
 21
448.1349195150628
 31
0.0
  0
CIRCLE
  5
1063
330
2
100
AcDbEntity
  8
0
100
AcDbCircle
 10
244.307206465348
 20
360.6915438420856
 30
0.0
 40
5.000000000000113
  0
LINE
  5
1064
330
2
100
AcDbEntity
  8
0
100
AcDbLine
 10
246.807206465348
 20
359.2481681691115
 30
0.0
 11
246.807206465348
 21
362.1349195150595
 31
0.0
  0
LINE
  5
1065
330
2
100
AcDbEntity
  8
0
100
AcDbLine
 10
241.8072064653498
 20
359.2481681691115
 30
0.0
 11
241.8072064653498
 21
362.1349195150597
 31
0.0
  0
CIRCLE
  5
1066
330
2
100
AcDbEntity
  8
0
100
AcDbCircle
 10
244.307206465348
 20
360.6915438420856
 30
0.0
 40
4.307179676972509
  0
LINE
  5
1067
330
2
100
AcDbEntity
  8
0
100
AcDbLine
 10
241.8072064653498
 20
359.2481681691115
 30
0.0
 11
244.3072064653498
 21
357.8047924961375
 31
0.0
  0
LINE
  5
1068
330
2
100
AcDbEntity
  8
0
100
AcDbLine
 10
246.807206465348
 20
359.2481681691115
 30
0.0
 11
244.3072064653498
 21
357.8047924961375
 31
0.0
  0
LINE
  5
1069
330
2
100
AcDbEntity
  8
0
100
AcDbLine
 10
244.307206465348
 20
363.5782951880337
 30
0.0
 11
241.8072064653498
 21
362.1349195150597
 31
0.0
  0
LINE
  5
106A
330
2
100
AcDbEntity
  8
0
100
AcDbLine
 10
244.307206465348
 20
363.5782951880337
 30
0.0
 11
246.807206465348
 21
362.1349195150595
 31
0.0
  0
CIRCLE
  5
106B
330
2
100
AcDbEntity
  8
0
100
AcDbCircle
 10
158.3072064653462
 20
360.6915438420886
 30
0.0
 40
5.000000000000113
  0
LINE
  5
106C
330
2
100
AcDbEntity
  8
0
100
AcDbLine
 10
160.8072064653462
 20
359.2481681691145
 30
0.0
 11
160.8072064653462
 21
362.1349195150624
 31
0.0
  0
LINE
  5
106D
330
2
100
AcDbEntity
  8
0
100
AcDbLine
 10
155.8072064653462
 20
359.2481681691145
 30
0.0
 11
155.8072064653462
 21
362.1349195150626
 31
0.0
  0
CIRCLE
  5
106E
330
2
100
AcDbEntity
  8
0
100
AcDbCircle
 10
158.3072064653462
 20
360.6915438420886
 30
0.0
 40
4.307179676972509
  0
LINE
  5
106F
330
2
100
AcDbEntity
  8
0
100
AcDbLine
 10
155.8072064653462
 20
359.2481681691145
 30
0.0
 11
158.3072064653462
 21
357.8047924961404
 31
0.0
  0
LINE
  5
1070
330
2
100
AcDbEntity
  8
0
100
AcDbLine
 10
160.8072064653462
 20
359.2481681691145
 30
0.0
 11
158.3072064653462
 21
357.8047924961404
 31
0.0
  0
LINE
  5
1071
330
2
100
AcDbEntity
  8
0
100
AcDbLine
 10
158.3072064653462
 20
363.5782951880367
 30
0.0
 11
155.8072064653462
 21
362.1349195150626
 31
0.0
  0
LINE
  5
1072
330
2
100
AcDbEntity
  8
0
100
AcDbLine
 10
158.3072064653462
 20
363.5782951880367
 30
0.0
 11
160.8072064653462
 21
362.1349195150624
 31
0.0
  0
CIRCLE
  5
1073
330
2
100
AcDbEntity
  8
0
100
AcDbCircle
 10
158.3072064653443
 20
446.6915438420895
 30
0.0
 40
5.000000000000113
  0
LINE
  5
1074
330
2
100
AcDbEntity
  8
0
100
AcDbLine
 10
160.8072064653443
 20
445.2481681691154
 30
0.0
 11
160.8072064653443
 21
448.1349195150634
 31
0.0
  0
LINE
  5
1075
330
2
100
AcDbEntity
  8
0
100
AcDbLine
 10
155.8072064653462
 20
445.2481681691154
 30
0.0
 11
155.8072064653462
 21
448.1349195150635
 31
0.0
  0
CIRCLE
  5
1076
330
2
100
AcDbEntity
  8
0
100
AcDbCircle
 10
158.3072064653443
 20
446.6915438420895
 30
0.0
 40
4.307179676972509
  0
LINE
  5
1077
330
2
100
AcDbEntity
  8
0
100
AcDbLine
 10
155.8072064653462
 20
445.2481681691154
 30
0.0
 11
158.3072064653462
 21
443.8047924961414
 31
0.0
  0
LINE
  5
1078
330
2
100
AcDbEntity
  8
0
100
AcDbLine
 10
160.8072064653443
 20
445.2481681691154
 30
0.0
 11
158.3072064653462
 21
443.8047924961414
 31
0.0
  0
LINE
  5
1079
330
2
100
AcDbEntity
  8
0
100
AcDbLine
 10
158.3072064653443
 20
449.5782951880376
 30
0.0
 11
155.8072064653462
 21
448.1349195150635
 31
0.0
  0
LINE
  5
107A
330
2
100
AcDbEntity
  8
0
100
AcDbLine
 10
158.3072064653443
 20
449.5782951880376
 30
0.0
 11
160.8072064653443
 21
448.1349195150634
 31
0.0
  0
LINE
  5
107B
330
2
100
AcDbEntity
  8
CENTER
  6
CENS
100
AcDbLine
 10
384.1842590838842
 20
200.5431628171871
 30
0.0
 11
410.2495848691452
 21
200.5431628171871
 31
0.0
  0
LINE
  5
107C
330
2
100
AcDbEntity
  8
0
100
AcDbLine
 10
395.1842590838842
 20
195.5431628171871
 30
0.0
 11
389.5842590838839
 21
195.5431628171871
 31
0.0
  0
LINE
  5
107D
330
2
100
AcDbEntity
  8
0
100
AcDbLine
 10
395.1842590838842
 20
205.5431628171871
 30
0.0
 11
389.5842590838839
 21
205.5431628171871
 31
0.0
  0
LINE
  5
107E
330
2
100
AcDbEntity
  8
0
100
AcDbLine
 10
395.1842590838842
 20
205.5431628171871
 30
0.0
 11
395.1842590838842
 21
195.5431628171873
 31
0.0
  0
LINE
  5
107F
330
2
100
AcDbEntity
  8
0
100
AcDbLine
 10
389.1842590838842
 20
204.8503424941594
 30
0.0
 11
389.1842590838824
 21
196.2359831402148
 31
0.0
  0
LINE
  5
1080
330
2
100
AcDbEntity
  8
0
100
AcDbLine
 10
389.5842590838821
 20
205.5431628171871
 30
0.0
 11
389.5842590838839
 21
195.5431628171871
 31
0.0
  0
LINE
  5
1081
330
2
100
AcDbEntity
  8
0
100
AcDbLine
 10
389.5842590838839
 20
205.5431628171871
 30
0.0
 11
389.1842590838842
 21
204.8503424941594
 31
0.0
  0
LINE
  5
1082
330
2
100
AcDbEntity
  8
0
100
AcDbLine
 10
389.5842590838839
 20
195.5431628171871
 30
0.0
 11
389.1842590838842
 21
196.2359831402148
 31
0.0
  0
LINE
  5
1083
330
2
100
AcDbEntity
  8
0
100
AcDbLine
 10
395.1842590838824
 20
205.5431628171871
 30
0.0
 11
396.6842590838824
 21
205.5431628171871
 31
0.0
  0
LINE
  5
1084
330
2
100
AcDbEntity
  8
0
100
AcDbLine
 10
395.1842590838842
 20
195.5431628171871
 30
0.0
 11
396.6842590838824
 21
195.5431628171871
 31
0.0
  0
LINE
  5
1085
330
2
100
AcDbEntity
  8
HIDS
100
AcDbLine
 10
391.1842590838952
 20
197.714735692432
 30
0.0
 11
391.1842590838824
 21
195.5431628171871
 31
0.0
  0
LINE
  5
1086
330
2
100
AcDbEntity
  8
0
100
AcDbLine
 10
395.1842590838842
 20
119.5431628171566
 30
0.0
 11
389.5842590838839
 21
119.5431628171566
 31
0.0
  0
LINE
  5
1087
330
2
100
AcDbEntity
  8
0
100
AcDbLine
 10
395.1842590838842
 20
109.5431628171566
 30
0.0
 11
389.5842590838839
 21
109.5431628171566
 31
0.0
  0
LINE
  5
1088
330
2
100
AcDbEntity
  8
0
100
AcDbLine
 10
395.1842590838842
 20
109.5431628171566
 30
0.0
 11
395.1842590838842
 21
119.5431628171565
 31
0.0
  0
LINE
  5
1089
330
2
100
AcDbEntity
  8
0
100
AcDbLine
 10
389.1842590838842
 20
110.2359831401843
 30
0.0
 11
389.1842590838824
 21
118.8503424941289
 31
0.0
  0
LINE
  5
108A
330
2
100
AcDbEntity
  8
0
100
AcDbLine
 10
389.5842590838821
 20
109.5431628171566
 30
0.0
 11
389.5842590838839
 21
119.5431628171566
 31
0.0
  0
LINE
  5
108B
330
2
100
AcDbEntity
  8
0
100
AcDbLine
 10
389.5842590838839
 20
109.5431628171566
 30
0.0
 11
389.1842590838842
 21
110.2359831401843
 31
0.0
  0
LINE
  5
108C
330
2
100
AcDbEntity
  8
0
100
AcDbLine
 10
389.5842590838839
 20
119.5431628171566
 30
0.0
 11
389.1842590838842
 21
118.8503424941289
 31
0.0
  0
LINE
  5
108D
330
2
100
AcDbEntity
  8
0
100
AcDbLine
 10
395.1842590838824
 20
109.5431628171566
 30
0.0
 11
396.6842590838824
 21
109.5431628171566
 31
0.0
  0
LINE
  5
108E
330
2
100
AcDbEntity
  8
0
100
AcDbLine
 10
395.1842590838842
 20
119.5431628171566
 30
0.0
 11
396.6842590838824
 21
119.5431628171566
 31
0.0
  0
LINE
  5
108F
330
2
100
AcDbEntity
  8
HIDS
100
AcDbLine
 10
396.0984726462557
 20
111.6289492548092
 30
0.0
 11
391.7700455215218
 21
115.9573763795379
 31
0.0
  0
ARC
  5
1090
330
2
100
AcDbEntity
  8
HIDS
100
AcDbCircle
 10
394.6842590838824
 20
110.2147356924354
 30
0.0
 40
2.0
100
AcDbArc
 50
0.0
 51
45.00000000005008
  0
ARC
  5
1091
330
2
100
AcDbEntity
  8
HIDS
100
AcDbCircle
 10
393.1842590838952
 20
117.3715899419117
 30
0.0
 40
2.0
100
AcDbArc
 50
180.0
 51
225.0000000000501
  0
LINE
  5
1092
330
2
100
AcDbEntity
  8
HIDS
100
AcDbLine
 10
391.1842590838952
 20
117.3715899419117
 30
0.0
 11
391.1842590838824
 21
119.5431628171566
 31
0.0
  0
LINE
  5
1093
330
2
100
AcDbEntity
  8
0
100
AcDbLine
 10
391.1842590838824
 20
195.5431628171871
 30
0.0
 11
391.1842590838824
 21
185.3630293140327
 31
0.0
  0
LINE
  5
1094
330
2
100
AcDbEntity
  8
0
100
AcDbLine
 10
391.1842590838824
 20
129.7232963203109
 30
0.0
 11
391.1842590838824
 21
119.5431628171566
 31
0.0
  0
LINE
  5
1095
330
2
100
AcDbEntity
  8
0
100
AcDbLine
 10
383.6842590838915
 20
190.5431628171737
 30
0.0
 11
383.6842590838915
 21
187.4920034091874
 31
0.0
  0
LINE
  5
1096
330
2
100
AcDbEntity
  8
0
100
AcDbLine
 10
383.6842590838879
 20
127.5943222251558
 30
0.0
 11
383.6842590838879
 21
124.54316281717
 31
0.0
  0
LINE
  5
1097
330
2
100
AcDbEntity
  8
0
100
AcDbLine
 10
387.3842590838886
 20
124.5431628171705
 30
0.0
 11
387.3842590838886
 21
128.4909311524929
 31
0.0
  0
LINE
  5
1098
330
2
100
AcDbEntity
  8
0
100
AcDbLine
 10
387.3842590838922
 20
186.5953944818496
 30
0.0
 11
387.3842590838922
 21
190.5431628171728
 31
0.0
  0
LINE
  5
1099
330
2
100
AcDbEntity
  8
0
100
AcDbLine
 10
570.2545326365926
 20
713.9015804327714
 30
0.0
 11
671.7327266028815
 21
713.9015804327709
 31
0.0
  0
LINE
  5
109A
330
2
100
AcDbEntity
  8
0
100
AcDbLine
 10
588.2501692027091
 20
730.7015804327638
 30
0.0
 11
588.2501692027091
 21
727.4015804327641
 31
0.0
  0
LINE
  5
109B
330
2
100
AcDbEntity
  8
0
100
AcDbLine
 10
586.2501692027091
 20
727.4015804327636
 30
0.0
 11
656.2501692026891
 21
727.4015804327801
 31
0.0
  0
LINE
  5
109C
330
2
100
AcDbEntity
  8
0
100
AcDbLine
 10
586.2501692027091
 20
727.4015804327636
 30
0.0
 11
585.7501692027091
 21
726.9015804327636
 31
0.0
  0
LINE
  5
109D
330
2
100
AcDbEntity
  8
0
100
AcDbLine
 10
588.2501692027091
 20
727.4015804327691
 30
0.0
 11
586.2501692027145
 21
727.4015804327691
 31
0.0
  0
LINE
  5
109E
330
2
100
AcDbEntity
  8
0
100
AcDbLine
 10
653.6728189335081
 20
735.4015804327827
 30
0.0
 11
588.8275194718972
 21
735.4015804327645
 31
0.0
  0
LINE
  5
109F
330
2
100
AcDbEntity
  8
0
100
AcDbLine
 10
588.2501692027073
 20
734.4015804327646
 30
0.0
 11
588.2501692027091
 21
733.1015804327644
 31
0.0
  0
LINE
  5
10A0
330
2
100
AcDbEntity
  8
0
100
AcDbLine
 10
588.2501692027073
 20
734.4015804327641
 30
0.0
 11
588.8275194718972
 21
735.4015804327645
 31
0.0
  0
LINE
  5
10A1
330
2
100
AcDbEntity
  8
0
100
AcDbLine
 10
588.450169202708
 20
732.9015804327646
 30
0.0
 11
654.0501692027102
 21
732.9015804325658
 31
0.0
  0
LINE
  5
10A2
330
2
100
AcDbEntity
  8
0
100
AcDbLine
 10
588.450169202708
 20
730.9015804327645
 30
0.0
 11
588.2501692027091
 21
730.7015804327638
 31
0.0
  0
LINE
  5
10A3
330
2
100
AcDbEntity
  8
0
100
AcDbLine
 10
588.450169202708
 20
730.9015804327645
 30
0.0
 11
654.0501692027065
 21
730.9015804327645
 31
0.0
  0
LINE
  5
10A4
330
2
100
AcDbEntity
  8
0
100
AcDbLine
 10
588.950169202708
 20
732.7015804327638
 30
0.0
 11
588.950169202708
 21
731.1015804327644
 31
0.0
  0
LINE
  5
10A5
330
2
100
AcDbEntity
  8
0
100
AcDbLine
 10
654.2501692027109
 20
730.7015804327598
 30
0.0
 11
654.2501692027091
 21
727.40158043276
 31
0.0
  0
LINE
  5
10A6
330
2
100
AcDbEntity
  8
HIDS
100
AcDbLine
 10
667.1643827650733
 20
721.9873668703967
 30
0.0
 11
662.835955640343
 21
726.3157939951297
 31
0.0
  0
LINE
  5
10A7
330
2
100
AcDbEntity
  8
0
100
AcDbLine
 10
656.2501692026891
 20
727.4015804327801
 30
0.0
 11
656.7501692027091
 21
726.9015804327591
 31
0.0
  0
LINE
  5
10A8
330
2
100
AcDbEntity
  8
0
100
AcDbLine
 10
671.6363827192518
 20
719.4190335037688
 30
0.0
 11
671.6845328027448
 21
713.9015804327737
 31
0.0
  0
ARC
  5
10A9
330
2
100
AcDbEntity
  8
0
100
AcDbCircle
 10
669.6364588731231
 20
719.4015804327714
 30
0.0
 40
2.0
100
AcDbArc
 50
0.5000000000176044
 51
90.0
  0
ARC
  5
10AA
330
2
100
AcDbEntity
  8
0
100
AcDbCircle
 10
572.3948758605712
 20
719.4015804327691
 30
0.0
 40
2.0
100
AcDbArc
 50
90.0
 51
178.5000000000005
  0
LINE
  5
10AB
330
2
100
AcDbEntity
  8
0
100
AcDbLine
 10
653.5501692027102
 20
732.7015804327602
 30
0.0
 11
653.5501692027102
 21
731.1015804327598
 31
0.0
  0
LINE
  5
10AC
330
2
100
AcDbEntity
  8
0
100
AcDbLine
 10
654.0501692027065
 20
730.9015804327645
 30
0.0
 11
654.2501692027109
 21
730.7015804327598
 31
0.0
  0
LINE
  5
10AD
330
2
100
AcDbEntity
  8
0
100
AcDbLine
 10
654.2501692027109
 20
734.40158043276
 30
0.0
 11
653.6728189335227
 21
735.40158043276
 31
0.0
  0
LINE
  5
10AE
330
2
100
AcDbEntity
  8
0
100
AcDbLine
 10
654.2501692027109
 20
734.40158043276
 30
0.0
 11
654.2501692027109
 21
733.1015804327599
 31
0.0
  0
ARC
  5
10AF
330
2
100
AcDbEntity
  8
HIDS
100
AcDbCircle
 10
668.5785963274467
 20
723.4015804327691
 30
0.0
 40
2.0
100
AcDbArc
 50
224.9999999999876
 51
270.0
  0
ARC
  5
10B0
330
2
100
AcDbEntity
  8
HIDS
100
AcDbCircle
 10
661.4217420779697
 20
724.9015804327573
 30
0.0
 40
2.0
100
AcDbArc
 50
44.99999999998762
 51
90.0
  0
ARC
  5
10B1
330
2
100
AcDbEntity
  8
0
100
AcDbCircle
 10
588.450169202708
 20
733.1015804327644
 30
0.0
 40
0.2
100
AcDbArc
 50
180.0
 51
269.9999999998957
  0
ARC
  5
10B2
330
2
100
AcDbEntity
  8
0
100
AcDbCircle
 10
588.7501692027073
 20
732.7015804327638
 30
0.0
 40
0.2
100
AcDbArc
 50
0.0
 51
89.99999999989578
  0
ARC
  5
10B3
330
2
100
AcDbEntity
  8
0
100
AcDbCircle
 10
588.7501692027091
 20
731.1015804327644
 30
0.0
 40
0.2
100
AcDbArc
 50
270.0
 51
0.0
  0
ARC
  5
10B4
330
2
100
AcDbEntity
  8
0
100
AcDbCircle
 10
654.0501692027102
 20
733.1015804327599
 30
0.0
 40
0.2
100
AcDbArc
 50
270.0
 51
0.0
  0
ARC
  5
10B5
330
2
100
AcDbEntity
  8
0
100
AcDbCircle
 10
653.7501692027109
 20
732.7015804327597
 30
0.0
 40
0.2
100
AcDbArc
 50
90.0
 51
179.9999999999479
  0
ARC
  5
10B6
330
2
100
AcDbEntity
  8
0
100
AcDbCircle
 10
653.7501692027109
 20
731.1015804327598
 30
0.0
 40
0.2
100
AcDbArc
 50
179.9999999999479
 51
270.0
  0
LINE
  5
10B7
330
2
100
AcDbEntity
  8
0
100
AcDbLine
 10
570.3955612106202
 20
719.453934329385
 30
0.0
 11
570.2501677069595
 21
713.9015804327682
 31
0.0
  0
LINE
  5
10B8
330
2
100
AcDbEntity
  8
0
100
AcDbLine
 10
570.2501692027109
 20
713.9015804327682
 30
0.0
 11
671.732726602877
 21
713.9015804327737
 31
0.0
  0
LINE
  5
10B9
330
2
100
AcDbEntity
  8
CENTER
  6
CENS
100
AcDbLine
 10
664.2501692027255
 20
733.9015804327734
 30
0.0
 11
664.2501692027255
 21
700.3362546475089
 31
0.0
  0
LINE
  5
10BA
330
2
100
AcDbEntity
  8
0
100
AcDbLine
 10
659.2501692027255
 20
722.9015804327687
 30
0.0
 11
659.2501692027255
 21
728.5015804327685
 31
0.0
  0
LINE
  5
10BB
330
2
100
AcDbEntity
  8
0
100
AcDbLine
 10
669.2501692027255
 20
722.9015804327687
 30
0.0
 11
669.2501692027255
 21
728.5015804327685
 31
0.0
  0
LINE
  5
10BC
330
2
100
AcDbEntity
  8
0
100
AcDbLine
 10
669.2501692027255
 20
722.9015804327687
 30
0.0
 11
659.2501692027255
 21
722.9015804327687
 31
0.0
  0
LINE
  5
10BD
330
2
100
AcDbEntity
  8
0
100
AcDbLine
 10
668.5573488796982
 20
728.9015804327687
 30
0.0
 11
659.9429895257527
 21
728.9015804327691
 31
0.0
  0
LINE
  5
10BE
330
2
100
AcDbEntity
  8
0
100
AcDbLine
 10
669.2501692027255
 20
728.5015804327691
 30
0.0
 11
659.2501692027255
 21
728.5015804327685
 31
0.0
  0
LINE
  5
10BF
330
2
100
AcDbEntity
  8
0
100
AcDbLine
 10
669.2501692027255
 20
728.5015804327685
 30
0.0
 11
668.5573488796982
 21
728.9015804327687
 31
0.0
  0
LINE
  5
10C0
330
2
100
AcDbEntity
  8
0
100
AcDbLine
 10
659.2501692027255
 20
728.5015804327685
 30
0.0
 11
659.9429895257527
 21
728.9015804327687
 31
0.0
  0
LINE
  5
10C1
330
2
100
AcDbEntity
  8
0
100
AcDbLine
 10
669.2501692027255
 20
722.9015804327691
 30
0.0
 11
669.2501692027255
 21
721.4015804327691
 31
0.0
  0
LINE
  5
10C2
330
2
100
AcDbEntity
  8
0
100
AcDbLine
 10
659.2501692027255
 20
722.9015804327687
 30
0.0
 11
659.2501692027255
 21
721.4015804327691
 31
0.0
  0
LINE
  5
10C3
330
2
100
AcDbEntity
  8
HIDS
100
AcDbLine
 10
661.4217420779697
 20
726.9015804327572
 30
0.0
 11
659.2501692027255
 21
726.9015804327692
 31
0.0
  0
LINE
  5
10C4
330
2
100
AcDbEntity
  8
0
100
AcDbLine
 10
583.2501692026945
 20
722.9015804327687
 30
0.0
 11
583.2501692026945
 21
728.5015804327685
 31
0.0
  0
LINE
  5
10C5
330
2
100
AcDbEntity
  8
0
100
AcDbLine
 10
573.2501692026946
 20
722.9015804327687
 30
0.0
 11
573.2501692026946
 21
728.5015804327685
 31
0.0
  0
LINE
  5
10C6
330
2
100
AcDbEntity
  8
0
100
AcDbLine
 10
573.2501692026946
 20
722.9015804327687
 30
0.0
 11
583.2501692026945
 21
722.9015804327687
 31
0.0
  0
LINE
  5
10C7
330
2
100
AcDbEntity
  8
0
100
AcDbLine
 10
573.9429895257218
 20
728.9015804327687
 30
0.0
 11
582.5573488796672
 21
728.9015804327691
 31
0.0
  0
LINE
  5
10C8
330
2
100
AcDbEntity
  8
0
100
AcDbLine
 10
573.2501692026946
 20
728.5015804327691
 30
0.0
 11
583.2501692026945
 21
728.5015804327685
 31
0.0
  0
LINE
  5
10C9
330
2
100
AcDbEntity
  8
0
100
AcDbLine
 10
573.2501692026946
 20
728.5015804327685
 30
0.0
 11
573.9429895257218
 21
728.9015804327687
 31
0.0
  0
LINE
  5
10CA
330
2
100
AcDbEntity
  8
0
100
AcDbLine
 10
583.2501692026945
 20
728.5015804327685
 30
0.0
 11
582.5573488796672
 21
728.9015804327687
 31
0.0
  0
LINE
  5
10CB
330
2
100
AcDbEntity
  8
0
100
AcDbLine
 10
573.2501692026946
 20
722.9015804327691
 30
0.0
 11
573.2501692026946
 21
721.4015804327691
 31
0.0
  0
LINE
  5
10CC
330
2
100
AcDbEntity
  8
0
100
AcDbLine
 10
583.2501692026945
 20
722.9015804327687
 30
0.0
 11
583.2501692026945
 21
721.4015804327691
 31
0.0
  0
LINE
  5
10CD
330
2
100
AcDbEntity
  8
HIDS
100
AcDbLine
 10
575.3359556403466
 20
721.9873668703967
 30
0.0
 11
579.6643827650751
 21
726.3157939951297
 31
0.0
  0
ARC
  5
10CE
330
2
100
AcDbEntity
  8
HIDS
100
AcDbCircle
 10
573.9217420779733
 20
723.4015804327691
 30
0.0
 40
2.0
100
AcDbArc
 50
270.0
 51
315.0000000000123
  0
ARC
  5
10CF
330
2
100
AcDbEntity
  8
HIDS
100
AcDbCircle
 10
581.0785963274503
 20
724.9015804327573
 30
0.0
 40
2.0
100
AcDbArc
 50
90.0
 51
135.0000000000123
  0
LINE
  5
10D0
330
2
100
AcDbEntity
  8
HIDS
100
AcDbLine
 10
581.0785963274503
 20
726.9015804327572
 30
0.0
 11
583.2501692026945
 21
726.9015804327692
 31
0.0
  0
LINE
  5
10D1
330
2
100
AcDbEntity
  8
0
100
AcDbLine
 10
659.2501692027255
 20
726.9015804327692
 30
0.0
 11
583.2501692026945
 21
726.9015804327692
 31
0.0
  0
LINE
  5
10D2
330
2
100
AcDbEntity
  8
0
100
AcDbLine
 10
654.2501692027109
 20
734.40158043276
 30
0.0
 11
588.2501692027073
 21
734.4015804327646
 31
0.0
  0
LINE
  5
10D3
330
2
100
AcDbEntity
  8
0
100
AcDbLine
 10
588.2501692027091
 20
730.7015804327638
 30
0.0
 11
654.2501692027109
 21
730.7015804327598
 31
0.0
  0
LINE
  5
10D4
330
2
100
AcDbEntity
  8
CENTER
  6
CENS
100
AcDbLine
 10
578.2501692026945
 20
733.9015804327689
 30
0.0
 11
578.2501692026945
 21
700.3362546475089
 31
0.0
  0
LINE
  5
10D5
330
2
100
AcDbEntity
  8
CENTER
  6
CENS
100
AcDbLine
 10
384.1842590838842
 20
114.5431628171566
 30
0.0
 11
410.2495848691452
 21
114.5431628171566
 31
0.0
  0
LINE
  5
10D6
330
2
100
AcDbEntity
  8
CENTER
100
AcDbLine
 10
528.6842590838825
 20
157.5431628171718
 30
0.0
 11
370.6843660838823
 21
157.5431628171718
 31
0.0
  0
LINE
  5
10D7
330
2
100
AcDbEntity
  8
0
100
AcDbLine
 10
518.6842590838824
 20
171.3431658171717
 30
0.0
 11
380.6843660838822
 21
171.3431658171719
 31
0.0
  0
LINE
  5
10D8
330
2
100
AcDbEntity
  8
0
100
AcDbLine
 10
485.6842590838824
 20
169.0431628171718
 30
0.0
 11
405.6843660838823
 21
169.0431628171718
 31
0.0
  0
LINE
  5
10D9
330
2
100
AcDbEntity
  8
0
100
AcDbLine
 10
514.1842120975017
 20
146.0431776848395
 30
0.0
 11
507.1842120975544
 21
146.0432063789062
 31
0.0
  0
LINE
  5
10DA
330
2
100
AcDbEntity
  8
0
100
AcDbLine
 10
514.1842590838824
 20
169.0430918171719
 30
0.0
 11
507.1842590838825
 21
169.0430918171719
 31
0.0
  0
LINE
  5
10DB
330
2
100
AcDbEntity
  8
0
100
AcDbLine
 10
518.6842590838824
 20
174.5430708171719
 30
0.0
 11
494.1293878623238
 21
174.5430708171719
 31
0.0
  0
LINE
  5
10DC
330
2
100
AcDbEntity
  8
0
100
AcDbLine
 10
518.6842590838824
 20
140.5431628171719
 30
0.0
 11
494.1294391591874
 21
140.5431628171719
 31
0.0
  0
LINE
  5
10DD
330
2
100
AcDbEntity
  8
0
100
AcDbLine
 10
514.1842590839461
 20
157.5431526847551
 30
0.0
 11
514.1842120975017
 21
146.0431776848395
 31
0.0
  0
LINE
  5
10DE
330
2
100
AcDbEntity
  8
0
100
AcDbLine
 10
516.6842142492515
 20
146.5430779907688
 30
0.0
 11
516.6842590837315
 21
157.5430779906885
 31
0.0
  0
LINE
  5
10DF
330
2
100
AcDbEntity
  8
0
100
AcDbLine
 10
518.6842590838824
 20
174.5430708171719
 30
0.0
 11
518.6842590838824
 21
140.5431628171719
 31
0.0
  0
LINE
  5
10E0
330
2
100
AcDbEntity
  8
0
100
AcDbLine
 10
516.6842142492515
 20
146.5430779907688
 30
0.0
 11
518.6842101079601
 21
145.3884688172597
 31
0.0
  0
LINE
  5
10E1
330
2
100
AcDbEntity
  8
0
100
AcDbLine
 10
516.6842142492515
 20
146.5430779907688
 30
0.0
 11
514.1842142493024
 21
146.5431066848357
 31
0.0
  0
LINE
  5
10E2
330
2
100
AcDbEntity
  8
0
100
AcDbLine
 10
514.1842590838824
 20
157.5431168171717
 30
0.0
 11
514.1842590838824
 21
169.0430918171719
 31
0.0
  0
LINE
  5
10E3
330
2
100
AcDbEntity
  8
CENTER
100
AcDbLine
 10
510.6842590838824
 20
166.8363179683229
 30
0.0
 11
510.6842590838824
 21
176.9153640323039
 31
0.0
  0
LINE
  5
10E4
330
2
100
AcDbEntity
  8
0
100
AcDbLine
 10
516.6842590838824
 20
168.5431628171718
 30
0.0
 11
516.6842590838824
 21
157.5431628171718
 31
0.0
  0
LINE
  5
10E5
330
2
100
AcDbEntity
  8
0
100
AcDbLine
 10
516.6842590838824
 20
168.5431628171718
 30
0.0
 11
518.6842590838824
 21
169.6977648171719
 31
0.0
  0
LINE
  5
10E6
330
2
100
AcDbEntity
  8
0
100
AcDbLine
 10
516.6842590838824
 20
168.5431628171718
 30
0.0
 11
514.1842590838824
 21
168.5431628171718
 31
0.0
  0
LINE
  5
10E7
330
2
100
AcDbEntity
  8
HOJO
100
AcDbLine
 10
513.1842590838824
 20
171.3431658171717
 30
0.0
 11
513.1842590838824
 21
174.5431778171719
 31
0.0
  0
LINE
  5
10E8
330
2
100
AcDbEntity
  8
0
100
AcDbLine
 10
512.6842590838824
 20
171.3431658171717
 30
0.0
 11
512.6842590838824
 21
174.5431778171719
 31
0.0
  0
LINE
  5
10E9
330
2
100
AcDbEntity
  8
0
100
AcDbLine
 10
498.6843055150367
 20
146.0431628171718
 30
0.0
 11
498.6843510838899
 21
157.5431676593171
 31
0.0
  0
LINE
  5
10EA
330
2
100
AcDbEntity
  8
0
100
AcDbLine
 10
499.8343115150293
 20
146.0431579750266
 30
0.0
 11
499.8343570838825
 21
157.5431628171718
 31
0.0
  0
LINE
  5
10EB
330
2
100
AcDbEntity
  8
0
100
AcDbLine
 10
507.1842120975544
 20
146.0432063789062
 30
0.0
 11
507.1842590839988
 21
157.5431813788221
 31
0.0
  0
LINE
  5
10EC
330
2
100
AcDbEntity
  8
0
100
AcDbLine
 10
486.6842590838825
 20
140.0430708171718
 30
0.0
 11
486.6842590838825
 21
140.5431628171719
 31
0.0
  0
LINE
  5
10ED
330
2
100
AcDbEntity
  8
0
100
AcDbLine
 10
485.6842590838824
 20
146.5430764710514
 30
0.0
 11
498.6843062494118
 21
146.5431676593976
 31
0.0
  0
LINE
  5
10EE
330
2
100
AcDbEntity
  8
0
100
AcDbLine
 10
507.1842142493534
 20
146.5431353789024
 30
0.0
 11
499.8343122494026
 21
146.5431628172523
 31
0.0
  0
LINE
  5
10EF
330
2
100
AcDbEntity
  8
0
100
AcDbLine
 10
499.8343122494353
 20
146.5431720303625
 30
0.0
 11
500.0610197955867
 21
146.543172764382
 31
0.0
  0
LINE
  5
10F0
330
2
100
AcDbEntity
  8
0
100
AcDbLine
 10
499.8343115150293
 20
146.0431579750266
 30
0.0
 11
498.6843055150367
 21
146.0431628171718
 31
0.0
  0
LINE
  5
10F1
330
2
100
AcDbEntity
  8
0
100
AcDbLine
 10
498.6843510838826
 20
168.5431628171718
 30
0.0
 11
485.6842590838824
 21
168.5431628171718
 31
0.0
  0
LINE
  5
10F2
330
2
100
AcDbEntity
  8
0
100
AcDbLine
 10
507.1842590838825
 20
169.0430918171719
 30
0.0
 11
507.1842590838825
 21
157.5431168171717
 31
0.0
  0
LINE
  5
10F3
330
2
100
AcDbEntity
  8
0
100
AcDbLine
 10
498.6843510838826
 20
169.0431628171718
 30
0.0
 11
498.6843510838826
 21
157.5431628171718
 31
0.0
  0
LINE
  5
10F4
330
2
100
AcDbEntity
  8
0
100
AcDbLine
 10
499.8343570838825
 20
169.0431628171718
 30
0.0
 11
499.8343570838825
 21
157.5431628171718
 31
0.0
  0
LINE
  5
10F5
330
2
100
AcDbEntity
  8
0
100
AcDbLine
 10
507.1842590838825
 20
168.5431628171718
 30
0.0
 11
499.8343570838825
 21
168.5431628171718
 31
0.0
  0
LINE
  5
10F6
330
2
100
AcDbEntity
  8
0
100
AcDbLine
 10
508.6842590845828
 20
171.3431658171717
 30
0.0
 11
508.6842590845828
 21
174.5431778171719
 31
0.0
  0
LINE
  5
10F7
330
2
100
AcDbEntity
  8
HOJO
100
AcDbLine
 10
508.1842590845828
 20
171.3431658171717
 30
0.0
 11
508.1842590845828
 21
174.5431778171719
 31
0.0
  0
LINE
  5
10F8
330
2
100
AcDbEntity
  8
0
100
AcDbLine
 10
499.8343570838825
 20
169.0431628171718
 30
0.0
 11
498.6843510838826
 21
169.0431628171718
 31
0.0
  0
LINE
  5
10F9
330
2
100
AcDbEntity
  8
0
100
AcDbLine
 10
485.6842590838824
 20
169.0431628171718
 30
0.0
 11
485.6842590838824
 21
146.0431628171721
 31
0.0
  0
LINE
  5
10FA
330
2
100
AcDbEntity
  8
0
100
AcDbLine
 10
486.6842590838825
 20
175.0431628171718
 30
0.0
 11
486.6842590838825
 21
174.5430708171719
 31
0.0
  0
LINE
  5
10FB
330
2
100
AcDbEntity
  8
0
100
AcDbLine
 10
380.6843660838822
 20
174.5431628171725
 30
0.0
 11
380.6843660838822
 21
140.5431628171724
 31
0.0
  0
LINE
  5
10FC
330
2
100
AcDbEntity
  8
0
100
AcDbLine
 10
382.6843660838822
 20
146.5431628171718
 30
0.0
 11
382.6843660838822
 21
157.5431628171718
 31
0.0
  0
LINE
  5
10FD
330
2
100
AcDbEntity
  8
0
100
AcDbLine
 10
394.6843660838823
 20
146.0431628171718
 30
0.0
 11
394.6843660838823
 21
157.5431628171718
 31
0.0
  0
LINE
  5
10FE
330
2
100
AcDbEntity
  8
0
100
AcDbLine
 10
393.5342680838822
 20
146.0431628171718
 30
0.0
 11
393.5342680838822
 21
157.5431628171718
 31
0.0
  0
LINE
  5
10FF
330
2
100
AcDbEntity
  8
0
100
AcDbLine
 10
405.6843660838823
 20
169.0431628171718
 30
0.0
 11
405.6843660838823
 21
146.0431628171727
 31
0.0
  0
LINE
  5
1100
330
2
100
AcDbEntity
  8
0
100
AcDbLine
 10
394.9782714149206
 20
140.5431628171726
 30
0.0
 11
380.6843660838822
 21
140.543162817173
 31
0.0
  0
LINE
  5
1101
330
2
100
AcDbEntity
  8
0
100
AcDbLine
 10
405.6843660838823
 20
146.5431628171718
 30
0.0
 11
394.6843660838823
 21
146.5431628171718
 31
0.0
  0
LINE
  5
1102
330
2
100
AcDbEntity
  8
0
100
AcDbLine
 10
393.5342680838822
 20
146.5431628171718
 30
0.0
 11
382.6843660838822
 21
146.5431628171718
 31
0.0
  0
LINE
  5
1103
330
2
100
AcDbEntity
  8
0
100
AcDbLine
 10
394.6843660838823
 20
146.0431628171718
 30
0.0
 11
393.5342680838822
 21
146.0431628171718
 31
0.0
  0
LINE
  5
1104
330
2
100
AcDbEntity
  8
0
100
AcDbLine
 10
382.6843660838822
 20
146.5431628171718
 30
0.0
 11
380.6843660838822
 21
145.3885608171718
 31
0.0
  0
LINE
  5
1105
330
2
100
AcDbEntity
  8
0
100
AcDbLine
 10
394.9782714149206
 20
174.5431628171725
 30
0.0
 11
380.6843660838822
 21
174.5431628171725
 31
0.0
  0
LINE
  5
1106
330
2
100
AcDbEntity
  8
0
100
AcDbLine
 10
405.6843660838823
 20
168.5431628171718
 30
0.0
 11
394.6843660838823
 21
168.5431628171718
 31
0.0
  0
LINE
  5
1107
330
2
100
AcDbEntity
  8
0
100
AcDbLine
 10
394.6843660838823
 20
169.0431628171718
 30
0.0
 11
394.6843660838823
 21
157.5431628171718
 31
0.0
  0
LINE
  5
1108
330
2
100
AcDbEntity
  8
0
100
AcDbLine
 10
393.5342680838822
 20
169.0431628171718
 30
0.0
 11
393.5342680838822
 21
157.5431628171718
 31
0.0
  0
LINE
  5
1109
330
2
100
AcDbEntity
  8
0
100
AcDbLine
 10
382.6843660838822
 20
168.5431628171718
 30
0.0
 11
382.6843660838822
 21
157.5431628171718
 31
0.0
  0
LINE
  5
110A
330
2
100
AcDbEntity
  8
0
100
AcDbLine
 10
393.5342680838822
 20
168.5431628171718
 30
0.0
 11
382.6843660838822
 21
168.5431628171718
 31
0.0
  0
LINE
  5
110B
330
2
100
AcDbEntity
  8
0
100
AcDbLine
 10
394.6843660838823
 20
169.0431628171718
 30
0.0
 11
393.5342680838822
 21
169.0431628171718
 31
0.0
  0
LINE
  5
110C
330
2
100
AcDbEntity
  8
0
100
AcDbLine
 10
382.6843660838822
 20
168.5431628171718
 30
0.0
 11
380.6843660838822
 21
169.6977648171719
 31
0.0
  0
LINE
  5
110D
330
2
100
AcDbEntity
  8
0
100
AcDbLine
 10
485.6842590838824
 20
146.0431628171721
 30
0.0
 11
405.6843660838823
 21
146.0431628171727
 31
0.0
  0
LINE
  5
110E
330
2
100
AcDbEntity
  8
0
100
AcDbLine
 10
496.6842590838843
 20
130.8050220328634
 30
0.0
 11
496.6842590838843
 21
140.5431628171719
 31
0.0
  0
LINE
  5
110F
330
2
100
AcDbEntity
  8
0
100
AcDbLine
 10
496.6842590838843
 20
174.5430708171719
 30
0.0
 11
496.6842590838843
 21
184.2813036014795
 31
0.0
  0
LINE
  5
1110
330
2
100
AcDbEntity
  8
0
100
AcDbLine
 10
504.6842590838842
 20
131.5431628171715
 30
0.0
 11
504.6842590838842
 21
140.5431628171717
 31
0.0
  0
LINE
  5
1111
330
2
100
AcDbEntity
  8
0
100
AcDbLine
 10
504.6842590838842
 20
174.5430708171719
 30
0.0
 11
504.6842590838842
 21
183.5431628171709
 31
0.0
  0
LINE
  5
1112
330
2
100
AcDbEntity
  8
0
100
AcDbLine
 10
495.8680538103108
 20
130.7836489455852
 30
0.0
 11
496.6842590838843
 21
130.8050220328634
 31
0.0
  0
LINE
  5
1113
330
2
100
AcDbEntity
  8
0
100
AcDbLine
 10
504.6842590838842
 20
131.5431628171715
 30
0.0
 11
505.6842590838843
 21
130.965812547982
 31
0.0
  0
LINE
  5
1114
330
2
100
AcDbEntity
  8
0
100
AcDbLine
 10
496.6842590838843
 20
131.5431628171715
 30
0.0
 11
504.6842590838842
 21
131.5431628171715
 31
0.0
  0
LINE
  5
1115
330
2
100
AcDbEntity
  8
0
100
AcDbLine
 10
504.6842590838842
 20
183.5431628171709
 30
0.0
 11
505.6842590838843
 21
184.1205130863609
 31
0.0
  0
LINE
  5
1116
330
2
100
AcDbEntity
  8
0
100
AcDbLine
 10
496.6842590838843
 20
183.5431628171709
 30
0.0
 11
504.6842590838842
 21
183.5431628171709
 31
0.0
  0
LINE
  5
1117
330
2
100
AcDbEntity
  8
0
100
AcDbLine
 10
495.8680538103108
 20
184.3026766887579
 30
0.0
 11
496.6842590838843
 21
184.2813036014795
 31
0.0
  0
SPLINE
  5
1118
330
2
100
AcDbEntity
  8
HOJO
100
AcDbSpline
210
0.0
220
0.0
230
1.0
 70
     8
 71
     3
 72
    29
 73
    25
 74
     0
 42
0.0000000001
 43
0.0000000001
 40
1.090399320308462
 40
1.090399320308462
 40
1.090399320308462
 40
1.090399320308462
 40
4.040739644829187
 40
6.997787495336805
 40
10.73237305618972
 40
12.84118264411926
 40
16.26049801359844
 40
19.61887715227126
 40
22.64931725531719
 40
30.22181573300487
 40
36.16263111558746
 40
44.88883488220451
 40
55.50706864912782
 40
63.29892504772643
 40
76.3740363571969
 40
84.54534817615707
 40
97.35021782080984
 40
109.0809591827178
 40
120.5301602098909
 40
124.9940898217377
 40
128.7067778711773
 40
133.1761160685756
 40
137.3397663791125
 40
142.8191071547317
 40
142.8191071547317
 40
142.8191071547317
 40
142.8191071547317
 10
382.6842590838879
 20
187.5906102390163
 30
0.0
 10
383.6715440119825
 20
187.5084553676875
 30
0.0
 10
385.6301999727639
 20
187.2770033489401
 30
0.0
 10
388.6071849587553
 20
186.0883521834285
 30
0.0
 10
391.6419437103087
 20
185.5358563839829
 30
0.0
 10
393.6698275560485
 20
182.9920051061358
 30
0.0
 10
394.0122675818658
 20
179.9372357587058
 30
0.0
 10
394.19271845599
 20
176.805607314129
 30
0.0
 10
395.6530070393984
 20
171.7134409399482
 30
0.0
 10
402.8482545545467
 20
173.9305103930706
 30
0.0
 10
409.7710852904802
 20
173.9254814208584
 30
0.0
 10
418.3342280500457
 20
172.6162953053004
 30
0.0
 10
427.325978505176
 20
173.6112244348062
 30
0.0
 10
437.8304880854831
 20
173.3179177458815
 30
0.0
 10
447.5236372170931
 20
173.7073790185545
 30
0.0
 10
458.8177017381895
 20
172.730974338278
 30
0.0
 10
469.9275829015806
 20
173.8459947787817
 30
0.0
 10
481.0599102859379
 20
174.6434518346323
 30
0.0
 10
492.982868810932
 20
170.8087540358138
 30
0.0
 10
495.2476375541265
 20
177.0288466143452
 30
0.0
 10
493.5133150784987
 20
181.0438525623485
 30
0.0
 10
496.0150223502406
 20
185.2388620709944
 30
0.0
 10
500.686442793487
 20
186.3597396196915
 30
0.0
 10
504.0070799429141
 20
186.8076148003615
 30
0.0
 10
505.6842590838824
 20
187.4611243351733
 30
0.0
  0
SPLINE
  5
1119
330
2
100
AcDbEntity
  8
HOJO
100
AcDbSpline
210
0.0
220
0.0
230
1.0
 70
     8
 71
     3
 72
    29
 73
    25
 74
     0
 42
0.0000000001
 43
0.0000000001
 40
1.090399320308462
 40
1.090399320308462
 40
1.090399320308462
 40
1.090399320308462
 40
4.040739644829187
 40
6.997787495336805
 40
10.73237305618972
 40
12.84118264411926
 40
16.26049801359844
 40
19.61887715227126
 40
22.64931725531719
 40
30.22181573300487
 40
36.16263111558746
 40
44.88883488220451
 40
55.50706864912782
 40
63.29892504772643
 40
76.3740363571969
 40
84.54534817615707
 40
97.35021782080984
 40
109.0809591827178
 40
120.5301602098909
 40
124.9940898217377
 40
128.7067778711773
 40
133.1761160685756
 40
137.3397663791125
 40
142.8191071547317
 40
142.8191071547317
 40
142.8191071547317
 40
142.8191071547317
 10
382.6842590838879
 20
127.4957153953275
 30
0.0
 10
383.6715440119825
 20
127.5778702666561
 30
0.0
 10
385.6301999727639
 20
127.8093222854037
 30
0.0
 10
388.6071849587553
 20
128.9979734509153
 30
0.0
 10
391.6419437103087
 20
129.5504692503607
 30
0.0
 10
393.6698275560485
 20
132.094320528208
 30
0.0
 10
394.0122675818658
 20
135.1490898756379
 30
0.0
 10
394.19271845599
 20
138.2807183202147
 30
0.0
 10
395.6530070393984
 20
143.3728846943955
 30
0.0
 10
402.8482545545467
 20
141.1558152412732
 30
0.0
 10
409.7710852904802
 20
141.1608442134851
 30
0.0
 10
418.3342280500457
 20
142.4700303290432
 30
0.0
 10
427.325978505176
 20
141.4751011995375
 30
0.0
 10
437.8304880854831
 20
141.7684078884623
 30
0.0
 10
447.5236372170931
 20
141.378946615789
 30
0.0
 10
458.8177017381895
 20
142.3553512960658
 30
0.0
 10
469.9275829015806
 20
141.240330855562
 30
0.0
 10
481.0599102859379
 20
140.4428737997113
 30
0.0
 10
492.982868810932
 20
144.2775715985299
 30
0.0
 10
495.2476375541265
 20
138.0574790199986
 30
0.0
 10
493.5133150784987
 20
134.0424730719952
 30
0.0
 10
496.0150223502406
 20
129.8474635633492
 30
0.0
 10
500.686442793487
 20
128.7265860146522
 30
0.0
 10
504.0070799429141
 20
128.278710833982
 30
0.0
 10
505.6842590838824
 20
127.6252012991705
 30
0.0
  0
LINE
  5
111A
330
2
100
AcDbEntity
  8
0
100
AcDbLine
 10
391.6842590838843
 20
183.5431628171714
 30
0.0
 11
383.6842590838843
 21
174.5431628171727
 31
0.0
  0
LINE
  5
111B
330
2
100
AcDbEntity
  8
0
100
AcDbLine
 10
383.6842590838843
 20
183.5431628171711
 30
0.0
 11
391.6842590838843
 21
174.5431628171725
 31
0.0
  0
LINE
  5
111C
330
2
100
AcDbEntity
  8
0
100
AcDbLine
 10
391.6842590838843
 20
140.5431628171728
 30
0.0
 11
383.6842590838843
 21
131.5431628171718
 31
0.0
  0
LINE
  5
111D
330
2
100
AcDbEntity
  8
0
100
AcDbLine
 10
383.6842590838843
 20
140.5431628171729
 30
0.0
 11
391.6842590838824
 21
131.5431628171718
 31
0.0
  0
LINE
  5
111E
330
2
100
AcDbEntity
  8
0
100
AcDbLine
 10
496.6842590838843
 20
140.5431628171719
 30
0.0
 11
504.6842590838842
 21
131.5431628171715
 31
0.0
  0
LINE
  5
111F
330
2
100
AcDbEntity
  8
0
100
AcDbLine
 10
504.6842590838842
 20
140.5431628171717
 30
0.0
 11
496.6842590838843
 21
131.5431628171715
 31
0.0
  0
LINE
  5
1120
330
2
100
AcDbEntity
  8
0
100
AcDbLine
 10
496.6842590838843
 20
183.5431628171709
 30
0.0
 11
504.6842590838842
 21
174.5430708171719
 31
0.0
  0
LINE
  5
1121
330
2
100
AcDbEntity
  8
0
100
AcDbLine
 10
504.6842590838842
 20
183.5431628171709
 30
0.0
 11
496.6842590838843
 21
174.5430708171719
 31
0.0
  0
LINE
  5
1122
330
2
100
AcDbEntity
  8
0
100
AcDbLine
 10
624.2501692027109
 20
417.4915468420852
 30
0.0
 11
618.2501692027109
 21
417.4915468420854
 31
0.0
  0
LINE
  5
1123
330
2
100
AcDbEntity
  8
0
100
AcDbLine
 10
624.2501692027109
 20
417.4915468420852
 30
0.0
 11
624.2501692027109
 21
414.2745490863435
 31
0.0
  0
LINE
  5
1124
330
2
100
AcDbEntity
  8
0
100
AcDbLine
 10
618.2501692027109
 20
417.4915468420852
 30
0.0
 11
618.2501692027109
 21
414.2745490863435
 31
0.0
  0
ARC
  5
1125
330
2
100
AcDbEntity
  8
0
100
AcDbCircle
 10
621.2501692027109
 20
403.6915438420852
 30
0.0
 40
11.0
100
AcDbArc
 50
105.8266201318575
 51
74.17337986814252
  0
CIRCLE
  5
1126
330
2
100
AcDbEntity
  8
0
100
AcDbCircle
 10
621.2501692027127
 20
403.691543842086
 30
0.0
 40
16.99990799998784
  0
LINE
  5
1127
330
2
100
AcDbEntity
  8
0
100
AcDbLine
 10
438.1766831543338
 20
353.4115104348384
 30
0.0
 11
438.1766831543338
 21
453.9715772493383
 31
0.0
  0
LINE
  5
1128
330
2
100
AcDbEntity
  8
0
100
AcDbLine
 10
443.1766831543337
 20
358.691543842091
 30
0.0
 11
443.1766831543337
 21
448.6915438420906
 31
0.0
  0
LINE
  5
1129
330
2
100
AcDbEntity
  8
0
100
AcDbLine
 10
438.1766831543338
 20
358.691543842091
 30
0.0
 11
443.1766831543337
 21
358.691543842091
 31
0.0
  0
LINE
  5
112A
330
2
100
AcDbEntity
  8
0
100
AcDbLine
 10
438.1766831543338
 20
448.6915438420906
 30
0.0
 11
443.1766831543337
 21
448.6915438420906
 31
0.0
  0
LINE
  5
112B
330
2
100
AcDbEntity
  8
0
100
AcDbLine
 10
457.1766831543356
 20
371.6229213917031
 30
0.0
 11
457.1766831543356
 21
435.7601662924761
 31
0.0
  0
ARC
  5
112C
330
2
100
AcDbEntity
  8
0
100
AcDbCircle
 10
455.1766831543355
 20
435.7601662924761
 30
0.0
 40
2.0
100
AcDbArc
 50
0.0
 51
87.99999999999636
  0
LINE
  5
112D
330
2
100
AcDbEntity
  8
0
100
AcDbLine
 10
445.1068841609305
 20
369.2700571736295
 30
0.0
 11
455.2464821477407
 21
369.6241397376653
 31
0.0
  0
ARC
  5
112E
330
2
100
AcDbEntity
  8
0
100
AcDbCircle
 10
445.1766831543356
 20
367.2712755195917
 30
0.0
 40
2.0
100
AcDbArc
 50
92.00000000000365
 51
180.0
  0
ARC
  5
112F
330
2
100
AcDbEntity
  8
0
100
AcDbCircle
 10
455.1766831543355
 20
371.6229213917031
 30
0.0
 40
2.0
100
AcDbArc
 50
272.0000000000036
 51
0.0
  0
LINE
  5
1130
330
2
100
AcDbEntity
  8
0
100
AcDbLine
 10
445.1068841609305
 20
438.1130305105498
 30
0.0
 11
455.2464821477407
 21
437.7589479465141
 31
0.0
  0
ARC
  5
1131
330
2
100
AcDbEntity
  8
0
100
AcDbCircle
 10
445.1766831543356
 20
440.1118121645877
 30
0.0
 40
2.0
100
AcDbArc
 50
180.0
 51
267.9999999999963
  0
ARC
  5
1132
330
2
100
AcDbEntity
  8
0
100
AcDbCircle
 10
455.1766831543355
 20
435.7601662924762
 30
0.0
 40
2.0
100
AcDbArc
 50
0.0
 51
0.0
  0
LINE
  5
1133
330
2
100
AcDbEntity
  8
0
100
AcDbLine
 10
334.176683154341
 20
360.6134969278073
 30
0.0
 11
334.176683154341
 21
446.7695907563557
 31
0.0
  0
ARC
  5
1134
330
2
100
AcDbEntity
  8
0
100
AcDbCircle
 10
428.176683154341
 20
446.7695907563566
 30
0.0
 40
8.0
100
AcDbArc
 50
65.08518224130918
 51
89.43829466741624
  0
LINE
  5
1135
330
2
100
AcDbEntity
  8
0
100
AcDbLine
 10
385.176683154341
 20
352.1915438420819
 30
0.0
 11
342.0982555508109
 21
352.6138813676071
 31
0.0
  0
ARC
  5
1136
330
2
100
AcDbEntity
  8
0
100
AcDbCircle
 10
342.176683154341
 20
360.6134969278073
 30
0.0
 40
8.0
100
AcDbArc
 50
180.0
 51
269.4382946674162
  0
LINE
  5
1137
330
2
100
AcDbEntity
  8
0
100
AcDbLine
 10
385.176683154341
 20
352.1915438420819
 30
0.0
 11
428.255110757873
 21
352.6138813676062
 31
0.0
  0
ARC
  5
1138
330
2
100
AcDbEntity
  8
0
100
AcDbCircle
 10
428.176683154341
 20
360.6134969278064
 30
0.0
 40
8.0
100
AcDbArc
 50
270.5617053325316
 51
294.9148177589203
  0
LINE
  5
1139
330
2
100
AcDbEntity
  8
0
100
AcDbLine
 10
385.176683154341
 20
455.191543842081
 30
0.0
 11
342.0982555508109
 21
454.769206316556
 31
0.0
  0
ARC
  5
113A
330
2
100
AcDbEntity
  8
0
100
AcDbCircle
 10
342.176683154341
 20
446.7695907563557
 30
0.0
 40
8.0
100
AcDbArc
 50
90.56170533253165
 51
180.0
  0
LINE
  5
113B
330
2
100
AcDbEntity
  8
0
100
AcDbLine
 10
385.176683154341
 20
455.191543842081
 30
0.0
 11
428.255110757873
 21
454.7692063165569
 31
0.0
  0
LINE
  5
113C
330
2
100
AcDbEntity
  8
0
100
AcDbLine
 10
355.6766831543374
 20
352.6915438420893
 30
0.0
 11
438.1766831543338
 21
353.4115104348384
 31
0.0
  0
LINE
  5
113D
330
2
100
AcDbEntity
  8
0
100
AcDbLine
 10
355.6766831543319
 20
454.6915438420874
 30
0.0
 11
438.1766831543338
 21
453.9715772493383
 31
0.0
  0
LINE
  5
113E
330
2
100
AcDbEntity
  8
0
100
AcDbLine
 10
355.6766831543337
 20
352.6915438420893
 30
0.0
 11
355.6766831543337
 21
454.6871804082039
 31
0.0
  0
LINE
  5
113F
330
2
100
AcDbEntity
  8
CENTER
100
AcDbLine
 10
385.1766831543283
 20
465.1915438420811
 30
0.0
 11
385.1766831543283
 21
342.191543842082
 31
0.0
  0
LINE
  5
1140
330
2
100
AcDbEntity
  8
0
100
AcDbLine
 10
437.1766831543338
 20
446.6915438421032
 30
0.0
 11
355.6766831543337
 21
446.6915438421032
 31
0.0
  0
LINE
  5
1141
330
2
100
AcDbEntity
  8
0
100
AcDbLine
 10
437.1766831543338
 20
443.6915438421056
 30
0.0
 11
355.6766831543337
 21
443.6915438421056
 31
0.0
  0
LINE
  5
1142
330
2
100
AcDbEntity
  8
0
100
AcDbLine
 10
437.1766831543338
 20
424.23164301928
 30
0.0
 11
355.6766831543337
 21
424.23164301928
 31
0.0
  0
LINE
  5
1143
330
2
100
AcDbEntity
  8
0
100
AcDbLine
 10
437.1766831543338
 20
360.6915438420736
 30
0.0
 11
355.6766831543337
 21
360.6915438420736
 31
0.0
  0
LINE
  5
1144
330
2
100
AcDbEntity
  8
0
100
AcDbLine
 10
437.1766831543338
 20
363.691543842071
 30
0.0
 11
355.6766831543337
 21
363.691543842071
 31
0.0
  0
LINE
  5
1145
330
2
100
AcDbEntity
  8
0
100
AcDbLine
 10
437.1766831543338
 20
383.1514446648967
 30
0.0
 11
355.6766831543337
 21
383.1514446648967
 31
0.0
  0
LINE
  5
1146
330
2
100
AcDbEntity
  8
0
100
AcDbLine
 10
338.8766831543417
 20
370.691543842087
 30
0.0
 11
342.176683154341
 21
370.6915438420874
 31
0.0
  0
LINE
  5
1147
330
2
100
AcDbEntity
  8
0
100
AcDbLine
 10
342.176683154341
 20
368.6915438420874
 30
0.0
 11
342.1766831543228
 21
438.6915438420651
 31
0.0
  0
LINE
  5
1148
330
2
100
AcDbEntity
  8
0
100
AcDbLine
 10
342.176683154341
 20
368.6915438420874
 30
0.0
 11
342.676683154341
 21
368.1915438420879
 31
0.0
  0
LINE
  5
1149
330
2
100
AcDbEntity
  8
0
100
AcDbLine
 10
342.1766831543355
 20
370.6915438420874
 30
0.0
 11
342.1766831543355
 21
368.6915438420929
 31
0.0
  0
LINE
  5
114A
330
2
100
AcDbEntity
  8
0
100
AcDbLine
 10
334.1766831543228
 20
436.1141935728872
 30
0.0
 11
334.1766831543265
 21
420.6915438420891
 31
0.0
  0
LINE
  5
114B
330
2
100
AcDbEntity
  8
0
100
AcDbLine
 10
334.1766831543356
 20
386.6915438420895
 30
0.0
 11
334.176683154341
 21
371.2688941112761
 31
0.0
  0
LINE
  5
114C
330
2
100
AcDbEntity
  8
0
100
AcDbLine
 10
335.176683154341
 20
370.6915438420865
 30
0.0
 11
336.4766831543403
 21
370.691543842087
 31
0.0
  0
LINE
  5
114D
330
2
100
AcDbEntity
  8
0
100
AcDbLine
 10
335.176683154341
 20
370.6915438420865
 30
0.0
 11
334.176683154341
 21
371.2688941112761
 31
0.0
  0
LINE
  5
114E
330
2
100
AcDbEntity
  8
0
100
AcDbLine
 10
336.6766831543374
 20
370.8915438420863
 30
0.0
 11
336.6766831545393
 21
436.491543842089
 31
0.0
  0
LINE
  5
114F
330
2
100
AcDbEntity
  8
0
100
AcDbLine
 10
338.676683154341
 20
370.8915438420873
 30
0.0
 11
338.8766831543417
 21
370.691543842087
 31
0.0
  0
LINE
  5
1150
330
2
100
AcDbEntity
  8
0
100
AcDbLine
 10
338.676683154341
 20
370.8915438420875
 30
0.0
 11
338.676683154341
 21
436.4915438420844
 31
0.0
  0
LINE
  5
1151
330
2
100
AcDbEntity
  8
0
100
AcDbLine
 10
336.8766831543418
 20
371.3915438420868
 30
0.0
 11
338.4766831543403
 21
371.391543842087
 31
0.0
  0
LINE
  5
1152
330
2
100
AcDbEntity
  8
0
100
AcDbLine
 10
338.8766831543454
 20
436.6915438420893
 30
0.0
 11
342.1766831543446
 21
436.6915438420884
 31
0.0
  0
LINE
  5
1153
330
2
100
AcDbEntity
  8
HIDS
100
AcDbLine
 10
347.5908967167089
 20
449.605757404451
 30
0.0
 11
343.2624695919749
 21
445.2773302797223
 31
0.0
  0
LINE
  5
1154
330
2
100
AcDbEntity
  8
0
100
AcDbLine
 10
342.1766831543228
 20
438.6915438420651
 30
0.0
 11
342.6766831543464
 21
439.1915438420879
 31
0.0
  0
LINE
  5
1155
330
2
100
AcDbEntity
  8
0
100
AcDbLine
 10
350.1592300833382
 20
454.6433939247477
 30
0.0
 11
355.6766450766719
 21
454.6915436759412
 31
0.0
  0
ARC
  5
1156
330
2
100
AcDbEntity
  8
0
100
AcDbCircle
 10
350.1766831543355
 20
452.6434700786192
 30
0.0
 40
2.0
100
AcDbArc
 50
90.50000000001761
 51
180.0
  0
LINE
  5
1157
330
2
100
AcDbEntity
  8
0
100
AcDbLine
 10
348.1766831543355
 20
452.6434700786192
 30
0.0
 11
348.1766831543355
 21
354.7396177717099
 31
0.0
  0
LINE
  5
1158
330
2
100
AcDbEntity
  8
0
100
AcDbLine
 10
336.8766831543454
 20
435.9915438420896
 30
0.0
 11
338.4766831543458
 21
435.9915438420892
 31
0.0
  0
LINE
  5
1159
330
2
100
AcDbEntity
  8
0
100
AcDbLine
 10
338.676683154341
 20
436.4915438420844
 30
0.0
 11
338.8766831543454
 21
436.6915438420893
 31
0.0
  0
LINE
  5
115A
330
2
100
AcDbEntity
  8
0
100
AcDbLine
 10
335.1766831543447
 20
436.6915438420901
 30
0.0
 11
334.1766831543446
 21
436.1141935729007
 31
0.0
  0
LINE
  5
115B
330
2
100
AcDbEntity
  8
0
100
AcDbLine
 10
335.1766831543447
 20
436.6915438420901
 30
0.0
 11
336.4766831543458
 21
436.6915438420897
 31
0.0
  0
ARC
  5
115C
330
2
100
AcDbEntity
  8
HIDS
100
AcDbCircle
 10
346.1766831543355
 20
451.0199709668248
 30
0.0
 40
2.0
100
AcDbArc
 50
314.9999999999499
 51
0.0
  0
ARC
  5
115D
330
2
100
AcDbEntity
  8
HIDS
100
AcDbCircle
 10
344.6766831543483
 20
443.8631167173485
 30
0.0
 40
2.0
100
AcDbArc
 50
134.9999999999498
 51
180.0
  0
ARC
  5
115E
330
2
100
AcDbEntity
  8
0
100
AcDbCircle
 10
336.4766831543403
 20
370.8915438420868
 30
0.0
 40
0.2
100
AcDbArc
 50
270.0
 51
359.9999999999348
  0
ARC
  5
115F
330
2
100
AcDbEntity
  8
0
100
AcDbCircle
 10
336.8766831543418
 20
371.1915438420867
 30
0.0
 40
0.2
100
AcDbArc
 50
90.0
 51
179.9999999999348
  0
ARC
  5
1160
330
2
100
AcDbEntity
  8
0
100
AcDbCircle
 10
338.4766831543403
 20
371.191543842087
 30
0.0
 40
0.2
100
AcDbArc
 50
0.0
 51
90.0
  0
ARC
  5
1161
330
2
100
AcDbEntity
  8
0
100
AcDbCircle
 10
336.4766831543458
 20
436.4915438420895
 30
0.0
 40
0.2
100
AcDbArc
 50
0.0
 51
90.0
  0
ARC
  5
1162
330
2
100
AcDbEntity
  8
0
100
AcDbCircle
 10
336.8766831543454
 20
436.1915438420897
 30
0.0
 40
0.2
100
AcDbArc
 50
180.0
 51
269.9999999999478
  0
ARC
  5
1163
330
2
100
AcDbEntity
  8
0
100
AcDbCircle
 10
338.4766831543458
 20
436.1915438420893
 30
0.0
 40
0.2
100
AcDbArc
 50
269.9999999999478
 51
0.0
  0
LINE
  5
1164
330
2
100
AcDbEntity
  8
0
100
AcDbLine
 10
350.1592300833382
 20
352.7396939255814
 30
0.0
 11
355.6766831543337
 21
352.6915438420893
 31
0.0
  0
ARC
  5
1165
330
2
100
AcDbEntity
  8
0
100
AcDbCircle
 10
350.1766831543355
 20
354.7396177717099
 30
0.0
 40
2.0
100
AcDbArc
 50
180.0
 51
269.4999999999824
  0
LINE
  5
1166
330
2
100
AcDbEntity
  8
0
100
AcDbLine
 10
355.6766831543337
 20
419.8845585799477
 30
0.0
 11
355.6766831543319
 21
454.6915438420874
 31
0.0
  0
LINE
  5
1167
330
2
100
AcDbEntity
  8
CENTER
  6
CENS
100
AcDbLine
 10
335.6766831543374
 20
446.6915438421036
 30
0.0
 11
361.7420089395983
 21
446.6915438421036
 31
0.0
  0
LINE
  5
1168
330
2
100
AcDbEntity
  8
0
100
AcDbLine
 10
346.6766831543374
 20
441.6915438421035
 30
0.0
 11
341.076683154337
 21
441.6915438421035
 31
0.0
  0
LINE
  5
1169
330
2
100
AcDbEntity
  8
0
100
AcDbLine
 10
346.6766831543374
 20
451.6915438421036
 30
0.0
 11
341.076683154337
 21
451.6915438421036
 31
0.0
  0
LINE
  5
116A
330
2
100
AcDbEntity
  8
0
100
AcDbLine
 10
346.6766831543374
 20
451.6915438421036
 30
0.0
 11
346.6766831543374
 21
441.6915438421038
 31
0.0
  0
LINE
  5
116B
330
2
100
AcDbEntity
  8
0
100
AcDbLine
 10
340.6766831543374
 20
450.9987235190759
 30
0.0
 11
340.6766831543356
 21
442.3843641651313
 31
0.0
  0
LINE
  5
116C
330
2
100
AcDbEntity
  8
0
100
AcDbLine
 10
341.0766831543352
 20
451.6915438421036
 30
0.0
 11
341.076683154337
 21
441.6915438421035
 31
0.0
  0
LINE
  5
116D
330
2
100
AcDbEntity
  8
0
100
AcDbLine
 10
341.076683154337
 20
451.6915438421036
 30
0.0
 11
340.6766831543374
 21
450.9987235190759
 31
0.0
  0
LINE
  5
116E
330
2
100
AcDbEntity
  8
0
100
AcDbLine
 10
341.076683154337
 20
441.6915438421035
 30
0.0
 11
340.6766831543374
 21
442.3843641651313
 31
0.0
  0
LINE
  5
116F
330
2
100
AcDbEntity
  8
0
100
AcDbLine
 10
346.6766831543356
 20
451.6915438421036
 30
0.0
 11
348.1766831543355
 21
451.6915438421036
 31
0.0
  0
LINE
  5
1170
330
2
100
AcDbEntity
  8
0
100
AcDbLine
 10
346.6766831543374
 20
441.6915438421035
 30
0.0
 11
348.1766831543355
 21
441.6915438421035
 31
0.0
  0
LINE
  5
1171
330
2
100
AcDbEntity
  8
HIDS
100
AcDbLine
 10
342.6766831543483
 20
443.8631167173485
 30
0.0
 11
342.6766831543356
 21
441.6915438421035
 31
0.0
  0
LINE
  5
1172
330
2
100
AcDbEntity
  8
0
100
AcDbLine
 10
346.6766831543374
 20
365.6915438420731
 30
0.0
 11
341.076683154337
 21
365.6915438420731
 31
0.0
  0
LINE
  5
1173
330
2
100
AcDbEntity
  8
0
100
AcDbLine
 10
346.6766831543374
 20
355.6915438420731
 30
0.0
 11
341.076683154337
 21
355.6915438420731
 31
0.0
  0
LINE
  5
1174
330
2
100
AcDbEntity
  8
0
100
AcDbLine
 10
346.6766831543374
 20
355.6915438420731
 30
0.0
 11
346.6766831543374
 21
365.6915438420729
 31
0.0
  0
LINE
  5
1175
330
2
100
AcDbEntity
  8
0
100
AcDbLine
 10
340.6766831543374
 20
356.3843641651008
 30
0.0
 11
340.6766831543356
 21
364.9987235190454
 31
0.0
  0
LINE
  5
1176
330
2
100
AcDbEntity
  8
0
100
AcDbLine
 10
341.0766831543352
 20
355.6915438420731
 30
0.0
 11
341.076683154337
 21
365.6915438420731
 31
0.0
  0
LINE
  5
1177
330
2
100
AcDbEntity
  8
0
100
AcDbLine
 10
341.076683154337
 20
355.6915438420731
 30
0.0
 11
340.6766831543374
 21
356.3843641651008
 31
0.0
  0
LINE
  5
1178
330
2
100
AcDbEntity
  8
0
100
AcDbLine
 10
341.076683154337
 20
365.6915438420731
 30
0.0
 11
340.6766831543374
 21
364.9987235190454
 31
0.0
  0
LINE
  5
1179
330
2
100
AcDbEntity
  8
0
100
AcDbLine
 10
346.6766831543356
 20
355.6915438420731
 30
0.0
 11
348.1766831543355
 21
355.6915438420731
 31
0.0
  0
LINE
  5
117A
330
2
100
AcDbEntity
  8
0
100
AcDbLine
 10
346.6766831543374
 20
365.6915438420731
 30
0.0
 11
348.1766831543355
 21
365.6915438420731
 31
0.0
  0
LINE
  5
117B
330
2
100
AcDbEntity
  8
HIDS
100
AcDbLine
 10
347.5908967167089
 20
357.7773302797257
 30
0.0
 11
343.2624695919749
 21
362.1057574044544
 31
0.0
  0
ARC
  5
117C
330
2
100
AcDbEntity
  8
HIDS
100
AcDbCircle
 10
346.1766831543355
 20
356.3631167173519
 30
0.0
 40
2.0
100
AcDbArc
 50
0.0
 51
45.00000000005008
  0
ARC
  5
117D
330
2
100
AcDbEntity
  8
HIDS
100
AcDbCircle
 10
344.6766831543483
 20
363.5199709668282
 30
0.0
 40
2.0
100
AcDbArc
 50
180.0
 51
225.0000000000501
  0
LINE
  5
117E
330
2
100
AcDbEntity
  8
HIDS
100
AcDbLine
 10
342.6766831543483
 20
363.5199709668282
 30
0.0
 11
342.6766831543356
 21
365.6915438420731
 31
0.0
  0
LINE
  5
117F
330
2
100
AcDbEntity
  8
0
100
AcDbLine
 10
342.6766831543356
 20
441.6915438421038
 30
0.0
 11
342.6766831543356
 21
365.6915438420731
 31
0.0
  0
LINE
  5
1180
330
2
100
AcDbEntity
  8
0
100
AcDbLine
 10
335.1766831543447
 20
436.6915438420901
 30
0.0
 11
335.1766831543447
 21
370.6915438420843
 31
0.0
  0
LINE
  5
1181
330
2
100
AcDbEntity
  8
0
100
AcDbLine
 10
338.8766831543454
 20
370.691543842087
 30
0.0
 11
338.8766831543454
 21
436.6915438420893
 31
0.0
  0
LINE
  5
1182
330
2
100
AcDbEntity
  8
CENTER
  6
CENS
100
AcDbLine
 10
335.6766831543374
 20
360.6915438420731
 30
0.0
 11
361.7420089395983
 21
360.6915438420731
 31
0.0
  0
LINE
  5
1183
330
2
100
AcDbEntity
  8
CENTER
100
AcDbLine
 10
480.1766831543355
 20
403.6915438420884
 30
0.0
 11
302.1766831544383
 21
403.6915438420884
 31
0.0
  0
LINE
  5
1184
330
2
100
AcDbEntity
  8
0
100
AcDbLine
 10
470.1766831543356
 20
420.6914518420884
 30
0.0
 11
457.1766831543356
 21
420.6914518420884
 31
0.0
  0
LINE
  5
1185
330
2
100
AcDbEntity
  8
0
100
AcDbLine
 10
470.1766831543356
 20
386.6915438420883
 30
0.0
 11
457.1766831543356
 21
386.6915438420883
 31
0.0
  0
LINE
  5
1186
330
2
100
AcDbEntity
  8
0
100
AcDbLine
 10
470.1766831543356
 20
420.6914518420884
 30
0.0
 11
470.1766831543356
 21
386.6915438420883
 31
0.0
  0
LINE
  5
1187
330
2
100
AcDbEntity
  8
0
100
AcDbLine
 10
332.1767901543354
 20
420.6915438420891
 30
0.0
 11
332.1767901543354
 21
386.6915438420888
 31
0.0
  0
LINE
  5
1188
330
2
100
AcDbEntity
  8
0
100
AcDbLine
 10
334.176683154341
 20
386.6915438420895
 30
0.0
 11
332.1767901543354
 21
386.6915438420895
 31
0.0
  0
LINE
  5
1189
330
2
100
AcDbEntity
  8
0
100
AcDbLine
 10
334.176683154341
 20
420.6915438420891
 30
0.0
 11
332.1767901543354
 21
420.6915438420891
 31
0.0
  0
ARC
  5
118A
330
2
100
AcDbEntity
  8
0
100
AcDbCircle
 10
621.2501692027127
 20
403.691543842086
 30
0.0
 40
12.15460200000234
100
AcDbArc
 50
104.2894211365818
 51
75.71057886341818
  0
LINE
  5
118B
330
2
100
AcDbEntity
  8
0
100
AcDbLine
 10
204.3072064653462
 20
417.4915468420886
 30
0.0
 11
198.3072064653462
 21
417.4915468420889
 31
0.0
  0
LINE
  5
118C
330
2
100
AcDbEntity
  8
0
100
AcDbLine
 10
204.3072064653462
 20
417.4915468420886
 30
0.0
 11
204.3072064653462
 21
414.2745490863472
 31
0.0
  0
LINE
  5
118D
330
2
100
AcDbEntity
  8
0
100
AcDbLine
 10
198.3072064653462
 20
417.4915468420886
 30
0.0
 11
198.3072064653462
 21
414.2745490863472
 31
0.0
  0
ARC
  5
118E
330
2
100
AcDbEntity
  8
0
100
AcDbCircle
 10
201.3072064653462
 20
403.6915438420888
 30
0.0
 40
11.0
100
AcDbArc
 50
105.8266201318575
 51
74.17337986814252
  0
CIRCLE
  5
118F
330
2
100
AcDbEntity
  8
0
100
AcDbCircle
 10
201.3072064653462
 20
403.6915438420895
 30
0.0
 40
16.99990799998784
  0
ARC
  5
1190
330
2
100
AcDbEntity
  8
0
100
AcDbCircle
 10
201.3072064653462
 20
403.6915438420895
 30
0.0
 40
12.15460200000234
100
AcDbArc
 50
104.2894211365818
 51
75.71057886341818
  0
CIRCLE
  5
1191
330
2
100
AcDbEntity
  8
0
100
AcDbCircle
 10
462.1766831543355
 20
403.6914978420882
 30
0.0
 40
2.0
  0
CIRCLE
  5
1192
330
2
100
AcDbEntity
  8
HOJO
100
AcDbCircle
 10
462.1766831543355
 20
403.6914978420882
 30
0.0
 40
2.5
  0
LINE
  5
1193
330
2
100
AcDbEntity
  8
CENTER
100
AcDbLine
 10
462.1766831543355
 20
408.7970855663702
 30
0.0
 11
462.1766831543355
 21
398.5859101178071
 31
0.0
  0
LINE
  5
1194
330
2
100
AcDbEntity
  8
0
100
AcDbLine
 10
672.2327266028789
 20
713.4015804327732
 30
0.0
 11
671.7327266028779
 21
713.9015804327737
 31
0.0
  0
LINE
  5
1195
330
2
100
AcDbEntity
  8
0
100
AcDbLine
 10
604.2502612027093
 20
599.4015804327618
 30
0.0
 11
604.2502612027093
 21
612.4015804327627
 31
0.0
  0
LINE
  5
1196
330
2
100
AcDbEntity
  8
0
100
AcDbLine
 10
638.2501692027091
 20
599.4015804327618
 30
0.0
 11
638.2501692027091
 21
612.4015804327618
 31
0.0
  0
LINE
  5
1197
330
2
100
AcDbEntity
  8
0
100
AcDbLine
 10
604.2502612027093
 20
599.4015804327618
 30
0.0
 11
638.2501692027091
 21
599.4015804327618
 31
0.0
  0
LINE
  5
1198
330
2
100
AcDbEntity
  8
0
100
AcDbLine
 10
604.2501692027091
 20
737.401473432762
 30
0.0
 11
638.2501692027091
 21
737.401473432762
 31
0.0
  0
LINE
  5
1199
330
2
100
AcDbEntity
  8
0
100
AcDbLine
 10
638.2501692027091
 20
735.4015804327573
 30
0.0
 11
638.2501692027091
 21
737.401473432762
 31
0.0
  0
LINE
  5
119A
330
2
100
AcDbEntity
  8
0
100
AcDbLine
 10
604.2501692027091
 20
735.4015804327564
 30
0.0
 11
604.2501692027091
 21
737.401473432762
 31
0.0
  0
CIRCLE
  5
119B
330
2
100
AcDbEntity
  8
0
100
AcDbCircle
 10
621.2501232027099
 20
607.4015804327618
 30
0.0
 40
2.0
  0
CIRCLE
  5
119C
330
2
100
AcDbEntity
  8
HOJO
100
AcDbCircle
 10
621.2501232027099
 20
607.4015804327618
 30
0.0
 40
2.5
  0
LINE
  5
119D
330
2
100
AcDbEntity
  8
CENTER
100
AcDbLine
 10
626.3557109269933
 20
607.4015804327618
 30
0.0
 11
616.1445354784301
 21
607.4015804327618
 31
0.0
  0
LINE
  5
119E
330
2
100
AcDbEntity
  8
0
100
AcDbLine
 10
398.6668060128851
 20
208.495012899831
 30
0.0
 11
404.1842210062188
 21
208.5431626510247
 31
0.0
  0
ARC
  5
119F
330
2
100
AcDbEntity
  8
0
100
AcDbCircle
 10
398.6842590838824
 20
206.4950890537027
 30
0.0
 40
2.0
100
AcDbArc
 50
90.50000000001761
 51
180.0
  0
LINE
  5
11A0
330
2
100
AcDbEntity
  8
0
100
AcDbLine
 10
398.6668060128851
 20
106.5913129006649
 30
0.0
 11
404.1842590838806
 21
106.5431628171727
 31
0.0
  0
ARC
  5
11A1
330
2
100
AcDbEntity
  8
0
100
AcDbCircle
 10
398.6842590838824
 20
108.5912367467934
 30
0.0
 40
2.0
100
AcDbArc
 50
180.0
 51
269.4999999999824
  0
LINE
  5
11A3
330
2
100
AcDbEntity
  8
0
100
AcDbLine
 10
671.9901692027097
 20
684.4015804327691
 30
0.0
 11
671.7327266028834
 21
713.9015804327709
 31
0.0
  0
LINE
  5
11A4
330
2
100
AcDbEntity
  8
0
100
AcDbLine
 10
150.827206465343
 20
360.6915438420879
 30
0.0
 11
150.827206465343
 21
446.6915438420876
 31
0.0
  0
ARC
  5
11A5
330
2
100
AcDbEntity
  8
0
 48
0.5
100
AcDbCircle
 10
158.8272064653493
 20
446.6915438420876
 30
0.0
 40
8.0
100
AcDbArc
 50
90.0
 51
179.9999999999739
  0
ARC
  5
11A6
330
2
100
AcDbEntity
  8
0
100
AcDbCircle
 10
158.827206465343
 20
360.6915438420879
 30
0.0
 40
8.0
100
AcDbArc
 50
179.9999999999739
 51
270.0
  0
LINE
  5
11DD
330
2
100
AcDbEntity
  8
0
100
AcDbLine
 10
938.7515070332611
 20
453.9672138154569
 30
0.0
 11
938.7515070332611
 21
353.4158738687234
 31
0.0
  0
LINE
  5
11DE
330
2
100
AcDbEntity
  8
0
100
AcDbLine
 10
933.7515070332612
 20
448.691543842087
 30
0.0
 11
933.7515070332612
 21
358.6915438420874
 31
0.0
  0
LINE
  5
11DF
330
2
100
AcDbEntity
  8
0
100
AcDbLine
 10
938.7515070332611
 20
448.691543842087
 30
0.0
 11
933.7515070332612
 21
448.691543842087
 31
0.0
  0
LINE
  5
11E0
330
2
100
AcDbEntity
  8
0
100
AcDbLine
 10
938.7515070332611
 20
358.6915438420874
 30
0.0
 11
933.7515070332612
 21
358.6915438420874
 31
0.0
  0
LINE
  5
11E1
330
2
100
AcDbEntity
  8
0
100
AcDbLine
 10
919.7515070332611
 20
435.7601662924749
 30
0.0
 11
919.7515070332611
 21
371.6229213917018
 31
0.0
  0
LINE
  5
11E2
330
2
100
AcDbEntity
  8
0
100
AcDbLine
 10
931.8213060266645
 20
438.1130305105485
 30
0.0
 11
921.6817080398561
 21
437.7589479465128
 31
0.0
  0
ARC
  5
11E3
330
2
100
AcDbEntity
  8
0
100
AcDbCircle
 10
931.7515070332612
 20
440.1118121645864
 30
0.0
 40
2.0
100
AcDbArc
 50
272.0000000000036
 51
0.0
  0
ARC
  5
11E4
330
2
100
AcDbEntity
  8
0
100
AcDbCircle
 10
921.7515070332611
 20
435.7601662924749
 30
0.0
 40
2.0
100
AcDbArc
 50
92.00000000000365
 51
180.0
  0
LINE
  5
11E5
330
2
100
AcDbEntity
  8
0
100
AcDbLine
 10
931.8213060266662
 20
369.2700571736282
 30
0.0
 11
921.6817080398561
 21
369.6241397376639
 31
0.0
  0
ARC
  5
11E6
330
2
100
AcDbEntity
  8
0
100
AcDbCircle
 10
931.7515070332612
 20
367.2712755195903
 30
0.0
 40
2.0
100
AcDbArc
 50
0.0
 51
87.99999999999636
  0
ARC
  5
11E7
330
2
100
AcDbEntity
  8
0
100
AcDbCircle
 10
921.7515070332611
 20
371.6229213917018
 30
0.0
 40
2.0
100
AcDbArc
 50
180.0
 51
267.9999999999963
  0
LINE
  5
11E8
330
2
100
AcDbEntity
  8
0
100
AcDbLine
 10
1042.751507033253
 20
446.7695907563707
 30
0.0
 11
1042.751507033253
 21
360.6134969278223
 31
0.0
  0
LINE
  5
11E9
330
2
100
AcDbEntity
  8
0
100
AcDbLine
 10
940.7515070332539
 20
446.7695907563716
 30
0.0
 11
940.7515070332539
 21
360.6134969278214
 31
0.0
  0
ARC
  5
11EA
330
2
100
AcDbEntity
  8
0
100
AcDbCircle
 10
948.7515070332539
 20
360.6134969278214
 30
0.0
 40
8.0
100
AcDbArc
 50
180.0
 51
269.4382946674683
  0
LINE
  5
11EB
330
2
100
AcDbEntity
  8
0
100
AcDbLine
 10
991.7515070332539
 20
455.1915438420961
 30
0.0
 11
1034.829934636785
 21
454.769206316571
 31
0.0
  0
ARC
  5
11EC
330
2
100
AcDbEntity
  8
0
100
AcDbCircle
 10
1034.751507033253
 20
446.7695907563707
 30
0.0
 40
8.0
100
AcDbArc
 50
0.0
 51
89.43829466741624
  0
LINE
  5
11ED
330
2
100
AcDbEntity
  8
0
100
AcDbLine
 10
991.7515070332539
 20
455.1915438420961
 30
0.0
 11
948.6730794297237
 21
454.7692063165719
 31
0.0
  0
ARC
  5
11EE
330
2
100
AcDbEntity
  8
0
100
AcDbCircle
 10
948.7515070332539
 20
446.7695907563716
 30
0.0
 40
8.0
100
AcDbArc
 50
90.56170533253165
 51
180.0
  0
LINE
  5
11EF
330
2
100
AcDbEntity
  8
0
100
AcDbLine
 10
991.7515070332539
 20
352.191543842097
 30
0.0
 11
1034.829934636785
 21
352.6138813676221
 31
0.0
  0
ARC
  5
11F0
330
2
100
AcDbEntity
  8
0
100
AcDbCircle
 10
1034.751507033253
 20
360.6134969278223
 30
0.0
 40
8.0
100
AcDbArc
 50
270.5617053325316
 51
0.0
  0
LINE
  5
11F1
330
2
100
AcDbEntity
  8
0
100
AcDbLine
 10
991.7515070332539
 20
352.191543842097
 30
0.0
 11
948.6730794297237
 21
352.6138813676212
 31
0.0
  0
LINE
  5
11F2
330
2
100
AcDbEntity
  8
0
100
AcDbLine
 10
945.3813440107861
 20
454.0250715262351
 30
0.0
 11
938.7515070332611
 21
453.9672138154569
 31
0.0
  0
LINE
  5
11F3
330
2
100
AcDbEntity
  8
0
100
AcDbLine
 10
945.3813440107861
 20
353.3580161579453
 30
0.0
 11
938.7515070332611
 21
353.4158738687234
 31
0.0
  0
LINE
  5
11F4
330
2
100
AcDbEntity
  8
CENTER
100
AcDbLine
 10
991.7515070332539
 20
465.1915438420961
 30
0.0
 11
991.7515070332539
 21
342.191543842097
 31
0.0
  0
LINE
  5
11F5
330
2
100
AcDbEntity
  8
CENTER
100
AcDbLine
 10
896.7515070332465
 20
403.6915438420884
 30
0.0
 11
1054.751400033246
 21
403.6915438420884
 31
0.0
  0
LINE
  5
11F6
330
2
100
AcDbEntity
  8
0
100
AcDbLine
 10
906.7515070332467
 20
420.6914518420967
 30
0.0
 11
919.7515070332466
 21
420.6914518420967
 31
0.0
  0
LINE
  5
11F7
330
2
100
AcDbEntity
  8
0
100
AcDbLine
 10
906.7515070332467
 20
386.6915438420967
 30
0.0
 11
919.7515070332466
 21
386.6915438420967
 31
0.0
  0
LINE
  5
11F8
330
2
100
AcDbEntity
  8
0
100
AcDbLine
 10
906.7515070332467
 20
420.6914518420967
 30
0.0
 11
906.7515070332467
 21
386.6915438420967
 31
0.0
  0
LINE
  5
11F9
330
2
100
AcDbEntity
  8
0
100
AcDbLine
 10
1044.751400033246
 20
420.6915438420974
 30
0.0
 11
1044.751400033246
 21
386.6915438420974
 31
0.0
  0
LINE
  5
11FA
330
2
100
AcDbEntity
  8
0
100
AcDbLine
 10
1042.751507033242
 20
386.6915438420979
 30
0.0
 11
1044.751400033246
 21
386.6915438420979
 31
0.0
  0
LINE
  5
11FB
330
2
100
AcDbEntity
  8
0
100
AcDbLine
 10
1042.751507033241
 20
420.6915438420974
 30
0.0
 11
1044.751400033246
 21
420.6915438420974
 31
0.0
  0
LINE
  5
11FC
330
2
100
AcDbEntity
  8
CENTER
100
AcDbLine
 10
1025.681507033254
 20
446.1215438420886
 30
0.0
 11
1042.681507033254
 21
446.1215438420886
 31
0.0
  0
LINE
  5
11FD
330
2
100
AcDbEntity
  8
0
100
AcDbLine
 10
948.7515070332557
 20
454.6915438420883
 30
0.0
 11
1034.751507033253
 21
454.6915438420883
 31
0.0
  0
LINE
  5
11FE
330
2
100
AcDbEntity
  8
CENTER
100
AcDbLine
 10
1025.681507033254
 20
361.261543842089
 30
0.0
 11
1042.681507033254
 21
361.261543842089
 31
0.0
  0
ARC
  5
11FF
330
2
100
AcDbEntity
  8
0
100
AcDbCircle
 10
1018.751507033254
 20
376.6915438420884
 30
0.0
 40
15.0
100
AcDbArc
 50
270.0
 51
0.0
  0
ARC
  5
1200
330
2
100
AcDbEntity
  8
0
100
AcDbCircle
 10
1018.751507033252
 20
376.6915438420884
 30
0.0
 40
13.0
100
AcDbArc
 50
270.0
 51
0.0
  0
LINE
  5
1201
330
2
100
AcDbEntity
  8
0
100
AcDbLine
 10
948.7515070332539
 20
352.6915438420883
 30
0.0
 11
1034.751507033253
 21
352.6915438420883
 31
0.0
  0
ARC
  5
1202
330
2
100
AcDbEntity
  8
0
100
AcDbCircle
 10
1018.751507033252
 20
430.6915438420883
 30
0.0
 40
13.0
100
AcDbArc
 50
0.0
 51
90.0
  0
ARC
  5
1203
330
2
100
AcDbEntity
  8
0
100
AcDbCircle
 10
1018.751507033254
 20
430.6915438420883
 30
0.0
 40
15.0
100
AcDbArc
 50
0.0
 51
90.0
  0
LINE
  5
1204
330
2
100
AcDbEntity
  8
0
100
AcDbLine
 10
1031.751507033252
 20
430.6915438420883
 30
0.0
 11
1031.751507033252
 21
376.6915438420884
 31
0.0
  0
LINE
  5
1205
330
2
100
AcDbEntity
  8
0
100
AcDbLine
 10
951.7515070332539
 20
430.6915438420883
 30
0.0
 11
951.7515070332539
 21
376.6915438420884
 31
0.0
  0
LINE
  5
1206
330
2
100
AcDbEntity
  8
0
100
AcDbLine
 10
949.7515070332539
 20
430.6915438420883
 30
0.0
 11
949.7515070332539
 21
376.6915438420884
 31
0.0
  0
LINE
  5
1207
330
2
100
AcDbEntity
  8
CENTER
100
AcDbLine
 10
1023.571312186648
 20
364.3717386886938
 30
0.0
 11
1023.571312186648
 21
379.3717386886938
 31
0.0
  0
LINE
  5
1208
330
2
100
AcDbEntity
  8
CENTER
100
AcDbLine
 10
959.9317018798593
 20
364.3717386886938
 30
0.0
 11
959.9317018798593
 21
379.3717386886938
 31
0.0
  0
ARC
  5
1209
330
2
100
AcDbEntity
  8
0
100
AcDbCircle
 10
964.751507033254
 20
376.6915438420884
 30
0.0
 40
15.0
100
AcDbArc
 50
180.0
 51
270.0
  0
ARC
  5
120A
330
2
100
AcDbEntity
  8
0
100
AcDbCircle
 10
964.751507033254
 20
376.6915438420884
 30
0.0
 40
13.0
100
AcDbArc
 50
180.0
 51
270.0
  0
LINE
  5
120B
330
2
100
AcDbEntity
  8
0
100
AcDbLine
 10
964.751507033254
 20
361.6915438420883
 30
0.0
 11
1018.751507033254
 21
361.6915438420883
 31
0.0
  0
LINE
  5
120C
330
2
100
AcDbEntity
  8
0
100
AcDbLine
 10
964.751507033254
 20
363.6915438420883
 30
0.0
 11
1018.751507033252
 21
363.6915438420883
 31
0.0
  0
ARC
  5
120D
330
2
100
AcDbEntity
  8
0
100
AcDbCircle
 10
948.7515070332539
 20
360.6915438420883
 30
0.0
 40
8.0
100
AcDbArc
 50
180.0
 51
270.0
  0
LINE
  5
120E
330
2
100
AcDbEntity
  8
CENTER
100
AcDbLine
 10
949.3215070332537
 20
352.761543842089
 30
0.0
 11
949.3215070332537
 21
369.761543842089
 31
0.0
  0
LINE
  5
120F
330
2
100
AcDbEntity
  8
CENTER
100
AcDbLine
 10
957.8215070332536
 20
361.261543842089
 30
0.0
 11
940.8215070332536
 21
361.261543842089
 31
0.0
  0
LINE
  5
1210
330
2
100
AcDbEntity
  8
CENTER
100
AcDbLine
 10
967.4317018798593
 20
371.8717386886938
 30
0.0
 11
952.4317018798594
 21
371.8717386886938
 31
0.0
  0
LINE
  5
1211
330
2
100
AcDbEntity
  8
CENTER
100
AcDbLine
 10
1016.071312186648
 20
371.8717386886938
 30
0.0
 11
1031.071312186648
 21
371.8717386886938
 31
0.0
  0
LINE
  5
1212
330
2
100
AcDbEntity
  8
0
100
AcDbLine
 10
964.751507033254
 20
445.6915438420884
 30
0.0
 11
1018.751507033254
 21
445.6915438420884
 31
0.0
  0
LINE
  5
1213
330
2
100
AcDbEntity
  8
0
100
AcDbLine
 10
964.751507033254
 20
443.6915438420883
 30
0.0
 11
1018.751507033252
 21
443.6915438420883
 31
0.0
  0
ARC
  5
1214
330
2
100
AcDbEntity
  8
0
100
AcDbCircle
 10
948.7515070332557
 20
446.6915438420883
 30
0.0
 40
8.0
100
AcDbArc
 50
90.0
 51
180.0
  0
LINE
  5
1215
330
2
100
AcDbEntity
  8
CENTER
100
AcDbLine
 10
949.3215070332537
 20
454.6215438420886
 30
0.0
 11
949.3215070332537
 21
437.6215438420886
 31
0.0
  0
ARC
  5
1216
330
2
100
AcDbEntity
  8
0
100
AcDbCircle
 10
964.751507033254
 20
430.6915438420883
 30
0.0
 40
15.0
100
AcDbArc
 50
90.0
 51
180.0
  0
LINE
  5
1217
330
2
100
AcDbEntity
  8
CENTER
100
AcDbLine
 10
967.4317018798593
 20
435.5113489954834
 30
0.0
 11
952.4317018798594
 21
435.5113489954834
 31
0.0
  0
ARC
  5
1218
330
2
100
AcDbEntity
  8
0
100
AcDbCircle
 10
964.751507033254
 20
430.6915438420883
 30
0.0
 40
13.0
100
AcDbArc
 50
90.0
 51
180.0
  0
LINE
  5
1219
330
2
100
AcDbEntity
  8
CENTER
100
AcDbLine
 10
959.9317018798593
 20
443.0113489954833
 30
0.0
 11
959.9317018798593
 21
428.0113489954834
 31
0.0
  0
LINE
  5
121A
330
2
100
AcDbEntity
  8
CENTER
100
AcDbLine
 10
957.8215070332536
 20
446.1215438420886
 30
0.0
 11
940.8215070332536
 21
446.1215438420886
 31
0.0
  0
LINE
  5
121B
330
2
100
AcDbEntity
  8
CENTER
100
AcDbLine
 10
1023.571312186648
 20
443.0113489954833
 30
0.0
 11
1023.571312186648
 21
428.0113489954834
 31
0.0
  0
LINE
  5
121C
330
2
100
AcDbEntity
  8
CENTER
100
AcDbLine
 10
1016.071312186648
 20
435.5113489954834
 30
0.0
 11
1031.071312186648
 21
435.5113489954834
 31
0.0
  0
LINE
  5
121D
330
2
100
AcDbEntity
  8
0
100
AcDbLine
 10
1033.751507033253
 20
430.6915438420883
 30
0.0
 11
1033.751507033253
 21
376.6915438420884
 31
0.0
  0
ARC
  5
121E
330
2
100
AcDbEntity
  8
0
100
AcDbCircle
 10
1034.751507033253
 20
360.6915438420883
 30
0.0
 40
8.0
100
AcDbArc
 50
270.0
 51
0.0
  0
LINE
  5
121F
330
2
100
AcDbEntity
  8
CENTER
100
AcDbLine
 10
1034.181507033254
 20
352.761543842089
 30
0.0
 11
1034.181507033254
 21
369.761543842089
 31
0.0
  0
ARC
  5
1220
330
2
100
AcDbEntity
  8
0
100
AcDbCircle
 10
1034.751507033253
 20
446.6915438420883
 30
0.0
 40
8.0
100
AcDbArc
 50
0.0
 51
90.0
  0
LINE
  5
1221
330
2
100
AcDbEntity
  8
CENTER
100
AcDbLine
 10
1034.181507033254
 20
454.6215438420886
 30
0.0
 11
1034.181507033254
 21
437.6215438420886
 31
0.0
  0
LINE
  5
1222
330
2
100
AcDbEntity
  8
0
100
AcDbLine
 10
766.2501912027147
 20
642.4015804327723
 30
0.0
 11
766.2501912027147
 21
665.2784748071567
 31
0.0
  0
LINE
  5
1223
330
2
100
AcDbEntity
  8
0
100
AcDbLine
 10
766.2501912027147
 20
673.5246860583815
 30
0.0
 11
766.2501912027147
 21
726.401580432766
 31
0.0
  0
LINE
  5
1224
330
2
100
AcDbEntity
  8
0
100
AcDbLine
 10
768.2501912027147
 20
644.3317601730564
 30
0.0
 11
768.2501912027129
 21
724.4714006924814
 31
0.0
  0
LINE
  5
1225
330
2
100
AcDbEntity
  8
0
100
AcDbLine
 10
732.2501912027111
 20
634.523794660226
 30
0.0
 11
732.2501912027129
 21
734.2793662053122
 31
0.0
  0
LINE
  5
1226
330
2
100
AcDbEntity
  8
0
100
AcDbLine
 10
768.2501912027129
 20
724.4714006924814
 30
0.0
 11
766.2501912027111
 21
726.4015804327686
 31
0.0
  0
LINE
  5
1227
330
2
100
AcDbEntity
  8
0
100
AcDbLine
 10
772.2501912027111
 20
724.4015804327687
 30
0.0
 11
768.2501912027129
 21
724.4714006924814
 31
0.0
  0
LINE
  5
1228
330
2
100
AcDbEntity
  8
0
100
AcDbLine
 10
717.2501912027111
 20
735.4015804327687
 30
0.0
 11
731.2589177382107
 21
735.2793281283766
 31
0.0
  0
LINE
  5
1229
330
2
100
AcDbEntity
  8
0
100
AcDbLine
 10
766.2501912027111
 20
726.4015804327686
 30
0.0
 11
739.250191202711
 21
726.5586618376646
 31
0.0
  0
LINE
  5
122A
330
2
100
AcDbEntity
  8
0
100
AcDbLine
 10
768.2501912027147
 20
644.3317601730564
 30
0.0
 11
766.2501912027147
 21
642.4015804327723
 31
0.0
  0
LINE
  5
122B
330
2
100
AcDbEntity
  8
0
100
AcDbLine
 10
772.2501912027111
 20
644.4015804327696
 30
0.0
 11
768.2501912027147
 21
644.3317601730564
 31
0.0
  0
LINE
  5
122C
330
2
100
AcDbEntity
  8
0
100
AcDbLine
 10
717.2501912027111
 20
633.4015804327695
 30
0.0
 11
731.2589177382107
 21
633.5238327371617
 31
0.0
  0
LINE
  5
122D
330
2
100
AcDbEntity
  8
0
100
AcDbLine
 10
766.2501912027129
 20
642.4015804327695
 30
0.0
 11
739.250191202711
 21
642.2444990278736
 31
0.0
  0
CIRCLE
  5
122E
330
2
100
AcDbEntity
  8
0
100
AcDbCircle
 10
991.7515070332539
 20
403.6915438420884
 30
0.0
 40
34.99999999953029
  0
ARC
  5
122F
330
2
100
AcDbEntity
  8
0
100
AcDbCircle
 10
731.250191202711
 20
634.523794660226
 30
0.0
 40
1.0
100
AcDbArc
 50
270.4999999999654
 51
0.0
  0
ARC
  5
1230
330
2
100
AcDbEntity
  8
0
100
AcDbCircle
 10
731.2501912027129
 20
734.2793662053122
 30
0.0
 40
1.0
100
AcDbArc
 50
0.0
 51
89.5000000000345
  0
LINE
  5
1231
330
2
100
AcDbEntity
  8
0
100
AcDbLine
 10
772.2501912027111
 20
644.4015804327696
 30
0.0
 11
772.2501912027111
 21
724.4015804327687
 31
0.0
  0
CIRCLE
  5
1232
330
2
100
AcDbEntity
  8
CENTER
100
AcDbCircle
 10
991.7515070332539
 20
403.6915438420884
 30
0.0
 40
45.0
  0
LINE
  5
1233
330
2
100
AcDbEntity
  8
HIDS
100
AcDbLine
 10
983.0015070332539
 20
445.6915438420884
 30
0.0
 11
983.0015070332548
 21
431.3400067288385
 31
0.0
  0
LINE
  5
1234
330
2
100
AcDbEntity
  8
HIDS
100
AcDbLine
 10
970.5015070332539
 20
445.6915438420884
 30
0.0
 11
970.5015070332539
 21
423.4257147139542
 31
0.0
  0
LINE
  5
1235
330
2
100
AcDbEntity
  8
0
100
AcDbLine
 10
766.2501912027147
 20
445.6915438420855
 30
0.0
 11
766.2501912027147
 21
442.1908441576214
 31
0.0
  0
LINE
  5
1236
330
2
100
AcDbEntity
  8
0
100
AcDbLine
 10
768.2501912027147
 20
443.761364101801
 30
0.0
 11
768.2501912027147
 21
443.5720523286526
 31
0.0
  0
LINE
  5
1237
330
2
100
AcDbEntity
  8
0
100
AcDbLine
 10
732.2501912027111
 20
453.5693296146318
 30
0.0
 11
732.2501912027129
 21
414.7342448475718
 31
0.0
  0
LINE
  5
1238
330
2
100
AcDbEntity
  8
0
100
AcDbLine
 10
732.2501912027129
 20
403.6915438420882
 30
0.0
 11
732.2501912027129
 21
353.8137580695456
 31
0.0
  0
LINE
  5
1239
330
2
100
AcDbEntity
  8
0
100
AcDbLine
 10
768.2501912027129
 20
363.6217235823759
 30
0.0
 11
766.2501912027111
 21
361.6915438420891
 31
0.0
  0
LINE
  5
123A
330
2
100
AcDbEntity
  8
0
100
AcDbLine
 10
772.2501912027111
 20
363.6915438420891
 30
0.0
 11
768.2501912027129
 21
363.6217235823759
 31
0.0
  0
LINE
  5
123B
330
2
100
AcDbEntity
  8
0
100
AcDbLine
 10
717.2501912027111
 20
352.6915438420891
 30
0.0
 11
731.2589177382107
 21
352.8137961464807
 31
0.0
  0
LINE
  5
123C
330
2
100
AcDbEntity
  8
0
100
AcDbLine
 10
766.2501912027111
 20
361.6915438420891
 30
0.0
 11
739.250191202711
 21
361.5344624371927
 31
0.0
  0
LINE
  5
123D
330
2
100
AcDbEntity
  8
0
100
AcDbLine
 10
768.2501912027147
 20
443.761364101801
 30
0.0
 11
766.2501912027147
 21
445.6915438420855
 31
0.0
  0
LINE
  5
123E
330
2
100
AcDbEntity
  8
0
100
AcDbLine
 10
772.2501912027111
 20
443.6915438420882
 30
0.0
 11
768.2501912027147
 21
443.761364101801
 31
0.0
  0
LINE
  5
123F
330
2
100
AcDbEntity
  8
0
100
AcDbLine
 10
717.2501912027111
 20
454.6915438420882
 30
0.0
 11
731.2589177382107
 21
454.5692915376957
 31
0.0
  0
LINE
  5
1240
330
2
100
AcDbEntity
  8
0
100
AcDbLine
 10
767.2500388753944
 20
445.6857268984917
 30
0.0
 11
739.250191202711
 21
445.8486252469837
 31
0.0
  0
ARC
  5
1241
330
2
100
AcDbEntity
  8
0
100
AcDbCircle
 10
731.250191202711
 20
453.5693296146318
 30
0.0
 40
1.0
100
AcDbArc
 50
0.0
 51
89.5000000000345
  0
ARC
  5
1242
330
2
100
AcDbEntity
  8
0
100
AcDbCircle
 10
731.2501912027129
 20
353.8137580695456
 30
0.0
 40
1.0
100
AcDbArc
 50
270.4999999999654
 51
0.0
  0
LINE
  5
1243
330
2
100
AcDbEntity
  8
0
100
AcDbLine
 10
772.2501912027111
 20
443.6915438420882
 30
0.0
 11
772.2501912027111
 21
363.6915438420891
 31
0.0
  0
CIRCLE
  5
1244
330
2
100
AcDbEntity
  8
0
100
AcDbCircle
 10
949.3215070332537
 20
446.1215438420886
 30
0.0
 40
5.0
  0
CIRCLE
  5
1245
330
2
100
AcDbEntity
  8
0
100
AcDbCircle
 10
949.3215070332537
 20
446.1215438420886
 30
0.0
 40
4.307179676972423
  0
CIRCLE
  5
1246
330
2
100
AcDbEntity
  8
0
100
AcDbCircle
 10
949.3215070332537
 20
446.1215438420886
 30
0.0
 40
2.886751345948113
  0
LWPOLYLINE
  5
1247
330
2
100
AcDbEntity
  8
0
100
AcDbPolyline
 90
        6
 70
     1
 43
0.0
 10
951.8215070332535
 20
447.5649195150627
 10
949.3215070332537
 20
449.0082951880368
 10
946.8215070332536
 20
447.5649195150627
 10
946.8215070332536
 20
444.6781681691145
 10
949.3215070332537
 20
443.2347924961405
 10
951.8215070332535
 20
444.6781681691145
  0
CIRCLE
  5
1248
330
2
100
AcDbEntity
  8
0
100
AcDbCircle
 10
1034.181507033254
 20
446.1215438420886
 30
0.0
 40
5.0
  0
CIRCLE
  5
1249
330
2
100
AcDbEntity
  8
0
100
AcDbCircle
 10
1034.181507033254
 20
446.1215438420886
 30
0.0
 40
4.307179676972423
  0
CIRCLE
  5
124A
330
2
100
AcDbEntity
  8
0
100
AcDbCircle
 10
1034.181507033254
 20
446.1215438420886
 30
0.0
 40
2.886751345948113
  0
LWPOLYLINE
  5
124B
330
2
100
AcDbEntity
  8
0
100
AcDbPolyline
 90
        6
 70
     1
 43
0.0
 10
1036.681507033254
 20
447.5649195150627
 10
1034.181507033254
 20
449.0082951880368
 10
1031.681507033254
 20
447.5649195150627
 10
1031.681507033254
 20
444.6781681691145
 10
1034.181507033254
 20
443.2347924961405
 10
1036.681507033254
 20
444.6781681691145
  0
CIRCLE
  5
124C
330
2
100
AcDbEntity
  8
0
100
AcDbCircle
 10
1034.181507033254
 20
361.261543842089
 30
0.0
 40
5.0
  0
CIRCLE
  5
124D
330
2
100
AcDbEntity
  8
0
100
AcDbCircle
 10
1034.181507033254
 20
361.261543842089
 30
0.0
 40
4.307179676972423
  0
CIRCLE
  5
124E
330
2
100
AcDbEntity
  8
0
100
AcDbCircle
 10
1034.181507033254
 20
361.261543842089
 30
0.0
 40
2.886751345948113
  0
LWPOLYLINE
  5
124F
330
2
100
AcDbEntity
  8
0
100
AcDbPolyline
 90
        6
 70
     1
 43
0.0
 10
1036.681507033254
 20
362.704919515063
 10
1034.181507033254
 20
364.1482951880371
 10
1031.681507033254
 20
362.704919515063
 10
1031.681507033254
 20
359.8181681691149
 10
1034.181507033254
 20
358.3747924961408
 10
1036.681507033254
 20
359.8181681691149
  0
CIRCLE
  5
1250
330
2
100
AcDbEntity
  8
0
100
AcDbCircle
 10
949.3215070332537
 20
361.261543842089
 30
0.0
 40
5.0
  0
CIRCLE
  5
1251
330
2
100
AcDbEntity
  8
0
100
AcDbCircle
 10
949.3215070332537
 20
361.261543842089
 30
0.0
 40
4.307179676972423
  0
CIRCLE
  5
1252
330
2
100
AcDbEntity
  8
0
100
AcDbCircle
 10
949.3215070332537
 20
361.261543842089
 30
0.0
 40
2.886751345948113
  0
LWPOLYLINE
  5
1253
330
2
100
AcDbEntity
  8
0
100
AcDbPolyline
 90
        6
 70
     1
 43
0.0
 10
951.8215070332535
 20
362.704919515063
 10
949.3215070332537
 20
364.1482951880371
 10
946.8215070332536
 20
362.704919515063
 10
946.8215070332536
 20
359.8181681691149
 10
949.3215070332537
 20
358.3747924961408
 10
951.8215070332535
 20
359.8181681691149
  0
LINE
  5
1254
330
2
100
AcDbEntity
  8
0
100
AcDbLine
 10
738.8501912027114
 20
441.1215438420885
 30
0.0
 11
739.250191202711
 21
441.8143641651163
 31
0.0
  0
LINE
  5
1255
330
2
100
AcDbEntity
  8
0
100
AcDbLine
 10
738.8501912027114
 20
441.1215438420885
 30
0.0
 11
738.8501912027114
 21
451.1215438420885
 31
0.0
  0
LINE
  5
1256
330
2
100
AcDbEntity
  8
0
100
AcDbLine
 10
733.2501912027111
 20
441.1215438420885
 30
0.0
 11
733.2501912027111
 21
451.1215438420885
 31
0.0
  0
LINE
  5
1257
330
2
100
AcDbEntity
  8
0
100
AcDbLine
 10
733.2501912027111
 20
451.1215438420885
 30
0.0
 11
732.2501912027111
 21
451.1215438420885
 31
0.0
  0
LINE
  5
1258
330
2
100
AcDbEntity
  8
0
100
AcDbLine
 10
732.2501912027111
 20
451.1215438420885
 30
0.0
 11
732.2501912027111
 21
441.1215438420885
 31
0.0
  0
LINE
  5
1259
330
2
100
AcDbEntity
  8
0
100
AcDbLine
 10
732.2501912027111
 20
441.1215438420885
 30
0.0
 11
733.2501912027111
 21
441.1215438420885
 31
0.0
  0
LINE
  5
125A
330
2
100
AcDbEntity
  8
0
100
AcDbLine
 10
733.2501912027111
 20
441.1215438420885
 30
0.0
 11
733.2501912027111
 21
451.1215438420885
 31
0.0
  0
LINE
  5
125B
330
2
100
AcDbEntity
  8
0
100
AcDbLine
 10
738.8501912027114
 20
441.1215438420885
 30
0.0
 11
733.2501912027111
 21
441.1215438420885
 31
0.0
  0
LINE
  5
125C
330
2
100
AcDbEntity
  8
0
100
AcDbLine
 10
739.250191202711
 20
450.4287235190613
 30
0.0
 11
739.250191202711
 21
441.8143641651163
 31
0.0
  0
LINE
  5
125D
330
2
100
AcDbEntity
  8
0
100
AcDbLine
 10
733.2501912027111
 20
451.1215438420885
 30
0.0
 11
738.8501912027114
 21
451.1215438420885
 31
0.0
  0
LINE
  5
125E
330
2
100
AcDbEntity
  8
0
100
AcDbLine
 10
738.8501912027114
 20
451.1215438420885
 30
0.0
 11
739.250191202711
 21
450.4287235190613
 31
0.0
  0
LINE
  5
125F
330
2
100
AcDbEntity
  8
CENTER
  6
CENS
100
AcDbLine
 10
712.2501912027111
 20
446.1215438420885
 30
0.0
 11
744.2501912027111
 21
446.1215438420885
 31
0.0
  0
LINE
  5
1260
330
2
100
AcDbEntity
  8
0
100
AcDbLine
 10
738.8501912027114
 20
366.2615438420889
 30
0.0
 11
739.250191202711
 21
365.5687235190607
 31
0.0
  0
LINE
  5
1261
330
2
100
AcDbEntity
  8
0
100
AcDbLine
 10
738.8501912027114
 20
366.2615438420889
 30
0.0
 11
738.8501912027114
 21
356.2615438420889
 31
0.0
  0
LINE
  5
1262
330
2
100
AcDbEntity
  8
0
100
AcDbLine
 10
733.2501912027111
 20
366.2615438420889
 30
0.0
 11
733.2501912027111
 21
356.2615438420889
 31
0.0
  0
LINE
  5
1263
330
2
100
AcDbEntity
  8
0
100
AcDbLine
 10
733.2501912027111
 20
356.2615438420889
 30
0.0
 11
732.2501912027111
 21
356.2615438420889
 31
0.0
  0
LINE
  5
1264
330
2
100
AcDbEntity
  8
0
100
AcDbLine
 10
732.2501912027111
 20
356.2615438420889
 30
0.0
 11
732.2501912027111
 21
366.2615438420889
 31
0.0
  0
LINE
  5
1265
330
2
100
AcDbEntity
  8
0
100
AcDbLine
 10
732.2501912027111
 20
366.2615438420889
 30
0.0
 11
733.2501912027111
 21
366.2615438420889
 31
0.0
  0
LINE
  5
1266
330
2
100
AcDbEntity
  8
0
100
AcDbLine
 10
733.2501912027111
 20
366.2615438420889
 30
0.0
 11
733.2501912027111
 21
356.2615438420889
 31
0.0
  0
LINE
  5
1267
330
2
100
AcDbEntity
  8
0
100
AcDbLine
 10
738.8501912027114
 20
366.2615438420889
 30
0.0
 11
733.2501912027111
 21
366.2615438420889
 31
0.0
  0
LINE
  5
1268
330
2
100
AcDbEntity
  8
0
100
AcDbLine
 10
739.250191202711
 20
356.9543641651161
 30
0.0
 11
739.250191202711
 21
365.5687235190607
 31
0.0
  0
LINE
  5
1269
330
2
100
AcDbEntity
  8
0
100
AcDbLine
 10
733.2501912027111
 20
356.2615438420889
 30
0.0
 11
738.8501912027114
 21
356.2615438420889
 31
0.0
  0
LINE
  5
126A
330
2
100
AcDbEntity
  8
0
100
AcDbLine
 10
738.8501912027114
 20
356.2615438420884
 30
0.0
 11
739.250191202711
 21
356.9543641651161
 31
0.0
  0
LINE
  5
126B
330
2
100
AcDbEntity
  8
CENTER
  6
CENS
100
AcDbLine
 10
712.2501912027111
 20
361.2615438420888
 30
0.0
 11
744.2501912027111
 21
361.2615438420888
 31
0.0
  0
LINE
  5
126C
330
2
100
AcDbEntity
  8
0
100
AcDbLine
 10
738.8501912027114
 20
646.9715804327693
 30
0.0
 11
739.250191202711
 21
646.2787601097415
 31
0.0
  0
LINE
  5
126D
330
2
100
AcDbEntity
  8
0
100
AcDbLine
 10
738.8501912027114
 20
646.9715804327693
 30
0.0
 11
738.8501912027114
 21
636.9715804327693
 31
0.0
  0
LINE
  5
126E
330
2
100
AcDbEntity
  8
0
100
AcDbLine
 10
733.2501912027111
 20
646.9715804327693
 30
0.0
 11
733.2501912027111
 21
636.9715804327693
 31
0.0
  0
LINE
  5
126F
330
2
100
AcDbEntity
  8
0
100
AcDbLine
 10
733.2501912027111
 20
636.9715804327693
 30
0.0
 11
732.2501912027111
 21
636.9715804327693
 31
0.0
  0
LINE
  5
1270
330
2
100
AcDbEntity
  8
0
100
AcDbLine
 10
732.2501912027111
 20
636.9715804327693
 30
0.0
 11
732.2501912027111
 21
646.9715804327693
 31
0.0
  0
LINE
  5
1271
330
2
100
AcDbEntity
  8
0
100
AcDbLine
 10
732.2501912027111
 20
646.9715804327693
 30
0.0
 11
733.2501912027111
 21
646.9715804327693
 31
0.0
  0
LINE
  5
1272
330
2
100
AcDbEntity
  8
0
100
AcDbLine
 10
733.2501912027111
 20
646.9715804327693
 30
0.0
 11
733.2501912027111
 21
636.9715804327693
 31
0.0
  0
LINE
  5
1273
330
2
100
AcDbEntity
  8
0
100
AcDbLine
 10
738.8501912027114
 20
646.9715804327693
 30
0.0
 11
733.2501912027111
 21
646.9715804327693
 31
0.0
  0
LINE
  5
1274
330
2
100
AcDbEntity
  8
0
100
AcDbLine
 10
739.250191202711
 20
637.6644007557965
 30
0.0
 11
739.250191202711
 21
646.2787601097415
 31
0.0
  0
LINE
  5
1275
330
2
100
AcDbEntity
  8
0
100
AcDbLine
 10
733.2501912027111
 20
636.9715804327693
 30
0.0
 11
738.8501912027114
 21
636.9715804327693
 31
0.0
  0
LINE
  5
1276
330
2
100
AcDbEntity
  8
0
100
AcDbLine
 10
738.8501912027114
 20
636.9715804327689
 30
0.0
 11
739.250191202711
 21
637.6644007557965
 31
0.0
  0
LINE
  5
1277
330
2
100
AcDbEntity
  8
CENTER
  6
CENS
100
AcDbLine
 10
712.2501912027111
 20
641.9715804327693
 30
0.0
 11
744.2501912027111
 21
641.9715804327693
 31
0.0
  0
LINE
  5
1278
330
2
100
AcDbEntity
  8
0
100
AcDbLine
 10
738.8501912027114
 20
721.831580432769
 30
0.0
 11
739.250191202711
 21
722.5244007557967
 31
0.0
  0
LINE
  5
1279
330
2
100
AcDbEntity
  8
0
100
AcDbLine
 10
738.8501912027114
 20
721.831580432769
 30
0.0
 11
738.8501912027114
 21
731.8315804327689
 31
0.0
  0
LINE
  5
127A
330
2
100
AcDbEntity
  8
0
100
AcDbLine
 10
733.2501912027111
 20
721.831580432769
 30
0.0
 11
733.2501912027111
 21
731.8315804327689
 31
0.0
  0
LINE
  5
127B
330
2
100
AcDbEntity
  8
0
100
AcDbLine
 10
733.2501912027111
 20
731.8315804327689
 30
0.0
 11
732.2501912027111
 21
731.8315804327689
 31
0.0
  0
LINE
  5
127C
330
2
100
AcDbEntity
  8
0
100
AcDbLine
 10
732.2501912027111
 20
731.8315804327689
 30
0.0
 11
732.2501912027111
 21
721.831580432769
 31
0.0
  0
LINE
  5
127D
330
2
100
AcDbEntity
  8
0
100
AcDbLine
 10
732.2501912027111
 20
721.831580432769
 30
0.0
 11
733.2501912027111
 21
721.831580432769
 31
0.0
  0
LINE
  5
127E
330
2
100
AcDbEntity
  8
0
100
AcDbLine
 10
733.2501912027111
 20
721.831580432769
 30
0.0
 11
733.2501912027111
 21
731.8315804327689
 31
0.0
  0
LINE
  5
127F
330
2
100
AcDbEntity
  8
0
100
AcDbLine
 10
738.8501912027114
 20
721.831580432769
 30
0.0
 11
733.2501912027111
 21
721.831580432769
 31
0.0
  0
LINE
  5
1280
330
2
100
AcDbEntity
  8
0
100
AcDbLine
 10
739.250191202711
 20
731.1387601097417
 30
0.0
 11
739.250191202711
 21
722.5244007557967
 31
0.0
  0
LINE
  5
1281
330
2
100
AcDbEntity
  8
0
100
AcDbLine
 10
733.2501912027111
 20
731.8315804327689
 30
0.0
 11
738.8501912027114
 21
731.8315804327689
 31
0.0
  0
LINE
  5
1282
330
2
100
AcDbEntity
  8
0
100
AcDbLine
 10
738.8501912027114
 20
731.8315804327694
 30
0.0
 11
739.250191202711
 21
731.1387601097417
 31
0.0
  0
LINE
  5
1283
330
2
100
AcDbEntity
  8
CENTER
  6
CENS
100
AcDbLine
 10
712.2501912027111
 20
726.831580432769
 30
0.0
 11
744.2501912027111
 21
726.831580432769
 31
0.0
  0
LINE
  5
1284
330
2
100
AcDbEntity
  8
0
100
AcDbLine
 10
763.2731464896006
 20
449.7092223616454
 30
0.0
 11
753.2733123533272
 21
449.7668179085253
 31
0.0
  0
ARC
  5
1285
330
2
100
AcDbEntity
  8
0
100
AcDbCircle
 10
753.2502741345743
 20
445.766884254016
 30
0.0
 40
4.000000000000014
100
AcDbArc
 50
89.67000000001375
 51
179.6700000000007
  0
ARC
  5
1286
330
2
100
AcDbEntity
  8
0
100
AcDbCircle
 10
763.2501082708478
 20
445.7092887071357
 30
0.0
 40
4.000000000000014
100
AcDbArc
 50
359.6700000000007
 51
89.67000000001375
  0
LINE
  5
1287
330
2
100
AcDbEntity
  8
CENTER
  6
CENS
100
AcDbLine
 10
758.2501912027111
 20
454.6339437156065
 30
0.0
 11
758.2501912027111
 21
431.2740177132397
 31
0.0
  0
CIRCLE
  5
1288
330
2
100
AcDbEntity
  8
0
100
AcDbCircle
 10
758.2501912027111
 20
669.4015804327691
 30
0.0
 40
9.0
  0
LINE
  5
1289
330
2
100
AcDbEntity
  8
CENTER
  6
CENS
100
AcDbLine
 10
758.2501912027074
 20
657.522650533775
 30
0.0
 11
758.2501912027074
 21
681.2805103317632
 31
0.0
  0
LINE
  5
128A
330
2
100
AcDbEntity
  8
CENTER
  6
CENS
100
AcDbLine
 10
770.1291211017015
 20
669.4015804327691
 30
0.0
 11
746.3712613037134
 21
669.4015804327691
 31
0.0
  0
LINE
  5
128B
330
2
100
AcDbEntity
  8
0
100
AcDbLine
 10
772.2501912027111
 20
438.6915438420887
 30
0.0
 11
765.2501912027111
 21
438.6915438420882
 31
0.0
  0
LINE
  5
128C
330
2
100
AcDbEntity
  8
0
100
AcDbLine
 10
765.2501912027111
 20
438.6915438420882
 30
0.0
 11
765.2501912027111
 21
403.6915438420882
 31
0.0
  0
LINE
  5
128D
330
2
100
AcDbEntity
  8
0
100
AcDbLine
 10
765.2501912027111
 20
423.4415438420882
 30
0.0
 11
765.2501912027129
 21
403.6915438420882
 31
0.0
  0
LINE
  5
128E
330
2
100
AcDbEntity
  8
0
100
AcDbLine
 10
765.2501912027111
 20
423.4415438420882
 30
0.0
 11
755.5123866321938
 21
423.4415438420882
 31
0.0
  0
SPLINE
  5
128F
330
2
100
AcDbEntity
  8
HOJO
100
AcDbSpline
210
0.0
220
0.0
230
1.0
 70
     8
 71
     3
 72
    20
 73
    16
 74
     0
 42
0.0000000001
 43
0.0000000001
 40
1.221331719906463
 40
1.221331719906463
 40
1.221331719906463
 40
1.221331719906463
 40
5.647385924430076
 40
9.759277458584113
 40
14.59638394258456
 40
18.6386056126129
 40
22.25598020257161
 40
26.57819511411361
 40
31.00332353479096
 40
40.39337194914635
 40
45.49899296170218
 40
52.02718752358933
 40
57.17041693382338
 40
65.63449353306062
 40
69.3611614947018
 40
69.3611614947018
 40
69.3611614947018
 40
69.3611614947018
 10
768.5506737597408
 20
443.7561191592584
 30
0.0
 10
767.1835135561487
 20
442.9208459460196
 30
0.0
 10
764.7278418252173
 20
441.3922233004567
 30
0.0
 10
763.4185433967396
 20
436.8678811128874
 30
0.0
 10
762.2686340711917
 20
433.4763116183693
 30
0.0
 10
758.7808776592029
 20
429.8025464071251
 30
0.0
 10
757.1090424828399
 20
426.2771862771459
 30
0.0
 10
755.1317959223853
 20
422.726469579651
 30
0.0
 10
751.7440146098216
 20
417.1374249911968
 30
0.0
 10
744.2196555655065
 20
417.3130014387878
 30
0.0
 10
737.4913162088579
 20
416.1666309052907
 30
0.0
 10
732.1480496634505
 20
414.4480188008101
 30
0.0
 10
725.149269149064
 20
414.1118475160864
 30
0.0
 10
721.4345363498397
 20
408.6258531841312
 30
0.0
 10
720.112694911044
 20
404.8559466909554
 30
0.0
 10
719.7000221379349
 20
403.6915438420882
 30
0.0
  0
LINE
  5
1290
330
2
100
AcDbEntity
  8
CENTER
  6
CENS
100
AcDbLine
 10
976.7515070332539
 20
454.6339437156066
 30
0.0
 11
976.7515070332539
 21
387.8438786845591
 31
0.0
  0
LINE
  5
1291
330
2
100
AcDbEntity
  8
0
100
AcDbLine
 10
972.0157526772638
 20
402.9415438420883
 30
0.0
 11
982.281158570816
 21
402.9415438420883
 31
0.0
  0
LINE
  5
1292
330
2
100
AcDbEntity
  8
0
100
AcDbLine
 10
972.0157526772638
 20
404.4415438420883
 30
0.0
 11
982.281158570816
 21
404.4415438420888
 31
0.0
  0
LINE
  5
1293
330
2
100
AcDbEntity
  8
0
100
AcDbLine
 10
1008.951507033252
 20
402.9415438420883
 30
0.0
 11
1008.951507033252
 21
404.4415438420883
 31
0.0
  0
LINE
  5
1294
330
2
100
AcDbEntity
  8
0
100
AcDbLine
 10
1001.221855495691
 20
402.9415438420883
 30
0.0
 11
1008.951507033252
 21
402.9415438420883
 31
0.0
  0
LINE
  5
1295
330
2
100
AcDbEntity
  8
0
100
AcDbLine
 10
1001.221855495691
 20
404.4415438420883
 30
0.0
 11
1008.951507033252
 21
404.4415438420883
 31
0.0
  0
LINE
  5
1296
330
2
100
AcDbEntity
  8
HIDS
100
AcDbLine
 10
978.8348403665878
 20
402.9415438420883
 30
0.0
 11
978.8348403665878
 21
388.7509206214118
 31
0.0
  0
LINE
  5
1297
330
2
100
AcDbEntity
  8
HIDS
100
AcDbLine
 10
974.66817369992
 20
402.9415438420883
 30
0.0
 11
974.66817369992
 21
393.7808313438764
 31
0.0
  0
LINE
  5
1298
330
2
100
AcDbEntity
  8
HIDS
100
AcDbLine
 10
974.2515070332538
 20
402.9415438420883
 30
0.0
 11
974.2515070332538
 21
394.5366271302883
 31
0.0
  0
LINE
  5
1299
330
2
100
AcDbEntity
  8
HIDS
100
AcDbLine
 10
979.7515070332538
 20
408.6915438420883
 30
0.0
 11
979.7515070332538
 21
404.4415438420883
 31
0.0
  0
LINE
  5
129A
330
2
100
AcDbEntity
  8
HIDS
100
AcDbLine
 10
973.7515070332539
 20
408.6915438420883
 30
0.0
 11
973.7515070332539
 21
404.4415438420883
 31
0.0
  0
LINE
  5
129B
330
2
100
AcDbEntity
  8
HIDS
100
AcDbLine
 10
981.0015070332539
 20
408.6915438420883
 30
0.0
 11
981.0015070332539
 21
413.3915438420886
 31
0.0
  0
LINE
  5
129C
330
2
100
AcDbEntity
  8
0
100
AcDbLine
 10
972.5015070332538
 20
413.3915438420886
 30
0.0
 11
972.5015070332538
 21
408.6915438420883
 31
0.0
  0
LINE
  5
129D
330
2
100
AcDbEntity
  8
HIDS
100
AcDbLine
 10
979.2515070332539
 20
394.6915438420883
 30
0.0
 11
978.2515070332539
 21
393.6915438420884
 31
0.0
  0
LINE
  5
129E
330
2
100
AcDbEntity
  8
HIDS
100
AcDbLine
 10
974.2515070332538
 20
394.6915438420883
 30
0.0
 11
975.2515070332538
 21
393.6915438420884
 31
0.0
  0
LINE
  5
129F
330
2
100
AcDbEntity
  8
HIDS
100
AcDbLine
 10
978.2515070332539
 20
393.6915438420884
 30
0.0
 11
975.2515070332538
 21
393.6915438420884
 31
0.0
  0
LINE
  5
12A0
330
2
100
AcDbEntity
  8
HIDS
100
AcDbLine
 10
979.2515070332539
 20
408.6915438420883
 30
0.0
 11
979.2515070332539
 21
404.4415438420883
 31
0.0
  0
LINE
  5
12A1
330
2
100
AcDbEntity
  8
HIDS
100
AcDbLine
 10
978.8348403665878
 20
406.6082105087553
 30
0.0
 11
978.8348403665878
 21
404.4415438420883
 31
0.0
  0
LINE
  5
12A2
330
2
100
AcDbEntity
  8
HIDS
100
AcDbLine
 10
974.66817369992
 20
406.6082105087553
 30
0.0
 11
974.66817369992
 21
404.4415438420883
 31
0.0
  0
LINE
  5
12A3
330
2
100
AcDbEntity
  8
HIDS
100
AcDbLine
 10
974.2515070332538
 20
408.6915438420883
 30
0.0
 11
974.2515070332538
 21
404.4415438420883
 31
0.0
  0
LINE
  5
12A4
330
2
100
AcDbEntity
  8
HIDS
100
AcDbLine
 10
979.2515070332539
 20
394.6915438420883
 30
0.0
 11
974.2515070332538
 21
394.6915438420883
 31
0.0
  0
LINE
  5
12A5
330
2
100
AcDbEntity
  8
HIDS
100
AcDbLine
 10
979.2515070332539
 20
406.6082105087553
 30
0.0
 11
974.2515070332538
 21
406.6082105087553
 31
0.0
  0
LINE
  5
12A6
330
2
100
AcDbEntity
  8
0
100
AcDbLine
 10
972.5015070332538
 20
408.6915438420883
 30
0.0
 11
972.6448982289694
 21
408.6915438420883
 31
0.0
  0
LINE
  5
12A7
330
2
100
AcDbEntity
  8
HIDS
100
AcDbLine
 10
974.2515070332538
 20
408.6915438420883
 30
0.0
 11
974.66817369992
 21
406.6082105087553
 31
0.0
  0
LINE
  5
12A8
330
2
100
AcDbEntity
  8
HIDS
100
AcDbLine
 10
979.2515070332539
 20
408.6915438420883
 30
0.0
 11
978.8348403665878
 21
406.6082105087553
 31
0.0
  0
LINE
  5
12A9
330
2
100
AcDbEntity
  8
0
100
AcDbLine
 10
972.5015070332538
 20
413.3915438420886
 30
0.0
 11
974.5476557202492
 21
413.3915438420886
 31
0.0
  0
LINE
  5
12AA
330
2
100
AcDbEntity
  8
HIDS
100
AcDbLine
 10
980.4818917909834
 20
413.6915438420883
 30
0.0
 11
974.7202857030025
 21
413.6915438420883
 31
0.0
  0
LINE
  5
12AB
330
2
100
AcDbEntity
  8
0
100
AcDbLine
 10
972.5015070332538
 20
413.3915438420886
 30
0.0
 11
973.0211222755244
 21
413.6915438420883
 31
0.0
  0
LINE
  5
12AC
330
2
100
AcDbEntity
  8
HIDS
100
AcDbLine
 10
980.4818917909834
 20
413.6915438420883
 30
0.0
 11
981.0015070332539
 21
413.3915438420886
 31
0.0
  0
LINE
  5
12AD
330
2
100
AcDbEntity
  8
HIDS
100
AcDbLine
 10
972.6448982289694
 20
408.6915438420883
 30
0.0
 11
981.751507033254
 21
408.6915438420883
 31
0.0
  0
LINE
  5
12AE
330
2
100
AcDbEntity
  8
0
100
AcDbLine
 10
974.7202857030025
 20
413.6915438420883
 30
0.0
 11
973.0211222755244
 21
413.6915438420883
 31
0.0
  0
LINE
  5
12AF
330
2
100
AcDbEntity
  8
HIDS
100
AcDbLine
 10
974.5476557202492
 20
413.3915438420886
 30
0.0
 11
981.0015070332539
 21
413.391543842089
 31
0.0
  0
LINE
  5
12B0
330
2
100
AcDbEntity
  8
0
100
AcDbLine
 10
979.2515070332539
 20
404.4415438420883
 30
0.0
 11
979.2515070332539
 21
402.9415438420888
 31
0.0
  0
LINE
  5
12B1
330
2
100
AcDbEntity
  8
HOJO
100
AcDbLine
 10
978.8348403665878
 20
404.4415438420883
 30
0.0
 11
978.8348403665878
 21
402.9415438420888
 31
0.0
  0
LINE
  5
12B2
330
2
100
AcDbEntity
  8
HOJO
100
AcDbLine
 10
974.66817369992
 20
404.4415438420883
 30
0.0
 11
974.66817369992
 21
402.9415438420888
 31
0.0
  0
LINE
  5
12B3
330
2
100
AcDbEntity
  8
0
100
AcDbLine
 10
974.2515070332538
 20
404.4415438420883
 30
0.0
 11
974.2515070332538
 21
402.9415438420883
 31
0.0
  0
LINE
  5
12B4
330
2
100
AcDbEntity
  8
HIDS
100
AcDbLine
 10
974.2515070332538
 20
402.9415438420883
 30
0.0
 11
974.2515070332538
 21
394.6915438420883
 31
0.0
  0
LINE
  5
12B5
330
2
100
AcDbEntity
  8
HIDS
100
AcDbLine
 10
979.2515070332539
 20
402.9415438420883
 30
0.0
 11
979.2515070332539
 21
394.6915438420883
 31
0.0
  0
LINE
  5
12B6
330
2
100
AcDbEntity
  8
HIDS
100
AcDbLine
 10
974.66817369992
 20
402.9415438420883
 30
0.0
 11
974.66817369992
 21
394.2748771754223
 31
0.0
  0
CIRCLE
  5
12B7
330
2
100
AcDbEntity
  8
0
100
AcDbCircle
 10
991.7515070332539
 20
403.6915438420884
 30
0.0
 40
19.75
  0
LINE
  5
12B9
330
2
100
AcDbEntity
  8
0
100
AcDbLine
 10
971.8765080567065
 20
449.7668179085254
 30
0.0
 11
981.6265080567065
 21
449.7668179085254
 31
0.0
  0
ARC
  5
12BA
330
2
100
AcDbEntity
  8
0
100
AcDbCircle
 10
971.8765080567065
 20
445.5168179085254
 30
0.0
 40
4.25
100
AcDbArc
 50
90.0
 51
177.6437927484639
  0
ARC
  5
12BB
330
2
100
AcDbEntity
  8
0
100
AcDbCircle
 10
981.3765080567064
 20
445.5168179085254
 30
0.0
 40
4.25
100
AcDbArc
 50
2.356207251536093
 51
90.0
  0
LINE
  5
12BC
330
2
100
AcDbEntity
  8
0
100
AcDbLine
 10
56.30718446534422
 20
445.691543842086
 30
0.0
 11
56.30718446534422
 21
361.6915438420924
 31
0.0
  0
LINE
  5
12BD
330
2
100
AcDbEntity
  8
0
100
AcDbLine
 10
54.30718446534422
 20
443.7613641018016
 30
0.0
 11
54.30718446534604
 21
363.6217235823765
 31
0.0
  0
LINE
  5
12BE
330
2
100
AcDbEntity
  8
0
100
AcDbLine
 10
90.30718446534512
 20
453.5693296146324
 30
0.0
 11
90.30718446534605
 21
353.8137580695461
 31
0.0
  0
LINE
  5
12BF
330
2
100
AcDbEntity
  8
0
100
AcDbLine
 10
54.30718446534604
 20
363.6217235823765
 30
0.0
 11
56.30718446534785
 21
361.6915438420897
 31
0.0
  0
LINE
  5
12C0
330
2
100
AcDbEntity
  8
0
100
AcDbLine
 10
50.30718446534786
 20
363.6915438420897
 30
0.0
 11
54.30718446534604
 21
363.6217235823765
 31
0.0
  0
LINE
  5
12C1
330
2
100
AcDbEntity
  8
0
100
AcDbLine
 10
105.3071844653478
 20
352.6915438420897
 30
0.0
 11
91.29845792984827
 21
352.8137961464813
 31
0.0
  0
LINE
  5
12C2
330
2
100
AcDbEntity
  8
0
100
AcDbLine
 10
56.30718446534785
 20
361.6915438420897
 30
0.0
 11
83.30718446534786
 21
361.5344624371933
 31
0.0
  0
LINE
  5
12C3
330
2
100
AcDbEntity
  8
0
100
AcDbLine
 10
54.30718446534422
 20
443.7613641018016
 30
0.0
 11
56.30718446534422
 21
445.691543842086
 31
0.0
  0
LINE
  5
12C4
330
2
100
AcDbEntity
  8
0
100
AcDbLine
 10
50.30718446534786
 20
443.6915438420888
 30
0.0
 11
54.30718446534422
 21
443.7613641018016
 31
0.0
  0
LINE
  5
12C5
330
2
100
AcDbEntity
  8
0
100
AcDbLine
 10
105.3071844653478
 20
454.6915438420888
 30
0.0
 11
91.29845792984827
 21
454.5692915376963
 31
0.0
  0
LINE
  5
12C6
330
2
100
AcDbEntity
  8
0
100
AcDbLine
 10
55.30733679266461
 20
445.6857268984923
 30
0.0
 11
83.30718446534786
 21
445.8486252469843
 31
0.0
  0
ARC
  5
12C7
330
2
100
AcDbEntity
  8
0
100
AcDbCircle
 10
91.30718446534785
 20
453.5693296146324
 30
0.0
 40
1.0
100
AcDbArc
 50
90.49999999996549
 51
180.0
  0
ARC
  5
12C8
330
2
100
AcDbEntity
  8
0
100
AcDbCircle
 10
91.30718446534604
 20
353.8137580695461
 30
0.0
 40
1.0
100
AcDbArc
 50
180.0
 51
269.5000000000345
  0
LINE
  5
12C9
330
2
100
AcDbEntity
  8
0
100
AcDbLine
 10
50.30718446534786
 20
443.6915438420888
 30
0.0
 11
50.30718446534786
 21
363.6915438420897
 31
0.0
  0
LINE
  5
12CA
330
2
100
AcDbEntity
  8
0
100
AcDbLine
 10
83.7071844653475
 20
441.1215438420891
 30
0.0
 11
83.30718446534786
 21
441.8143641651168
 31
0.0
  0
LINE
  5
12CB
330
2
100
AcDbEntity
  8
0
100
AcDbLine
 10
83.7071844653475
 20
441.1215438420891
 30
0.0
 11
83.7071844653475
 21
451.1215438420891
 31
0.0
  0
LINE
  5
12CC
330
2
100
AcDbEntity
  8
0
100
AcDbLine
 10
89.30718446534786
 20
441.1215438420891
 30
0.0
 11
89.30718446534786
 21
451.1215438420891
 31
0.0
  0
LINE
  5
12CD
330
2
100
AcDbEntity
  8
0
100
AcDbLine
 10
89.30718446534786
 20
451.1215438420891
 30
0.0
 11
90.30718446534786
 21
451.1215438420891
 31
0.0
  0
LINE
  5
12CE
330
2
100
AcDbEntity
  8
0
100
AcDbLine
 10
90.30718446534786
 20
451.1215438420891
 30
0.0
 11
90.30718446534786
 21
441.1215438420891
 31
0.0
  0
LINE
  5
12CF
330
2
100
AcDbEntity
  8
0
100
AcDbLine
 10
90.30718446534786
 20
441.1215438420891
 30
0.0
 11
89.30718446534786
 21
441.1215438420891
 31
0.0
  0
LINE
  5
12D0
330
2
100
AcDbEntity
  8
0
100
AcDbLine
 10
89.30718446534786
 20
441.1215438420891
 30
0.0
 11
89.30718446534786
 21
451.1215438420891
 31
0.0
  0
LINE
  5
12D1
330
2
100
AcDbEntity
  8
0
100
AcDbLine
 10
83.7071844653475
 20
441.1215438420891
 30
0.0
 11
89.30718446534786
 21
441.1215438420891
 31
0.0
  0
LINE
  5
12D2
330
2
100
AcDbEntity
  8
0
100
AcDbLine
 10
83.30718446534786
 20
450.4287235190618
 30
0.0
 11
83.30718446534786
 21
441.8143641651168
 31
0.0
  0
LINE
  5
12D3
330
2
100
AcDbEntity
  8
0
100
AcDbLine
 10
89.30718446534786
 20
451.1215438420891
 30
0.0
 11
83.7071844653475
 21
451.1215438420891
 31
0.0
  0
LINE
  5
12D4
330
2
100
AcDbEntity
  8
0
100
AcDbLine
 10
83.7071844653475
 20
451.1215438420891
 30
0.0
 11
83.30718446534786
 21
450.4287235190618
 31
0.0
  0
LINE
  5
12D5
330
2
100
AcDbEntity
  8
CENTER
  6
CENS
100
AcDbLine
 10
110.3071844653478
 20
446.1215438420891
 30
0.0
 11
78.30718446534786
 21
446.1215438420891
 31
0.0
  0
LINE
  5
12D6
330
2
100
AcDbEntity
  8
0
100
AcDbLine
 10
83.7071844653475
 20
366.2615438420894
 30
0.0
 11
83.30718446534786
 21
365.5687235190612
 31
0.0
  0
LINE
  5
12D7
330
2
100
AcDbEntity
  8
0
100
AcDbLine
 10
83.7071844653475
 20
366.2615438420894
 30
0.0
 11
83.7071844653475
 21
356.2615438420894
 31
0.0
  0
LINE
  5
12D8
330
2
100
AcDbEntity
  8
0
100
AcDbLine
 10
89.30718446534786
 20
366.2615438420894
 30
0.0
 11
89.30718446534786
 21
356.2615438420894
 31
0.0
  0
LINE
  5
12D9
330
2
100
AcDbEntity
  8
0
100
AcDbLine
 10
89.30718446534786
 20
356.2615438420894
 30
0.0
 11
90.30718446534786
 21
356.2615438420894
 31
0.0
  0
LINE
  5
12DA
330
2
100
AcDbEntity
  8
0
100
AcDbLine
 10
90.30718446534786
 20
356.2615438420894
 30
0.0
 11
90.30718446534786
 21
366.2615438420894
 31
0.0
  0
LINE
  5
12DB
330
2
100
AcDbEntity
  8
0
100
AcDbLine
 10
90.30718446534786
 20
366.2615438420894
 30
0.0
 11
89.30718446534786
 21
366.2615438420894
 31
0.0
  0
LINE
  5
12DC
330
2
100
AcDbEntity
  8
0
100
AcDbLine
 10
89.30718446534786
 20
366.2615438420894
 30
0.0
 11
89.30718446534786
 21
356.2615438420894
 31
0.0
  0
LINE
  5
12DD
330
2
100
AcDbEntity
  8
0
100
AcDbLine
 10
83.7071844653475
 20
366.2615438420894
 30
0.0
 11
89.30718446534786
 21
366.2615438420894
 31
0.0
  0
LINE
  5
12DE
330
2
100
AcDbEntity
  8
0
100
AcDbLine
 10
83.30718446534786
 20
356.9543641651167
 30
0.0
 11
83.30718446534786
 21
365.5687235190612
 31
0.0
  0
LINE
  5
12DF
330
2
100
AcDbEntity
  8
0
100
AcDbLine
 10
89.30718446534786
 20
356.2615438420894
 30
0.0
 11
83.7071844653475
 21
356.2615438420894
 31
0.0
  0
LINE
  5
12E0
330
2
100
AcDbEntity
  8
0
100
AcDbLine
 10
83.7071844653475
 20
356.2615438420889
 30
0.0
 11
83.30718446534786
 21
356.9543641651167
 31
0.0
  0
LINE
  5
12E1
330
2
100
AcDbEntity
  8
CENTER
  6
CENS
100
AcDbLine
 10
110.3071844653478
 20
361.2615438420894
 30
0.0
 11
78.30718446534786
 21
361.2615438420894
 31
0.0
  0
LINE
  5
12E2
330
2
100
AcDbEntity
  8
0
100
AcDbLine
 10
59.2842291784583
 20
449.709222361646
 30
0.0
 11
69.28406331473173
 21
449.7668179085258
 31
0.0
  0
ARC
  5
12E3
330
2
100
AcDbEntity
  8
0
100
AcDbCircle
 10
69.30710153348456
 20
445.7668842540165
 30
0.0
 40
4.000000000000014
100
AcDbArc
 50
0.32999999999927
 51
90.32999999998624
  0
ARC
  5
12E4
330
2
100
AcDbEntity
  8
0
100
AcDbCircle
 10
59.30726739721115
 20
445.7092887071363
 30
0.0
 40
4.000000000000014
100
AcDbArc
 50
90.32999999998624
 51
180.3299999999993
  0
LINE
  5
12E5
330
2
100
AcDbEntity
  8
CENTER
  6
CENS
100
AcDbLine
 10
64.30718446534786
 20
454.6339437156071
 30
0.0
 11
64.30718446534786
 21
431.2740177132403
 31
0.0
  0
LINE
  5
12E6
330
2
100
AcDbEntity
  8
0
100
AcDbLine
 10
765.2501912027111
 20
438.6915438420882
 30
0.0
 11
765.2501912027111
 21
403.6915438420882
 31
0.0
  0
LINE
  5
12E7
330
2
100
AcDbEntity
  8
0
100
AcDbLine
 10
765.2501912027111
 20
423.4415438420882
 30
0.0
 11
765.2501912027111
 21
403.6915438420882
 31
0.0
  0
LINE
  5
12E8
330
2
100
AcDbEntity
  8
0
100
AcDbLine
 10
763.2501912027111
 20
413.1915438420882
 30
0.0
 11
752.250191202711
 21
413.1915438420887
 31
0.0
  0
LINE
  5
12E9
330
2
100
AcDbEntity
  8
0
100
AcDbLine
 10
733.7501912027111
 20
413.4415438420882
 30
0.0
 11
733.7501912027111
 21
403.6915438420882
 31
0.0
  0
LINE
  5
12EA
330
2
100
AcDbEntity
  8
0
100
AcDbLine
 10
733.7501912027111
 20
413.4415438420882
 30
0.0
 11
727.7501912027111
 21
413.4415438420882
 31
0.0
  0
LINE
  5
12EB
330
2
100
AcDbEntity
  8
0
100
AcDbLine
 10
727.7501912027111
 20
413.4415438420882
 30
0.0
 11
727.7501912027111
 21
403.6915438420882
 31
0.0
  0
LINE
  5
12EC
330
2
100
AcDbEntity
  8
0
100
AcDbLine
 10
750.2501912027111
 20
417.9669540627837
 30
0.0
 11
750.2501912027111
 21
403.6915438420882
 31
0.0
  0
LINE
  5
12ED
330
2
100
AcDbEntity
  8
0
100
AcDbLine
 10
752.250191202711
 20
419.0206874031654
 30
0.0
 11
752.250191202711
 21
403.6915438420882
 31
0.0
  0
LINE
  5
12EE
330
2
100
AcDbEntity
  8
0
100
AcDbLine
 10
750.2501912027111
 20
413.1915438420887
 30
0.0
 11
733.7501912027111
 21
413.1915438420882
 31
0.0
  0
LINE
  5
12EF
330
2
100
AcDbEntity
  8
0
100
AcDbLine
 10
765.2501912027111
 20
414.3462443804682
 30
0.0
 11
763.2501912027111
 21
413.1915438420882
 31
0.0
  0
LINE
  5
12F0
330
2
100
AcDbEntity
  8
0
100
AcDbLine
 10
763.2501912027111
 20
413.1915438420882
 30
0.0
 11
763.2501912027093
 21
403.6915438420882
 31
0.0
  0
LINE
  5
12F1
330
2
100
AcDbEntity
  8
0
100
AcDbLine
 10
727.7501912027111
 20
412.6915438420883
 30
0.0
 11
722.5540387800029
 21
403.6915438420882
 31
0.0
  0
ARC
  5
12F2
330
2
100
AcDbEntity
  8
0
100
AcDbCircle
 10
991.7515070332539
 20
403.6915438420884
 30
0.0
 40
10.6547005383793
100
AcDbArc
 50
184.0364720827338
 51
355.9635279172662
  0
ARC
  5
12F3
330
2
100
AcDbEntity
  8
0
100
AcDbCircle
 10
991.7515070332539
 20
403.6915438420884
 30
0.0
 40
10.6547005383793
100
AcDbArc
 50
4.036472082733818
 51
175.9635279172661
  0
CIRCLE
  5
12F4
330
2
100
AcDbEntity
  8
0
100
AcDbCircle
 10
991.7515070332539
 20
403.6915438420884
 30
0.0
 40
9.5
  0
LINE
  5
12F5
330
2
100
AcDbEntity
  8
HIDS
100
AcDbLine
 10
981.751507033254
 20
408.6915438420883
 30
0.0
 11
981.7515070332548
 21
420.7227651723401
 31
0.0
  0
CIRCLE
  5
12F6
330
2
100
AcDbEntity
  8
0
100
AcDbCircle
 10
1023.571312186648
 20
435.5113489954834
 30
0.0
 40
2.0
  0
CIRCLE
  5
12F7
330
2
100
AcDbEntity
  8
HOJO
100
AcDbCircle
 10
1023.571312186648
 20
435.5113489954834
 30
0.0
 40
2.5
  0
CIRCLE
  5
12F8
330
2
100
AcDbEntity
  8
0
100
AcDbCircle
 10
959.9317018798593
 20
435.5113489954834
 30
0.0
 40
2.0
  0
CIRCLE
  5
12F9
330
2
100
AcDbEntity
  8
HOJO
100
AcDbCircle
 10
959.9317018798593
 20
435.5113489954834
 30
0.0
 40
2.5
  0
CIRCLE
  5
12FA
330
2
100
AcDbEntity
  8
0
100
AcDbCircle
 10
959.9317018798585
 20
371.8717386886942
 30
0.0
 40
2.0
  0
CIRCLE
  5
12FB
330
2
100
AcDbEntity
  8
HOJO
100
AcDbCircle
 10
959.9317018798585
 20
371.8717386886942
 30
0.0
 40
2.5
  0
CIRCLE
  5
12FC
330
2
100
AcDbEntity
  8
0
100
AcDbCircle
 10
1023.571312186648
 20
371.8717386886938
 30
0.0
 40
2.0
  0
CIRCLE
  5
12FD
330
2
100
AcDbEntity
  8
HOJO
100
AcDbCircle
 10
1023.571312186648
 20
371.8717386886938
 30
0.0
 40
2.5
  0
LINE
  5
12FE
330
2
100
AcDbEntity
  8
0
100
AcDbLine
 10
766.2501912027111
 20
361.6915438420891
 30
0.0
 11
766.2501912027111
 21
403.6915438420887
 31
0.0
  0
LINE
  5
12FF
330
2
100
AcDbEntity
  8
0
100
AcDbLine
 10
768.2501912027129
 20
363.6217235823764
 30
0.0
 11
768.2501912027129
 21
403.6915438420887
 31
0.0
  0
LINE
  5
1300
330
2
100
AcDbEntity
  8
0
100
AcDbLine
 10
765.2501912027111
 20
432.6915438420882
 30
0.0
 11
761.3405378539247
 21
432.6915438420882
 31
0.0
  0
CIRCLE
  5
1301
330
2
100
AcDbEntity
  8
0
100
AcDbCircle
 10
991.7515070332539
 20
403.6915438420884
 30
0.0
 40
29.0
  0
LINE
  5
189E
330
2
100
AcDbEntity
  8
PHAS
  6
SEKKEI_P_S
100
AcDbLine
 10
331.876683154439
 20
435.5723447543663
 30
0.0
 11
331.8766831544381
 21
371.8106476056535
 31
0.0
  0
LINE
  5
189F
330
2
100
AcDbEntity
  8
PHAS
  6
SEKKEI_P_S
100
AcDbLine
 10
341.6766831544383
 20
438.6915915041668
 30
0.0
 11
341.6766831544383
 21
368.6914961800097
 31
0.0
  0
ARC
  5
18A0
330
2
100
AcDbEntity
  8
PHAS
  6
SEKKEI_P_S
100
AcDbCircle
 10
334.8766831544381
 20
371.8106476056535
 30
0.0
 40
3.0
100
AcDbArc
 50
180.0
 51
268.9999999999721
  0
LINE
  5
18A1
330
2
100
AcDbEntity
  8
PHAS
  6
SEKKEI_P_S
100
AcDbLine
 10
341.6766831544383
 20
368.6914961800097
 30
0.0
 11
334.8243259351267
 21
368.8111045201843
 31
0.0
  0
LINE
  5
18A2
330
2
100
AcDbEntity
  8
PHAS
  6
SEKKEI_P_S
100
AcDbLine
 10
316.3084422661041
 20
379.9365970907919
 30
0.0
 11
331.0503313321051
 21
377.3372043018447
 31
0.0
  0
LINE
  5
18A3
330
2
100
AcDbEntity
  8
PHAS
  6
SEKKEI_P_S
100
AcDbLine
 10
316.3084422661041
 20
427.4463952692279
 30
0.0
 11
331.0503313321051
 21
430.0457880581746
 31
0.0
  0
LINE
  5
18A4
330
2
100
AcDbEntity
  8
PHAS
  6
SEKKEI_P_S
100
AcDbLine
 10
312.1766831544383
 20
422.5223565041663
 30
0.0
 11
312.1766831544383
 21
384.86073118001
 31
0.0
  0
ARC
  5
18A5
330
2
100
AcDbEntity
  8
PHAS
  6
SEKKEI_P_S
100
AcDbCircle
 10
317.1766831544383
 20
384.860635855853
 30
0.0
 40
5.0
100
AcDbArc
 50
180.0
 51
259.9999999999949
  0
ARC
  5
18A6
330
2
100
AcDbEntity
  8
PHAS
  6
SEKKEI_P_S
100
AcDbCircle
 10
317.1766831544383
 20
422.5223565041663
 30
0.0
 40
5.0
100
AcDbArc
 50
100.000000000005
 51
180.0
  0
ARC
  5
18A7
330
2
100
AcDbEntity
  8
PHAS
  6
SEKKEI_P_S
100
AcDbCircle
 10
330.8766831544382
 20
376.3523965488324
 30
0.0
 40
1.0
100
AcDbArc
 50
0.0
 51
79.99999999999499
  0
ARC
  5
18A8
330
2
100
AcDbEntity
  8
PHAS
  6
SEKKEI_P_S
100
AcDbCircle
 10
330.8766831544382
 20
431.030595811187
 30
0.0
 40
1.0
100
AcDbArc
 50
280.000000000005
 51
0.0
  0
ARC
  5
18A9
330
2
100
AcDbEntity
  8
PHAS
  6
SEKKEI_P_S
100
AcDbCircle
 10
334.8766831544381
 20
435.5724400785228
 30
0.0
 40
3.0
100
AcDbArc
 50
91.00000000002781
 51
180.0
  0
LINE
  5
18AA
330
2
100
AcDbEntity
  8
PHAS
  6
SEKKEI_P_S
100
AcDbLine
 10
341.6766831544383
 20
438.6915915041667
 30
0.0
 11
334.8243259351267
 21
438.571983163992
 31
0.0
  0
LINE
  5
1EEA
330
2
100
AcDbEntity
  8
0
100
AcDbLine
 10
355.6766831543337
 20
424.2316430192799
 30
0.0
 11
350.1592300833382
 21
424.2316430192799
 31
0.0
  0
LINE
  5
1EEB
330
2
100
AcDbEntity
  8
0
100
AcDbLine
 10
355.6766831543337
 20
383.1514446648966
 30
0.0
 11
350.1592300833382
 21
383.1514446648966
 31
0.0
  0
LINE
  5
1EEC
330
2
100
AcDbEntity
  8
0
100
AcDbLine
 10
355.6766831543337
 20
363.691543842071
 30
0.0
 11
350.1592300833382
 21
363.691543842071
 31
0.0
  0
LINE
  5
1EED
330
2
100
AcDbEntity
  8
0
100
AcDbLine
 10
355.6766831543328
 20
443.6915438421055
 30
0.0
 11
350.1592300833382
 21
443.6915438421055
 31
0.0
  0
LINE
  5
1EEE
330
2
100
AcDbEntity
  8
0
100
AcDbLine
 10
355.6766831543319
 20
446.691543842103
 30
0.0
 11
350.1592300833382
 21
446.691543842103
 31
0.0
  0
LINE
  5
1EEF
330
2
100
AcDbEntity
  8
0
100
AcDbLine
 10
355.6766831543337
 20
360.6915438420735
 30
0.0
 11
350.1592300833382
 21
360.6915438420735
 31
0.0
  0
LINE
  5
1EFC
330
2
100
AcDbEntity
  8
0
100
AcDbLine
 10
404.1842590838806
 20
178.0832619943634
 30
0.0
 11
398.6668060128851
 21
178.0832619943634
 31
0.0
  0
LINE
  5
1EFD
330
2
100
AcDbEntity
  8
0
100
AcDbLine
 10
404.1842590838806
 20
137.00306363998
 30
0.0
 11
398.6668060128851
 21
137.00306363998
 31
0.0
  0
LINE
  5
1EFE
330
2
100
AcDbEntity
  8
0
100
AcDbLine
 10
404.1842590838806
 20
117.5431628171544
 30
0.0
 11
398.6668060128851
 21
117.5431628171544
 31
0.0
  0
LINE
  5
1EFF
330
2
100
AcDbEntity
  8
0
100
AcDbLine
 10
404.1842590838797
 20
197.543162817189
 30
0.0
 11
398.6668060128851
 21
197.543162817189
 31
0.0
  0
LINE
  5
1F00
330
2
100
AcDbEntity
  8
0
100
AcDbLine
 10
404.1842590838788
 20
200.5431628171865
 30
0.0
 11
398.6668060128851
 21
200.5431628171865
 31
0.0
  0
LINE
  5
1F01
330
2
100
AcDbEntity
  8
0
100
AcDbLine
 10
404.1842590838806
 20
114.5431628171569
 30
0.0
 11
398.6668060128851
 21
114.5431628171569
 31
0.0
  0
CIRCLE
  5
1F28
330
2
100
AcDbEntity
  8
0
100
AcDbCircle
 10
621.2501692027127
 20
403.6915438420863
 30
0.0
 40
26.57735026918937
  0
LINE
  5
1F61
330
2
100
AcDbEntity
  8
0
100
AcDbLine
 10
581.2501692027109
 20
713.9015804327688
 30
0.0
 11
581.2501692027109
 21
719.4539343293849
 31
0.0
  0
LINE
  5
1F62
330
2
100
AcDbEntity
  8
0
100
AcDbLine
 10
578.2501692027091
 20
713.9015804327686
 30
0.0
 11
578.2501692027091
 21
719.4539343293847
 31
0.0
  0
LINE
  5
1F63
330
2
100
AcDbEntity
  8
0
100
AcDbLine
 10
600.710070025536
 20
713.9015804327698
 30
0.0
 11
600.710070025536
 21
719.4539343293858
 31
0.0
  0
LINE
  5
1F64
330
2
100
AcDbEntity
  8
0
100
AcDbLine
 10
661.250169202708
 20
713.9015804327696
 30
0.0
 11
661.2501692027079
 21
719.4539343293857
 31
0.0
  0
LINE
  5
1F65
330
2
100
AcDbEntity
  8
0
100
AcDbLine
 10
664.2501692027098
 20
713.9015804327696
 30
0.0
 11
664.2501692027097
 21
719.4539343293857
 31
0.0
  0
LINE
  5
1F66
330
2
100
AcDbEntity
  8
0
100
AcDbLine
 10
641.7902683798828
 20
713.9015804327702
 30
0.0
 11
641.7902683798827
 21
719.4539343293863
 31
0.0
  0
ENDSEC
  0
SECTION
  2
OBJECTS
  0
DICTIONARY
  5
7
330
0
100
AcDbDictionary
  3
ACAD_COLOR
350
1E33
  3
ACAD_GROUP
350
75
  3
ACAD_LAYOUT
350
61
  3
ACAD_MATERIAL
350
1E09
  3
ACAD_MLEADERSTYLE
350
1E58
  3
ACAD_MLINESTYLE
350
76
  3
ACAD_PLOTSETTINGS
350
77
  3
ACAD_PLOTSTYLENAME
350
6
  3
ACAD_SCALELIST
350
1E36
  3
ACAD_TABLESTYLE
350
1E34
  3
ACAD_VISUALSTYLE
350
1E22
  3
ACADDIM
350
480
  3
ACDB_RECOMPOSE_DATA
350
1E70
  3
ACDBHEADERROUNDTRIPXREC
350
1F9C
  3
ACDBVARIABLEDICTIONARY
350
102
  3
DWGPROPS
350
1F68
  0
DICTIONARY
  5
1E79
330
6E
100
AcDbDictionary
280
     1
  3
ACAD_XREC_ROUNDTRIP
360
1F6F
  0
DICTIONARY
  5
ADC
330
66
100
AcDbDictionary
280
     1
  3
ACAD_LAYERSTATES
360
ADD
  0
DICTIONARY
  5
1E5E
330
5E
100
AcDbDictionary
280
     1
  3
ACAD_XREC_ROUNDTRIP
360
1F6B
  3
ADSK_XREC_LAYER_RECONCILED
360
1E5F
  0
DICTIONARY
  5
1E60
330
3E
100
AcDbDictionary
280
     1
  3
ACAD_XREC_ROUNDTRIP
360
1F6A
  3
ADSK_XREC_LAYER_RECONCILED
360
1E61
  0
DICTIONARY
  5
1E66
330
2B5
100
AcDbDictionary
280
     1
  3
ACAD_XREC_ROUNDTRIP
360
1F75
  3
ADSK_XREC_LAYER_RECONCILED
360
1E67
  0
DICTIONARY
  5
1E68
330
2BA
100
AcDbDictionary
280
     1
  3
ACAD_XREC_ROUNDTRIP
360
1F76
  3
ADSK_XREC_LAYER_RECONCILED
360
1E69
  0
DICTIONARY
  5
1E6C
330
3FA
100
AcDbDictionary
280
     1
  3
ACAD_XREC_ROUNDTRIP
360
1F78
  3
ADSK_XREC_LAYER_RECONCILED
360
1E6D
  0
DICTIONARY
  5
1888
330
1887
100
AcDbDictionary
280
     1
  3
ACAD_XREC_ROUNDTRIP
360
1F7D
  3
ADSK_XREC_LAYER_RECONCILED
360
188A
  0
DICTIONARY
  5
1FBD
330
2
100
AcDbDictionary
280
     1
  3
ACAD_LAYOUTSELFREF
360
1FBE
  0
DICTIONARY
  5
1FBF
330
1F96
100
AcDbDictionary
280
     1
  3
ACAD_LAYOUTSELFREF
360
1FC0
  0
DICTIONARY
  5
1E33
102
{ACAD_REACTORS
330
7
102
}
330
7
100
AcDbDictionary
  0
DICTIONARY
  5
75
102
{ACAD_REACTORS
330
7
102
}
330
7
100
AcDbDictionary
  0
DICTIONARY
  5
61
102
{ACAD_REACTORS
330
7
102
}
330
7
100
AcDbDictionary
  0
DICTIONARY
  5
1E09
102
{ACAD_REACTORS
330
7
102
}
330
7
100
AcDbDictionary
  3
BYBLOCK
350
1E12
  3
BYLAYER
350
1E0A
  3
GLOBAL
350
1E1A
  0
DICTIONARY
  5
1E58
102
{ACAD_REACTORS
330
7
102
}
330
7
100
AcDbDictionary
  3
STANDARD
350
1E59
  0
DICTIONARY
  5
76
102
{ACAD_REACTORS
330
7
102
}
330
7
100
AcDbDictionary
  3
STANDARD
350
78
  0
DICTIONARY
  5
77
102
{ACAD_REACTORS
330
7
102
}
330
7
100
AcDbDictionary
  0
ACDBDICTIONARYWDFLT
  5
6
102
{ACAD_REACTORS
330
7
102
}
330
7
100
AcDbDictionary
281
     1
  3
Normal
350
5
100
AcDbDictionaryWithDefault
340
5
  0
DICTIONARY
  5
1E36
102
{ACAD_REACTORS
330
7
102
}
330
7
100
AcDbDictionary
  3
A0
350
1E37
  3
A1
350
1E38
  3
A2
350
1E39
  3
A3
350
1E3A
  3
A4
350
1E3B
  3
A5
350
1E3C
  3
A6
350
1E3D
  3
A7
350
1E3E
  3
A8
350
1E3F
  3
A9
350
1E40
  3
B0
350
1E41
  3
B1
350
1E42
  3
B2
350
1E43
  3
B3
350
1E44
  3
B4
350
1E45
  3
B5
350
1E46
  3
B6
350
1E47
  3
B7
350
1E48
  3
B8
350
1E49
  3
B9
350
1E4A
  3
C0
350
1E4B
  3
C1
350
1E4C
  3
C2
350
1E4D
  3
C3
350
1E4E
  3
C4
350
1E4F
  3
C5
350
1E50
  3
C6
350
1E51
  3
C7
350
1E52
  3
C8
350
1E53
  3
C9
350
1E54
  3
D0
350
1E55
  3
D1
350
1E56
  3
D2
350
1E57
  0
DICTIONARY
  5
1E34
102
{ACAD_REACTORS
330
7
102
}
330
7
100
AcDbDictionary
  3
STANDARD
350
1E35
  0
DICTIONARY
  5
1E22
102
{ACAD_REACTORS
330
7
102
}
330
7
100
AcDbDictionary
  3
2DWIREFRAME
350
1E28
  3
3D_HIDDEN
350
1E2A
  3
3DWIREFRAME
350
1E29
  3
BASIC
350
1E27
  3
BRIGHTEN
350
1E2E
  3
COLORCHANGE
350
1E32
  3
CONCEPTUAL
350
1E2B
  3
DIM
350
1E2D
  3
FACEPATTERN
350
1E31
  3
FLAT
350
1E23
  3
FLATWITHEDGES
350
1E24
  3
GOURAUD
350
1E25
  3
GOURAUDWITHEDGES
350
1E26
  3
LINEPATTERN
350
1E30
  3
REALISTIC
350
1E2C
  3
THICKEN
350
1E2F
  0
XRECORD
  5
480
102
{ACAD_REACTORS
330
7
102
}
330
7
100
AcDbXrecord
 90
   990106
  3

 60
     0
 61
     0
 62
     1
 63
     3
 64
     1
 65
     0
 66
     0
 67
     3
 68
     1
 69
     0
 70
     0
 71
     0
 72
     0
 40
0.0
170
     2
340
0
  0
XRECORD
  5
1E70
102
{ACAD_REACTORS
330
7
102
}
330
7
100
AcDbXrecord
 90
        1
330
1E35
  0
DICTIONARY
  5
1F9C
102
{ACAD_REACTORS
330
7
102
}
330
7
100
AcDbDictionary
  3
CEPSNTYPE
350
1FA6
  3
DIMSTYLEDATA
350
1FAA
  3
FINGERPRINTGUID
350
1FA7
  3
HYPERLINKBASE
350
1F9F
  3
INSUNITS
350
1FA5
  3
LAYOUTDICT
350
1FA1
  3
LWETCUNION
350
1FA4
  3
PLOTSETDICT
350
1FA2
  3
PLOTSTYLNAMDICT
350
1FA3
  3
PSVPSCALE
350
1FA9
  3
PUCSBASE
350
1FAD
  3
PUCSORGBACK
350
1FB3
  3
PUCSORGBOTTOM
350
1FAF
  3
PUCSORGFRONT
350
1FB2
  3
PUCSORGLEFT
350
1FB0
  3
PUCSORGRIGHT
350
1FB1
  3
PUCSORGTOP
350
1FAE
  3
PUCSORTHOREF
350
1FAB
  3
PUCSORTHOVIEW
350
1FAC
  3
STYLESHEET
350
1FA0
  3
TSTACKALIGN
350
1F9D
  3
TSTACKSIZE
350
1F9E
  3
UCSBASE
350
1FB6
  3
UCSORGBACK
350
1FBC
  3
UCSORGBOTTOM
350
1FB8
  3
UCSORGFRONT
350
1FBB
  3
UCSORGLEFT
350
1FB9
  3
UCSORGRIGHT
350
1FBA
  3
UCSORGTOP
350
1FB7
  3
UCSORTHOREF
350
1FB4
  3
UCSORTHOVIEW
350
1FB5
  3
VERSIONGUID
350
1FA8
  0
DICTIONARY
  5
102
102
{ACAD_REACTORS
330
7
102
}
330
7
100
AcDbDictionary
  3
CANNOSCALE
350
1E91
  3
CMLEADERSTYLE
350
1E90
  3
CTABLESTYLE
350
1E8F
  3
DIMASSOC
350
103
  3
INDEXCTL
350
1E92
  3
SORTENTS
350
549
  0
XRECORD
  5
1F68
102
{ACAD_REACTORS
330
7
102
}
330
7
100
AcDbXrecord
  1
DWGPROPS COOKIE
  2

  3

  4

  6

  7

  8
ymorima
  9

300
=
301
=
302
=
303
=
304
=
305
=
306
=
307
=
308
=
309
=
 40
0.009968900462963
 41
2454411.434690023
 42
2454425.689072257
  1

 90
        0
  0
XRECORD
  5
1F6F
102
{ACAD_REACTORS
330
1E79
102
}
330
1E79
100
AcDbXrecord
102
VTR_0.000_0.000_1.000_1.000_VISUALSTYLE
340
1E28
102
VTR_0.000_0.000_1.000_1.000_GRIDDISPLAY
 70
     3
102
VTR_0.000_0.000_1.000_1.000_GRIDMAJOR
 70
     5
102
VTR_0.000_0.000_1.000_1.000_DEFAULTLIGHTING
280
     1
102
VTR_0.000_0.000_1.000_1.000_DEFAULTLIGHTINGTYPE
 70
     1
102
VTR_0.000_0.000_1.000_1.000_BRIGHTNESS
141
0.0
102
VTR_0.000_0.000_1.000_1.000_CONTRAST
142
0.0
  0
DICTIONARY
  5
ADD
102
{ACAD_REACTORS
330
ADC
102
}
330
ADC
100
AcDbDictionary
  0
XRECORD
  5
1F6B
102
{ACAD_REACTORS
330
1E5E
102
}
330
1E5E
100
AcDbXrecord
102
MATERIAL
340
1E1A
  0
XRECORD
  5
1E5F
102
{ACAD_REACTORS
330
1E5E
102
}
330
1E5E
100
AcDbXrecord
290
     1
  0
XRECORD
  5
1F6A
102
{ACAD_REACTORS
330
1E60
102
}
330
1E60
100
AcDbXrecord
102
MATERIAL
340
1E1A
  0
XRECORD
  5
1E61
102
{ACAD_REACTORS
330
1E60
102
}
330
1E60
100
AcDbXrecord
290
     1
  0
XRECORD
  5
1F75
102
{ACAD_REACTORS
330
1E66
102
}
330
1E66
100
AcDbXrecord
102
MATERIAL
340
1E1A
  0
XRECORD
  5
1E67
102
{ACAD_REACTORS
330
1E66
102
}
330
1E66
100
AcDbXrecord
290
     1
  0
XRECORD
  5
1F76
102
{ACAD_REACTORS
330
1E68
102
}
330
1E68
100
AcDbXrecord
102
MATERIAL
340
1E1A
  0
XRECORD
  5
1E69
102
{ACAD_REACTORS
330
1E68
102
}
330
1E68
100
AcDbXrecord
290
     1
  0
XRECORD
  5
1F78
102
{ACAD_REACTORS
330
1E6C
102
}
330
1E6C
100
AcDbXrecord
102
MATERIAL
340
1E1A
  0
XRECORD
  5
1E6D
102
{ACAD_REACTORS
330
1E6C
102
}
330
1E6C
100
AcDbXrecord
290
     1
  0
XRECORD
  5
1F7D
102
{ACAD_REACTORS
330
1888
102
}
330
1888
100
AcDbXrecord
102
MATERIAL
340
1E1A
  0
XRECORD
  5
188A
102
{ACAD_REACTORS
330
1888
102
}
330
1888
100
AcDbXrecord
290
     1
  0
XRECORD
  5
1FBE
102
{ACAD_REACTORS
330
1FBD
102
}
330
1FBD
100
AcDbXrecord
340
2
  0
XRECORD
  5
1FC0
102
{ACAD_REACTORS
330
1FBF
102
}
330
1FBF
100
AcDbXrecord
340
1F96
  0
ACAD_PROXY_OBJECT
  5
1E12
102
{ACAD_XDICTIONARY
360
1E13
102
}
102
{ACAD_REACTORS
330
1E09
102
}
330
1E09
100
AcDbProxyObject
 90
      499
 91
      511
 93
     1340
310
42109E509B1BD8DAC02004014080404555555555555953FAA155555555555654FEA9AA400014080404555555555555953FAA155555555555654FEA9AA400000000000000E03F4080404555555555555953FAA155555555555654FEA9AA4014080404555555555555953FAA155555555555654FEA9AA4010201011555555555
310
55654FEA8555555555555953FAA6A9005020101155555555555654FEA8555555555555953FAA6A9000
 94
        0
1001
ACAD
1000
AcadProxyRoundTripData
1071
      504
1071
   655383
1070
     0
  0
ACAD_PROXY_OBJECT
  5
1E0A
102
{ACAD_XDICTIONARY
360
1E0B
102
}
102
{ACAD_REACTORS
330
1E09
102
}
330
1E09
100
AcDbProxyObject
 90
      499
 91
      511
 93
     1340
310
42109E53185E595C802004014080404555555555555953FAA155555555555654FEA9AA400014080404555555555555953FAA155555555555654FEA9AA400000000000000E03F4080404555555555555953FAA155555555555654FEA9AA4014080404555555555555953FAA155555555555654FEA9AA4010201011555555555
310
55654FEA8555555555555953FAA6A9005020101155555555555654FEA8555555555555953FAA6A9000
 94
        0
1001
ACAD
1000
AcadProxyRoundTripData
1071
      504
1071
   655383
1070
     0
  0
ACAD_PROXY_OBJECT
  5
1E1A
102
{ACAD_XDICTIONARY
360
1E1B
102
}
102
{ACAD_REACTORS
330
1E09
102
}
330
1E09
100
AcDbProxyObject
 90
      499
 91
      511
 93
     1332
310
41D1DB1BD8985B002004014080404555555555555953FAA155555555555654FEA9AA400014080404555555555555953FAA155555555555654FEA9AA400000000000000E03F4080404555555555555953FAA155555555555654FEA9AA4014080404555555555555953FAA155555555555654FEA9AA401020101155555555555
310
654FEA8555555555555953FAA6A9005020101155555555555654FEA8555555555555953FAA6A9000
 94
        0
1001
ACAD
1000
AcadProxyRoundTripData
1071
      504
1071
   655383
1070
     0
  0
ACAD_PROXY_OBJECT
  5
1E59
102
{ACAD_REACTORS
330
1E58
102
}
330
1E58
100
AcDbProxyObject
 90
      499
 91
      511
 93
      618
310
40901902A4063FBFFFFFE056BD1B81E855B9FC0AD7A3703D0AD73F4254DD185B99185C990000AD7A3703D0AC73F90141901A02B5E8DC0F42B1CFC02B5E8DC0F42B1CFE5764000000000000300FC6
340
6A
340
0
340
16
340
0
 94
        0
1001
ACAD_MLEADERVER
1070
     2
1001
ACAD
1000
AcadProxyRoundTripData
1071
      508
1071
   655383
1070
     0
  0
MLINESTYLE
  5
78
102
{ACAD_REACTORS
330
76
102
}
330
76
100
AcDbMlineStyle
  2
STANDARD
 70
     0
  3

 62
     0
 51
90.0
 52
90.0
 71
     2
 49
0.5
 62
   256
  6
BYLAYER
 49
-0.5
 62
   256
  6
BYLAYER
  0
ACDBPLACEHOLDER
  5
5
102
{ACAD_REACTORS
330
6
102
}
330
6
100
AcDbPlaceHolder
280
     0
  0
ACAD_PROXY_OBJECT
  5
1E37
102
{ACAD_REACTORS
330
1E36
102
}
330
1E36
100
AcDbProxyObject
 90
      499
 91
      511
 93
       49
310
904313A3100598
 94
        0
1001
ACAD
1000
AcadProxyRoundTripData
1071
      507
1071
   655383
1070
     0
  0
ACAD_PROXY_OBJECT
  5
1E38
102
{ACAD_REACTORS
330
1E36
102
}
330
1E36
100
AcDbProxyObject
 90
      499
 91
      511
 93
      113
310
904313A3200400000000000000406B
 94
        0
1001
ACAD
1000
AcadProxyRoundTripData
1071
      507
1071
   655383
1070
     0
  0
ACAD_PROXY_OBJECT
  5
1E39
102
{ACAD_REACTORS
330
1E36
102
}
330
1E36
100
AcDbProxyObject
 90
      499
 91
      511
 93
      113
310
904313A3400400000000000010406B
 94
        0
1001
ACAD
1000
AcadProxyRoundTripData
1071
      507
1071
   655383
1070
     0
  0
ACAD_PROXY_OBJECT
  5
1E3A
102
{ACAD_REACTORS
330
1E36
102
}
330
1E36
100
AcDbProxyObject
 90
      499
 91
      511
 93
      113
310
904313A3500400000000000014406B
 94
        0
1001
ACAD
1000
AcadProxyRoundTripData
1071
      507
1071
   655383
1070
     0
  0
ACAD_PROXY_OBJECT
  5
1E3B
102
{ACAD_REACTORS
330
1E36
102
}
330
1E36
100
AcDbProxyObject
 90
      499
 91
      511
 93
      113
310
904313A3800400000000000020406B
 94
        0
1001
ACAD
1000
AcadProxyRoundTripData
1071
      507
1071
   655383
1070
     0
  0
ACAD_PROXY_OBJECT
  5
1E3C
102
{ACAD_REACTORS
330
1E36
102
}
330
1E36
100
AcDbProxyObject
 90
      499
 91
      511
 93
      121
310
905313A3130004000000000000244051
 94
        0
1001
ACAD
1000
AcadProxyRoundTripData
1071
      507
1071
   655383
1070
     0
  0
ACAD_PROXY_OBJECT
  5
1E3D
102
{ACAD_REACTORS
330
1E36
102
}
330
1E36
100
AcDbProxyObject
 90
      499
 91
      511
 93
      121
310
905313A3136004000000000000304051
 94
        0
1001
ACAD
1000
AcadProxyRoundTripData
1071
      507
1071
   655383
1070
     0
  0
ACAD_PROXY_OBJECT
  5
1E3E
102
{ACAD_REACTORS
330
1E36
102
}
330
1E36
100
AcDbProxyObject
 90
      499
 91
      511
 93
      121
310
905313A3230004000000000000344051
 94
        0
1001
ACAD
1000
AcadProxyRoundTripData
1071
      507
1071
   655383
1070
     0
  0
ACAD_PROXY_OBJECT
  5
1E3F
102
{ACAD_REACTORS
330
1E36
102
}
330
1E36
100
AcDbProxyObject
 90
      499
 91
      511
 93
      121
310
905313A33300040000000000003E4051
 94
        0
1001
ACAD
1000
AcadProxyRoundTripData
1071
      507
1071
   655383
1070
     0
  0
ACAD_PROXY_OBJECT
  5
1E40
102
{ACAD_REACTORS
330
1E36
102
}
330
1E36
100
AcDbProxyObject
 90
      499
 91
      511
 93
      121
310
905313A3430004000000000000444051
 94
        0
1001
ACAD
1000
AcadProxyRoundTripData
1071
      507
1071
   655383
1070
     0
  0
ACAD_PROXY_OBJECT
  5
1E41
102
{ACAD_REACTORS
330
1E36
102
}
330
1E36
100
AcDbProxyObject
 90
      499
 91
      511
 93
      121
310
905313A3530004000000000000494051
 94
        0
1001
ACAD
1000
AcadProxyRoundTripData
1071
      507
1071
   655383
1070
     0
  0
ACAD_PROXY_OBJECT
  5
1E42
102
{ACAD_REACTORS
330
1E36
102
}
330
1E36
100
AcDbProxyObject
 90
      499
 91
      511
 93
      129
310
906313A313030004000000000000594038
 94
        0
1001
ACAD
1000
AcadProxyRoundTripData
1071
      507
1071
   655383
1070
     0
  0
ACAD_PROXY_OBJECT
  5
1E43
102
{ACAD_REACTORS
330
1E36
102
}
330
1E36
100
AcDbProxyObject
 90
      499
 91
      511
 93
      113
310
904323A31000000000000000010159
 94
        0
1001
ACAD
1000
AcadProxyRoundTripData
1071
      507
1071
   655383
1070
     0
  0
ACAD_PROXY_OBJECT
  5
1E44
102
{ACAD_REACTORS
330
1E36
102
}
330
1E36
100
AcDbProxyObject
 90
      499
 91
      511
 93
      113
310
904343A31000000000000000410159
 94
        0
1001
ACAD
1000
AcadProxyRoundTripData
1071
      507
1071
   655383
1070
     0
  0
ACAD_PROXY_OBJECT
  5
1E45
102
{ACAD_REACTORS
330
1E36
102
}
330
1E36
100
AcDbProxyObject
 90
      499
 91
      511
 93
      113
310
904383A31000000000000000810159
 94
        0
1001
ACAD
1000
AcadProxyRoundTripData
1071
      507
1071
   655383
1070
     0
  0
ACAD_PROXY_OBJECT
  5
1E46
102
{ACAD_REACTORS
330
1E36
102
}
330
1E36
100
AcDbProxyObject
 90
      499
 91
      511
 93
      121
310
90531303A31000000000000000910140
 94
        0
1001
ACAD
1000
AcadProxyRoundTripData
1071
      507
1071
   655383
1070
     0
  0
ACAD_PROXY_OBJECT
  5
1E47
102
{ACAD_REACTORS
330
1E36
102
}
330
1E36
100
AcDbProxyObject
 90
      499
 91
      511
 93
      129
310
9063130303A31000000000000001650138
 94
        0
1001
ACAD
1000
AcadProxyRoundTripData
1071
      507
1071
   655383
1070
     0
  0
ACAD_PROXY_OBJECT
  5
1E48
102
{ACAD_REACTORS
330
1E36
102
}
330
1E36
100
AcDbProxyObject
 90
      499
 91
      511
 93
      265
310
90F312F31323822203D2031272D302200000000000000200FC00000000000028402B
 94
        0
1001
ACAD
1000
AcadProxyRoundTripData
1071
      507
1071
   655383
1070
     0
  0
ACAD_PROXY_OBJECT
  5
1E49
102
{ACAD_REACTORS
330
1E36
102
}
330
1E36
100
AcDbProxyObject
 90
      499
 91
      511
 93
      257
310
90E312F363422203D2031272D302200000000000000240FC000000000000284040
 94
        0
1001
ACAD
1000
AcadProxyRoundTripData
1071
      507
1071
   655383
1070
     0
  0
ACAD_PROXY_OBJECT
  5
1E4A
102
{ACAD_REACTORS
330
1E36
102
}
330
1E36
100
AcDbProxyObject
 90
      499
 91
      511
 93
      257
310
90E312F333222203D2031272D302200000000000000280FC000000000000284040
 94
        0
1001
ACAD
1000
AcadProxyRoundTripData
1071
      507
1071
   655383
1070
     0
  0
ACAD_PROXY_OBJECT
  5
1E4B
102
{ACAD_REACTORS
330
1E36
102
}
330
1E36
100
AcDbProxyObject
 90
      499
 91
      511
 93
      257
310
90E312F313622203D2031272D3022000000000000002C0FC000000000000284040
 94
        0
1001
ACAD
1000
AcadProxyRoundTripData
1071
      507
1071
   655383
1070
     0
  0
ACAD_PROXY_OBJECT
  5
1E4C
102
{ACAD_REACTORS
330
1E36
102
}
330
1E36
100
AcDbProxyObject
 90
      499
 91
      511
 93
      257
310
90E332F333222203D2031272D3022000000000000002E0FC000000000000284040
 94
        0
1001
ACAD
1000
AcadProxyRoundTripData
1071
      507
1071
   655383
1070
     0
  0
ACAD_PROXY_OBJECT
  5
1E4D
102
{ACAD_REACTORS
330
1E36
102
}
330
1E36
100
AcDbProxyObject
 90
      499
 91
      511
 93
      249
310
90D312F3822203D2031272D302200000000000000300FC000000000000284040
 94
        0
1001
ACAD
1000
AcadProxyRoundTripData
1071
      507
1071
   655383
1070
     0
  0
ACAD_PROXY_OBJECT
  5
1E4E
102
{ACAD_REACTORS
330
1E36
102
}
330
1E36
100
AcDbProxyObject
 90
      499
 91
      511
 93
      257
310
90E332F313622203D2031272D302200000000000000320FC000000000000284040
 94
        0
1001
ACAD
1000
AcadProxyRoundTripData
1071
      507
1071
   655383
1070
     0
  0
ACAD_PROXY_OBJECT
  5
1E4F
102
{ACAD_REACTORS
330
1E36
102
}
330
1E36
100
AcDbProxyObject
 90
      499
 91
      511
 93
      249
310
90D312F3422203D2031272D302200000000000000340FC000000000000284040
 94
        0
1001
ACAD
1000
AcadProxyRoundTripData
1071
      507
1071
   655383
1070
     0
  0
ACAD_PROXY_OBJECT
  5
1E50
102
{ACAD_REACTORS
330
1E36
102
}
330
1E36
100
AcDbProxyObject
 90
      499
 91
      511
 93
      249
310
90D332F3822203D2031272D302200000000000000360FC000000000000284040
 94
        0
1001
ACAD
1000
AcadProxyRoundTripData
1071
      507
1071
   655383
1070
     0
  0
ACAD_PROXY_OBJECT
  5
1E51
102
{ACAD_REACTORS
330
1E36
102
}
330
1E36
100
AcDbProxyObject
 90
      499
 91
      511
 93
      249
310
90D312F3222203D2031272D302200000000000000380FC000000000000284040
 94
        0
1001
ACAD
1000
AcadProxyRoundTripData
1071
      507
1071
   655383
1070
     0
  0
ACAD_PROXY_OBJECT
  5
1E52
102
{ACAD_REACTORS
330
1E36
102
}
330
1E36
100
AcDbProxyObject
 90
      499
 91
      511
 93
      249
310
90D332F3422203D2031272D3022000000000000003A0FC000000000000284040
 94
        0
1001
ACAD
1000
AcadProxyRoundTripData
1071
      507
1071
   655383
1070
     0
  0
ACAD_PROXY_OBJECT
  5
1E53
102
{ACAD_REACTORS
330
1E36
102
}
330
1E36
100
AcDbProxyObject
 90
      499
 91
      511
 93
      169
310
90B3122203D2031272D3022004000000000000284020
 94
        0
1001
ACAD
1000
AcadProxyRoundTripData
1071
      507
1071
   655383
1070
     0
  0
ACAD_PROXY_OBJECT
  5
1E54
102
{ACAD_REACTORS
330
1E36
102
}
330
1E36
100
AcDbProxyObject
 90
      499
 91
      511
 93
      265
310
90F312D312F3222203D2031272D3022000000000000003E0FC00000000000028402B
 94
        0
1001
ACAD
1000
AcadProxyRoundTripData
1071
      507
1071
   655383
1070
     0
  0
ACAD_PROXY_OBJECT
  5
1E55
102
{ACAD_REACTORS
330
1E36
102
}
330
1E36
100
AcDbProxyObject
 90
      499
 91
      511
 93
      233
310
90B3322203D2031272D30220000000000000002100000000000000284000
 94
        0
1001
ACAD
1000
AcadProxyRoundTripData
1071
      507
1071
   655383
1070
     0
  0
ACAD_PROXY_OBJECT
  5
1E56
102
{ACAD_REACTORS
330
1E36
102
}
330
1E36
100
AcDbProxyObject
 90
      499
 91
      511
 93
      233
310
90B3622203D2031272D30220000000000000006100000000000000284000
 94
        0
1001
ACAD
1000
AcadProxyRoundTripData
1071
      507
1071
   655383
1070
     0
  0
ACAD_PROXY_OBJECT
  5
1E57
102
{ACAD_REACTORS
330
1E36
102
}
330
1E36
100
AcDbProxyObject
 90
      499
 91
      511
 93
      257
310
90E31272D3022203D2031272D3022000000000000000A100000000000000284040
 94
        0
1001
ACAD
1000
AcadProxyRoundTripData
1071
      507
1071
   655383
1070
     0
  0
ACAD_PROXY_OBJECT
  5
1E35
102
{ACAD_XDICTIONARY
360
1E6E
102
}
102
{ACAD_REACTORS
330
1E34
102
}
330
1E34
100
AcDbProxyObject
 90
      499
 91
      511
 93
     1849
310
4254DD185B99185C990028B81E85EB51B8AE3F2E07A17AD46E2B8FC02B5E8DC0F42B1CFD028000000C1008070000C3001FDFF8000000C1003FBFF000000182007F7FE00000030400FEFFC00000060801FDFF8000000C1003FBFF00000018200000000000000681FA0B0000001820100E000186003FBFF000000182007F7FE0
310
0000030400FEFFC00000060801FDFF8000000C1003FBFF000000182007F7FE000000304000AD7A3703D0AC73F4160000003040201C00030C007F7FE00000030400FEFFC00000060801FDFF8000000C1003FBFF000000182007F7FE00000030400FEFFC000000608000
340
16
340
16
340
16
 94
        0
1001
ACAD
1000
AcadProxyRoundTripData
1071
      506
1071
   655383
1070
     0
  0
ACAD_PROXY_OBJECT
  5
1E28
102
{ACAD_REACTORS
330
1E22
102
}
330
1E22
100
AcDbProxyObject
 90
      499
 91
      511
 93
      444
310
430C9915DA5C99599C985B59401049028333333333333E3BF0000000000000FB0107901411070040501600405405064090741402480A0340
 94
        0
1001
ACAD
1000
AcDbSavedByObjectVersion
1070
     0
1000
AcadProxyRoundTripData
1071
      505
1071
   655383
1070
     0
  0
ACAD_PROXY_OBJECT
  5
1E2A
102
{ACAD_REACTORS
330
1E22
102
}
330
1E22
100
AcDbProxyObject
 90
      499
 91
      511
 93
      508
310
428CD108121A5919195B8010640502408333333333333E3BF0000000000000FB01079024090700405020000000000001110200405405064090740C02480A0340
 94
        0
1001
ACAD
1000
AcDbSavedByObjectVersion
1070
     0
1000
AcadProxyRoundTripData
1071
      505
1071
   655383
1070
     0
  0
ACAD_PROXY_OBJECT
  5
1E29
102
{ACAD_REACTORS
330
1E22
102
}
330
1E22
100
AcDbProxyObject
 90
      499
 91
      511
 93
      444
310
430CD915DA5C99599C985B59401059028333333333333E3BF0000000000000FB0107901411070040501600405405064090741402480A0340
 94
        0
1001
ACAD
1000
AcDbSavedByObjectVersion
1070
     0
1000
AcadProxyRoundTripData
1071
      505
1071
   655383
1070
     0
  0
ACAD_PROXY_OBJECT
  5
1E27
102
{ACAD_REACTORS
330
1E22
102
}
330
1E22
100
AcDbProxyObject
 90
      499
 91
      511
 93
      396
310
4190985CDA58C0107406404333333333333E3BF0000000000000FB0107A41107004050150841D405064090741402480A0356
 94
        0
1001
ACAD
1000
AcDbSavedByObjectVersion
1070
     0
1000
AcadProxyRoundTripData
1071
      505
1071
   655383
1070
     0
  0
ACAD_PROXY_OBJECT
  5
1E2E
102
{ACAD_REACTORS
330
1E22
102
}
330
1E22
100
AcDbProxyObject
 90
      499
 91
      511
 93
      436
310
42509C9A59DA1D195B8010C409028333333333333E3BF0000000000000FB010790141107004050150841D405064090741402480A029956
 94
        0
1001
ACAD
1000
AcDbSavedByObjectVersion
1070
     0
1000
AcadProxyRoundTripData
1071
      505
1071
   655383
1070
     0
  0
ACAD_PROXY_OBJECT
  5
1E32
102
{ACAD_REACTORS
330
1E22
102
}
330
1E22
100
AcDbProxyObject
 90
      499
 91
      511
 93
      460
310
4310DBDB1BDC90DA185B99D9401104090240C333333333333E3BF0000000000000FB0108901411070040501508421405064090741402480A0354
 94
        0
1001
ACAD
1000
AcDbSavedByObjectVersion
1070
     0
1000
AcadProxyRoundTripData
1071
      505
1071
   655383
1070
     0
  0
ACAD_PROXY_OBJECT
  5
1E2B
102
{ACAD_REACTORS
330
1E22
102
}
330
1E22
100
AcDbProxyObject
 90
      499
 91
      511
 93
      508
310
42D0DBDB98D95C1D1D585B0010940D028333333333333E3BF0000000000000FB0107902409070040501000000000000111010841D405064090740C02480A0340
 94
        0
1001
ACAD
1000
AcDbSavedByObjectVersion
1070
     0
1000
AcadProxyRoundTripData
1071
      505
1071
   655383
1070
     0
  0
ACAD_PROXY_OBJECT
  5
1E2D
102
{ACAD_REACTORS
330
1E22
102
}
330
1E22
100
AcDbProxyObject
 90
      499
 91
      511
 93
      420
310
41111A5B4010B409028333333333333E3BF0000000000000FB010790141107004050150841D405064090741402480A02677FFFFFDB
 94
        0
1001
ACAD
1000
AcDbSavedByObjectVersion
1070
     0
1000
AcadProxyRoundTripData
1071
      505
1071
   655383
1070
     0
  0
ACAD_PROXY_OBJECT
  5
1E31
102
{ACAD_REACTORS
330
1E22
102
}
330
1E22
100
AcDbProxyObject
 90
      499
 91
      511
 93
      452
310
43119858D95C185D1D195C9B8010F409028333333333333E3BF0000000000000FB010790141107004050150841D405064090741402480A0350
 94
        0
1001
ACAD
1000
AcDbSavedByObjectVersion
1070
     0
1000
AcadProxyRoundTripData
1071
      505
1071
   655383
1070
     0
  0
ACAD_PROXY_OBJECT
  5
1E23
102
{ACAD_REACTORS
330
1E22
102
}
330
1E22
100
AcDbProxyObject
 90
      499
 91
      511
 93
      396
310
41519B185D00240901404333333333333E3BF0000000000000F9010740A41107004050150841D405064090741402480A1B55
 94
        0
1001
ACAD
1000
AcDbSavedByObjectVersion
1070
     0
1000
AcadProxyRoundTripData
1071
      505
1071
   655383
1070
     0
  0
ACAD_PROXY_OBJECT
  5
1E24
102
{ACAD_REACTORS
330
1E22
102
}
330
1E22
100
AcDbProxyObject
 90
      499
 91
      511
 93
      484
310
43919B185D15DA5D1A115919D95CC010140901404333333333333E3BF0000000000000F9010740901411070040501600405405064090741402480A1B50
 94
        0
1001
ACAD
1000
AcDbSavedByObjectVersion
1070
     0
1000
AcadProxyRoundTripData
1071
      505
1071
   655383
1070
     0
  0
ACAD_PROXY_OBJECT
  5
1E25
102
{ACAD_REACTORS
330
1E22
102
}
330
1E22
100
AcDbProxyObject
 90
      499
 91
      511
 93
      420
310
4211DBDD5C985D590010240902404333333333333E3BF0000000000000F9010740A411070040501641D405064090741402480A1B50
 94
        0
1001
ACAD
1000
AcDbSavedByObjectVersion
1070
     0
1000
AcadProxyRoundTripData
1071
      505
1071
   655383
1070
     0
  0
ACAD_PROXY_OBJECT
  5
1E26
102
{ACAD_REACTORS
330
1E22
102
}
330
1E22
100
AcDbProxyObject
 90
      499
 91
      511
 93
      508
310
4451DBDD5C985D5915DA5D1A115919D95CC010340902404333333333333E3BF0000000000000F9010740901411070040501600405405064090741402480A1B50
 94
        0
1001
ACAD
1000
AcDbSavedByObjectVersion
1070
     0
1000
AcadProxyRoundTripData
1071
      505
1071
   655383
1070
     0
  0
ACAD_PROXY_OBJECT
  5
1E30
102
{ACAD_REACTORS
330
1E22
102
}
330
1E22
100
AcDbProxyObject
 90
      499
 91
      511
 93
      452
310
43131A5B995C185D1D195C9B8010E409028333333333333E3BF0000000000000FB010790141107004050750841D405064090741402483A0350
 94
        0
1001
ACAD
1000
AcDbSavedByObjectVersion
1070
     0
1000
AcadProxyRoundTripData
1071
      505
1071
   655383
1070
     0
  0
ACAD_PROXY_OBJECT
  5
1E2C
102
{ACAD_REACTORS
330
1E22
102
}
330
1E22
100
AcDbProxyObject
 90
      499
 91
      511
 93
      428
310
429499585B1A5CDD1A58C0108409028333333333333E3BF0000000000000FB01079019070040501508421405064090741402480A1B45
 94
        0
1001
ACAD
1000
AcDbSavedByObjectVersion
1070
     0
1000
AcadProxyRoundTripData
1071
      505
1071
   655383
1070
     0
  0
ACAD_PROXY_OBJECT
  5
1E2F
102
{ACAD_REACTORS
330
1E22
102
}
330
1E22
100
AcDbProxyObject
 90
      499
 91
      511
 93
      420
310
42151A1A58DAD95B8010D409028333333333333E3BF0000000000000FB010790141107004050150C41D405064090741402480A0352
 94
        0
1001
ACAD
1000
AcDbSavedByObjectVersion
1070
     0
1000
AcadProxyRoundTripData
1071
      505
1071
   655383
1070
     0
  0
XRECORD
  5
1FA6
102
{ACAD_REACTORS
330
1F9C
102
}
330
1F9C
100
AcDbXrecord
 90
        0
  0
XRECORD
  5
1FAA
102
{ACAD_REACTORS
330
1F9C
102
}
330
1F9C
100
AcDbXrecord
1000
DSTYLE
1002
{
1070
   179
 70
     2
1070
   277
 70
     6
1002
}
  0
XRECORD
  5
1FA7
102
{ACAD_REACTORS
330
1F9C
102
}
330
1F9C
100
AcDbXrecord
  1
{6385560B-F4B1-4644-A7C2-A3E32AC3D232}
  0
XRECORD
  5
1F9F
102
{ACAD_REACTORS
330
1F9C
102
}
330
1F9C
100
AcDbXrecord
  1

  0
XRECORD
  5
1FA5
102
{ACAD_REACTORS
330
1F9C
102
}
330
1F9C
100
AcDbXrecord
 90
        0
  0
XRECORD
  5
1FA1
102
{ACAD_REACTORS
330
1F9C
102
}
330
1F9C
100
AcDbXrecord
340
61
  0
XRECORD
  5
1FA4
102
{ACAD_REACTORS
330
1F9C
102
}
330
1F9C
100
AcDbXrecord
 90
    10781
  0
XRECORD
  5
1FA2
102
{ACAD_REACTORS
330
1F9C
102
}
330
1F9C
100
AcDbXrecord
340
77
  0
XRECORD
  5
1FA3
102
{ACAD_REACTORS
330
1F9C
102
}
330
1F9C
100
AcDbXrecord
340
6
  0
XRECORD
  5
1FA9
102
{ACAD_REACTORS
330
1F9C
102
}
330
1F9C
100
AcDbXrecord
 40
0.0
  0
XRECORD
  5
1FAD
102
{ACAD_REACTORS
330
1F9C
102
}
330
1F9C
100
AcDbXrecord
340
0
  0
XRECORD
  5
1FB3
102
{ACAD_REACTORS
330
1F9C
102
}
330
1F9C
100
AcDbXrecord
 10
0.0
 20
0.0
 30
0.0
  0
XRECORD
  5
1FAF
102
{ACAD_REACTORS
330
1F9C
102
}
330
1F9C
100
AcDbXrecord
 10
0.0
 20
0.0
 30
0.0
  0
XRECORD
  5
1FB2
102
{ACAD_REACTORS
330
1F9C
102
}
330
1F9C
100
AcDbXrecord
 10
0.0
 20
0.0
 30
0.0
  0
XRECORD
  5
1FB0
102
{ACAD_REACTORS
330
1F9C
102
}
330
1F9C
100
AcDbXrecord
 10
0.0
 20
0.0
 30
0.0
  0
XRECORD
  5
1FB1
102
{ACAD_REACTORS
330
1F9C
102
}
330
1F9C
100
AcDbXrecord
 10
0.0
 20
0.0
 30
0.0
  0
XRECORD
  5
1FAE
102
{ACAD_REACTORS
330
1F9C
102
}
330
1F9C
100
AcDbXrecord
 10
0.0
 20
0.0
 30
0.0
  0
XRECORD
  5
1FAB
102
{ACAD_REACTORS
330
1F9C
102
}
330
1F9C
100
AcDbXrecord
340
0
  0
XRECORD
  5
1FAC
102
{ACAD_REACTORS
330
1F9C
102
}
330
1F9C
100
AcDbXrecord
 70
     0
  0
XRECORD
  5
1FA0
102
{ACAD_REACTORS
330
1F9C
102
}
330
1F9C
100
AcDbXrecord
  1
Sekkei.ctb
  0
XRECORD
  5
1F9D
102
{ACAD_REACTORS
330
1F9C
102
}
330
1F9C
100
AcDbXrecord
 90
        1
  0
XRECORD
  5
1F9E
102
{ACAD_REACTORS
330
1F9C
102
}
330
1F9C
100
AcDbXrecord
 90
       70
  0
XRECORD
  5
1FB6
102
{ACAD_REACTORS
330
1F9C
102
}
330
1F9C
100
AcDbXrecord
340
0
  0
XRECORD
  5
1FBC
102
{ACAD_REACTORS
330
1F9C
102
}
330
1F9C
100
AcDbXrecord
 10
0.0
 20
0.0
 30
0.0
  0
XRECORD
  5
1FB8
102
{ACAD_REACTORS
330
1F9C
102
}
330
1F9C
100
AcDbXrecord
 10
0.0
 20
0.0
 30
0.0
  0
XRECORD
  5
1FBB
102
{ACAD_REACTORS
330
1F9C
102
}
330
1F9C
100
AcDbXrecord
 10
0.0
 20
0.0
 30
0.0
  0
XRECORD
  5
1FB9
102
{ACAD_REACTORS
330
1F9C
102
}
330
1F9C
100
AcDbXrecord
 10
0.0
 20
0.0
 30
0.0
  0
XRECORD
  5
1FBA
102
{ACAD_REACTORS
330
1F9C
102
}
330
1F9C
100
AcDbXrecord
 10
0.0
 20
0.0
 30
0.0
  0
XRECORD
  5
1FB7
102
{ACAD_REACTORS
330
1F9C
102
}
330
1F9C
100
AcDbXrecord
 10
0.0
 20
0.0
 30
0.0
  0
XRECORD
  5
1FB4
102
{ACAD_REACTORS
330
1F9C
102
}
330
1F9C
100
AcDbXrecord
340
0
  0
XRECORD
  5
1FB5
102
{ACAD_REACTORS
330
1F9C
102
}
330
1F9C
100
AcDbXrecord
 70
     0
  0
XRECORD
  5
1FA8
102
{ACAD_REACTORS
330
1F9C
102
}
330
1F9C
100
AcDbXrecord
  1
{670DF74B-7448-4611-9CB4-A8516ED9BCB2}
  0
DICTIONARYVAR
  5
1E91
102
{ACAD_REACTORS
330
102
102
}
330
102
100
DictionaryVariables
280
     0
  1
1:1
  0
DICTIONARYVAR
  5
1E90
102
{ACAD_REACTORS
330
102
102
}
330
102
100
DictionaryVariables
280
     0
  1
STANDARD
  0
DICTIONARYVAR
  5
1E8F
102
{ACAD_REACTORS
330
102
102
}
330
102
100
DictionaryVariables
280
     0
  1
STANDARD
  0
DICTIONARYVAR
  5
103
102
{ACAD_REACTORS
330
102
102
}
330
102
100
DictionaryVariables
280
     0
  1
1
  0
DICTIONARYVAR
  5
1E92
102
{ACAD_REACTORS
330
102
102
}
330
102
100
DictionaryVariables
280
     0
  1
0
  0
DICTIONARYVAR
  5
549
102
{ACAD_REACTORS
330
102
102
}
330
102
100
DictionaryVariables
280
     0
  1
96
  0
DICTIONARY
  5
1E13
330
1E12
100
AcDbDictionary
280
     1
  3
ACAD_XREC_ROUNDTRIP
360
1F81
  3
BUMPTILE
360
1E15
  3
DIFFUSETILE
360
1E14
  3
OPACITYTILE
360
1E18
  3
REFLECTIONTILE
360
1E17
  3
REFRACTIONTILE
360
1E19
  3
SPECULARTILE
360
1E16
  0
DICTIONARY
  5
1E0B
330
1E0A
100
AcDbDictionary
280
     1
  3
ACAD_XREC_ROUNDTRIP
360
1F80
  3
BUMPTILE
360
1E0D
  3
DIFFUSETILE
360
1E0C
  3
OPACITYTILE
360
1E10
  3
REFLECTIONTILE
360
1E0F
  3
REFRACTIONTILE
360
1E11
  3
SPECULARTILE
360
1E0E
  0
DICTIONARY
  5
1E1B
330
1E1A
100
AcDbDictionary
280
     1
  3
ACAD_XREC_ROUNDTRIP
360
1F82
  3
BUMPTILE
360
1E1D
  3
DIFFUSETILE
360
1E1C
  3
OPACITYTILE
360
1E20
  3
REFLECTIONTILE
360
1E1F
  3
REFRACTIONTILE
360
1E21
  3
SPECULARTILE
360
1E1E
  0
DICTIONARY
  5
1E6E
330
1E35
100
AcDbDictionary
280
     1
  3
ACAD_ROUNDTRIP_2008_TABLES
360
1F67
  3
ACAD_XREC_ROUNDTRIP
360
1F83
  0
XRECORD
  5
1F81
102
{ACAD_REACTORS
330
1E13
102
}
330
1E13
100
AcDbXrecord
102
MATERIAL
148
0.0
149
0.0
149
0.0
 93
        0
 94
      127
282
     0
 72
     0
 77
     0
171
     0
175
     0
179
     0
273
     0
  0
XRECORD
  5
1E15
102
{ACAD_REACTORS
330
1E13
102
}
330
1E13
100
AcDbXrecord
270
     1
271
     1
  0
XRECORD
  5
1E14
102
{ACAD_REACTORS
330
1E13
102
}
330
1E13
100
AcDbXrecord
270
     1
271
     1
  0
XRECORD
  5
1E18
102
{ACAD_REACTORS
330
1E13
102
}
330
1E13
100
AcDbXrecord
270
     1
271
     1
  0
XRECORD
  5
1E17
102
{ACAD_REACTORS
330
1E13
102
}
330
1E13
100
AcDbXrecord
270
     1
271
     1
  0
XRECORD
  5
1E19
102
{ACAD_REACTORS
330
1E13
102
}
330
1E13
100
AcDbXrecord
270
     1
271
     1
  0
XRECORD
  5
1E16
102
{ACAD_REACTORS
330
1E13
102
}
330
1E13
100
AcDbXrecord
270
     1
271
     1
  0
XRECORD
  5
1F80
102
{ACAD_REACTORS
330
1E0B
102
}
330
1E0B
100
AcDbXrecord
102
MATERIAL
148
0.0
149
0.0
149
0.0
 93
        0
 94
      127
282
     0
 72
     0
 77
     0
171
     0
175
     0
179
     0
273
     0
  0
XRECORD
  5
1E0D
102
{ACAD_REACTORS
330
1E0B
102
}
330
1E0B
100
AcDbXrecord
270
     1
271
     1
  0
XRECORD
  5
1E0C
102
{ACAD_REACTORS
330
1E0B
102
}
330
1E0B
100
AcDbXrecord
270
     1
271
     1
  0
XRECORD
  5
1E10
102
{ACAD_REACTORS
330
1E0B
102
}
330
1E0B
100
AcDbXrecord
270
     1
271
     1
  0
XRECORD
  5
1E0F
102
{ACAD_REACTORS
330
1E0B
102
}
330
1E0B
100
AcDbXrecord
270
     1
271
     1
  0
XRECORD
  5
1E11
102
{ACAD_REACTORS
330
1E0B
102
}
330
1E0B
100
AcDbXrecord
270
     1
271
     1
  0
XRECORD
  5
1E0E
102
{ACAD_REACTORS
330
1E0B
102
}
330
1E0B
100
AcDbXrecord
270
     1
271
     1
  0
XRECORD
  5
1F82
102
{ACAD_REACTORS
330
1E1B
102
}
330
1E1B
100
AcDbXrecord
102
MATERIAL
148
0.0
149
0.0
149
0.0
 93
        0
 94
      127
282
     0
 72
     0
 77
     0
171
     0
175
     0
179
     0
273
     0
  0
XRECORD
  5
1E1D
102
{ACAD_REACTORS
330
1E1B
102
}
330
1E1B
100
AcDbXrecord
270
     1
271
     1
  0
XRECORD
  5
1E1C
102
{ACAD_REACTORS
330
1E1B
102
}
330
1E1B
100
AcDbXrecord
270
     1
271
     1
  0
XRECORD
  5
1E20
102
{ACAD_REACTORS
330
1E1B
102
}
330
1E1B
100
AcDbXrecord
270
     1
271
     1
  0
XRECORD
  5
1E1F
102
{ACAD_REACTORS
330
1E1B
102
}
330
1E1B
100
AcDbXrecord
270
     1
271
     1
  0
XRECORD
  5
1E21
102
{ACAD_REACTORS
330
1E1B
102
}
330
1E1B
100
AcDbXrecord
270
     1
271
     1
  0
XRECORD
  5
1E1E
102
{ACAD_REACTORS
330
1E1B
102
}
330
1E1B
100
AcDbXrecord
270
     1
271
     1
  0
ACAD_PROXY_OBJECT
  5
1F67
102
{ACAD_REACTORS
330
1E6E
102
}
330
1E6E
100
AcDbProxyObject
 90
      499
 91
      511
 93
     5304
310
40D054060020000020000003200101A000080002A5058000000C100000000000000340FD012E07A17AD46E2B8FCB81E85EB51B8AE3F2E07A17AD46E2B8FCB81E85EB51B8AE3F02B5E8DC0F42B1CFC0AD7A3703D0AC73F419019018000000C1003FBFFFFFE02B5E8DC0F42A9CFD029018000000C1003FBFFFFFE02B5E8DC0F4
310
2A9CFD049018000000C1003FBFFFFFE02B5E8DC0F42A9CFD089018000000C1003FBFFFFFE02B5E8DC0F42A9CFD109018000000C1003FBFFFFFE02B5E8DC0F42A9CFD209018000000C1003FBFFFFFE02B5E8DC0F42A9CFD01405075F5449544C450041501A8000000C800406800020000A9416000000304000AD7A3703D0AC7
310
3F404B81E85EB51B8AE3F2E07A17AD46E2B8FCB81E85EB51B8AE3F2E07A17AD46E2B8FC0AD7A3703D0AC73F02B5E8DC0F42B1CFD0640640600000030400FEFFFFFF80AD7A3703D0AA73F40A40600000030400FEFFFFFF80AD7A3703D0AA73F41240600000030400FEFFFFFF80AD7A3703D0AA73F42240600000030400FEFFF
310
FFF80AD7A3703D0AA73F44240600000030400FEFFFFFF80AD7A3703D0AA73F48240600000030400FEFFFFFF80AD7A3703D0AA73F409014217D2115051115480105406A0000003200101A000080002A5028000000C10002B5E8DC0F42B1CFD012E07A17AD46E2B8FCB81E85EB51B8AE3F2E07A17AD46E2B8FCB81E85EB51B8A
310
E3F02B5E8DC0F42B1CFC0AD7A3703D0AC73F419019018000000C1003FBFFFFFE02B5E8DC0F42A9CFD029018000000C1003FBFFFFFE02B5E8DC0F42A9CFD049018000000C1003FBFFFFFE02B5E8DC0F42A9CFD089018000000C1003FBFFFFFE02B5E8DC0F42A9CFD109018000000C1003FBFFFFFE02B5E8DC0F42A9CFD20901
310
8000000C1003FBFFFFFE02B5E8DC0F42A9CFD03409065F444154410000
340
16
340
0
340
0
340
0
340
0
340
0
340
0
340
16
340
0
340
0
340
0
340
0
340
0
340
0
340
16
340
0
340
0
340
0
340
0
340
0
340
0
 94
        0
1001
ACAD
1000
AcadProxyRoundTripData
1071
      509
1071
   655383
1070
     0
  0
XRECORD
  5
1F83
102
{ACAD_REACTORS
330
1E6E
102
}
330
1E6E
100
AcDbXrecord
102
ACAD_ROUNDTRIP_PRE2007_TABLESTYLE
 90
      512
 91
        0
  1

 92
      512
 93
        0
  2

 94
      512
 95
        0
  3

  0
ENDSEC
  0
EOF
