  0
SECTION
  2
HEADER
  9
$ACADVER
  1
AC1014
  9
$ACADMAINTVER
 70
     9
  9
$DWGCODEPAGE
  3
ANSI_932
  9
$INSBASE
 10
0.0
 20
0.0
 30
0.0
  9
$EXTMIN
 10
39.41774091978618
 20
96.58270584246526
 30
0.0
  9
$EXTMAX
 10
1053.861956487685
 20
747.1792104243404
 30
0.0
  9
$LIMMIN
 10
0.0
 20
0.0
  9
$LIMMAX
 10
297.0
 20
210.0
  9
$ORTHOMODE
 70
     1
  9
$REGENMODE
 70
     1
  9
$FILLMODE
 70
     1
  9
$QTEXTMODE
 70
     0
  9
$MIRRTEXT
 70
     0
  9
$DRAGMODE
 70
     2
  9
$LTSCALE
 40
3.0
  9
$OSMODE
 70
    37
  9
$ATTMODE
 70
     1
  9
$TEXTSIZE
 40
2.0
  9
$TRACEWID
 40
1.0
  9
$TEXTSTYLE
  7
STANDARD
  9
$CLAYER
  8
0
  9
$CELTYPE
  6
BYLAYER
  9
$CECOLOR
 62
   256
  9
$CELTSCALE
 40
1.0
  9
$DELOBJ
 70
     1
  9
$DISPSILH
 70
     0
  9
$DIMSCALE
 40
3.0
  9
$DIMASZ
 40
1.8
  9
$DIMEXO
 40
0.625
  9
$DIMDLI
 40
3.75
  9
$DIMRND
 40
0.0
  9
$DIMDLE
 40
0.0
  9
$DIMEXE
 40
0.8
  9
$DIMTP
 40
0.0
  9
$DIMTM
 40
0.0
  9
$DIMTXT
 40
1.8
  9
$DIMCEN
 40
2.5
  9
$DIMTSZ
 40
0.0
  9
$DIMTOL
 70
     0
  9
$DIMLIM
 70
     0
  9
$DIMTIH
 70
     0
  9
$DIMTOH
 70
     0
  9
$DIMSE1
 70
     0
  9
$DIMSE2
 70
     0
  9
$DIMTAD
 70
     1
  9
$DIMZIN
 70
     8
  9
$DIMBLK
  1

  9
$DIMASO
 70
     1
  9
$DIMSHO
 70
     1
  9
$DIMPOST
  1

  9
$DIMAPOST
  1

  9
$DIMALT
 70
     0
  9
$DIMALTD
 70
     4
  9
$DIMALTF
 40
0.0394
  9
$DIMLFAC
 40
1.0
  9
$DIMTOFL
 70
     1
  9
$DIMTVP
 40
0.0
  9
$DIMTIX
 70
     0
  9
$DIMSOXD
 70
     0
  9
$DIMSAH
 70
     0
  9
$DIMBLK1
  1

  9
$DIMBLK2
  1

  9
$DIMSTYLE
  2
STANDARD
  9
$DIMCLRD
 70
     0
  9
$DIMCLRE
 70
     0
  9
$DIMCLRT
 70
     0
  9
$DIMTFAC
 40
1.0
  9
$DIMGAP
 40
0.75
  9
$DIMJUST
 70
     0
  9
$DIMSD1
 70
     0
  9
$DIMSD2
 70
     0
  9
$DIMTOLJ
 70
     1
  9
$DIMTZIN
 70
     0
  9
$DIMALTZ
 70
     0
  9
$DIMALTTZ
 70
     0
  9
$DIMFIT
 70
     3
  9
$DIMUPT
 70
     0
  9
$DIMUNIT
 70
     8
  9
$DIMDEC
 70
     2
  9
$DIMTDEC
 70
     2
  9
$DIMALTU
 70
     8
  9
$DIMALTTD
 70
     4
  9
$DIMTXSTY
  7
STANDARD
  9
$DIMAUNIT
 70
     0
  9
$LUNITS
 70
     2
  9
$LUPREC
 70
     3
  9
$SKETCHINC
 40
1.0
  9
$FILLETRAD
 40
10.0
  9
$AUNITS
 70
     0
  9
$AUPREC
 70
     2
  9
$MENU
  1
.
  9
$ELEVATION
 40
0.0
  9
$PELEVATION
 40
0.0
  9
$THICKNESS
 40
0.0
  9
$LIMCHECK
 70
     0
  9
$BLIPMODE
 70
     0
  9
$CHAMFERA
 40
0.0
  9
$CHAMFERB
 40
0.0
  9
$CHAMFERC
 40
20.0
  9
$CHAMFERD
 40
0.0
  9
$SKPOLY
 70
     0
  9
$TDCREATE
 40
2454411.436245833
  9
$TDUPDATE
 40
2454425.690143044
  9
$TDINDWG
 40
0.0118618056
  9
$TDUSRTIMER
 40
0.0118618056
  9
$USRTIMER
 70
     1
  9
$ANGBASE
 50
0.0
  9
$ANGDIR
 70
     0
  9
$PDMODE
 70
     0
  9
$PDSIZE
 40
-10.0
  9
$PLINEWID
 40
0.0
  9
$COORDS
 70
     0
  9
$SPLFRAME
 70
     0
  9
$SPLINETYPE
 70
     6
  9
$SPLINESEGS
 70
     8
  9
$ATTDIA
 70
     0
  9
$ATTREQ
 70
     1
  9
$HANDLING
 70
-16383
  9
$HANDSEED
  5
1E4A
  9
$SURFTAB1
 70
     6
  9
$SURFTAB2
 70
     6
  9
$SURFTYPE
 70
     6
  9
$SURFU
 70
     6
  9
$SURFV
 70
     6
  9
$UCSNAME
  2

  9
$UCSORG
 10
0.0
 20
0.0
 30
0.0
  9
$UCSXDIR
 10
1.0
 20
0.0
 30
0.0
  9
$UCSYDIR
 10
0.0
 20
1.0
 30
0.0
  9
$PUCSNAME
  2

  9
$PUCSORG
 10
0.0
 20
0.0
 30
0.0
  9
$PUCSXDIR
 10
1.0
 20
0.0
 30
0.0
  9
$PUCSYDIR
 10
0.0
 20
1.0
 30
0.0
  9
$USERI1
 70
     0
  9
$USERI2
 70
     0
  9
$USERI3
 70
     0
  9
$USERI4
 70
     0
  9
$USERI5
 70
     0
  9
$USERR1
 40
0.0
  9
$USERR2
 40
0.0
  9
$USERR3
 40
0.0
  9
$USERR4
 40
0.0
  9
$USERR5
 40
0.0
  9
$WORLDVIEW
 70
     1
  9
$SHADEDGE
 70
     3
  9
$SHADEDIF
 70
    70
  9
$TILEMODE
 70
     1
  9
$MAXACTVP
 70
    48
  9
$PINSBASE
 10
0.0
 20
0.0
 30
0.0
  9
$PLIMCHECK
 70
     0
  9
$PEXTMIN
 10
0.0
 20
0.0
 30
0.0
  9
$PEXTMAX
 10
0.0
 20
0.0
 30
0.0
  9
$PLIMMIN
 10
0.0
 20
0.0
  9
$PLIMMAX
 10
12.0
 20
9.0
  9
$UNITMODE
 70
     0
  9
$VISRETAIN
 70
     1
  9
$PLINEGEN
 70
     0
  9
$PSLTSCALE
 70
     1
  9
$TREEDEPTH
 70
  3020
  9
$PICKSTYLE
 70
     1
  9
$CMLSTYLE
  2
STANDARD
  9
$CMLJUST
 70
     0
  9
$CMLSCALE
 40
1.0
  9
$PROXYGRAPHICS
 70
     1
  9
$MEASUREMENT
 70
     0
  0
ENDSEC
  0
SECTION
  2
CLASSES
  0
CLASS
  1
DICTIONARYVAR
  2
AcDbDictionaryVar
  3
AutoCAD 2000
 90
        0
280
     0
281
     0
  0
CLASS
  1
ACDBDICTIONARYWDFLT
  2
AcDbDictionaryWithDefault
  3
AutoCAD 2000
 90
        0
280
     0
281
     0
  0
CLASS
  1
ACDBPLACEHOLDER
  2
AcDbPlaceHolder
  3
AutoCAD 2000
 90
        0
280
     0
281
     0
  0
CLASS
  1
LAYOUT
  2
AcDbLayout
  3
AutoCAD 2000
 90
        0
280
     0
281
     0
  0
CLASS
  1
MATERIAL
  2
AcDbMaterial
  3
ObjectDBX Classes
 90
     1153
280
     0
281
     0
  0
CLASS
  1
VISUALSTYLE
  2
AcDbVisualStyle
  3
ObjectDBX Classes
 90
     4095
280
     0
281
     0
  0
CLASS
  1
TABLESTYLE
  2
AcDbTableStyle
  3
ObjectDBX Classes
 90
     4095
280
     0
281
     0
  0
CLASS
  1
SCALE
  2
AcDbScale
  3
ObjectDBX Classes
 90
     1153
280
     0
281
     0
  0
CLASS
  1
MLEADERSTYLE
  2
AcDbMLeaderStyle
  3
ACDB_MLEADERSTYLE_CLASS
 90
     4095
280
     0
281
     0
  0
CLASS
  1
CELLSTYLEMAP
  2
AcDbCellStyleMap
  3
ObjectDBX Classes
 90
     1152
280
     0
281
     0
  0
CLASS
  1
SORTENTSTABLE
  2
AcDbSortentsTable
  3
AutoCAD 2000
 90
        0
280
     0
281
     0
  0
CLASS
  1
ACAD_PROXY_OBJECT_WRAPPER
  2
AcDbProxyObjectWrapper
  3
AutoCAD 2000
 90
        0
280
     0
281
     0
  0
CLASS
  1
LONG_TRANSACTION
  2
AcDbLongTransaction
  3
AutoCAD 2000
 90
        0
280
     0
281
     0
  0
CLASS
  1
LWPOLYLINE
  2
AcDbPolyline
  3
AutoCAD 2000
 90
        0
280
     0
281
     1
  0
CLASS
  1
HATCH
  2
AcDbHatch
  3
AutoCAD 2000
 90
        0
280
     0
281
     1
  0
CLASS
  1
XRECORD
  2
AcDbXrecord
  3
AutoCAD 2000
 90
        0
280
     0
281
     0
  0
ENDSEC
  0
SECTION
  2
TABLES
  0
TABLE
  2
VPORT
  5
6E
102
{ACAD_XDICTIONARY
360
1D2B
102
}
330
0
100
AcDbSymbolTable
 70
     2
  0
VPORT
  5
1E24
330
6E
100
AcDbSymbolTableRecord
100
AcDbViewportTableRecord
  2
*ACTIVE
 70
     0
 10
0.0
 20
0.0
 11
1.0
 21
1.0
 12
555.1073165866655
 22
406.1681072611753
 13
0.0
 23
0.0
 14
10.0
 24
10.0
 15
10.0
 25
10.0
 16
0.0
 26
0.0
 36
1.0
 17
0.0
 27
0.0
 37
0.0
 40
686.6867834006341
 41
1.753504672897196
 42
50.0
 43
0.0
 44
0.0
 50
0.0
 51
0.0
 71
     0
 72
   100
 73
     1
 74
     3
 75
     0
 76
     0
 77
     0
 78
     0
  0
ENDTAB
  0
TABLE
  2
LTYPE
  5
69
330
0
100
AcDbSymbolTable
 70
     7
  0
LTYPE
  5
6A
330
69
100
AcDbSymbolTableRecord
100
AcDbLinetypeTableRecord
  2
BYBLOCK
 70
     0
  3

 72
    65
 73
     0
 40
0.0
  0
LTYPE
  5
6B
330
69
100
AcDbSymbolTableRecord
100
AcDbLinetypeTableRecord
  2
BYLAYER
 70
     0
  3

 72
    65
 73
     0
 40
0.0
  0
LTYPE
  5
8
330
69
100
AcDbSymbolTableRecord
100
AcDbLinetypeTableRecord
  2
CONTINUOUS
 70
     0
  3
Solid line
 72
    65
 73
     0
 40
0.0
  0
LTYPE
  5
27C
330
69
100
AcDbSymbolTableRecord
100
AcDbLinetypeTableRecord
  2
SEKKEI_A2_
 70
     0
  3
center(A2)  ____ _ ____ _ ____ _ ____ _ ____ _ 
 72
    65
 73
     4
 40
14.28749999999999
 49
9.525
 74
     0
 49
-1.587499999999999
 74
     0
 49
1.587499999999999
 74
     0
 49
-1.587499999999999
 74
     0
  0
LTYPE
  5
7F0
330
69
100
AcDbSymbolTableRecord
100
AcDbLinetypeTableRecord
  2
HIDDEN3
 70
     0
  3
Hidden (.3x) _ _ _ _ _ _ _ _ _ _ _ _ _ _ _ _ _
 72
    65
 73
     2
 40
2.857499999999999
 49
1.905
 74
     0
 49
-0.9525
 74
     0
  0
LTYPE
  5
ADB
330
69
100
AcDbSymbolTableRecord
100
AcDbLinetypeTableRecord
  2
CENS
 70
     0
  3
(一点鎖線１)---- - ---- - ---- - ---- - ---- - 
 72
    65
 73
     4
 40
7.0
 49
4.0
 74
     0
 49
-1.0
 74
     0
 49
1.0
 74
     0
 49
-1.0
 74
     0
  0
LTYPE
  5
187F
330
69
100
AcDbSymbolTableRecord
100
AcDbLinetypeTableRecord
  2
SEKKEI-P_A4_
 70
     0
  3
Phantom(A4)  ____ _ _ ____ _ _ ____ _ _ _____
 72
    65
 73
     6
 40
15.0
 49
7.5
 74
     0
 49
-1.5
 74
     0
 49
1.5
 74
     0
 49
-1.5
 74
     0
 49
1.5
 74
     0
 49
-1.5
 74
     0
  0
LTYPE
  5
1880
330
69
100
AcDbSymbolTableRecord
100
AcDbLinetypeTableRecord
  2
SEKKEI_P_S
 70
     0
  3
Phantom_S   __ _ _ __ _ _ __ _ _ ___
 72
    65
 73
     6
 40
7.5
 49
3.75
 74
     0
 49
-0.75
 74
     0
 49
0.75
 74
     0
 49
-0.75
 74
     0
 49
0.75
 74
     0
 49
-0.75
 74
     0
  0
ENDTAB
  0
TABLE
  2
LAYER
  5
66
102
{ACAD_XDICTIONARY
360
ADC
102
}
330
0
100
AcDbSymbolTable
 70
    10
  0
LAYER
  5
5E
102
{ACAD_XDICTIONARY
360
1D10
102
}
330
66
100
AcDbSymbolTableRecord
100
AcDbLayerTableRecord
  2
0
 70
     0
 62
     7
  6
CONTINUOUS
  0
LAYER
  5
3E
102
{ACAD_XDICTIONARY
360
1D12
102
}
330
66
100
AcDbSymbolTableRecord
100
AcDbLayerTableRecord
  2
CENTER
 70
     0
 62
     3
  6
SEKKEI_A2_
  0
LAYER
  5
2B5
102
{ACAD_XDICTIONARY
360
1D18
102
}
330
66
100
AcDbSymbolTableRecord
100
AcDbLayerTableRecord
  2
HIDS
 70
     0
 62
     1
  6
HIDDEN3
  0
LAYER
  5
2BA
102
{ACAD_XDICTIONARY
360
1D1A
102
}
330
66
100
AcDbSymbolTableRecord
100
AcDbLayerTableRecord
  2
HOJO
 70
     0
 62
     4
  6
CONTINUOUS
  0
LAYER
  5
3FA
102
{ACAD_XDICTIONARY
360
1D1E
102
}
330
66
100
AcDbSymbolTableRecord
100
AcDbLayerTableRecord
  2
TITLE
 70
     0
 62
     4
  6
CONTINUOUS
  0
LAYER
  5
1881
102
{ACAD_XDICTIONARY
360
1882
102
}
330
66
100
AcDbSymbolTableRecord
100
AcDbLayerTableRecord
  2
PHAS
 70
     0
 62
     2
  6
SEKKEI-P_A4_
  0
ENDTAB
  0
TABLE
  2
STYLE
  5
67
330
0
100
AcDbSymbolTable
 70
     2
  0
STYLE
  5
16
330
67
100
AcDbSymbolTableRecord
100
AcDbTextStyleTableRecord
  2
STANDARD
 70
     0
 40
0.0
 41
1.0
 50
0.0
 71
     0
 42
2.0
  3
simplex.shx
  4
extfont.shx
  0
ENDTAB
  0
TABLE
  2
VIEW
  5
6C
330
0
100
AcDbSymbolTable
 70
     0
  0
ENDTAB
  0
TABLE
  2
UCS
  5
6D
330
0
100
AcDbSymbolTable
 70
     0
  0
ENDTAB
  0
TABLE
  2
APPID
  5
70
330
0
100
AcDbSymbolTable
 70
     3
  0
APPID
  5
71
330
70
100
AcDbSymbolTableRecord
100
AcDbRegAppTableRecord
  2
ACAD
 70
     0
  0
APPID
  5
1CE6
330
70
100
AcDbSymbolTableRecord
100
AcDbRegAppTableRecord
  2
ACAD_MLEADERVER
 70
     0
  0
APPID
  5
1DC4
330
70
100
AcDbSymbolTableRecord
100
AcDbRegAppTableRecord
  2
ACAD_EXEMPT_FROM_CAD_STANDARDS
 70
     0
  0
ENDTAB
  0
TABLE
  2
DIMSTYLE
  5
72
330
0
100
AcDbSymbolTable
 70
     1
  0
DIMSTYLE
105
73
330
72
100
AcDbSymbolTableRecord
100
AcDbDimStyleTableRecord
  2
STANDARD
 70
     0
  3

  4

  5

  6

  7

 40
3.0
 41
1.8
 42
0.625
 43
3.75
 44
0.8
 45
0.0
 46
0.0
 47
0.0
 48
0.0
140
1.8
141
2.5
142
0.0
143
0.0394
144
1.0
145
0.0
146
1.0
147
0.75
 71
     0
 72
     0
 73
     0
 74
     0
 75
     0
 76
     0
 77
     1
 78
     8
170
     0
171
     4
172
     1
173
     0
174
     0
175
     0
176
     0
177
     0
178
     0
270
     8
271
     2
272
     2
273
     8
274
     4
340
16
275
     0
280
     0
281
     0
282
     0
283
     1
284
     0
285
     0
286
     0
287
     3
288
     0
  0
ENDTAB
  0
TABLE
  2
BLOCK_RECORD
  5
1
330
0
100
AcDbSymbolTable
 70
    55
  0
BLOCK_RECORD
  5
2
102
{ACAD_XDICTIONARY
360
1E46
102
}
330
1
100
AcDbSymbolTableRecord
100
AcDbBlockTableRecord
  2
*MODEL_SPACE
  0
BLOCK_RECORD
  5
1E1F
102
{ACAD_XDICTIONARY
360
1E48
102
}
330
1
100
AcDbSymbolTableRecord
100
AcDbBlockTableRecord
  2
*PAPER_SPACE
  0
ENDTAB
  0
ENDSEC
  0
SECTION
  2
BLOCKS
  0
BLOCK
  5
5D
330
2
100
AcDbEntity
  8
0
100
AcDbBlockBegin
  2
*MODEL_SPACE
 70
     0
 10
0.0
 20
0.0
 30
0.0
  3
*MODEL_SPACE
  1

  0
ENDBLK
  5
5F
330
2
100
AcDbEntity
  8
0
100
AcDbBlockEnd
  0
BLOCK
  5
1E21
330
1E1F
100
AcDbEntity
 67
     1
  8
0
100
AcDbBlockBegin
  2
*PAPER_SPACE
 70
     0
 10
0.0
 20
0.0
 30
0.0
  3
*PAPER_SPACE
  1

  0
ENDBLK
  5
1E22
330
1E1F
100
AcDbEntity
 67
     1
  8
0
100
AcDbBlockEnd
  0
ENDSEC
  0
SECTION
  2
ENTITIES
  0
TEXT
  5
EF0
330
2
100
AcDbEntity
  8
TITLE
100
AcDbText
 10
324.8745958048558
 20
679.3038010656621
 30
0.0
 40
7.5
  1
AFCZ22S-7~10M750S4
100
AcDbText
  0
TEXT
  5
EF1
330
2
100
AcDbEntity
  8
TITLE
100
AcDbText
 10
324.8745958048558
 20
667.8038010656621
 30
0.0
 40
7.5
  1
AFCZ22S-7~10L750S4
100
AcDbText
  0
LINE
  5
EF3
330
2
100
AcDbEntity
  8
CENTER
100
AcDbLine
 10
200.4177629197845
 20
342.4692808336672
 30
0.0
 11
200.4177629197845
 21
464.4692808336672
 31
0.0
  0
LINE
  5
EF4
330
2
100
AcDbEntity
  8
CENTER
100
AcDbLine
 10
261.4177629197809
 20
403.4692808336672
 30
0.0
 11
39.41774091978618
 21
403.4692808336672
 31
0.0
  0
LINE
  5
EF5
330
2
100
AcDbEntity
  8
CENTER
100
AcDbLine
 10
673.9673273749446
 20
457.075882551464
 30
0.0
 11
566.7541239393464
 21
349.8626791158656
 31
0.0
  0
LINE
  5
EF6
330
2
100
AcDbEntity
  8
CENTER
100
AcDbLine
 10
566.7541239393528
 20
457.0758825514626
 30
0.0
 11
673.9673273749478
 21
349.8626791158672
 31
0.0
  0
LINE
  5
EF7
330
2
100
AcDbEntity
  8
CENTER
100
AcDbLine
 10
620.3607256571474
 20
747.1792104243404
 30
0.0
 11
620.3607256571492
 21
589.1793174243402
 31
0.0
  0
LINE
  5
EF8
330
2
100
AcDbEntity
  8
CENTER
100
AcDbLine
 10
559.618168256977
 20
684.1793174243475
 30
0.0
 11
781.3607476571494
 21
684.1793174243475
 31
0.0
  0
LINE
  5
EF9
330
2
100
AcDbEntity
  8
CENTER
100
AcDbLine
 10
585.9343187859565
 20
445.8956877048622
 30
0.0
 11
569.9343187859565
 21
445.8956877048622
 31
0.0
  0
LINE
  5
EFA
330
2
100
AcDbEntity
  8
CENTER
100
AcDbLine
 10
577.9343187859528
 20
453.8956877048621
 30
0.0
 11
577.9343187859528
 21
437.8956877048622
 31
0.0
  0
LINE
  5
EFB
330
2
100
AcDbEntity
  8
CENTER
100
AcDbLine
 10
585.9343187859565
 20
361.0428739624781
 30
0.0
 11
569.9343187859565
 21
361.0428739624781
 31
0.0
  0
LINE
  5
EFC
330
2
100
AcDbEntity
  8
CENTER
100
AcDbLine
 10
577.9343187859565
 20
369.0428739624765
 30
0.0
 11
577.9343187859565
 21
353.0428739624765
 31
0.0
  0
LINE
  5
EFD
330
2
100
AcDbEntity
  8
CENTER
100
AcDbLine
 10
670.7871325283438
 20
361.0428739624765
 30
0.0
 11
654.7871325283438
 21
361.0428739624765
 31
0.0
  0
LINE
  5
EFE
330
2
100
AcDbEntity
  8
CENTER
100
AcDbLine
 10
662.7871325283401
 20
369.0428739624765
 30
0.0
 11
662.7871325283401
 21
353.0428739624765
 31
0.0
  0
LINE
  5
EFF
330
2
100
AcDbEntity
  8
CENTER
100
AcDbLine
 10
670.787132528342
 20
445.895687704862
 30
0.0
 11
654.787132528342
 21
445.895687704862
 31
0.0
  0
LINE
  5
F00
330
2
100
AcDbEntity
  8
CENTER
100
AcDbLine
 10
662.787132528342
 20
453.8956877048624
 30
0.0
 11
662.787132528342
 21
437.8956877048625
 31
0.0
  0
CIRCLE
  5
F01
330
2
100
AcDbEntity
  8
CENTER
100
AcDbCircle
 10
620.3607256571492
 20
403.4692808336695
 30
0.0
 40
60.0
  0
CIRCLE
  5
F02
330
2
100
AcDbEntity
  8
0
100
AcDbCircle
 10
620.3607256571492
 20
403.4692808336695
 30
0.0
 40
34.0
  0
CIRCLE
  5
F03
330
2
100
AcDbEntity
  8
0
100
AcDbCircle
 10
620.3607256571492
 20
403.4692808336695
 30
0.0
 40
45.0
  0
CIRCLE
  5
F04
330
2
100
AcDbEntity
  8
HOJO
100
AcDbCircle
 10
577.9343187859565
 20
361.0428739624765
 30
0.0
 40
4.0
  0
CIRCLE
  5
F05
330
2
100
AcDbEntity
  8
0
100
AcDbCircle
 10
577.9343187859565
 20
361.0428739624765
 30
0.0
 40
3.2
  0
CIRCLE
  5
F06
330
2
100
AcDbEntity
  8
0
100
AcDbCircle
 10
620.3607256571492
 20
403.4692808336695
 30
0.0
 40
26.0
  0
CIRCLE
  5
F07
330
2
100
AcDbEntity
  8
HOJO
100
AcDbCircle
 10
577.9343187859565
 20
445.8956877048622
 30
0.0
 40
4.0
  0
CIRCLE
  5
F08
330
2
100
AcDbEntity
  8
0
100
AcDbCircle
 10
577.9343187859565
 20
445.8956877048622
 30
0.0
 40
3.2
  0
LINE
  5
F09
330
2
100
AcDbEntity
  8
0
100
AcDbLine
 10
700.8607476571494
 20
452.9692808336699
 30
0.0
 11
700.8607476571458
 21
353.9692808336693
 31
0.0
  0
LINE
  5
F0A
330
2
100
AcDbEntity
  8
0
100
AcDbLine
 10
716.3607476571494
 20
351.9692808336693
 30
0.0
 11
716.3607476571494
 21
454.9692808336694
 31
0.0
  0
CIRCLE
  5
F0B
330
2
100
AcDbEntity
  8
0
100
AcDbCircle
 10
662.7871325283438
 20
361.0428739624765
 30
0.0
 40
3.2
  0
CIRCLE
  5
F0C
330
2
100
AcDbEntity
  8
HOJO
100
AcDbCircle
 10
662.7871325283438
 20
361.0428739624765
 30
0.0
 40
4.0
  0
ARC
  5
F0D
330
2
100
AcDbEntity
  8
0
100
AcDbCircle
 10
702.8607476571457
 20
354.469280833669
 30
0.0
 40
2.0
100
AcDbArc
 50
179.9999999999967
 51
270.0
  0
LINE
  5
F0E
330
2
100
AcDbEntity
  8
0
100
AcDbLine
 10
716.3607476571494
 20
352.4692808336693
 30
0.0
 11
702.8607476571457
 21
352.469280833669
 31
0.0
  0
CIRCLE
  5
F0F
330
2
100
AcDbEntity
  8
0
100
AcDbCircle
 10
662.787132528342
 20
445.8956877048625
 30
0.0
 40
3.2
  0
CIRCLE
  5
F10
330
2
100
AcDbEntity
  8
HOJO
100
AcDbCircle
 10
662.787132528342
 20
445.8956877048625
 30
0.0
 40
4.0
  0
ARC
  5
F11
330
2
100
AcDbEntity
  8
0
100
AcDbCircle
 10
702.8607476571494
 20
452.4692808336697
 30
0.0
 40
2.0
100
AcDbArc
 50
90.0
 51
179.9999999999967
  0
LINE
  5
F12
330
2
100
AcDbEntity
  8
0
100
AcDbLine
 10
716.3607476571494
 20
454.4692808336694
 30
0.0
 11
702.8607476571494
 21
454.4692808336697
 31
0.0
  0
LINE
  5
F13
330
2
100
AcDbEntity
  8
0
100
AcDbLine
 10
571.5054323150095
 20
721.1793174243453
 30
0.0
 11
668.7470153275614
 21
721.1793174243498
 31
0.0
  0
LINE
  5
F14
330
2
100
AcDbEntity
  8
0
100
AcDbLine
 10
569.3607256571493
 20
713.6793174243475
 30
0.0
 11
570.0806922498875
 21
631.1793174243476
 31
0.0
  0
LINE
  5
F15
330
2
100
AcDbEntity
  8
0
100
AcDbLine
 10
575.3607256571492
 20
626.1793174243475
 30
0.0
 11
665.3607256571492
 21
626.1793174243475
 31
0.0
  0
LINE
  5
F16
330
2
100
AcDbEntity
  8
0
100
AcDbLine
 10
575.3607256571492
 20
631.1793174243476
 30
0.0
 11
575.3607256571492
 21
626.1793174243475
 31
0.0
  0
LINE
  5
F17
330
2
100
AcDbEntity
  8
0
100
AcDbLine
 10
570.0806922498875
 20
631.1793174243476
 30
0.0
 11
670.6382016642399
 21
631.1793174243476
 31
0.0
  0
LINE
  5
F18
330
2
100
AcDbEntity
  8
0
100
AcDbLine
 10
665.3607256571492
 20
631.1793174243476
 30
0.0
 11
665.3607256571492
 21
626.1793174243475
 31
0.0
  0
LINE
  5
F19
330
2
100
AcDbEntity
  8
0
100
AcDbLine
 10
671.1007256571481
 20
684.1793174243475
 30
0.0
 11
670.6382016642399
 21
631.1793174243476
 31
0.0
  0
ARC
  5
F1A
330
2
100
AcDbEntity
  8
0
100
AcDbCircle
 10
675.7954756764027
 20
649.1793174243476
 30
0.0
 40
5.0
100
AcDbArc
 50
90.0
 51
179.5000000000019
  0
ARC
  5
F1B
330
2
100
AcDbEntity
  8
0
100
AcDbCircle
 10
673.0615309088623
 20
679.6793174243478
 30
0.0
 40
2.0
100
AcDbArc
 50
90.0
 51
179.5000000000019
  0
ARC
  5
F1C
330
2
100
AcDbEntity
  8
0
100
AcDbCircle
 10
673.1426301191484
 20
688.6793174243475
 30
0.0
 40
2.0
100
AcDbArc
 50
179.5000000000019
 51
270.0
  0
LINE
  5
F1D
330
2
100
AcDbEntity
  8
0
100
AcDbLine
 10
693.8090393989921
 20
646.1793174243475
 30
0.0
 11
695.6495243221404
 21
646.1793174243475
 31
0.0
  0
LINE
  5
F1E
330
2
100
AcDbEntity
  8
0
100
AcDbLine
 10
693.8090393989921
 20
722.1793174243475
 30
0.0
 11
695.6495243221404
 21
722.1793174243475
 31
0.0
  0
LINE
  5
F1F
330
2
100
AcDbEntity
  8
0
100
AcDbLine
 10
690.865660637514
 20
684.1793174243475
 30
0.0
 11
691.8097247490411
 21
720.2316713209632
 31
0.0
  0
ARC
  5
F20
330
2
100
AcDbEntity
  8
0
100
AcDbCircle
 10
693.8090393989921
 20
720.1793174243475
 30
0.0
 40
2.0
100
AcDbArc
 50
90.0
 51
178.5000000000005
  0
LINE
  5
F21
330
2
100
AcDbEntity
  8
0
100
AcDbLine
 10
686.7542680084195
 20
713.1793174243516
 30
0.0
 11
671.3432830573172
 21
713.1793174243516
 31
0.0
  0
ARC
  5
F22
330
2
100
AcDbEntity
  8
0
100
AcDbCircle
 10
124.9177409197861
 20
446.4692808336724
 30
0.0
 40
5.0
100
AcDbArc
 50
180.0000000000032
 51
270.0
  0
LINE
  5
F23
330
2
100
AcDbEntity
  8
0
100
AcDbLine
 10
119.9177409197861
 20
353.9692808336722
 30
0.0
 11
119.9177409197879
 21
452.9692808336728
 31
0.0
  0
LINE
  5
F24
330
2
100
AcDbEntity
  8
0
100
AcDbLine
 10
104.4177409197861
 20
454.9692808336728
 30
0.0
 11
104.4177409197861
 21
403.4692808336727
 31
0.0
  0
ARC
  5
F25
330
2
100
AcDbEntity
  8
0
100
AcDbCircle
 10
117.9177409197879
 20
452.4692808336731
 30
0.0
 40
2.0
100
AcDbArc
 50
359.9999999999967
 51
90.0
  0
LINE
  5
F26
330
2
100
AcDbEntity
  8
0
100
AcDbLine
 10
104.4177409197861
 20
454.4692808336726
 30
0.0
 11
117.9177409197879
 21
454.4692808336731
 31
0.0
  0
LINE
  5
F27
330
2
100
AcDbEntity
  8
0
100
AcDbLine
 10
104.4177409197861
 20
351.9692808336727
 30
0.0
 11
104.4177409197861
 21
403.4692808336727
 31
0.0
  0
ARC
  5
F28
330
2
100
AcDbEntity
  8
0
100
AcDbCircle
 10
117.9177409197861
 20
354.4692808336722
 30
0.0
 40
2.0
100
AcDbArc
 50
270.0
 51
0.0
  0
ARC
  5
F29
330
2
100
AcDbEntity
  8
0
100
AcDbCircle
 10
124.9177409197861
 20
360.4692808336727
 30
0.0
 40
5.0
100
AcDbArc
 50
90.0
 51
179.9999999999967
  0
LINE
  5
F2A
330
2
100
AcDbEntity
  8
0
100
AcDbLine
 10
104.4177409197861
 20
352.4692808336727
 30
0.0
 11
117.9177409197861
 21
352.4692808336722
 31
0.0
  0
ARC
  5
F2B
330
2
100
AcDbEntity
  8
0
100
AcDbCircle
 10
200.4177629197808
 20
552.4692808336672
 30
0.0
 40
200.0
100
AcDbArc
 50
264.1053016135962
 51
275.8946983864037
  0
ARC
  5
F2C
330
2
100
AcDbEntity
  8
0
100
AcDbCircle
 10
173.7156339894561
 20
293.8440765116829
 30
0.0
 40
60.0
100
AcDbArc
 50
84.10530161359629
 51
101.8050678104414
  0
LINE
  5
F2D
330
2
100
AcDbEntity
  8
0
100
AcDbLine
 10
157.417762919779
 20
352.4692808336674
 30
0.0
 11
160.4177629197808
 21
352.4692808336677
 31
0.0
  0
ARC
  5
F2E
330
2
100
AcDbEntity
  8
0
100
AcDbCircle
 10
160.4177629197808
 20
357.4692808336677
 30
0.0
 40
5.0
100
AcDbArc
 50
270.0
 51
281.8050678104415
  0
LINE
  5
F2F
330
2
100
AcDbEntity
  8
0
100
AcDbLine
 10
243.4177629197809
 20
352.4692808336674
 30
0.0
 11
240.4177629197809
 21
352.4692808336672
 31
0.0
  0
ARC
  5
F30
330
2
100
AcDbEntity
  8
0
100
AcDbCircle
 10
227.1198918501056
 20
293.8440765116827
 30
0.0
 40
60.0
100
AcDbArc
 50
78.19493218955852
 51
95.89469838640374
  0
ARC
  5
F31
330
2
100
AcDbEntity
  8
0
100
AcDbCircle
 10
240.4177629197809
 20
357.4692808336672
 30
0.0
 40
5.0
100
AcDbArc
 50
258.1949321895585
 51
270.0
  0
ARC
  5
F32
330
2
100
AcDbEntity
  8
0
100
AcDbCircle
 10
246.4177629197809
 20
363.4692808336672
 30
0.0
 40
5.0
100
AcDbArc
 50
0.0
 51
11.80506781047311
  0
LINE
  5
F33
330
2
100
AcDbEntity
  8
0
100
AcDbLine
 10
251.4177629197809
 20
360.4692808336674
 30
0.0
 11
251.4177629197809
 21
363.4692808336649
 31
0.0
  0
ARC
  5
F34
330
2
100
AcDbEntity
  8
0
100
AcDbCircle
 10
310.0429672417656
 20
376.7671519033418
 30
0.0
 40
60.0
100
AcDbArc
 50
174.1053016136093
 51
191.805067810473
  0
ARC
  5
F35
330
2
100
AcDbEntity
  8
0
100
AcDbCircle
 10
51.41776291978089
 20
403.4692808336672
 30
0.0
 40
200.0
100
AcDbArc
 50
354.1053016136093
 51
5.894698386390643
  0
ARC
  5
F36
330
2
100
AcDbEntity
  8
0
100
AcDbCircle
 10
310.0429672417656
 20
430.171409763992
 30
0.0
 40
60.0
100
AcDbArc
 50
168.1949321895269
 51
185.8946983863906
  0
ARC
  5
F37
330
2
100
AcDbEntity
  8
0
100
AcDbCircle
 10
246.4177629197809
 20
443.4692808336672
 30
0.0
 40
5.0
100
AcDbArc
 50
348.1949321895268
 51
0.0
  0
LINE
  5
F38
330
2
100
AcDbEntity
  8
0
100
AcDbLine
 10
251.4177629197809
 20
443.469280833665
 30
0.0
 11
251.4177629197809
 21
446.4692808336672
 31
0.0
  0
ARC
  5
F39
330
2
100
AcDbEntity
  8
0
100
AcDbCircle
 10
227.1198918501056
 20
513.0944851556514
 30
0.0
 40
60.0
100
AcDbArc
 50
264.1053016135962
 51
281.8050678104415
  0
ARC
  5
F3A
330
2
100
AcDbEntity
  8
0
100
AcDbCircle
 10
240.4177629197809
 20
449.4692808336668
 30
0.0
 40
5.0
100
AcDbArc
 50
90.0
 51
101.8050678104414
  0
LINE
  5
F3B
330
2
100
AcDbEntity
  8
0
100
AcDbLine
 10
243.4177629197809
 20
454.4692808336671
 30
0.0
 11
240.4177629197809
 21
454.4692808336671
 31
0.0
  0
ARC
  5
F3C
330
2
100
AcDbEntity
  8
0
100
AcDbCircle
 10
200.4177629197808
 20
254.4692808336672
 30
0.0
 40
200.0
100
AcDbArc
 50
84.10530161359629
 51
95.89469838640374
  0
ARC
  5
F3D
330
2
100
AcDbEntity
  8
0
100
AcDbCircle
 10
173.7156339894561
 20
513.0944851556519
 30
0.0
 40
60.0
100
AcDbArc
 50
258.1949321895585
 51
275.8946983864037
  0
ARC
  5
F3E
330
2
100
AcDbEntity
  8
0
100
AcDbCircle
 10
160.4177629197808
 20
449.4692808336672
 30
0.0
 40
5.0
100
AcDbArc
 50
78.19493218955852
 51
90.0
  0
LINE
  5
F3F
330
2
100
AcDbEntity
  8
0
100
AcDbLine
 10
160.4177629197808
 20
454.4692808336671
 30
0.0
 11
157.4177629197918
 21
454.4692808336671
 31
0.0
  0
ARC
  5
F40
330
2
100
AcDbEntity
  8
0
100
AcDbCircle
 10
620.3607256571492
 20
254.469280833667
 30
0.0
 40
200.0
100
AcDbArc
 50
84.10530161364862
 51
95.89469838635137
  0
ARC
  5
F41
330
2
100
AcDbEntity
  8
0
100
AcDbCircle
 10
647.062854587474
 20
513.0944851556514
 30
0.0
 40
60.0
100
AcDbArc
 50
264.1053016135962
 51
281.8050678104415
  0
LINE
  5
F42
330
2
100
AcDbEntity
  8
0
100
AcDbLine
 10
663.3607256571492
 20
454.4692808336667
 30
0.0
 11
660.3607256571493
 21
454.4692808336665
 31
0.0
  0
ARC
  5
F43
330
2
100
AcDbEntity
  8
0
100
AcDbCircle
 10
660.3607256571493
 20
449.4692808336665
 30
0.0
 40
5.0
100
AcDbArc
 50
90.0
 51
101.8050678104414
  0
LINE
  5
F44
330
2
100
AcDbEntity
  8
0
100
AcDbLine
 10
577.3607256571493
 20
454.4692808336669
 30
0.0
 11
580.3607256571492
 21
454.4692808336669
 31
0.0
  0
ARC
  5
F45
330
2
100
AcDbEntity
  8
0
100
AcDbCircle
 10
593.6585967268227
 20
513.0944851556517
 30
0.0
 40
60.0
100
AcDbArc
 50
258.1949321895051
 51
275.8946983863513
  0
ARC
  5
F46
330
2
100
AcDbEntity
  8
0
100
AcDbCircle
 10
580.3607256571492
 20
449.469280833667
 30
0.0
 40
5.0
100
AcDbArc
 50
78.19493218950516
 51
90.0
  0
ARC
  5
F47
330
2
100
AcDbEntity
  8
0
100
AcDbCircle
 10
574.3607256571492
 20
443.4692808336672
 30
0.0
 40
5.0
100
AcDbArc
 50
180.0
 51
191.8050678104664
  0
LINE
  5
F48
330
2
100
AcDbEntity
  8
0
100
AcDbLine
 10
569.3607256571493
 20
446.469280833667
 30
0.0
 11
569.3607256571493
 21
443.4692808336695
 31
0.0
  0
ARC
  5
F49
330
2
100
AcDbEntity
  8
0
100
AcDbCircle
 10
510.7355213351627
 20
430.1714097639926
 30
0.0
 40
60.0
100
AcDbArc
 50
354.1053016136093
 51
11.80506781046649
  0
ARC
  5
F4A
330
2
100
AcDbEntity
  8
0
100
AcDbCircle
 10
769.3607256571493
 20
403.4692808336672
 30
0.0
 40
200.0
100
AcDbArc
 50
174.1053016136093
 51
185.8946983863906
  0
ARC
  5
F4B
330
2
100
AcDbEntity
  8
0
100
AcDbCircle
 10
510.7355213351627
 20
376.7671519033425
 30
0.0
 40
60.0
100
AcDbArc
 50
348.1949321895335
 51
5.894698386390643
  0
ARC
  5
F4C
330
2
100
AcDbEntity
  8
0
100
AcDbCircle
 10
574.3607256571492
 20
363.4692808336672
 30
0.0
 40
5.0
100
AcDbArc
 50
168.1949321895335
 51
180.0
  0
LINE
  5
F4D
330
2
100
AcDbEntity
  8
0
100
AcDbLine
 10
569.3607256571493
 20
363.4692808336695
 30
0.0
 11
569.3607256571493
 21
360.4692808336672
 31
0.0
  0
ARC
  5
F4E
330
2
100
AcDbEntity
  8
0
100
AcDbCircle
 10
593.6585967268227
 20
293.8440765116827
 30
0.0
 40
60.0
100
AcDbArc
 50
84.10530161364862
 51
101.8050678104414
  0
ARC
  5
F4F
330
2
100
AcDbEntity
  8
0
100
AcDbCircle
 10
580.3607256571492
 20
357.4692808336677
 30
0.0
 40
5.0
100
AcDbArc
 50
270.0
 51
281.8050678104415
  0
LINE
  5
F50
330
2
100
AcDbEntity
  8
0
100
AcDbLine
 10
577.3607256571493
 20
352.469280833667
 30
0.0
 11
580.3607256571492
 21
352.4692808336672
 31
0.0
  0
ARC
  5
F51
330
2
100
AcDbEntity
  8
0
100
AcDbCircle
 10
620.3607256571492
 20
552.4692808336669
 30
0.0
 40
200.0
100
AcDbArc
 50
264.1053016135962
 51
275.8946983863513
  0
ARC
  5
F52
330
2
100
AcDbEntity
  8
0
100
AcDbCircle
 10
647.0628545874721
 20
293.8440765116825
 30
0.0
 40
60.0
100
AcDbArc
 50
78.19493218950516
 51
95.89469838635137
  0
ARC
  5
F53
330
2
100
AcDbEntity
  8
0
100
AcDbCircle
 10
660.3607256571493
 20
357.469280833667
 30
0.0
 40
5.0
100
AcDbArc
 50
258.1949321895051
 51
270.0
  0
LINE
  5
F54
330
2
100
AcDbEntity
  8
0
100
AcDbLine
 10
660.3607256571493
 20
352.4692808336672
 30
0.0
 11
663.3607256571456
 21
352.4692808336672
 31
0.0
  0
ARC
  5
F55
330
2
100
AcDbEntity
  8
0
100
AcDbCircle
 10
243.4177629197845
 20
360.4692808336727
 30
0.0
 40
8.0
100
AcDbArc
 50
270.0
 51
0.0
  0
ARC
  5
F56
330
2
100
AcDbEntity
  8
0
100
AcDbCircle
 10
157.4177629197809
 20
360.4692808336729
 30
0.0
 40
8.0
100
AcDbArc
 50
179.9999999999967
 51
270.0
  0
ARC
  5
F57
330
2
100
AcDbEntity
  8
0
100
AcDbCircle
 10
243.4177629197845
 20
446.4692808336727
 30
0.0
 40
8.0
100
AcDbArc
 50
0.0
 51
90.0
  0
LINE
  5
F58
330
2
100
AcDbEntity
  8
0
100
AcDbLine
 10
126.9177409197825
 20
365.4692808336674
 30
0.0
 11
124.9177409197861
 21
365.4692808336676
 31
0.0
  0
LINE
  5
F59
330
2
100
AcDbEntity
  8
0
100
AcDbLine
 10
126.9177409197861
 20
441.4692808336731
 30
0.0
 11
124.9177409197843
 21
441.4692808336736
 31
0.0
  0
ARC
  5
F5A
330
2
100
AcDbEntity
  8
0
100
AcDbCircle
 10
577.3607256571474
 20
446.4692808336608
 30
0.0
 40
8.0
100
AcDbArc
 50
90.0
 51
180.0
  0
ARC
  5
F5B
330
2
100
AcDbEntity
  8
0
100
AcDbCircle
 10
663.3607256571511
 20
446.4692808336608
 30
0.0
 40
8.0
100
AcDbArc
 50
359.9999999999967
 51
90.0
  0
ARC
  5
F5C
330
2
100
AcDbEntity
  8
0
100
AcDbCircle
 10
577.3607256571474
 20
360.4692808336611
 30
0.0
 40
8.0
100
AcDbArc
 50
180.0
 51
270.0
  0
ARC
  5
F5D
330
2
100
AcDbEntity
  8
0
100
AcDbCircle
 10
663.3607256571456
 20
360.4692808336613
 30
0.0
 40
8.0
100
AcDbArc
 50
270.0
 51
0.0
  0
LINE
  5
F5E
330
2
100
AcDbEntity
  8
0
100
AcDbLine
 10
149.4177629197918
 20
360.4692808336725
 30
0.0
 11
149.4177629197918
 21
446.4692808336672
 31
0.0
  0
LINE
  5
F5F
330
2
100
AcDbEntity
  8
0
100
AcDbLine
 10
671.3607256571438
 20
446.4692808336611
 30
0.0
 11
671.3607256571474
 21
360.4692808336615
 31
0.0
  0
LINE
  5
F60
330
2
100
AcDbEntity
  8
0
100
AcDbLine
 10
148.9177629197827
 20
395.7881350858077
 30
0.0
 11
148.9177629197845
 21
411.1504265815268
 31
0.0
  0
LINE
  5
F61
330
2
100
AcDbEntity
  8
0
100
AcDbLine
 10
144.4177629197863
 20
433.4692808336672
 30
0.0
 11
133.9177409197861
 21
433.4692808336672
 31
0.0
  0
LINE
  5
F62
330
2
100
AcDbEntity
  8
0
100
AcDbLine
 10
128.9177409197861
 20
439.4692808336722
 30
0.0
 11
128.9177409197861
 21
367.4692808336627
 31
0.0
  0
ARC
  5
F63
330
2
100
AcDbEntity
  8
0
100
AcDbCircle
 10
133.9177409197861
 20
438.4692808336672
 30
0.0
 40
5.0
100
AcDbArc
 50
180.0
 51
270.0
  0
ARC
  5
F64
330
2
100
AcDbEntity
  8
0
100
AcDbCircle
 10
144.4177629197863
 20
438.4692808336672
 30
0.0
 40
5.0
100
AcDbArc
 50
270.0
 51
0.0
  0
ARC
  5
F65
330
2
100
AcDbEntity
  8
0
100
AcDbCircle
 10
126.9177409197861
 20
439.4692808336722
 30
0.0
 40
2.0
100
AcDbArc
 50
0.0
 51
89.99999999994789
  0
LINE
  5
F66
330
2
100
AcDbEntity
  8
0
100
AcDbLine
 10
128.9177409197861
 20
395.7881350858077
 30
0.0
 11
149.4177629197899
 21
395.7881350858077
 31
0.0
  0
LINE
  5
F67
330
2
100
AcDbEntity
  8
0
100
AcDbLine
 10
128.9177409197861
 20
411.150426581527
 30
0.0
 11
149.4177629197899
 21
411.1504265815265
 31
0.0
  0
ARC
  5
F68
330
2
100
AcDbEntity
  8
0
100
AcDbCircle
 10
144.4177629197863
 20
368.4692808336667
 30
0.0
 40
5.0
100
AcDbArc
 50
359.9999999999967
 51
90.0
  0
LINE
  5
F69
330
2
100
AcDbEntity
  8
0
100
AcDbLine
 10
144.4177629197863
 20
373.4692808336668
 30
0.0
 11
133.9177409197843
 21
373.4692808336674
 31
0.0
  0
ARC
  5
F6A
330
2
100
AcDbEntity
  8
0
100
AcDbCircle
 10
133.9177409197825
 20
368.4692808336672
 30
0.0
 40
5.0
100
AcDbArc
 50
90.0
 51
179.9999999999967
  0
ARC
  5
F6B
330
2
100
AcDbEntity
  8
0
100
AcDbCircle
 10
126.9177409197825
 20
367.4692808336627
 30
0.0
 40
2.0
100
AcDbArc
 50
270.0
 51
0.0
  0
LINE
  5
F6C
330
2
100
AcDbEntity
  8
0
100
AcDbLine
 10
673.3607256571456
 20
405.9692808336672
 30
0.0
 11
689.8607476571458
 21
405.9692808336672
 31
0.0
  0
LINE
  5
F6D
330
2
100
AcDbEntity
  8
0
100
AcDbLine
 10
673.3607256571456
 20
400.9692808336672
 30
0.0
 11
689.8607476571458
 21
400.9692808336672
 31
0.0
  0
LINE
  5
F6E
330
2
100
AcDbEntity
  8
0
100
AcDbLine
 10
673.1426301191484
 20
686.6793174243476
 30
0.0
 11
688.9828116995947
 21
686.6793174243476
 31
0.0
  0
LINE
  5
F6F
330
2
100
AcDbEntity
  8
0
100
AcDbLine
 10
673.0615309088623
 20
681.6793174243477
 30
0.0
 11
688.9828116996002
 21
681.6793174243477
 31
0.0
  0
LINE
  5
F70
330
2
100
AcDbEntity
  8
0
100
AcDbLine
 10
690.8656606375195
 20
684.1793174243475
 30
0.0
 11
691.8097247490411
 21
648.1269635277317
 31
0.0
  0
ARC
  5
F71
330
2
100
AcDbEntity
  8
0
100
AcDbCircle
 10
693.8090393989921
 20
648.1793174243476
 30
0.0
 40
2.0
100
AcDbArc
 50
181.5000000000027
 51
270.0
  0
LINE
  5
F72
330
2
100
AcDbEntity
  8
0
100
AcDbLine
 10
675.7954756764027
 20
654.1793174243475
 30
0.0
 11
686.7804539299875
 21
654.1793174243478
 31
0.0
  0
ARC
  5
F73
330
2
100
AcDbEntity
  8
0
100
AcDbCircle
 10
686.7804539299875
 20
649.1793174243477
 30
0.0
 40
5.0
100
AcDbArc
 50
1.500000000002716
 51
90.0
  0
ARC
  5
F74
330
2
100
AcDbEntity
  8
0
100
AcDbCircle
 10
157.4177629197918
 20
446.4692808336672
 30
0.0
 40
8.0
100
AcDbArc
 50
90.0
 51
180.0
  0
ARC
  5
F75
330
2
100
AcDbEntity
  8
0
100
AcDbCircle
 10
686.7542680084195
 20
718.1793174243516
 30
0.0
 40
5.0
100
AcDbArc
 50
270.0
 51
358.499999999994
  0
LINE
  5
F76
330
2
100
AcDbEntity
  8
0
100
AcDbLine
 10
615.0043975948236
 20
360.4692808336554
 30
0.0
 11
617.164398525824
 21
360.4692808336549
 31
0.0
  0
LINE
  5
F77
330
2
100
AcDbEntity
  8
0
100
AcDbLine
 10
618.004397594829
 20
366.469280833664
 30
0.0
 11
615.0043975948236
 21
360.4692808336554
 31
0.0
  0
ARC
  5
F78
330
2
100
AcDbEntity
  8
0
100
AcDbCircle
 10
622.9843430248354
 20
364.4292808336607
 30
0.0
 40
2.040000000002968
100
AcDbArc
 50
307.5189678668038
 51
90.0
  0
LINE
  5
F79
330
2
100
AcDbEntity
  8
0
100
AcDbLine
 10
624.2267520595803
 20
362.8112512324492
 30
0.0
 11
625.7170537194713
 21
360.4692808336554
 31
0.0
  0
LINE
  5
F7A
330
2
100
AcDbEntity
  8
0
100
AcDbLine
 10
623.5570527884727
 20
360.4692808336549
 30
0.0
 11
625.7170537194713
 21
360.4692808336554
 31
0.0
  0
LINE
  5
F7B
330
2
100
AcDbEntity
  8
0
100
AcDbLine
 10
619.1443975948303
 20
360.4692808336549
 30
0.0
 11
620.9443430248327
 21
360.4692808336547
 31
0.0
  0
LINE
  5
F7C
330
2
100
AcDbEntity
  8
0
100
AcDbLine
 10
617.6143985258229
 20
361.3692808336566
 30
0.0
 11
617.164398525824
 21
360.4692808336549
 31
0.0
  0
LINE
  5
F7D
330
2
100
AcDbEntity
  8
0
100
AcDbLine
 10
617.6143985258229
 20
361.3692808336566
 30
0.0
 11
619.1443975948303
 21
361.3692808336564
 31
0.0
  0
LINE
  5
F7E
330
2
100
AcDbEntity
  8
0
100
AcDbLine
 10
619.1443975948303
 20
361.3692808336564
 30
0.0
 11
619.1443975948303
 21
360.4692808336549
 31
0.0
  0
LINE
  5
F7F
330
2
100
AcDbEntity
  8
0
100
AcDbLine
 10
618.5743985258256
 20
363.2892808336587
 30
0.0
 11
619.1443975948303
 21
363.289280833659
 31
0.0
  0
LINE
  5
F80
330
2
100
AcDbEntity
  8
0
100
AcDbLine
 10
619.1443975948303
 20
364.4292789716683
 30
0.0
 11
619.1443975948303
 21
363.289280833659
 31
0.0
  0
LINE
  5
F81
330
2
100
AcDbEntity
  8
0
100
AcDbLine
 10
619.1443975948303
 20
364.4292789716683
 30
0.0
 11
618.5743985258256
 21
363.2892808336587
 31
0.0
  0
LINE
  5
F82
330
2
100
AcDbEntity
  8
0
100
AcDbLine
 10
621.1993975948323
 20
364.1742808336603
 30
0.0
 11
623.5570527884727
 21
360.4692808336549
 31
0.0
  0
LINE
  5
F83
330
2
100
AcDbEntity
  8
0
100
AcDbLine
 10
620.9443430248327
 20
364.4292808336609
 30
0.0
 11
620.9443430248327
 21
360.4692808336547
 31
0.0
  0
LINE
  5
F84
330
2
100
AcDbEntity
  8
0
100
AcDbLine
 10
620.9443430248327
 20
364.4292808336609
 30
0.0
 11
622.8568975948353
 21
364.4292808336609
 31
0.0
  0
LINE
  5
F85
330
2
100
AcDbEntity
  8
0
100
AcDbLine
 10
621.1993975948323
 20
364.1742808336603
 30
0.0
 11
622.8568975948353
 21
364.1742808336603
 31
0.0
  0
ARC
  5
F86
330
2
100
AcDbEntity
  8
0
100
AcDbCircle
 10
622.8568975948353
 20
364.3017808336606
 30
0.0
 40
0.1275000000001855
100
AcDbArc
 50
270.0
 51
90.0
  0
LINE
  5
F87
330
2
100
AcDbEntity
  8
0
100
AcDbLine
 10
618.004397594829
 20
366.469280833664
 30
0.0
 11
622.9843430248354
 21
366.469280833664
 31
0.0
  0
LINE
  5
F88
330
2
100
AcDbEntity
  8
0
100
AcDbLine
 10
588.2921032067613
 20
612.1793174243462
 30
0.0
 11
652.4293481075353
 21
612.1793174243462
 31
0.0
  0
LINE
  5
F89
330
2
100
AcDbEntity
  8
0
100
AcDbLine
 10
585.9392389886895
 20
624.2491164177509
 30
0.0
 11
586.2933215527234
 21
614.1095184309415
 31
0.0
  0
ARC
  5
F8A
330
2
100
AcDbEntity
  8
0
100
AcDbCircle
 10
583.9404573346516
 20
624.1793174243461
 30
0.0
 40
2.0
100
AcDbArc
 50
1.999999999997944
 51
90.0
  0
ARC
  5
F8B
330
2
100
AcDbEntity
  8
0
100
AcDbCircle
 10
588.2921032067613
 20
614.1793174243462
 30
0.0
 40
2.0
100
AcDbArc
 50
181.9999999999979
 51
270.0
  0
LINE
  5
F8C
330
2
100
AcDbEntity
  8
0
100
AcDbLine
 10
654.7822123256089
 20
624.2491164177513
 30
0.0
 11
654.4281297615732
 21
614.1095184309415
 31
0.0
  0
ARC
  5
F8D
330
2
100
AcDbEntity
  8
0
100
AcDbCircle
 10
656.7809939796468
 20
624.1793174243461
 30
0.0
 40
2.0
100
AcDbArc
 50
90.0
 51
178.000000000002
  0
ARC
  5
F8E
330
2
100
AcDbEntity
  8
0
100
AcDbCircle
 10
652.4293481075353
 20
614.1793174243462
 30
0.0
 40
2.0
100
AcDbArc
 50
270.0
 51
358.000000000002
  0
LINE
  5
F8F
330
2
100
AcDbEntity
  8
0
100
AcDbLine
 10
577.3607256571474
 20
713.1793174243475
 30
0.0
 11
577.3607256571456
 21
632.6793174243493
 31
0.0
  0
LINE
  5
F90
330
2
100
AcDbEntity
  8
0
100
AcDbLine
 10
580.3607256571492
 20
713.1793174243475
 30
0.0
 11
580.3607256571474
 21
632.6793174243493
 31
0.0
  0
LINE
  5
F91
330
2
100
AcDbEntity
  8
0
100
AcDbLine
 10
660.3738186179314
 20
713.6793174243512
 30
0.0
 11
661.1208028501684
 21
685.1531404760399
 31
0.0
  0
ARC
  5
F92
330
2
100
AcDbEntity
  8
0
100
AcDbCircle
 10
662.120460175144
 20
685.1793174243478
 30
0.0
 40
1.0
100
AcDbArc
 50
181.5000000000027
 51
270.0
  0
LINE
  5
F93
330
2
100
AcDbEntity
  8
0
100
AcDbLine
 10
660.3607256571493
 20
684.1793174243475
 30
0.0
 11
660.3607256571493
 21
632.6793174243493
 31
0.0
  0
LINE
  5
F94
330
2
100
AcDbEntity
  8
0
100
AcDbLine
 10
599.8206264799744
 20
713.1793174243475
 30
0.0
 11
599.8206264799744
 21
632.6793174243493
 31
0.0
  0
LINE
  5
F95
330
2
100
AcDbEntity
  8
0
100
AcDbLine
 10
640.9008248343241
 20
713.1793174243475
 30
0.0
 11
640.9008248343204
 21
632.6793174243493
 31
0.0
  0
LINE
  5
F96
330
2
100
AcDbEntity
  8
0
100
AcDbLine
 10
663.0989196234047
 20
713.67059088885
 30
0.0
 11
663.0989196234047
 21
632.6793174243493
 31
0.0
  0
LINE
  5
F97
330
2
100
AcDbEntity
  8
0
100
AcDbLine
 10
662.1204601751458
 20
684.1793174243478
 30
0.0
 11
671.1007256571481
 21
684.1793174243475
 31
0.0
  0
LINE
  5
F98
330
2
100
AcDbEntity
  8
0
100
AcDbLine
 10
662.1204601751458
 20
684.1793174243478
 30
0.0
 11
662.120460175144
 21
684.1793174243478
 31
0.0
  0
ARC
  5
F99
330
2
100
AcDbEntity
  8
0
100
AcDbCircle
 10
695.6495243221404
 20
727.179317424348
 30
0.0
 40
5.0
100
AcDbArc
 50
270.0
 51
358.4999999999972
  0
ARC
  5
F9A
330
2
100
AcDbEntity
  8
0
100
AcDbCircle
 10
695.6495243221404
 20
641.1793174243475
 30
0.0
 40
5.0
100
AcDbArc
 50
1.499999999996204
 51
90.0
  0
ARC
  5
F9B
330
2
100
AcDbEntity
  8
0
100
AcDbCircle
 10
673.3607256571456
 20
407.9692808336672
 30
0.0
 40
2.0
100
AcDbArc
 50
180.0000000000032
 51
270.0
  0
ARC
  5
F9C
330
2
100
AcDbEntity
  8
0
100
AcDbCircle
 10
689.8607476571458
 20
407.9692808336672
 30
0.0
 40
2.0
100
AcDbArc
 50
270.0
 51
0.0
  0
ARC
  5
F9D
330
2
100
AcDbEntity
  8
0
100
AcDbCircle
 10
689.8607476571458
 20
398.9692808336672
 30
0.0
 40
2.0
100
AcDbArc
 50
0.0
 51
90.0
  0
ARC
  5
F9E
330
2
100
AcDbEntity
  8
0
100
AcDbCircle
 10
673.3607256571456
 20
398.9692808336672
 30
0.0
 40
2.0
100
AcDbArc
 50
90.0
 51
180.0000000000032
  0
ARC
  5
F9F
330
2
100
AcDbEntity
  8
0
100
AcDbCircle
 10
688.9828116996002
 20
679.6793174243478
 30
0.0
 40
2.0
100
AcDbArc
 50
1.500000000002716
 51
90.0
  0
ARC
  5
FA0
330
2
100
AcDbEntity
  8
0
100
AcDbCircle
 10
688.9828116995947
 20
688.6793174243475
 30
0.0
 40
2.0
100
AcDbArc
 50
270.0
 51
358.4999999999875
  0
LINE
  5
FA1
330
2
100
AcDbEntity
  8
0
100
AcDbLine
 10
130.7907462659938
 20
368.4692808336645
 30
0.0
 11
147.4177629197918
 21
368.4692808336643
 31
0.0
  0
LINE
  5
FA2
330
2
100
AcDbEntity
  8
0
100
AcDbLine
 10
130.790746265992
 20
438.4692808336643
 30
0.0
 11
147.4177629197918
 21
438.4692808336643
 31
0.0
  0
ARC
  5
FA3
330
2
100
AcDbEntity
  8
0
100
AcDbCircle
 10
130.790746265992
 20
440.4692808336642
 30
0.0
 40
2.0
100
AcDbArc
 50
194.4775121859458
 51
270.0
  0
ARC
  5
FA4
330
2
100
AcDbEntity
  8
0
100
AcDbCircle
 10
130.7907462659938
 20
366.4692808336645
 30
0.0
 40
2.0
100
AcDbArc
 50
90.0
 51
165.5224878140541
  0
ARC
  5
FA5
330
2
100
AcDbEntity
  8
0
100
AcDbCircle
 10
147.4177629197918
 20
440.4692808336642
 30
0.0
 40
2.0
100
AcDbArc
 50
270.0
 51
0.0
  0
ARC
  5
FA6
330
2
100
AcDbEntity
  8
0
100
AcDbCircle
 10
147.4177629197918
 20
366.4692808336643
 30
0.0
 40
2.0
100
AcDbArc
 50
0.0
 51
90.0
  0
ARC
  5
FA7
330
2
100
AcDbEntity
  8
0
100
AcDbCircle
 10
673.3607256571474
 20
366.4692808336672
 30
0.0
 40
2.0
100
AcDbArc
 50
90.0
 51
180.0
  0
ARC
  5
FA8
330
2
100
AcDbEntity
  8
0
100
AcDbCircle
 10
695.8607256571365
 20
360.4692808336677
 30
0.0
 40
5.0
100
AcDbArc
 50
359.9999999999934
 51
90.0
  0
LINE
  5
FA9
330
2
100
AcDbEntity
  8
0
100
AcDbLine
 10
689.987742310938
 20
438.4692808336675
 30
0.0
 11
673.3607256571493
 21
438.4692808336676
 31
0.0
  0
ARC
  5
FAA
330
2
100
AcDbEntity
  8
0
100
AcDbCircle
 10
673.3607256571493
 20
440.4692808336677
 30
0.0
 40
2.0
100
AcDbArc
 50
180.0
 51
270.0
  0
LINE
  5
FAB
330
2
100
AcDbEntity
  8
0
100
AcDbLine
 10
689.9877423109362
 20
368.4692808336672
 30
0.0
 11
673.3607256571474
 21
368.4692808336672
 31
0.0
  0
LINE
  5
FAC
330
2
100
AcDbEntity
  8
0
100
AcDbLine
 10
695.8607256571474
 20
441.4692808336672
 30
0.0
 11
693.8607256571456
 21
441.4692808336674
 31
0.0
  0
ARC
  5
FAD
330
2
100
AcDbEntity
  8
0
100
AcDbCircle
 10
695.8607256571474
 20
446.4692808336672
 30
0.0
 40
5.0
100
AcDbArc
 50
270.0
 51
0.0
  0
LINE
  5
FAE
330
2
100
AcDbEntity
  8
0
100
AcDbLine
 10
695.8607256571365
 20
365.4692808336676
 30
0.0
 11
693.8607256571438
 21
365.4692808336676
 31
0.0
  0
ARC
  5
FAF
330
2
100
AcDbEntity
  8
0
100
AcDbCircle
 10
693.8607256571438
 20
367.4692808336676
 30
0.0
 40
2.0
100
AcDbArc
 50
180.0
 51
270.0
  0
ARC
  5
FB0
330
2
100
AcDbEntity
  8
0
100
AcDbCircle
 10
689.9877423109362
 20
366.4692808336672
 30
0.0
 40
2.0
100
AcDbArc
 50
14.47751218594586
 51
90.0
  0
LINE
  5
FB1
330
2
100
AcDbEntity
  8
0
100
AcDbLine
 10
691.8607256571456
 20
439.4692808336674
 30
0.0
 11
691.8607256571438
 21
367.4692808336676
 31
0.0
  0
ARC
  5
FB2
330
2
100
AcDbEntity
  8
0
100
AcDbCircle
 10
693.8607256571456
 20
439.4692808336674
 30
0.0
 40
2.0
100
AcDbArc
 50
90.0
 51
180.0
  0
ARC
  5
FB3
330
2
100
AcDbEntity
  8
0
100
AcDbCircle
 10
689.987742310938
 20
440.4692808336672
 30
0.0
 40
2.0
100
AcDbArc
 50
270.0
 51
345.5224878140541
  0
ARC
  5
FB4
330
2
100
AcDbEntity
  8
0
100
AcDbCircle
 10
689.9360560527827
 20
647.1793174243479
 30
0.0
 40
2.0
100
AcDbArc
 50
14.47751218590557
 51
90.0
  0
LINE
  5
FB5
330
2
100
AcDbEntity
  8
0
100
AcDbLine
 10
672.7779077056645
 20
649.1793174243476
 30
0.0
 11
689.9360560527827
 21
649.179317424348
 31
0.0
  0
ARC
  5
FB6
330
2
100
AcDbEntity
  8
0
100
AcDbCircle
 10
672.7779077056645
 20
647.1793174243475
 30
0.0
 40
2.0
100
AcDbArc
 50
90.0
 51
179.5000000000019
  0
ARC
  5
FB7
330
2
100
AcDbEntity
  8
0
100
AcDbCircle
 10
686.8607476571476
 20
438.4692808336695
 30
0.0
 40
5.0
100
AcDbArc
 50
270.0
 51
359.9999999999967
  0
ARC
  5
FB8
330
2
100
AcDbEntity
  8
0
100
AcDbCircle
 10
676.3607256571456
 20
438.46928083367
 30
0.0
 40
5.0
100
AcDbArc
 50
179.9999999999967
 51
270.0
  0
LINE
  5
FB9
330
2
100
AcDbEntity
  8
0
100
AcDbLine
 10
676.3607256571456
 20
433.46928083367
 30
0.0
 11
686.8607476571476
 21
433.4692808336693
 31
0.0
  0
ARC
  5
FBA
330
2
100
AcDbEntity
  8
0
100
AcDbCircle
 10
686.8607476571457
 20
368.4692808336695
 30
0.0
 40
5.0
100
AcDbArc
 50
0.0
 51
90.0
  0
ARC
  5
FBB
330
2
100
AcDbEntity
  8
0
100
AcDbCircle
 10
676.3607256571438
 20
368.4692808336695
 30
0.0
 40
5.0
100
AcDbArc
 50
90.0
 51
180.0
  0
LINE
  5
FBC
330
2
100
AcDbEntity
  8
0
100
AcDbLine
 10
676.3607256571438
 20
373.4692808336695
 30
0.0
 11
686.8607476571457
 21
373.4692808336695
 31
0.0
  0
LINE
  5
FBD
330
2
100
AcDbEntity
  8
0
100
AcDbLine
 10
104.4177409197861
 20
454.9692808336726
 30
0.0
 11
117.9177409197879
 21
454.9692808336731
 31
0.0
  0
ARC
  5
FBE
330
2
100
AcDbEntity
  8
0
100
AcDbCircle
 10
117.9177409197879
 20
452.9692808336731
 30
0.0
 40
2.0
100
AcDbArc
 50
359.9999999999967
 51
90.0
  0
LINE
  5
FBF
330
2
100
AcDbEntity
  8
0
100
AcDbLine
 10
104.4177409197861
 20
351.9692808336727
 30
0.0
 11
117.9177409197861
 21
351.9692808336722
 31
0.0
  0
ARC
  5
FC0
330
2
100
AcDbEntity
  8
0
100
AcDbCircle
 10
117.9177409197861
 20
353.9692808336722
 30
0.0
 40
2.0
100
AcDbArc
 50
270.0
 51
0.0
  0
LINE
  5
FC1
330
2
100
AcDbEntity
  8
0
100
AcDbLine
 10
716.3607476571494
 20
454.9692808336694
 30
0.0
 11
702.8607476571494
 21
454.9692808336697
 31
0.0
  0
ARC
  5
FC2
330
2
100
AcDbEntity
  8
0
100
AcDbCircle
 10
702.8607476571494
 20
452.9692808336696
 30
0.0
 40
2.0
100
AcDbArc
 50
90.0
 51
179.9999999999967
  0
LINE
  5
FC3
330
2
100
AcDbEntity
  8
0
100
AcDbLine
 10
716.3607476571494
 20
351.9692808336693
 30
0.0
 11
702.8607476571457
 21
351.969280833669
 31
0.0
  0
ARC
  5
FC4
330
2
100
AcDbEntity
  8
0
100
AcDbCircle
 10
702.8607476571457
 20
353.969280833669
 30
0.0
 40
2.0
100
AcDbArc
 50
179.9999999999967
 51
270.0
  0
LINE
  5
FC5
330
2
100
AcDbEntity
  8
0
100
AcDbLine
 10
700.8607476571494
 20
733.17931742435
 30
0.0
 11
700.8607476571458
 21
635.1793174243496
 31
0.0
  0
LINE
  5
FC6
330
2
100
AcDbEntity
  8
0
100
AcDbLine
 10
716.3607476571494
 20
633.1793174243496
 30
0.0
 11
716.3607476571494
 21
735.1793174243498
 31
0.0
  0
ARC
  5
FC7
330
2
100
AcDbEntity
  8
0
100
AcDbCircle
 10
702.8607476571457
 20
635.1793174243494
 30
0.0
 40
2.0
100
AcDbArc
 50
179.9999999999967
 51
270.0
  0
LINE
  5
FC8
330
2
100
AcDbEntity
  8
0
100
AcDbLine
 10
716.3607476571494
 20
633.1793174243496
 30
0.0
 11
702.8607476571457
 21
633.1793174243493
 31
0.0
  0
ARC
  5
FC9
330
2
100
AcDbEntity
  8
0
100
AcDbCircle
 10
702.8607476571494
 20
733.17931742435
 30
0.0
 40
2.0
100
AcDbArc
 50
90.0
 51
179.9999999999967
  0
LINE
  5
FCA
330
2
100
AcDbEntity
  8
0
100
AcDbLine
 10
716.3607476571494
 20
735.1793174243498
 30
0.0
 11
702.8607476571494
 21
735.1793174243501
 31
0.0
  0
LINE
  5
FCB
330
2
100
AcDbEntity
  8
CENTER
100
AcDbLine
 10
620.360725657151
 20
473.4692808336695
 30
0.0
 11
620.360725657151
 21
333.4692808336695
 31
0.0
  0
LINE
  5
FCC
330
2
100
AcDbEntity
  8
CENTER
100
AcDbLine
 10
550.3607256571492
 20
403.4692808336668
 30
0.0
 11
781.3607476571494
 21
403.4692808336665
 31
0.0
  0
LINE
  5
FCD
330
2
100
AcDbEntity
  8
0
100
AcDbLine
 10
485.794815538319
 20
107.045229835383
 30
0.0
 11
485.794815538319
 21
142.0567923273248
 31
0.0
  0
LINE
  5
FCE
330
2
100
AcDbEntity
  8
0
100
AcDbLine
 10
485.7948155383208
 20
172.5850072901758
 30
0.0
 11
485.794815538319
 21
207.5965697821166
 31
0.0
  0
LINE
  5
FCF
330
2
100
AcDbEntity
  8
0
100
AcDbLine
 10
490.794815538319
 20
112.320899808753
 30
0.0
 11
490.794815538319
 21
142.1625201887757
 31
0.0
  0
LINE
  5
FD0
330
2
100
AcDbEntity
  8
0
100
AcDbLine
 10
490.794815538319
 20
172.479279428725
 30
0.0
 11
490.794815538319
 21
202.3208998087525
 31
0.0
  0
LINE
  5
FD1
330
2
100
AcDbEntity
  8
0
100
AcDbLine
 10
485.794815538319
 20
112.320899808753
 30
0.0
 11
490.794815538319
 21
112.320899808753
 31
0.0
  0
LINE
  5
FD2
330
2
100
AcDbEntity
  8
0
100
AcDbLine
 10
485.794815538319
 20
202.3208998087525
 30
0.0
 11
490.794815538319
 21
202.3208998087525
 31
0.0
  0
LINE
  5
FD3
330
2
100
AcDbEntity
  8
0
100
AcDbLine
 10
504.7948155383208
 20
125.2522773583651
 30
0.0
 11
504.7948155383208
 21
140.3208998087503
 31
0.0
  0
LINE
  5
FD4
330
2
100
AcDbEntity
  8
0
100
AcDbLine
 10
504.7948155383208
 20
174.3208078087503
 30
0.0
 11
504.7948155383208
 21
189.3895222591382
 31
0.0
  0
LINE
  5
FD5
330
2
100
AcDbEntity
  8
0
100
AcDbLine
 10
492.7250165449156
 20
122.8994131402915
 30
0.0
 11
502.8646145317259
 21
123.2534957043272
 31
0.0
  0
ARC
  5
FD6
330
2
100
AcDbEntity
  8
0
100
AcDbCircle
 10
492.7948155383208
 20
120.9006314862536
 30
0.0
 40
2.0
100
AcDbArc
 50
92.00000000000365
 51
180.0
  0
ARC
  5
FD7
330
2
100
AcDbEntity
  8
0
100
AcDbCircle
 10
502.7948155383207
 20
125.2522773583651
 30
0.0
 40
2.0
100
AcDbArc
 50
272.0000000000036
 51
0.0
  0
LINE
  5
FD8
330
2
100
AcDbEntity
  8
0
100
AcDbLine
 10
492.7250165449156
 20
191.7423864772118
 30
0.0
 11
502.8646145317259
 21
191.3883039131761
 31
0.0
  0
ARC
  5
FD9
330
2
100
AcDbEntity
  8
0
100
AcDbCircle
 10
492.7948155383208
 20
193.7411681312497
 30
0.0
 40
2.0
100
AcDbArc
 50
180.0
 51
267.9999999999963
  0
ARC
  5
FDA
330
2
100
AcDbEntity
  8
0
100
AcDbCircle
 10
502.7948155383207
 20
189.3895222591382
 30
0.0
 40
2.0
100
AcDbArc
 50
0.0
 51
87.99999999999636
  0
LINE
  5
FDB
330
2
100
AcDbEntity
  8
0
100
AcDbLine
 10
403.294815538319
 20
106.3252632426337
 30
0.0
 11
485.794815538319
 21
107.045229835383
 31
0.0
  0
LINE
  5
FDC
330
2
100
AcDbEntity
  8
0
100
AcDbLine
 10
403.294815538319
 20
208.3165363748658
 30
0.0
 11
485.794815538319
 21
207.5965697821166
 31
0.0
  0
LINE
  5
FDD
330
2
100
AcDbEntity
  8
0
100
AcDbLine
 10
403.294815538319
 20
106.3252632426337
 30
0.0
 11
403.294815538319
 21
141.1278850708909
 31
0.0
  0
LINE
  5
FDE
330
2
100
AcDbEntity
  8
0
100
AcDbLine
 10
403.294815538319
 20
173.5139145466096
 30
0.0
 11
403.294815538319
 21
208.3165363748658
 31
0.0
  0
LINE
  5
FDF
330
2
100
AcDbEntity
  8
CENTER
100
AcDbLine
 10
432.7948155383134
 20
218.0590937750344
 30
0.0
 11
432.7948155383134
 21
96.58270584246526
 31
0.0
  0
ARC
  5
FE0
330
2
100
AcDbEntity
  8
0
100
AcDbCircle
 10
157.4177629197845
 20
360.4692808336672
 30
0.0
 40
8.0
100
AcDbArc
 50
180.0
 51
270.0
  0
LINE
  5
FE1
330
2
100
AcDbEntity
  8
CENTER
100
AcDbLine
 10
157.4177629197809
 20
351.719280833667
 30
0.0
 11
157.4177629197809
 21
369.219280833667
 31
0.0
  0
LINE
  5
FE2
330
2
100
AcDbEntity
  8
0
100
AcDbLine
 10
157.4177629197845
 20
352.4692808336672
 30
0.0
 11
160.4177629197845
 21
352.4692808336674
 31
0.0
  0
ARC
  5
FE3
330
2
100
AcDbEntity
  8
0
100
AcDbCircle
 10
160.4177629197845
 20
357.4692808336677
 30
0.0
 40
5.0
100
AcDbArc
 50
270.0
 51
281.8050678104415
  0
LINE
  5
FE4
330
2
100
AcDbEntity
  8
CENTER
100
AcDbLine
 10
148.6677629197808
 20
360.469280833667
 30
0.0
 11
166.1677629197809
 21
360.469280833667
 31
0.0
  0
LINE
  5
FE5
330
2
100
AcDbEntity
  8
0
100
AcDbLine
 10
149.4177629197845
 20
363.4692808336697
 30
0.0
 11
149.4177629197845
 21
360.4692808336672
 31
0.0
  0
LINE
  5
FE6
330
2
100
AcDbEntity
  8
CENTER
100
AcDbLine
 10
251.0909680005377
 20
368.969280833667
 30
0.0
 11
240.7445578390241
 21
368.969280833667
 31
0.0
  0
LINE
  5
FE7
330
2
100
AcDbEntity
  8
CENTER
100
AcDbLine
 10
252.1677629197845
 20
360.469280833664
 30
0.0
 11
234.6677629197845
 21
360.469280833664
 31
0.0
  0
CIRCLE
  5
FE8
330
2
100
AcDbEntity
  8
0
100
AcDbCircle
 10
245.9177629197808
 20
368.969280833667
 30
0.0
 40
1.6
  0
CIRCLE
  5
FE9
330
2
100
AcDbEntity
  8
HOJO
100
AcDbCircle
 10
245.9177629197808
 20
368.969280833667
 30
0.0
 40
2.0
  0
LINE
  5
FEA
330
2
100
AcDbEntity
  8
CENTER
100
AcDbLine
 10
245.9177629197808
 20
363.7960757529099
 30
0.0
 11
245.9177629197808
 21
374.142485914424
 31
0.0
  0
ARC
  5
FEB
330
2
100
AcDbEntity
  8
0
100
AcDbCircle
 10
157.4177629197845
 20
446.4692808336672
 30
0.0
 40
8.0
100
AcDbArc
 50
90.0
 51
180.0
  0
LINE
  5
FEC
330
2
100
AcDbEntity
  8
CENTER
100
AcDbLine
 10
157.4177629197827
 20
455.2192808336705
 30
0.0
 11
157.4177629197827
 21
437.7192808336706
 31
0.0
  0
LINE
  5
FED
330
2
100
AcDbEntity
  8
CENTER
100
AcDbLine
 10
148.6677629197827
 20
446.4692808336706
 30
0.0
 11
166.1677629197827
 21
446.4692808336706
 31
0.0
  0
LINE
  5
FEE
330
2
100
AcDbEntity
  8
CENTER
100
AcDbLine
 10
149.7445578390331
 20
437.9692808336675
 30
0.0
 11
160.0909680005468
 21
437.9692808336675
 31
0.0
  0
CIRCLE
  5
FEF
330
2
100
AcDbEntity
  8
HOJO
100
AcDbCircle
 10
154.91776291979
 20
437.9692808336675
 30
0.0
 40
2.0
  0
LINE
  5
FF0
330
2
100
AcDbEntity
  8
CENTER
100
AcDbLine
 10
154.91776291979
 20
443.1424859144245
 30
0.0
 11
154.91776291979
 21
432.7960757529104
 31
0.0
  0
LINE
  5
FF1
330
2
100
AcDbEntity
  8
0
100
AcDbLine
 10
149.4177629197845
 20
446.4692808336672
 30
0.0
 11
149.4177629197845
 21
443.4692808336698
 31
0.0
  0
CIRCLE
  5
FF2
330
2
100
AcDbEntity
  8
0
100
AcDbCircle
 10
154.91776291979
 20
437.9692808336675
 30
0.0
 40
1.6
  0
LINE
  5
FF3
330
2
100
AcDbEntity
  8
0
100
AcDbLine
 10
157.4177629197845
 20
454.4692808336671
 30
0.0
 11
160.4177629197845
 21
454.4692808336671
 31
0.0
  0
ARC
  5
FF4
330
2
100
AcDbEntity
  8
0
100
AcDbCircle
 10
160.4177629197845
 20
449.4692808336672
 30
0.0
 40
5.0
100
AcDbArc
 50
78.19493218950516
 51
90.0
  0
LINE
  5
FF5
330
2
100
AcDbEntity
  8
CENTER
100
AcDbLine
 10
252.1677629197863
 20
446.4692808336675
 30
0.0
 11
234.6677629197863
 21
446.4692808336675
 31
0.0
  0
ARC
  5
FF6
330
2
100
AcDbEntity
  8
0
100
AcDbCircle
 10
225.2289461018324
 20
439.4692808336611
 30
0.0
 40
10.5
100
AcDbArc
 50
44.99999999999107
 51
90.0
  0
LINE
  5
FF7
330
2
100
AcDbEntity
  8
0
100
AcDbLine
 10
228.7644800077657
 20
443.004814739594
 30
0.0
 11
239.9532968257105
 21
431.8159979216491
 31
0.0
  0
CIRCLE
  5
FF8
330
2
100
AcDbEntity
  8
0
100
AcDbCircle
 10
200.4177629197845
 20
403.4692808336672
 30
0.0
 40
33.00000000000153
  0
CIRCLE
  5
FF9
330
2
100
AcDbEntity
  8
0
100
AcDbCircle
 10
200.4177629197845
 20
403.4692808336672
 30
0.0
 40
35.00000000000153
  0
CIRCLE
  5
FFA
330
2
100
AcDbEntity
  8
0
100
AcDbCircle
 10
200.4177629197845
 20
403.4692808336672
 30
0.0
 40
35.50000000000153
  0
CIRCLE
  5
FFB
330
2
100
AcDbEntity
  8
0
100
AcDbCircle
 10
200.4177629197845
 20
403.4692808336672
 30
0.0
 40
32.42260000000154
  0
CIRCLE
  5
FFC
330
2
100
AcDbEntity
  8
0
100
AcDbCircle
 10
200.4177629197845
 20
403.4692808336674
 30
0.0
 40
26.0
  0
CIRCLE
  5
FFD
330
2
100
AcDbEntity
  8
0
100
AcDbCircle
 10
200.4177629197845
 20
403.4692808336674
 30
0.0
 40
26.57735026918937
  0
LINE
  5
FFE
330
2
100
AcDbEntity
  8
0
100
AcDbLine
 10
225.2289461018324
 20
444.469280833661
 30
0.0
 11
175.6065797377348
 21
444.4692808336616
 31
0.0
  0
LINE
  5
FFF
330
2
100
AcDbEntity
  8
0
100
AcDbLine
 10
225.2289461018324
 20
449.9692808336611
 30
0.0
 11
175.6065797377348
 21
449.9692808336615
 31
0.0
  0
LINE
  5
1000
330
2
100
AcDbEntity
  8
0
100
AcDbLine
 10
229.247122141666
 20
449.1700159250299
 30
0.0
 11
227.1423632636585
 21
444.0886784962179
 31
0.0
  0
ARC
  5
1001
330
2
100
AcDbEntity
  8
0
100
AcDbCircle
 10
225.2289461018324
 20
439.4692808336611
 30
0.0
 40
5.0
100
AcDbArc
 50
44.99999999999107
 51
90.0
  0
LINE
  5
1002
330
2
100
AcDbEntity
  8
0
100
AcDbLine
 10
160.8822290138566
 20
431.8159979216491
 30
0.0
 11
172.0710458318014
 21
443.0048147395942
 31
0.0
  0
LINE
  5
1003
330
2
100
AcDbEntity
  8
0
100
AcDbLine
 10
156.9931417173308
 20
435.7050852181751
 30
0.0
 11
168.1819585352757
 21
446.8939020361202
 31
0.0
  0
LINE
  5
1004
330
2
100
AcDbEntity
  8
0
100
AcDbLine
 10
171.5884036979011
 20
449.1700159250299
 30
0.0
 11
173.6931625759086
 21
444.0886784962179
 31
0.0
  0
ARC
  5
1005
330
2
100
AcDbEntity
  8
0
100
AcDbCircle
 10
175.6065797377348
 20
439.4692808336615
 30
0.0
 40
10.5
100
AcDbArc
 50
90.0
 51
135.0000000000089
  0
ARC
  5
1006
330
2
100
AcDbEntity
  8
0
100
AcDbCircle
 10
175.6065797377348
 20
439.4692808336615
 30
0.0
 40
5.0
100
AcDbArc
 50
90.0
 51
135.0000000000089
  0
LINE
  5
1007
330
2
100
AcDbEntity
  8
0
100
AcDbLine
 10
159.41776291979
 20
428.2804640157163
 30
0.0
 11
159.41776291979
 21
378.658097651618
 31
0.0
  0
LINE
  5
1008
330
2
100
AcDbEntity
  8
0
100
AcDbLine
 10
153.91776291979
 20
428.2804640157163
 30
0.0
 11
153.91776291979
 21
378.6580976516182
 31
0.0
  0
LINE
  5
1009
330
2
100
AcDbEntity
  8
0
100
AcDbLine
 10
154.7170278284218
 20
432.2986400555494
 30
0.0
 11
159.7983652572336
 21
430.1938811775415
 31
0.0
  0
ARC
  5
100A
330
2
100
AcDbEntity
  8
0
100
AcDbCircle
 10
164.41776291979
 20
428.2804640157163
 30
0.0
 40
10.5
100
AcDbArc
 50
135.0000000000089
 51
180.0
  0
ARC
  5
100B
330
2
100
AcDbEntity
  8
0
100
AcDbCircle
 10
164.41776291979
 20
428.2804640157163
 30
0.0
 40
5.0
100
AcDbArc
 50
135.0000000000089
 51
180.0
  0
LINE
  5
100C
330
2
100
AcDbEntity
  8
0
100
AcDbLine
 10
172.0710458318014
 20
363.9337469277405
 30
0.0
 11
160.8822290138566
 21
375.1225637456853
 31
0.0
  0
LINE
  5
100D
330
2
100
AcDbEntity
  8
0
100
AcDbLine
 10
154.7170278284218
 20
374.639921611785
 30
0.0
 11
159.7983652572336
 21
376.7446804897927
 31
0.0
  0
ARC
  5
100E
330
2
100
AcDbEntity
  8
0
100
AcDbCircle
 10
164.41776291979
 20
378.6580976516182
 30
0.0
 40
10.5
100
AcDbArc
 50
180.0
 51
224.9999999999911
  0
ARC
  5
100F
330
2
100
AcDbEntity
  8
0
100
AcDbCircle
 10
164.41776291979
 20
378.658097651618
 30
0.0
 40
5.0
100
AcDbArc
 50
180.0
 51
224.9999999999911
  0
LINE
  5
1010
330
2
100
AcDbEntity
  8
0
100
AcDbLine
 10
168.1819585352757
 20
360.0446596312143
 30
0.0
 11
156.9931417173308
 21
371.2334764491593
 31
0.0
  0
LINE
  5
1011
330
2
100
AcDbEntity
  8
0
100
AcDbLine
 10
175.6065797377348
 20
362.4692808336731
 30
0.0
 11
225.2289461018324
 21
362.4692808336734
 31
0.0
  0
LINE
  5
1012
330
2
100
AcDbEntity
  8
0
100
AcDbLine
 10
175.6065797377348
 20
356.9692808336731
 30
0.0
 11
225.2289461018324
 21
356.9692808336733
 31
0.0
  0
LINE
  5
1013
330
2
100
AcDbEntity
  8
0
100
AcDbLine
 10
171.5884036979011
 20
357.7685457423045
 30
0.0
 11
173.6931625759086
 21
362.8498831711165
 31
0.0
  0
ARC
  5
1014
330
2
100
AcDbEntity
  8
0
100
AcDbCircle
 10
175.6065797377348
 20
367.4692808336731
 30
0.0
 40
10.5
100
AcDbArc
 50
224.9999999999911
 51
270.0
  0
ARC
  5
1015
330
2
100
AcDbEntity
  8
0
100
AcDbCircle
 10
175.6065797377348
 20
367.4692808336731
 30
0.0
 40
5.0
100
AcDbArc
 50
224.9999999999911
 51
270.0
  0
ARC
  5
1016
330
2
100
AcDbEntity
  8
0
100
AcDbCircle
 10
225.2289461018324
 20
367.4692808336733
 30
0.0
 40
10.5
100
AcDbArc
 50
270.0
 51
315.0000000000089
  0
LINE
  5
1017
330
2
100
AcDbEntity
  8
0
100
AcDbLine
 10
239.9532968257105
 20
375.1225637456853
 30
0.0
 11
228.7644800077657
 21
363.9337469277405
 31
0.0
  0
LINE
  5
1018
330
2
100
AcDbEntity
  8
0
100
AcDbLine
 10
229.247122141666
 20
357.7685457423043
 30
0.0
 11
227.1423632636585
 21
362.8498831711165
 31
0.0
  0
ARC
  5
1019
330
2
100
AcDbEntity
  8
0
100
AcDbCircle
 10
225.2289461018324
 20
367.4692808336733
 30
0.0
 40
5.0
100
AcDbArc
 50
270.0
 51
315.0000000000089
  0
LINE
  5
101A
330
2
100
AcDbEntity
  8
0
100
AcDbLine
 10
243.8423841222363
 20
371.2334764491591
 30
0.0
 11
232.6535673042915
 21
360.0446596312145
 31
0.0
  0
LINE
  5
101B
330
2
100
AcDbEntity
  8
0
100
AcDbLine
 10
241.4177629197772
 20
378.6580976516182
 30
0.0
 11
241.4177629197772
 21
428.2804640157163
 31
0.0
  0
LINE
  5
101C
330
2
100
AcDbEntity
  8
0
100
AcDbLine
 10
246.9177629197772
 20
378.658097651618
 30
0.0
 11
246.9177629197772
 21
428.2804640157163
 31
0.0
  0
ARC
  5
101D
330
2
100
AcDbEntity
  8
0
100
AcDbCircle
 10
236.4177629197772
 20
378.658097651618
 30
0.0
 40
10.5
100
AcDbArc
 50
315.0000000000089
 51
0.0
  0
LINE
  5
101E
330
2
100
AcDbEntity
  8
0
100
AcDbLine
 10
246.1184980111472
 20
374.6399216117848
 30
0.0
 11
241.0371605823336
 21
376.7446804897927
 31
0.0
  0
ARC
  5
101F
330
2
100
AcDbEntity
  8
0
100
AcDbCircle
 10
236.4177629197772
 20
378.6580976516182
 30
0.0
 40
5.0
100
AcDbArc
 50
315.0000000000089
 51
0.0
  0
LINE
  5
1020
330
2
100
AcDbEntity
  8
0
100
AcDbLine
 10
232.6535673042915
 20
446.8939020361199
 30
0.0
 11
243.8423841222363
 21
435.7050852181751
 31
0.0
  0
ARC
  5
1021
330
2
100
AcDbEntity
  8
0
100
AcDbCircle
 10
236.4177629197772
 20
428.2804640157163
 30
0.0
 40
10.5
100
AcDbArc
 50
0.0
 51
44.99999999999107
  0
LINE
  5
1022
330
2
100
AcDbEntity
  8
0
100
AcDbLine
 10
246.1184980111472
 20
432.2986400555494
 30
0.0
 11
241.0371605823336
 21
430.1938811775415
 31
0.0
  0
ARC
  5
1023
330
2
100
AcDbEntity
  8
0
100
AcDbCircle
 10
236.4177629197772
 20
428.2804640157163
 30
0.0
 40
5.0
100
AcDbArc
 50
0.0
 51
44.99999999999107
  0
LINE
  5
1024
330
2
100
AcDbEntity
  8
CENTER
100
AcDbLine
 10
146.8111612019872
 20
349.8626791158704
 30
0.0
 11
254.0243646375849
 21
457.0758825514685
 31
0.0
  0
LINE
  5
1025
330
2
100
AcDbEntity
  8
CENTER
100
AcDbLine
 10
243.4177629197845
 20
455.2192808336704
 30
0.0
 11
243.4177629197845
 21
437.7192808336704
 31
0.0
  0
LINE
  5
1026
330
2
100
AcDbEntity
  8
CENTER
100
AcDbLine
 10
243.4177629197845
 20
351.7192808336643
 30
0.0
 11
243.4177629197845
 21
369.2192808336642
 31
0.0
  0
LINE
  5
1027
330
2
100
AcDbEntity
  8
CENTER
100
AcDbLine
 10
254.0243646375795
 20
349.8626791158713
 30
0.0
 11
146.8111612019895
 21
457.0758825514612
 31
0.0
  0
LINE
  5
1028
330
2
100
AcDbEntity
  8
0
100
AcDbLine
 10
484.7948155383189
 20
200.3208998087651
 30
0.0
 11
403.294815538319
 21
200.3208998087651
 31
0.0
  0
LINE
  5
1029
330
2
100
AcDbEntity
  8
0
100
AcDbLine
 10
484.7948155383189
 20
197.3208998087675
 30
0.0
 11
403.294815538319
 21
197.3208998087675
 31
0.0
  0
LINE
  5
102A
330
2
100
AcDbEntity
  8
0
100
AcDbLine
 10
484.7948155383189
 20
177.8609989859419
 30
0.0
 11
403.294815538319
 21
177.8609989859419
 31
0.0
  0
LINE
  5
102B
330
2
100
AcDbEntity
  8
0
100
AcDbLine
 10
484.7948155383189
 20
114.3208998087355
 30
0.0
 11
403.294815538319
 21
114.3208998087355
 31
0.0
  0
LINE
  5
102C
330
2
100
AcDbEntity
  8
0
100
AcDbLine
 10
484.7948155383189
 20
117.320899808733
 30
0.0
 11
403.294815538319
 21
117.320899808733
 31
0.0
  0
LINE
  5
102D
330
2
100
AcDbEntity
  8
0
100
AcDbLine
 10
484.7948155383189
 20
136.7808006315586
 30
0.0
 11
403.294815538319
 21
136.7808006315586
 31
0.0
  0
LINE
  5
102E
330
2
100
AcDbEntity
  8
0
100
AcDbLine
 10
386.4948155383269
 20
124.3208998087489
 30
0.0
 11
389.7948155383262
 21
124.3208998087494
 31
0.0
  0
LINE
  5
102F
330
2
100
AcDbEntity
  8
0
100
AcDbLine
 10
382.7948155383225
 20
183.3208998087498
 30
0.0
 11
390.7948155383207
 21
183.3208998087498
 31
0.0
  0
LINE
  5
1030
330
2
100
AcDbEntity
  8
0
100
AcDbLine
 10
382.7948155383225
 20
131.3208998087503
 30
0.0
 11
390.7948155383207
 21
131.3208998087503
 31
0.0
  0
LINE
  5
1031
330
2
100
AcDbEntity
  8
0
100
AcDbLine
 10
390.7948155383225
 20
130.4256434950264
 30
0.0
 11
390.7948155383225
 21
140.3208998087512
 31
0.0
  0
LINE
  5
1032
330
2
100
AcDbEntity
  8
0
100
AcDbLine
 10
390.7948155383225
 20
174.320899808751
 30
0.0
 11
390.7948155383225
 21
184.2161561224737
 31
0.0
  0
LINE
  5
1033
330
2
100
AcDbEntity
  8
0
100
AcDbLine
 10
389.7948155383262
 20
122.3208998087494
 30
0.0
 11
389.7948155383244
 21
129.2832715754063
 31
0.0
  0
LINE
  5
1034
330
2
100
AcDbEntity
  8
0
100
AcDbLine
 10
389.7948155383117
 20
185.3585280420993
 30
0.0
 11
389.7948155383098
 21
192.3208998087289
 31
0.0
  0
LINE
  5
1035
330
2
100
AcDbEntity
  8
0
100
AcDbLine
 10
389.7948155383262
 20
122.3208998087494
 30
0.0
 11
390.2948155383262
 21
121.8208998087498
 31
0.0
  0
LINE
  5
1036
330
2
100
AcDbEntity
  8
0
100
AcDbLine
 10
389.7948155383208
 20
124.3208998087494
 30
0.0
 11
389.7948155383208
 21
122.3208998087548
 31
0.0
  0
LINE
  5
1037
330
2
100
AcDbEntity
  8
0
100
AcDbLine
 10
390.7948155383225
 20
130.4256434950264
 30
0.0
 11
391.5387042457957
 21
130.4061640836764
 31
0.0
  0
LINE
  5
1038
330
2
100
AcDbEntity
  8
0
100
AcDbLine
 10
381.794815538308
 20
189.7435495395491
 30
0.0
 11
381.7948155383117
 21
174.320899808751
 31
0.0
  0
LINE
  5
1039
330
2
100
AcDbEntity
  8
0
100
AcDbLine
 10
381.7948155383207
 20
140.3208998087514
 30
0.0
 11
381.7948155383262
 21
124.898250077938
 31
0.0
  0
LINE
  5
103A
330
2
100
AcDbEntity
  8
0
100
AcDbLine
 10
382.7948155383225
 20
183.3208998087498
 30
0.0
 11
382.7948155383225
 21
174.3208998087512
 31
0.0
  0
LINE
  5
103B
330
2
100
AcDbEntity
  8
0
100
AcDbLine
 10
382.7948155383225
 20
140.3208998087513
 30
0.0
 11
382.7948155383207
 21
131.3208998087503
 31
0.0
  0
LINE
  5
103C
330
2
100
AcDbEntity
  8
0
100
AcDbLine
 10
382.7948155383262
 20
124.3208998087484
 30
0.0
 11
384.0948155383255
 21
124.3208998087489
 31
0.0
  0
LINE
  5
103D
330
2
100
AcDbEntity
  8
0
100
AcDbLine
 10
382.7948155383262
 20
124.3208998087484
 30
0.0
 11
381.7948155383262
 21
124.898250077938
 31
0.0
  0
LINE
  5
103E
330
2
100
AcDbEntity
  8
0
100
AcDbLine
 10
384.2948155383262
 20
124.5208998087487
 30
0.0
 11
384.2948155383353
 21
127.6146796028002
 31
0.0
  0
LINE
  5
103F
330
2
100
AcDbEntity
  8
0
100
AcDbLine
 10
384.2948155385154
 20
187.0271200146615
 30
0.0
 11
384.2948155385245
 21
190.1208998087509
 31
0.0
  0
LINE
  5
1040
330
2
100
AcDbEntity
  8
0
100
AcDbLine
 10
386.2948155383262
 20
124.5208998087492
 30
0.0
 11
386.4948155383269
 21
124.3208998087489
 31
0.0
  0
LINE
  5
1041
330
2
100
AcDbEntity
  8
0
100
AcDbLine
 10
386.2948155383262
 20
124.5208998087492
 30
0.0
 11
386.2948155383262
 21
128.2010894203
 31
0.0
  0
LINE
  5
1042
330
2
100
AcDbEntity
  8
0
100
AcDbLine
 10
386.2948155383262
 20
186.4407101972006
 30
0.0
 11
386.2948155383262
 21
190.1208998087463
 31
0.0
  0
LINE
  5
1043
330
2
100
AcDbEntity
  8
0
100
AcDbLine
 10
384.4948155383269
 20
125.0208998087487
 30
0.0
 11
386.0948155383255
 21
125.0208998087489
 31
0.0
  0
LINE
  5
1044
330
2
100
AcDbEntity
  8
0
100
AcDbLine
 10
382.7948155383225
 20
131.3208998087503
 30
0.0
 11
381.7948155383226
 21
130.7435495395607
 31
0.0
  0
LINE
  5
1045
330
2
100
AcDbEntity
  8
0
100
AcDbLine
 10
382.7948155383225
 20
183.3208998087498
 30
0.0
 11
381.7948155383226
 21
183.8982500779394
 31
0.0
  0
LINE
  5
1046
330
2
100
AcDbEntity
  8
0
100
AcDbLine
 10
386.4948155383306
 20
190.3208998087512
 30
0.0
 11
389.7948155383298
 21
190.3208998087503
 31
0.0
  0
LINE
  5
1047
330
2
100
AcDbEntity
  8
HIDS
100
AcDbLine
 10
395.2090291006941
 20
203.2351133711129
 30
0.0
 11
390.8806019759602
 21
198.9066862463842
 31
0.0
  0
LINE
  5
1048
330
2
100
AcDbEntity
  8
0
100
AcDbLine
 10
389.7948155383098
 20
192.3208998087289
 30
0.0
 11
390.2948155383317
 21
192.8208998087498
 31
0.0
  0
LINE
  5
1049
330
2
100
AcDbEntity
  8
0
100
AcDbLine
 10
395.7948155383208
 20
206.3208998087493
 30
0.0
 11
395.7948155383208
 21
172.8289734464406
 31
0.0
  0
LINE
  5
104A
330
2
100
AcDbEntity
  8
0
100
AcDbLine
 10
395.7948155383208
 20
141.8128261710599
 30
0.0
 11
395.7948155383208
 21
108.3208998087509
 31
0.0
  0
LINE
  5
104B
330
2
100
AcDbEntity
  8
0
100
AcDbLine
 10
384.4948155383306
 20
189.6208998087516
 30
0.0
 11
386.0948155383309
 21
189.6208998087511
 31
0.0
  0
LINE
  5
104C
330
2
100
AcDbEntity
  8
0
100
AcDbLine
 10
386.2948155383262
 20
190.1208998087463
 30
0.0
 11
386.4948155383306
 21
190.3208998087512
 31
0.0
  0
LINE
  5
104D
330
2
100
AcDbEntity
  8
0
100
AcDbLine
 10
382.7948155383298
 20
190.3208998087521
 30
0.0
 11
381.7948155383298
 21
189.7435495395626
 31
0.0
  0
LINE
  5
104E
330
2
100
AcDbEntity
  8
0
100
AcDbLine
 10
382.7948155383298
 20
190.3208998087521
 30
0.0
 11
384.0948155383309
 21
190.3208998087516
 31
0.0
  0
LINE
  5
104F
330
2
100
AcDbEntity
  8
0
100
AcDbLine
 10
390.7948155383207
 20
184.2161561224737
 30
0.0
 11
391.5387042457957
 21
184.2356355338239
 31
0.0
  0
ARC
  5
1050
330
2
100
AcDbEntity
  8
HIDS
100
AcDbCircle
 10
393.7948155383208
 20
204.6493269334867
 30
0.0
 40
2.0
100
AcDbArc
 50
314.9999999999407
 51
0.0
  0
ARC
  5
1051
330
2
100
AcDbEntity
  8
HIDS
100
AcDbCircle
 10
392.2948155383335
 20
197.4924726840104
 30
0.0
 40
2.0
100
AcDbArc
 50
134.9999999999406
 51
180.0
  0
ARC
  5
1052
330
2
100
AcDbEntity
  8
0
100
AcDbCircle
 10
384.0948155383255
 20
124.5208998087487
 30
0.0
 40
0.2
100
AcDbArc
 50
270.0
 51
359.9999999999348
  0
ARC
  5
1053
330
2
100
AcDbEntity
  8
0
100
AcDbCircle
 10
384.4948155383269
 20
124.8208998087487
 30
0.0
 40
0.2
100
AcDbArc
 50
90.0
 51
179.9999999999348
  0
ARC
  5
1054
330
2
100
AcDbEntity
  8
0
100
AcDbCircle
 10
386.0948155383255
 20
124.8208998087489
 30
0.0
 40
0.2
100
AcDbArc
 50
0.0
 51
90.0
  0
ARC
  5
1055
330
2
100
AcDbEntity
  8
0
100
AcDbCircle
 10
384.0948155383309
 20
190.1208998087513
 30
0.0
 40
0.2
100
AcDbArc
 50
0.0
 51
90.0
  0
ARC
  5
1056
330
2
100
AcDbEntity
  8
0
100
AcDbCircle
 10
384.4948155383306
 20
189.8208998087516
 30
0.0
 40
0.2
100
AcDbArc
 50
180.0
 51
269.9999999999478
  0
ARC
  5
1057
330
2
100
AcDbEntity
  8
0
100
AcDbCircle
 10
386.0948155383309
 20
189.8208998087512
 30
0.0
 40
0.2
100
AcDbArc
 50
269.9999999999478
 51
0.0
  0
LINE
  5
1058
330
2
100
AcDbEntity
  8
0
100
AcDbLine
 10
403.294815538319
 20
173.5139145466096
 30
0.0
 11
403.2948155383171
 21
208.3208998087493
 31
0.0
  0
CIRCLE
  5
1059
330
2
100
AcDbEntity
  8
0
100
AcDbCircle
 10
243.4177629197845
 20
446.4692808336675
 30
0.0
 40
5.000000000000113
  0
LINE
  5
105A
330
2
100
AcDbEntity
  8
0
100
AcDbLine
 10
245.9177629197845
 20
445.0259051606933
 30
0.0
 11
245.9177629197845
 21
447.9126565066413
 31
0.0
  0
LINE
  5
105B
330
2
100
AcDbEntity
  8
0
100
AcDbLine
 10
240.9177629197845
 20
445.0259051606933
 30
0.0
 11
240.9177629197845
 21
447.9126565066415
 31
0.0
  0
CIRCLE
  5
105C
330
2
100
AcDbEntity
  8
0
100
AcDbCircle
 10
243.4177629197845
 20
446.4692808336675
 30
0.0
 40
4.307179676972509
  0
LINE
  5
105D
330
2
100
AcDbEntity
  8
0
100
AcDbLine
 10
240.9177629197845
 20
445.0259051606933
 30
0.0
 11
243.4177629197845
 21
443.5825294877193
 31
0.0
  0
LINE
  5
105E
330
2
100
AcDbEntity
  8
0
100
AcDbLine
 10
245.9177629197845
 20
445.0259051606933
 30
0.0
 11
243.4177629197845
 21
443.5825294877193
 31
0.0
  0
LINE
  5
105F
330
2
100
AcDbEntity
  8
0
100
AcDbLine
 10
243.4177629197845
 20
449.3560321796156
 30
0.0
 11
240.9177629197845
 21
447.9126565066415
 31
0.0
  0
LINE
  5
1060
330
2
100
AcDbEntity
  8
0
100
AcDbLine
 10
243.4177629197845
 20
449.3560321796156
 30
0.0
 11
245.9177629197845
 21
447.9126565066413
 31
0.0
  0
CIRCLE
  5
1061
330
2
100
AcDbEntity
  8
0
100
AcDbCircle
 10
243.4177629197863
 20
360.469280833664
 30
0.0
 40
5.000000000000113
  0
LINE
  5
1062
330
2
100
AcDbEntity
  8
0
100
AcDbLine
 10
245.9177629197863
 20
359.02590516069
 30
0.0
 11
245.9177629197863
 21
361.9126565066379
 31
0.0
  0
LINE
  5
1063
330
2
100
AcDbEntity
  8
0
100
AcDbLine
 10
240.9177629197881
 20
359.02590516069
 30
0.0
 11
240.9177629197881
 21
361.9126565066381
 31
0.0
  0
CIRCLE
  5
1064
330
2
100
AcDbEntity
  8
0
100
AcDbCircle
 10
243.4177629197863
 20
360.469280833664
 30
0.0
 40
4.307179676972509
  0
LINE
  5
1065
330
2
100
AcDbEntity
  8
0
100
AcDbLine
 10
240.9177629197881
 20
359.02590516069
 30
0.0
 11
243.4177629197881
 21
357.5825294877159
 31
0.0
  0
LINE
  5
1066
330
2
100
AcDbEntity
  8
0
100
AcDbLine
 10
245.9177629197863
 20
359.02590516069
 30
0.0
 11
243.4177629197881
 21
357.5825294877159
 31
0.0
  0
LINE
  5
1067
330
2
100
AcDbEntity
  8
0
100
AcDbLine
 10
243.4177629197863
 20
363.3560321796122
 30
0.0
 11
240.9177629197881
 21
361.9126565066381
 31
0.0
  0
LINE
  5
1068
330
2
100
AcDbEntity
  8
0
100
AcDbLine
 10
243.4177629197863
 20
363.3560321796122
 30
0.0
 11
245.9177629197863
 21
361.9126565066379
 31
0.0
  0
CIRCLE
  5
1069
330
2
100
AcDbEntity
  8
0
100
AcDbCircle
 10
157.4177629197845
 20
360.469280833667
 30
0.0
 40
5.000000000000113
  0
LINE
  5
106A
330
2
100
AcDbEntity
  8
0
100
AcDbLine
 10
159.9177629197845
 20
359.0259051606929
 30
0.0
 11
159.9177629197845
 21
361.9126565066408
 31
0.0
  0
LINE
  5
106B
330
2
100
AcDbEntity
  8
0
100
AcDbLine
 10
154.9177629197845
 20
359.0259051606929
 30
0.0
 11
154.9177629197845
 21
361.9126565066411
 31
0.0
  0
CIRCLE
  5
106C
330
2
100
AcDbEntity
  8
0
100
AcDbCircle
 10
157.4177629197845
 20
360.469280833667
 30
0.0
 40
4.307179676972509
  0
LINE
  5
106D
330
2
100
AcDbEntity
  8
0
100
AcDbLine
 10
154.9177629197845
 20
359.0259051606929
 30
0.0
 11
157.4177629197845
 21
357.5825294877188
 31
0.0
  0
LINE
  5
106E
330
2
100
AcDbEntity
  8
0
100
AcDbLine
 10
159.9177629197845
 20
359.0259051606929
 30
0.0
 11
157.4177629197845
 21
357.5825294877188
 31
0.0
  0
LINE
  5
106F
330
2
100
AcDbEntity
  8
0
100
AcDbLine
 10
157.4177629197845
 20
363.3560321796151
 30
0.0
 11
154.9177629197845
 21
361.9126565066411
 31
0.0
  0
LINE
  5
1070
330
2
100
AcDbEntity
  8
0
100
AcDbLine
 10
157.4177629197845
 20
363.3560321796151
 30
0.0
 11
159.9177629197845
 21
361.9126565066408
 31
0.0
  0
CIRCLE
  5
1071
330
2
100
AcDbEntity
  8
0
100
AcDbCircle
 10
157.4177629197827
 20
446.4692808336679
 30
0.0
 40
5.000000000000113
  0
LINE
  5
1072
330
2
100
AcDbEntity
  8
0
100
AcDbLine
 10
159.9177629197827
 20
445.0259051606939
 30
0.0
 11
159.9177629197827
 21
447.9126565066417
 31
0.0
  0
LINE
  5
1073
330
2
100
AcDbEntity
  8
0
100
AcDbLine
 10
154.9177629197845
 20
445.0259051606939
 30
0.0
 11
154.9177629197845
 21
447.912656506642
 31
0.0
  0
CIRCLE
  5
1074
330
2
100
AcDbEntity
  8
0
100
AcDbCircle
 10
157.4177629197827
 20
446.4692808336679
 30
0.0
 40
4.307179676972509
  0
LINE
  5
1075
330
2
100
AcDbEntity
  8
0
100
AcDbLine
 10
154.9177629197845
 20
445.0259051606939
 30
0.0
 11
157.4177629197845
 21
443.5825294877197
 31
0.0
  0
LINE
  5
1076
330
2
100
AcDbEntity
  8
0
100
AcDbLine
 10
159.9177629197827
 20
445.0259051606939
 30
0.0
 11
157.4177629197845
 21
443.5825294877197
 31
0.0
  0
LINE
  5
1077
330
2
100
AcDbEntity
  8
0
100
AcDbLine
 10
157.4177629197827
 20
449.356032179616
 30
0.0
 11
154.9177629197845
 21
447.912656506642
 31
0.0
  0
LINE
  5
1078
330
2
100
AcDbEntity
  8
0
100
AcDbLine
 10
157.4177629197827
 20
449.356032179616
 30
0.0
 11
159.9177629197827
 21
447.9126565066417
 31
0.0
  0
LINE
  5
1079
330
2
100
AcDbEntity
  8
CENTER
  6
CENS
100
AcDbLine
 10
383.2948155383226
 20
200.3208998087655
 30
0.0
 11
409.3601413235835
 21
200.3208998087655
 31
0.0
  0
LINE
  5
107A
330
2
100
AcDbEntity
  8
0
100
AcDbLine
 10
394.2948155383226
 20
195.3208998087655
 30
0.0
 11
388.6948155383222
 21
195.3208998087655
 31
0.0
  0
LINE
  5
107B
330
2
100
AcDbEntity
  8
0
100
AcDbLine
 10
394.2948155383226
 20
205.3208998087655
 30
0.0
 11
388.6948155383222
 21
205.3208998087655
 31
0.0
  0
LINE
  5
107C
330
2
100
AcDbEntity
  8
0
100
AcDbLine
 10
394.2948155383226
 20
205.3208998087655
 30
0.0
 11
394.2948155383226
 21
195.3208998087657
 31
0.0
  0
LINE
  5
107D
330
2
100
AcDbEntity
  8
0
100
AcDbLine
 10
388.2948155383226
 20
204.6280794857378
 30
0.0
 11
388.2948155383207
 21
196.0137201317932
 31
0.0
  0
LINE
  5
107E
330
2
100
AcDbEntity
  8
0
100
AcDbLine
 10
388.6948155383204
 20
205.3208998087655
 30
0.0
 11
388.6948155383222
 21
195.3208998087655
 31
0.0
  0
LINE
  5
107F
330
2
100
AcDbEntity
  8
0
100
AcDbLine
 10
388.6948155383222
 20
205.3208998087655
 30
0.0
 11
388.2948155383226
 21
204.6280794857378
 31
0.0
  0
LINE
  5
1080
330
2
100
AcDbEntity
  8
0
100
AcDbLine
 10
388.6948155383222
 20
195.3208998087655
 30
0.0
 11
388.2948155383226
 21
196.0137201317932
 31
0.0
  0
LINE
  5
1081
330
2
100
AcDbEntity
  8
0
100
AcDbLine
 10
394.2948155383207
 20
205.3208998087655
 30
0.0
 11
395.7948155383208
 21
205.3208998087655
 31
0.0
  0
LINE
  5
1082
330
2
100
AcDbEntity
  8
0
100
AcDbLine
 10
394.2948155383226
 20
195.3208998087655
 30
0.0
 11
395.7948155383208
 21
195.3208998087655
 31
0.0
  0
LINE
  5
1083
330
2
100
AcDbEntity
  8
HIDS
100
AcDbLine
 10
390.2948155383335
 20
197.4924726840104
 30
0.0
 11
390.2948155383207
 21
195.3208998087655
 31
0.0
  0
LINE
  5
1084
330
2
100
AcDbEntity
  8
0
100
AcDbLine
 10
394.2948155383226
 20
119.320899808735
 30
0.0
 11
388.6948155383222
 21
119.320899808735
 31
0.0
  0
LINE
  5
1085
330
2
100
AcDbEntity
  8
0
100
AcDbLine
 10
394.2948155383226
 20
109.320899808735
 30
0.0
 11
388.6948155383222
 21
109.320899808735
 31
0.0
  0
LINE
  5
1086
330
2
100
AcDbEntity
  8
0
100
AcDbLine
 10
394.2948155383226
 20
109.320899808735
 30
0.0
 11
394.2948155383226
 21
119.3208998087349
 31
0.0
  0
LINE
  5
1087
330
2
100
AcDbEntity
  8
0
100
AcDbLine
 10
388.2948155383226
 20
110.0137201317628
 30
0.0
 11
388.2948155383207
 21
118.6280794857073
 31
0.0
  0
LINE
  5
1088
330
2
100
AcDbEntity
  8
0
100
AcDbLine
 10
388.6948155383204
 20
109.320899808735
 30
0.0
 11
388.6948155383222
 21
119.320899808735
 31
0.0
  0
LINE
  5
1089
330
2
100
AcDbEntity
  8
0
100
AcDbLine
 10
388.6948155383222
 20
109.320899808735
 30
0.0
 11
388.2948155383226
 21
110.0137201317628
 31
0.0
  0
LINE
  5
108A
330
2
100
AcDbEntity
  8
0
100
AcDbLine
 10
388.6948155383222
 20
119.320899808735
 30
0.0
 11
388.2948155383226
 21
118.6280794857073
 31
0.0
  0
LINE
  5
108B
330
2
100
AcDbEntity
  8
0
100
AcDbLine
 10
394.2948155383207
 20
109.320899808735
 30
0.0
 11
395.7948155383208
 21
109.320899808735
 31
0.0
  0
LINE
  5
108C
330
2
100
AcDbEntity
  8
0
100
AcDbLine
 10
394.2948155383226
 20
119.320899808735
 30
0.0
 11
395.7948155383208
 21
119.320899808735
 31
0.0
  0
LINE
  5
108D
330
2
100
AcDbEntity
  8
HIDS
100
AcDbLine
 10
395.2090291006941
 20
111.4066862463876
 30
0.0
 11
390.8806019759602
 21
115.7351133711163
 31
0.0
  0
ARC
  5
108E
330
2
100
AcDbEntity
  8
HIDS
100
AcDbCircle
 10
393.7948155383208
 20
109.9924726840138
 30
0.0
 40
2.0
100
AcDbArc
 50
0.0
 51
45.0000000000593
  0
ARC
  5
108F
330
2
100
AcDbEntity
  8
HIDS
100
AcDbCircle
 10
392.2948155383335
 20
117.1493269334901
 30
0.0
 40
2.0
100
AcDbArc
 50
180.0
 51
225.0000000000593
  0
LINE
  5
1090
330
2
100
AcDbEntity
  8
HIDS
100
AcDbLine
 10
390.2948155383335
 20
117.1493269334901
 30
0.0
 11
390.2948155383207
 21
119.320899808735
 31
0.0
  0
LINE
  5
1091
330
2
100
AcDbEntity
  8
0
100
AcDbLine
 10
390.2948155383207
 20
195.3208998087655
 30
0.0
 11
390.2948155383207
 21
185.1407663056111
 31
0.0
  0
LINE
  5
1092
330
2
100
AcDbEntity
  8
0
100
AcDbLine
 10
390.2948155383207
 20
129.5010333118893
 30
0.0
 11
390.2948155383207
 21
119.320899808735
 31
0.0
  0
LINE
  5
1093
330
2
100
AcDbEntity
  8
0
100
AcDbLine
 10
382.7948155383298
 20
190.3208998087521
 30
0.0
 11
382.7948155383298
 21
187.2697404007658
 31
0.0
  0
LINE
  5
1094
330
2
100
AcDbEntity
  8
0
100
AcDbLine
 10
382.7948155383262
 20
127.3720592167342
 30
0.0
 11
382.7948155383262
 21
124.3208998087484
 31
0.0
  0
LINE
  5
1095
330
2
100
AcDbEntity
  8
0
100
AcDbLine
 10
386.4948155383269
 20
124.3208998087489
 30
0.0
 11
386.4948155383269
 21
128.2686681440713
 31
0.0
  0
LINE
  5
1096
330
2
100
AcDbEntity
  8
0
100
AcDbLine
 10
386.4948155383306
 20
186.373131473428
 30
0.0
 11
386.4948155383306
 21
190.3208998087512
 31
0.0
  0
LINE
  5
1097
330
2
100
AcDbEntity
  8
0
100
AcDbLine
 10
569.3650890910309
 20
713.6793174243498
 30
0.0
 11
670.8432830573199
 21
713.6793174243494
 31
0.0
  0
LINE
  5
1098
330
2
100
AcDbEntity
  8
0
100
AcDbLine
 10
587.3607256571474
 20
730.4793174243423
 30
0.0
 11
587.3607256571474
 21
727.1793174243425
 31
0.0
  0
LINE
  5
1099
330
2
100
AcDbEntity
  8
0
100
AcDbLine
 10
585.3607256571474
 20
727.1793174243421
 30
0.0
 11
655.3607256571274
 21
727.1793174243584
 31
0.0
  0
LINE
  5
109A
330
2
100
AcDbEntity
  8
0
100
AcDbLine
 10
585.3607256571474
 20
727.1793174243421
 30
0.0
 11
584.8607256571474
 21
726.6793174243421
 31
0.0
  0
LINE
  5
109B
330
2
100
AcDbEntity
  8
0
100
AcDbLine
 10
587.3607256571474
 20
727.1793174243476
 30
0.0
 11
585.3607256571528
 21
727.1793174243476
 31
0.0
  0
LINE
  5
109C
330
2
100
AcDbEntity
  8
0
100
AcDbLine
 10
652.7833753879465
 20
735.1793174243612
 30
0.0
 11
587.9380759263356
 21
735.179317424343
 31
0.0
  0
LINE
  5
109D
330
2
100
AcDbEntity
  8
0
100
AcDbLine
 10
587.3607256571456
 20
734.179317424343
 30
0.0
 11
587.3607256571474
 21
732.8793174243428
 31
0.0
  0
LINE
  5
109E
330
2
100
AcDbEntity
  8
0
100
AcDbLine
 10
587.3607256571456
 20
734.1793174243425
 30
0.0
 11
587.9380759263356
 21
735.179317424343
 31
0.0
  0
LINE
  5
109F
330
2
100
AcDbEntity
  8
0
100
AcDbLine
 10
587.5607256571463
 20
732.679317424343
 30
0.0
 11
653.1607256571485
 21
732.6793174241442
 31
0.0
  0
LINE
  5
10A0
330
2
100
AcDbEntity
  8
0
100
AcDbLine
 10
587.5607256571463
 20
730.679317424343
 30
0.0
 11
587.3607256571474
 21
730.4793174243423
 31
0.0
  0
LINE
  5
10A1
330
2
100
AcDbEntity
  8
0
100
AcDbLine
 10
587.5607256571463
 20
730.679317424343
 30
0.0
 11
653.1607256571448
 21
730.679317424343
 31
0.0
  0
LINE
  5
10A2
330
2
100
AcDbEntity
  8
0
100
AcDbLine
 10
588.0607256571463
 20
732.4793174243422
 30
0.0
 11
588.0607256571463
 21
730.8793174243428
 31
0.0
  0
LINE
  5
10A3
330
2
100
AcDbEntity
  8
0
100
AcDbLine
 10
653.3607256571492
 20
730.4793174243382
 30
0.0
 11
653.3607256571474
 21
727.1793174243384
 31
0.0
  0
LINE
  5
10A4
330
2
100
AcDbEntity
  8
HIDS
100
AcDbLine
 10
666.2749392195117
 20
721.7651038619751
 30
0.0
 11
661.9465120947814
 21
726.0935309867082
 31
0.0
  0
LINE
  5
10A5
330
2
100
AcDbEntity
  8
0
100
AcDbLine
 10
655.3607256571274
 20
727.1793174243584
 30
0.0
 11
655.8607256571474
 21
726.6793174243376
 31
0.0
  0
LINE
  5
10A6
330
2
100
AcDbEntity
  8
0
100
AcDbLine
 10
670.7469391736902
 20
719.1967704953472
 30
0.0
 11
670.7950892571832
 21
713.6793174243521
 31
0.0
  0
ARC
  5
10A7
330
2
100
AcDbEntity
  8
0
100
AcDbCircle
 10
668.7470153275614
 20
719.1793174243498
 30
0.0
 40
2.0
100
AcDbArc
 50
0.5000000000176044
 51
90.0
  0
ARC
  5
10A8
330
2
100
AcDbEntity
  8
0
100
AcDbCircle
 10
571.5054323150095
 20
719.1793174243476
 30
0.0
 40
2.0
100
AcDbArc
 50
90.0
 51
178.5000000000005
  0
LINE
  5
10A9
330
2
100
AcDbEntity
  8
0
100
AcDbLine
 10
652.6607256571485
 20
732.4793174243386
 30
0.0
 11
652.6607256571485
 21
730.8793174243382
 31
0.0
  0
LINE
  5
10AA
330
2
100
AcDbEntity
  8
0
100
AcDbLine
 10
653.1607256571448
 20
730.679317424343
 30
0.0
 11
653.3607256571492
 21
730.4793174243382
 31
0.0
  0
LINE
  5
10AB
330
2
100
AcDbEntity
  8
0
100
AcDbLine
 10
653.3607256571492
 20
734.1793174243385
 30
0.0
 11
652.7833753879611
 21
735.1793174243384
 31
0.0
  0
LINE
  5
10AC
330
2
100
AcDbEntity
  8
0
100
AcDbLine
 10
653.3607256571492
 20
734.1793174243385
 30
0.0
 11
653.3607256571492
 21
732.8793174243383
 31
0.0
  0
ARC
  5
10AD
330
2
100
AcDbEntity
  8
HIDS
100
AcDbCircle
 10
667.689152781885
 20
723.1793174243476
 30
0.0
 40
2.0
100
AcDbArc
 50
224.9999999999876
 51
270.0
  0
ARC
  5
10AE
330
2
100
AcDbEntity
  8
HIDS
100
AcDbCircle
 10
660.532298532408
 20
724.6793174243357
 30
0.0
 40
2.0
100
AcDbArc
 50
44.99999999998762
 51
90.0
  0
ARC
  5
10AF
330
2
100
AcDbEntity
  8
0
100
AcDbCircle
 10
587.5607256571463
 20
732.8793174243428
 30
0.0
 40
0.2
100
AcDbArc
 50
180.0
 51
269.9999999998957
  0
ARC
  5
10B0
330
2
100
AcDbEntity
  8
0
100
AcDbCircle
 10
587.8607256571456
 20
732.4793174243422
 30
0.0
 40
0.2
100
AcDbArc
 50
0.0
 51
89.99999999989578
  0
ARC
  5
10B1
330
2
100
AcDbEntity
  8
0
100
AcDbCircle
 10
587.8607256571474
 20
730.8793174243428
 30
0.0
 40
0.2
100
AcDbArc
 50
270.0
 51
0.0
  0
ARC
  5
10B2
330
2
100
AcDbEntity
  8
0
100
AcDbCircle
 10
653.1607256571485
 20
732.8793174243383
 30
0.0
 40
0.2
100
AcDbArc
 50
270.0
 51
0.0
  0
ARC
  5
10B3
330
2
100
AcDbEntity
  8
0
100
AcDbCircle
 10
652.8607256571492
 20
732.4793174243382
 30
0.0
 40
0.2
100
AcDbArc
 50
90.0
 51
179.9999999999479
  0
ARC
  5
10B4
330
2
100
AcDbEntity
  8
0
100
AcDbCircle
 10
652.8607256571492
 20
730.8793174243382
 30
0.0
 40
0.2
100
AcDbArc
 50
179.9999999999479
 51
270.0
  0
LINE
  5
10B5
330
2
100
AcDbEntity
  8
0
100
AcDbLine
 10
569.5061176650585
 20
719.2316713209634
 30
0.0
 11
569.3607241613979
 21
713.6793174243466
 31
0.0
  0
LINE
  5
10B6
330
2
100
AcDbEntity
  8
0
100
AcDbLine
 10
569.3607256571493
 20
713.6793174243466
 30
0.0
 11
670.8432830573153
 21
713.6793174243521
 31
0.0
  0
LINE
  5
10B7
330
2
100
AcDbEntity
  8
CENTER
  6
CENS
100
AcDbLine
 10
663.3607256571638
 20
733.6793174243519
 30
0.0
 11
663.3607256571638
 21
700.1139916390873
 31
0.0
  0
LINE
  5
10B8
330
2
100
AcDbEntity
  8
0
100
AcDbLine
 10
658.3607256571638
 20
722.6793174243471
 30
0.0
 11
658.3607256571638
 21
728.279317424347
 31
0.0
  0
LINE
  5
10B9
330
2
100
AcDbEntity
  8
0
100
AcDbLine
 10
668.3607256571638
 20
722.6793174243471
 30
0.0
 11
668.3607256571638
 21
728.279317424347
 31
0.0
  0
LINE
  5
10BA
330
2
100
AcDbEntity
  8
0
100
AcDbLine
 10
668.3607256571638
 20
722.6793174243471
 30
0.0
 11
658.3607256571638
 21
722.6793174243471
 31
0.0
  0
LINE
  5
10BB
330
2
100
AcDbEntity
  8
0
100
AcDbLine
 10
667.6679053341366
 20
728.6793174243471
 30
0.0
 11
659.0535459801911
 21
728.6793174243475
 31
0.0
  0
LINE
  5
10BC
330
2
100
AcDbEntity
  8
0
100
AcDbLine
 10
668.3607256571638
 20
728.2793174243474
 30
0.0
 11
658.3607256571638
 21
728.279317424347
 31
0.0
  0
LINE
  5
10BD
330
2
100
AcDbEntity
  8
0
100
AcDbLine
 10
668.3607256571638
 20
728.279317424347
 30
0.0
 11
667.6679053341366
 21
728.6793174243471
 31
0.0
  0
LINE
  5
10BE
330
2
100
AcDbEntity
  8
0
100
AcDbLine
 10
658.3607256571638
 20
728.279317424347
 30
0.0
 11
659.0535459801911
 21
728.6793174243471
 31
0.0
  0
LINE
  5
10BF
330
2
100
AcDbEntity
  8
0
100
AcDbLine
 10
668.3607256571638
 20
722.6793174243475
 30
0.0
 11
668.3607256571638
 21
721.1793174243475
 31
0.0
  0
LINE
  5
10C0
330
2
100
AcDbEntity
  8
0
100
AcDbLine
 10
658.3607256571638
 20
722.6793174243471
 30
0.0
 11
658.3607256571638
 21
721.1793174243475
 31
0.0
  0
LINE
  5
10C1
330
2
100
AcDbEntity
  8
HIDS
100
AcDbLine
 10
660.532298532408
 20
726.6793174243357
 30
0.0
 11
658.3607256571638
 21
726.6793174243475
 31
0.0
  0
LINE
  5
10C2
330
2
100
AcDbEntity
  8
0
100
AcDbLine
 10
582.3607256571328
 20
722.6793174243471
 30
0.0
 11
582.3607256571328
 21
728.279317424347
 31
0.0
  0
LINE
  5
10C3
330
2
100
AcDbEntity
  8
0
100
AcDbLine
 10
572.3607256571328
 20
722.6793174243471
 30
0.0
 11
572.3607256571328
 21
728.279317424347
 31
0.0
  0
LINE
  5
10C4
330
2
100
AcDbEntity
  8
0
100
AcDbLine
 10
572.3607256571328
 20
722.6793174243471
 30
0.0
 11
582.3607256571328
 21
722.6793174243471
 31
0.0
  0
LINE
  5
10C5
330
2
100
AcDbEntity
  8
0
100
AcDbLine
 10
573.0535459801601
 20
728.6793174243471
 30
0.0
 11
581.6679053341056
 21
728.6793174243475
 31
0.0
  0
LINE
  5
10C6
330
2
100
AcDbEntity
  8
0
100
AcDbLine
 10
572.3607256571328
 20
728.2793174243474
 30
0.0
 11
582.3607256571328
 21
728.279317424347
 31
0.0
  0
LINE
  5
10C7
330
2
100
AcDbEntity
  8
0
100
AcDbLine
 10
572.3607256571328
 20
728.279317424347
 30
0.0
 11
573.0535459801601
 21
728.6793174243471
 31
0.0
  0
LINE
  5
10C8
330
2
100
AcDbEntity
  8
0
100
AcDbLine
 10
582.3607256571328
 20
728.279317424347
 30
0.0
 11
581.6679053341056
 21
728.6793174243471
 31
0.0
  0
LINE
  5
10C9
330
2
100
AcDbEntity
  8
0
100
AcDbLine
 10
572.3607256571328
 20
722.6793174243475
 30
0.0
 11
572.3607256571328
 21
721.1793174243475
 31
0.0
  0
LINE
  5
10CA
330
2
100
AcDbEntity
  8
0
100
AcDbLine
 10
582.3607256571328
 20
722.6793174243471
 30
0.0
 11
582.3607256571328
 21
721.1793174243475
 31
0.0
  0
LINE
  5
10CB
330
2
100
AcDbEntity
  8
HIDS
100
AcDbLine
 10
574.4465120947849
 20
721.7651038619751
 30
0.0
 11
578.7749392195134
 21
726.0935309867082
 31
0.0
  0
ARC
  5
10CC
330
2
100
AcDbEntity
  8
HIDS
100
AcDbCircle
 10
573.0322985324116
 20
723.1793174243476
 30
0.0
 40
2.0
100
AcDbArc
 50
270.0
 51
315.0000000000123
  0
ARC
  5
10CD
330
2
100
AcDbEntity
  8
HIDS
100
AcDbCircle
 10
580.1891527818886
 20
724.6793174243357
 30
0.0
 40
2.0
100
AcDbArc
 50
90.0
 51
135.0000000000123
  0
LINE
  5
10CE
330
2
100
AcDbEntity
  8
HIDS
100
AcDbLine
 10
580.1891527818886
 20
726.6793174243357
 30
0.0
 11
582.3607256571328
 21
726.6793174243475
 31
0.0
  0
LINE
  5
10CF
330
2
100
AcDbEntity
  8
0
100
AcDbLine
 10
658.3607256571638
 20
726.6793174243475
 30
0.0
 11
582.3607256571328
 21
726.6793174243475
 31
0.0
  0
LINE
  5
10D0
330
2
100
AcDbEntity
  8
0
100
AcDbLine
 10
653.3607256571492
 20
734.1793174243385
 30
0.0
 11
587.3607256571456
 21
734.179317424343
 31
0.0
  0
LINE
  5
10D1
330
2
100
AcDbEntity
  8
0
100
AcDbLine
 10
587.3607256571474
 20
730.4793174243423
 30
0.0
 11
653.3607256571492
 21
730.4793174243382
 31
0.0
  0
LINE
  5
10D2
330
2
100
AcDbEntity
  8
CENTER
  6
CENS
100
AcDbLine
 10
577.3607256571328
 20
733.6793174243473
 30
0.0
 11
577.3607256571328
 21
700.1139916390873
 31
0.0
  0
LINE
  5
10D3
330
2
100
AcDbEntity
  8
CENTER
  6
CENS
100
AcDbLine
 10
383.2948155383226
 20
114.320899808735
 30
0.0
 11
409.3601413235835
 21
114.320899808735
 31
0.0
  0
LINE
  5
10D4
330
2
100
AcDbEntity
  8
CENTER
100
AcDbLine
 10
527.7948155383207
 20
157.3208998087503
 30
0.0
 11
369.7949225383206
 21
157.3208998087503
 31
0.0
  0
LINE
  5
10D5
330
2
100
AcDbEntity
  8
0
100
AcDbLine
 10
517.7948155383208
 20
171.1209028087501
 30
0.0
 11
379.7949225383206
 21
171.1209028087503
 31
0.0
  0
LINE
  5
10D6
330
2
100
AcDbEntity
  8
0
100
AcDbLine
 10
484.7948155383208
 20
168.8208998087503
 30
0.0
 11
404.7949225383206
 21
168.8208998087503
 31
0.0
  0
LINE
  5
10D7
330
2
100
AcDbEntity
  8
0
100
AcDbLine
 10
513.29476855194
 20
145.820914676418
 30
0.0
 11
506.2947685519928
 21
145.8209433704847
 31
0.0
  0
LINE
  5
10D8
330
2
100
AcDbEntity
  8
0
100
AcDbLine
 10
513.2948155383208
 20
168.8208288087503
 30
0.0
 11
506.2948155383208
 21
168.8208288087503
 31
0.0
  0
LINE
  5
10D9
330
2
100
AcDbEntity
  8
0
100
AcDbLine
 10
517.7948155383208
 20
174.3208078087503
 30
0.0
 11
493.2399443167621
 21
174.3208078087503
 31
0.0
  0
LINE
  5
10DA
330
2
100
AcDbEntity
  8
0
100
AcDbLine
 10
517.7948155383208
 20
140.3208998087503
 30
0.0
 11
493.2399956136257
 21
140.3208998087503
 31
0.0
  0
LINE
  5
10DB
330
2
100
AcDbEntity
  8
0
100
AcDbLine
 10
513.2948155383844
 20
157.3208896763335
 30
0.0
 11
513.29476855194
 21
145.820914676418
 31
0.0
  0
LINE
  5
10DC
330
2
100
AcDbEntity
  8
0
100
AcDbLine
 10
515.7947707036899
 20
146.3208149823472
 30
0.0
 11
515.7948155381697
 21
157.3208149822669
 31
0.0
  0
LINE
  5
10DD
330
2
100
AcDbEntity
  8
0
100
AcDbLine
 10
517.7948155383208
 20
174.3208078087503
 30
0.0
 11
517.7948155383208
 21
140.3208998087503
 31
0.0
  0
LINE
  5
10DE
330
2
100
AcDbEntity
  8
0
100
AcDbLine
 10
515.7947707036899
 20
146.3208149823472
 30
0.0
 11
517.7947665623985
 21
145.1662058088381
 31
0.0
  0
LINE
  5
10DF
330
2
100
AcDbEntity
  8
0
100
AcDbLine
 10
515.7947707036899
 20
146.3208149823472
 30
0.0
 11
513.2947707037408
 21
146.3208436764142
 31
0.0
  0
LINE
  5
10E0
330
2
100
AcDbEntity
  8
0
100
AcDbLine
 10
513.2948155383208
 20
157.3208538087502
 30
0.0
 11
513.2948155383208
 21
168.8208288087503
 31
0.0
  0
LINE
  5
10E1
330
2
100
AcDbEntity
  8
CENTER
100
AcDbLine
 10
509.7948155383208
 20
166.6140549599013
 30
0.0
 11
509.7948155383208
 21
176.6931010238823
 31
0.0
  0
LINE
  5
10E2
330
2
100
AcDbEntity
  8
0
100
AcDbLine
 10
515.7948155383207
 20
168.3208998087503
 30
0.0
 11
515.7948155383207
 21
157.3208998087503
 31
0.0
  0
LINE
  5
10E3
330
2
100
AcDbEntity
  8
0
100
AcDbLine
 10
515.7948155383207
 20
168.3208998087503
 30
0.0
 11
517.7948155383208
 21
169.4755018087503
 31
0.0
  0
LINE
  5
10E4
330
2
100
AcDbEntity
  8
0
100
AcDbLine
 10
515.7948155383207
 20
168.3208998087503
 30
0.0
 11
513.2948155383208
 21
168.3208998087503
 31
0.0
  0
LINE
  5
10E5
330
2
100
AcDbEntity
  8
HOJO
100
AcDbLine
 10
512.2948155383207
 20
171.1209028087501
 30
0.0
 11
512.2948155383207
 21
174.3209148087503
 31
0.0
  0
LINE
  5
10E6
330
2
100
AcDbEntity
  8
0
100
AcDbLine
 10
511.7948155383207
 20
171.1209028087501
 30
0.0
 11
511.7948155383207
 21
174.3209148087503
 31
0.0
  0
LINE
  5
10E7
330
2
100
AcDbEntity
  8
0
100
AcDbLine
 10
497.794861969475
 20
145.8208998087503
 30
0.0
 11
497.7949075383283
 21
157.3209046508955
 31
0.0
  0
LINE
  5
10E8
330
2
100
AcDbEntity
  8
0
100
AcDbLine
 10
498.9448679694675
 20
145.820894966605
 30
0.0
 11
498.9449135383209
 21
157.3208998087503
 31
0.0
  0
LINE
  5
10E9
330
2
100
AcDbEntity
  8
0
100
AcDbLine
 10
506.2947685519928
 20
145.8209433704847
 30
0.0
 11
506.2948155384372
 21
157.3209183704005
 31
0.0
  0
LINE
  5
10EA
330
2
100
AcDbEntity
  8
0
100
AcDbLine
 10
485.7948155383208
 20
139.8208078087503
 30
0.0
 11
485.7948155383208
 21
140.3208998087503
 31
0.0
  0
LINE
  5
10EB
330
2
100
AcDbEntity
  8
0
100
AcDbLine
 10
484.7948155383208
 20
146.3208134626298
 30
0.0
 11
497.7948627038501
 21
146.320904650976
 31
0.0
  0
LINE
  5
10EC
330
2
100
AcDbEntity
  8
0
100
AcDbLine
 10
506.2947707037917
 20
146.3208723704809
 30
0.0
 11
498.9448687038409
 21
146.3208998088308
 31
0.0
  0
LINE
  5
10ED
330
2
100
AcDbEntity
  8
0
100
AcDbLine
 10
498.9448687038737
 20
146.3209090219409
 30
0.0
 11
499.171576250025
 21
146.3209097559604
 31
0.0
  0
LINE
  5
10EE
330
2
100
AcDbEntity
  8
0
100
AcDbLine
 10
498.9448679694675
 20
145.820894966605
 30
0.0
 11
497.794861969475
 21
145.8208998087503
 31
0.0
  0
LINE
  5
10EF
330
2
100
AcDbEntity
  8
0
100
AcDbLine
 10
497.794907538321
 20
168.3208998087503
 30
0.0
 11
484.7948155383208
 21
168.3208998087503
 31
0.0
  0
LINE
  5
10F0
330
2
100
AcDbEntity
  8
0
100
AcDbLine
 10
506.2948155383208
 20
168.8208288087503
 30
0.0
 11
506.2948155383208
 21
157.3208538087502
 31
0.0
  0
LINE
  5
10F1
330
2
100
AcDbEntity
  8
0
100
AcDbLine
 10
497.794907538321
 20
168.8208998087503
 30
0.0
 11
497.794907538321
 21
157.3208998087503
 31
0.0
  0
LINE
  5
10F2
330
2
100
AcDbEntity
  8
0
100
AcDbLine
 10
498.9449135383209
 20
168.8208998087503
 30
0.0
 11
498.9449135383209
 21
157.3208998087503
 31
0.0
  0
LINE
  5
10F3
330
2
100
AcDbEntity
  8
0
100
AcDbLine
 10
506.2948155383208
 20
168.3208998087503
 30
0.0
 11
498.9449135383209
 21
168.3208998087503
 31
0.0
  0
LINE
  5
10F4
330
2
100
AcDbEntity
  8
0
100
AcDbLine
 10
507.7948155390211
 20
171.1209028087501
 30
0.0
 11
507.7948155390211
 21
174.3209148087503
 31
0.0
  0
LINE
  5
10F5
330
2
100
AcDbEntity
  8
HOJO
100
AcDbLine
 10
507.2948155390211
 20
171.1209028087501
 30
0.0
 11
507.2948155390211
 21
174.3209148087503
 31
0.0
  0
LINE
  5
10F6
330
2
100
AcDbEntity
  8
0
100
AcDbLine
 10
498.9449135383209
 20
168.8208998087503
 30
0.0
 11
497.794907538321
 21
168.8208998087503
 31
0.0
  0
LINE
  5
10F7
330
2
100
AcDbEntity
  8
0
100
AcDbLine
 10
484.7948155383208
 20
168.8208998087503
 30
0.0
 11
484.7948155383208
 21
145.8208998087505
 31
0.0
  0
LINE
  5
10F8
330
2
100
AcDbEntity
  8
0
100
AcDbLine
 10
485.7948155383208
 20
174.8208998087503
 30
0.0
 11
485.7948155383208
 21
174.3208078087503
 31
0.0
  0
LINE
  5
10F9
330
2
100
AcDbEntity
  8
0
100
AcDbLine
 10
379.7949225383206
 20
174.320899808751
 30
0.0
 11
379.7949225383206
 21
140.3208998087508
 31
0.0
  0
LINE
  5
10FA
330
2
100
AcDbEntity
  8
0
100
AcDbLine
 10
381.7949225383206
 20
146.3208998087503
 30
0.0
 11
381.7949225383206
 21
157.3208998087503
 31
0.0
  0
LINE
  5
10FB
330
2
100
AcDbEntity
  8
0
100
AcDbLine
 10
393.7949225383206
 20
145.8208998087503
 30
0.0
 11
393.7949225383206
 21
157.3208998087503
 31
0.0
  0
LINE
  5
10FC
330
2
100
AcDbEntity
  8
0
100
AcDbLine
 10
392.6448245383205
 20
145.8208998087503
 30
0.0
 11
392.6448245383205
 21
157.3208998087503
 31
0.0
  0
LINE
  5
10FD
330
2
100
AcDbEntity
  8
0
100
AcDbLine
 10
404.7949225383206
 20
168.8208998087503
 30
0.0
 11
404.7949225383206
 21
145.8208998087512
 31
0.0
  0
LINE
  5
10FE
330
2
100
AcDbEntity
  8
0
100
AcDbLine
 10
394.0888278693589
 20
140.3208998087511
 30
0.0
 11
379.7949225383206
 21
140.3208998087514
 31
0.0
  0
LINE
  5
10FF
330
2
100
AcDbEntity
  8
0
100
AcDbLine
 10
404.7949225383206
 20
146.3208998087503
 30
0.0
 11
393.7949225383206
 21
146.3208998087503
 31
0.0
  0
LINE
  5
1100
330
2
100
AcDbEntity
  8
0
100
AcDbLine
 10
392.6448245383205
 20
146.3208998087503
 30
0.0
 11
381.7949225383206
 21
146.3208998087503
 31
0.0
  0
LINE
  5
1101
330
2
100
AcDbEntity
  8
0
100
AcDbLine
 10
393.7949225383206
 20
145.8208998087503
 30
0.0
 11
392.6448245383205
 21
145.8208998087503
 31
0.0
  0
LINE
  5
1102
330
2
100
AcDbEntity
  8
0
100
AcDbLine
 10
381.7949225383206
 20
146.3208998087503
 30
0.0
 11
379.7949225383206
 21
145.1662978087502
 31
0.0
  0
LINE
  5
1103
330
2
100
AcDbEntity
  8
0
100
AcDbLine
 10
394.0888278693589
 20
174.320899808751
 30
0.0
 11
379.7949225383206
 21
174.320899808751
 31
0.0
  0
LINE
  5
1104
330
2
100
AcDbEntity
  8
0
100
AcDbLine
 10
404.7949225383206
 20
168.3208998087503
 30
0.0
 11
393.7949225383206
 21
168.3208998087503
 31
0.0
  0
LINE
  5
1105
330
2
100
AcDbEntity
  8
0
100
AcDbLine
 10
393.7949225383206
 20
168.8208998087503
 30
0.0
 11
393.7949225383206
 21
157.3208998087503
 31
0.0
  0
LINE
  5
1106
330
2
100
AcDbEntity
  8
0
100
AcDbLine
 10
392.6448245383205
 20
168.8208998087503
 30
0.0
 11
392.6448245383205
 21
157.3208998087503
 31
0.0
  0
LINE
  5
1107
330
2
100
AcDbEntity
  8
0
100
AcDbLine
 10
381.7949225383206
 20
168.3208998087503
 30
0.0
 11
381.7949225383206
 21
157.3208998087503
 31
0.0
  0
LINE
  5
1108
330
2
100
AcDbEntity
  8
0
100
AcDbLine
 10
392.6448245383205
 20
168.3208998087503
 30
0.0
 11
381.7949225383206
 21
168.3208998087503
 31
0.0
  0
LINE
  5
1109
330
2
100
AcDbEntity
  8
0
100
AcDbLine
 10
393.7949225383206
 20
168.8208998087503
 30
0.0
 11
392.6448245383205
 21
168.8208998087503
 31
0.0
  0
LINE
  5
110A
330
2
100
AcDbEntity
  8
0
100
AcDbLine
 10
381.7949225383206
 20
168.3208998087503
 30
0.0
 11
379.7949225383206
 21
169.4755018087503
 31
0.0
  0
LINE
  5
110B
330
2
100
AcDbEntity
  8
0
100
AcDbLine
 10
484.7948155383208
 20
145.8208998087505
 30
0.0
 11
404.7949225383206
 21
145.8208998087512
 31
0.0
  0
LINE
  5
110C
330
2
100
AcDbEntity
  8
0
100
AcDbLine
 10
495.7948155383226
 20
130.5827590244418
 30
0.0
 11
495.7948155383226
 21
140.3208998087503
 31
0.0
  0
LINE
  5
110D
330
2
100
AcDbEntity
  8
0
100
AcDbLine
 10
495.7948155383226
 20
174.3208078087503
 30
0.0
 11
495.7948155383226
 21
184.059040593058
 31
0.0
  0
LINE
  5
110E
330
2
100
AcDbEntity
  8
0
100
AcDbLine
 10
503.7948155383226
 20
131.3208998087499
 30
0.0
 11
503.7948155383226
 21
140.3208998087501
 31
0.0
  0
LINE
  5
110F
330
2
100
AcDbEntity
  8
0
100
AcDbLine
 10
503.7948155383226
 20
174.3208078087503
 30
0.0
 11
503.7948155383226
 21
183.3208998087494
 31
0.0
  0
LINE
  5
1110
330
2
100
AcDbEntity
  8
0
100
AcDbLine
 10
494.9786102647492
 20
130.5613859371637
 30
0.0
 11
495.7948155383226
 21
130.5827590244418
 31
0.0
  0
LINE
  5
1111
330
2
100
AcDbEntity
  8
0
100
AcDbLine
 10
503.7948155383226
 20
131.3208998087499
 30
0.0
 11
504.7948155383226
 21
130.7435495395604
 31
0.0
  0
LINE
  5
1112
330
2
100
AcDbEntity
  8
0
100
AcDbLine
 10
495.7948155383226
 20
131.3208998087499
 30
0.0
 11
503.7948155383226
 21
131.3208998087499
 31
0.0
  0
LINE
  5
1113
330
2
100
AcDbEntity
  8
0
100
AcDbLine
 10
503.7948155383226
 20
183.3208998087494
 30
0.0
 11
504.7948155383226
 21
183.8982500779394
 31
0.0
  0
LINE
  5
1114
330
2
100
AcDbEntity
  8
0
100
AcDbLine
 10
495.7948155383226
 20
183.3208998087494
 30
0.0
 11
503.7948155383226
 21
183.3208998087494
 31
0.0
  0
LINE
  5
1115
330
2
100
AcDbEntity
  8
0
100
AcDbLine
 10
494.9786102647492
 20
184.0804136803363
 30
0.0
 11
495.7948155383226
 21
184.059040593058
 31
0.0
  0
SPLINE
  5
1116
330
2
100
AcDbEntity
  8
HOJO
100
AcDbSpline
210
0.0
220
0.0
230
1.0
 70
     8
 71
     3
 72
    29
 73
    25
 74
     0
 42
0.0000000001
 43
0.0000000001
 40
1.090399320308462
 40
1.090399320308462
 40
1.090399320308462
 40
1.090399320308462
 40
4.040739644829187
 40
6.997787495336805
 40
10.73237305618972
 40
12.84118264411926
 40
16.26049801359844
 40
19.61887715227126
 40
22.64931725531719
 40
30.22181573300487
 40
36.16263111558746
 40
44.88883488220451
 40
55.50706864912782
 40
63.29892504772643
 40
76.3740363571969
 40
84.54534817615707
 40
97.35021782080984
 40
109.0809591827178
 40
120.5301602098909
 40
124.9940898217377
 40
128.7067778711773
 40
133.1761160685756
 40
137.3397663791125
 40
142.8191071547317
 40
142.8191071547317
 40
142.8191071547317
 40
142.8191071547317
 10
381.7948155383262
 20
187.3683472305947
 30
0.0
 10
382.7821004664208
 20
187.2861923592659
 30
0.0
 10
384.7407564272023
 20
187.0547403405185
 30
0.0
 10
387.7177414131935
 20
185.8660891750069
 30
0.0
 10
390.752500164747
 20
185.3135933755614
 30
0.0
 10
392.7803840104868
 20
182.7697420977143
 30
0.0
 10
393.122824036304
 20
179.7149727502842
 30
0.0
 10
393.3032749104284
 20
176.5833443057075
 30
0.0
 10
394.7635634938367
 20
171.4911779315267
 30
0.0
 10
401.958811008985
 20
173.708247384649
 30
0.0
 10
408.8816417449185
 20
173.7032184124369
 30
0.0
 10
417.444784504484
 20
172.3940322968788
 30
0.0
 10
426.4365349596143
 20
173.3889614263846
 30
0.0
 10
436.9410445399214
 20
173.0956547374599
 30
0.0
 10
446.6341936715314
 20
173.485116010133
 30
0.0
 10
457.9282581926279
 20
172.5087113298564
 30
0.0
 10
469.038139356019
 20
173.6237317703601
 30
0.0
 10
480.1704667403762
 20
174.4211888262107
 30
0.0
 10
492.0934252653703
 20
170.5864910273922
 30
0.0
 10
494.3581940085648
 20
176.8065836059236
 30
0.0
 10
492.623871532937
 20
180.821589553927
 30
0.0
 10
495.125578804679
 20
185.0165990625728
 30
0.0
 10
499.7969992479254
 20
186.1374766112699
 30
0.0
 10
503.1176363973525
 20
186.58535179194
 30
0.0
 10
504.7948155383208
 20
187.2388613267517
 30
0.0
  0
SPLINE
  5
1117
330
2
100
AcDbEntity
  8
HOJO
100
AcDbSpline
210
0.0
220
0.0
230
1.0
 70
     8
 71
     3
 72
    29
 73
    25
 74
     0
 42
0.0000000001
 43
0.0000000001
 40
1.090399320308462
 40
1.090399320308462
 40
1.090399320308462
 40
1.090399320308462
 40
4.040739644829187
 40
6.997787495336805
 40
10.73237305618972
 40
12.84118264411926
 40
16.26049801359844
 40
19.61887715227126
 40
22.64931725531719
 40
30.22181573300487
 40
36.16263111558746
 40
44.88883488220451
 40
55.50706864912782
 40
63.29892504772643
 40
76.3740363571969
 40
84.54534817615707
 40
97.35021782080984
 40
109.0809591827178
 40
120.5301602098909
 40
124.9940898217377
 40
128.7067778711773
 40
133.1761160685756
 40
137.3397663791125
 40
142.8191071547317
 40
142.8191071547317
 40
142.8191071547317
 40
142.8191071547317
 10
381.7948155383262
 20
127.2734523869059
 30
0.0
 10
382.7821004664208
 20
127.3556072582345
 30
0.0
 10
384.7407564272023
 20
127.5870592769821
 30
0.0
 10
387.7177414131935
 20
128.7757104424937
 30
0.0
 10
390.752500164747
 20
129.3282062419391
 30
0.0
 10
392.7803840104868
 20
131.8720575197864
 30
0.0
 10
393.122824036304
 20
134.9268268672163
 30
0.0
 10
393.3032749104284
 20
138.0584553117931
 30
0.0
 10
394.7635634938367
 20
143.1506216859739
 30
0.0
 10
401.958811008985
 20
140.9335522328516
 30
0.0
 10
408.8816417449185
 20
140.9385812050635
 30
0.0
 10
417.444784504484
 20
142.2477673206216
 30
0.0
 10
426.4365349596143
 20
141.2528381911159
 30
0.0
 10
436.9410445399214
 20
141.5461448800408
 30
0.0
 10
446.6341936715314
 20
141.1566836073674
 30
0.0
 10
457.9282581926279
 20
142.1330882876442
 30
0.0
 10
469.038139356019
 20
141.0180678471404
 30
0.0
 10
480.1704667403762
 20
140.2206107912897
 30
0.0
 10
492.0934252653703
 20
144.0553085901083
 30
0.0
 10
494.3581940085648
 20
137.835216011577
 30
0.0
 10
492.623871532937
 20
133.8202100635737
 30
0.0
 10
495.125578804679
 20
129.6252005549276
 30
0.0
 10
499.7969992479254
 20
128.5043230062306
 30
0.0
 10
503.1176363973525
 20
128.0564478255604
 30
0.0
 10
504.7948155383208
 20
127.4029382907489
 30
0.0
  0
LINE
  5
1118
330
2
100
AcDbEntity
  8
0
100
AcDbLine
 10
390.7948155383225
 20
183.3208998087498
 30
0.0
 11
382.7948155383225
 21
174.3208998087512
 31
0.0
  0
LINE
  5
1119
330
2
100
AcDbEntity
  8
0
100
AcDbLine
 10
382.7948155383225
 20
183.3208998087496
 30
0.0
 11
390.7948155383225
 21
174.320899808751
 31
0.0
  0
LINE
  5
111A
330
2
100
AcDbEntity
  8
0
100
AcDbLine
 10
390.7948155383225
 20
140.3208998087512
 30
0.0
 11
382.7948155383225
 21
131.3208998087503
 31
0.0
  0
LINE
  5
111B
330
2
100
AcDbEntity
  8
0
100
AcDbLine
 10
382.7948155383225
 20
140.3208998087513
 30
0.0
 11
390.7948155383207
 21
131.3208998087503
 31
0.0
  0
LINE
  5
111C
330
2
100
AcDbEntity
  8
0
100
AcDbLine
 10
495.7948155383226
 20
140.3208998087503
 30
0.0
 11
503.7948155383226
 21
131.3208998087499
 31
0.0
  0
LINE
  5
111D
330
2
100
AcDbEntity
  8
0
100
AcDbLine
 10
503.7948155383226
 20
140.3208998087501
 30
0.0
 11
495.7948155383226
 21
131.3208998087499
 31
0.0
  0
LINE
  5
111E
330
2
100
AcDbEntity
  8
0
100
AcDbLine
 10
495.7948155383226
 20
183.3208998087494
 30
0.0
 11
503.7948155383226
 21
174.3208078087503
 31
0.0
  0
LINE
  5
111F
330
2
100
AcDbEntity
  8
0
100
AcDbLine
 10
503.7948155383226
 20
183.3208998087494
 30
0.0
 11
495.7948155383226
 21
174.3208078087503
 31
0.0
  0
LINE
  5
1120
330
2
100
AcDbEntity
  8
0
100
AcDbLine
 10
623.3607256571493
 20
417.2692838336637
 30
0.0
 11
617.3607256571492
 21
417.2692838336638
 31
0.0
  0
LINE
  5
1121
330
2
100
AcDbEntity
  8
0
100
AcDbLine
 10
623.3607256571493
 20
417.2692838336637
 30
0.0
 11
623.3607256571493
 21
414.052286077922
 31
0.0
  0
LINE
  5
1122
330
2
100
AcDbEntity
  8
0
100
AcDbLine
 10
617.3607256571492
 20
417.2692838336637
 30
0.0
 11
617.3607256571492
 21
414.052286077922
 31
0.0
  0
ARC
  5
1123
330
2
100
AcDbEntity
  8
0
100
AcDbCircle
 10
620.3607256571492
 20
403.4692808336636
 30
0.0
 40
11.0
100
AcDbArc
 50
105.8266201318575
 51
74.17337986814252
  0
CIRCLE
  5
1124
330
2
100
AcDbEntity
  8
0
100
AcDbCircle
 10
620.360725657151
 20
403.4692808336645
 30
0.0
 40
16.99990799998784
  0
LINE
  5
1125
330
2
100
AcDbEntity
  8
0
100
AcDbLine
 10
437.287239608772
 20
353.1892474264168
 30
0.0
 11
437.287239608772
 21
453.7493142409166
 31
0.0
  0
LINE
  5
1126
330
2
100
AcDbEntity
  8
0
100
AcDbLine
 10
442.287239608772
 20
358.4692808336695
 30
0.0
 11
442.287239608772
 21
448.469280833669
 31
0.0
  0
LINE
  5
1127
330
2
100
AcDbEntity
  8
0
100
AcDbLine
 10
437.287239608772
 20
358.4692808336695
 30
0.0
 11
442.287239608772
 21
358.4692808336695
 31
0.0
  0
LINE
  5
1128
330
2
100
AcDbEntity
  8
0
100
AcDbLine
 10
437.287239608772
 20
448.469280833669
 30
0.0
 11
442.287239608772
 21
448.469280833669
 31
0.0
  0
LINE
  5
1129
330
2
100
AcDbEntity
  8
0
100
AcDbLine
 10
456.2872396087739
 20
371.4006583832816
 30
0.0
 11
456.2872396087739
 21
435.5379032840544
 31
0.0
  0
ARC
  5
112A
330
2
100
AcDbEntity
  8
0
100
AcDbCircle
 10
454.2872396087739
 20
435.5379032840544
 30
0.0
 40
2.0
100
AcDbArc
 50
0.0
 51
87.99999999999636
  0
LINE
  5
112B
330
2
100
AcDbEntity
  8
0
100
AcDbLine
 10
444.2174406153688
 20
369.047794165208
 30
0.0
 11
454.357038602179
 21
369.4018767292437
 31
0.0
  0
ARC
  5
112C
330
2
100
AcDbEntity
  8
0
100
AcDbCircle
 10
444.2872396087738
 20
367.0490125111701
 30
0.0
 40
2.0
100
AcDbArc
 50
92.00000000000365
 51
180.0
  0
ARC
  5
112D
330
2
100
AcDbEntity
  8
0
100
AcDbCircle
 10
454.2872396087739
 20
371.4006583832816
 30
0.0
 40
2.0
100
AcDbArc
 50
272.0000000000036
 51
0.0
  0
LINE
  5
112E
330
2
100
AcDbEntity
  8
0
100
AcDbLine
 10
444.2174406153688
 20
437.8907675021283
 30
0.0
 11
454.357038602179
 21
437.5366849380926
 31
0.0
  0
ARC
  5
112F
330
2
100
AcDbEntity
  8
0
100
AcDbCircle
 10
444.2872396087738
 20
439.8895491561662
 30
0.0
 40
2.0
100
AcDbArc
 50
180.0
 51
267.9999999999963
  0
ARC
  5
1130
330
2
100
AcDbEntity
  8
0
100
AcDbCircle
 10
454.2872396087739
 20
435.5379032840547
 30
0.0
 40
2.0
100
AcDbArc
 50
0.0
 51
0.0
  0
LINE
  5
1131
330
2
100
AcDbEntity
  8
0
100
AcDbLine
 10
333.2872396087793
 20
360.3912339193858
 30
0.0
 11
333.2872396087793
 21
446.5473277479341
 31
0.0
  0
ARC
  5
1132
330
2
100
AcDbEntity
  8
0
100
AcDbCircle
 10
427.2872396087794
 20
446.547327747935
 30
0.0
 40
8.0
100
AcDbArc
 50
65.08518224130918
 51
89.43829466741624
  0
LINE
  5
1133
330
2
100
AcDbEntity
  8
0
100
AcDbLine
 10
384.2872396087793
 20
351.9692808336604
 30
0.0
 11
341.2088120052492
 21
352.3916183591855
 31
0.0
  0
ARC
  5
1134
330
2
100
AcDbEntity
  8
0
100
AcDbCircle
 10
341.2872396087793
 20
360.3912339193858
 30
0.0
 40
8.0
100
AcDbArc
 50
180.0
 51
269.4382946674162
  0
LINE
  5
1135
330
2
100
AcDbEntity
  8
0
100
AcDbLine
 10
384.2872396087793
 20
351.9692808336604
 30
0.0
 11
427.3656672123113
 21
352.3916183591846
 31
0.0
  0
ARC
  5
1136
330
2
100
AcDbEntity
  8
0
100
AcDbCircle
 10
427.2872396087794
 20
360.3912339193848
 30
0.0
 40
8.0
100
AcDbArc
 50
270.5617053325316
 51
294.9148177589203
  0
LINE
  5
1137
330
2
100
AcDbEntity
  8
0
100
AcDbLine
 10
384.2872396087793
 20
454.9692808336594
 30
0.0
 11
341.2088120052492
 21
454.5469433081343
 31
0.0
  0
ARC
  5
1138
330
2
100
AcDbEntity
  8
0
100
AcDbCircle
 10
341.2872396087793
 20
446.5473277479341
 30
0.0
 40
8.0
100
AcDbArc
 50
90.56170533253165
 51
180.0
  0
LINE
  5
1139
330
2
100
AcDbEntity
  8
0
100
AcDbLine
 10
384.2872396087793
 20
454.9692808336594
 30
0.0
 11
427.3656672123113
 21
454.5469433081352
 31
0.0
  0
LINE
  5
113A
330
2
100
AcDbEntity
  8
0
100
AcDbLine
 10
354.7872396087757
 20
352.4692808336677
 30
0.0
 11
437.287239608772
 21
353.1892474264168
 31
0.0
  0
LINE
  5
113B
330
2
100
AcDbEntity
  8
0
100
AcDbLine
 10
354.7872396087702
 20
454.4692808336658
 30
0.0
 11
437.287239608772
 21
453.7493142409166
 31
0.0
  0
LINE
  5
113C
330
2
100
AcDbEntity
  8
0
100
AcDbLine
 10
354.7872396087721
 20
352.4692808336677
 30
0.0
 11
354.7872396087721
 21
454.4649173997822
 31
0.0
  0
LINE
  5
113D
330
2
100
AcDbEntity
  8
CENTER
100
AcDbLine
 10
384.2872396087666
 20
464.9692808336594
 30
0.0
 11
384.2872396087666
 21
341.9692808336604
 31
0.0
  0
LINE
  5
113E
330
2
100
AcDbEntity
  8
0
100
AcDbLine
 10
436.2872396087721
 20
446.4692808336815
 30
0.0
 11
354.7872396087721
 21
446.4692808336815
 31
0.0
  0
LINE
  5
113F
330
2
100
AcDbEntity
  8
0
100
AcDbLine
 10
436.2872396087721
 20
443.4692808336841
 30
0.0
 11
354.7872396087721
 21
443.4692808336841
 31
0.0
  0
LINE
  5
1140
330
2
100
AcDbEntity
  8
0
100
AcDbLine
 10
436.2872396087721
 20
424.0093800108584
 30
0.0
 11
354.7872396087721
 21
424.0093800108584
 31
0.0
  0
LINE
  5
1141
330
2
100
AcDbEntity
  8
0
100
AcDbLine
 10
436.2872396087721
 20
360.469280833652
 30
0.0
 11
354.7872396087721
 21
360.469280833652
 31
0.0
  0
LINE
  5
1142
330
2
100
AcDbEntity
  8
0
100
AcDbLine
 10
436.2872396087721
 20
363.4692808336495
 30
0.0
 11
354.7872396087721
 21
363.4692808336495
 31
0.0
  0
LINE
  5
1143
330
2
100
AcDbEntity
  8
0
100
AcDbLine
 10
436.2872396087721
 20
382.9291816564751
 30
0.0
 11
354.7872396087721
 21
382.9291816564751
 31
0.0
  0
LINE
  5
1144
330
2
100
AcDbEntity
  8
0
100
AcDbLine
 10
337.98723960878
 20
370.4692808336654
 30
0.0
 11
341.2872396087793
 21
370.4692808336659
 31
0.0
  0
LINE
  5
1145
330
2
100
AcDbEntity
  8
0
100
AcDbLine
 10
341.2872396087793
 20
368.4692808336659
 30
0.0
 11
341.2872396087611
 21
438.4692808336436
 31
0.0
  0
LINE
  5
1146
330
2
100
AcDbEntity
  8
0
100
AcDbLine
 10
341.2872396087793
 20
368.4692808336659
 30
0.0
 11
341.7872396087793
 21
367.9692808336663
 31
0.0
  0
LINE
  5
1147
330
2
100
AcDbEntity
  8
0
100
AcDbLine
 10
341.2872396087739
 20
370.4692808336659
 30
0.0
 11
341.2872396087739
 21
368.4692808336713
 31
0.0
  0
LINE
  5
1148
330
2
100
AcDbEntity
  8
0
100
AcDbLine
 10
333.2872396087612
 20
435.8919305644656
 30
0.0
 11
333.2872396087648
 21
420.4692808336674
 31
0.0
  0
LINE
  5
1149
330
2
100
AcDbEntity
  8
0
100
AcDbLine
 10
333.2872396087739
 20
386.4692808336679
 30
0.0
 11
333.2872396087793
 21
371.0466311028545
 31
0.0
  0
LINE
  5
114A
330
2
100
AcDbEntity
  8
0
100
AcDbLine
 10
334.2872396087793
 20
370.4692808336649
 30
0.0
 11
335.5872396087786
 21
370.4692808336654
 31
0.0
  0
LINE
  5
114B
330
2
100
AcDbEntity
  8
0
100
AcDbLine
 10
334.2872396087793
 20
370.4692808336649
 30
0.0
 11
333.2872396087793
 21
371.0466311028545
 31
0.0
  0
LINE
  5
114C
330
2
100
AcDbEntity
  8
0
100
AcDbLine
 10
335.7872396087757
 20
370.6692808336648
 30
0.0
 11
335.7872396089776
 21
436.2692808336674
 31
0.0
  0
LINE
  5
114D
330
2
100
AcDbEntity
  8
0
100
AcDbLine
 10
337.7872396087793
 20
370.6692808336657
 30
0.0
 11
337.98723960878
 21
370.4692808336654
 31
0.0
  0
LINE
  5
114E
330
2
100
AcDbEntity
  8
0
100
AcDbLine
 10
337.7872396087793
 20
370.6692808336659
 30
0.0
 11
337.7872396087793
 21
436.2692808336628
 31
0.0
  0
LINE
  5
114F
330
2
100
AcDbEntity
  8
0
100
AcDbLine
 10
335.98723960878
 20
371.1692808336652
 30
0.0
 11
337.5872396087786
 21
371.1692808336654
 31
0.0
  0
LINE
  5
1150
330
2
100
AcDbEntity
  8
0
100
AcDbLine
 10
337.9872396087837
 20
436.4692808336677
 30
0.0
 11
341.287239608783
 21
436.4692808336668
 31
0.0
  0
LINE
  5
1151
330
2
100
AcDbEntity
  8
HIDS
100
AcDbLine
 10
346.7014531711472
 20
449.3834943960294
 30
0.0
 11
342.3730260464133
 21
445.0550672713007
 31
0.0
  0
LINE
  5
1152
330
2
100
AcDbEntity
  8
0
100
AcDbLine
 10
341.2872396087611
 20
438.4692808336436
 30
0.0
 11
341.7872396087848
 21
438.9692808336663
 31
0.0
  0
LINE
  5
1153
330
2
100
AcDbEntity
  8
0
100
AcDbLine
 10
349.2697865377765
 20
454.421130916326
 30
0.0
 11
354.7872015311102
 21
454.4692806675195
 31
0.0
  0
ARC
  5
1154
330
2
100
AcDbEntity
  8
0
100
AcDbCircle
 10
349.2872396087739
 20
452.4212070701977
 30
0.0
 40
2.0
100
AcDbArc
 50
90.50000000001761
 51
180.0
  0
LINE
  5
1155
330
2
100
AcDbEntity
  8
0
100
AcDbLine
 10
347.2872396087739
 20
452.4212070701977
 30
0.0
 11
347.2872396087739
 21
354.5173547632883
 31
0.0
  0
LINE
  5
1156
330
2
100
AcDbEntity
  8
0
100
AcDbLine
 10
335.9872396087837
 20
435.7692808336681
 30
0.0
 11
337.587239608784
 21
435.7692808336676
 31
0.0
  0
LINE
  5
1157
330
2
100
AcDbEntity
  8
0
100
AcDbLine
 10
337.7872396087793
 20
436.2692808336628
 30
0.0
 11
337.9872396087837
 21
436.4692808336677
 31
0.0
  0
LINE
  5
1158
330
2
100
AcDbEntity
  8
0
100
AcDbLine
 10
334.287239608783
 20
436.4692808336686
 30
0.0
 11
333.287239608783
 21
435.891930564479
 31
0.0
  0
LINE
  5
1159
330
2
100
AcDbEntity
  8
0
100
AcDbLine
 10
334.287239608783
 20
436.4692808336686
 30
0.0
 11
335.587239608784
 21
436.4692808336681
 31
0.0
  0
ARC
  5
115A
330
2
100
AcDbEntity
  8
HIDS
100
AcDbCircle
 10
345.2872396087739
 20
450.7977079584032
 30
0.0
 40
2.0
100
AcDbArc
 50
314.9999999999407
 51
0.0
  0
ARC
  5
115B
330
2
100
AcDbEntity
  8
HIDS
100
AcDbCircle
 10
343.7872396087866
 20
443.640853708927
 30
0.0
 40
2.0
100
AcDbArc
 50
134.9999999999406
 51
180.0
  0
ARC
  5
115C
330
2
100
AcDbEntity
  8
0
100
AcDbCircle
 10
335.5872396087786
 20
370.6692808336652
 30
0.0
 40
0.2
100
AcDbArc
 50
270.0
 51
359.9999999999348
  0
ARC
  5
115D
330
2
100
AcDbEntity
  8
0
100
AcDbCircle
 10
335.98723960878
 20
370.9692808336652
 30
0.0
 40
0.2
100
AcDbArc
 50
90.0
 51
179.9999999999348
  0
ARC
  5
115E
330
2
100
AcDbEntity
  8
0
100
AcDbCircle
 10
337.5872396087786
 20
370.9692808336654
 30
0.0
 40
0.2
100
AcDbArc
 50
0.0
 51
90.0
  0
ARC
  5
115F
330
2
100
AcDbEntity
  8
0
100
AcDbCircle
 10
335.587239608784
 20
436.2692808336679
 30
0.0
 40
0.2
100
AcDbArc
 50
0.0
 51
90.0
  0
ARC
  5
1160
330
2
100
AcDbEntity
  8
0
100
AcDbCircle
 10
335.9872396087837
 20
435.9692808336681
 30
0.0
 40
0.2
100
AcDbArc
 50
180.0
 51
269.9999999999478
  0
ARC
  5
1161
330
2
100
AcDbEntity
  8
0
100
AcDbCircle
 10
337.587239608784
 20
435.9692808336677
 30
0.0
 40
0.2
100
AcDbArc
 50
269.9999999999478
 51
0.0
  0
LINE
  5
1162
330
2
100
AcDbEntity
  8
0
100
AcDbLine
 10
349.2697865377765
 20
352.5174309171598
 30
0.0
 11
354.7872396087721
 21
352.4692808336677
 31
0.0
  0
ARC
  5
1163
330
2
100
AcDbEntity
  8
0
100
AcDbCircle
 10
349.2872396087739
 20
354.5173547632883
 30
0.0
 40
2.0
100
AcDbArc
 50
180.0
 51
269.4999999999824
  0
LINE
  5
1164
330
2
100
AcDbEntity
  8
0
100
AcDbLine
 10
354.7872396087721
 20
419.6622955715261
 30
0.0
 11
354.7872396087702
 21
454.4692808336658
 31
0.0
  0
LINE
  5
1165
330
2
100
AcDbEntity
  8
CENTER
  6
CENS
100
AcDbLine
 10
334.7872396087757
 20
446.469280833682
 30
0.0
 11
360.8525653940366
 21
446.469280833682
 31
0.0
  0
LINE
  5
1166
330
2
100
AcDbEntity
  8
0
100
AcDbLine
 10
345.7872396087757
 20
441.469280833682
 30
0.0
 11
340.1872396087753
 21
441.469280833682
 31
0.0
  0
LINE
  5
1167
330
2
100
AcDbEntity
  8
0
100
AcDbLine
 10
345.7872396087757
 20
451.469280833682
 30
0.0
 11
340.1872396087753
 21
451.469280833682
 31
0.0
  0
LINE
  5
1168
330
2
100
AcDbEntity
  8
0
100
AcDbLine
 10
345.7872396087757
 20
451.469280833682
 30
0.0
 11
345.7872396087757
 21
441.4692808336822
 31
0.0
  0
LINE
  5
1169
330
2
100
AcDbEntity
  8
0
100
AcDbLine
 10
339.7872396087757
 20
450.7764605106543
 30
0.0
 11
339.7872396087739
 21
442.1621011567097
 31
0.0
  0
LINE
  5
116A
330
2
100
AcDbEntity
  8
0
100
AcDbLine
 10
340.1872396087735
 20
451.469280833682
 30
0.0
 11
340.1872396087753
 21
441.469280833682
 31
0.0
  0
LINE
  5
116B
330
2
100
AcDbEntity
  8
0
100
AcDbLine
 10
340.1872396087753
 20
451.469280833682
 30
0.0
 11
339.7872396087757
 21
450.7764605106543
 31
0.0
  0
LINE
  5
116C
330
2
100
AcDbEntity
  8
0
100
AcDbLine
 10
340.1872396087753
 20
441.469280833682
 30
0.0
 11
339.7872396087757
 21
442.1621011567097
 31
0.0
  0
LINE
  5
116D
330
2
100
AcDbEntity
  8
0
100
AcDbLine
 10
345.7872396087739
 20
451.469280833682
 30
0.0
 11
347.2872396087739
 21
451.469280833682
 31
0.0
  0
LINE
  5
116E
330
2
100
AcDbEntity
  8
0
100
AcDbLine
 10
345.7872396087757
 20
441.469280833682
 30
0.0
 11
347.2872396087739
 21
441.469280833682
 31
0.0
  0
LINE
  5
116F
330
2
100
AcDbEntity
  8
HIDS
100
AcDbLine
 10
341.7872396087866
 20
443.640853708927
 30
0.0
 11
341.7872396087739
 21
441.469280833682
 31
0.0
  0
LINE
  5
1170
330
2
100
AcDbEntity
  8
0
100
AcDbLine
 10
345.7872396087757
 20
365.4692808336515
 30
0.0
 11
340.1872396087753
 21
365.4692808336515
 31
0.0
  0
LINE
  5
1171
330
2
100
AcDbEntity
  8
0
100
AcDbLine
 10
345.7872396087757
 20
355.4692808336515
 30
0.0
 11
340.1872396087753
 21
355.4692808336515
 31
0.0
  0
LINE
  5
1172
330
2
100
AcDbEntity
  8
0
100
AcDbLine
 10
345.7872396087757
 20
355.4692808336515
 30
0.0
 11
345.7872396087757
 21
365.4692808336513
 31
0.0
  0
LINE
  5
1173
330
2
100
AcDbEntity
  8
0
100
AcDbLine
 10
339.7872396087757
 20
356.1621011566793
 30
0.0
 11
339.7872396087739
 21
364.7764605106238
 31
0.0
  0
LINE
  5
1174
330
2
100
AcDbEntity
  8
0
100
AcDbLine
 10
340.1872396087735
 20
355.4692808336515
 30
0.0
 11
340.1872396087753
 21
365.4692808336515
 31
0.0
  0
LINE
  5
1175
330
2
100
AcDbEntity
  8
0
100
AcDbLine
 10
340.1872396087753
 20
355.4692808336515
 30
0.0
 11
339.7872396087757
 21
356.1621011566793
 31
0.0
  0
LINE
  5
1176
330
2
100
AcDbEntity
  8
0
100
AcDbLine
 10
340.1872396087753
 20
365.4692808336515
 30
0.0
 11
339.7872396087757
 21
364.7764605106238
 31
0.0
  0
LINE
  5
1177
330
2
100
AcDbEntity
  8
0
100
AcDbLine
 10
345.7872396087739
 20
355.4692808336515
 30
0.0
 11
347.2872396087739
 21
355.4692808336515
 31
0.0
  0
LINE
  5
1178
330
2
100
AcDbEntity
  8
0
100
AcDbLine
 10
345.7872396087757
 20
365.4692808336515
 30
0.0
 11
347.2872396087739
 21
365.4692808336515
 31
0.0
  0
LINE
  5
1179
330
2
100
AcDbEntity
  8
HIDS
100
AcDbLine
 10
346.7014531711472
 20
357.5550672713041
 30
0.0
 11
342.3730260464133
 21
361.8834943960328
 31
0.0
  0
ARC
  5
117A
330
2
100
AcDbEntity
  8
HIDS
100
AcDbCircle
 10
345.2872396087739
 20
356.1408537089303
 30
0.0
 40
2.0
100
AcDbArc
 50
0.0
 51
45.0000000000593
  0
ARC
  5
117B
330
2
100
AcDbEntity
  8
HIDS
100
AcDbCircle
 10
343.7872396087866
 20
363.2977079584066
 30
0.0
 40
2.0
100
AcDbArc
 50
180.0
 51
225.0000000000593
  0
LINE
  5
117C
330
2
100
AcDbEntity
  8
HIDS
100
AcDbLine
 10
341.7872396087866
 20
363.2977079584066
 30
0.0
 11
341.7872396087739
 21
365.4692808336515
 31
0.0
  0
LINE
  5
117D
330
2
100
AcDbEntity
  8
0
100
AcDbLine
 10
341.7872396087739
 20
441.4692808336822
 30
0.0
 11
341.7872396087739
 21
365.4692808336515
 31
0.0
  0
LINE
  5
117E
330
2
100
AcDbEntity
  8
0
100
AcDbLine
 10
334.287239608783
 20
436.4692808336686
 30
0.0
 11
334.287239608783
 21
370.4692808336627
 31
0.0
  0
LINE
  5
117F
330
2
100
AcDbEntity
  8
0
100
AcDbLine
 10
337.9872396087837
 20
370.4692808336654
 30
0.0
 11
337.9872396087837
 21
436.4692808336677
 31
0.0
  0
LINE
  5
1180
330
2
100
AcDbEntity
  8
CENTER
  6
CENS
100
AcDbLine
 10
334.7872396087757
 20
360.4692808336515
 30
0.0
 11
360.8525653940366
 21
360.4692808336515
 31
0.0
  0
LINE
  5
1181
330
2
100
AcDbEntity
  8
CENTER
100
AcDbLine
 10
479.2872396087739
 20
403.4692808336668
 30
0.0
 11
301.2872396088766
 21
403.4692808336668
 31
0.0
  0
LINE
  5
1182
330
2
100
AcDbEntity
  8
0
100
AcDbLine
 10
469.2872396087738
 20
420.4691888336667
 30
0.0
 11
456.2872396087739
 21
420.4691888336667
 31
0.0
  0
LINE
  5
1183
330
2
100
AcDbEntity
  8
0
100
AcDbLine
 10
469.2872396087738
 20
386.4692808336668
 30
0.0
 11
456.2872396087739
 21
386.4692808336668
 31
0.0
  0
LINE
  5
1184
330
2
100
AcDbEntity
  8
0
100
AcDbLine
 10
469.2872396087738
 20
420.4691888336667
 30
0.0
 11
469.2872396087738
 21
386.4692808336668
 31
0.0
  0
LINE
  5
1185
330
2
100
AcDbEntity
  8
0
100
AcDbLine
 10
331.2873466087737
 20
420.4692808336674
 30
0.0
 11
331.2873466087737
 21
386.4692808336672
 31
0.0
  0
LINE
  5
1186
330
2
100
AcDbEntity
  8
0
100
AcDbLine
 10
333.2872396087793
 20
386.4692808336679
 30
0.0
 11
331.2873466087737
 21
386.4692808336679
 31
0.0
  0
LINE
  5
1187
330
2
100
AcDbEntity
  8
0
100
AcDbLine
 10
333.2872396087793
 20
420.4692808336674
 30
0.0
 11
331.2873466087737
 21
420.4692808336674
 31
0.0
  0
ARC
  5
1188
330
2
100
AcDbEntity
  8
0
100
AcDbCircle
 10
620.360725657151
 20
403.4692808336645
 30
0.0
 40
12.15460200000234
100
AcDbArc
 50
104.2894211365818
 51
75.71057886341818
  0
LINE
  5
1189
330
2
100
AcDbEntity
  8
0
100
AcDbLine
 10
203.4177629197845
 20
417.269283833667
 30
0.0
 11
197.4177629197845
 21
417.2692838336673
 31
0.0
  0
LINE
  5
118A
330
2
100
AcDbEntity
  8
0
100
AcDbLine
 10
203.4177629197845
 20
417.269283833667
 30
0.0
 11
203.4177629197845
 21
414.0522860779256
 31
0.0
  0
LINE
  5
118B
330
2
100
AcDbEntity
  8
0
100
AcDbLine
 10
197.4177629197845
 20
417.269283833667
 30
0.0
 11
197.4177629197845
 21
414.0522860779256
 31
0.0
  0
ARC
  5
118C
330
2
100
AcDbEntity
  8
0
100
AcDbCircle
 10
200.4177629197845
 20
403.4692808336672
 30
0.0
 40
11.0
100
AcDbArc
 50
105.8266201318575
 51
74.17337986814252
  0
CIRCLE
  5
118D
330
2
100
AcDbEntity
  8
0
100
AcDbCircle
 10
200.4177629197845
 20
403.4692808336679
 30
0.0
 40
16.99990799998784
  0
ARC
  5
118E
330
2
100
AcDbEntity
  8
0
100
AcDbCircle
 10
200.4177629197845
 20
403.4692808336679
 30
0.0
 40
12.15460200000234
100
AcDbArc
 50
104.2894211365818
 51
75.71057886341818
  0
CIRCLE
  5
118F
330
2
100
AcDbEntity
  8
0
100
AcDbCircle
 10
461.2872396087738
 20
403.4692348336666
 30
0.0
 40
2.0
  0
CIRCLE
  5
1190
330
2
100
AcDbEntity
  8
HOJO
100
AcDbCircle
 10
461.2872396087738
 20
403.4692348336666
 30
0.0
 40
2.5
  0
LINE
  5
1191
330
2
100
AcDbEntity
  8
CENTER
100
AcDbLine
 10
461.2872396087738
 20
408.5748225579487
 30
0.0
 11
461.2872396087738
 21
398.3636471093855
 31
0.0
  0
LINE
  5
1192
330
2
100
AcDbEntity
  8
0
100
AcDbLine
 10
671.3432830573172
 20
713.1793174243516
 30
0.0
 11
670.8432830573163
 21
713.6793174243521
 31
0.0
  0
LINE
  5
1193
330
2
100
AcDbEntity
  8
0
100
AcDbLine
 10
603.3608176571476
 20
599.1793174243403
 30
0.0
 11
603.3608176571476
 21
612.1793174243411
 31
0.0
  0
LINE
  5
1194
330
2
100
AcDbEntity
  8
0
100
AcDbLine
 10
637.3607256571474
 20
599.1793174243403
 30
0.0
 11
637.3607256571474
 21
612.1793174243403
 31
0.0
  0
LINE
  5
1195
330
2
100
AcDbEntity
  8
0
100
AcDbLine
 10
603.3608176571476
 20
599.1793174243403
 30
0.0
 11
637.3607256571474
 21
599.1793174243403
 31
0.0
  0
LINE
  5
1196
330
2
100
AcDbEntity
  8
0
100
AcDbLine
 10
603.3607256571474
 20
737.1792104243404
 30
0.0
 11
637.3607256571474
 21
737.1792104243404
 31
0.0
  0
LINE
  5
1197
330
2
100
AcDbEntity
  8
0
100
AcDbLine
 10
637.3607256571474
 20
735.1793174243357
 30
0.0
 11
637.3607256571474
 21
737.1792104243404
 31
0.0
  0
LINE
  5
1198
330
2
100
AcDbEntity
  8
0
100
AcDbLine
 10
603.3607256571474
 20
735.1793174243348
 30
0.0
 11
603.3607256571474
 21
737.1792104243404
 31
0.0
  0
CIRCLE
  5
1199
330
2
100
AcDbEntity
  8
0
100
AcDbCircle
 10
620.3606796571482
 20
607.1793174243403
 30
0.0
 40
2.0
  0
CIRCLE
  5
119A
330
2
100
AcDbEntity
  8
HOJO
100
AcDbCircle
 10
620.3606796571482
 20
607.1793174243403
 30
0.0
 40
2.5
  0
LINE
  5
119B
330
2
100
AcDbEntity
  8
CENTER
100
AcDbLine
 10
625.4662673814316
 20
607.1793174243403
 30
0.0
 11
615.2550919328684
 21
607.1793174243403
 31
0.0
  0
LINE
  5
119C
330
2
100
AcDbEntity
  8
0
100
AcDbLine
 10
397.7773624673234
 20
208.2727498914094
 30
0.0
 11
403.294777460657
 21
208.3208996426031
 31
0.0
  0
ARC
  5
119D
330
2
100
AcDbEntity
  8
0
100
AcDbCircle
 10
397.7948155383208
 20
206.2728260452812
 30
0.0
 40
2.0
100
AcDbArc
 50
90.50000000001761
 51
180.0
  0
LINE
  5
119E
330
2
100
AcDbEntity
  8
0
100
AcDbLine
 10
397.7773624673234
 20
106.3690498922433
 30
0.0
 11
403.294815538319
 21
106.3208998087512
 31
0.0
  0
ARC
  5
119F
330
2
100
AcDbEntity
  8
0
100
AcDbCircle
 10
397.7948155383208
 20
108.3689737383718
 30
0.0
 40
2.0
100
AcDbArc
 50
180.0
 51
269.4999999999824
  0
LINE
  5
11A1
330
2
100
AcDbEntity
  8
0
100
AcDbLine
 10
671.1007256571481
 20
684.1793174243475
 30
0.0
 11
670.8432830573217
 21
713.6793174243494
 31
0.0
  0
LINE
  5
11A2
330
2
100
AcDbEntity
  8
0
100
AcDbLine
 10
149.9377629197813
 20
360.4692808336663
 30
0.0
 11
149.9377629197813
 21
446.4692808336661
 31
0.0
  0
ARC
  5
11A3
330
2
100
AcDbEntity
  8
0
 48
0.5
100
AcDbCircle
 10
157.9377629197876
 20
446.4692808336661
 30
0.0
 40
8.0
100
AcDbArc
 50
90.0
 51
179.9999999999739
  0
ARC
  5
11A4
330
2
100
AcDbEntity
  8
0
100
AcDbCircle
 10
157.9377629197813
 20
360.4692808336663
 30
0.0
 40
8.0
100
AcDbArc
 50
179.9999999999739
 51
270.0
  0
LINE
  5
11DB
330
2
100
AcDbEntity
  8
0
100
AcDbLine
 10
937.8620634876995
 20
453.7449508070353
 30
0.0
 11
937.8620634876995
 21
353.1936108603018
 31
0.0
  0
LINE
  5
11DC
330
2
100
AcDbEntity
  8
0
100
AcDbLine
 10
932.8620634876996
 20
448.4692808336654
 30
0.0
 11
932.8620634876996
 21
358.4692808336658
 31
0.0
  0
LINE
  5
11DD
330
2
100
AcDbEntity
  8
0
100
AcDbLine
 10
937.8620634876995
 20
448.4692808336654
 30
0.0
 11
932.8620634876996
 21
448.4692808336654
 31
0.0
  0
LINE
  5
11DE
330
2
100
AcDbEntity
  8
0
100
AcDbLine
 10
937.8620634876995
 20
358.4692808336658
 30
0.0
 11
932.8620634876996
 21
358.4692808336658
 31
0.0
  0
LINE
  5
11DF
330
2
100
AcDbEntity
  8
0
100
AcDbLine
 10
918.8620634876995
 20
435.5379032840533
 30
0.0
 11
918.8620634876995
 21
371.4006583832802
 31
0.0
  0
LINE
  5
11E0
330
2
100
AcDbEntity
  8
0
100
AcDbLine
 10
930.9318624811028
 20
437.8907675021269
 30
0.0
 11
920.7922644942943
 21
437.5366849380912
 31
0.0
  0
ARC
  5
11E1
330
2
100
AcDbEntity
  8
0
100
AcDbCircle
 10
930.8620634876994
 20
439.8895491561648
 30
0.0
 40
2.0
100
AcDbArc
 50
272.0000000000036
 51
0.0
  0
ARC
  5
11E2
330
2
100
AcDbEntity
  8
0
100
AcDbCircle
 10
920.8620634876995
 20
435.5379032840533
 30
0.0
 40
2.0
100
AcDbArc
 50
92.00000000000365
 51
180.0
  0
LINE
  5
11E3
330
2
100
AcDbEntity
  8
0
100
AcDbLine
 10
930.9318624811046
 20
369.0477941652066
 30
0.0
 11
920.7922644942943
 21
369.4018767292423
 31
0.0
  0
ARC
  5
11E4
330
2
100
AcDbEntity
  8
0
100
AcDbCircle
 10
930.8620634876994
 20
367.0490125111687
 30
0.0
 40
2.0
100
AcDbArc
 50
0.0
 51
87.99999999999636
  0
ARC
  5
11E5
330
2
100
AcDbEntity
  8
0
100
AcDbCircle
 10
920.8620634876995
 20
371.4006583832802
 30
0.0
 40
2.0
100
AcDbArc
 50
180.0
 51
267.9999999999963
  0
LINE
  5
11E6
330
2
100
AcDbEntity
  8
0
100
AcDbLine
 10
1041.862063487692
 20
446.5473277479492
 30
0.0
 11
1041.862063487692
 21
360.3912339194008
 31
0.0
  0
LINE
  5
11E7
330
2
100
AcDbEntity
  8
0
100
AcDbLine
 10
939.8620634876921
 20
446.54732774795
 30
0.0
 11
939.8620634876921
 21
360.3912339193998
 31
0.0
  0
ARC
  5
11E8
330
2
100
AcDbEntity
  8
0
100
AcDbCircle
 10
947.8620634876921
 20
360.3912339193998
 30
0.0
 40
8.0
100
AcDbArc
 50
180.0
 51
269.4382946674683
  0
LINE
  5
11E9
330
2
100
AcDbEntity
  8
0
100
AcDbLine
 10
990.8620634876923
 20
454.9692808336744
 30
0.0
 11
1033.940491091224
 21
454.5469433081493
 31
0.0
  0
ARC
  5
11EA
330
2
100
AcDbEntity
  8
0
100
AcDbCircle
 10
1033.862063487692
 20
446.5473277479492
 30
0.0
 40
8.0
100
AcDbArc
 50
0.0
 51
89.43829466741624
  0
LINE
  5
11EB
330
2
100
AcDbEntity
  8
0
100
AcDbLine
 10
990.8620634876923
 20
454.9692808336744
 30
0.0
 11
947.7836358841621
 21
454.5469433081502
 31
0.0
  0
ARC
  5
11EC
330
2
100
AcDbEntity
  8
0
100
AcDbCircle
 10
947.8620634876921
 20
446.54732774795
 30
0.0
 40
8.0
100
AcDbArc
 50
90.56170533253165
 51
180.0
  0
LINE
  5
11ED
330
2
100
AcDbEntity
  8
0
100
AcDbLine
 10
990.8620634876923
 20
351.9692808336754
 30
0.0
 11
1033.940491091224
 21
352.3916183592005
 31
0.0
  0
ARC
  5
11EE
330
2
100
AcDbEntity
  8
0
100
AcDbCircle
 10
1033.862063487692
 20
360.3912339194008
 30
0.0
 40
8.0
100
AcDbArc
 50
270.5617053325316
 51
0.0
  0
LINE
  5
11EF
330
2
100
AcDbEntity
  8
0
100
AcDbLine
 10
990.8620634876923
 20
351.9692808336754
 30
0.0
 11
947.7836358841621
 21
352.3916183591996
 31
0.0
  0
LINE
  5
11F0
330
2
100
AcDbEntity
  8
0
100
AcDbLine
 10
944.4919004652245
 20
453.8028085178134
 30
0.0
 11
937.8620634876995
 21
453.7449508070353
 31
0.0
  0
LINE
  5
11F1
330
2
100
AcDbEntity
  8
0
100
AcDbLine
 10
944.4919004652245
 20
353.1357531495237
 30
0.0
 11
937.8620634876995
 21
353.1936108603018
 31
0.0
  0
LINE
  5
11F2
330
2
100
AcDbEntity
  8
CENTER
100
AcDbLine
 10
990.8620634876923
 20
464.9692808336745
 30
0.0
 11
990.8620634876923
 21
341.9692808336754
 31
0.0
  0
LINE
  5
11F3
330
2
100
AcDbEntity
  8
CENTER
100
AcDbLine
 10
895.8620634876849
 20
403.4692808336668
 30
0.0
 11
1053.861956487685
 21
403.4692808336668
 31
0.0
  0
LINE
  5
11F4
330
2
100
AcDbEntity
  8
0
100
AcDbLine
 10
905.8620634876849
 20
420.4691888336752
 30
0.0
 11
918.8620634876849
 21
420.4691888336752
 31
0.0
  0
LINE
  5
11F5
330
2
100
AcDbEntity
  8
0
100
AcDbLine
 10
905.8620634876849
 20
386.4692808336752
 30
0.0
 11
918.8620634876849
 21
386.4692808336752
 31
0.0
  0
LINE
  5
11F6
330
2
100
AcDbEntity
  8
0
100
AcDbLine
 10
905.8620634876849
 20
420.4691888336752
 30
0.0
 11
905.8620634876849
 21
386.4692808336752
 31
0.0
  0
LINE
  5
11F7
330
2
100
AcDbEntity
  8
0
100
AcDbLine
 10
1043.861956487685
 20
420.4692808336758
 30
0.0
 11
1043.861956487685
 21
386.4692808336759
 31
0.0
  0
LINE
  5
11F8
330
2
100
AcDbEntity
  8
0
100
AcDbLine
 10
1041.862063487681
 20
386.4692808336763
 30
0.0
 11
1043.861956487685
 21
386.4692808336763
 31
0.0
  0
LINE
  5
11F9
330
2
100
AcDbEntity
  8
0
100
AcDbLine
 10
1041.862063487679
 20
420.4692808336758
 30
0.0
 11
1043.861956487685
 21
420.4692808336758
 31
0.0
  0
LINE
  5
11FA
330
2
100
AcDbEntity
  8
CENTER
100
AcDbLine
 10
1024.792063487692
 20
445.899280833667
 30
0.0
 11
1041.792063487692
 21
445.899280833667
 31
0.0
  0
LINE
  5
11FB
330
2
100
AcDbEntity
  8
0
100
AcDbLine
 10
947.8620634876941
 20
454.4692808336667
 30
0.0
 11
1033.862063487692
 21
454.4692808336667
 31
0.0
  0
LINE
  5
11FC
330
2
100
AcDbEntity
  8
CENTER
100
AcDbLine
 10
1024.792063487692
 20
361.0392808336669
 30
0.0
 11
1041.792063487692
 21
361.0392808336669
 31
0.0
  0
ARC
  5
11FD
330
2
100
AcDbEntity
  8
0
100
AcDbCircle
 10
1017.862063487692
 20
376.4692808336667
 30
0.0
 40
15.0
100
AcDbArc
 50
270.0
 51
0.0
  0
ARC
  5
11FE
330
2
100
AcDbEntity
  8
0
100
AcDbCircle
 10
1017.86206348769
 20
376.4692808336667
 30
0.0
 40
13.0
100
AcDbArc
 50
270.0
 51
0.0
  0
LINE
  5
11FF
330
2
100
AcDbEntity
  8
0
100
AcDbLine
 10
947.8620634876921
 20
352.4692808336668
 30
0.0
 11
1033.862063487692
 21
352.4692808336668
 31
0.0
  0
ARC
  5
1200
330
2
100
AcDbEntity
  8
0
100
AcDbCircle
 10
1017.86206348769
 20
430.4692808336668
 30
0.0
 40
13.0
100
AcDbArc
 50
0.0
 51
90.0
  0
ARC
  5
1201
330
2
100
AcDbEntity
  8
0
100
AcDbCircle
 10
1017.862063487692
 20
430.4692808336668
 30
0.0
 40
15.0
100
AcDbArc
 50
0.0
 51
90.0
  0
LINE
  5
1202
330
2
100
AcDbEntity
  8
0
100
AcDbLine
 10
1030.86206348769
 20
430.4692808336668
 30
0.0
 11
1030.86206348769
 21
376.4692808336667
 31
0.0
  0
LINE
  5
1203
330
2
100
AcDbEntity
  8
0
100
AcDbLine
 10
950.8620634876923
 20
430.4692808336668
 30
0.0
 11
950.8620634876923
 21
376.4692808336667
 31
0.0
  0
LINE
  5
1204
330
2
100
AcDbEntity
  8
0
100
AcDbLine
 10
948.8620634876921
 20
430.4692808336668
 30
0.0
 11
948.8620634876921
 21
376.4692808336667
 31
0.0
  0
LINE
  5
1205
330
2
100
AcDbEntity
  8
CENTER
100
AcDbLine
 10
1022.681868641086
 20
364.1494756802722
 30
0.0
 11
1022.681868641086
 21
379.1494756802722
 31
0.0
  0
LINE
  5
1206
330
2
100
AcDbEntity
  8
CENTER
100
AcDbLine
 10
959.0422583342977
 20
364.1494756802722
 30
0.0
 11
959.0422583342977
 21
379.1494756802722
 31
0.0
  0
ARC
  5
1207
330
2
100
AcDbEntity
  8
0
100
AcDbCircle
 10
963.8620634876922
 20
376.4692808336667
 30
0.0
 40
15.0
100
AcDbArc
 50
180.0
 51
270.0
  0
ARC
  5
1208
330
2
100
AcDbEntity
  8
0
100
AcDbCircle
 10
963.8620634876922
 20
376.4692808336667
 30
0.0
 40
13.0
100
AcDbArc
 50
180.0
 51
270.0
  0
LINE
  5
1209
330
2
100
AcDbEntity
  8
0
100
AcDbLine
 10
963.8620634876922
 20
361.4692808336668
 30
0.0
 11
1017.862063487692
 21
361.4692808336668
 31
0.0
  0
LINE
  5
120A
330
2
100
AcDbEntity
  8
0
100
AcDbLine
 10
963.8620634876922
 20
363.4692808336668
 30
0.0
 11
1017.86206348769
 21
363.4692808336668
 31
0.0
  0
ARC
  5
120B
330
2
100
AcDbEntity
  8
0
100
AcDbCircle
 10
947.8620634876921
 20
360.4692808336668
 30
0.0
 40
8.0
100
AcDbArc
 50
180.0
 51
270.0
  0
LINE
  5
120C
330
2
100
AcDbEntity
  8
CENTER
100
AcDbLine
 10
948.4320634876919
 20
352.5392808336669
 30
0.0
 11
948.4320634876919
 21
369.5392808336669
 31
0.0
  0
LINE
  5
120D
330
2
100
AcDbEntity
  8
CENTER
100
AcDbLine
 10
956.932063487692
 20
361.0392808336669
 30
0.0
 11
939.932063487692
 21
361.0392808336669
 31
0.0
  0
LINE
  5
120E
330
2
100
AcDbEntity
  8
CENTER
100
AcDbLine
 10
966.5422583342976
 20
371.6494756802722
 30
0.0
 11
951.5422583342976
 21
371.6494756802722
 31
0.0
  0
LINE
  5
120F
330
2
100
AcDbEntity
  8
CENTER
100
AcDbLine
 10
1015.181868641086
 20
371.6494756802722
 30
0.0
 11
1030.181868641086
 21
371.6494756802722
 31
0.0
  0
LINE
  5
1210
330
2
100
AcDbEntity
  8
0
100
AcDbLine
 10
963.8620634876922
 20
445.4692808336668
 30
0.0
 11
1017.862063487692
 21
445.4692808336668
 31
0.0
  0
LINE
  5
1211
330
2
100
AcDbEntity
  8
0
100
AcDbLine
 10
963.8620634876922
 20
443.4692808336667
 30
0.0
 11
1017.86206348769
 21
443.4692808336667
 31
0.0
  0
ARC
  5
1212
330
2
100
AcDbEntity
  8
0
100
AcDbCircle
 10
947.8620634876941
 20
446.4692808336668
 30
0.0
 40
8.0
100
AcDbArc
 50
90.0
 51
180.0
  0
LINE
  5
1213
330
2
100
AcDbEntity
  8
CENTER
100
AcDbLine
 10
948.4320634876919
 20
454.399280833667
 30
0.0
 11
948.4320634876919
 21
437.399280833667
 31
0.0
  0
ARC
  5
1214
330
2
100
AcDbEntity
  8
0
100
AcDbCircle
 10
963.8620634876922
 20
430.4692808336668
 30
0.0
 40
15.0
100
AcDbArc
 50
90.0
 51
180.0
  0
LINE
  5
1215
330
2
100
AcDbEntity
  8
CENTER
100
AcDbLine
 10
966.5422583342976
 20
435.2890859870618
 30
0.0
 11
951.5422583342976
 21
435.2890859870618
 31
0.0
  0
ARC
  5
1216
330
2
100
AcDbEntity
  8
0
100
AcDbCircle
 10
963.8620634876922
 20
430.4692808336668
 30
0.0
 40
13.0
100
AcDbArc
 50
90.0
 51
180.0
  0
LINE
  5
1217
330
2
100
AcDbEntity
  8
CENTER
100
AcDbLine
 10
959.0422583342977
 20
442.7890859870617
 30
0.0
 11
959.0422583342977
 21
427.7890859870618
 31
0.0
  0
LINE
  5
1218
330
2
100
AcDbEntity
  8
CENTER
100
AcDbLine
 10
956.932063487692
 20
445.899280833667
 30
0.0
 11
939.932063487692
 21
445.899280833667
 31
0.0
  0
LINE
  5
1219
330
2
100
AcDbEntity
  8
CENTER
100
AcDbLine
 10
1022.681868641086
 20
442.7890859870617
 30
0.0
 11
1022.681868641086
 21
427.7890859870618
 31
0.0
  0
LINE
  5
121A
330
2
100
AcDbEntity
  8
CENTER
100
AcDbLine
 10
1015.181868641086
 20
435.2890859870618
 30
0.0
 11
1030.181868641086
 21
435.2890859870618
 31
0.0
  0
LINE
  5
121B
330
2
100
AcDbEntity
  8
0
100
AcDbLine
 10
1032.862063487692
 20
430.4692808336668
 30
0.0
 11
1032.862063487692
 21
376.4692808336667
 31
0.0
  0
ARC
  5
121C
330
2
100
AcDbEntity
  8
0
100
AcDbCircle
 10
1033.862063487692
 20
360.4692808336668
 30
0.0
 40
8.0
100
AcDbArc
 50
270.0
 51
0.0
  0
LINE
  5
121D
330
2
100
AcDbEntity
  8
CENTER
100
AcDbLine
 10
1033.292063487692
 20
352.5392808336669
 30
0.0
 11
1033.292063487692
 21
369.5392808336669
 31
0.0
  0
ARC
  5
121E
330
2
100
AcDbEntity
  8
0
100
AcDbCircle
 10
1033.862063487692
 20
446.4692808336668
 30
0.0
 40
8.0
100
AcDbArc
 50
0.0
 51
90.0
  0
LINE
  5
121F
330
2
100
AcDbEntity
  8
CENTER
100
AcDbLine
 10
1033.292063487692
 20
454.399280833667
 30
0.0
 11
1033.292063487692
 21
437.399280833667
 31
0.0
  0
LINE
  5
1220
330
2
100
AcDbEntity
  8
0
100
AcDbLine
 10
765.360747657153
 20
642.1793174243503
 30
0.0
 11
765.360747657153
 21
665.0562117987346
 31
0.0
  0
LINE
  5
1221
330
2
100
AcDbEntity
  8
0
100
AcDbLine
 10
765.360747657153
 20
673.3024230499595
 30
0.0
 11
765.360747657153
 21
726.1793174243439
 31
0.0
  0
LINE
  5
1222
330
2
100
AcDbEntity
  8
0
100
AcDbLine
 10
767.3607476571531
 20
644.1094971646348
 30
0.0
 11
767.3607476571512
 21
724.2491376840598
 31
0.0
  0
LINE
  5
1223
330
2
100
AcDbEntity
  8
0
100
AcDbLine
 10
731.3607476571494
 20
634.301531651804
 30
0.0
 11
731.3607476571512
 21
734.0571031968902
 31
0.0
  0
LINE
  5
1224
330
2
100
AcDbEntity
  8
0
100
AcDbLine
 10
767.3607476571512
 20
724.2491376840598
 30
0.0
 11
765.3607476571494
 21
726.1793174243466
 31
0.0
  0
LINE
  5
1225
330
2
100
AcDbEntity
  8
0
100
AcDbLine
 10
771.3607476571494
 20
724.1793174243467
 30
0.0
 11
767.3607476571512
 21
724.2491376840598
 31
0.0
  0
LINE
  5
1226
330
2
100
AcDbEntity
  8
0
100
AcDbLine
 10
716.3607476571494
 20
735.1793174243466
 30
0.0
 11
730.369474192649
 21
735.057065119955
 31
0.0
  0
LINE
  5
1227
330
2
100
AcDbEntity
  8
0
100
AcDbLine
 10
765.3607476571494
 20
726.1793174243466
 30
0.0
 11
738.3607476571494
 21
726.3363988292431
 31
0.0
  0
LINE
  5
1228
330
2
100
AcDbEntity
  8
0
100
AcDbLine
 10
767.3607476571531
 20
644.1094971646348
 30
0.0
 11
765.360747657153
 21
642.1793174243503
 31
0.0
  0
LINE
  5
1229
330
2
100
AcDbEntity
  8
0
100
AcDbLine
 10
771.3607476571494
 20
644.1793174243476
 30
0.0
 11
767.3607476571531
 21
644.1094971646348
 31
0.0
  0
LINE
  5
122A
330
2
100
AcDbEntity
  8
0
100
AcDbLine
 10
716.3607476571494
 20
633.1793174243475
 30
0.0
 11
730.369474192649
 21
633.30156972874
 31
0.0
  0
LINE
  5
122B
330
2
100
AcDbEntity
  8
0
100
AcDbLine
 10
765.3607476571512
 20
642.1793174243475
 30
0.0
 11
738.3607476571494
 21
642.0222360194521
 31
0.0
  0
CIRCLE
  5
122C
330
2
100
AcDbEntity
  8
0
100
AcDbCircle
 10
990.8620634876923
 20
403.4692808336668
 30
0.0
 40
34.99999999953029
  0
ARC
  5
122D
330
2
100
AcDbEntity
  8
0
100
AcDbCircle
 10
730.3607476571494
 20
634.301531651804
 30
0.0
 40
1.0
100
AcDbArc
 50
270.4999999999654
 51
0.0
  0
ARC
  5
122E
330
2
100
AcDbEntity
  8
0
100
AcDbCircle
 10
730.3607476571512
 20
734.0571031968902
 30
0.0
 40
1.0
100
AcDbArc
 50
0.0
 51
89.5000000000345
  0
LINE
  5
122F
330
2
100
AcDbEntity
  8
0
100
AcDbLine
 10
771.3607476571494
 20
644.1793174243476
 30
0.0
 11
771.3607476571494
 21
724.1793174243467
 31
0.0
  0
CIRCLE
  5
1230
330
2
100
AcDbEntity
  8
CENTER
100
AcDbCircle
 10
990.8620634876923
 20
403.4692808336668
 30
0.0
 40
45.0
  0
LINE
  5
1231
330
2
100
AcDbEntity
  8
HIDS
100
AcDbLine
 10
982.1120634876923
 20
445.4692808336668
 30
0.0
 11
982.1120634876931
 21
431.1177437204169
 31
0.0
  0
LINE
  5
1232
330
2
100
AcDbEntity
  8
HIDS
100
AcDbLine
 10
969.6120634876923
 20
445.4692808336668
 30
0.0
 11
969.6120634876923
 21
423.2034517055331
 31
0.0
  0
LINE
  5
1233
330
2
100
AcDbEntity
  8
0
100
AcDbLine
 10
765.360747657153
 20
445.4692808336635
 30
0.0
 11
765.360747657153
 21
441.9685811491994
 31
0.0
  0
LINE
  5
1234
330
2
100
AcDbEntity
  8
0
100
AcDbLine
 10
767.3607476571531
 20
443.5391010933794
 30
0.0
 11
767.3607476571531
 21
443.3497893202306
 31
0.0
  0
LINE
  5
1235
330
2
100
AcDbEntity
  8
0
100
AcDbLine
 10
731.3607476571494
 20
453.3470666062099
 30
0.0
 11
731.3607476571512
 21
414.5119818391503
 31
0.0
  0
LINE
  5
1236
330
2
100
AcDbEntity
  8
0
100
AcDbLine
 10
731.3607476571512
 20
403.4692808336666
 30
0.0
 11
731.3607476571512
 21
353.5914950611235
 31
0.0
  0
LINE
  5
1237
330
2
100
AcDbEntity
  8
0
100
AcDbLine
 10
767.3607476571512
 20
363.3994605739544
 30
0.0
 11
765.3607476571494
 21
361.4692808336671
 31
0.0
  0
LINE
  5
1238
330
2
100
AcDbEntity
  8
0
100
AcDbLine
 10
771.3607476571494
 20
363.4692808336671
 30
0.0
 11
767.3607476571512
 21
363.3994605739544
 31
0.0
  0
LINE
  5
1239
330
2
100
AcDbEntity
  8
0
100
AcDbLine
 10
716.3607476571494
 20
352.4692808336671
 30
0.0
 11
730.369474192649
 21
352.5915331380592
 31
0.0
  0
LINE
  5
123A
330
2
100
AcDbEntity
  8
0
100
AcDbLine
 10
765.3607476571494
 20
361.4692808336671
 30
0.0
 11
738.3607476571494
 21
361.3121994287711
 31
0.0
  0
LINE
  5
123B
330
2
100
AcDbEntity
  8
0
100
AcDbLine
 10
767.3607476571531
 20
443.5391010933794
 30
0.0
 11
765.360747657153
 21
445.4692808336635
 31
0.0
  0
LINE
  5
123C
330
2
100
AcDbEntity
  8
0
100
AcDbLine
 10
771.3607476571494
 20
443.4692808336662
 30
0.0
 11
767.3607476571531
 21
443.5391010933794
 31
0.0
  0
LINE
  5
123D
330
2
100
AcDbEntity
  8
0
100
AcDbLine
 10
716.3607476571494
 20
454.4692808336662
 30
0.0
 11
730.369474192649
 21
454.3470285292742
 31
0.0
  0
LINE
  5
123E
330
2
100
AcDbEntity
  8
0
100
AcDbLine
 10
766.3605953298326
 20
445.4634638900701
 30
0.0
 11
738.3607476571494
 21
445.6263622385622
 31
0.0
  0
ARC
  5
123F
330
2
100
AcDbEntity
  8
0
100
AcDbCircle
 10
730.3607476571494
 20
453.3470666062099
 30
0.0
 40
1.0
100
AcDbArc
 50
0.0
 51
89.5000000000345
  0
ARC
  5
1240
330
2
100
AcDbEntity
  8
0
100
AcDbCircle
 10
730.3607476571512
 20
353.5914950611235
 30
0.0
 40
1.0
100
AcDbArc
 50
270.4999999999654
 51
0.0
  0
LINE
  5
1241
330
2
100
AcDbEntity
  8
0
100
AcDbLine
 10
771.3607476571494
 20
443.4692808336662
 30
0.0
 11
771.3607476571494
 21
363.4692808336671
 31
0.0
  0
CIRCLE
  5
1242
330
2
100
AcDbEntity
  8
0
100
AcDbCircle
 10
948.4320634876919
 20
445.899280833667
 30
0.0
 40
5.0
  0
CIRCLE
  5
1243
330
2
100
AcDbEntity
  8
0
100
AcDbCircle
 10
948.4320634876919
 20
445.899280833667
 30
0.0
 40
4.307179676972423
  0
CIRCLE
  5
1244
330
2
100
AcDbEntity
  8
0
100
AcDbCircle
 10
948.4320634876919
 20
445.899280833667
 30
0.0
 40
2.886751345948113
  0
LWPOLYLINE
  5
1245
330
2
100
AcDbEntity
  8
0
100
AcDbPolyline
 90
        6
 70
     1
 43
0.0
 10
950.9320634876919
 20
447.3426565066411
 10
948.4320634876919
 20
448.7860321796152
 10
945.9320634876918
 20
447.3426565066411
 10
945.9320634876918
 20
444.455905160693
 10
948.4320634876919
 20
443.0125294877189
 10
950.9320634876919
 20
444.455905160693
  0
CIRCLE
  5
1246
330
2
100
AcDbEntity
  8
0
100
AcDbCircle
 10
1033.292063487692
 20
445.899280833667
 30
0.0
 40
5.0
  0
CIRCLE
  5
1247
330
2
100
AcDbEntity
  8
0
100
AcDbCircle
 10
1033.292063487692
 20
445.899280833667
 30
0.0
 40
4.307179676972423
  0
CIRCLE
  5
1248
330
2
100
AcDbEntity
  8
0
100
AcDbCircle
 10
1033.292063487692
 20
445.899280833667
 30
0.0
 40
2.886751345948113
  0
LWPOLYLINE
  5
1249
330
2
100
AcDbEntity
  8
0
100
AcDbPolyline
 90
        6
 70
     1
 43
0.0
 10
1035.792063487692
 20
447.3426565066411
 10
1033.292063487692
 20
448.7860321796152
 10
1030.792063487692
 20
447.3426565066411
 10
1030.792063487692
 20
444.455905160693
 10
1033.292063487692
 20
443.0125294877189
 10
1035.792063487692
 20
444.455905160693
  0
CIRCLE
  5
124A
330
2
100
AcDbEntity
  8
0
100
AcDbCircle
 10
1033.292063487692
 20
361.0392808336669
 30
0.0
 40
5.0
  0
CIRCLE
  5
124B
330
2
100
AcDbEntity
  8
0
100
AcDbCircle
 10
1033.292063487692
 20
361.0392808336669
 30
0.0
 40
4.307179676972423
  0
CIRCLE
  5
124C
330
2
100
AcDbEntity
  8
0
100
AcDbCircle
 10
1033.292063487692
 20
361.0392808336669
 30
0.0
 40
2.886751345948113
  0
LWPOLYLINE
  5
124D
330
2
100
AcDbEntity
  8
0
100
AcDbPolyline
 90
        6
 70
     1
 43
0.0
 10
1035.792063487692
 20
362.482656506641
 10
1033.292063487692
 20
363.9260321796151
 10
1030.792063487692
 20
362.482656506641
 10
1030.792063487692
 20
359.5959051606929
 10
1033.292063487692
 20
358.1525294877188
 10
1035.792063487692
 20
359.5959051606929
  0
CIRCLE
  5
124E
330
2
100
AcDbEntity
  8
0
100
AcDbCircle
 10
948.4320634876919
 20
361.0392808336669
 30
0.0
 40
5.0
  0
CIRCLE
  5
124F
330
2
100
AcDbEntity
  8
0
100
AcDbCircle
 10
948.4320634876919
 20
361.0392808336669
 30
0.0
 40
4.307179676972423
  0
CIRCLE
  5
1250
330
2
100
AcDbEntity
  8
0
100
AcDbCircle
 10
948.4320634876919
 20
361.0392808336669
 30
0.0
 40
2.886751345948113
  0
LWPOLYLINE
  5
1251
330
2
100
AcDbEntity
  8
0
100
AcDbPolyline
 90
        6
 70
     1
 43
0.0
 10
950.9320634876919
 20
362.482656506641
 10
948.4320634876919
 20
363.9260321796151
 10
945.9320634876918
 20
362.482656506641
 10
945.9320634876918
 20
359.5959051606929
 10
948.4320634876919
 20
358.1525294877188
 10
950.9320634876919
 20
359.5959051606929
  0
LINE
  5
1252
330
2
100
AcDbEntity
  8
0
100
AcDbLine
 10
737.9607476571497
 20
440.8992808336665
 30
0.0
 11
738.3607476571494
 21
441.5921011566947
 31
0.0
  0
LINE
  5
1253
330
2
100
AcDbEntity
  8
0
100
AcDbLine
 10
737.9607476571497
 20
440.8992808336665
 30
0.0
 11
737.9607476571497
 21
450.8992808336665
 31
0.0
  0
LINE
  5
1254
330
2
100
AcDbEntity
  8
0
100
AcDbLine
 10
732.3607476571494
 20
440.8992808336665
 30
0.0
 11
732.3607476571494
 21
450.8992808336665
 31
0.0
  0
LINE
  5
1255
330
2
100
AcDbEntity
  8
0
100
AcDbLine
 10
732.3607476571494
 20
450.8992808336665
 30
0.0
 11
731.3607476571494
 21
450.8992808336665
 31
0.0
  0
LINE
  5
1256
330
2
100
AcDbEntity
  8
0
100
AcDbLine
 10
731.3607476571494
 20
450.8992808336665
 30
0.0
 11
731.3607476571494
 21
440.8992808336665
 31
0.0
  0
LINE
  5
1257
330
2
100
AcDbEntity
  8
0
100
AcDbLine
 10
731.3607476571494
 20
440.8992808336665
 30
0.0
 11
732.3607476571494
 21
440.8992808336665
 31
0.0
  0
LINE
  5
1258
330
2
100
AcDbEntity
  8
0
100
AcDbLine
 10
732.3607476571494
 20
440.8992808336665
 30
0.0
 11
732.3607476571494
 21
450.8992808336665
 31
0.0
  0
LINE
  5
1259
330
2
100
AcDbEntity
  8
0
100
AcDbLine
 10
737.9607476571497
 20
440.8992808336665
 30
0.0
 11
732.3607476571494
 21
440.8992808336665
 31
0.0
  0
LINE
  5
125A
330
2
100
AcDbEntity
  8
0
100
AcDbLine
 10
738.3607476571494
 20
450.2064605106392
 30
0.0
 11
738.3607476571494
 21
441.5921011566947
 31
0.0
  0
LINE
  5
125B
330
2
100
AcDbEntity
  8
0
100
AcDbLine
 10
732.3607476571494
 20
450.8992808336665
 30
0.0
 11
737.9607476571497
 21
450.8992808336665
 31
0.0
  0
LINE
  5
125C
330
2
100
AcDbEntity
  8
0
100
AcDbLine
 10
737.9607476571497
 20
450.8992808336669
 30
0.0
 11
738.3607476571494
 21
450.2064605106392
 31
0.0
  0
LINE
  5
125D
330
2
100
AcDbEntity
  8
CENTER
  6
CENS
100
AcDbLine
 10
711.3607476571494
 20
445.8992808336665
 30
0.0
 11
743.3607476571494
 21
445.8992808336665
 31
0.0
  0
LINE
  5
125E
330
2
100
AcDbEntity
  8
0
100
AcDbLine
 10
737.9607476571497
 20
366.0392808336668
 30
0.0
 11
738.3607476571494
 21
365.3464605106391
 31
0.0
  0
LINE
  5
125F
330
2
100
AcDbEntity
  8
0
100
AcDbLine
 10
737.9607476571497
 20
366.0392808336668
 30
0.0
 11
737.9607476571497
 21
356.0392808336668
 31
0.0
  0
LINE
  5
1260
330
2
100
AcDbEntity
  8
0
100
AcDbLine
 10
732.3607476571494
 20
366.0392808336668
 30
0.0
 11
732.3607476571494
 21
356.0392808336668
 31
0.0
  0
LINE
  5
1261
330
2
100
AcDbEntity
  8
0
100
AcDbLine
 10
732.3607476571494
 20
356.0392808336668
 30
0.0
 11
731.3607476571494
 21
356.0392808336668
 31
0.0
  0
LINE
  5
1262
330
2
100
AcDbEntity
  8
0
100
AcDbLine
 10
731.3607476571494
 20
356.0392808336668
 30
0.0
 11
731.3607476571494
 21
366.0392808336668
 31
0.0
  0
LINE
  5
1263
330
2
100
AcDbEntity
  8
0
100
AcDbLine
 10
731.3607476571494
 20
366.0392808336668
 30
0.0
 11
732.3607476571494
 21
366.0392808336668
 31
0.0
  0
LINE
  5
1264
330
2
100
AcDbEntity
  8
0
100
AcDbLine
 10
732.3607476571494
 20
366.0392808336668
 30
0.0
 11
732.3607476571494
 21
356.0392808336668
 31
0.0
  0
LINE
  5
1265
330
2
100
AcDbEntity
  8
0
100
AcDbLine
 10
737.9607476571497
 20
366.0392808336668
 30
0.0
 11
732.3607476571494
 21
366.0392808336668
 31
0.0
  0
LINE
  5
1266
330
2
100
AcDbEntity
  8
0
100
AcDbLine
 10
738.3607476571494
 20
356.7321011566941
 30
0.0
 11
738.3607476571494
 21
365.3464605106391
 31
0.0
  0
LINE
  5
1267
330
2
100
AcDbEntity
  8
0
100
AcDbLine
 10
732.3607476571494
 20
356.0392808336668
 30
0.0
 11
737.9607476571497
 21
356.0392808336668
 31
0.0
  0
LINE
  5
1268
330
2
100
AcDbEntity
  8
0
100
AcDbLine
 10
737.9607476571497
 20
356.0392808336668
 30
0.0
 11
738.3607476571494
 21
356.7321011566941
 31
0.0
  0
LINE
  5
1269
330
2
100
AcDbEntity
  8
CENTER
  6
CENS
100
AcDbLine
 10
711.3607476571494
 20
361.0392808336668
 30
0.0
 11
743.3607476571494
 21
361.0392808336668
 31
0.0
  0
LINE
  5
126A
330
2
100
AcDbEntity
  8
0
100
AcDbLine
 10
737.9607476571497
 20
646.7493174243473
 30
0.0
 11
738.3607476571494
 21
646.05649710132
 31
0.0
  0
LINE
  5
126B
330
2
100
AcDbEntity
  8
0
100
AcDbLine
 10
737.9607476571497
 20
646.7493174243473
 30
0.0
 11
737.9607476571497
 21
636.7493174243472
 31
0.0
  0
LINE
  5
126C
330
2
100
AcDbEntity
  8
0
100
AcDbLine
 10
732.3607476571494
 20
646.7493174243473
 30
0.0
 11
732.3607476571494
 21
636.7493174243472
 31
0.0
  0
LINE
  5
126D
330
2
100
AcDbEntity
  8
0
100
AcDbLine
 10
732.3607476571494
 20
636.7493174243472
 30
0.0
 11
731.3607476571494
 21
636.7493174243472
 31
0.0
  0
LINE
  5
126E
330
2
100
AcDbEntity
  8
0
100
AcDbLine
 10
731.3607476571494
 20
636.7493174243472
 30
0.0
 11
731.3607476571494
 21
646.7493174243473
 31
0.0
  0
LINE
  5
126F
330
2
100
AcDbEntity
  8
0
100
AcDbLine
 10
731.3607476571494
 20
646.7493174243473
 30
0.0
 11
732.3607476571494
 21
646.7493174243473
 31
0.0
  0
LINE
  5
1270
330
2
100
AcDbEntity
  8
0
100
AcDbLine
 10
732.3607476571494
 20
646.7493174243473
 30
0.0
 11
732.3607476571494
 21
636.7493174243472
 31
0.0
  0
LINE
  5
1271
330
2
100
AcDbEntity
  8
0
100
AcDbLine
 10
737.9607476571497
 20
646.7493174243473
 30
0.0
 11
732.3607476571494
 21
646.7493174243473
 31
0.0
  0
LINE
  5
1272
330
2
100
AcDbEntity
  8
0
100
AcDbLine
 10
738.3607476571494
 20
637.4421377473745
 30
0.0
 11
738.3607476571494
 21
646.05649710132
 31
0.0
  0
LINE
  5
1273
330
2
100
AcDbEntity
  8
0
100
AcDbLine
 10
732.3607476571494
 20
636.7493174243472
 30
0.0
 11
737.9607476571497
 21
636.7493174243472
 31
0.0
  0
LINE
  5
1274
330
2
100
AcDbEntity
  8
0
100
AcDbLine
 10
737.9607476571497
 20
636.7493174243472
 30
0.0
 11
738.3607476571494
 21
637.4421377473745
 31
0.0
  0
LINE
  5
1275
330
2
100
AcDbEntity
  8
CENTER
  6
CENS
100
AcDbLine
 10
711.3607476571494
 20
641.7493174243473
 30
0.0
 11
743.3607476571494
 21
641.7493174243473
 31
0.0
  0
LINE
  5
1276
330
2
100
AcDbEntity
  8
0
100
AcDbLine
 10
737.9607476571497
 20
721.6093174243469
 30
0.0
 11
738.3607476571494
 21
722.3021377473751
 31
0.0
  0
LINE
  5
1277
330
2
100
AcDbEntity
  8
0
100
AcDbLine
 10
737.9607476571497
 20
721.6093174243469
 30
0.0
 11
737.9607476571497
 21
731.6093174243469
 31
0.0
  0
LINE
  5
1278
330
2
100
AcDbEntity
  8
0
100
AcDbLine
 10
732.3607476571494
 20
721.6093174243469
 30
0.0
 11
732.3607476571494
 21
731.6093174243469
 31
0.0
  0
LINE
  5
1279
330
2
100
AcDbEntity
  8
0
100
AcDbLine
 10
732.3607476571494
 20
731.6093174243469
 30
0.0
 11
731.3607476571494
 21
731.6093174243469
 31
0.0
  0
LINE
  5
127A
330
2
100
AcDbEntity
  8
0
100
AcDbLine
 10
731.3607476571494
 20
731.6093174243469
 30
0.0
 11
731.3607476571494
 21
721.6093174243469
 31
0.0
  0
LINE
  5
127B
330
2
100
AcDbEntity
  8
0
100
AcDbLine
 10
731.3607476571494
 20
721.6093174243469
 30
0.0
 11
732.3607476571494
 21
721.6093174243469
 31
0.0
  0
LINE
  5
127C
330
2
100
AcDbEntity
  8
0
100
AcDbLine
 10
732.3607476571494
 20
721.6093174243469
 30
0.0
 11
732.3607476571494
 21
731.6093174243469
 31
0.0
  0
LINE
  5
127D
330
2
100
AcDbEntity
  8
0
100
AcDbLine
 10
737.9607476571497
 20
721.6093174243469
 30
0.0
 11
732.3607476571494
 21
721.6093174243469
 31
0.0
  0
LINE
  5
127E
330
2
100
AcDbEntity
  8
0
100
AcDbLine
 10
738.3607476571494
 20
730.9164971013196
 30
0.0
 11
738.3607476571494
 21
722.3021377473751
 31
0.0
  0
LINE
  5
127F
330
2
100
AcDbEntity
  8
0
100
AcDbLine
 10
732.3607476571494
 20
731.6093174243469
 30
0.0
 11
737.9607476571497
 21
731.6093174243469
 31
0.0
  0
LINE
  5
1280
330
2
100
AcDbEntity
  8
0
100
AcDbLine
 10
737.9607476571497
 20
731.6093174243478
 30
0.0
 11
738.3607476571494
 21
730.9164971013196
 31
0.0
  0
LINE
  5
1281
330
2
100
AcDbEntity
  8
CENTER
  6
CENS
100
AcDbLine
 10
711.3607476571494
 20
726.609317424347
 30
0.0
 11
743.3607476571494
 21
726.609317424347
 31
0.0
  0
LINE
  5
1282
330
2
100
AcDbEntity
  8
0
100
AcDbLine
 10
762.3837029440389
 20
449.4869593532234
 30
0.0
 11
752.3838688077655
 21
449.5445549001037
 31
0.0
  0
ARC
  5
1283
330
2
100
AcDbEntity
  8
0
100
AcDbCircle
 10
752.3608305890127
 20
445.544621245594
 30
0.0
 40
4.000000000000014
100
AcDbArc
 50
89.67000000001375
 51
179.6700000000007
  0
ARC
  5
1284
330
2
100
AcDbEntity
  8
0
100
AcDbCircle
 10
762.3606647252861
 20
445.4870256987141
 30
0.0
 40
4.000000000000014
100
AcDbArc
 50
359.6700000000007
 51
89.67000000001375
  0
LINE
  5
1285
330
2
100
AcDbEntity
  8
CENTER
  6
CENS
100
AcDbLine
 10
757.3607476571494
 20
454.4116807071845
 30
0.0
 11
757.3607476571494
 21
431.0517547048177
 31
0.0
  0
CIRCLE
  5
1286
330
2
100
AcDbEntity
  8
0
100
AcDbCircle
 10
757.3607476571494
 20
669.1793174243476
 30
0.0
 40
9.0
  0
LINE
  5
1287
330
2
100
AcDbEntity
  8
CENTER
  6
CENS
100
AcDbLine
 10
757.3607476571457
 20
657.3003875253534
 30
0.0
 11
757.3607476571457
 21
681.0582473233417
 31
0.0
  0
LINE
  5
1288
330
2
100
AcDbEntity
  8
CENTER
  6
CENS
100
AcDbLine
 10
769.2396775561399
 20
669.1793174243476
 30
0.0
 11
745.4818177581516
 21
669.1793174243476
 31
0.0
  0
LINE
  5
1289
330
2
100
AcDbEntity
  8
0
100
AcDbLine
 10
771.3607476571494
 20
438.4692808336671
 30
0.0
 11
764.3607476571494
 21
438.4692808336667
 31
0.0
  0
LINE
  5
128A
330
2
100
AcDbEntity
  8
0
100
AcDbLine
 10
764.3607476571494
 20
438.4692808336667
 30
0.0
 11
764.3607476571494
 21
403.4692808336666
 31
0.0
  0
LINE
  5
128B
330
2
100
AcDbEntity
  8
0
100
AcDbLine
 10
764.3607476571494
 20
423.2192808336667
 30
0.0
 11
764.3607476571512
 21
403.4692808336666
 31
0.0
  0
LINE
  5
128C
330
2
100
AcDbEntity
  8
0
100
AcDbLine
 10
764.3607476571494
 20
423.2192808336667
 30
0.0
 11
754.6229430866321
 21
423.2192808336667
 31
0.0
  0
LINE
  5
128D
330
2
100
AcDbEntity
  8
0
100
AcDbLine
 10
762.3607476571494
 20
411.4692808336666
 30
0.0
 11
751.3607476571494
 21
411.4692808336671
 31
0.0
  0
LINE
  5
128E
330
2
100
AcDbEntity
  8
0
100
AcDbLine
 10
732.8607476571494
 20
411.7192808336667
 30
0.0
 11
732.8607476571494
 21
403.4692808336671
 31
0.0
  0
LINE
  5
128F
330
2
100
AcDbEntity
  8
0
100
AcDbLine
 10
732.8607476571494
 20
411.7192808336667
 30
0.0
 11
726.8607476571494
 21
411.7192808336667
 31
0.0
  0
LINE
  5
1290
330
2
100
AcDbEntity
  8
0
100
AcDbLine
 10
726.8607476571494
 20
411.7192808336667
 30
0.0
 11
726.8607476571494
 21
403.4692808336666
 31
0.0
  0
LINE
  5
1291
330
2
100
AcDbEntity
  8
0
100
AcDbLine
 10
749.3607476571494
 20
417.7446910543617
 30
0.0
 11
749.3607476571494
 21
403.4692808336666
 31
0.0
  0
LINE
  5
1292
330
2
100
AcDbEntity
  8
0
100
AcDbLine
 10
751.3607476571494
 20
418.7984243947434
 30
0.0
 11
751.3607476571494
 21
403.4692808336666
 31
0.0
  0
LINE
  5
1293
330
2
100
AcDbEntity
  8
0
100
AcDbLine
 10
749.3607476571494
 20
411.4692808336671
 30
0.0
 11
732.8607476571494
 21
411.4692808336666
 31
0.0
  0
LINE
  5
1294
330
2
100
AcDbEntity
  8
0
100
AcDbLine
 10
764.3607476571494
 20
412.6239813720462
 30
0.0
 11
762.3607476571494
 21
411.4692808336666
 31
0.0
  0
LINE
  5
1295
330
2
100
AcDbEntity
  8
0
100
AcDbLine
 10
762.3607476571494
 20
411.4692808336666
 30
0.0
 11
762.3607476571494
 21
403.4692808336666
 31
0.0
  0
LINE
  5
1296
330
2
100
AcDbEntity
  8
0
100
AcDbLine
 10
726.8607476571494
 20
410.9692808336666
 30
0.0
 11
722.5306206382271
 21
403.4692808336666
 31
0.0
  0
SPLINE
  5
1297
330
2
100
AcDbEntity
  8
HOJO
100
AcDbSpline
210
0.0
220
0.0
230
1.0
 70
     8
 71
     3
 72
    20
 73
    16
 74
     0
 42
0.0000000001
 43
0.0000000001
 40
1.221331719906463
 40
1.221331719906463
 40
1.221331719906463
 40
1.221331719906463
 40
5.647385924430076
 40
9.759277458584113
 40
14.59638394258456
 40
18.6386056126129
 40
22.25598020257161
 40
26.57819511411361
 40
31.00332353479096
 40
40.39337194914635
 40
45.49899296170218
 40
52.02718752358933
 40
57.17041693382338
 40
65.63449353306062
 40
69.3611614947018
 40
69.3611614947018
 40
69.3611614947018
 40
69.3611614947018
 10
767.6612302141791
 20
443.5338561508364
 30
0.0
 10
766.294070010587
 20
442.698582937598
 30
0.0
 10
763.8383982796556
 20
441.1699602920347
 30
0.0
 10
762.5290998511779
 20
436.6456181044658
 30
0.0
 10
761.3791905256301
 20
433.2540486099473
 30
0.0
 10
757.8914341136412
 20
429.5802833987031
 30
0.0
 10
756.2195989372782
 20
426.0549232687239
 30
0.0
 10
754.2423523768236
 20
422.504206571229
 30
0.0
 10
750.8545710642599
 20
416.9151619827748
 30
0.0
 10
743.3302120199448
 20
417.0907384303663
 30
0.0
 10
736.6018726632963
 20
415.9443678968686
 30
0.0
 10
731.2586061178888
 20
414.225755792388
 30
0.0
 10
724.2598256035023
 20
413.8895845076644
 30
0.0
 10
720.545092804278
 20
408.4035901757096
 30
0.0
 10
719.2232513654824
 20
404.6336836825334
 30
0.0
 10
718.8105785923733
 20
403.4692808336666
 30
0.0
  0
LINE
  5
1298
330
2
100
AcDbEntity
  8
CENTER
  6
CENS
100
AcDbLine
 10
975.8620634876923
 20
454.4116807071845
 30
0.0
 11
975.8620634876923
 21
387.621615676137
 31
0.0
  0
LINE
  5
1299
330
2
100
AcDbEntity
  8
0
100
AcDbLine
 10
971.126309131702
 20
402.7192808336668
 30
0.0
 11
982.8972973266543
 21
402.7192808336668
 31
0.0
  0
LINE
  5
129A
330
2
100
AcDbEntity
  8
0
100
AcDbLine
 10
971.126309131702
 20
404.2192808336667
 30
0.0
 11
982.8972973266543
 21
404.2192808336667
 31
0.0
  0
CIRCLE
  5
129B
330
2
100
AcDbEntity
  8
0
100
AcDbCircle
 10
990.8620634876923
 20
403.4692808336668
 30
0.0
 40
8.0
  0
LINE
  5
129C
330
2
100
AcDbEntity
  8
0
100
AcDbLine
 10
1008.062063487691
 20
402.7192808336668
 30
0.0
 11
1008.062063487691
 21
404.2192808336667
 31
0.0
  0
LINE
  5
129D
330
2
100
AcDbEntity
  8
0
100
AcDbLine
 10
998.8268296487301
 20
402.7192808336668
 30
0.0
 11
1008.062063487691
 21
402.7192808336668
 31
0.0
  0
LINE
  5
129E
330
2
100
AcDbEntity
  8
0
100
AcDbLine
 10
998.8268296487301
 20
404.2192808336667
 30
0.0
 11
1008.062063487691
 21
404.2192808336667
 31
0.0
  0
LINE
  5
129F
330
2
100
AcDbEntity
  8
HIDS
100
AcDbLine
 10
978.3620634876923
 20
402.7192808336668
 30
0.0
 11
978.3620634876923
 21
388.1783521502939
 31
0.0
  0
LINE
  5
12A0
330
2
100
AcDbEntity
  8
HIDS
100
AcDbLine
 10
977.9453968210262
 20
402.7192808336668
 30
0.0
 11
977.9453968210262
 21
388.5286576129902
 31
0.0
  0
LINE
  5
12A1
330
2
100
AcDbEntity
  8
HIDS
100
AcDbLine
 10
973.7787301543583
 20
402.7192808336668
 30
0.0
 11
973.7787301543583
 21
393.5585683354543
 31
0.0
  0
LINE
  5
12A2
330
2
100
AcDbEntity
  8
HIDS
100
AcDbLine
 10
973.3620634876922
 20
402.7192808336668
 30
0.0
 11
973.3620634876922
 21
394.3143641218667
 31
0.0
  0
LINE
  5
12A3
330
2
100
AcDbEntity
  8
HIDS
100
AcDbLine
 10
978.8620634876922
 20
408.4692808336668
 30
0.0
 11
978.8620634876922
 21
404.2192808336667
 31
0.0
  0
LINE
  5
12A4
330
2
100
AcDbEntity
  8
HIDS
100
AcDbLine
 10
972.8620634876921
 20
408.4692808336668
 30
0.0
 11
972.8620634876921
 21
404.2192808336667
 31
0.0
  0
LINE
  5
12A5
330
2
100
AcDbEntity
  8
HIDS
100
AcDbLine
 10
971.7554546834078
 20
408.4692808336668
 30
0.0
 11
980.8620634876922
 21
408.4692808336668
 31
0.0
  0
LINE
  5
12A6
330
2
100
AcDbEntity
  8
HIDS
100
AcDbLine
 10
980.1120634876921
 20
408.4692808336668
 30
0.0
 11
980.1120634876921
 21
413.169280833667
 31
0.0
  0
LINE
  5
12A7
330
2
100
AcDbEntity
  8
0
100
AcDbLine
 10
971.6120634876922
 20
413.169280833667
 30
0.0
 11
971.6120634876922
 21
408.4692808336668
 31
0.0
  0
LINE
  5
12A8
330
2
100
AcDbEntity
  8
HIDS
100
AcDbLine
 10
978.3620634876923
 20
394.4692808336668
 30
0.0
 11
977.3620634876921
 21
393.4692808336667
 31
0.0
  0
LINE
  5
12A9
330
2
100
AcDbEntity
  8
HIDS
100
AcDbLine
 10
973.3620634876922
 20
394.4692808336668
 30
0.0
 11
974.3620634876922
 21
393.4692808336667
 31
0.0
  0
LINE
  5
12AA
330
2
100
AcDbEntity
  8
HIDS
100
AcDbLine
 10
977.3620634876921
 20
393.4692808336667
 30
0.0
 11
974.3620634876922
 21
393.4692808336667
 31
0.0
  0
LINE
  5
12AB
330
2
100
AcDbEntity
  8
HIDS
100
AcDbLine
 10
978.3620634876923
 20
408.4692808336668
 30
0.0
 11
978.3620634876923
 21
404.2192808336667
 31
0.0
  0
LINE
  5
12AC
330
2
100
AcDbEntity
  8
HIDS
100
AcDbLine
 10
977.9453968210262
 20
406.3859475003333
 30
0.0
 11
977.9453968210262
 21
404.2192808336667
 31
0.0
  0
LINE
  5
12AD
330
2
100
AcDbEntity
  8
HIDS
100
AcDbLine
 10
973.7787301543583
 20
406.3859475003333
 30
0.0
 11
973.7787301543583
 21
404.2192808336667
 31
0.0
  0
LINE
  5
12AE
330
2
100
AcDbEntity
  8
HIDS
100
AcDbLine
 10
973.3620634876922
 20
408.4692808336668
 30
0.0
 11
973.3620634876922
 21
404.2192808336667
 31
0.0
  0
LINE
  5
12AF
330
2
100
AcDbEntity
  8
HIDS
100
AcDbLine
 10
978.3620634876923
 20
394.4692808336668
 30
0.0
 11
973.3620634876922
 21
394.4692808336668
 31
0.0
  0
LINE
  5
12B0
330
2
100
AcDbEntity
  8
HIDS
100
AcDbLine
 10
978.3620634876923
 20
406.3859475003333
 30
0.0
 11
973.3620634876922
 21
406.3859475003333
 31
0.0
  0
LINE
  5
12B1
330
2
100
AcDbEntity
  8
0
100
AcDbLine
 10
971.6120634876922
 20
408.4692808336668
 30
0.0
 11
971.7554546834078
 21
408.4692808336668
 31
0.0
  0
LINE
  5
12B2
330
2
100
AcDbEntity
  8
HIDS
100
AcDbLine
 10
973.3620634876922
 20
408.4692808336668
 30
0.0
 11
973.7787301543583
 21
406.3859475003333
 31
0.0
  0
LINE
  5
12B3
330
2
100
AcDbEntity
  8
HIDS
100
AcDbLine
 10
978.3620634876923
 20
408.4692808336668
 30
0.0
 11
977.9453968210262
 21
406.3859475003333
 31
0.0
  0
LINE
  5
12B4
330
2
100
AcDbEntity
  8
0
100
AcDbLine
 10
971.6120634876922
 20
413.169280833667
 30
0.0
 11
973.6582121746875
 21
413.169280833667
 31
0.0
  0
LINE
  5
12B5
330
2
100
AcDbEntity
  8
HIDS
100
AcDbLine
 10
979.5924482454218
 20
413.4692808336668
 30
0.0
 11
973.8308421574409
 21
413.4692808336668
 31
0.0
  0
LINE
  5
12B6
330
2
100
AcDbEntity
  8
0
100
AcDbLine
 10
971.6120634876922
 20
413.169280833667
 30
0.0
 11
972.1316787299626
 21
413.4692808336668
 31
0.0
  0
LINE
  5
12B7
330
2
100
AcDbEntity
  8
HIDS
100
AcDbLine
 10
979.5924482454218
 20
413.4692808336668
 30
0.0
 11
980.1120634876921
 21
413.169280833667
 31
0.0
  0
LINE
  5
12B8
330
2
100
AcDbEntity
  8
0
100
AcDbLine
 10
973.8308421574409
 20
413.4692808336668
 30
0.0
 11
972.1316787299626
 21
413.4692808336668
 31
0.0
  0
LINE
  5
12B9
330
2
100
AcDbEntity
  8
HIDS
100
AcDbLine
 10
973.6582121746875
 20
413.169280833667
 30
0.0
 11
980.1120634876921
 21
413.169280833667
 31
0.0
  0
LINE
  5
12BA
330
2
100
AcDbEntity
  8
0
100
AcDbLine
 10
978.3620634876923
 20
404.2192808336667
 30
0.0
 11
978.3620634876923
 21
402.7192808336672
 31
0.0
  0
LINE
  5
12BB
330
2
100
AcDbEntity
  8
HOJO
100
AcDbLine
 10
977.9453968210262
 20
404.2192808336667
 30
0.0
 11
977.9453968210262
 21
402.7192808336672
 31
0.0
  0
LINE
  5
12BC
330
2
100
AcDbEntity
  8
HOJO
100
AcDbLine
 10
973.7787301543583
 20
404.2192808336667
 30
0.0
 11
973.7787301543583
 21
402.7192808336672
 31
0.0
  0
LINE
  5
12BD
330
2
100
AcDbEntity
  8
0
100
AcDbLine
 10
973.3620634876922
 20
404.2192808336667
 30
0.0
 11
973.3620634876922
 21
402.7192808336668
 31
0.0
  0
LINE
  5
12BE
330
2
100
AcDbEntity
  8
HIDS
100
AcDbLine
 10
973.3620634876922
 20
402.7192808336668
 30
0.0
 11
973.3620634876922
 21
394.4692808336668
 31
0.0
  0
LINE
  5
12BF
330
2
100
AcDbEntity
  8
HIDS
100
AcDbLine
 10
973.7787301543583
 20
402.7192808336668
 30
0.0
 11
973.7787301543583
 21
394.0526141670003
 31
0.0
  0
CIRCLE
  5
12C0
330
2
100
AcDbEntity
  8
0
100
AcDbCircle
 10
990.8620634876923
 20
403.4692808336668
 30
0.0
 40
19.75
  0
ARC
  5
12C1
330
2
100
AcDbEntity
  8
0
100
AcDbCircle
 10
990.8620634876923
 20
403.4692808336668
 30
0.0
 40
9.154700538379415
100
AcDbArc
 50
4.699230675929105
 51
175.3007693240709
  0
ARC
  5
12C2
330
2
100
AcDbEntity
  8
0
100
AcDbCircle
 10
990.8620634876923
 20
403.4692808336668
 30
0.0
 40
9.154700538379415
100
AcDbArc
 50
184.6992306759291
 51
355.3007693240708
  0
LINE
  5
12C4
330
2
100
AcDbEntity
  8
0
100
AcDbLine
 10
970.9870645111449
 20
449.5445549001038
 30
0.0
 11
980.7370645111447
 21
449.5445549001038
 31
0.0
  0
ARC
  5
12C5
330
2
100
AcDbEntity
  8
0
100
AcDbCircle
 10
970.9870645111449
 20
445.2945549001038
 30
0.0
 40
4.25
100
AcDbArc
 50
90.0
 51
177.6437927484639
  0
ARC
  5
12C6
330
2
100
AcDbEntity
  8
0
100
AcDbCircle
 10
980.4870645111448
 20
445.2945549001038
 30
0.0
 40
4.25
100
AcDbArc
 50
2.356207251536093
 51
90.0
  0
LINE
  5
12C7
330
2
100
AcDbEntity
  8
0
100
AcDbLine
 10
55.41774091978254
 20
445.4692808336695
 30
0.0
 11
55.41774091978254
 21
361.4692808336759
 31
0.0
  0
LINE
  5
12C8
330
2
100
AcDbEntity
  8
0
100
AcDbLine
 10
53.41774091978255
 20
443.5391010933854
 30
0.0
 11
53.41774091978436
 21
363.3994605739599
 31
0.0
  0
LINE
  5
12C9
330
2
100
AcDbEntity
  8
0
100
AcDbLine
 10
89.41774091978345
 20
453.3470666062157
 30
0.0
 11
89.41774091978436
 21
353.5914950611295
 31
0.0
  0
LINE
  5
12CA
330
2
100
AcDbEntity
  8
0
100
AcDbLine
 10
53.41774091978436
 20
363.3994605739604
 30
0.0
 11
55.41774091978618
 21
361.4692808336731
 31
0.0
  0
LINE
  5
12CB
330
2
100
AcDbEntity
  8
0
100
AcDbLine
 10
49.41774091978619
 20
363.4692808336731
 30
0.0
 11
53.41774091978436
 21
363.3994605739604
 31
0.0
  0
LINE
  5
12CC
330
2
100
AcDbEntity
  8
0
100
AcDbLine
 10
104.4177409197861
 20
352.4692808336731
 30
0.0
 11
90.4090143842866
 21
352.5915331380652
 31
0.0
  0
LINE
  5
12CD
330
2
100
AcDbEntity
  8
0
100
AcDbLine
 10
55.41774091978618
 20
361.4692808336731
 30
0.0
 11
82.41774091978617
 21
361.3121994287772
 31
0.0
  0
LINE
  5
12CE
330
2
100
AcDbEntity
  8
0
100
AcDbLine
 10
53.41774091978255
 20
443.5391010933854
 30
0.0
 11
55.41774091978254
 21
445.4692808336695
 31
0.0
  0
LINE
  5
12CF
330
2
100
AcDbEntity
  8
0
100
AcDbLine
 10
49.41774091978619
 20
443.4692808336722
 30
0.0
 11
53.41774091978255
 21
443.5391010933854
 31
0.0
  0
LINE
  5
12D0
330
2
100
AcDbEntity
  8
0
100
AcDbLine
 10
104.4177409197861
 20
454.4692808336722
 30
0.0
 11
90.4090143842866
 21
454.3470285292801
 31
0.0
  0
LINE
  5
12D1
330
2
100
AcDbEntity
  8
0
100
AcDbLine
 10
54.41789324710294
 20
445.4634638900762
 30
0.0
 11
82.41774091978617
 21
445.6263622385682
 31
0.0
  0
ARC
  5
12D2
330
2
100
AcDbEntity
  8
0
100
AcDbCircle
 10
90.41774091978618
 20
453.3470666062157
 30
0.0
 40
1.0
100
AcDbArc
 50
90.49999999996549
 51
180.0
  0
ARC
  5
12D3
330
2
100
AcDbEntity
  8
0
100
AcDbCircle
 10
90.41774091978437
 20
353.5914950611295
 30
0.0
 40
1.0
100
AcDbArc
 50
180.0
 51
269.5000000000345
  0
LINE
  5
12D4
330
2
100
AcDbEntity
  8
0
100
AcDbLine
 10
49.41774091978619
 20
443.4692808336722
 30
0.0
 11
49.41774091978619
 21
363.4692808336731
 31
0.0
  0
LINE
  5
12D5
330
2
100
AcDbEntity
  8
0
100
AcDbLine
 10
82.81774091978581
 20
440.8992808336726
 30
0.0
 11
82.41774091978617
 21
441.5921011567006
 31
0.0
  0
LINE
  5
12D6
330
2
100
AcDbEntity
  8
0
100
AcDbLine
 10
82.81774091978581
 20
440.8992808336726
 30
0.0
 11
82.81774091978581
 21
450.8992808336725
 31
0.0
  0
LINE
  5
12D7
330
2
100
AcDbEntity
  8
0
100
AcDbLine
 10
88.41774091978619
 20
440.8992808336726
 30
0.0
 11
88.41774091978619
 21
450.8992808336725
 31
0.0
  0
LINE
  5
12D8
330
2
100
AcDbEntity
  8
0
100
AcDbLine
 10
88.41774091978619
 20
450.8992808336725
 30
0.0
 11
89.41774091978619
 21
450.8992808336725
 31
0.0
  0
LINE
  5
12D9
330
2
100
AcDbEntity
  8
0
100
AcDbLine
 10
89.41774091978619
 20
450.8992808336725
 30
0.0
 11
89.41774091978619
 21
440.8992808336726
 31
0.0
  0
LINE
  5
12DA
330
2
100
AcDbEntity
  8
0
100
AcDbLine
 10
89.41774091978619
 20
440.8992808336726
 30
0.0
 11
88.41774091978619
 21
440.8992808336726
 31
0.0
  0
LINE
  5
12DB
330
2
100
AcDbEntity
  8
0
100
AcDbLine
 10
88.41774091978619
 20
440.8992808336726
 30
0.0
 11
88.41774091978619
 21
450.8992808336725
 31
0.0
  0
LINE
  5
12DC
330
2
100
AcDbEntity
  8
0
100
AcDbLine
 10
82.81774091978581
 20
440.8992808336726
 30
0.0
 11
88.41774091978619
 21
440.8992808336726
 31
0.0
  0
LINE
  5
12DD
330
2
100
AcDbEntity
  8
0
100
AcDbLine
 10
82.41774091978617
 20
450.2064605106452
 30
0.0
 11
82.41774091978617
 21
441.5921011567006
 31
0.0
  0
LINE
  5
12DE
330
2
100
AcDbEntity
  8
0
100
AcDbLine
 10
88.41774091978619
 20
450.8992808336725
 30
0.0
 11
82.81774091978581
 21
450.8992808336725
 31
0.0
  0
LINE
  5
12DF
330
2
100
AcDbEntity
  8
0
100
AcDbLine
 10
82.81774091978581
 20
450.899280833673
 30
0.0
 11
82.41774091978617
 21
450.2064605106452
 31
0.0
  0
LINE
  5
12E0
330
2
100
AcDbEntity
  8
CENTER
  6
CENS
100
AcDbLine
 10
109.4177409197861
 20
445.8992808336725
 30
0.0
 11
77.41774091978618
 21
445.8992808336725
 31
0.0
  0
LINE
  5
12E1
330
2
100
AcDbEntity
  8
0
100
AcDbLine
 10
82.81774091978581
 20
366.0392808336728
 30
0.0
 11
82.41774091978617
 21
365.3464605106451
 31
0.0
  0
LINE
  5
12E2
330
2
100
AcDbEntity
  8
0
100
AcDbLine
 10
82.81774091978581
 20
366.0392808336728
 30
0.0
 11
82.81774091978581
 21
356.0392808336728
 31
0.0
  0
LINE
  5
12E3
330
2
100
AcDbEntity
  8
0
100
AcDbLine
 10
88.41774091978619
 20
366.0392808336728
 30
0.0
 11
88.41774091978619
 21
356.0392808336728
 31
0.0
  0
LINE
  5
12E4
330
2
100
AcDbEntity
  8
0
100
AcDbLine
 10
88.41774091978619
 20
356.0392808336728
 30
0.0
 11
89.41774091978619
 21
356.0392808336728
 31
0.0
  0
LINE
  5
12E5
330
2
100
AcDbEntity
  8
0
100
AcDbLine
 10
89.41774091978619
 20
356.0392808336728
 30
0.0
 11
89.41774091978619
 21
366.0392808336728
 31
0.0
  0
LINE
  5
12E6
330
2
100
AcDbEntity
  8
0
100
AcDbLine
 10
89.41774091978619
 20
366.0392808336728
 30
0.0
 11
88.41774091978619
 21
366.0392808336728
 31
0.0
  0
LINE
  5
12E7
330
2
100
AcDbEntity
  8
0
100
AcDbLine
 10
88.41774091978619
 20
366.0392808336728
 30
0.0
 11
88.41774091978619
 21
356.0392808336728
 31
0.0
  0
LINE
  5
12E8
330
2
100
AcDbEntity
  8
0
100
AcDbLine
 10
82.81774091978581
 20
366.0392808336728
 30
0.0
 11
88.41774091978619
 21
366.0392808336728
 31
0.0
  0
LINE
  5
12E9
330
2
100
AcDbEntity
  8
0
100
AcDbLine
 10
82.41774091978617
 20
356.7321011567001
 30
0.0
 11
82.41774091978617
 21
365.3464605106451
 31
0.0
  0
LINE
  5
12EA
330
2
100
AcDbEntity
  8
0
100
AcDbLine
 10
88.41774091978619
 20
356.0392808336728
 30
0.0
 11
82.81774091978581
 21
356.0392808336728
 31
0.0
  0
LINE
  5
12EB
330
2
100
AcDbEntity
  8
0
100
AcDbLine
 10
82.81774091978581
 20
356.0392808336728
 30
0.0
 11
82.41774091978617
 21
356.7321011567001
 31
0.0
  0
LINE
  5
12EC
330
2
100
AcDbEntity
  8
CENTER
  6
CENS
100
AcDbLine
 10
109.4177409197861
 20
361.0392808336728
 30
0.0
 11
77.41774091978618
 21
361.0392808336728
 31
0.0
  0
LINE
  5
12ED
330
2
100
AcDbEntity
  8
0
100
AcDbLine
 10
58.39478563289663
 20
449.4869593532294
 30
0.0
 11
68.39461976917005
 21
449.5445549001097
 31
0.0
  0
ARC
  5
12EE
330
2
100
AcDbEntity
  8
0
100
AcDbCircle
 10
68.41765798792289
 20
445.5446212456
 30
0.0
 40
4.000000000000014
100
AcDbArc
 50
0.32999999999927
 51
90.32999999998624
  0
ARC
  5
12EF
330
2
100
AcDbEntity
  8
0
100
AcDbCircle
 10
58.41782385164947
 20
445.4870256987201
 30
0.0
 40
4.000000000000014
100
AcDbArc
 50
90.32999999998624
 51
180.3299999999993
  0
LINE
  5
12F0
330
2
100
AcDbEntity
  8
CENTER
  6
CENS
100
AcDbLine
 10
63.41774091978618
 20
454.4116807071905
 30
0.0
 11
63.41774091978618
 21
431.0517547048237
 31
0.0
  0
LINE
  5
12F1
330
2
100
AcDbEntity
  8
0
100
AcDbLine
 10
765.3607476571494
 20
361.4692808336671
 30
0.0
 11
765.3607476571494
 21
403.4692808336666
 31
0.0
  0
LINE
  5
12F2
330
2
100
AcDbEntity
  8
0
100
AcDbLine
 10
767.3607476571512
 20
363.3994605739544
 30
0.0
 11
767.3607476571512
 21
403.4692808336666
 31
0.0
  0
LINE
  5
12F3
330
2
100
AcDbEntity
  8
HIDS
100
AcDbLine
 10
980.8620634876922
 20
408.4692808336668
 30
0.0
 11
980.8620634876922
 21
420.5005021639181
 31
0.0
  0
CIRCLE
  5
12F4
330
2
100
AcDbEntity
  8
0
100
AcDbCircle
 10
1022.681868641086
 20
371.6494756802722
 30
0.0
 40
2.0
  0
CIRCLE
  5
12F5
330
2
100
AcDbEntity
  8
HOJO
100
AcDbCircle
 10
1022.681868641086
 20
371.6494756802722
 30
0.0
 40
2.5
  0
CIRCLE
  5
12F6
330
2
100
AcDbEntity
  8
0
100
AcDbCircle
 10
1022.681868641086
 20
435.2890859870613
 30
0.0
 40
2.0
  0
CIRCLE
  5
12F7
330
2
100
AcDbEntity
  8
HOJO
100
AcDbCircle
 10
1022.681868641086
 20
435.2890859870613
 30
0.0
 40
2.5
  0
CIRCLE
  5
12F8
330
2
100
AcDbEntity
  8
0
100
AcDbCircle
 10
959.0422583342977
 20
371.6494756802722
 30
0.0
 40
2.0
  0
CIRCLE
  5
12F9
330
2
100
AcDbEntity
  8
HOJO
100
AcDbCircle
 10
959.0422583342977
 20
371.6494756802722
 30
0.0
 40
2.5
  0
CIRCLE
  5
12FA
330
2
100
AcDbEntity
  8
0
100
AcDbCircle
 10
959.0422583342977
 20
435.2890859870613
 30
0.0
 40
2.0
  0
CIRCLE
  5
12FB
330
2
100
AcDbEntity
  8
HOJO
100
AcDbCircle
 10
959.0422583342977
 20
435.2890859870613
 30
0.0
 40
2.5
  0
LINE
  5
12FC
330
2
100
AcDbEntity
  8
0
100
AcDbLine
 10
764.3607476571494
 20
432.4692808336662
 30
0.0
 11
760.4510943083631
 21
432.4692808336666
 31
0.0
  0
CIRCLE
  5
12FD
330
2
100
AcDbEntity
  8
0
100
AcDbCircle
 10
990.8620634876923
 20
403.4692808336668
 30
0.0
 40
29.0
  0
LINE
  5
1898
330
2
100
AcDbEntity
  8
PHAS
  6
SEKKEI_P_S
100
AcDbLine
 10
330.9872396088774
 20
435.3500817459447
 30
0.0
 11
330.9872396088765
 21
371.588384597232
 31
0.0
  0
LINE
  5
1899
330
2
100
AcDbEntity
  8
PHAS
  6
SEKKEI_P_S
100
AcDbLine
 10
340.7872396088766
 20
438.4693284957452
 30
0.0
 11
340.7872396088766
 21
368.4692331715881
 31
0.0
  0
ARC
  5
189A
330
2
100
AcDbEntity
  8
PHAS
  6
SEKKEI_P_S
100
AcDbCircle
 10
333.9872396088765
 20
371.588384597232
 30
0.0
 40
3.0
100
AcDbArc
 50
180.0
 51
268.9999999999721
  0
LINE
  5
189B
330
2
100
AcDbEntity
  8
PHAS
  6
SEKKEI_P_S
100
AcDbLine
 10
340.7872396088766
 20
368.4692331715881
 30
0.0
 11
333.934882389565
 21
368.5888415117627
 31
0.0
  0
LINE
  5
189C
330
2
100
AcDbEntity
  8
PHAS
  6
SEKKEI_P_S
100
AcDbLine
 10
315.4189987205425
 20
379.7143340823703
 30
0.0
 11
330.1608877865435
 21
377.1149412934231
 31
0.0
  0
LINE
  5
189D
330
2
100
AcDbEntity
  8
PHAS
  6
SEKKEI_P_S
100
AcDbLine
 10
315.4189987205425
 20
427.2241322608063
 30
0.0
 11
330.1608877865435
 21
429.8235250497531
 31
0.0
  0
LINE
  5
189E
330
2
100
AcDbEntity
  8
PHAS
  6
SEKKEI_P_S
100
AcDbLine
 10
311.2872396088766
 20
422.3000934957448
 30
0.0
 11
311.2872396088766
 21
384.6384681715884
 31
0.0
  0
ARC
  5
189F
330
2
100
AcDbEntity
  8
PHAS
  6
SEKKEI_P_S
100
AcDbCircle
 10
316.2872396088766
 20
384.6383728474314
 30
0.0
 40
5.0
100
AcDbArc
 50
180.0
 51
259.9999999999949
  0
ARC
  5
18A0
330
2
100
AcDbEntity
  8
PHAS
  6
SEKKEI_P_S
100
AcDbCircle
 10
316.2872396088766
 20
422.3000934957448
 30
0.0
 40
5.0
100
AcDbArc
 50
100.000000000005
 51
180.0
  0
ARC
  5
18A1
330
2
100
AcDbEntity
  8
PHAS
  6
SEKKEI_P_S
100
AcDbCircle
 10
329.9872396088765
 20
376.1301335404108
 30
0.0
 40
1.0
100
AcDbArc
 50
0.0
 51
79.99999999999499
  0
ARC
  5
18A2
330
2
100
AcDbEntity
  8
PHAS
  6
SEKKEI_P_S
100
AcDbCircle
 10
329.9872396088765
 20
430.8083328027654
 30
0.0
 40
1.0
100
AcDbArc
 50
280.000000000005
 51
0.0
  0
ARC
  5
18A3
330
2
100
AcDbEntity
  8
PHAS
  6
SEKKEI_P_S
100
AcDbCircle
 10
333.9872396088765
 20
435.3501770701012
 30
0.0
 40
3.0
100
AcDbArc
 50
91.00000000002781
 51
180.0
  0
LINE
  5
18A4
330
2
100
AcDbEntity
  8
PHAS
  6
SEKKEI_P_S
100
AcDbLine
 10
340.7872396088766
 20
438.469328495745
 30
0.0
 11
333.934882389565
 21
438.3497201555704
 31
0.0
  0
LINE
  5
1D54
330
2
100
AcDbEntity
  8
0
100
AcDbLine
 10
354.7872396087721
 20
424.0093800108583
 30
0.0
 11
349.2697865377765
 21
424.0093800108583
 31
0.0
  0
LINE
  5
1D55
330
2
100
AcDbEntity
  8
0
100
AcDbLine
 10
354.7872396087721
 20
382.9291816564749
 30
0.0
 11
349.2697865377765
 21
382.9291816564749
 31
0.0
  0
LINE
  5
1D56
330
2
100
AcDbEntity
  8
0
100
AcDbLine
 10
354.7872396087721
 20
363.4692808336493
 30
0.0
 11
349.2697865377765
 21
363.4692808336493
 31
0.0
  0
LINE
  5
1D57
330
2
100
AcDbEntity
  8
0
100
AcDbLine
 10
354.7872396087711
 20
443.469280833684
 30
0.0
 11
349.2697865377765
 21
443.469280833684
 31
0.0
  0
LINE
  5
1D58
330
2
100
AcDbEntity
  8
0
100
AcDbLine
 10
354.7872396087702
 20
446.4692808336814
 30
0.0
 11
349.2697865377765
 21
446.4692808336814
 31
0.0
  0
LINE
  5
1D59
330
2
100
AcDbEntity
  8
0
100
AcDbLine
 10
354.7872396087721
 20
360.4692808336519
 30
0.0
 11
349.2697865377765
 21
360.4692808336519
 31
0.0
  0
LINE
  5
1D66
330
2
100
AcDbEntity
  8
0
100
AcDbLine
 10
403.294815538319
 20
177.8609989859418
 30
0.0
 11
397.7773624673234
 21
177.8609989859418
 31
0.0
  0
LINE
  5
1D67
330
2
100
AcDbEntity
  8
0
100
AcDbLine
 10
403.294815538319
 20
136.7808006315585
 30
0.0
 11
397.7773624673234
 21
136.7808006315585
 31
0.0
  0
LINE
  5
1D68
330
2
100
AcDbEntity
  8
0
100
AcDbLine
 10
403.294815538319
 20
117.3208998087329
 30
0.0
 11
397.7773624673234
 21
117.3208998087329
 31
0.0
  0
LINE
  5
1D69
330
2
100
AcDbEntity
  8
0
100
AcDbLine
 10
403.294815538318
 20
197.3208998087674
 30
0.0
 11
397.7773624673234
 21
197.3208998087674
 31
0.0
  0
LINE
  5
1D6A
330
2
100
AcDbEntity
  8
0
100
AcDbLine
 10
403.2948155383171
 20
200.3208998087649
 30
0.0
 11
397.7773624673234
 21
200.3208998087649
 31
0.0
  0
LINE
  5
1D6B
330
2
100
AcDbEntity
  8
0
100
AcDbLine
 10
403.294815538319
 20
114.3208998087354
 30
0.0
 11
397.7773624673234
 21
114.3208998087354
 31
0.0
  0
CIRCLE
  5
1D92
330
2
100
AcDbEntity
  8
0
100
AcDbCircle
 10
620.3607256571492
 20
403.4692808336697
 30
0.0
 40
26.57735026918937
  0
LINE
  5
1DC1
330
2
100
AcDbEntity
  8
0
100
AcDbLine
 10
580.3607256571492
 20
713.6793174243472
 30
0.0
 11
580.3607256571492
 21
719.2316713209633
 31
0.0
  0
LINE
  5
1DCE
330
2
100
AcDbEntity
  8
0
100
AcDbLine
 10
577.3607256571474
 20
713.6793174243471
 30
0.0
 11
577.3607256571474
 21
719.2316713209631
 31
0.0
  0
LINE
  5
1DCF
330
2
100
AcDbEntity
  8
0
100
AcDbLine
 10
599.8206264799744
 20
713.6793174243482
 30
0.0
 11
599.8206264799744
 21
719.2316713209643
 31
0.0
  0
LINE
  5
1DD0
330
2
100
AcDbEntity
  8
0
100
AcDbLine
 10
660.3607256571462
 20
713.679317424348
 30
0.0
 11
660.3607256571462
 21
719.2316713209641
 31
0.0
  0
LINE
  5
1DD1
330
2
100
AcDbEntity
  8
0
100
AcDbLine
 10
663.360725657148
 20
713.679317424348
 30
0.0
 11
663.360725657148
 21
719.2316713209641
 31
0.0
  0
LINE
  5
1DD2
330
2
100
AcDbEntity
  8
0
100
AcDbLine
 10
640.9008248343211
 20
713.6793174243487
 30
0.0
 11
640.900824834321
 21
719.2316713209647
 31
0.0
  0
ENDSEC
  0
SECTION
  2
OBJECTS
  0
DICTIONARY
  5
7
330
0
100
AcDbDictionary
  3
ACAD_COLOR
350
1CBF
  3
ACAD_GROUP
350
75
  3
ACAD_LAYOUT
350
61
  3
ACAD_MATERIAL
350
1C95
  3
ACAD_MLEADERSTYLE
350
1CE4
  3
ACAD_MLINESTYLE
350
76
  3
ACAD_PLOTSETTINGS
350
77
  3
ACAD_PLOTSTYLENAME
350
6
  3
ACAD_SCALELIST
350
1CC2
  3
ACAD_TABLESTYLE
350
1CC0
  3
ACAD_VISUALSTYLE
350
1CAE
  3
ACADDIM
350
480
  3
ACDB_RECOMPOSE_DATA
350
1D22
  3
ACDBHEADERROUNDTRIPXREC
350
1E25
  3
ACDBVARIABLEDICTIONARY
350
102
  3
DWGPROPS
350
1DF1
  0
DICTIONARY
  5
1D2B
330
6E
100
AcDbDictionary
280
     1
  3
ACAD_XREC_ROUNDTRIP
360
1DF8
  0
DICTIONARY
  5
ADC
330
66
100
AcDbDictionary
280
     1
  3
ACAD_LAYERSTATES
360
ADD
  0
DICTIONARY
  5
1D10
330
5E
100
AcDbDictionary
280
     1
  3
ACAD_XREC_ROUNDTRIP
360
1DF4
  3
ADSK_XREC_LAYER_RECONCILED
360
1D11
  0
DICTIONARY
  5
1D12
330
3E
100
AcDbDictionary
280
     1
  3
ACAD_XREC_ROUNDTRIP
360
1DF3
  3
ADSK_XREC_LAYER_RECONCILED
360
1D13
  0
DICTIONARY
  5
1D18
330
2B5
100
AcDbDictionary
280
     1
  3
ACAD_XREC_ROUNDTRIP
360
1DFE
  3
ADSK_XREC_LAYER_RECONCILED
360
1D19
  0
DICTIONARY
  5
1D1A
330
2BA
100
AcDbDictionary
280
     1
  3
ACAD_XREC_ROUNDTRIP
360
1DFF
  3
ADSK_XREC_LAYER_RECONCILED
360
1D1B
  0
DICTIONARY
  5
1D1E
330
3FA
100
AcDbDictionary
280
     1
  3
ACAD_XREC_ROUNDTRIP
360
1E01
  3
ADSK_XREC_LAYER_RECONCILED
360
1D1F
  0
DICTIONARY
  5
1882
330
1881
100
AcDbDictionary
280
     1
  3
ACAD_XREC_ROUNDTRIP
360
1E06
  3
ADSK_XREC_LAYER_RECONCILED
360
1884
  0
DICTIONARY
  5
1E46
330
2
100
AcDbDictionary
280
     1
  3
ACAD_LAYOUTSELFREF
360
1E47
  0
DICTIONARY
  5
1E48
330
1E1F
100
AcDbDictionary
280
     1
  3
ACAD_LAYOUTSELFREF
360
1E49
  0
DICTIONARY
  5
1CBF
102
{ACAD_REACTORS
330
7
102
}
330
7
100
AcDbDictionary
  0
DICTIONARY
  5
75
102
{ACAD_REACTORS
330
7
102
}
330
7
100
AcDbDictionary
  0
DICTIONARY
  5
61
102
{ACAD_REACTORS
330
7
102
}
330
7
100
AcDbDictionary
  0
DICTIONARY
  5
1C95
102
{ACAD_REACTORS
330
7
102
}
330
7
100
AcDbDictionary
  3
BYBLOCK
350
1C9E
  3
BYLAYER
350
1C96
  3
GLOBAL
350
1CA6
  0
DICTIONARY
  5
1CE4
102
{ACAD_REACTORS
330
7
102
}
330
7
100
AcDbDictionary
  3
STANDARD
350
1CE5
  0
DICTIONARY
  5
76
102
{ACAD_REACTORS
330
7
102
}
330
7
100
AcDbDictionary
  3
STANDARD
350
78
  0
DICTIONARY
  5
77
102
{ACAD_REACTORS
330
7
102
}
330
7
100
AcDbDictionary
  0
ACDBDICTIONARYWDFLT
  5
6
102
{ACAD_REACTORS
330
7
102
}
330
7
100
AcDbDictionary
281
     1
  3
Normal
350
5
100
AcDbDictionaryWithDefault
340
5
  0
DICTIONARY
  5
1CC2
102
{ACAD_REACTORS
330
7
102
}
330
7
100
AcDbDictionary
  3
A0
350
1CC3
  3
A1
350
1CC4
  3
A2
350
1CC5
  3
A3
350
1CC6
  3
A4
350
1CC7
  3
A5
350
1CC8
  3
A6
350
1CC9
  3
A7
350
1CCA
  3
A8
350
1CCB
  3
A9
350
1CCC
  3
B0
350
1CCD
  3
B1
350
1CCE
  3
B2
350
1CCF
  3
B3
350
1CD0
  3
B4
350
1CD1
  3
B5
350
1CD2
  3
B6
350
1CD3
  3
B7
350
1CD4
  3
B8
350
1CD5
  3
B9
350
1CD6
  3
C0
350
1CD7
  3
C1
350
1CD8
  3
C2
350
1CD9
  3
C3
350
1CDA
  3
C4
350
1CDB
  3
C5
350
1CDC
  3
C6
350
1CDD
  3
C7
350
1CDE
  3
C8
350
1CDF
  3
C9
350
1CE0
  3
D0
350
1CE1
  3
D1
350
1CE2
  3
D2
350
1CE3
  0
DICTIONARY
  5
1CC0
102
{ACAD_REACTORS
330
7
102
}
330
7
100
AcDbDictionary
  3
STANDARD
350
1CC1
  0
DICTIONARY
  5
1CAE
102
{ACAD_REACTORS
330
7
102
}
330
7
100
AcDbDictionary
  3
2DWIREFRAME
350
1CB4
  3
3D_HIDDEN
350
1CB6
  3
3DWIREFRAME
350
1CB5
  3
BASIC
350
1CB3
  3
BRIGHTEN
350
1CBA
  3
COLORCHANGE
350
1CBE
  3
CONCEPTUAL
350
1CB7
  3
DIM
350
1CB9
  3
FACEPATTERN
350
1CBD
  3
FLAT
350
1CAF
  3
FLATWITHEDGES
350
1CB0
  3
GOURAUD
350
1CB1
  3
GOURAUDWITHEDGES
350
1CB2
  3
LINEPATTERN
350
1CBC
  3
REALISTIC
350
1CB8
  3
THICKEN
350
1CBB
  0
XRECORD
  5
480
102
{ACAD_REACTORS
330
7
102
}
330
7
100
AcDbXrecord
 90
   990106
  3

 60
     0
 61
     0
 62
     1
 63
     3
 64
     1
 65
     0
 66
     0
 67
     3
 68
     1
 69
     0
 70
     0
 71
     0
 72
     0
 40
0.0
170
     2
340
0
  0
XRECORD
  5
1D22
102
{ACAD_REACTORS
330
7
102
}
330
7
100
AcDbXrecord
 90
        1
330
1CC1
  0
DICTIONARY
  5
1E25
102
{ACAD_REACTORS
330
7
102
}
330
7
100
AcDbDictionary
  3
CEPSNTYPE
350
1E2F
  3
DIMSTYLEDATA
350
1E33
  3
FINGERPRINTGUID
350
1E30
  3
HYPERLINKBASE
350
1E28
  3
INSUNITS
350
1E2E
  3
LAYOUTDICT
350
1E2A
  3
LWETCUNION
350
1E2D
  3
PLOTSETDICT
350
1E2B
  3
PLOTSTYLNAMDICT
350
1E2C
  3
PSVPSCALE
350
1E32
  3
PUCSBASE
350
1E36
  3
PUCSORGBACK
350
1E3C
  3
PUCSORGBOTTOM
350
1E38
  3
PUCSORGFRONT
350
1E3B
  3
PUCSORGLEFT
350
1E39
  3
PUCSORGRIGHT
350
1E3A
  3
PUCSORGTOP
350
1E37
  3
PUCSORTHOREF
350
1E34
  3
PUCSORTHOVIEW
350
1E35
  3
STYLESHEET
350
1E29
  3
TSTACKALIGN
350
1E26
  3
TSTACKSIZE
350
1E27
  3
UCSBASE
350
1E3F
  3
UCSORGBACK
350
1E45
  3
UCSORGBOTTOM
350
1E41
  3
UCSORGFRONT
350
1E44
  3
UCSORGLEFT
350
1E42
  3
UCSORGRIGHT
350
1E43
  3
UCSORGTOP
350
1E40
  3
UCSORTHOREF
350
1E3D
  3
UCSORTHOVIEW
350
1E3E
  3
VERSIONGUID
350
1E31
  0
DICTIONARY
  5
102
102
{ACAD_REACTORS
330
7
102
}
330
7
100
AcDbDictionary
  3
CANNOSCALE
350
1D43
  3
CMLEADERSTYLE
350
1D42
  3
CTABLESTYLE
350
1D41
  3
DIMASSOC
350
103
  3
INDEXCTL
350
1D44
  3
SORTENTS
350
549
  0
XRECORD
  5
1DF1
102
{ACAD_REACTORS
330
7
102
}
330
7
100
AcDbXrecord
  1
DWGPROPS COOKIE
  2

  3

  4

  6

  7

  8
ymorima
  9

300
=
301
=
302
=
303
=
304
=
305
=
306
=
307
=
308
=
309
=
 40
0.0116773495370371
 41
2454411.436245833
 42
2454425.689109699
  1

 90
        0
  0
XRECORD
  5
1DF8
102
{ACAD_REACTORS
330
1D2B
102
}
330
1D2B
100
AcDbXrecord
102
VTR_0.000_0.000_1.000_1.000_VISUALSTYLE
340
1CB4
102
VTR_0.000_0.000_1.000_1.000_GRIDDISPLAY
 70
     3
102
VTR_0.000_0.000_1.000_1.000_GRIDMAJOR
 70
     5
102
VTR_0.000_0.000_1.000_1.000_DEFAULTLIGHTING
280
     1
102
VTR_0.000_0.000_1.000_1.000_DEFAULTLIGHTINGTYPE
 70
     1
102
VTR_0.000_0.000_1.000_1.000_BRIGHTNESS
141
0.0
102
VTR_0.000_0.000_1.000_1.000_CONTRAST
142
0.0
  0
DICTIONARY
  5
ADD
102
{ACAD_REACTORS
330
ADC
102
}
330
ADC
100
AcDbDictionary
  0
XRECORD
  5
1DF4
102
{ACAD_REACTORS
330
1D10
102
}
330
1D10
100
AcDbXrecord
102
MATERIAL
340
1CA6
  0
XRECORD
  5
1D11
102
{ACAD_REACTORS
330
1D10
102
}
330
1D10
100
AcDbXrecord
290
     1
  0
XRECORD
  5
1DF3
102
{ACAD_REACTORS
330
1D12
102
}
330
1D12
100
AcDbXrecord
102
MATERIAL
340
1CA6
  0
XRECORD
  5
1D13
102
{ACAD_REACTORS
330
1D12
102
}
330
1D12
100
AcDbXrecord
290
     1
  0
XRECORD
  5
1DFE
102
{ACAD_REACTORS
330
1D18
102
}
330
1D18
100
AcDbXrecord
102
MATERIAL
340
1CA6
  0
XRECORD
  5
1D19
102
{ACAD_REACTORS
330
1D18
102
}
330
1D18
100
AcDbXrecord
290
     1
  0
XRECORD
  5
1DFF
102
{ACAD_REACTORS
330
1D1A
102
}
330
1D1A
100
AcDbXrecord
102
MATERIAL
340
1CA6
  0
XRECORD
  5
1D1B
102
{ACAD_REACTORS
330
1D1A
102
}
330
1D1A
100
AcDbXrecord
290
     1
  0
XRECORD
  5
1E01
102
{ACAD_REACTORS
330
1D1E
102
}
330
1D1E
100
AcDbXrecord
102
MATERIAL
340
1CA6
  0
XRECORD
  5
1D1F
102
{ACAD_REACTORS
330
1D1E
102
}
330
1D1E
100
AcDbXrecord
290
     1
  0
XRECORD
  5
1E06
102
{ACAD_REACTORS
330
1882
102
}
330
1882
100
AcDbXrecord
102
MATERIAL
340
1CA6
  0
XRECORD
  5
1884
102
{ACAD_REACTORS
330
1882
102
}
330
1882
100
AcDbXrecord
290
     1
  0
XRECORD
  5
1E47
102
{ACAD_REACTORS
330
1E46
102
}
330
1E46
100
AcDbXrecord
340
2
  0
XRECORD
  5
1E49
102
{ACAD_REACTORS
330
1E48
102
}
330
1E48
100
AcDbXrecord
340
1E1F
  0
ACAD_PROXY_OBJECT
  5
1C9E
102
{ACAD_XDICTIONARY
360
1C9F
102
}
102
{ACAD_REACTORS
330
1C95
102
}
330
1C95
100
AcDbProxyObject
 90
      499
 91
      511
 93
     1340
310
42109E509B1BD8DAC02004014080404555555555555953FAA155555555555654FEA9AA400014080404555555555555953FAA155555555555654FEA9AA400000000000000E03F4080404555555555555953FAA155555555555654FEA9AA4014080404555555555555953FAA155555555555654FEA9AA4010201011555555555
310
55654FEA8555555555555953FAA6A9005020101155555555555654FEA8555555555555953FAA6A9000
 94
        0
1001
ACAD
1000
AcadProxyRoundTripData
1071
      504
1071
   655383
1070
     0
  0
ACAD_PROXY_OBJECT
  5
1C96
102
{ACAD_XDICTIONARY
360
1C97
102
}
102
{ACAD_REACTORS
330
1C95
102
}
330
1C95
100
AcDbProxyObject
 90
      499
 91
      511
 93
     1340
310
42109E53185E595C802004014080404555555555555953FAA155555555555654FEA9AA400014080404555555555555953FAA155555555555654FEA9AA400000000000000E03F4080404555555555555953FAA155555555555654FEA9AA4014080404555555555555953FAA155555555555654FEA9AA4010201011555555555
310
55654FEA8555555555555953FAA6A9005020101155555555555654FEA8555555555555953FAA6A9000
 94
        0
1001
ACAD
1000
AcadProxyRoundTripData
1071
      504
1071
   655383
1070
     0
  0
ACAD_PROXY_OBJECT
  5
1CA6
102
{ACAD_XDICTIONARY
360
1CA7
102
}
102
{ACAD_REACTORS
330
1C95
102
}
330
1C95
100
AcDbProxyObject
 90
      499
 91
      511
 93
     1332
310
41D1DB1BD8985B002004014080404555555555555953FAA155555555555654FEA9AA400014080404555555555555953FAA155555555555654FEA9AA400000000000000E03F4080404555555555555953FAA155555555555654FEA9AA4014080404555555555555953FAA155555555555654FEA9AA401020101155555555555
310
654FEA8555555555555953FAA6A9005020101155555555555654FEA8555555555555953FAA6A9000
 94
        0
1001
ACAD
1000
AcadProxyRoundTripData
1071
      504
1071
   655383
1070
     0
  0
ACAD_PROXY_OBJECT
  5
1CE5
102
{ACAD_REACTORS
330
1CE4
102
}
330
1CE4
100
AcDbProxyObject
 90
      499
 91
      511
 93
      618
310
40901902A4063FBFFFFFE056BD1B81E855B9FC0AD7A3703D0AD73F4254DD185B99185C990000AD7A3703D0AC73F90141901A02B5E8DC0F42B1CFC02B5E8DC0F42B1CFE5764000000000000300FC6
340
6A
340
0
340
16
340
0
 94
        0
1001
ACAD_MLEADERVER
1070
     2
1001
ACAD
1000
AcadProxyRoundTripData
1071
      508
1071
   655383
1070
     0
  0
MLINESTYLE
  5
78
102
{ACAD_REACTORS
330
76
102
}
330
76
100
AcDbMlineStyle
  2
STANDARD
 70
     0
  3

 62
     0
 51
90.0
 52
90.0
 71
     2
 49
0.5
 62
   256
  6
BYLAYER
 49
-0.5
 62
   256
  6
BYLAYER
  0
ACDBPLACEHOLDER
  5
5
102
{ACAD_REACTORS
330
6
102
}
330
6
100
AcDbPlaceHolder
280
     0
  0
ACAD_PROXY_OBJECT
  5
1CC3
102
{ACAD_REACTORS
330
1CC2
102
}
330
1CC2
100
AcDbProxyObject
 90
      499
 91
      511
 93
       49
310
904313A3100598
 94
        0
1001
ACAD
1000
AcadProxyRoundTripData
1071
      507
1071
   655383
1070
     0
  0
ACAD_PROXY_OBJECT
  5
1CC4
102
{ACAD_REACTORS
330
1CC2
102
}
330
1CC2
100
AcDbProxyObject
 90
      499
 91
      511
 93
      113
310
904313A3200400000000000000406B
 94
        0
1001
ACAD
1000
AcadProxyRoundTripData
1071
      507
1071
   655383
1070
     0
  0
ACAD_PROXY_OBJECT
  5
1CC5
102
{ACAD_REACTORS
330
1CC2
102
}
330
1CC2
100
AcDbProxyObject
 90
      499
 91
      511
 93
      113
310
904313A3400400000000000010406B
 94
        0
1001
ACAD
1000
AcadProxyRoundTripData
1071
      507
1071
   655383
1070
     0
  0
ACAD_PROXY_OBJECT
  5
1CC6
102
{ACAD_REACTORS
330
1CC2
102
}
330
1CC2
100
AcDbProxyObject
 90
      499
 91
      511
 93
      113
310
904313A3500400000000000014406B
 94
        0
1001
ACAD
1000
AcadProxyRoundTripData
1071
      507
1071
   655383
1070
     0
  0
ACAD_PROXY_OBJECT
  5
1CC7
102
{ACAD_REACTORS
330
1CC2
102
}
330
1CC2
100
AcDbProxyObject
 90
      499
 91
      511
 93
      113
310
904313A3800400000000000020406B
 94
        0
1001
ACAD
1000
AcadProxyRoundTripData
1071
      507
1071
   655383
1070
     0
  0
ACAD_PROXY_OBJECT
  5
1CC8
102
{ACAD_REACTORS
330
1CC2
102
}
330
1CC2
100
AcDbProxyObject
 90
      499
 91
      511
 93
      121
310
905313A3130004000000000000244051
 94
        0
1001
ACAD
1000
AcadProxyRoundTripData
1071
      507
1071
   655383
1070
     0
  0
ACAD_PROXY_OBJECT
  5
1CC9
102
{ACAD_REACTORS
330
1CC2
102
}
330
1CC2
100
AcDbProxyObject
 90
      499
 91
      511
 93
      121
310
905313A3136004000000000000304051
 94
        0
1001
ACAD
1000
AcadProxyRoundTripData
1071
      507
1071
   655383
1070
     0
  0
ACAD_PROXY_OBJECT
  5
1CCA
102
{ACAD_REACTORS
330
1CC2
102
}
330
1CC2
100
AcDbProxyObject
 90
      499
 91
      511
 93
      121
310
905313A3230004000000000000344051
 94
        0
1001
ACAD
1000
AcadProxyRoundTripData
1071
      507
1071
   655383
1070
     0
  0
ACAD_PROXY_OBJECT
  5
1CCB
102
{ACAD_REACTORS
330
1CC2
102
}
330
1CC2
100
AcDbProxyObject
 90
      499
 91
      511
 93
      121
310
905313A33300040000000000003E4051
 94
        0
1001
ACAD
1000
AcadProxyRoundTripData
1071
      507
1071
   655383
1070
     0
  0
ACAD_PROXY_OBJECT
  5
1CCC
102
{ACAD_REACTORS
330
1CC2
102
}
330
1CC2
100
AcDbProxyObject
 90
      499
 91
      511
 93
      121
310
905313A3430004000000000000444051
 94
        0
1001
ACAD
1000
AcadProxyRoundTripData
1071
      507
1071
   655383
1070
     0
  0
ACAD_PROXY_OBJECT
  5
1CCD
102
{ACAD_REACTORS
330
1CC2
102
}
330
1CC2
100
AcDbProxyObject
 90
      499
 91
      511
 93
      121
310
905313A3530004000000000000494051
 94
        0
1001
ACAD
1000
AcadProxyRoundTripData
1071
      507
1071
   655383
1070
     0
  0
ACAD_PROXY_OBJECT
  5
1CCE
102
{ACAD_REACTORS
330
1CC2
102
}
330
1CC2
100
AcDbProxyObject
 90
      499
 91
      511
 93
      129
310
906313A313030004000000000000594038
 94
        0
1001
ACAD
1000
AcadProxyRoundTripData
1071
      507
1071
   655383
1070
     0
  0
ACAD_PROXY_OBJECT
  5
1CCF
102
{ACAD_REACTORS
330
1CC2
102
}
330
1CC2
100
AcDbProxyObject
 90
      499
 91
      511
 93
      113
310
904323A31000000000000000010159
 94
        0
1001
ACAD
1000
AcadProxyRoundTripData
1071
      507
1071
   655383
1070
     0
  0
ACAD_PROXY_OBJECT
  5
1CD0
102
{ACAD_REACTORS
330
1CC2
102
}
330
1CC2
100
AcDbProxyObject
 90
      499
 91
      511
 93
      113
310
904343A31000000000000000410159
 94
        0
1001
ACAD
1000
AcadProxyRoundTripData
1071
      507
1071
   655383
1070
     0
  0
ACAD_PROXY_OBJECT
  5
1CD1
102
{ACAD_REACTORS
330
1CC2
102
}
330
1CC2
100
AcDbProxyObject
 90
      499
 91
      511
 93
      113
310
904383A31000000000000000810159
 94
        0
1001
ACAD
1000
AcadProxyRoundTripData
1071
      507
1071
   655383
1070
     0
  0
ACAD_PROXY_OBJECT
  5
1CD2
102
{ACAD_REACTORS
330
1CC2
102
}
330
1CC2
100
AcDbProxyObject
 90
      499
 91
      511
 93
      121
310
90531303A31000000000000000910140
 94
        0
1001
ACAD
1000
AcadProxyRoundTripData
1071
      507
1071
   655383
1070
     0
  0
ACAD_PROXY_OBJECT
  5
1CD3
102
{ACAD_REACTORS
330
1CC2
102
}
330
1CC2
100
AcDbProxyObject
 90
      499
 91
      511
 93
      129
310
9063130303A31000000000000001650138
 94
        0
1001
ACAD
1000
AcadProxyRoundTripData
1071
      507
1071
   655383
1070
     0
  0
ACAD_PROXY_OBJECT
  5
1CD4
102
{ACAD_REACTORS
330
1CC2
102
}
330
1CC2
100
AcDbProxyObject
 90
      499
 91
      511
 93
      265
310
90F312F31323822203D2031272D302200000000000000200FC00000000000028402B
 94
        0
1001
ACAD
1000
AcadProxyRoundTripData
1071
      507
1071
   655383
1070
     0
  0
ACAD_PROXY_OBJECT
  5
1CD5
102
{ACAD_REACTORS
330
1CC2
102
}
330
1CC2
100
AcDbProxyObject
 90
      499
 91
      511
 93
      257
310
90E312F363422203D2031272D302200000000000000240FC000000000000284040
 94
        0
1001
ACAD
1000
AcadProxyRoundTripData
1071
      507
1071
   655383
1070
     0
  0
ACAD_PROXY_OBJECT
  5
1CD6
102
{ACAD_REACTORS
330
1CC2
102
}
330
1CC2
100
AcDbProxyObject
 90
      499
 91
      511
 93
      257
310
90E312F333222203D2031272D302200000000000000280FC000000000000284040
 94
        0
1001
ACAD
1000
AcadProxyRoundTripData
1071
      507
1071
   655383
1070
     0
  0
ACAD_PROXY_OBJECT
  5
1CD7
102
{ACAD_REACTORS
330
1CC2
102
}
330
1CC2
100
AcDbProxyObject
 90
      499
 91
      511
 93
      257
310
90E312F313622203D2031272D3022000000000000002C0FC000000000000284040
 94
        0
1001
ACAD
1000
AcadProxyRoundTripData
1071
      507
1071
   655383
1070
     0
  0
ACAD_PROXY_OBJECT
  5
1CD8
102
{ACAD_REACTORS
330
1CC2
102
}
330
1CC2
100
AcDbProxyObject
 90
      499
 91
      511
 93
      257
310
90E332F333222203D2031272D3022000000000000002E0FC000000000000284040
 94
        0
1001
ACAD
1000
AcadProxyRoundTripData
1071
      507
1071
   655383
1070
     0
  0
ACAD_PROXY_OBJECT
  5
1CD9
102
{ACAD_REACTORS
330
1CC2
102
}
330
1CC2
100
AcDbProxyObject
 90
      499
 91
      511
 93
      249
310
90D312F3822203D2031272D302200000000000000300FC000000000000284040
 94
        0
1001
ACAD
1000
AcadProxyRoundTripData
1071
      507
1071
   655383
1070
     0
  0
ACAD_PROXY_OBJECT
  5
1CDA
102
{ACAD_REACTORS
330
1CC2
102
}
330
1CC2
100
AcDbProxyObject
 90
      499
 91
      511
 93
      257
310
90E332F313622203D2031272D302200000000000000320FC000000000000284040
 94
        0
1001
ACAD
1000
AcadProxyRoundTripData
1071
      507
1071
   655383
1070
     0
  0
ACAD_PROXY_OBJECT
  5
1CDB
102
{ACAD_REACTORS
330
1CC2
102
}
330
1CC2
100
AcDbProxyObject
 90
      499
 91
      511
 93
      249
310
90D312F3422203D2031272D302200000000000000340FC000000000000284040
 94
        0
1001
ACAD
1000
AcadProxyRoundTripData
1071
      507
1071
   655383
1070
     0
  0
ACAD_PROXY_OBJECT
  5
1CDC
102
{ACAD_REACTORS
330
1CC2
102
}
330
1CC2
100
AcDbProxyObject
 90
      499
 91
      511
 93
      249
310
90D332F3822203D2031272D302200000000000000360FC000000000000284040
 94
        0
1001
ACAD
1000
AcadProxyRoundTripData
1071
      507
1071
   655383
1070
     0
  0
ACAD_PROXY_OBJECT
  5
1CDD
102
{ACAD_REACTORS
330
1CC2
102
}
330
1CC2
100
AcDbProxyObject
 90
      499
 91
      511
 93
      249
310
90D312F3222203D2031272D302200000000000000380FC000000000000284040
 94
        0
1001
ACAD
1000
AcadProxyRoundTripData
1071
      507
1071
   655383
1070
     0
  0
ACAD_PROXY_OBJECT
  5
1CDE
102
{ACAD_REACTORS
330
1CC2
102
}
330
1CC2
100
AcDbProxyObject
 90
      499
 91
      511
 93
      249
310
90D332F3422203D2031272D3022000000000000003A0FC000000000000284040
 94
        0
1001
ACAD
1000
AcadProxyRoundTripData
1071
      507
1071
   655383
1070
     0
  0
ACAD_PROXY_OBJECT
  5
1CDF
102
{ACAD_REACTORS
330
1CC2
102
}
330
1CC2
100
AcDbProxyObject
 90
      499
 91
      511
 93
      169
310
90B3122203D2031272D3022004000000000000284020
 94
        0
1001
ACAD
1000
AcadProxyRoundTripData
1071
      507
1071
   655383
1070
     0
  0
ACAD_PROXY_OBJECT
  5
1CE0
102
{ACAD_REACTORS
330
1CC2
102
}
330
1CC2
100
AcDbProxyObject
 90
      499
 91
      511
 93
      265
310
90F312D312F3222203D2031272D3022000000000000003E0FC00000000000028402B
 94
        0
1001
ACAD
1000
AcadProxyRoundTripData
1071
      507
1071
   655383
1070
     0
  0
ACAD_PROXY_OBJECT
  5
1CE1
102
{ACAD_REACTORS
330
1CC2
102
}
330
1CC2
100
AcDbProxyObject
 90
      499
 91
      511
 93
      233
310
90B3322203D2031272D30220000000000000002100000000000000284000
 94
        0
1001
ACAD
1000
AcadProxyRoundTripData
1071
      507
1071
   655383
1070
     0
  0
ACAD_PROXY_OBJECT
  5
1CE2
102
{ACAD_REACTORS
330
1CC2
102
}
330
1CC2
100
AcDbProxyObject
 90
      499
 91
      511
 93
      233
310
90B3622203D2031272D30220000000000000006100000000000000284000
 94
        0
1001
ACAD
1000
AcadProxyRoundTripData
1071
      507
1071
   655383
1070
     0
  0
ACAD_PROXY_OBJECT
  5
1CE3
102
{ACAD_REACTORS
330
1CC2
102
}
330
1CC2
100
AcDbProxyObject
 90
      499
 91
      511
 93
      257
310
90E31272D3022203D2031272D3022000000000000000A100000000000000284040
 94
        0
1001
ACAD
1000
AcadProxyRoundTripData
1071
      507
1071
   655383
1070
     0
  0
ACAD_PROXY_OBJECT
  5
1CC1
102
{ACAD_XDICTIONARY
360
1D20
102
}
102
{ACAD_REACTORS
330
1CC0
102
}
330
1CC0
100
AcDbProxyObject
 90
      499
 91
      511
 93
     1849
310
4254DD185B99185C990028B81E85EB51B8AE3F2E07A17AD46E2B8FC02B5E8DC0F42B1CFD028000000C1008070000C3001FDFF8000000C1003FBFF000000182007F7FE00000030400FEFFC00000060801FDFF8000000C1003FBFF00000018200000000000000681FA0B0000001820100E000186003FBFF000000182007F7FE0
310
0000030400FEFFC00000060801FDFF8000000C1003FBFF000000182007F7FE000000304000AD7A3703D0AC73F4160000003040201C00030C007F7FE00000030400FEFFC00000060801FDFF8000000C1003FBFF000000182007F7FE00000030400FEFFC000000608000
340
16
340
16
340
16
 94
        0
1001
ACAD
1000
AcadProxyRoundTripData
1071
      506
1071
   655383
1070
     0
  0
ACAD_PROXY_OBJECT
  5
1CB4
102
{ACAD_REACTORS
330
1CAE
102
}
330
1CAE
100
AcDbProxyObject
 90
      499
 91
      511
 93
      444
310
430C9915DA5C99599C985B59401049028333333333333E3BF0000000000000FB0107901411070040501600405405064090741402480A0340
 94
        0
1001
ACAD
1000
AcDbSavedByObjectVersion
1070
     0
1000
AcadProxyRoundTripData
1071
      505
1071
   655383
1070
     0
  0
ACAD_PROXY_OBJECT
  5
1CB6
102
{ACAD_REACTORS
330
1CAE
102
}
330
1CAE
100
AcDbProxyObject
 90
      499
 91
      511
 93
      508
310
428CD108121A5919195B8010640502408333333333333E3BF0000000000000FB01079024090700405020000000000001110200405405064090740C02480A0340
 94
        0
1001
ACAD
1000
AcDbSavedByObjectVersion
1070
     0
1000
AcadProxyRoundTripData
1071
      505
1071
   655383
1070
     0
  0
ACAD_PROXY_OBJECT
  5
1CB5
102
{ACAD_REACTORS
330
1CAE
102
}
330
1CAE
100
AcDbProxyObject
 90
      499
 91
      511
 93
      444
310
430CD915DA5C99599C985B59401059028333333333333E3BF0000000000000FB0107901411070040501600405405064090741402480A0340
 94
        0
1001
ACAD
1000
AcDbSavedByObjectVersion
1070
     0
1000
AcadProxyRoundTripData
1071
      505
1071
   655383
1070
     0
  0
ACAD_PROXY_OBJECT
  5
1CB3
102
{ACAD_REACTORS
330
1CAE
102
}
330
1CAE
100
AcDbProxyObject
 90
      499
 91
      511
 93
      396
310
4190985CDA58C0107406404333333333333E3BF0000000000000FB0107A41107004050150841D405064090741402480A0356
 94
        0
1001
ACAD
1000
AcDbSavedByObjectVersion
1070
     0
1000
AcadProxyRoundTripData
1071
      505
1071
   655383
1070
     0
  0
ACAD_PROXY_OBJECT
  5
1CBA
102
{ACAD_REACTORS
330
1CAE
102
}
330
1CAE
100
AcDbProxyObject
 90
      499
 91
      511
 93
      436
310
42509C9A59DA1D195B8010C409028333333333333E3BF0000000000000FB010790141107004050150841D405064090741402480A029956
 94
        0
1001
ACAD
1000
AcDbSavedByObjectVersion
1070
     0
1000
AcadProxyRoundTripData
1071
      505
1071
   655383
1070
     0
  0
ACAD_PROXY_OBJECT
  5
1CBE
102
{ACAD_REACTORS
330
1CAE
102
}
330
1CAE
100
AcDbProxyObject
 90
      499
 91
      511
 93
      460
310
4310DBDB1BDC90DA185B99D9401104090240C333333333333E3BF0000000000000FB0108901411070040501508421405064090741402480A0354
 94
        0
1001
ACAD
1000
AcDbSavedByObjectVersion
1070
     0
1000
AcadProxyRoundTripData
1071
      505
1071
   655383
1070
     0
  0
ACAD_PROXY_OBJECT
  5
1CB7
102
{ACAD_REACTORS
330
1CAE
102
}
330
1CAE
100
AcDbProxyObject
 90
      499
 91
      511
 93
      508
310
42D0DBDB98D95C1D1D585B0010940D028333333333333E3BF0000000000000FB0107902409070040501000000000000111010841D405064090740C02480A0340
 94
        0
1001
ACAD
1000
AcDbSavedByObjectVersion
1070
     0
1000
AcadProxyRoundTripData
1071
      505
1071
   655383
1070
     0
  0
ACAD_PROXY_OBJECT
  5
1CB9
102
{ACAD_REACTORS
330
1CAE
102
}
330
1CAE
100
AcDbProxyObject
 90
      499
 91
      511
 93
      420
310
41111A5B4010B409028333333333333E3BF0000000000000FB010790141107004050150841D405064090741402480A02677FFFFFDB
 94
        0
1001
ACAD
1000
AcDbSavedByObjectVersion
1070
     0
1000
AcadProxyRoundTripData
1071
      505
1071
   655383
1070
     0
  0
ACAD_PROXY_OBJECT
  5
1CBD
102
{ACAD_REACTORS
330
1CAE
102
}
330
1CAE
100
AcDbProxyObject
 90
      499
 91
      511
 93
      452
310
43119858D95C185D1D195C9B8010F409028333333333333E3BF0000000000000FB010790141107004050150841D405064090741402480A0350
 94
        0
1001
ACAD
1000
AcDbSavedByObjectVersion
1070
     0
1000
AcadProxyRoundTripData
1071
      505
1071
   655383
1070
     0
  0
ACAD_PROXY_OBJECT
  5
1CAF
102
{ACAD_REACTORS
330
1CAE
102
}
330
1CAE
100
AcDbProxyObject
 90
      499
 91
      511
 93
      396
310
41519B185D00240901404333333333333E3BF0000000000000F9010740A41107004050150841D405064090741402480A1B55
 94
        0
1001
ACAD
1000
AcDbSavedByObjectVersion
1070
     0
1000
AcadProxyRoundTripData
1071
      505
1071
   655383
1070
     0
  0
ACAD_PROXY_OBJECT
  5
1CB0
102
{ACAD_REACTORS
330
1CAE
102
}
330
1CAE
100
AcDbProxyObject
 90
      499
 91
      511
 93
      484
310
43919B185D15DA5D1A115919D95CC010140901404333333333333E3BF0000000000000F9010740901411070040501600405405064090741402480A1B50
 94
        0
1001
ACAD
1000
AcDbSavedByObjectVersion
1070
     0
1000
AcadProxyRoundTripData
1071
      505
1071
   655383
1070
     0
  0
ACAD_PROXY_OBJECT
  5
1CB1
102
{ACAD_REACTORS
330
1CAE
102
}
330
1CAE
100
AcDbProxyObject
 90
      499
 91
      511
 93
      420
310
4211DBDD5C985D590010240902404333333333333E3BF0000000000000F9010740A411070040501641D405064090741402480A1B50
 94
        0
1001
ACAD
1000
AcDbSavedByObjectVersion
1070
     0
1000
AcadProxyRoundTripData
1071
      505
1071
   655383
1070
     0
  0
ACAD_PROXY_OBJECT
  5
1CB2
102
{ACAD_REACTORS
330
1CAE
102
}
330
1CAE
100
AcDbProxyObject
 90
      499
 91
      511
 93
      508
310
4451DBDD5C985D5915DA5D1A115919D95CC010340902404333333333333E3BF0000000000000F9010740901411070040501600405405064090741402480A1B50
 94
        0
1001
ACAD
1000
AcDbSavedByObjectVersion
1070
     0
1000
AcadProxyRoundTripData
1071
      505
1071
   655383
1070
     0
  0
ACAD_PROXY_OBJECT
  5
1CBC
102
{ACAD_REACTORS
330
1CAE
102
}
330
1CAE
100
AcDbProxyObject
 90
      499
 91
      511
 93
      452
310
43131A5B995C185D1D195C9B8010E409028333333333333E3BF0000000000000FB010790141107004050750841D405064090741402483A0350
 94
        0
1001
ACAD
1000
AcDbSavedByObjectVersion
1070
     0
1000
AcadProxyRoundTripData
1071
      505
1071
   655383
1070
     0
  0
ACAD_PROXY_OBJECT
  5
1CB8
102
{ACAD_REACTORS
330
1CAE
102
}
330
1CAE
100
AcDbProxyObject
 90
      499
 91
      511
 93
      428
310
429499585B1A5CDD1A58C0108409028333333333333E3BF0000000000000FB01079019070040501508421405064090741402480A1B45
 94
        0
1001
ACAD
1000
AcDbSavedByObjectVersion
1070
     0
1000
AcadProxyRoundTripData
1071
      505
1071
   655383
1070
     0
  0
ACAD_PROXY_OBJECT
  5
1CBB
102
{ACAD_REACTORS
330
1CAE
102
}
330
1CAE
100
AcDbProxyObject
 90
      499
 91
      511
 93
      420
310
42151A1A58DAD95B8010D409028333333333333E3BF0000000000000FB010790141107004050150C41D405064090741402480A0352
 94
        0
1001
ACAD
1000
AcDbSavedByObjectVersion
1070
     0
1000
AcadProxyRoundTripData
1071
      505
1071
   655383
1070
     0
  0
XRECORD
  5
1E2F
102
{ACAD_REACTORS
330
1E25
102
}
330
1E25
100
AcDbXrecord
 90
        0
  0
XRECORD
  5
1E33
102
{ACAD_REACTORS
330
1E25
102
}
330
1E25
100
AcDbXrecord
1000
DSTYLE
1002
{
1070
   179
 70
     2
1070
   277
 70
     6
1002
}
  0
XRECORD
  5
1E30
102
{ACAD_REACTORS
330
1E25
102
}
330
1E25
100
AcDbXrecord
  1
{6385560B-F4B1-4644-A7C2-A3E32AC3D232}
  0
XRECORD
  5
1E28
102
{ACAD_REACTORS
330
1E25
102
}
330
1E25
100
AcDbXrecord
  1

  0
XRECORD
  5
1E2E
102
{ACAD_REACTORS
330
1E25
102
}
330
1E25
100
AcDbXrecord
 90
        0
  0
XRECORD
  5
1E2A
102
{ACAD_REACTORS
330
1E25
102
}
330
1E25
100
AcDbXrecord
340
61
  0
XRECORD
  5
1E2D
102
{ACAD_REACTORS
330
1E25
102
}
330
1E25
100
AcDbXrecord
 90
    10781
  0
XRECORD
  5
1E2B
102
{ACAD_REACTORS
330
1E25
102
}
330
1E25
100
AcDbXrecord
340
77
  0
XRECORD
  5
1E2C
102
{ACAD_REACTORS
330
1E25
102
}
330
1E25
100
AcDbXrecord
340
6
  0
XRECORD
  5
1E32
102
{ACAD_REACTORS
330
1E25
102
}
330
1E25
100
AcDbXrecord
 40
0.0
  0
XRECORD
  5
1E36
102
{ACAD_REACTORS
330
1E25
102
}
330
1E25
100
AcDbXrecord
340
0
  0
XRECORD
  5
1E3C
102
{ACAD_REACTORS
330
1E25
102
}
330
1E25
100
AcDbXrecord
 10
0.0
 20
0.0
 30
0.0
  0
XRECORD
  5
1E38
102
{ACAD_REACTORS
330
1E25
102
}
330
1E25
100
AcDbXrecord
 10
0.0
 20
0.0
 30
0.0
  0
XRECORD
  5
1E3B
102
{ACAD_REACTORS
330
1E25
102
}
330
1E25
100
AcDbXrecord
 10
0.0
 20
0.0
 30
0.0
  0
XRECORD
  5
1E39
102
{ACAD_REACTORS
330
1E25
102
}
330
1E25
100
AcDbXrecord
 10
0.0
 20
0.0
 30
0.0
  0
XRECORD
  5
1E3A
102
{ACAD_REACTORS
330
1E25
102
}
330
1E25
100
AcDbXrecord
 10
0.0
 20
0.0
 30
0.0
  0
XRECORD
  5
1E37
102
{ACAD_REACTORS
330
1E25
102
}
330
1E25
100
AcDbXrecord
 10
0.0
 20
0.0
 30
0.0
  0
XRECORD
  5
1E34
102
{ACAD_REACTORS
330
1E25
102
}
330
1E25
100
AcDbXrecord
340
0
  0
XRECORD
  5
1E35
102
{ACAD_REACTORS
330
1E25
102
}
330
1E25
100
AcDbXrecord
 70
     0
  0
XRECORD
  5
1E29
102
{ACAD_REACTORS
330
1E25
102
}
330
1E25
100
AcDbXrecord
  1
Sekkei.ctb
  0
XRECORD
  5
1E26
102
{ACAD_REACTORS
330
1E25
102
}
330
1E25
100
AcDbXrecord
 90
        1
  0
XRECORD
  5
1E27
102
{ACAD_REACTORS
330
1E25
102
}
330
1E25
100
AcDbXrecord
 90
       70
  0
XRECORD
  5
1E3F
102
{ACAD_REACTORS
330
1E25
102
}
330
1E25
100
AcDbXrecord
340
0
  0
XRECORD
  5
1E45
102
{ACAD_REACTORS
330
1E25
102
}
330
1E25
100
AcDbXrecord
 10
0.0
 20
0.0
 30
0.0
  0
XRECORD
  5
1E41
102
{ACAD_REACTORS
330
1E25
102
}
330
1E25
100
AcDbXrecord
 10
0.0
 20
0.0
 30
0.0
  0
XRECORD
  5
1E44
102
{ACAD_REACTORS
330
1E25
102
}
330
1E25
100
AcDbXrecord
 10
0.0
 20
0.0
 30
0.0
  0
XRECORD
  5
1E42
102
{ACAD_REACTORS
330
1E25
102
}
330
1E25
100
AcDbXrecord
 10
0.0
 20
0.0
 30
0.0
  0
XRECORD
  5
1E43
102
{ACAD_REACTORS
330
1E25
102
}
330
1E25
100
AcDbXrecord
 10
0.0
 20
0.0
 30
0.0
  0
XRECORD
  5
1E40
102
{ACAD_REACTORS
330
1E25
102
}
330
1E25
100
AcDbXrecord
 10
0.0
 20
0.0
 30
0.0
  0
XRECORD
  5
1E3D
102
{ACAD_REACTORS
330
1E25
102
}
330
1E25
100
AcDbXrecord
340
0
  0
XRECORD
  5
1E3E
102
{ACAD_REACTORS
330
1E25
102
}
330
1E25
100
AcDbXrecord
 70
     0
  0
XRECORD
  5
1E31
102
{ACAD_REACTORS
330
1E25
102
}
330
1E25
100
AcDbXrecord
  1
{ED6907FB-D047-4B15-911F-65AD0DC69F28}
  0
DICTIONARYVAR
  5
1D43
102
{ACAD_REACTORS
330
102
102
}
330
102
100
DictionaryVariables
280
     0
  1
1:1
  0
DICTIONARYVAR
  5
1D42
102
{ACAD_REACTORS
330
102
102
}
330
102
100
DictionaryVariables
280
     0
  1
STANDARD
  0
DICTIONARYVAR
  5
1D41
102
{ACAD_REACTORS
330
102
102
}
330
102
100
DictionaryVariables
280
     0
  1
STANDARD
  0
DICTIONARYVAR
  5
103
102
{ACAD_REACTORS
330
102
102
}
330
102
100
DictionaryVariables
280
     0
  1
1
  0
DICTIONARYVAR
  5
1D44
102
{ACAD_REACTORS
330
102
102
}
330
102
100
DictionaryVariables
280
     0
  1
0
  0
DICTIONARYVAR
  5
549
102
{ACAD_REACTORS
330
102
102
}
330
102
100
DictionaryVariables
280
     0
  1
96
  0
DICTIONARY
  5
1C9F
330
1C9E
100
AcDbDictionary
280
     1
  3
ACAD_XREC_ROUNDTRIP
360
1E0A
  3
BUMPTILE
360
1CA1
  3
DIFFUSETILE
360
1CA0
  3
OPACITYTILE
360
1CA4
  3
REFLECTIONTILE
360
1CA3
  3
REFRACTIONTILE
360
1CA5
  3
SPECULARTILE
360
1CA2
  0
DICTIONARY
  5
1C97
330
1C96
100
AcDbDictionary
280
     1
  3
ACAD_XREC_ROUNDTRIP
360
1E09
  3
BUMPTILE
360
1C99
  3
DIFFUSETILE
360
1C98
  3
OPACITYTILE
360
1C9C
  3
REFLECTIONTILE
360
1C9B
  3
REFRACTIONTILE
360
1C9D
  3
SPECULARTILE
360
1C9A
  0
DICTIONARY
  5
1CA7
330
1CA6
100
AcDbDictionary
280
     1
  3
ACAD_XREC_ROUNDTRIP
360
1E0B
  3
BUMPTILE
360
1CA9
  3
DIFFUSETILE
360
1CA8
  3
OPACITYTILE
360
1CAC
  3
REFLECTIONTILE
360
1CAB
  3
REFRACTIONTILE
360
1CAD
  3
SPECULARTILE
360
1CAA
  0
DICTIONARY
  5
1D20
330
1CC1
100
AcDbDictionary
280
     1
  3
ACAD_ROUNDTRIP_2008_TABLES
360
1DF0
  3
ACAD_XREC_ROUNDTRIP
360
1E0C
  0
XRECORD
  5
1E0A
102
{ACAD_REACTORS
330
1C9F
102
}
330
1C9F
100
AcDbXrecord
102
MATERIAL
148
0.0
149
0.0
149
0.0
 93
        0
 94
      127
282
     0
 72
     0
 77
     0
171
     0
175
     0
179
     0
273
     0
  0
XRECORD
  5
1CA1
102
{ACAD_REACTORS
330
1C9F
102
}
330
1C9F
100
AcDbXrecord
270
     1
271
     1
  0
XRECORD
  5
1CA0
102
{ACAD_REACTORS
330
1C9F
102
}
330
1C9F
100
AcDbXrecord
270
     1
271
     1
  0
XRECORD
  5
1CA4
102
{ACAD_REACTORS
330
1C9F
102
}
330
1C9F
100
AcDbXrecord
270
     1
271
     1
  0
XRECORD
  5
1CA3
102
{ACAD_REACTORS
330
1C9F
102
}
330
1C9F
100
AcDbXrecord
270
     1
271
     1
  0
XRECORD
  5
1CA5
102
{ACAD_REACTORS
330
1C9F
102
}
330
1C9F
100
AcDbXrecord
270
     1
271
     1
  0
XRECORD
  5
1CA2
102
{ACAD_REACTORS
330
1C9F
102
}
330
1C9F
100
AcDbXrecord
270
     1
271
     1
  0
XRECORD
  5
1E09
102
{ACAD_REACTORS
330
1C97
102
}
330
1C97
100
AcDbXrecord
102
MATERIAL
148
0.0
149
0.0
149
0.0
 93
        0
 94
      127
282
     0
 72
     0
 77
     0
171
     0
175
     0
179
     0
273
     0
  0
XRECORD
  5
1C99
102
{ACAD_REACTORS
330
1C97
102
}
330
1C97
100
AcDbXrecord
270
     1
271
     1
  0
XRECORD
  5
1C98
102
{ACAD_REACTORS
330
1C97
102
}
330
1C97
100
AcDbXrecord
270
     1
271
     1
  0
XRECORD
  5
1C9C
102
{ACAD_REACTORS
330
1C97
102
}
330
1C97
100
AcDbXrecord
270
     1
271
     1
  0
XRECORD
  5
1C9B
102
{ACAD_REACTORS
330
1C97
102
}
330
1C97
100
AcDbXrecord
270
     1
271
     1
  0
XRECORD
  5
1C9D
102
{ACAD_REACTORS
330
1C97
102
}
330
1C97
100
AcDbXrecord
270
     1
271
     1
  0
XRECORD
  5
1C9A
102
{ACAD_REACTORS
330
1C97
102
}
330
1C97
100
AcDbXrecord
270
     1
271
     1
  0
XRECORD
  5
1E0B
102
{ACAD_REACTORS
330
1CA7
102
}
330
1CA7
100
AcDbXrecord
102
MATERIAL
148
0.0
149
0.0
149
0.0
 93
        0
 94
      127
282
     0
 72
     0
 77
     0
171
     0
175
     0
179
     0
273
     0
  0
XRECORD
  5
1CA9
102
{ACAD_REACTORS
330
1CA7
102
}
330
1CA7
100
AcDbXrecord
270
     1
271
     1
  0
XRECORD
  5
1CA8
102
{ACAD_REACTORS
330
1CA7
102
}
330
1CA7
100
AcDbXrecord
270
     1
271
     1
  0
XRECORD
  5
1CAC
102
{ACAD_REACTORS
330
1CA7
102
}
330
1CA7
100
AcDbXrecord
270
     1
271
     1
  0
XRECORD
  5
1CAB
102
{ACAD_REACTORS
330
1CA7
102
}
330
1CA7
100
AcDbXrecord
270
     1
271
     1
  0
XRECORD
  5
1CAD
102
{ACAD_REACTORS
330
1CA7
102
}
330
1CA7
100
AcDbXrecord
270
     1
271
     1
  0
XRECORD
  5
1CAA
102
{ACAD_REACTORS
330
1CA7
102
}
330
1CA7
100
AcDbXrecord
270
     1
271
     1
  0
ACAD_PROXY_OBJECT
  5
1DF0
102
{ACAD_REACTORS
330
1D20
102
}
330
1D20
100
AcDbProxyObject
 90
      499
 91
      511
 93
     5304
310
40D054060020000020000003200101A000080002A5058000000C100000000000000340FD012E07A17AD46E2B8FCB81E85EB51B8AE3F2E07A17AD46E2B8FCB81E85EB51B8AE3F02B5E8DC0F42B1CFC0AD7A3703D0AC73F419019018000000C1003FBFFFFFE02B5E8DC0F42A9CFD029018000000C1003FBFFFFFE02B5E8DC0F4
310
2A9CFD049018000000C1003FBFFFFFE02B5E8DC0F42A9CFD089018000000C1003FBFFFFFE02B5E8DC0F42A9CFD109018000000C1003FBFFFFFE02B5E8DC0F42A9CFD209018000000C1003FBFFFFFE02B5E8DC0F42A9CFD01405075F5449544C450041501A8000000C800406800020000A9416000000304000AD7A3703D0AC7
310
3F404B81E85EB51B8AE3F2E07A17AD46E2B8FCB81E85EB51B8AE3F2E07A17AD46E2B8FC0AD7A3703D0AC73F02B5E8DC0F42B1CFD0640640600000030400FEFFFFFF80AD7A3703D0AA73F40A40600000030400FEFFFFFF80AD7A3703D0AA73F41240600000030400FEFFFFFF80AD7A3703D0AA73F42240600000030400FEFFF
310
FFF80AD7A3703D0AA73F44240600000030400FEFFFFFF80AD7A3703D0AA73F48240600000030400FEFFFFFF80AD7A3703D0AA73F409014217D2115051115480105406A0000003200101A000080002A5028000000C10002B5E8DC0F42B1CFD012E07A17AD46E2B8FCB81E85EB51B8AE3F2E07A17AD46E2B8FCB81E85EB51B8A
310
E3F02B5E8DC0F42B1CFC0AD7A3703D0AC73F419019018000000C1003FBFFFFFE02B5E8DC0F42A9CFD029018000000C1003FBFFFFFE02B5E8DC0F42A9CFD049018000000C1003FBFFFFFE02B5E8DC0F42A9CFD089018000000C1003FBFFFFFE02B5E8DC0F42A9CFD109018000000C1003FBFFFFFE02B5E8DC0F42A9CFD20901
310
8000000C1003FBFFFFFE02B5E8DC0F42A9CFD03409065F444154410000
340
16
340
0
340
0
340
0
340
0
340
0
340
0
340
16
340
0
340
0
340
0
340
0
340
0
340
0
340
16
340
0
340
0
340
0
340
0
340
0
340
0
 94
        0
1001
ACAD
1000
AcadProxyRoundTripData
1071
      509
1071
   655383
1070
     0
  0
XRECORD
  5
1E0C
102
{ACAD_REACTORS
330
1D20
102
}
330
1D20
100
AcDbXrecord
102
ACAD_ROUNDTRIP_PRE2007_TABLESTYLE
 90
      512
 91
        0
  1

 92
      512
 93
        0
  2

 94
      512
 95
        0
  3

  0
ENDSEC
  0
EOF
