  0
SECTION
  2
HEADER
  9
$ACADVER
  1
AC1014
  9
$ACADMAINTVER
 70
     9
  9
$DWGCODEPAGE
  3
ANSI_932
  9
$INSBASE
 10
0.0
 20
0.0
 30
0.0
  9
$EXTMIN
 10
34.86246813553862
 20
69.3078544428705
 30
0.0
  9
$EXTMAX
 10
1376.828568352439
 20
605.1975102261592
 30
0.0
  9
$LIMMIN
 10
-67.09814311333275
 20
-40.00372724061276
  9
$LIMMAX
 10
1399.539248607032
 20
585.3148077977159
  9
$ORTHOMODE
 70
     1
  9
$REGENMODE
 70
     1
  9
$FILLMODE
 70
     1
  9
$QTEXTMODE
 70
     0
  9
$MIRRTEXT
 70
     0
  9
$DRAGMODE
 70
     2
  9
$LTSCALE
 40
4.0
  9
$OSMODE
 70
    37
  9
$ATTMODE
 70
     1
  9
$TEXTSIZE
 40
2.0
  9
$TRACEWID
 40
1.0
  9
$TEXTSTYLE
  7
STANDARD
  9
$CLAYER
  8
0
  9
$CELTYPE
  6
BYLAYER
  9
$CECOLOR
 62
   256
  9
$CELTSCALE
 40
1.0
  9
$DELOBJ
 70
     1
  9
$DISPSILH
 70
     0
  9
$DIMSCALE
 40
4.0
  9
$DIMASZ
 40
1.8
  9
$DIMEXO
 40
0.625
  9
$DIMDLI
 40
3.75
  9
$DIMRND
 40
0.0
  9
$DIMDLE
 40
0.0
  9
$DIMEXE
 40
0.8
  9
$DIMTP
 40
0.0
  9
$DIMTM
 40
0.0
  9
$DIMTXT
 40
1.8
  9
$DIMCEN
 40
2.5
  9
$DIMTSZ
 40
0.0
  9
$DIMTOL
 70
     0
  9
$DIMLIM
 70
     0
  9
$DIMTIH
 70
     0
  9
$DIMTOH
 70
     0
  9
$DIMSE1
 70
     0
  9
$DIMSE2
 70
     0
  9
$DIMTAD
 70
     1
  9
$DIMZIN
 70
     8
  9
$DIMBLK
  1

  9
$DIMASO
 70
     1
  9
$DIMSHO
 70
     1
  9
$DIMPOST
  1

  9
$DIMAPOST
  1

  9
$DIMALT
 70
     0
  9
$DIMALTD
 70
     4
  9
$DIMALTF
 40
0.0394
  9
$DIMLFAC
 40
1.0
  9
$DIMTOFL
 70
     1
  9
$DIMTVP
 40
0.0
  9
$DIMTIX
 70
     0
  9
$DIMSOXD
 70
     0
  9
$DIMSAH
 70
     0
  9
$DIMBLK1
  1

  9
$DIMBLK2
  1

  9
$DIMSTYLE
  2
STANDARD
  9
$DIMCLRD
 70
     0
  9
$DIMCLRE
 70
     0
  9
$DIMCLRT
 70
     0
  9
$DIMTFAC
 40
1.0
  9
$DIMGAP
 40
0.75
  9
$DIMJUST
 70
     0
  9
$DIMSD1
 70
     0
  9
$DIMSD2
 70
     0
  9
$DIMTOLJ
 70
     1
  9
$DIMTZIN
 70
     0
  9
$DIMALTZ
 70
     0
  9
$DIMALTTZ
 70
     0
  9
$DIMFIT
 70
     3
  9
$DIMUPT
 70
     0
  9
$DIMUNIT
 70
     8
  9
$DIMDEC
 70
     2
  9
$DIMTDEC
 70
     2
  9
$DIMALTU
 70
     8
  9
$DIMALTTD
 70
     4
  9
$DIMTXSTY
  7
STANDARD
  9
$DIMAUNIT
 70
     0
  9
$LUNITS
 70
     2
  9
$LUPREC
 70
     3
  9
$SKETCHINC
 40
1.0
  9
$FILLETRAD
 40
2.0
  9
$AUNITS
 70
     0
  9
$AUPREC
 70
     2
  9
$MENU
  1
.
  9
$ELEVATION
 40
0.0
  9
$PELEVATION
 40
0.0
  9
$THICKNESS
 40
0.0
  9
$LIMCHECK
 70
     0
  9
$BLIPMODE
 70
     0
  9
$CHAMFERA
 40
0.0
  9
$CHAMFERB
 40
0.0
  9
$CHAMFERC
 40
20.0
  9
$CHAMFERD
 40
0.0
  9
$SKPOLY
 70
     0
  9
$TDCREATE
 40
2454412.723801354
  9
$TDUPDATE
 40
2454424.573194803
  9
$TDINDWG
 40
0.0564192593
  9
$TDUSRTIMER
 40
0.0564192593
  9
$USRTIMER
 70
     1
  9
$ANGBASE
 50
0.0
  9
$ANGDIR
 70
     0
  9
$PDMODE
 70
     0
  9
$PDSIZE
 40
-10.0
  9
$PLINEWID
 40
0.0
  9
$COORDS
 70
     0
  9
$SPLFRAME
 70
     0
  9
$SPLINETYPE
 70
     6
  9
$SPLINESEGS
 70
     8
  9
$ATTDIA
 70
     0
  9
$ATTREQ
 70
     1
  9
$HANDLING
 70
-16383
  9
$HANDSEED
  5
39B2
  9
$SURFTAB1
 70
     6
  9
$SURFTAB2
 70
     6
  9
$SURFTYPE
 70
     6
  9
$SURFU
 70
     6
  9
$SURFV
 70
     6
  9
$UCSNAME
  2

  9
$UCSORG
 10
0.0
 20
0.0
 30
0.0
  9
$UCSXDIR
 10
1.0
 20
0.0
 30
0.0
  9
$UCSYDIR
 10
0.0
 20
1.0
 30
0.0
  9
$PUCSNAME
  2

  9
$PUCSORG
 10
0.0
 20
0.0
 30
0.0
  9
$PUCSXDIR
 10
1.0
 20
0.0
 30
0.0
  9
$PUCSYDIR
 10
0.0
 20
1.0
 30
0.0
  9
$USERI1
 70
     0
  9
$USERI2
 70
     0
  9
$USERI3
 70
     0
  9
$USERI4
 70
     0
  9
$USERI5
 70
     0
  9
$USERR1
 40
0.0
  9
$USERR2
 40
0.0
  9
$USERR3
 40
0.0
  9
$USERR4
 40
0.0
  9
$USERR5
 40
0.0
  9
$WORLDVIEW
 70
     1
  9
$SHADEDGE
 70
     3
  9
$SHADEDIF
 70
    70
  9
$TILEMODE
 70
     1
  9
$MAXACTVP
 70
    48
  9
$PINSBASE
 10
0.0
 20
0.0
 30
0.0
  9
$PLIMCHECK
 70
     0
  9
$PEXTMIN
 10
0.0
 20
0.0
 30
0.0
  9
$PEXTMAX
 10
0.0
 20
0.0
 30
0.0
  9
$PLIMMIN
 10
0.0
 20
0.0
  9
$PLIMMAX
 10
12.0
 20
9.0
  9
$UNITMODE
 70
     0
  9
$VISRETAIN
 70
     1
  9
$PLINEGEN
 70
     0
  9
$PSLTSCALE
 70
     1
  9
$TREEDEPTH
 70
  3020
  9
$PICKSTYLE
 70
     1
  9
$CMLSTYLE
  2
STANDARD
  9
$CMLJUST
 70
     0
  9
$CMLSCALE
 40
1.0
  9
$PROXYGRAPHICS
 70
     1
  9
$MEASUREMENT
 70
     0
  0
ENDSEC
  0
SECTION
  2
CLASSES
  0
CLASS
  1
DICTIONARYVAR
  2
AcDbDictionaryVar
  3
AutoCAD 2000
 90
        0
280
     0
281
     0
  0
CLASS
  1
ACDBDICTIONARYWDFLT
  2
AcDbDictionaryWithDefault
  3
AutoCAD 2000
 90
        0
280
     0
281
     0
  0
CLASS
  1
ACDBPLACEHOLDER
  2
AcDbPlaceHolder
  3
AutoCAD 2000
 90
        0
280
     0
281
     0
  0
CLASS
  1
LAYOUT
  2
AcDbLayout
  3
AutoCAD 2000
 90
        0
280
     0
281
     0
  0
CLASS
  1
MATERIAL
  2
AcDbMaterial
  3
ObjectDBX Classes
 90
     1153
280
     0
281
     0
  0
CLASS
  1
VISUALSTYLE
  2
AcDbVisualStyle
  3
ObjectDBX Classes
 90
     4095
280
     0
281
     0
  0
CLASS
  1
TABLESTYLE
  2
AcDbTableStyle
  3
ObjectDBX Classes
 90
     4095
280
     0
281
     0
  0
CLASS
  1
SCALE
  2
AcDbScale
  3
ObjectDBX Classes
 90
     1153
280
     0
281
     0
  0
CLASS
  1
MLEADERSTYLE
  2
AcDbMLeaderStyle
  3
ACDB_MLEADERSTYLE_CLASS
 90
     4095
280
     0
281
     0
  0
CLASS
  1
CELLSTYLEMAP
  2
AcDbCellStyleMap
  3
ObjectDBX Classes
 90
     1152
280
     0
281
     0
  0
CLASS
  1
SORTENTSTABLE
  2
AcDbSortentsTable
  3
AutoCAD 2000
 90
        0
280
     0
281
     0
  0
CLASS
  1
ACAD_PROXY_OBJECT_WRAPPER
  2
AcDbProxyObjectWrapper
  3
AutoCAD 2000
 90
        0
280
     0
281
     0
  0
CLASS
  1
LONG_TRANSACTION
  2
AcDbLongTransaction
  3
AutoCAD 2000
 90
        0
280
     0
281
     0
  0
CLASS
  1
LWPOLYLINE
  2
AcDbPolyline
  3
AutoCAD 2000
 90
        0
280
     0
281
     1
  0
CLASS
  1
HATCH
  2
AcDbHatch
  3
AutoCAD 2000
 90
        0
280
     0
281
     1
  0
CLASS
  1
XRECORD
  2
AcDbXrecord
  3
AutoCAD 2000
 90
        0
280
     0
281
     0
  0
ENDSEC
  0
SECTION
  2
TABLES
  0
TABLE
  2
VPORT
  5
6E
102
{ACAD_XDICTIONARY
360
390E
102
}
330
0
100
AcDbSymbolTable
 70
     2
  0
VPORT
  5
398D
330
6E
100
AcDbSymbolTableRecord
100
AcDbViewportTableRecord
  2
*ACTIVE
 70
     0
 10
0.0
 20
0.0
 11
1.0
 21
1.0
 12
715.4529596315657
 22
325.9450454194221
 13
0.0
 23
0.0
 14
10.0
 24
10.0
 15
24.0
 25
24.0
 16
0.0
 26
0.0
 36
1.0
 17
0.0
 27
0.0
 37
0.0
 40
779.3393074548817
 41
1.753504672897196
 42
50.0
 43
0.0
 44
0.0
 50
0.0
 51
0.0
 71
     0
 72
   100
 73
     1
 74
     3
 75
     0
 76
     0
 77
     0
 78
     0
  0
ENDTAB
  0
TABLE
  2
LTYPE
  5
69
330
0
100
AcDbSymbolTable
 70
     6
  0
LTYPE
  5
6A
330
69
100
AcDbSymbolTableRecord
100
AcDbLinetypeTableRecord
  2
BYBLOCK
 70
     0
  3

 72
    65
 73
     0
 40
0.0
  0
LTYPE
  5
6B
330
69
100
AcDbSymbolTableRecord
100
AcDbLinetypeTableRecord
  2
BYLAYER
 70
     0
  3

 72
    65
 73
     0
 40
0.0
  0
LTYPE
  5
8
330
69
100
AcDbSymbolTableRecord
100
AcDbLinetypeTableRecord
  2
CONTINUOUS
 70
     0
  3
Solid line
 72
    65
 73
     0
 40
0.0
  0
LTYPE
  5
27C
330
69
100
AcDbSymbolTableRecord
100
AcDbLinetypeTableRecord
  2
SEKKEI_A2_
 70
     0
  3
center(A2)  ____ _ ____ _ ____ _ ____ _ ____ _ 
 72
    65
 73
     4
 40
14.28749999999999
 49
9.525
 74
     0
 49
-1.587499999999999
 74
     0
 49
1.587499999999999
 74
     0
 49
-1.587499999999999
 74
     0
  0
LTYPE
  5
48F
330
69
100
AcDbSymbolTableRecord
100
AcDbLinetypeTableRecord
  2
SEKKEI_H
 70
     0
  3
Hidden-S _ _ _ _ _ _ _ _ _ _ _ _ _ _ _ _ _
 72
    65
 73
     2
 40
2.381249999999999
 49
1.587499999999999
 74
     0
 49
-0.79375
 74
     0
  0
LTYPE
  5
7F0
330
69
100
AcDbSymbolTableRecord
100
AcDbLinetypeTableRecord
  2
HIDDEN3
 70
     0
  3
Hidden (.3x) _ _ _ _ _ _ _ _ _ _ _ _ _ _ _ _ _
 72
    65
 73
     2
 40
2.857499999999999
 49
1.905
 74
     0
 49
-0.9525
 74
     0
  0
LTYPE
  5
B15
330
69
100
AcDbSymbolTableRecord
100
AcDbLinetypeTableRecord
  2
CENS
 70
     0
  3
(一点鎖線１)---- - ---- - ---- - ---- - ---- - 
 72
    65
 73
     4
 40
7.0
 49
4.0
 74
     0
 49
-1.0
 74
     0
 49
1.0
 74
     0
 49
-1.0
 74
     0
  0
ENDTAB
  0
TABLE
  2
LAYER
  5
66
102
{ACAD_XDICTIONARY
360
B16
102
}
330
0
100
AcDbSymbolTable
 70
     9
  0
LAYER
  5
5E
102
{ACAD_XDICTIONARY
360
38CF
102
}
330
66
100
AcDbSymbolTableRecord
100
AcDbLayerTableRecord
  2
0
 70
     0
 62
     7
  6
CONTINUOUS
  0
LAYER
  5
3E
102
{ACAD_XDICTIONARY
360
38D1
102
}
330
66
100
AcDbSymbolTableRecord
100
AcDbLayerTableRecord
  2
CENTER
 70
     0
 62
     3
  6
SEKKEI_A2_
  0
LAYER
  5
2B5
102
{ACAD_XDICTIONARY
360
38D7
102
}
330
66
100
AcDbSymbolTableRecord
100
AcDbLayerTableRecord
  2
HIDS
 70
     0
 62
     1
  6
HIDDEN3
  0
LAYER
  5
2BA
102
{ACAD_XDICTIONARY
360
38D9
102
}
330
66
100
AcDbSymbolTableRecord
100
AcDbLayerTableRecord
  2
HOJO
 70
     0
 62
     4
  6
CONTINUOUS
  0
LAYER
  5
3FA
102
{ACAD_XDICTIONARY
360
38DD
102
}
330
66
100
AcDbSymbolTableRecord
100
AcDbLayerTableRecord
  2
TITLE
 70
     0
 62
     4
  6
CONTINUOUS
  0
ENDTAB
  0
TABLE
  2
STYLE
  5
67
330
0
100
AcDbSymbolTable
 70
     2
  0
STYLE
  5
16
330
67
100
AcDbSymbolTableRecord
100
AcDbTextStyleTableRecord
  2
STANDARD
 70
     0
 40
0.0
 41
1.0
 50
0.0
 71
     0
 42
2.0
  3
simplex.shx
  4
extfont.shx
  0
ENDTAB
  0
TABLE
  2
VIEW
  5
6C
330
0
100
AcDbSymbolTable
 70
     0
  0
ENDTAB
  0
TABLE
  2
UCS
  5
6D
330
0
100
AcDbSymbolTable
 70
     0
  0
ENDTAB
  0
TABLE
  2
APPID
  5
70
330
0
100
AcDbSymbolTable
 70
     2
  0
APPID
  5
71
330
70
100
AcDbSymbolTableRecord
100
AcDbRegAppTableRecord
  2
ACAD
 70
     0
  0
APPID
  5
1C24
330
70
100
AcDbSymbolTableRecord
100
AcDbRegAppTableRecord
  2
ACAD_MLEADERVER
 70
     0
  0
ENDTAB
  0
TABLE
  2
DIMSTYLE
  5
72
330
0
100
AcDbSymbolTable
 70
     1
  0
DIMSTYLE
105
73
102
{ACAD_REACTORS
330
148B
330
148D
330
1491
102
}
330
72
100
AcDbSymbolTableRecord
100
AcDbDimStyleTableRecord
  2
STANDARD
 70
     0
  3

  4

  5

  6

  7

 40
4.0
 41
1.8
 42
0.625
 43
3.75
 44
0.8
 45
0.0
 46
0.0
 47
0.0
 48
0.0
140
1.8
141
2.5
142
0.0
143
0.0394
144
1.0
145
0.0
146
1.0
147
0.75
 71
     0
 72
     0
 73
     0
 74
     0
 75
     0
 76
     0
 77
     1
 78
     8
170
     0
171
     4
172
     1
173
     0
174
     0
175
     0
176
     0
177
     0
178
     0
270
     8
271
     2
272
     2
273
     8
274
     4
340
16
275
     0
280
     0
281
     0
282
     0
283
     1
284
     0
285
     0
286
     0
287
     3
288
     0
  0
ENDTAB
  0
TABLE
  2
BLOCK_RECORD
  5
1
330
0
100
AcDbSymbolTable
 70
    44
  0
BLOCK_RECORD
  5
2
102
{ACAD_XDICTIONARY
360
393A
102
}
330
1
100
AcDbSymbolTableRecord
100
AcDbBlockTableRecord
  2
*MODEL_SPACE
  0
BLOCK_RECORD
  5
3988
102
{ACAD_XDICTIONARY
360
39B0
102
}
330
1
100
AcDbSymbolTableRecord
100
AcDbBlockTableRecord
  2
*PAPER_SPACE
  0
BLOCK_RECORD
  5
8DB
330
1
100
AcDbSymbolTableRecord
100
AcDbBlockTableRecord
  2
A$C79D50562
  0
ENDTAB
  0
ENDSEC
  0
SECTION
  2
BLOCKS
  0
BLOCK
  5
5D
330
2
100
AcDbEntity
  8
0
100
AcDbBlockBegin
  2
*MODEL_SPACE
 70
     0
 10
0.0
 20
0.0
 30
0.0
  3
*MODEL_SPACE
  1

  0
ENDBLK
  5
5F
330
2
100
AcDbEntity
  8
0
100
AcDbBlockEnd
  0
BLOCK
  5
398A
330
3988
100
AcDbEntity
 67
     1
  8
0
100
AcDbBlockBegin
  2
*PAPER_SPACE
 70
     0
 10
0.0
 20
0.0
 30
0.0
  3
*PAPER_SPACE
  1

  0
ENDBLK
  5
398B
330
3988
100
AcDbEntity
 67
     1
  8
0
100
AcDbBlockEnd
  0
BLOCK
  5
8DE
330
8DB
100
AcDbEntity
  8
0
100
AcDbBlockBegin
  2
A$C79D50562
 70
     0
 10
0.0
 20
0.0
 30
0.0
  3
A$C79D50562
  1

  0
LINE
  5
8DC
330
8DB
100
AcDbEntity
  8
CENTER
100
AcDbLine
 10
0.0
 20
7.659444835277668
 30
0.0
 11
0.0
 21
-7.659444835277668
 31
0.0
  0
LINE
  5
8DD
330
8DB
100
AcDbEntity
  8
CENTER
100
AcDbLine
 10
-7.659444835277668
 20
0.0
 30
0.0
 11
7.659444835277668
 21
0.0
 31
0.0
  0
ENDBLK
  5
8DF
330
8DB
100
AcDbEntity
  8
0
100
AcDbBlockEnd
  0
ENDSEC
  0
SECTION
  2
ENTITIES
  0
TEXT
  5
FE7
330
2
100
AcDbEntity
  8
TITLE
100
AcDbText
 10
471.3599096674456
 20
532.2840111413836
 30
0.0
 40
10.0
  1
AFCZ28H-40~60M400S1
100
AcDbText
  0
TEXT
  5
FE8
330
2
100
AcDbEntity
  8
TITLE
100
AcDbText
 10
471.3599096674456
 20
516.9506778080502
 30
0.0
 40
10.0
  1
AFCZ28H-40~60L400S1
100
AcDbText
  0
LINE
  5
FEA
330
2
100
AcDbEntity
  8
CENTER
100
AcDbLine
 10
735.7310414748889
 20
531.6975102207825
 30
0.0
 11
1013.866145139432
 21
531.6975102207822
 31
0.0
  0
LINE
  5
FF0
330
2
100
AcDbEntity
  8
CENTER
100
AcDbLine
 10
725.4561451394314
 20
154.3078544428686
 30
0.0
 11
1013.866145139432
 21
154.3078544428686
 31
0.0
  0
LINE
  5
FF9
330
2
100
AcDbEntity
  8
CENTER
100
AcDbLine
 10
1303.328568352434
 20
229.0329581074638
 30
0.0
 11
1303.328568352434
 21
79.58275077828154
 31
0.0
  0
LINE
  5
FFA
330
2
100
AcDbEntity
  8
CENTER
100
AcDbLine
 10
1376.828568352439
 20
154.3078544428704
 30
0.0
 11
1177.328568352436
 21
154.3078544428704
 31
0.0
  0
LINE
  5
1011
330
2
100
AcDbEntity
  8
0
100
AcDbLine
 10
955.8661451394321
 20
195.8078544428704
 30
0.0
 11
955.8661451394321
 21
112.8078544428704
 31
0.0
  0
LINE
  5
1027
330
2
100
AcDbEntity
  8
CENTER
100
AcDbLine
 10
313.2724681355207
 20
154.3078544428686
 30
0.0
 11
34.86246813553862
 21
154.3078544428686
 31
0.0
  0
LINE
  5
1029
330
2
100
AcDbEntity
  8
0
100
AcDbLine
 10
92.86246813553816
 20
112.8078544428686
 30
0.0
 11
92.86246813553816
 21
195.8078544428686
 31
0.0
  0
LINE
  5
102F
330
2
100
AcDbEntity
  8
0
100
AcDbLine
 10
1334.828568352426
 20
94.30785444287227
 30
0.0
 11
1258.328568352434
 21
94.97545982886601
 31
0.0
  0
LINE
  5
1030
330
2
100
AcDbEntity
  8
0
100
AcDbLine
 10
1334.828568352434
 20
214.3078544428722
 30
0.0
 11
1258.328568352434
 21
213.6402490568803
 31
0.0
  0
LINE
  5
1031
330
2
100
AcDbEntity
  8
0
100
AcDbLine
 10
1260.328568352434
 20
194.670716937379
 30
0.0
 11
1260.328568352434
 21
113.9449919483691
 31
0.0
  0
LINE
  5
1032
330
2
100
AcDbEntity
  8
0
100
AcDbLine
 10
1258.328568352434
 20
213.6402490568803
 30
0.0
 11
1258.328568352434
 21
94.97545982886601
 31
0.0
  0
LINE
  5
1033
330
2
100
AcDbEntity
  8
0
100
AcDbLine
 10
1253.328568352434
 20
209.3078544428722
 30
0.0
 11
1253.328568352434
 21
99.30785444287227
 31
0.0
  0
LINE
  5
1034
330
2
100
AcDbEntity
  8
0
100
AcDbLine
 10
1253.328568352434
 20
209.3078544428722
 30
0.0
 11
1258.328568352434
 21
209.3078544428722
 31
0.0
  0
LINE
  5
1035
330
2
100
AcDbEntity
  8
0
100
AcDbLine
 10
1253.328568352434
 20
99.30785444287227
 30
0.0
 11
1258.328568352434
 21
99.30785444287227
 31
0.0
  0
LINE
  5
1036
330
2
100
AcDbEntity
  8
0
100
AcDbLine
 10
1344.328569224583
 20
190.3684582533174
 30
0.0
 11
1344.328569224583
 21
118.2472506324234
 31
0.0
  0
LINE
  5
1037
330
2
100
AcDbEntity
  8
0
100
AcDbLine
 10
1334.828568352434
 20
214.3078544428722
 30
0.0
 11
1334.828568352433
 21
195.4237081014112
 31
0.0
  0
LINE
  5
1038
330
2
100
AcDbEntity
  8
0
100
AcDbLine
 10
1334.828568352427
 20
113.1920007843314
 30
0.0
 11
1334.828568352426
 21
94.30785444287227
 31
0.0
  0
LINE
  5
103E
330
2
100
AcDbEntity
  8
0
100
AcDbLine
 10
955.8661451394341
 20
572.6975102207825
 30
0.0
 11
955.866145139435
 21
490.6975102207825
 31
0.0
  0
LINE
  5
104A
330
2
100
AcDbEntity
  8
0
100
AcDbLine
 10
1339.38954030067
 20
195.3680864922849
 30
0.0
 11
1303.328568352435
 21
195.8078544428868
 31
0.0
  0
LINE
  5
104B
330
2
100
AcDbEntity
  8
0
100
AcDbLine
 10
1267.26759727635
 20
195.3680865029187
 30
0.0
 11
1303.328568352435
 21
195.8078544428722
 31
0.0
  0
LINE
  5
104C
330
2
100
AcDbEntity
  8
0
100
AcDbLine
 10
1339.38953942852
 20
113.2476223828203
 30
0.0
 11
1303.328568352435
 21
112.8078544428704
 31
0.0
  0
LINE
  5
104D
330
2
100
AcDbEntity
  8
0
100
AcDbLine
 10
1267.26759727635
 20
113.2476223828221
 30
0.0
 11
1303.328568352435
 21
112.8078544428704
 31
0.0
  0
ARC
  5
104E
330
2
100
AcDbEntity
  8
0
100
AcDbCircle
 10
1339.328569224583
 20
190.3684582533174
 30
0.0
 40
5.0
100
AcDbArc
 50
0.0
 51
89.30130561700025
  0
ARC
  5
104F
330
2
100
AcDbEntity
  8
0
100
AcDbCircle
 10
1339.328569224583
 20
118.2472506324234
 30
0.0
 40
5.0
100
AcDbArc
 50
270.6986943829997
 51
0.0
  0
ARC
  5
1050
330
2
100
AcDbEntity
  8
0
100
AcDbCircle
 10
1267.328567480287
 20
190.3684582533174
 30
0.0
 40
5.0
100
AcDbArc
 50
90.69869438299972
 51
180.0
  0
LINE
  5
1051
330
2
100
AcDbEntity
  8
0
100
AcDbLine
 10
1262.328567480287
 20
190.3684582533174
 30
0.0
 11
1262.328567480286
 21
118.2472506324234
 31
0.0
  0
ARC
  5
1052
330
2
100
AcDbEntity
  8
0
100
AcDbCircle
 10
1267.328567480286
 20
118.2472506324234
 30
0.0
 40
5.0
100
AcDbArc
 50
180.0
 51
269.3013056170002
  0
LINE
  5
1053
330
2
100
AcDbEntity
  8
0
100
AcDbLine
 10
1239.328568352434
 20
192.3764768932565
 30
0.0
 11
1239.328568352434
 21
116.2392319924843
 31
0.0
  0
ARC
  5
1054
330
2
100
AcDbEntity
  8
0
100
AcDbCircle
 10
1241.328568352434
 20
116.2392319924843
 30
0.0
 40
2.0
100
AcDbArc
 50
180.0
 51
267.9999999999963
  0
ARC
  5
1055
330
2
100
AcDbEntity
  8
0
100
AcDbCircle
 10
1241.328568352434
 20
192.3764768932565
 30
0.0
 40
2.0
100
AcDbArc
 50
92.00000000000365
 51
180.0
  0
LINE
  5
1056
330
2
100
AcDbEntity
  8
0
100
AcDbLine
 10
1251.398367345839
 20
194.7293411113301
 30
0.0
 11
1241.258769359029
 21
194.3752585472944
 31
0.0
  0
ARC
  5
1057
330
2
100
AcDbEntity
  8
0
100
AcDbCircle
 10
1251.328568352434
 20
196.728122765368
 30
0.0
 40
2.0
100
AcDbArc
 50
272.0000000000036
 51
0.0
  0
LINE
  5
1058
330
2
100
AcDbEntity
  8
0
100
AcDbLine
 10
1251.398367345839
 20
113.8863677744107
 30
0.0
 11
1241.258769359029
 21
114.2404503384464
 31
0.0
  0
ARC
  5
1059
330
2
100
AcDbEntity
  8
0
100
AcDbCircle
 10
1251.328568352434
 20
111.8875861203728
 30
0.0
 40
2.0
100
AcDbArc
 50
0.0
 51
87.99999999999636
  0
LINE
  5
10C5
330
2
100
AcDbEntity
  8
0
100
AcDbLine
 10
1334.828568352427
 20
111.3122178767685
 30
0.0
 11
1262.311115281438
 21
111.9450681022395
 31
0.0
  0
LINE
  5
10C6
330
2
100
AcDbEntity
  8
0
100
AcDbLine
 10
1334.828568352433
 20
197.3034910089778
 30
0.0
 11
1262.311115281438
 21
196.6706407835068
 31
0.0
  0
LINE
  5
10C7
330
2
100
AcDbEntity
  8
0
100
AcDbLine
 10
1334.828568352431
 20
196.7536983381638
 30
0.0
 11
1303.328568352434
 21
197.0285946735699
 31
0.0
  0
LINE
  5
10C8
330
2
100
AcDbEntity
  8
0
100
AcDbLine
 10
1334.828568352431
 20
111.8620105475825
 30
0.0
 11
1303.328568352434
 21
111.5871142121746
 31
0.0
  0
ARC
  5
10C9
330
2
100
AcDbEntity
  8
0
100
AcDbCircle
 10
1262.328568352434
 20
194.670716937379
 30
0.0
 40
2.0
100
AcDbArc
 50
90.49999999996549
 51
180.0
  0
ARC
  5
10CA
330
2
100
AcDbEntity
  8
0
100
AcDbCircle
 10
1262.328568352434
 20
113.9449919483691
 30
0.0
 40
2.0
100
AcDbArc
 50
180.0
 51
269.4999999999824
  0
LINE
  5
11CD
330
2
100
AcDbEntity
  8
0
100
AcDbLine
 10
1351.328568352439
 20
212.1812387031337
 30
0.0
 11
1351.328568352439
 21
195.8078544428686
 31
0.0
  0
LINE
  5
11CE
330
2
100
AcDbEntity
  8
0
100
AcDbLine
 10
1351.328568352439
 20
182.8078544428686
 30
0.0
 11
1351.328568352439
 21
125.8078544428722
 31
0.0
  0
LINE
  5
11CF
330
2
100
AcDbEntity
  8
0
100
AcDbLine
 10
1351.328568352439
 20
112.8078544428722
 30
0.0
 11
1351.328568352439
 21
96.434470182609
 31
0.0
  0
ARC
  5
11D0
330
2
100
AcDbEntity
  8
0
100
AcDbCircle
 10
1349.328568352439
 20
96.434470182609
 30
0.0
 40
2.0
100
AcDbArc
 50
270.4999999999654
 51
0.0
  0
LINE
  5
11D1
330
2
100
AcDbEntity
  8
0
100
AcDbLine
 10
1334.828568352437
 20
214.3078544428704
 30
0.0
 11
1334.828568352436
 21
195.4237081014112
 31
0.0
  0
LINE
  5
11D2
330
2
100
AcDbEntity
  8
0
100
AcDbLine
 10
1334.828568352431
 20
113.1920007843314
 30
0.0
 11
1334.82856835243
 21
94.30785444287044
 31
0.0
  0
LINE
  5
11D3
330
2
100
AcDbEntity
  8
0
100
AcDbLine
 10
1344.828568352435
 20
195.2379633437709
 30
0.0
 11
1344.828568352435
 21
181.3078544428686
 31
0.0
  0
ARC
  5
11D4
330
2
100
AcDbEntity
  8
0
100
AcDbCircle
 10
1342.828568352435
 20
195.2379633437709
 30
0.0
 40
2.0
100
AcDbArc
 50
0.0
 51
89.49999999998238
  0
LINE
  5
11D5
330
2
100
AcDbEntity
  8
0
100
AcDbLine
 10
1348.328568352435
 20
182.8078544428686
 30
0.0
 11
1348.328568352431
 21
125.8078544428722
 31
0.0
  0
ARC
  5
11D6
330
2
100
AcDbEntity
  8
0
100
AcDbCircle
 10
1346.328568352436
 20
195.2074193065041
 30
0.0
 40
2.0
100
AcDbArc
 50
17.4706712373192
 51
89.49999999998238
  0
LINE
  5
11D7
330
2
100
AcDbEntity
  8
0
100
AcDbLine
 10
1357.12856835244
 20
191.8078544428704
 30
0.0
 11
1354.828568352435
 21
191.8078544428704
 31
0.0
  0
LINE
  5
11D8
330
2
100
AcDbEntity
  8
0
100
AcDbLine
 10
1353.328568352439
 20
109.1362815676171
 30
0.0
 11
1353.32856835244
 21
112.8078544428722
 31
0.0
  0
LINE
  5
11D9
330
2
100
AcDbEntity
  8
0
100
AcDbLine
 10
1353.32856835244
 20
125.8078544428722
 30
0.0
 11
1353.328568352439
 21
182.8078544428686
 31
0.0
  0
LINE
  5
11DA
330
2
100
AcDbEntity
  8
0
100
AcDbLine
 10
1353.328568352439
 20
195.8078544428686
 30
0.0
 11
1353.328568352439
 21
199.4794273181256
 31
0.0
  0
LINE
  5
11DB
330
2
100
AcDbEntity
  8
0
100
AcDbLine
 10
1351.914354790065
 20
201.7220680052437
 30
0.0
 11
1352.742781914812
 21
200.8936408804971
 31
0.0
  0
LINE
  5
11DC
330
2
100
AcDbEntity
  8
0
100
AcDbLine
 10
1360.82856835244
 20
191.8078544428704
 30
0.0
 11
1359.528568352439
 21
191.8078544428704
 31
0.0
  0
LINE
  5
11DD
330
2
100
AcDbEntity
  8
0
100
AcDbLine
 10
1357.32856835244
 20
191.6078544428715
 30
0.0
 11
1357.12856835244
 21
191.8078544428704
 31
0.0
  0
LINE
  5
11DE
330
2
100
AcDbEntity
  8
0
100
AcDbLine
 10
1359.12856835244
 20
191.1078544428715
 30
0.0
 11
1357.52856835244
 21
191.1078544428715
 31
0.0
  0
LINE
  5
11DF
330
2
100
AcDbEntity
  8
0
100
AcDbLine
 10
1360.828568352439
 20
191.8078544428704
 30
0.0
 11
1361.82856835244
 21
191.2305041736804
 31
0.0
  0
LINE
  5
11E0
330
2
100
AcDbEntity
  8
0
100
AcDbLine
 10
1334.82856835243
 20
94.30785444287044
 30
0.0
 11
1349.346021423436
 21
94.43454633648121
 31
0.0
  0
LINE
  5
11E1
330
2
100
AcDbEntity
  8
0
100
AcDbLine
 10
1351.914354790065
 20
106.8936408804971
 30
0.0
 11
1352.742781914812
 21
107.7220680052437
 31
0.0
  0
LINE
  5
11E2
330
2
100
AcDbEntity
  8
0
100
AcDbLine
 10
1361.828568352439
 20
191.2305041736804
 30
0.0
 11
1361.828568352439
 21
117.3852047120604
 31
0.0
  0
LINE
  5
11E3
330
2
100
AcDbEntity
  8
0
100
AcDbLine
 10
1357.12856835244
 20
116.8078544428704
 30
0.0
 11
1354.828568352435
 21
116.8078544428704
 31
0.0
  0
LINE
  5
11E4
330
2
100
AcDbEntity
  8
0
100
AcDbLine
 10
1353.828568352439
 20
125.8078544428722
 30
0.0
 11
1353.828568352439
 21
182.8078544428686
 31
0.0
  0
LINE
  5
11E5
330
2
100
AcDbEntity
  8
0
100
AcDbLine
 10
1360.828568352439
 20
116.8078544428704
 30
0.0
 11
1359.528568352439
 21
116.8078544428704
 31
0.0
  0
LINE
  5
11E6
330
2
100
AcDbEntity
  8
0
100
AcDbLine
 10
1359.328568352439
 20
117.0078544428711
 30
0.0
 11
1359.328568352439
 21
191.6078544428715
 31
0.0
  0
LINE
  5
11E7
330
2
100
AcDbEntity
  8
0
100
AcDbLine
 10
1357.328568352439
 20
117.0078544428711
 30
0.0
 11
1357.328568352439
 21
191.6078544428715
 31
0.0
  0
LINE
  5
11E8
330
2
100
AcDbEntity
  8
0
100
AcDbLine
 10
1359.12856835244
 20
117.5078544428711
 30
0.0
 11
1357.52856835244
 21
117.5078544428711
 31
0.0
  0
LINE
  5
11E9
330
2
100
AcDbEntity
  8
0
100
AcDbLine
 10
1357.328568352439
 20
117.0078544428711
 30
0.0
 11
1357.12856835244
 21
116.8078544428704
 31
0.0
  0
LINE
  5
11EA
330
2
100
AcDbEntity
  8
0
100
AcDbLine
 10
1360.828568352439
 20
116.8078544428704
 30
0.0
 11
1361.828568352439
 21
117.3852047120604
 31
0.0
  0
ARC
  5
11EB
330
2
100
AcDbEntity
  8
0
100
AcDbCircle
 10
1351.328568352439
 20
199.4794273181256
 30
0.0
 40
2.0
100
AcDbArc
 50
0.0
 51
45.00000000000949
  0
ARC
  5
11EC
330
2
100
AcDbEntity
  8
0
100
AcDbCircle
 10
1353.328568352439
 20
203.1362815676171
 30
0.0
 40
2.0
100
AcDbArc
 50
180.0
 51
225.0000000000094
  0
ARC
  5
11ED
330
2
100
AcDbEntity
  8
0
100
AcDbCircle
 10
1351.328568352439
 20
109.1362815676171
 30
0.0
 40
2.0
100
AcDbArc
 50
314.9999999999905
 51
0.0
  0
ARC
  5
11EE
330
2
100
AcDbEntity
  8
0
100
AcDbCircle
 10
1353.328568352439
 20
105.4794273181237
 30
0.0
 40
2.0
100
AcDbArc
 50
134.9999999999905
 51
180.0
  0
ARC
  5
11EF
330
2
100
AcDbEntity
  8
0
100
AcDbCircle
 10
1359.528568352439
 20
117.0078544428711
 30
0.0
 40
0.2
100
AcDbArc
 50
180.0
 51
270.0
  0
ARC
  5
11F0
330
2
100
AcDbEntity
  8
0
100
AcDbCircle
 10
1359.12856835244
 20
117.3078544428704
 30
0.0
 40
0.2
100
AcDbArc
 50
0.0
 51
90.0
  0
ARC
  5
11F1
330
2
100
AcDbEntity
  8
0
100
AcDbCircle
 10
1357.52856835244
 20
117.3078544428704
 30
0.0
 40
0.2
100
AcDbArc
 50
90.0
 51
180.0
  0
ARC
  5
11F2
330
2
100
AcDbEntity
  8
0
100
AcDbCircle
 10
1359.528568352439
 20
191.6078544428715
 30
0.0
 40
0.2
100
AcDbArc
 50
90.0
 51
180.0
  0
ARC
  5
11F3
330
2
100
AcDbEntity
  8
0
100
AcDbCircle
 10
1359.12856835244
 20
191.3078544428704
 30
0.0
 40
0.2
100
AcDbArc
 50
270.0
 51
0.0
  0
ARC
  5
11F4
330
2
100
AcDbEntity
  8
0
100
AcDbCircle
 10
1357.52856835244
 20
191.3078544428704
 30
0.0
 40
0.2
100
AcDbArc
 50
180.0
 51
270.0
  0
LINE
  5
11F5
330
2
100
AcDbEntity
  8
0
100
AcDbLine
 10
1360.828568352439
 20
116.8078544428704
 30
0.0
 11
1360.828568352439
 21
191.8078544428704
 31
0.0
  0
LINE
  5
11F6
330
2
100
AcDbEntity
  8
0
100
AcDbLine
 10
1357.12856835244
 20
116.8078544428704
 30
0.0
 11
1357.12856835244
 21
191.8078544428704
 31
0.0
  0
ARC
  5
11F7
330
2
100
AcDbEntity
  8
0
100
AcDbCircle
 10
1349.328568352439
 20
212.1812387031337
 30
0.0
 40
2.0
100
AcDbArc
 50
0.0
 51
89.5000000000345
  0
LINE
  5
11F8
330
2
100
AcDbEntity
  8
0
100
AcDbLine
 10
1334.828568352437
 20
214.3078544428704
 30
0.0
 11
1349.346021423436
 21
214.1811625492615
 31
0.0
  0
LINE
  5
11F9
330
2
100
AcDbEntity
  8
0
100
AcDbLine
 10
1334.828568352435
 20
197.3078544428686
 30
0.0
 11
1346.346021423433
 21
197.2073431526319
 31
0.0
  0
LINE
  5
11FA
330
2
100
AcDbEntity
  8
0
100
AcDbLine
 10
1345.328568352435
 20
180.8078544428686
 30
0.0
 11
1346.328568352435
 21
180.8078544428686
 31
0.0
  0
ARC
  5
11FB
330
2
100
AcDbEntity
  8
0
100
AcDbCircle
 10
1345.328568352434
 20
181.3078544428686
 30
0.0
 40
0.5
100
AcDbArc
 50
179.9999999998957
 51
270.0000000000521
  0
ARC
  5
11FC
330
2
100
AcDbEntity
  8
0
100
AcDbCircle
 10
1346.328568352435
 20
178.8078544428686
 30
0.0
 40
2.0
100
AcDbArc
 50
0.0
 51
90.0
  0
LINE
  5
11FD
330
2
100
AcDbEntity
  8
0
100
AcDbLine
 10
1344.828568352435
 20
113.3777455419699
 30
0.0
 11
1344.828568352435
 21
127.3078544428722
 31
0.0
  0
ARC
  5
11FE
330
2
100
AcDbEntity
  8
0
100
AcDbCircle
 10
1342.828568352435
 20
113.3777455419699
 30
0.0
 40
2.0
100
AcDbArc
 50
270.5000000000175
 51
0.0
  0
LINE
  5
11FF
330
2
100
AcDbEntity
  8
0
100
AcDbLine
 10
1345.328568352435
 20
127.8078544428722
 30
0.0
 11
1346.328568352435
 21
127.8078544428722
 31
0.0
  0
ARC
  5
1200
330
2
100
AcDbEntity
  8
0
100
AcDbCircle
 10
1345.328568352434
 20
127.3078544428722
 30
0.0
 40
0.5
100
AcDbArc
 50
89.99999999994789
 51
180.0000000001042
  0
ARC
  5
1201
330
2
100
AcDbEntity
  8
0
100
AcDbCircle
 10
1346.328568352435
 20
129.8078544428722
 30
0.0
 40
2.0
100
AcDbArc
 50
270.0
 51
0.0
  0
LINE
  5
1202
330
2
100
AcDbEntity
  8
0
100
AcDbLine
 10
1334.828568352435
 20
111.3078544428722
 30
0.0
 11
1346.346021423428
 21
111.4083657331089
 31
0.0
  0
ARC
  5
1203
330
2
100
AcDbEntity
  8
0
100
AcDbCircle
 10
1346.328568352431
 20
113.4082895792367
 30
0.0
 40
2.0
100
AcDbArc
 50
270.5000000000175
 51
342.5293287626808
  0
LINE
  5
1204
330
2
100
AcDbEntity
  8
CENTER
  6
CENS
100
AcDbLine
 10
1356.328568352439
 20
189.3078544428686
 30
0.0
 11
1329.828568352435
 21
189.3078544428686
 31
0.0
  0
LINE
  5
1205
330
2
100
AcDbEntity
  8
0
100
AcDbLine
 10
1354.828568352435
 20
183.6738798466545
 30
0.0
 11
1354.828568352435
 21
194.9418290390845
 31
0.0
  0
LINE
  5
1206
330
2
100
AcDbEntity
  8
0
100
AcDbLine
 10
1344.828568352435
 20
182.8078544428686
 30
0.0
 11
1344.828568352435
 21
195.8078544428686
 31
0.0
  0
LINE
  5
1207
330
2
100
AcDbEntity
  8
0
100
AcDbLine
 10
1346.828568352435
 20
182.8078544428686
 30
0.0
 11
1346.828568352434
 21
195.8078544428686
 31
0.0
  0
LINE
  5
1208
330
2
100
AcDbEntity
  8
0
100
AcDbLine
 10
1354.328568352435
 20
195.8078544428686
 30
0.0
 11
1354.828568352435
 21
194.9418290390845
 31
0.0
  0
LINE
  5
1209
330
2
100
AcDbEntity
  8
0
100
AcDbLine
 10
1344.828568352435
 20
195.8078544428686
 30
0.0
 11
1346.828568352435
 21
195.8078544428686
 31
0.0
  0
LINE
  5
120A
330
2
100
AcDbEntity
  8
0
100
AcDbLine
 10
1346.828568352435
 20
195.8078544428686
 30
0.0
 11
1354.328568352435
 21
195.8078544428686
 31
0.0
  0
LINE
  5
120B
330
2
100
AcDbEntity
  8
0
100
AcDbLine
 10
1354.328568352435
 20
182.8078544428686
 30
0.0
 11
1354.828568352435
 21
183.6738798466527
 31
0.0
  0
LINE
  5
120C
330
2
100
AcDbEntity
  8
0
100
AcDbLine
 10
1344.828568352435
 20
182.8078544428686
 30
0.0
 11
1346.828568352435
 21
182.8078544428686
 31
0.0
  0
LINE
  5
120D
330
2
100
AcDbEntity
  8
0
100
AcDbLine
 10
1346.828568352435
 20
182.8078544428686
 30
0.0
 11
1354.328568352435
 21
182.8078544428686
 31
0.0
  0
LINE
  5
120E
330
2
100
AcDbEntity
  8
0
100
AcDbLine
 10
1354.328568352435
 20
182.8078544428686
 30
0.0
 11
1354.328568352435
 21
195.8078544428686
 31
0.0
  0
LINE
  5
120F
330
2
100
AcDbEntity
  8
CENTER
  6
CENS
100
AcDbLine
 10
1356.328568352439
 20
119.3078544428722
 30
0.0
 11
1329.828568352435
 21
119.3078544428722
 31
0.0
  0
LINE
  5
1210
330
2
100
AcDbEntity
  8
0
100
AcDbLine
 10
1354.828568352435
 20
124.9418290390881
 30
0.0
 11
1354.828568352435
 21
113.6738798466563
 31
0.0
  0
LINE
  5
1211
330
2
100
AcDbEntity
  8
0
100
AcDbLine
 10
1344.828568352435
 20
125.8078544428722
 30
0.0
 11
1344.828568352435
 21
112.8078544428722
 31
0.0
  0
LINE
  5
1212
330
2
100
AcDbEntity
  8
0
100
AcDbLine
 10
1346.828568352435
 20
125.8078544428722
 30
0.0
 11
1346.828568352434
 21
112.8078544428722
 31
0.0
  0
LINE
  5
1213
330
2
100
AcDbEntity
  8
0
100
AcDbLine
 10
1354.328568352435
 20
112.8078544428722
 30
0.0
 11
1354.828568352435
 21
113.6738798466563
 31
0.0
  0
LINE
  5
1214
330
2
100
AcDbEntity
  8
0
100
AcDbLine
 10
1344.828568352435
 20
112.8078544428722
 30
0.0
 11
1346.828568352435
 21
112.8078544428722
 31
0.0
  0
LINE
  5
1215
330
2
100
AcDbEntity
  8
0
100
AcDbLine
 10
1346.828568352435
 20
112.8078544428722
 30
0.0
 11
1354.328568352435
 21
112.8078544428722
 31
0.0
  0
LINE
  5
1216
330
2
100
AcDbEntity
  8
0
100
AcDbLine
 10
1354.328568352435
 20
125.8078544428722
 30
0.0
 11
1354.828568352435
 21
124.9418290390881
 31
0.0
  0
LINE
  5
1217
330
2
100
AcDbEntity
  8
0
100
AcDbLine
 10
1346.828568352435
 20
125.8078544428722
 30
0.0
 11
1354.328568352435
 21
125.8078544428722
 31
0.0
  0
LINE
  5
1218
330
2
100
AcDbEntity
  8
0
100
AcDbLine
 10
1354.328568352435
 20
125.8078544428722
 30
0.0
 11
1354.328568352435
 21
112.8078544428722
 31
0.0
  0
LINE
  5
1219
330
2
100
AcDbEntity
  8
0
100
AcDbLine
 10
1346.828568352435
 20
125.8078544428722
 30
0.0
 11
1344.828568352435
 21
125.8078544428722
 31
0.0
  0
LINE
  5
134F
330
2
100
AcDbEntity
  8
0
100
AcDbLine
 10
1354.828568352575
 20
198.6738798466545
 30
0.0
 11
1354.828568352575
 21
209.9418290390863
 31
0.0
  0
LINE
  5
1350
330
2
100
AcDbEntity
  8
0
100
AcDbLine
 10
1354.328568352575
 20
210.8078544428704
 30
0.0
 11
1354.828568352575
 21
209.9418290390863
 31
0.0
  0
LINE
  5
1351
330
2
100
AcDbEntity
  8
0
100
AcDbLine
 10
1351.32856835244
 20
210.8078544428704
 30
0.0
 11
1354.328568352575
 21
210.8078544428704
 31
0.0
  0
LINE
  5
1352
330
2
100
AcDbEntity
  8
CENTER
  6
CENS
100
AcDbLine
 10
1328.06868606058
 20
204.3078544428704
 30
0.0
 11
1357.828568352575
 21
204.3078544428704
 31
0.0
  0
LINE
  5
1353
330
2
100
AcDbEntity
  8
0
100
AcDbLine
 10
1354.328568352575
 20
197.8078544428704
 30
0.0
 11
1354.828568352575
 21
198.6738798466545
 31
0.0
  0
LINE
  5
1354
330
2
100
AcDbEntity
  8
0
100
AcDbLine
 10
1353.328568352439
 20
197.8078544428704
 30
0.0
 11
1354.328568352575
 21
197.8078544428704
 31
0.0
  0
LINE
  5
1355
330
2
100
AcDbEntity
  8
0
100
AcDbLine
 10
1354.328568352575
 20
197.8078544428704
 30
0.0
 11
1354.328568352575
 21
210.8078544428704
 31
0.0
  0
LINE
  5
1356
330
2
100
AcDbEntity
  8
0
100
AcDbLine
 10
1354.828568352575
 20
109.9418290390863
 30
0.0
 11
1354.828568352575
 21
98.67387984665635
 31
0.0
  0
LINE
  5
1357
330
2
100
AcDbEntity
  8
0
100
AcDbLine
 10
1354.328568352575
 20
97.80785444287046
 30
0.0
 11
1354.828568352575
 21
98.67387984665635
 31
0.0
  0
LINE
  5
1358
330
2
100
AcDbEntity
  8
0
100
AcDbLine
 10
1351.328568352438
 20
97.80785444287046
 30
0.0
 11
1354.328568352575
 21
97.80785444287046
 31
0.0
  0
LINE
  5
1359
330
2
100
AcDbEntity
  8
CENTER
  6
CENS
100
AcDbLine
 10
1328.06868606058
 20
104.3078544428704
 30
0.0
 11
1357.828568352575
 21
104.3078544428704
 31
0.0
  0
LINE
  5
135A
330
2
100
AcDbEntity
  8
0
100
AcDbLine
 10
1353.32856835244
 20
110.8078544428704
 30
0.0
 11
1354.328568352575
 21
110.8078544428704
 31
0.0
  0
LINE
  5
135B
330
2
100
AcDbEntity
  8
0
100
AcDbLine
 10
1354.328568352575
 20
110.8078544428704
 30
0.0
 11
1354.328568352575
 21
97.80785444287046
 31
0.0
  0
LINE
  5
135C
330
2
100
AcDbEntity
  8
0
100
AcDbLine
 10
1354.328568352575
 20
110.8078544428704
 30
0.0
 11
1354.828568352575
 21
109.9418290390863
 31
0.0
  0
LINE
  5
136E
330
2
100
AcDbEntity
  8
0
100
AcDbLine
 10
967.8661451394322
 20
193.2205096081901
 30
0.0
 11
967.8661451394322
 21
163.3470163363213
 31
0.0
  0
LINE
  5
136F
330
2
100
AcDbEntity
  8
0
100
AcDbLine
 10
967.8661451394322
 20
154.3078544428686
 30
0.0
 11
967.8661451394322
 21
114.6596221647274
 31
0.0
  0
LINE
  5
1371
330
2
100
AcDbEntity
  8
0
100
AcDbLine
 10
955.8661451394321
 20
113.3078544428686
 30
0.0
 11
965.8835982104289
 21
113.3952754314196
 31
0.0
  0
LINE
  5
1372
330
2
100
AcDbEntity
  8
0
100
AcDbLine
 10
974.8661451394323
 20
122.4674806767676
 30
0.0
 11
993.5788021972298
 21
122.7941113206916
 31
0.0
  0
LINE
  5
1373
330
2
100
AcDbEntity
  8
0
100
AcDbLine
 10
995.8661451394322
 20
124.2554892480835
 30
0.0
 11
998.8661451394321
 21
124.3078544428686
 31
0.0
  0
LINE
  5
1374
330
2
100
AcDbEntity
  8
0
100
AcDbLine
 10
955.8661451394321
 20
195.3078544428686
 30
0.0
 11
965.8835982104289
 21
195.2204334543184
 31
0.0
  0
LINE
  5
1377
330
2
100
AcDbEntity
  8
0
100
AcDbLine
 10
995.8661451394322
 20
124.2554892480835
 30
0.0
 11
994.9327680738484
 21
123.3546964970644
 31
0.0
  0
LINE
  5
1378
330
2
100
AcDbEntity
  8
0
100
AcDbLine
 10
974.8661451394323
 20
186.1482282089687
 30
0.0
 11
993.8647637867884
 21
185.8166060869328
 31
0.0
  0
LINE
  5
1379
330
2
100
AcDbEntity
  8
0
100
AcDbLine
 10
995.8661451394322
 20
184.3602196376537
 30
0.0
 11
998.8661451394321
 21
184.3078544428686
 31
0.0
  0
LINE
  5
137A
330
2
100
AcDbEntity
  8
0
100
AcDbLine
 10
995.8661451394322
 20
184.3602196376537
 30
0.0
 11
994.932768073848
 21
185.2610123886728
 31
0.0
  0
LINE
  5
137B
330
2
100
AcDbEntity
  8
0
100
AcDbLine
 10
998.8661451394321
 20
124.3078544428686
 30
0.0
 11
998.8661451394321
 21
184.3078544428686
 31
0.0
  0
LINE
  5
137C
330
2
100
AcDbEntity
  8
0
100
AcDbLine
 10
995.8661451394322
 20
184.3602196376537
 30
0.0
 11
995.8661451394322
 21
180.8051350449519
 31
0.0
  0
LINE
  5
137D
330
2
100
AcDbEntity
  8
CENTER
  6
CENS
100
AcDbLine
 10
952.8661451394322
 20
188.9560867210098
 30
0.0
 11
979.8661451394321
 21
188.9560867210098
 31
0.0
  0
LINE
  5
137E
330
2
100
AcDbEntity
  8
0
100
AcDbLine
 10
974.4661451394325
 20
183.9560867210098
 30
0.0
 11
974.4661451394325
 21
193.9560867210098
 31
0.0
  0
LINE
  5
137F
330
2
100
AcDbEntity
  8
0
100
AcDbLine
 10
974.8661451394323
 20
193.2632663979816
 30
0.0
 11
974.8661451394323
 21
184.6489070440371
 31
0.0
  0
LINE
  5
1380
330
2
100
AcDbEntity
  8
0
100
AcDbLine
 10
968.8661451394322
 20
183.9560867210098
 30
0.0
 11
968.8661451394322
 21
193.9560867210098
 31
0.0
  0
LINE
  5
1381
330
2
100
AcDbEntity
  8
0
100
AcDbLine
 10
968.8661451394322
 20
193.9560867210098
 30
0.0
 11
967.8661451394322
 21
193.9560867210098
 31
0.0
  0
LINE
  5
1382
330
2
100
AcDbEntity
  8
0
100
AcDbLine
 10
967.8661451394322
 20
193.9560867210098
 30
0.0
 11
967.8661451394322
 21
183.9560867210098
 31
0.0
  0
LINE
  5
1383
330
2
100
AcDbEntity
  8
0
100
AcDbLine
 10
967.8661451394322
 20
183.9560867210098
 30
0.0
 11
968.8661451394322
 21
183.9560867210098
 31
0.0
  0
LINE
  5
1384
330
2
100
AcDbEntity
  8
0
100
AcDbLine
 10
968.8661451394322
 20
183.9560867210098
 30
0.0
 11
968.8661451394322
 21
193.9560867210098
 31
0.0
  0
LINE
  5
1385
330
2
100
AcDbEntity
  8
0
100
AcDbLine
 10
974.4661451394325
 20
183.9560867210098
 30
0.0
 11
968.8661451394322
 21
183.9560867210098
 31
0.0
  0
LINE
  5
1386
330
2
100
AcDbEntity
  8
0
100
AcDbLine
 10
968.8661451394322
 20
193.9560867210098
 30
0.0
 11
974.4661451394325
 21
193.9560867210098
 31
0.0
  0
LINE
  5
1387
330
2
100
AcDbEntity
  8
0
100
AcDbLine
 10
974.4661451394325
 20
193.9560867210098
 30
0.0
 11
974.8661451394323
 21
193.2632663979816
 31
0.0
  0
LINE
  5
1388
330
2
100
AcDbEntity
  8
0
100
AcDbLine
 10
974.4661451394325
 20
183.9560867210098
 30
0.0
 11
974.8661451394323
 21
184.6489070440371
 31
0.0
  0
LINE
  5
1389
330
2
100
AcDbEntity
  8
CENTER
  6
CENS
100
AcDbLine
 10
952.8661451394322
 20
119.6596221647274
 30
0.0
 11
979.8661451394321
 21
119.6596221647274
 31
0.0
  0
LINE
  5
138A
330
2
100
AcDbEntity
  8
0
100
AcDbLine
 10
974.4661451394325
 20
124.6596221647274
 30
0.0
 11
974.4661451394325
 21
114.6596221647274
 31
0.0
  0
LINE
  5
138B
330
2
100
AcDbEntity
  8
0
100
AcDbLine
 10
974.8661451394323
 20
115.3524424877546
 30
0.0
 11
974.8661451394323
 21
123.9668018417001
 31
0.0
  0
LINE
  5
138C
330
2
100
AcDbEntity
  8
0
100
AcDbLine
 10
968.8661451394322
 20
124.6596221647274
 30
0.0
 11
968.8661451394322
 21
114.6596221647274
 31
0.0
  0
LINE
  5
138D
330
2
100
AcDbEntity
  8
0
100
AcDbLine
 10
968.8661451394322
 20
114.6596221647274
 30
0.0
 11
967.8661451394322
 21
114.6596221647274
 31
0.0
  0
LINE
  5
138E
330
2
100
AcDbEntity
  8
0
100
AcDbLine
 10
967.8661451394322
 20
124.6596221647274
 30
0.0
 11
968.8661451394322
 21
124.6596221647274
 31
0.0
  0
LINE
  5
138F
330
2
100
AcDbEntity
  8
0
100
AcDbLine
 10
968.8661451394322
 20
124.6596221647274
 30
0.0
 11
968.8661451394322
 21
114.6596221647274
 31
0.0
  0
LINE
  5
1390
330
2
100
AcDbEntity
  8
0
100
AcDbLine
 10
974.4661451394325
 20
124.6596221647274
 30
0.0
 11
968.8661451394322
 21
124.6596221647274
 31
0.0
  0
LINE
  5
1391
330
2
100
AcDbEntity
  8
0
100
AcDbLine
 10
968.8661451394322
 20
114.6596221647274
 30
0.0
 11
974.4661451394325
 21
114.6596221647274
 31
0.0
  0
LINE
  5
1392
330
2
100
AcDbEntity
  8
0
100
AcDbLine
 10
974.4661451394325
 20
114.6596221647274
 30
0.0
 11
974.8661451394323
 21
115.3524424877546
 31
0.0
  0
LINE
  5
1393
330
2
100
AcDbEntity
  8
0
100
AcDbLine
 10
974.4661451394325
 20
124.6596221647274
 30
0.0
 11
974.8661451394323
 21
123.9668018417001
 31
0.0
  0
LINE
  5
1394
330
2
100
AcDbEntity
  8
0
100
AcDbLine
 10
989.3661345303803
 20
161.3078544428686
 30
0.0
 11
979.3661345303801
 21
161.3078544428686
 31
0.0
  0
LINE
  5
1395
330
2
100
AcDbEntity
  8
0
100
AcDbLine
 10
989.3661345303803
 20
161.3078544428686
 30
0.0
 11
989.3661345303803
 21
154.3078544428686
 31
0.0
  0
LINE
  5
1396
330
2
100
AcDbEntity
  8
0
100
AcDbLine
 10
991.3661345303802
 20
162.4625549812486
 30
0.0
 11
989.3661345303803
 21
161.3078544428686
 31
0.0
  0
LINE
  5
1397
330
2
100
AcDbEntity
  8
0
100
AcDbLine
 10
962.3661345303801
 20
161.5578544428686
 30
0.0
 11
962.3661345303801
 21
154.3078544428686
 31
0.0
  0
LINE
  5
1398
330
2
100
AcDbEntity
  8
0
100
AcDbLine
 10
989.3661345303803
 20
161.3078544428686
 30
0.0
 11
979.3661345303801
 21
161.3078544428686
 31
0.0
  0
LINE
  5
1399
330
2
100
AcDbEntity
  8
0
100
AcDbLine
 10
984.2783487090541
 20
169.0578544428686
 30
0.0
 11
991.3661345303802
 21
169.0578544428686
 31
0.0
  0
LINE
  5
139A
330
2
100
AcDbEntity
  8
0
100
AcDbLine
 10
991.3661345303802
 20
169.0578544428686
 30
0.0
 11
991.3661345303802
 21
154.3078544428686
 31
0.0
  0
LINE
  5
139B
330
2
100
AcDbEntity
  8
0
100
AcDbLine
 10
977.3661345303802
 20
164.5925356295916
 30
0.0
 11
977.3661345303802
 21
154.3078544428686
 31
0.0
  0
LINE
  5
139C
330
2
100
AcDbEntity
  8
0
100
AcDbLine
 10
979.3661345303801
 20
165.1179357770238
 30
0.0
 11
979.3661345303801
 21
154.3078544428686
 31
0.0
  0
LINE
  5
139D
330
2
100
AcDbEntity
  8
0
100
AcDbLine
 10
970.3661345303801
 20
161.5578544428686
 30
0.0
 11
962.3661345303801
 21
161.5578544428686
 31
0.0
  0
LINE
  5
139E
330
2
100
AcDbEntity
  8
0
100
AcDbLine
 10
970.3661345303801
 20
154.3078544428686
 30
0.0
 11
970.3661345303801
 21
161.5578544428686
 31
0.0
  0
LINE
  5
139F
330
2
100
AcDbEntity
  8
0
100
AcDbLine
 10
977.3661345303802
 20
161.3078544428686
 30
0.0
 11
970.3661345303801
 21
161.3078544428686
 31
0.0
  0
LINE
  5
13A0
330
2
100
AcDbEntity
  8
0
100
AcDbLine
 10
958.613357780648
 20
154.3078544428686
 30
0.0
 11
962.3661345303801
 21
160.8078544428686
 31
0.0
  0
LINE
  5
13A1
330
2
100
AcDbEntity
  8
0
100
AcDbLine
 10
991.8661451394322
 20
179.3078544428686
 30
0.0
 11
998.8661451394321
 21
179.3078544428686
 31
0.0
  0
LINE
  5
13A2
330
2
100
AcDbEntity
  8
0
100
AcDbLine
 10
991.8661451394322
 20
179.3078544428686
 30
0.0
 11
991.8661451394322
 21
154.3078544428686
 31
0.0
  0
SPLINE
  5
13A3
330
2
100
AcDbEntity
  8
HOJO
100
AcDbSpline
210
0.0
220
0.0
230
1.0
 70
     8
 71
     3
 72
    20
 73
    16
 74
     0
 42
0.0000000001
 43
0.0000000001
 40
0.0
 40
0.0
 40
0.0
 40
0.0
 40
5.311626210389601
 40
7.954639692924123
 40
10.24579206730457
 40
14.18281221953265
 40
18.83794314114633
 40
26.54246833222011
 40
31.19712602527561
 40
34.95638115537181
 40
42.12378530287149
 40
45.78553747213095
 40
50.20353689726185
 40
53.26513166942802
 40
54.23175360515262
 40
54.23175360515262
 40
54.23175360515262
 40
54.23175360515262
 10
998.8661451394321
 20
180.9953031648843
 30
0.0
 10
997.1531659735422
 20
180.8872611146585
 30
0.0
 10
994.5878250541312
 20
180.7254583922545
 30
0.0
 10
990.8160711670547
 20
180.4733257200865
 30
0.0
 10
989.4969299509206
 20
177.5408842351194
 30
0.0
 10
987.0617205826304
 20
174.8863754118243
 30
0.0
 10
985.2236722394804
 20
169.7350799786605
 30
0.0
 10
981.0988358300031
 20
165.0253326270345
 30
0.0
 10
975.6211883269966
 20
164.3880011926153
 30
0.0
 10
970.7078028174304
 20
163.5339775610578
 30
0.0
 10
965.8738034706724
 20
163.1978370392867
 30
0.0
 10
960.8360767060325
 20
162.794462290382
 30
0.0
 10
957.7649260846641
 20
158.5922592935217
 30
0.0
 10
956.7649517899385
 20
155.9140187726321
 30
0.0
 10
956.408912264705
 20
154.6190057425615
 30
0.0
 10
956.3261844926177
 20
154.3078544428686
 30
0.0
  0
LINE
  5
13A4
330
2
100
AcDbEntity
  8
0
100
AcDbLine
 10
989.9351826319138
 20
189.8858064933079
 30
0.0
 11
979.9367056803488
 21
190.060330557681
 31
0.0
  0
ARC
  5
13A5
330
2
100
AcDbEntity
  8
0
100
AcDbCircle
 10
979.8668960545995
 20
186.0609397770554
 30
0.0
 40
4.000000000000023
100
AcDbArc
 50
89.0000000000243
 51
178.9999999999982
  0
ARC
  5
13A6
330
2
100
AcDbEntity
  8
0
100
AcDbCircle
 10
989.8653730061626
 20
185.8864157126823
 30
0.0
 40
4.000000000000023
100
AcDbArc
 50
358.999999999995
 51
89.0000000000243
  0
LINE
  5
13A7
330
2
100
AcDbEntity
  8
CENTER
  6
CENS
100
AcDbLine
 10
984.866134530382
 20
193.2347883404323
 30
0.0
 11
984.866134530382
 21
169.8748623380654
 31
0.0
  0
LINE
  5
13A9
330
2
100
AcDbEntity
  8
0
100
AcDbLine
 10
995.8661451394322
 20
124.2554892480835
 30
0.0
 11
995.8661451394322
 21
154.3078544428686
 31
0.0
  0
LINE
  5
13AA
330
2
100
AcDbEntity
  8
0
100
AcDbLine
 10
988.7654784678137
 20
176.8078544428686
 30
0.0
 11
991.8661451394331
 21
176.8078544428686
 31
0.0
  0
LINE
  5
13AB
330
2
100
AcDbEntity
  8
0
100
AcDbLine
 10
967.8661451394345
 20
492.0492779426411
 30
0.0
 11
967.8661451394345
 21
571.3457424989226
 31
0.0
  0
LINE
  5
13AD
330
2
100
AcDbEntity
  8
0
100
AcDbLine
 10
955.8661451394344
 20
572.6975102207823
 30
0.0
 11
965.8835982104312
 21
572.6100892322311
 31
0.0
  0
LINE
  5
13AE
330
2
100
AcDbEntity
  8
0
100
AcDbLine
 10
974.8661451394344
 20
563.5378839868824
 30
0.0
 11
993.5788021972316
 21
563.2112533429592
 31
0.0
  0
LINE
  5
13AF
330
2
100
AcDbEntity
  8
0
100
AcDbLine
 10
995.8661451394345
 20
561.7498754155674
 30
0.0
 11
998.8661451394344
 21
561.6975102207823
 31
0.0
  0
LINE
  5
13B0
330
2
100
AcDbEntity
  8
0
100
AcDbLine
 10
955.8661451394344
 20
490.6975102207822
 30
0.0
 11
965.8835982104312
 21
490.7849312093325
 31
0.0
  0
LINE
  5
13B3
330
2
100
AcDbEntity
  8
0
100
AcDbLine
 10
995.8661451394345
 20
561.7498754155674
 30
0.0
 11
994.9327680738504
 21
562.6506681665865
 31
0.0
  0
LINE
  5
13B4
330
2
100
AcDbEntity
  8
0
100
AcDbLine
 10
974.8661451394344
 20
499.8571364546822
 30
0.0
 11
993.5788021972316
 21
500.1837670986045
 31
0.0
  0
LINE
  5
13B5
330
2
100
AcDbEntity
  8
0
100
AcDbLine
 10
995.8661451394345
 20
501.6451450259971
 30
0.0
 11
998.8661451394344
 21
501.6975102207823
 31
0.0
  0
LINE
  5
13B6
330
2
100
AcDbEntity
  8
0
100
AcDbLine
 10
995.8661451394345
 20
501.6451450259971
 30
0.0
 11
994.9327680738507
 21
500.7443522749777
 31
0.0
  0
LINE
  5
13B7
330
2
100
AcDbEntity
  8
0
100
AcDbLine
 10
998.8661451394344
 20
561.6975102207823
 30
0.0
 11
998.8661451394344
 21
501.6975102207823
 31
0.0
  0
LINE
  5
13B8
330
2
100
AcDbEntity
  8
0
100
AcDbLine
 10
995.8661451394345
 20
501.6451450259971
 30
0.0
 11
995.8661451394345
 21
561.7498754155674
 31
0.0
  0
LINE
  5
13B9
330
2
100
AcDbEntity
  8
CENTER
  6
CENS
100
AcDbLine
 10
952.8661451394345
 20
497.049277942641
 30
0.0
 11
979.8661451394345
 21
497.049277942641
 31
0.0
  0
LINE
  5
13BA
330
2
100
AcDbEntity
  8
0
100
AcDbLine
 10
974.4661451394348
 20
502.0492779426411
 30
0.0
 11
974.4661451394348
 21
492.049277942641
 31
0.0
  0
LINE
  5
13BB
330
2
100
AcDbEntity
  8
0
100
AcDbLine
 10
974.8661451394344
 20
492.7420982656692
 30
0.0
 11
974.8661451394344
 21
501.3564576196138
 31
0.0
  0
LINE
  5
13BC
330
2
100
AcDbEntity
  8
0
100
AcDbLine
 10
968.8661451394345
 20
502.0492779426411
 30
0.0
 11
968.8661451394345
 21
492.049277942641
 31
0.0
  0
LINE
  5
13BD
330
2
100
AcDbEntity
  8
0
100
AcDbLine
 10
968.8661451394345
 20
492.049277942641
 30
0.0
 11
967.8661451394345
 21
492.0492779426411
 31
0.0
  0
LINE
  5
13BE
330
2
100
AcDbEntity
  8
0
100
AcDbLine
 10
967.8661451394345
 20
502.0492779426411
 30
0.0
 11
968.8661451394345
 21
502.0492779426411
 31
0.0
  0
LINE
  5
13BF
330
2
100
AcDbEntity
  8
0
100
AcDbLine
 10
968.8661451394345
 20
502.0492779426411
 30
0.0
 11
968.8661451394345
 21
492.049277942641
 31
0.0
  0
LINE
  5
13C0
330
2
100
AcDbEntity
  8
0
100
AcDbLine
 10
974.4661451394348
 20
502.0492779426411
 30
0.0
 11
968.8661451394345
 21
502.0492779426411
 31
0.0
  0
LINE
  5
13C1
330
2
100
AcDbEntity
  8
0
100
AcDbLine
 10
968.8661451394345
 20
492.049277942641
 30
0.0
 11
974.4661451394348
 21
492.049277942641
 31
0.0
  0
LINE
  5
13C2
330
2
100
AcDbEntity
  8
0
100
AcDbLine
 10
974.4661451394348
 20
492.049277942641
 30
0.0
 11
974.8661451394344
 21
492.7420982656692
 31
0.0
  0
LINE
  5
13C3
330
2
100
AcDbEntity
  8
CENTER
  6
CENS
100
AcDbLine
 10
952.8661451394345
 20
566.3457424989226
 30
0.0
 11
979.8661451394345
 21
566.3457424989226
 31
0.0
  0
LINE
  5
13C4
330
2
100
AcDbEntity
  8
0
100
AcDbLine
 10
974.4661451394348
 20
561.3457424989226
 30
0.0
 11
974.4661451394348
 21
571.3457424989226
 31
0.0
  0
LINE
  5
13C5
330
2
100
AcDbEntity
  8
0
100
AcDbLine
 10
974.8661451394344
 20
570.6529221758954
 30
0.0
 11
974.8661451394344
 21
562.0385628219508
 31
0.0
  0
LINE
  5
13C6
330
2
100
AcDbEntity
  8
0
100
AcDbLine
 10
968.8661451394345
 20
561.3457424989226
 30
0.0
 11
968.8661451394345
 21
571.3457424989226
 31
0.0
  0
LINE
  5
13C7
330
2
100
AcDbEntity
  8
0
100
AcDbLine
 10
968.8661451394345
 20
571.3457424989226
 30
0.0
 11
967.8661451394345
 21
571.3457424989226
 31
0.0
  0
LINE
  5
13C8
330
2
100
AcDbEntity
  8
0
100
AcDbLine
 10
967.8661451394345
 20
561.3457424989226
 30
0.0
 11
968.8661451394345
 21
561.3457424989226
 31
0.0
  0
LINE
  5
13C9
330
2
100
AcDbEntity
  8
0
100
AcDbLine
 10
968.8661451394345
 20
561.3457424989226
 30
0.0
 11
968.8661451394345
 21
571.3457424989226
 31
0.0
  0
LINE
  5
13CA
330
2
100
AcDbEntity
  8
0
100
AcDbLine
 10
974.4661451394348
 20
561.3457424989226
 30
0.0
 11
968.8661451394345
 21
561.3457424989226
 31
0.0
  0
LINE
  5
13CB
330
2
100
AcDbEntity
  8
0
100
AcDbLine
 10
968.8661451394345
 20
571.3457424989226
 30
0.0
 11
974.4661451394348
 21
571.3457424989226
 31
0.0
  0
LINE
  5
13CC
330
2
100
AcDbEntity
  8
0
100
AcDbLine
 10
974.4661451394348
 20
571.3457424989226
 30
0.0
 11
974.8661451394344
 21
570.6529221758954
 31
0.0
  0
LINE
  5
13CD
330
2
100
AcDbEntity
  8
0
100
AcDbLine
 10
974.4661451394348
 20
561.3457424989226
 30
0.0
 11
974.8661451394344
 21
562.0385628219499
 31
0.0
  0
LINE
  5
13CE
330
2
100
AcDbEntity
  8
0
100
AcDbLine
 10
974.8661451394344
 20
501.3564576196138
 30
0.0
 11
974.4661451394348
 21
502.0492779426411
 31
0.0
  0
CIRCLE
  5
13CF
330
2
100
AcDbEntity
  8
0
100
AcDbCircle
 10
984.8661345303844
 20
521.1975102207823
 30
0.0
 40
9.0
  0
LINE
  5
13D0
330
2
100
AcDbEntity
  8
CENTER
  6
CENS
100
AcDbLine
 10
984.8661345303824
 20
509.6113443754054
 30
0.0
 11
984.8661345303824
 21
532.7836760661573
 31
0.0
  0
LINE
  5
13D1
330
2
100
AcDbEntity
  8
CENTER
  6
CENS
100
AcDbLine
 10
996.4523003757584
 20
521.1975102207814
 30
0.0
 11
973.2799686850066
 21
521.1975102207814
 31
0.0
  0
LINE
  5
13D2
330
2
100
AcDbEntity
  8
0
100
AcDbLine
 10
80.86246813553861
 20
193.2205096081901
 30
0.0
 11
80.86246813553861
 21
114.6596221647274
 31
0.0
  0
LINE
  5
13D3
330
2
100
AcDbEntity
  8
0
100
AcDbLine
 10
92.86246813553816
 20
113.3078544428686
 30
0.0
 11
82.84501506454182
 21
113.3952754314196
 31
0.0
  0
LINE
  5
13D4
330
2
100
AcDbEntity
  8
0
100
AcDbLine
 10
73.86246813553862
 20
122.4674806767676
 30
0.0
 11
55.14981107774111
 21
122.7941113206916
 31
0.0
  0
LINE
  5
13D5
330
2
100
AcDbEntity
  8
0
100
AcDbLine
 10
52.86246813553862
 20
124.2554892480835
 30
0.0
 11
49.86246813553862
 21
124.3078544428686
 31
0.0
  0
LINE
  5
13D6
330
2
100
AcDbEntity
  8
0
100
AcDbLine
 10
92.86246813553816
 20
195.3078544428686
 30
0.0
 11
82.84501506454196
 21
195.2204334543184
 31
0.0
  0
LINE
  5
13D9
330
2
100
AcDbEntity
  8
0
100
AcDbLine
 10
52.86246813553862
 20
124.2554892480835
 30
0.0
 11
53.79584520112254
 21
123.3546964970644
 31
0.0
  0
LINE
  5
13DA
330
2
100
AcDbEntity
  8
0
100
AcDbLine
 10
73.86246813553862
 20
186.1482282089687
 30
0.0
 11
54.86384948818255
 21
185.8166060869327
 31
0.0
  0
LINE
  5
13DB
330
2
100
AcDbEntity
  8
0
100
AcDbLine
 10
52.86246813553862
 20
184.3602196376537
 30
0.0
 11
49.86246813553862
 21
184.3078544428686
 31
0.0
  0
LINE
  5
13DC
330
2
100
AcDbEntity
  8
0
100
AcDbLine
 10
52.86246813553862
 20
184.3602196376537
 30
0.0
 11
53.79584520112252
 21
185.2610123886728
 31
0.0
  0
LINE
  5
13DD
330
2
100
AcDbEntity
  8
0
100
AcDbLine
 10
49.86246813553862
 20
124.3078544428686
 30
0.0
 11
49.86246813553862
 21
184.3078544428686
 31
0.0
  0
LINE
  5
13DE
330
2
100
AcDbEntity
  8
CENTER
  6
CENS
100
AcDbLine
 10
95.86246813553817
 20
188.9560867210098
 30
0.0
 11
68.86246813553862
 21
188.9560867210098
 31
0.0
  0
LINE
  5
13DF
330
2
100
AcDbEntity
  8
0
100
AcDbLine
 10
74.26246813553825
 20
183.9560867210098
 30
0.0
 11
74.26246813553825
 21
193.9560867210098
 31
0.0
  0
LINE
  5
13E0
330
2
100
AcDbEntity
  8
0
100
AcDbLine
 10
73.86246813553862
 20
193.2632663979816
 30
0.0
 11
73.86246813553862
 21
184.6489070440371
 31
0.0
  0
LINE
  5
13E1
330
2
100
AcDbEntity
  8
0
100
AcDbLine
 10
79.86246813553862
 20
183.9560867210098
 30
0.0
 11
79.86246813553862
 21
193.9560867210098
 31
0.0
  0
LINE
  5
13E2
330
2
100
AcDbEntity
  8
0
100
AcDbLine
 10
79.86246813553862
 20
193.9560867210098
 30
0.0
 11
80.86246813553861
 21
193.9560867210098
 31
0.0
  0
LINE
  5
13E3
330
2
100
AcDbEntity
  8
0
100
AcDbLine
 10
80.86246813553861
 20
193.9560867210098
 30
0.0
 11
80.86246813553861
 21
183.9560867210098
 31
0.0
  0
LINE
  5
13E4
330
2
100
AcDbEntity
  8
0
100
AcDbLine
 10
80.86246813553861
 20
183.9560867210098
 30
0.0
 11
79.86246813553862
 21
183.9560867210098
 31
0.0
  0
LINE
  5
13E5
330
2
100
AcDbEntity
  8
0
100
AcDbLine
 10
79.86246813553862
 20
183.9560867210098
 30
0.0
 11
79.86246813553862
 21
193.9560867210098
 31
0.0
  0
LINE
  5
13E6
330
2
100
AcDbEntity
  8
0
100
AcDbLine
 10
74.26246813553825
 20
183.9560867210098
 30
0.0
 11
79.86246813553862
 21
183.9560867210098
 31
0.0
  0
LINE
  5
13E7
330
2
100
AcDbEntity
  8
0
100
AcDbLine
 10
79.86246813553862
 20
193.9560867210098
 30
0.0
 11
74.26246813553825
 21
193.9560867210098
 31
0.0
  0
LINE
  5
13E8
330
2
100
AcDbEntity
  8
0
100
AcDbLine
 10
74.26246813553825
 20
193.9560867210098
 30
0.0
 11
73.86246813553862
 21
193.2632663979816
 31
0.0
  0
LINE
  5
13E9
330
2
100
AcDbEntity
  8
0
100
AcDbLine
 10
74.26246813553825
 20
183.9560867210098
 30
0.0
 11
73.86246813553862
 21
184.6489070440371
 31
0.0
  0
LINE
  5
13EA
330
2
100
AcDbEntity
  8
CENTER
  6
CENS
100
AcDbLine
 10
95.86246813553817
 20
119.6596221647274
 30
0.0
 11
68.86246813553862
 21
119.6596221647274
 31
0.0
  0
LINE
  5
13EB
330
2
100
AcDbEntity
  8
0
100
AcDbLine
 10
74.26246813553825
 20
124.6596221647274
 30
0.0
 11
74.26246813553825
 21
114.6596221647274
 31
0.0
  0
LINE
  5
13EC
330
2
100
AcDbEntity
  8
0
100
AcDbLine
 10
73.86246813553862
 20
115.3524424877546
 30
0.0
 11
73.86246813553862
 21
123.9668018417001
 31
0.0
  0
LINE
  5
13ED
330
2
100
AcDbEntity
  8
0
100
AcDbLine
 10
79.86246813553862
 20
124.6596221647274
 30
0.0
 11
79.86246813553862
 21
114.6596221647274
 31
0.0
  0
LINE
  5
13EE
330
2
100
AcDbEntity
  8
0
100
AcDbLine
 10
79.86246813553862
 20
114.6596221647274
 30
0.0
 11
80.86246813553861
 21
114.6596221647274
 31
0.0
  0
LINE
  5
13EF
330
2
100
AcDbEntity
  8
0
100
AcDbLine
 10
80.86246813553861
 20
124.6596221647274
 30
0.0
 11
79.86246813553862
 21
124.6596221647274
 31
0.0
  0
LINE
  5
13F0
330
2
100
AcDbEntity
  8
0
100
AcDbLine
 10
79.86246813553862
 20
124.6596221647274
 30
0.0
 11
79.86246813553862
 21
114.6596221647274
 31
0.0
  0
LINE
  5
13F1
330
2
100
AcDbEntity
  8
0
100
AcDbLine
 10
74.26246813553825
 20
124.6596221647274
 30
0.0
 11
79.86246813553862
 21
124.6596221647274
 31
0.0
  0
LINE
  5
13F2
330
2
100
AcDbEntity
  8
0
100
AcDbLine
 10
79.86246813553862
 20
114.6596221647274
 30
0.0
 11
74.26246813553825
 21
114.6596221647274
 31
0.0
  0
LINE
  5
13F3
330
2
100
AcDbEntity
  8
0
100
AcDbLine
 10
74.26246813553825
 20
114.6596221647274
 30
0.0
 11
73.86246813553862
 21
115.3524424877546
 31
0.0
  0
LINE
  5
13F4
330
2
100
AcDbEntity
  8
0
100
AcDbLine
 10
74.26246813553825
 20
124.6596221647274
 30
0.0
 11
73.86246813553862
 21
123.9668018417001
 31
0.0
  0
LINE
  5
13F5
330
2
100
AcDbEntity
  8
0
100
AcDbLine
 10
58.79343064305704
 20
189.8858064933079
 30
0.0
 11
68.79190759462199
 21
190.060330557681
 31
0.0
  0
ARC
  5
13F6
330
2
100
AcDbEntity
  8
0
100
AcDbCircle
 10
68.86171722037125
 20
186.0609397770554
 30
0.0
 40
4.000000000000023
100
AcDbArc
 50
1.000000000001775
 51
90.99999999997569
  0
ARC
  5
13F7
330
2
100
AcDbEntity
  8
0
100
AcDbCircle
 10
58.86324026880811
 20
185.8864157126823
 30
0.0
 40
4.000000000000023
100
AcDbArc
 50
90.99999999997569
 51
181.0000000000054
  0
LINE
  5
13F8
330
2
100
AcDbEntity
  8
CENTER
  6
CENS
100
AcDbLine
 10
63.86247874458877
 20
193.2347883404323
 30
0.0
 11
63.86247874458877
 21
169.8748623380654
 31
0.0
  0
LINE
  5
13FA
330
2
100
AcDbEntity
  8
0
100
AcDbLine
 10
52.86246813553862
 20
124.2554892480835
 30
0.0
 11
52.86246813553862
 21
184.3602196376546
 31
0.0
  0
LINE
  5
13FB
330
2
100
AcDbEntity
  8
CENTER
100
AcDbLine
 10
1337.976800630575
 20
127.3190670000072
 30
0.0
 11
1337.976800630575
 21
112.0001773294521
 31
0.0
  0
INSERT
  5
13FC
330
2
100
AcDbEntity
  8
0
100
AcDbBlockReference
  2
A$C79D50562
 10
1268.680336074293
 20
119.6596221647292
 30
0.0
  0
ARC
  5
13FD
330
2
100
AcDbEntity
  8
0
100
AcDbCircle
 10
1267.328568352434
 20
118.3078544428704
 30
0.0
 40
5.0
100
AcDbArc
 50
180.0
 51
270.0
  0
ARC
  5
13FE
330
2
100
AcDbEntity
  8
0
100
AcDbCircle
 10
1339.328568352434
 20
118.3078544428704
 30
0.0
 40
5.0
100
AcDbArc
 50
270.0
 51
0.0
  0
LINE
  5
13FF
330
2
100
AcDbEntity
  8
CENTER
100
AcDbLine
 10
1330.317355795298
 20
188.9560867210116
 30
0.0
 11
1345.636245465853
 21
188.9560867210116
 31
0.0
  0
LINE
  5
1400
330
2
100
AcDbEntity
  8
0
100
AcDbLine
 10
1267.328568352434
 20
195.3078544428704
 30
0.0
 11
1339.328568352434
 21
195.3078544428704
 31
0.0
  0
ARC
  5
1401
330
2
100
AcDbEntity
  8
0
100
AcDbCircle
 10
1328.328568352434
 20
179.3078544428704
 30
0.0
 40
5.0
100
AcDbArc
 50
0.0
 51
90.0
  0
ARC
  5
1402
330
2
100
AcDbEntity
  8
0
100
AcDbCircle
 10
1328.328568352434
 20
179.3078544428704
 30
0.0
 40
6.499999999999829
100
AcDbArc
 50
0.0
 51
90.0
  0
LINE
  5
1403
330
2
100
AcDbEntity
  8
CENTER
100
AcDbLine
 10
1330.317355795298
 20
119.6596221647292
 30
0.0
 11
1345.636245465853
 21
119.6596221647292
 31
0.0
  0
ARC
  5
1404
330
2
100
AcDbEntity
  8
0
100
AcDbCircle
 10
1328.328568352434
 20
129.3078544428704
 30
0.0
 40
5.0
100
AcDbArc
 50
270.0
 51
0.0
  0
ARC
  5
1405
330
2
100
AcDbEntity
  8
0
100
AcDbCircle
 10
1328.328568352434
 20
129.3078544428704
 30
0.0
 40
6.499999999999829
100
AcDbArc
 50
270.0
 51
0.0
  0
LINE
  5
1406
330
2
100
AcDbEntity
  8
0
100
AcDbLine
 10
1333.328568352434
 20
179.3078544428704
 30
0.0
 11
1333.328568352434
 21
129.3078544428704
 31
0.0
  0
LINE
  5
1407
330
2
100
AcDbEntity
  8
0
100
AcDbLine
 10
1273.328568352434
 20
179.3078544428704
 30
0.0
 11
1273.328568352434
 21
129.3078544428704
 31
0.0
  0
LINE
  5
1408
330
2
100
AcDbEntity
  8
0
100
AcDbLine
 10
1271.828568352434
 20
179.3078544428704
 30
0.0
 11
1271.828568352434
 21
129.3078544428704
 31
0.0
  0
CIRCLE
  5
1409
330
2
100
AcDbEntity
  8
0
100
AcDbCircle
 10
1303.328568352434
 20
154.3078544428704
 30
0.0
 40
25.00000000482703
  0
LINE
  5
140A
330
2
100
AcDbEntity
  8
0
100
AcDbLine
 10
1328.328568352434
 20
124.3078544428704
 30
0.0
 11
1278.328568352434
 21
124.3078544428704
 31
0.0
  0
LINE
  5
140B
330
2
100
AcDbEntity
  8
0
100
AcDbLine
 10
1328.328568352434
 20
122.8078544428704
 30
0.0
 11
1278.328568352434
 21
122.8078544428704
 31
0.0
  0
ARC
  5
140C
330
2
100
AcDbEntity
  8
0
100
AcDbCircle
 10
1278.328568352434
 20
129.3078544428704
 30
0.0
 40
5.0
100
AcDbArc
 50
180.0
 51
270.0
  0
ARC
  5
140D
330
2
100
AcDbEntity
  8
0
100
AcDbCircle
 10
1278.328568352434
 20
129.3078544428704
 30
0.0
 40
6.499999999999829
100
AcDbArc
 50
180.0
 51
270.0
  0
LINE
  5
140E
330
2
100
AcDbEntity
  8
CENTER
100
AcDbLine
 10
1278.579831010906
 20
133.0153998238425
 30
0.0
 11
1278.579831010906
 21
126.1028343788407
 31
0.0
  0
LINE
  5
140F
330
2
100
AcDbEntity
  8
CENTER
100
AcDbLine
 10
1275.123548288404
 20
129.5591171013407
 30
0.0
 11
1282.036113733406
 21
129.5591171013407
 31
0.0
  0
LINE
  5
1410
330
2
100
AcDbEntity
  8
CENTER
100
AcDbLine
 10
1324.621022971464
 20
129.5591171013407
 30
0.0
 11
1331.533588416464
 21
129.5591171013407
 31
0.0
  0
LINE
  5
1411
330
2
100
AcDbEntity
  8
CENTER
100
AcDbLine
 10
1328.077305693964
 20
133.0153998238425
 30
0.0
 11
1328.077305693964
 21
126.1028343788407
 31
0.0
  0
LINE
  5
1412
330
2
100
AcDbEntity
  8
0
100
AcDbLine
 10
1278.328568352434
 20
184.3078544428704
 30
0.0
 11
1328.328568352434
 21
184.3078544428704
 31
0.0
  0
LINE
  5
1413
330
2
100
AcDbEntity
  8
0
100
AcDbLine
 10
1278.328568352434
 20
185.8078544428704
 30
0.0
 11
1328.328568352434
 21
185.8078544428704
 31
0.0
  0
ARC
  5
1414
330
2
100
AcDbEntity
  8
0
100
AcDbCircle
 10
1267.328568352434
 20
190.3078544428704
 30
0.0
 40
5.0
100
AcDbArc
 50
180.0
 51
180.0
  0
LINE
  5
1415
330
2
100
AcDbEntity
  8
CENTER
100
AcDbLine
 10
1261.020891239016
 20
188.9560867210116
 30
0.0
 11
1276.339780909572
 21
188.9560867210116
 31
0.0
  0
LINE
  5
1416
330
2
100
AcDbEntity
  8
CENTER
100
AcDbLine
 10
1268.680336074293
 20
196.6155315562887
 30
0.0
 11
1268.680336074293
 21
181.2966418857336
 31
0.0
  0
ARC
  5
1417
330
2
100
AcDbEntity
  8
0
100
AcDbCircle
 10
1278.328568352434
 20
179.3078544428704
 30
0.0
 40
5.0
100
AcDbArc
 50
90.0
 51
180.0
  0
ARC
  5
1418
330
2
100
AcDbEntity
  8
0
100
AcDbCircle
 10
1278.328568352434
 20
179.3078544428704
 30
0.0
 40
6.499999999999829
100
AcDbArc
 50
90.0
 51
180.0
  0
LINE
  5
1419
330
2
100
AcDbEntity
  8
CENTER
100
AcDbLine
 10
1278.579831010906
 20
182.5128745069001
 30
0.0
 11
1278.579831010906
 21
175.6003090618983
 31
0.0
  0
LINE
  5
141A
330
2
100
AcDbEntity
  8
CENTER
100
AcDbLine
 10
1275.123548288404
 20
179.0565917843992
 30
0.0
 11
1282.036113733406
 21
179.0565917843992
 31
0.0
  0
LINE
  5
141B
330
2
100
AcDbEntity
  8
CENTER
100
AcDbLine
 10
1328.077305693964
 20
182.5128745069001
 30
0.0
 11
1328.077305693964
 21
175.6003090618983
 31
0.0
  0
LINE
  5
141C
330
2
100
AcDbEntity
  8
CENTER
100
AcDbLine
 10
1324.621022971464
 20
179.0565917844001
 30
0.0
 11
1331.533588416464
 21
179.0565917844001
 31
0.0
  0
LINE
  5
141D
330
2
100
AcDbEntity
  8
0
100
AcDbLine
 10
1334.828568352434
 20
179.3078544428704
 30
0.0
 11
1334.828568352434
 21
129.3078544428704
 31
0.0
  0
LINE
  5
141E
330
2
100
AcDbEntity
  8
CENTER
100
AcDbLine
 10
1337.976800630575
 20
196.6155315562887
 30
0.0
 11
1337.976800630575
 21
181.2966418857336
 31
0.0
  0
ARC
  5
141F
330
2
100
AcDbEntity
  8
0
100
AcDbCircle
 10
1339.328568352434
 20
190.3078544428704
 30
0.0
 40
5.0
100
AcDbArc
 50
0.0
 51
90.0
  0
CIRCLE
  5
1420
330
2
100
AcDbEntity
  8
CENTER
100
AcDbCircle
 10
1303.328568352434
 20
154.3078544428704
 30
0.0
 40
35.00000000000003
  0
LINE
  5
1421
330
2
100
AcDbEntity
  8
HIDS
100
AcDbLine
 10
1287.078568352434
 20
185.8078544428704
 30
0.0
 11
1287.078568352434
 21
169.8702289403595
 31
0.0
  0
LINE
  5
1422
330
2
100
AcDbEntity
  8
HIDS
100
AcDbLine
 10
1298.578568352434
 20
185.8078544428704
 30
0.0
 11
1298.578568352434
 21
176.3007510233588
 31
0.0
  0
LINE
  5
1423
330
2
100
AcDbEntity
  8
0
100
AcDbLine
 10
1339.328568352434
 20
113.3078544428704
 30
0.0
 11
1267.328568352434
 21
113.3078544428704
 31
0.0
  0
CIRCLE
  5
1424
330
2
100
AcDbEntity
  8
0
100
AcDbCircle
 10
1338.179982706312
 20
188.9560867210116
 30
0.0
 40
5.0
  0
CIRCLE
  5
1425
330
2
100
AcDbEntity
  8
0
100
AcDbCircle
 10
1338.179982706312
 20
188.9560867210116
 30
0.0
 40
4.307179676972423
  0
CIRCLE
  5
1426
330
2
100
AcDbEntity
  8
0
100
AcDbCircle
 10
1338.179982706312
 20
188.9560867210116
 30
0.0
 40
2.886751345948113
  0
LWPOLYLINE
  5
1427
330
2
100
AcDbEntity
  8
0
100
AcDbPolyline
 90
        6
 70
     1
 43
0.0
 10
1340.679982706312
 20
190.3994623939857
 10
1338.179982706312
 20
191.8428380669597
 10
1335.679982706312
 20
190.3994623939857
 10
1335.679982706312
 20
187.5127110480375
 10
1338.179982706312
 20
186.0693353750635
 10
1340.679982706312
 20
187.5127110480375
  0
CIRCLE
  5
1428
330
2
100
AcDbEntity
  8
0
100
AcDbCircle
 10
1338.179982706312
 20
119.6596221647292
 30
0.0
 40
5.0
  0
CIRCLE
  5
1429
330
2
100
AcDbEntity
  8
0
100
AcDbCircle
 10
1338.179982706312
 20
119.6596221647292
 30
0.0
 40
4.307179676972423
  0
CIRCLE
  5
142A
330
2
100
AcDbEntity
  8
0
100
AcDbCircle
 10
1338.179982706312
 20
119.6596221647292
 30
0.0
 40
2.886751345948113
  0
LWPOLYLINE
  5
142B
330
2
100
AcDbEntity
  8
0
100
AcDbPolyline
 90
        6
 70
     1
 43
0.0
 10
1340.679982706312
 20
121.1029978377033
 10
1338.179982706312
 20
122.5463735106773
 10
1335.679982706312
 20
121.1029978377033
 10
1335.679982706312
 20
118.2162464917551
 10
1338.179982706312
 20
116.772870818781
 10
1340.679982706312
 20
118.2162464917551
  0
CIRCLE
  5
142C
330
2
100
AcDbEntity
  8
0
100
AcDbCircle
 10
1268.680336074293
 20
119.6596221647292
 30
0.0
 40
5.0
  0
CIRCLE
  5
142D
330
2
100
AcDbEntity
  8
0
100
AcDbCircle
 10
1268.680336074293
 20
119.6596221647292
 30
0.0
 40
4.307179676972423
  0
CIRCLE
  5
142E
330
2
100
AcDbEntity
  8
0
100
AcDbCircle
 10
1268.680336074293
 20
119.6596221647292
 30
0.0
 40
2.886751345948113
  0
LWPOLYLINE
  5
142F
330
2
100
AcDbEntity
  8
0
100
AcDbPolyline
 90
        6
 70
     1
 43
0.0
 10
1271.180336074293
 20
121.1029978377033
 10
1268.680336074293
 20
122.5463735106773
 10
1266.180336074293
 20
121.1029978377033
 10
1266.180336074293
 20
118.2162464917551
 10
1268.680336074293
 20
116.772870818781
 10
1271.180336074293
 20
118.2162464917551
  0
CIRCLE
  5
1430
330
2
100
AcDbEntity
  8
0
100
AcDbCircle
 10
1268.680336074293
 20
188.9560867210116
 30
0.0
 40
5.0
  0
CIRCLE
  5
1431
330
2
100
AcDbEntity
  8
0
100
AcDbCircle
 10
1268.680336074293
 20
188.9560867210116
 30
0.0
 40
4.307179676972423
  0
CIRCLE
  5
1432
330
2
100
AcDbEntity
  8
0
100
AcDbCircle
 10
1268.680336074293
 20
188.9560867210116
 30
0.0
 40
2.886751345948113
  0
LWPOLYLINE
  5
1433
330
2
100
AcDbEntity
  8
0
100
AcDbPolyline
 90
        6
 70
     1
 43
0.0
 10
1271.180336074293
 20
190.3994623939857
 10
1268.680336074293
 20
191.8428380669597
 10
1266.180336074293
 20
190.3994623939857
 10
1266.180336074293
 20
187.5127110480375
 10
1268.680336074293
 20
186.0693353750635
 10
1271.180336074293
 20
187.5127110480375
  0
LINE
  5
1434
330
2
100
AcDbEntity
  8
HIDS
  6
SEKKEI_H
100
AcDbLine
 10
1294.495235019102
 20
153.5578544428704
 30
0.0
 11
1294.495235019102
 21
144.7745211095376
 31
0.0
  0
LINE
  5
1435
330
2
100
AcDbEntity
  8
HIDS
  6
SEKKEI_H
100
AcDbLine
 10
1291.161901685768
 20
153.5578544428704
 30
0.0
 11
1291.161901685768
 21
145.9691062021434
 31
0.0
  0
LINE
  5
1436
330
2
100
AcDbEntity
  8
HIDS
  6
SEKKEI_H
100
AcDbLine
 10
1290.828568352434
 20
153.5578544428704
 30
0.0
 11
1290.828568352434
 21
146.477624561187
 31
0.0
  0
LINE
  5
1437
330
2
100
AcDbEntity
  8
CENTER
  6
CENS
100
AcDbLine
 10
1292.828568352434
 20
193.2347883404341
 30
0.0
 11
1292.828568352434
 21
142.8556040983135
 31
0.0
  0
LINE
  5
1438
330
2
100
AcDbEntity
  8
HIDS
  6
SEKKEI_H
100
AcDbLine
 10
1294.828568352434
 20
153.5578544428704
 30
0.0
 11
1294.828568352434
 21
142.2532909916295
 31
0.0
  0
LINE
  5
1439
330
2
100
AcDbEntity
  8
HIDS
  6
SEKKEI_H
100
AcDbLine
 10
1291.79936629852
 20
145.1078544428706
 30
0.0
 11
1292.828568352434
 21
145.1078544428706
 31
0.0
  0
LINE
  5
143A
330
2
100
AcDbEntity
  8
0
100
AcDbLine
 10
1291.628568352433
 20
144.3078544428704
 30
0.0
 11
1292.485944131333
 21
144.3078544428704
 31
0.0
  0
LINE
  5
143B
330
2
100
AcDbEntity
  8
0
100
AcDbLine
 10
1290.828568352434
 20
146.477624561187
 30
0.0
 11
1290.828568352434
 21
145.1078544428706
 31
0.0
  0
LINE
  5
143C
330
2
100
AcDbEntity
  8
HOJO
100
AcDbLine
 10
1291.161901685768
 20
145.9691062021434
 30
0.0
 11
1291.161901685768
 21
144.7745211095376
 31
0.0
  0
LINE
  5
143D
330
2
100
AcDbEntity
  8
0
100
AcDbLine
 10
1290.828568352434
 20
145.1078544428706
 30
0.0
 11
1291.79936629852
 21
145.1078544428706
 31
0.0
  0
LINE
  5
143E
330
2
100
AcDbEntity
  8
0
100
AcDbLine
 10
1290.828568352434
 20
145.1078544428706
 30
0.0
 11
1291.628568352433
 21
144.3078544428704
 31
0.0
  0
LINE
  5
143F
330
2
100
AcDbEntity
  8
HIDS
  6
SEKKEI_H
100
AcDbLine
 10
1292.485944131333
 20
144.3078544428704
 30
0.0
 11
1292.828568352434
 21
144.3078544428704
 31
0.0
  0
LINE
  5
1440
330
2
100
AcDbEntity
  8
HIDS
  6
SEKKEI_H
100
AcDbLine
 10
1294.828568352434
 20
145.1078544428706
 30
0.0
 11
1294.028568352435
 21
144.3078544428704
 31
0.0
  0
LINE
  5
1441
330
2
100
AcDbEntity
  8
HIDS
  6
SEKKEI_H
100
AcDbLine
 10
1294.028568352435
 20
144.3078544428704
 30
0.0
 11
1292.828568352434
 21
144.3078544428704
 31
0.0
  0
LINE
  5
1442
330
2
100
AcDbEntity
  8
HIDS
  6
SEKKEI_H
100
AcDbLine
 10
1294.828568352434
 20
145.1078544428706
 30
0.0
 11
1292.828568352434
 21
145.1078544428706
 31
0.0
  0
LINE
  5
1443
330
2
100
AcDbEntity
  8
HIDS
  6
SEKKEI_H
100
AcDbLine
 10
1294.495235019102
 20
144.7745211095376
 30
0.0
 11
1294.495235019102
 21
142.4953728144305
 31
0.0
  0
LINE
  5
1444
330
2
100
AcDbEntity
  8
HIDS
  6
SEKKEI_H
100
AcDbLine
 10
1289.451879266057
 20
159.3078544428704
 30
0.0
 11
1296.328568352434
 21
159.3078544428704
 31
0.0
  0
LINE
  5
1445
330
2
100
AcDbEntity
  8
HIDS
  6
SEKKEI_H
100
AcDbLine
 10
1291.417544047196
 20
163.0078544428702
 30
0.0
 11
1296.328568352434
 21
163.0078544428702
 31
0.0
  0
LINE
  5
1446
330
2
100
AcDbEntity
  8
HIDS
  6
SEKKEI_H
100
AcDbLine
 10
1295.808953110164
 20
163.3078544428704
 30
0.0
 11
1291.642572459914
 21
163.3078544428704
 31
0.0
  0
LINE
  5
1447
330
2
100
AcDbEntity
  8
HIDS
  6
SEKKEI_H
100
AcDbLine
 10
1294.828568352434
 20
157.6411877762034
 30
0.0
 11
1290.828568352434
 21
157.6411877762034
 31
0.0
  0
LINE
  5
1448
330
2
100
AcDbEntity
  8
HIDS
  6
SEKKEI_H
100
AcDbLine
 10
1289.451879266057
 20
159.3078544428704
 30
0.0
 11
1296.828568352434
 21
159.3078544428704
 31
0.0
  0
LINE
  5
1449
330
2
100
AcDbEntity
  8
0
100
AcDbLine
 10
1288.597648489777
 20
155.0578544428704
 30
0.0
 11
1292.828568352434
 21
155.0578544428704
 31
0.0
  0
LINE
  5
144A
330
2
100
AcDbEntity
  8
0
100
AcDbLine
 10
1288.597648489777
 20
153.5578544428704
 30
0.0
 11
1292.828568352434
 21
153.5578544428704
 31
0.0
  0
LINE
  5
144B
330
2
100
AcDbEntity
  8
0
100
AcDbLine
 10
1289.328568352434
 20
163.0078544428702
 30
0.0
 11
1289.328568352434
 21
159.3078544428704
 31
0.0
  0
LINE
  5
144C
330
2
100
AcDbEntity
  8
0
100
AcDbLine
 10
1290.828568352434
 20
155.0578544428704
 30
0.0
 11
1290.828568352434
 21
153.5578544428704
 31
0.0
  0
LINE
  5
144D
330
2
100
AcDbEntity
  8
HOJO
100
AcDbLine
 10
1291.161901685768
 20
155.0578544428704
 30
0.0
 11
1291.161901685768
 21
153.5578544428704
 31
0.0
  0
LINE
  5
144E
330
2
100
AcDbEntity
  8
HIDS
  6
SEKKEI_H
100
AcDbLine
 10
1290.828568352434
 20
159.3078544428704
 30
0.0
 11
1291.161901685768
 21
157.6411877762034
 31
0.0
  0
LINE
  5
144F
330
2
100
AcDbEntity
  8
0
100
AcDbLine
 10
1289.328568352434
 20
159.3078544428704
 30
0.0
 11
1289.451879266057
 21
159.3078544428704
 31
0.0
  0
LINE
  5
1450
330
2
100
AcDbEntity
  8
HIDS
  6
SEKKEI_H
100
AcDbLine
 10
1291.161901685768
 20
157.6411877762034
 30
0.0
 11
1291.161901685768
 21
155.0578544428704
 31
0.0
  0
LINE
  5
1451
330
2
100
AcDbEntity
  8
HIDS
  6
SEKKEI_H
100
AcDbLine
 10
1290.828568352434
 20
159.3078544428704
 30
0.0
 11
1290.828568352434
 21
155.0578544428704
 31
0.0
  0
LINE
  5
1452
330
2
100
AcDbEntity
  8
HIDS
  6
SEKKEI_H
100
AcDbLine
 10
1290.328568352434
 20
159.3078544428704
 30
0.0
 11
1290.328568352434
 21
155.0578544428704
 31
0.0
  0
LINE
  5
1453
330
2
100
AcDbEntity
  8
0
100
AcDbLine
 10
1291.642572459914
 20
163.3078544428704
 30
0.0
 11
1289.848183594705
 21
163.3078544428704
 31
0.0
  0
LINE
  5
1454
330
2
100
AcDbEntity
  8
0
100
AcDbLine
 10
1289.328568352434
 20
163.0078544428702
 30
0.0
 11
1289.848183594705
 21
163.3078544428704
 31
0.0
  0
LINE
  5
1455
330
2
100
AcDbEntity
  8
0
100
AcDbLine
 10
1289.328568352434
 20
163.0078544428702
 30
0.0
 11
1291.417544047196
 21
163.0078544428702
 31
0.0
  0
LINE
  5
1456
330
2
100
AcDbEntity
  8
HIDS
  6
SEKKEI_H
100
AcDbLine
 10
1296.328568352434
 20
159.3078544428704
 30
0.0
 11
1296.328568352434
 21
163.0078544428702
 31
0.0
  0
LINE
  5
1457
330
2
100
AcDbEntity
  8
HIDS
  6
SEKKEI_H
100
AcDbLine
 10
1296.828568352434
 20
167.5484171197354
 30
0.0
 11
1296.828568352434
 21
159.3078544428704
 31
0.0
  0
LINE
  5
1458
330
2
100
AcDbEntity
  8
HOJO
100
AcDbLine
 10
1294.495235019102
 20
155.0578544428704
 30
0.0
 11
1294.495235019102
 21
153.5578544428704
 31
0.0
  0
LINE
  5
1459
330
2
100
AcDbEntity
  8
0
100
AcDbLine
 10
1294.828568352434
 20
155.0578544428704
 30
0.0
 11
1294.828568352434
 21
153.5578544428704
 31
0.0
  0
LINE
  5
145A
330
2
100
AcDbEntity
  8
0
100
AcDbLine
 10
1292.828568352434
 20
153.5578544428704
 30
0.0
 11
1296.368862898897
 21
153.5578544428704
 31
0.0
  0
LINE
  5
145B
330
2
100
AcDbEntity
  8
0
100
AcDbLine
 10
1292.828568352434
 20
155.0578544428704
 30
0.0
 11
1296.368862898897
 21
155.0578544428704
 31
0.0
  0
LINE
  5
145C
330
2
100
AcDbEntity
  8
HIDS
  6
SEKKEI_H
100
AcDbLine
 10
1294.828568352434
 20
159.3078544428704
 30
0.0
 11
1294.495235019102
 21
157.6411877762034
 31
0.0
  0
LINE
  5
145D
330
2
100
AcDbEntity
  8
HIDS
  6
SEKKEI_H
100
AcDbLine
 10
1294.828568352434
 20
159.3078544428704
 30
0.0
 11
1294.828568352434
 21
155.0578544428704
 31
0.0
  0
LINE
  5
145E
330
2
100
AcDbEntity
  8
HIDS
  6
SEKKEI_H
100
AcDbLine
 10
1294.495235019102
 20
157.6411877762034
 30
0.0
 11
1294.495235019102
 21
155.0578544428704
 31
0.0
  0
LINE
  5
145F
330
2
100
AcDbEntity
  8
HIDS
  6
SEKKEI_H
100
AcDbLine
 10
1295.328568352434
 20
159.3078544428704
 30
0.0
 11
1295.328568352434
 21
155.0578544428704
 31
0.0
  0
LINE
  5
1460
330
2
100
AcDbEntity
  8
HIDS
  6
SEKKEI_H
100
AcDbLine
 10
1295.808953110164
 20
163.3078544428704
 30
0.0
 11
1296.328568352434
 21
163.0078544428702
 31
0.0
  0
LINE
  5
1461
330
2
100
AcDbEntity
  8
0
100
AcDbLine
 10
1317.328568352434
 20
153.5578544428704
 30
0.0
 11
1310.288273805971
 21
153.5578544428704
 31
0.0
  0
LINE
  5
1462
330
2
100
AcDbEntity
  8
0
100
AcDbLine
 10
1310.288273805971
 20
155.0578544428704
 30
0.0
 11
1317.328568352434
 21
155.0578544428704
 31
0.0
  0
LINE
  5
1463
330
2
100
AcDbEntity
  8
0
100
AcDbLine
 10
1317.328568352434
 20
155.0578544428704
 30
0.0
 11
1317.328568352434
 21
153.5578544428704
 31
0.0
  0
ARC
  5
1464
330
2
100
AcDbEntity
  8
0
100
AcDbCircle
 10
1303.328568352432
 20
154.3078544428722
 30
0.0
 40
8.154700538378051
100
AcDbArc
 50
185.2770359348315
 51
354.7229640651684
  0
ARC
  5
1465
330
2
100
AcDbEntity
  8
0
100
AcDbCircle
 10
1303.328568352432
 20
154.3078544428722
 30
0.0
 40
8.154700538378051
100
AcDbArc
 50
5.277035934803723
 51
174.7229640651962
  0
CIRCLE
  5
1466
330
2
100
AcDbEntity
  8
0
100
AcDbCircle
 10
1303.328568352434
 20
154.3078544428704
 30
0.0
 40
7.000000000000113
  0
CIRCLE
  5
1467
330
2
100
AcDbEntity
  8
0
100
AcDbCircle
 10
1303.328568352436
 20
154.3078544428704
 30
0.0
 40
14.75000000000022
  0
LINE
  5
1468
330
2
100
AcDbEntity
  8
0
100
AcDbLine
 10
1287.953568352434
 20
190.0603305576828
 30
0.0
 11
1297.703568352434
 21
190.0603305576828
 31
0.0
  0
ARC
  5
1469
330
2
100
AcDbEntity
  8
0
100
AcDbCircle
 10
1287.953568352434
 20
185.8103305576829
 30
0.0
 40
4.25
100
AcDbArc
 50
90.0
 51
179.9485848525427
  0
ARC
  5
146A
330
2
100
AcDbEntity
  8
0
100
AcDbCircle
 10
1297.453568352434
 20
185.8103305576829
 30
0.0
 40
4.25
100
AcDbArc
 50
0.0
 51
90.0
  0
ARC
  5
146B
330
2
100
AcDbEntity
  8
0
100
AcDbCircle
 10
1267.32856835243
 20
190.3078544428704
 30
0.0
 40
5.0
100
AcDbArc
 50
90.0
 51
180.0
  0
CIRCLE
  5
146C
330
2
100
AcDbEntity
  8
0
100
AcDbCircle
 10
1278.579831010905
 20
179.056591784401
 30
0.0
 40
2.0
  0
CIRCLE
  5
146D
330
2
100
AcDbEntity
  8
HOJO
100
AcDbCircle
 10
1278.579831010905
 20
179.056591784401
 30
0.0
 40
2.5
  0
CIRCLE
  5
146E
330
2
100
AcDbEntity
  8
0
100
AcDbCircle
 10
1328.077305693959
 20
179.056591784401
 30
0.0
 40
2.0
  0
CIRCLE
  5
146F
330
2
100
AcDbEntity
  8
HOJO
100
AcDbCircle
 10
1328.077305693959
 20
179.056591784401
 30
0.0
 40
2.5
  0
CIRCLE
  5
1470
330
2
100
AcDbEntity
  8
0
100
AcDbCircle
 10
1278.579831010907
 20
129.5591171013407
 30
0.0
 40
2.0
  0
CIRCLE
  5
1471
330
2
100
AcDbEntity
  8
HOJO
100
AcDbCircle
 10
1278.579831010907
 20
129.5591171013407
 30
0.0
 40
2.5
  0
CIRCLE
  5
1472
330
2
100
AcDbEntity
  8
0
100
AcDbCircle
 10
1328.077305693961
 20
129.5591171013443
 30
0.0
 40
2.0
  0
CIRCLE
  5
1473
330
2
100
AcDbEntity
  8
HOJO
100
AcDbCircle
 10
1328.077305693961
 20
129.5591171013443
 30
0.0
 40
2.5
  0
CIRCLE
  5
1474
330
2
100
AcDbEntity
  8
0
100
AcDbCircle
 10
1303.328568352432
 20
154.3078544428722
 30
0.0
 40
22.5
  0
LINE
  5
299E
330
2
100
AcDbEntity
  8
CENTER
100
AcDbLine
 10
462.1431561668287
 20
79.58275077827602
 30
0.0
 11
462.1431561668287
 21
229.0329581074594
 31
0.0
  0
LINE
  5
299F
330
2
100
AcDbEntity
  8
CENTER
100
AcDbLine
 10
238.2724681355371
 20
229.3078544428668
 30
0.0
 11
238.2724681355371
 21
79.30785444286687
 31
0.0
  0
ARC
  5
29A1
330
2
100
AcDbEntity
  8
0
100
AcDbCircle
 10
207.2724681355207
 20
185.3078544428668
 30
0.0
 40
15.0
100
AcDbArc
 50
90.0
 51
180.0
  0
ARC
  5
29A2
330
2
100
AcDbEntity
  8
0
100
AcDbCircle
 10
207.9071506189097
 20
292.9078354107847
 30
0.0
 40
80.0
100
AcDbArc
 50
259.7661103968963
 51
275.2796032823969
  0
ARC
  5
29A3
330
2
100
AcDbEntity
  8
0
100
AcDbCircle
 10
207.2724681355207
 20
185.3078544428668
 30
0.0
 40
17.0
100
AcDbArc
 50
90.0
 51
180.0
  0
ARC
  5
29A4
330
2
100
AcDbEntity
  8
0
100
AcDbCircle
 10
207.2724681355198
 20
123.3078544428668
 30
0.0
 40
15.0
100
AcDbArc
 50
180.0
 51
270.0
  0
ARC
  5
29A5
330
2
100
AcDbEntity
  8
0
100
AcDbCircle
 10
207.9071506189097
 20
15.70787347494899
 30
0.0
 40
80.0
100
AcDbArc
 50
84.72039671760308
 51
100.2338896031036
  0
ARC
  5
29A6
330
2
100
AcDbEntity
  8
0
100
AcDbCircle
 10
207.2724681355198
 20
123.3078544428668
 30
0.0
 40
17.0
100
AcDbArc
 50
180.0
 51
270.0
  0
CIRCLE
  5
29A7
330
2
100
AcDbEntity
  8
0
100
AcDbCircle
 10
238.2724681355207
 20
154.3078544428668
 30
0.0
 40
39.99999999999994
  0
CIRCLE
  5
29A8
330
2
100
AcDbEntity
  8
0
100
AcDbCircle
 10
238.2724681355207
 20
154.3078544428668
 30
0.0
 40
39.49999999999994
  0
CIRCLE
  5
29A9
330
2
100
AcDbEntity
  8
0
100
AcDbCircle
 10
238.2724681355207
 20
154.3078544428668
 30
0.0
 40
37.49999999999994
  0
CIRCLE
  5
29AA
330
2
100
AcDbEntity
  8
0
100
AcDbCircle
 10
238.2724681355207
 20
154.3078544428668
 30
0.0
 40
36.92264999999999
  0
LINE
  5
29AB
330
2
100
AcDbEntity
  8
0
100
AcDbLine
 10
178.272468135508
 20
204.3078544428668
 30
0.0
 11
178.2724681355189
 21
104.3078544428668
 31
0.0
  0
LINE
  5
29AC
330
2
100
AcDbEntity
  8
0
100
AcDbLine
 10
134.7724681355189
 20
189.3078544428668
 30
0.0
 11
134.7724681355189
 21
119.3078544428668
 31
0.0
  0
LINE
  5
29AD
330
2
100
AcDbEntity
  8
0
100
AcDbLine
 10
134.7724681355371
 20
189.3078544428686
 30
0.0
 11
134.7724681355371
 21
119.3078544428686
 31
0.0
  0
LINE
  5
29AF
330
2
100
AcDbEntity
  8
0
100
AcDbLine
 10
104.8624681355381
 20
114.8078544428686
 30
0.0
 11
104.8624681355381
 21
193.8078544428686
 31
0.0
  0
LINE
  5
29B0
330
2
100
AcDbEntity
  8
0
100
AcDbLine
 10
116.3100962924131
 20
126.3078544428668
 30
0.0
 11
116.3100962924904
 21
182.3078544428668
 31
0.0
  0
LINE
  5
29B1
330
2
100
AcDbEntity
  8
0
100
AcDbLine
 10
190.2724681355207
 20
185.3078544428668
 30
0.0
 11
190.2724681355198
 21
123.3078544428668
 31
0.0
  0
LINE
  5
29B2
330
2
100
AcDbEntity
  8
0
100
AcDbLine
 10
192.2724681355207
 20
185.3078544428668
 30
0.0
 11
192.2724681355198
 21
123.3078544428668
 31
0.0
  0
LINE
  5
29B3
330
2
100
AcDbEntity
  8
CENTER
100
AcDbLine
 10
153.5224681355207
 20
119.3078544428705
 30
0.0
 11
132.0224681355207
 21
119.3078544428705
 31
0.0
  0
ARC
  5
29B4
330
2
100
AcDbEntity
  8
0
100
AcDbCircle
 10
129.7724681355389
 20
125.8078544428705
 30
0.0
 40
5.0
100
AcDbArc
 50
0.0
 51
90.0
  0
ARC
  5
29B5
330
2
100
AcDbEntity
  8
0
100
AcDbCircle
 10
131.7724681355389
 20
122.8078544428705
 30
0.0
 40
3.0
100
AcDbArc
 50
0.0
 51
90.0
  0
LINE
  5
29B6
330
2
100
AcDbEntity
  8
0
100
AcDbLine
 10
102.8624681355381
 20
113.3078544428686
 30
0.0
 11
92.86246813553816
 21
113.3078544428686
 31
0.0
  0
LINE
  5
29B7
330
2
100
AcDbEntity
  8
0
100
AcDbLine
 10
102.8624681355381
 20
112.8078544428686
 30
0.0
 11
92.86246813553816
 21
112.8078544428686
 31
0.0
  0
LINE
  5
29B8
330
2
100
AcDbEntity
  8
0
100
AcDbLine
 10
129.7724681355389
 20
130.8078544428705
 30
0.0
 11
121.294456003749
 21
130.8078544428705
 31
0.0
  0
ARC
  5
29B9
330
2
100
AcDbEntity
  8
0
100
AcDbCircle
 10
109.8624681356018
 20
118.3078544428705
 30
0.0
 40
5.0
100
AcDbArc
 50
90.0
 51
180.0
  0
ARC
  5
29BA
330
2
100
AcDbEntity
  8
0
100
AcDbCircle
 10
102.8624681355381
 20
115.3078544428686
 30
0.0
 40
2.0
100
AcDbArc
 50
270.0
 51
0.0
  0
ARC
  5
29BB
330
2
100
AcDbEntity
  8
0
100
AcDbCircle
 10
102.8624681355381
 20
114.8078544428686
 30
0.0
 40
2.0
100
AcDbArc
 50
270.0
 51
0.0
  0
ARC
  5
29BC
330
2
100
AcDbEntity
  8
0
100
AcDbCircle
 10
118.1834934648172
 20
122.8078544428705
 30
0.0
 40
3.0
100
AcDbArc
 50
90.0
 51
144.3146652872821
  0
ARC
  5
29BD
330
2
100
AcDbEntity
  8
0
100
AcDbCircle
 10
113.3100962924131
 20
126.3078544428705
 30
0.0
 40
3.0
100
AcDbArc
 50
270.0
 51
356.4166783015281
  0
LINE
  5
29BE
330
2
100
AcDbEntity
  8
0
100
AcDbLine
 10
113.3100962924131
 20
123.3078544428705
 30
0.0
 11
109.8624681356018
 21
123.3078544428705
 31
0.0
  0
LINE
  5
29BF
330
2
100
AcDbEntity
  8
0
100
AcDbLine
 10
131.7724681355389
 20
125.8078544428705
 30
0.0
 11
118.1834934648172
 21
125.8078544428705
 31
0.0
  0
ARC
  5
29C0
330
2
100
AcDbEntity
  8
0
100
AcDbCircle
 10
121.294456003749
 20
125.8078544428705
 30
0.0
 40
5.0
100
AcDbArc
 50
90.0
 51
176.4166783015281
  0
LINE
  5
29C1
330
2
100
AcDbEntity
  8
0
100
AcDbLine
 10
142.7724681355189
 20
111.3078544428668
 30
0.0
 11
170.3002673799078
 21
111.3078544428668
 31
0.0
  0
LINE
  5
29C2
330
2
100
AcDbEntity
  8
CENTER
100
AcDbLine
 10
157.2724681355207
 20
108.8078544428705
 30
0.0
 11
157.2724681355207
 21
124.8078544428705
 31
0.0
  0
CIRCLE
  5
29C3
330
2
100
AcDbEntity
  8
HOJO
100
AcDbCircle
 10
157.2724681355207
 20
116.8078544428668
 30
0.0
 40
2.5
  0
CIRCLE
  5
29C4
330
2
100
AcDbEntity
  8
0
100
AcDbCircle
 10
157.2724681355207
 20
116.8078544428668
 30
0.0
 40
3.5
  0
CIRCLE
  5
29C5
330
2
100
AcDbEntity
  8
0
100
AcDbCircle
 10
157.2724681355207
 20
116.8078544428668
 30
0.0
 40
2.0
  0
ARC
  5
29C6
330
2
100
AcDbEntity
  8
0
100
AcDbCircle
 10
142.7724681355261
 20
119.3078544428668
 30
0.0
 40
8.5
100
AcDbArc
 50
0.0
 51
90.0
  0
LINE
  5
29C7
330
2
100
AcDbEntity
  8
0
100
AcDbLine
 10
139.7724681355207
 20
121.0399052504386
 30
0.0
 11
142.7724681355207
 21
122.7719560580086
 31
0.0
  0
LINE
  5
29C8
330
2
100
AcDbEntity
  8
0
100
AcDbLine
 10
142.7724681355207
 20
122.7719560580086
 30
0.0
 11
145.7724681355207
 21
121.0399052504386
 31
0.0
  0
LINE
  5
29C9
330
2
100
AcDbEntity
  8
CENTER
100
AcDbLine
 10
142.7724681355189
 20
108.5578544428705
 30
0.0
 11
142.7724681355207
 21
130.0578544428705
 31
0.0
  0
CIRCLE
  5
29CA
330
2
100
AcDbEntity
  8
0
100
AcDbCircle
 10
142.7724681355207
 20
119.3078544428705
 30
0.0
 40
5.63397459621558
  0
CIRCLE
  5
29CB
330
2
100
AcDbEntity
  8
0
100
AcDbCircle
 10
142.7724681355207
 20
119.3078544428705
 30
0.0
 40
6.5
  0
ARC
  5
29CC
330
2
100
AcDbEntity
  8
0
100
AcDbCircle
 10
153.2724681355298
 20
113.3078544428668
 30
0.0
 40
2.0
100
AcDbArc
 50
180.0
 51
270.0
  0
LINE
  5
29CD
330
2
100
AcDbEntity
  8
0
100
AcDbLine
 10
151.2724681355261
 20
119.3078544428723
 30
0.0
 11
151.2724681355298
 21
113.3078544428668
 31
0.0
  0
LINE
  5
29CE
330
2
100
AcDbEntity
  8
0
100
AcDbLine
 10
142.7724681355207
 20
115.8437528277323
 30
0.0
 11
145.7724681355207
 21
117.5758036353023
 31
0.0
  0
LINE
  5
29CF
330
2
100
AcDbEntity
  8
0
100
AcDbLine
 10
139.7724681355207
 20
121.0399052504386
 30
0.0
 11
139.7724681355207
 21
117.5758036353005
 31
0.0
  0
LINE
  5
29D0
330
2
100
AcDbEntity
  8
0
100
AcDbLine
 10
139.7724681355207
 20
117.5758036353005
 30
0.0
 11
142.7724681355207
 21
115.8437528277323
 31
0.0
  0
ARC
  5
29D1
330
2
100
AcDbEntity
  8
0
100
AcDbCircle
 10
142.7724681355189
 20
119.3078544428668
 30
0.0
 40
8.0
100
AcDbArc
 50
180.0
 51
270.0
  0
LINE
  5
29D2
330
2
100
AcDbEntity
  8
0
100
AcDbLine
 10
145.7724681355207
 20
117.5758036353023
 30
0.0
 11
145.7724681355207
 21
121.0399052504386
 31
0.0
  0
LINE
  5
29D3
330
2
100
AcDbEntity
  8
0
100
AcDbLine
 10
142.7724681355207
 20
127.8078544428668
 30
0.0
 11
136.7724681355207
 21
127.807854442865
 31
0.0
  0
ARC
  5
29D4
330
2
100
AcDbEntity
  8
0
100
AcDbCircle
 10
136.7724681355189
 20
129.807854442865
 30
0.0
 40
2.0
100
AcDbArc
 50
180.0
 51
270.0
  0
LINE
  5
29D5
330
2
100
AcDbEntity
  8
CENTER
100
AcDbLine
 10
165.2724681355207
 20
116.8078544428705
 30
0.0
 11
149.2724681355207
 21
116.8078544428705
 31
0.0
  0
CIRCLE
  5
29D6
330
2
100
AcDbEntity
  8
0
100
AcDbCircle
 10
157.2724681355207
 20
116.8078544428668
 30
0.0
 40
4.0
  0
ARC
  5
29D7
330
2
100
AcDbEntity
  8
0
100
AcDbCircle
 10
192.2724681355225
 20
102.3078544428668
 30
0.0
 40
8.0
100
AcDbArc
 50
270.0
 51
280.2338896031037
  0
LINE
  5
29D8
330
2
100
AcDbEntity
  8
0
100
AcDbLine
 10
196.6658664177216
 20
112.7012527250686
 30
0.0
 11
195.2516528553492
 21
111.2870391626953
 31
0.0
  0
ARC
  5
29D9
330
2
100
AcDbEntity
  8
0
100
AcDbCircle
 10
170.3002673799078
 20
103.3078544428668
 30
0.0
 40
8.0
100
AcDbArc
 50
3.184738536778422
 51
90.0
  0
ARC
  5
29DA
330
2
100
AcDbEntity
  8
0
100
AcDbCircle
 10
188.2724681355189
 20
104.3078544428686
 30
0.0
 40
10.0
100
AcDbArc
 50
180.0
 51
270.0
  0
LINE
  5
29DB
330
2
100
AcDbEntity
  8
0
100
AcDbLine
 10
188.2724681355189
 20
94.30785444286687
 30
0.0
 11
192.2724681355225
 21
94.30785444286687
 31
0.0
  0
ARC
  5
29DC
330
2
100
AcDbEntity
  8
0
100
AcDbCircle
 10
131.7724681355352
 20
185.8078544428705
 30
0.0
 40
3.0
100
AcDbArc
 50
270.0
 51
0.0
  0
LINE
  5
29DD
330
2
100
AcDbEntity
  8
CENTER
100
AcDbLine
 10
153.5224681355207
 20
189.3078544428686
 30
0.0
 11
132.0224681355207
 21
189.3078544428668
 31
0.0
  0
ARC
  5
29DE
330
2
100
AcDbEntity
  8
0
100
AcDbCircle
 10
131.7724681355371
 20
148.8078544428705
 30
0.0
 40
3.0
100
AcDbArc
 50
0.0
 51
90.0
  0
ARC
  5
29DF
330
2
100
AcDbEntity
  8
0
100
AcDbCircle
 10
131.7724681355371
 20
159.8078544428705
 30
0.0
 40
3.0
100
AcDbArc
 50
270.0
 51
0.0
  0
ARC
  5
29E0
330
2
100
AcDbEntity
  8
0
100
AcDbCircle
 10
129.7724681355352
 20
182.8078544428705
 30
0.0
 40
5.0
100
AcDbArc
 50
270.0
 51
0.0
  0
ARC
  5
29E1
330
2
100
AcDbEntity
  8
0
100
AcDbCircle
 10
121.2944560038263
 20
182.8078544428705
 30
0.0
 40
5.0
100
AcDbArc
 50
183.5833216984718
 51
270.0
  0
LINE
  5
29E2
330
2
100
AcDbEntity
  8
0
100
AcDbLine
 10
131.7724681355371
 20
156.8078544428705
 30
0.0
 11
119.3100962924586
 21
156.8078544428705
 31
0.0
  0
LINE
  5
29E3
330
2
100
AcDbEntity
  8
0
100
AcDbLine
 10
131.7724681355371
 20
151.8078544428705
 30
0.0
 11
119.3100962924431
 21
151.8078544428705
 31
0.0
  0
LINE
  5
29E4
330
2
100
AcDbEntity
  8
0
100
AcDbLine
 10
129.7724681355352
 20
177.8078544428705
 30
0.0
 11
121.2944560038263
 21
177.8078544428705
 31
0.0
  0
ARC
  5
29E5
330
2
100
AcDbEntity
  8
0
100
AcDbCircle
 10
119.3100962924431
 20
148.8078544428705
 30
0.0
 40
3.0
100
AcDbArc
 50
90.0
 51
179.9999999998957
  0
ARC
  5
29E6
330
2
100
AcDbEntity
  8
0
100
AcDbCircle
 10
119.3100962924586
 20
159.8078544428705
 30
0.0
 40
3.0
100
AcDbArc
 50
179.9999999998957
 51
270.0
  0
LINE
  5
29E7
330
2
100
AcDbEntity
  8
0
100
AcDbLine
 10
92.86246813553816
 20
195.3078544428686
 30
0.0
 11
102.8624681355381
 21
195.3078544428686
 31
0.0
  0
LINE
  5
29E8
330
2
100
AcDbEntity
  8
0
100
AcDbLine
 10
92.86246813553816
 20
195.8078544428687
 30
0.0
 11
102.8624681355381
 21
195.8078544428687
 31
0.0
  0
ARC
  5
29E9
330
2
100
AcDbEntity
  8
0
100
AcDbCircle
 10
118.1834934648954
 20
185.8078544428705
 30
0.0
 40
3.0
100
AcDbArc
 50
215.6853347127178
 51
270.0
  0
ARC
  5
29EA
330
2
100
AcDbEntity
  8
0
100
AcDbCircle
 10
113.3100962924904
 20
182.3078544428705
 30
0.0
 40
3.0
100
AcDbArc
 50
359.9999999998958
 51
90.0
  0
ARC
  5
29EB
330
2
100
AcDbEntity
  8
0
100
AcDbCircle
 10
109.8624681356018
 20
190.3078544428705
 30
0.0
 40
5.0
100
AcDbArc
 50
180.0
 51
270.0
  0
ARC
  5
29EC
330
2
100
AcDbEntity
  8
0
100
AcDbCircle
 10
102.8624681355381
 20
193.3078544428686
 30
0.0
 40
2.0
100
AcDbArc
 50
0.0
 51
90.0
  0
ARC
  5
29ED
330
2
100
AcDbEntity
  8
0
100
AcDbCircle
 10
102.8624681355381
 20
193.8078544428686
 30
0.0
 40
2.0
100
AcDbArc
 50
0.0
 51
90.0
  0
LINE
  5
29EE
330
2
100
AcDbEntity
  8
0
100
AcDbLine
 10
113.3100962924904
 20
185.3078544428704
 30
0.0
 11
109.8624681356018
 21
185.3078544428704
 31
0.0
  0
LINE
  5
29EF
330
2
100
AcDbEntity
  8
0
100
AcDbLine
 10
131.7724681355352
 20
182.8078544428705
 30
0.0
 11
118.1834934648954
 21
182.8078544428705
 31
0.0
  0
LINE
  5
29F0
330
2
100
AcDbEntity
  8
0
100
AcDbLine
 10
142.7724681355189
 20
197.3078544428668
 30
0.0
 11
170.300267379896
 21
197.3078544428668
 31
0.0
  0
LINE
  5
29F1
330
2
100
AcDbEntity
  8
CENTER
100
AcDbLine
 10
157.2724681355207
 20
199.8078544428686
 30
0.0
 11
157.2724681355207
 21
183.8078544428686
 31
0.0
  0
CIRCLE
  5
29F2
330
2
100
AcDbEntity
  8
HOJO
100
AcDbCircle
 10
157.2724681355207
 20
191.8078544428686
 30
0.0
 40
2.5
  0
CIRCLE
  5
29F3
330
2
100
AcDbEntity
  8
0
100
AcDbCircle
 10
157.2724681355207
 20
191.8078544428668
 30
0.0
 40
3.5
  0
CIRCLE
  5
29F4
330
2
100
AcDbEntity
  8
0
100
AcDbCircle
 10
157.2724681355207
 20
191.8078544428668
 30
0.0
 40
2.0
  0
LINE
  5
29F5
330
2
100
AcDbEntity
  8
0
100
AcDbLine
 10
151.2724681355261
 20
189.3078544428632
 30
0.0
 11
151.2724681355298
 21
195.3078544428686
 31
0.0
  0
ARC
  5
29F6
330
2
100
AcDbEntity
  8
0
100
AcDbCircle
 10
153.2724681355298
 20
195.3078544428668
 30
0.0
 40
2.0
100
AcDbArc
 50
90.0
 51
179.9999999998957
  0
LINE
  5
29F7
330
2
100
AcDbEntity
  8
0
100
AcDbLine
 10
142.7724681355207
 20
185.8437528277305
 30
0.0
 11
145.7724681355207
 21
187.5758036352987
 31
0.0
  0
LINE
  5
29F8
330
2
100
AcDbEntity
  8
0
100
AcDbLine
 10
142.7724681355207
 20
192.771956058005
 30
0.0
 11
145.7724681355207
 21
191.0399052504368
 31
0.0
  0
LINE
  5
29F9
330
2
100
AcDbEntity
  8
CENTER
100
AcDbLine
 10
142.7724681355189
 20
200.0578544428668
 30
0.0
 11
142.7724681355207
 21
178.5578544428668
 31
0.0
  0
LINE
  5
29FA
330
2
100
AcDbEntity
  8
0
100
AcDbLine
 10
142.7724681355207
 20
180.8078544428668
 30
0.0
 11
136.7724681355207
 21
180.8078544428705
 31
0.0
  0
LINE
  5
29FB
330
2
100
AcDbEntity
  8
0
100
AcDbLine
 10
139.7724681355207
 20
191.0399052504368
 30
0.0
 11
139.7724681355207
 21
187.5758036352987
 31
0.0
  0
LINE
  5
29FC
330
2
100
AcDbEntity
  8
0
100
AcDbLine
 10
139.7724681355207
 20
187.5758036352987
 30
0.0
 11
142.7724681355207
 21
185.8437528277287
 31
0.0
  0
LINE
  5
29FD
330
2
100
AcDbEntity
  8
0
100
AcDbLine
 10
139.7724681355207
 20
191.0399052504368
 30
0.0
 11
142.7724681355207
 21
192.771956058005
 31
0.0
  0
ARC
  5
29FE
330
2
100
AcDbEntity
  8
0
100
AcDbCircle
 10
142.7724681355189
 20
189.3078544428668
 30
0.0
 40
8.0
100
AcDbArc
 50
90.0
 51
180.0
  0
ARC
  5
29FF
330
2
100
AcDbEntity
  8
0
100
AcDbCircle
 10
136.7724681355189
 20
178.8078544428705
 30
0.0
 40
2.0
100
AcDbArc
 50
89.99999999994789
 51
180.0
  0
LINE
  5
2A00
330
2
100
AcDbEntity
  8
0
100
AcDbLine
 10
145.7724681355207
 20
187.5758036352987
 30
0.0
 11
145.7724681355207
 21
191.0399052504368
 31
0.0
  0
ARC
  5
2A01
330
2
100
AcDbEntity
  8
0
100
AcDbCircle
 10
142.7724681355261
 20
189.3078544428668
 30
0.0
 40
8.5
100
AcDbArc
 50
269.9999999999478
 51
359.9999999998958
  0
CIRCLE
  5
2A02
330
2
100
AcDbEntity
  8
0
100
AcDbCircle
 10
142.7724681355207
 20
189.3078544428668
 30
0.0
 40
5.63397459621558
  0
CIRCLE
  5
2A03
330
2
100
AcDbEntity
  8
0
100
AcDbCircle
 10
142.7724681355207
 20
189.3078544428668
 30
0.0
 40
6.5
  0
LINE
  5
2A04
330
2
100
AcDbEntity
  8
CENTER
100
AcDbLine
 10
165.2724681355207
 20
191.8078544428686
 30
0.0
 11
149.2724681355207
 21
191.8078544428668
 31
0.0
  0
CIRCLE
  5
2A05
330
2
100
AcDbEntity
  8
0
100
AcDbCircle
 10
157.2724681355207
 20
191.8078544428668
 30
0.0
 40
4.0
  0
LINE
  5
2A06
330
2
100
AcDbEntity
  8
0
100
AcDbLine
 10
196.6658664177225
 20
195.914456160665
 30
0.0
 11
195.2516528553492
 21
197.3286697230383
 31
0.0
  0
ARC
  5
2A07
330
2
100
AcDbEntity
  8
0
100
AcDbCircle
 10
192.2724681355234
 20
206.3078544428668
 30
0.0
 40
8.0
100
AcDbArc
 50
79.76611039689631
 51
90.0
  0
ARC
  5
2A08
330
2
100
AcDbEntity
  8
0
100
AcDbCircle
 10
188.272468135508
 20
204.3078544428668
 30
0.0
 40
10.0
100
AcDbArc
 50
90.0
 51
180.0
  0
ARC
  5
2A09
330
2
100
AcDbEntity
  8
0
100
AcDbCircle
 10
170.300267379896
 20
205.3078544428668
 30
0.0
 40
8.0
100
AcDbArc
 50
270.0
 51
356.8152614632215
  0
LINE
  5
2A0A
330
2
100
AcDbEntity
  8
0
100
AcDbLine
 10
188.2724681355189
 20
214.3078544428668
 30
0.0
 11
192.2724681355225
 21
214.3078544428668
 31
0.0
  0
LINE
  5
2A0B
330
2
100
AcDbEntity
  8
0
100
AcDbLine
 10
286.2724681355207
 20
185.3078544428668
 30
0.0
 11
286.2724681355198
 21
123.3078544428686
 31
0.0
  0
LINE
  5
2A0C
330
2
100
AcDbEntity
  8
0
100
AcDbLine
 10
284.2724681355207
 20
185.3078544428668
 30
0.0
 11
284.2724681355198
 21
123.3078544428686
 31
0.0
  0
ARC
  5
2A0D
330
2
100
AcDbEntity
  8
0
100
AcDbCircle
 10
48.27246813552074
 20
154.3078544428668
 30
0.0
 40
250.0
100
AcDbArc
 50
354.7203967175509
 51
5.279603282449114
  0
CIRCLE
  5
2A0E
330
2
100
AcDbEntity
  8
0
100
AcDbCircle
 10
238.2724681355198
 20
154.3078544428668
 30
0.0
 40
32.5
  0
CIRCLE
  5
2A0F
330
2
100
AcDbEntity
  8
0
100
AcDbCircle
 10
238.2724681355207
 20
154.3078544428668
 30
0.0
 40
33.07735
  0
ARC
  5
2A10
330
2
100
AcDbEntity
  8
0
100
AcDbCircle
 10
269.2724681355198
 20
123.3078544428686
 30
0.0
 40
17.0
100
AcDbArc
 50
270.0
 51
0.0
  0
ARC
  5
2A11
330
2
100
AcDbEntity
  8
0
100
AcDbCircle
 10
269.2724681355198
 20
123.3078544428686
 30
0.0
 40
15.0
100
AcDbArc
 50
270.0
 51
0.0
  0
ARC
  5
2A12
330
2
100
AcDbEntity
  8
0
100
AcDbCircle
 10
268.6377856521299
 20
15.70787347494899
 30
0.0
 40
80.0
100
AcDbArc
 50
79.76611039689631
 51
95.27960328239691
  0
LINE
  5
2A13
330
2
100
AcDbEntity
  8
0
100
AcDbLine
 10
269.2724681355207
 20
106.3078544428686
 30
0.0
 11
207.2724681355207
 21
106.3078544428668
 31
0.0
  0
LINE
  5
2A14
330
2
100
AcDbEntity
  8
0
100
AcDbLine
 10
269.2724681355207
 20
108.3078544428687
 30
0.0
 11
207.2724681355207
 21
108.3078544428668
 31
0.0
  0
ARC
  5
2A15
330
2
100
AcDbEntity
  8
0
100
AcDbCircle
 10
238.2724681355198
 20
344.3078544428668
 30
0.0
 40
250.0
100
AcDbArc
 50
264.7203967176031
 51
275.2796032823969
  0
ARC
  5
2A16
330
2
100
AcDbEntity
  8
0
100
AcDbCircle
 10
376.8724491034368
 20
123.9425369262559
 30
0.0
 40
80.0
100
AcDbArc
 50
174.7203967175508
 51
190.2338896031567
  0
ARC
  5
2A17
330
2
100
AcDbEntity
  8
0
100
AcDbCircle
 10
295.3828327346768
 20
114.8078544428668
 30
0.0
 40
2.0
100
AcDbArc
 50
270.0
 51
6.395943096303732
  0
ARC
  5
2A18
330
2
100
AcDbEntity
  8
0
100
AcDbCircle
 10
290.2724681355189
 20
108.3078544428705
 30
0.0
 40
8.0
100
AcDbArc
 50
0.0
 51
10.23388960315672
  0
LINE
  5
2A19
330
2
100
AcDbEntity
  8
0
100
AcDbLine
 10
298.2724681355189
 20
104.3078544428668
 30
0.0
 11
298.2724681355189
 21
108.3078544428705
 31
0.0
  0
LINE
  5
2A1A
330
2
100
AcDbEntity
  8
CENTER
100
AcDbLine
 10
291.2724681355152
 20
111.6486970447136
 30
0.0
 11
291.2724681355152
 21
125.9670118410273
 31
0.0
  0
LINE
  5
2A1B
330
2
100
AcDbEntity
  8
0
100
AcDbLine
 10
291.2724681355171
 20
102.5758036353005
 30
0.0
 11
291.2724681355171
 21
106.0399052504386
 31
0.0
  0
CIRCLE
  5
2A1C
330
2
100
AcDbEntity
  8
0
100
AcDbCircle
 10
291.2724681355171
 20
118.8078544428686
 30
0.0
 40
2.0
  0
ARC
  5
2A1D
330
2
100
AcDbEntity
  8
0
100
AcDbCircle
 10
288.2724681355171
 20
104.3078544428668
 30
0.0
 40
8.5
100
AcDbArc
 50
90.0
 51
180.0
  0
ARC
  5
2A1E
330
2
100
AcDbEntity
  8
0
100
AcDbCircle
 10
284.272468135517
 20
102.3078544428668
 30
0.0
 40
8.0
100
AcDbArc
 50
259.7661103968963
 51
270.0
  0
LINE
  5
2A1F
330
2
100
AcDbEntity
  8
0
100
AcDbLine
 10
279.7724681355171
 20
104.3078544428686
 30
0.0
 11
279.7724681355171
 21
97.19748984370983
 31
0.0
  0
ARC
  5
2A20
330
2
100
AcDbEntity
  8
0
100
AcDbCircle
 10
277.7724681355171
 20
97.19748984370983
 30
0.0
 40
2.0
100
AcDbArc
 50
263.6040569036959
 51
0.0
  0
LINE
  5
2A21
330
2
100
AcDbEntity
  8
0
100
AcDbLine
 10
281.2932834156913
 20
111.2870391626971
 30
0.0
 11
279.879069853318
 21
112.7012527250704
 31
0.0
  0
LINE
  5
2A22
330
2
100
AcDbEntity
  8
0
100
AcDbLine
 10
288.2724681355207
 20
94.30785444286687
 30
0.0
 11
284.272468135517
 21
94.30785444286687
 31
0.0
  0
LINE
  5
2A23
330
2
100
AcDbEntity
  8
CENTER
100
AcDbLine
 10
288.2724681355171
 20
115.0578544428686
 30
0.0
 11
288.2724681355189
 21
93.55785444286869
 31
0.0
  0
LINE
  5
2A24
330
2
100
AcDbEntity
  8
0
100
AcDbLine
 10
285.2724681355171
 20
106.0399052504386
 30
0.0
 11
285.2724681355171
 21
102.5758036353005
 31
0.0
  0
LINE
  5
2A25
330
2
100
AcDbEntity
  8
0
100
AcDbLine
 10
285.2724681355171
 20
102.5758036353005
 30
0.0
 11
288.2724681355171
 21
100.8437528277323
 31
0.0
  0
LINE
  5
2A26
330
2
100
AcDbEntity
  8
0
100
AcDbLine
 10
285.2724681355171
 20
106.0399052504386
 30
0.0
 11
288.2724681355171
 21
107.7719560580086
 31
0.0
  0
CIRCLE
  5
2A27
330
2
100
AcDbEntity
  8
0
100
AcDbCircle
 10
288.2724681355171
 20
104.3078544428705
 30
0.0
 40
5.63397459621558
  0
LINE
  5
2A28
330
2
100
AcDbEntity
  8
0
100
AcDbLine
 10
288.2724681355171
 20
100.8437528277323
 30
0.0
 11
291.2724681355171
 21
102.5758036353005
 31
0.0
  0
LINE
  5
2A29
330
2
100
AcDbEntity
  8
0
100
AcDbLine
 10
288.2724681355171
 20
107.7719560580086
 30
0.0
 11
291.2724681355171
 21
106.0399052504386
 31
0.0
  0
CIRCLE
  5
2A2A
330
2
100
AcDbEntity
  8
HOJO
100
AcDbCircle
 10
291.2724681355171
 20
118.8078544428686
 30
0.0
 40
2.5
  0
CIRCLE
  5
2A2B
330
2
100
AcDbEntity
  8
0
100
AcDbCircle
 10
291.2724681355171
 20
118.8078544428686
 30
0.0
 40
4.0
  0
LINE
  5
2A2C
330
2
100
AcDbEntity
  8
CENTER
100
AcDbLine
 10
299.022468135517
 20
104.3078544428686
 30
0.0
 11
277.5224681355171
 21
104.3078544428705
 31
0.0
  0
CIRCLE
  5
2A2D
330
2
100
AcDbEntity
  8
0
100
AcDbCircle
 10
288.2724681355171
 20
104.3078544428705
 30
0.0
 40
6.5
  0
LINE
  5
2A2E
330
2
100
AcDbEntity
  8
CENTER
100
AcDbLine
 10
284.1133107373584
 20
118.8078544428705
 30
0.0
 11
298.4316255336721
 21
118.8078544428705
 31
0.0
  0
ARC
  5
2A2F
330
2
100
AcDbEntity
  8
0
100
AcDbCircle
 10
288.2724681355207
 20
104.3078544428668
 30
0.0
 40
10.0
100
AcDbArc
 50
270.0
 51
0.0
  0
LINE
  5
2A30
330
2
100
AcDbEntity
  8
0
100
AcDbLine
 10
288.2724681355171
 20
112.8078544428668
 30
0.0
 11
295.3828327346768
 21
112.8078544428668
 31
0.0
  0
CIRCLE
  5
2A31
330
2
100
AcDbEntity
  8
0
100
AcDbCircle
 10
291.2724681355171
 20
118.8078544428686
 30
0.0
 40
3.5
  0
ARC
  5
2A32
330
2
100
AcDbEntity
  8
0
100
AcDbCircle
 10
269.2724681355207
 20
185.3078544428668
 30
0.0
 40
15.0
100
AcDbArc
 50
0.0
 51
90.0
  0
ARC
  5
2A33
330
2
100
AcDbEntity
  8
0
100
AcDbCircle
 10
269.2724681355207
 20
185.3078544428668
 30
0.0
 40
17.0
100
AcDbArc
 50
0.0
 51
90.0
  0
ARC
  5
2A34
330
2
100
AcDbEntity
  8
0
100
AcDbCircle
 10
268.6377856521299
 20
292.9078354107847
 30
0.0
 40
80.0
100
AcDbArc
 50
264.7203967176031
 51
280.2338896031037
  0
ARC
  5
2A35
330
2
100
AcDbEntity
  8
0
100
AcDbCircle
 10
238.2724681355198
 20
-35.69214555713313
 30
0.0
 40
250.0
100
AcDbArc
 50
84.72039671760308
 51
95.27960328239691
  0
LINE
  5
2A36
330
2
100
AcDbEntity
  8
0
100
AcDbLine
 10
269.2724681355207
 20
202.3078544428668
 30
0.0
 11
207.2724681355207
 21
202.3078544428668
 31
0.0
  0
LINE
  5
2A37
330
2
100
AcDbEntity
  8
0
100
AcDbLine
 10
269.2724681355207
 20
200.3078544428668
 30
0.0
 11
207.2724681355207
 21
200.3078544428668
 31
0.0
  0
ARC
  5
2A38
330
2
100
AcDbEntity
  8
0
100
AcDbCircle
 10
376.8724491034368
 20
184.673171959476
 30
0.0
 40
80.0
100
AcDbArc
 50
169.7661103968432
 51
185.2796032824491
  0
ARC
  5
2A39
330
2
100
AcDbEntity
  8
0
100
AcDbCircle
 10
295.3828327346777
 20
193.8078544428686
 30
0.0
 40
2.0
100
AcDbArc
 50
353.6040569036963
 51
90.0
  0
LINE
  5
2A3A
330
2
100
AcDbEntity
  8
0
100
AcDbLine
 10
298.2724681355189
 20
204.3078544428668
 30
0.0
 11
298.2724681355189
 21
200.3078544428632
 31
0.0
  0
ARC
  5
2A3B
330
2
100
AcDbEntity
  8
0
100
AcDbCircle
 10
290.2724681355189
 20
200.3078544428632
 30
0.0
 40
8.0
100
AcDbArc
 50
349.7661103968432
 51
0.0
  0
CIRCLE
  5
2A3C
330
2
100
AcDbEntity
  8
0
100
AcDbCircle
 10
288.2724681355171
 20
204.3078544428668
 30
0.0
 40
5.63397459621558
  0
LINE
  5
2A3D
330
2
100
AcDbEntity
  8
0
100
AcDbLine
 10
279.7724681355171
 20
204.3078544428668
 30
0.0
 11
279.7724681355171
 21
211.4182190420239
 31
0.0
  0
LINE
  5
2A3E
330
2
100
AcDbEntity
  8
CENTER
100
AcDbLine
 10
288.2724681355171
 20
193.5578544428686
 30
0.0
 11
288.2724681355189
 21
215.0578544428686
 31
0.0
  0
LINE
  5
2A3F
330
2
100
AcDbEntity
  8
CENTER
100
AcDbLine
 10
291.2724681355143
 20
196.9670118410236
 30
0.0
 11
291.2724681355143
 21
182.64869704471
 31
0.0
  0
CIRCLE
  5
2A40
330
2
100
AcDbEntity
  8
0
100
AcDbCircle
 10
291.2724681355171
 20
189.8078544428668
 30
0.0
 40
2.0
  0
LINE
  5
2A41
330
2
100
AcDbEntity
  8
0
100
AcDbLine
 10
291.2724681355171
 20
202.5758036352987
 30
0.0
 11
291.2724681355171
 21
206.0399052504368
 31
0.0
  0
ARC
  5
2A42
330
2
100
AcDbEntity
  8
0
100
AcDbCircle
 10
288.2724681355171
 20
204.3078544428686
 30
0.0
 40
8.5
100
AcDbArc
 50
180.0
 51
270.0
  0
LINE
  5
2A43
330
2
100
AcDbEntity
  8
0
100
AcDbLine
 10
281.2932834156913
 20
197.3286697230383
 30
0.0
 11
279.8790698533189
 21
195.914456160665
 31
0.0
  0
LINE
  5
2A44
330
2
100
AcDbEntity
  8
0
100
AcDbLine
 10
285.2724681355171
 20
206.0399052504368
 30
0.0
 11
288.2724681355171
 21
207.771956058005
 31
0.0
  0
LINE
  5
2A45
330
2
100
AcDbEntity
  8
0
100
AcDbLine
 10
285.2724681355171
 20
202.5758036352987
 30
0.0
 11
288.2724681355171
 21
200.8437528277305
 31
0.0
  0
LINE
  5
2A46
330
2
100
AcDbEntity
  8
0
100
AcDbLine
 10
285.2724681355171
 20
206.0399052504368
 30
0.0
 11
285.2724681355171
 21
202.5758036352987
 31
0.0
  0
LINE
  5
2A47
330
2
100
AcDbEntity
  8
0
100
AcDbLine
 10
288.2724681355171
 20
207.771956058005
 30
0.0
 11
291.2724681355171
 21
206.0399052504368
 31
0.0
  0
CIRCLE
  5
2A48
330
2
100
AcDbEntity
  8
HOJO
100
AcDbCircle
 10
291.2724681355171
 20
189.8078544428668
 30
0.0
 40
2.5
  0
LINE
  5
2A49
330
2
100
AcDbEntity
  8
0
100
AcDbLine
 10
288.2724681355171
 20
200.8437528277305
 30
0.0
 11
291.2724681355171
 21
202.5758036352987
 31
0.0
  0
ARC
  5
2A4A
330
2
100
AcDbEntity
  8
0
100
AcDbCircle
 10
284.272468135517
 20
206.3078544428668
 30
0.0
 40
8.0
100
AcDbArc
 50
90.0
 51
100.2338896031036
  0
ARC
  5
2A4B
330
2
100
AcDbEntity
  8
0
100
AcDbCircle
 10
277.7724681355171
 20
211.4182190420239
 30
0.0
 40
2.0
100
AcDbArc
 50
0.0
 51
96.39594309630409
  0
LINE
  5
2A4C
330
2
100
AcDbEntity
  8
0
100
AcDbLine
 10
288.2724681355207
 20
214.3078544428668
 30
0.0
 11
284.272468135517
 21
214.3078544428668
 31
0.0
  0
CIRCLE
  5
2A4D
330
2
100
AcDbEntity
  8
0
100
AcDbCircle
 10
288.2724681355171
 20
204.3078544428668
 30
0.0
 40
6.5
  0
ARC
  5
2A4E
330
2
100
AcDbEntity
  8
0
100
AcDbCircle
 10
288.2724681355189
 20
204.3078544428686
 30
0.0
 40
10.0
100
AcDbArc
 50
0.0
 51
90.0
  0
LINE
  5
2A4F
330
2
100
AcDbEntity
  8
CENTER
100
AcDbLine
 10
299.022468135517
 20
204.3078544428686
 30
0.0
 11
277.5224681355171
 21
204.3078544428668
 31
0.0
  0
LINE
  5
2A50
330
2
100
AcDbEntity
  8
CENTER
100
AcDbLine
 10
284.1133107373575
 20
189.8078544428668
 30
0.0
 11
298.4316255336711
 21
189.8078544428668
 31
0.0
  0
CIRCLE
  5
2A51
330
2
100
AcDbEntity
  8
0
100
AcDbCircle
 10
291.2724681355171
 20
189.8078544428668
 30
0.0
 40
4.0
  0
CIRCLE
  5
2A52
330
2
100
AcDbEntity
  8
0
100
AcDbCircle
 10
291.2724681355171
 20
189.8078544428668
 30
0.0
 40
3.5
  0
LINE
  5
2A53
330
2
100
AcDbEntity
  8
0
100
AcDbLine
 10
288.2724681355171
 20
195.8078544428687
 30
0.0
 11
295.3828327346777
 21
195.8078544428687
 31
0.0
  0
LINE
  5
2A54
330
2
100
AcDbEntity
  8
CENTER
100
AcDbLine
 10
388.6431561668282
 20
154.3078544428686
 30
0.0
 11
588.1431561668285
 21
154.3078544428685
 31
0.0
  0
LINE
  5
2A55
330
2
100
AcDbEntity
  8
0
100
AcDbLine
 10
506.1431561668286
 20
204.3078544428686
 30
0.0
 11
430.6431561668364
 21
204.3078544428686
 31
0.0
  0
LINE
  5
2A56
330
2
100
AcDbEntity
  8
0
100
AcDbLine
 10
506.1431561668286
 20
200.307854442865
 30
0.0
 11
430.6431561668364
 21
200.307854442865
 31
0.0
  0
LINE
  5
2A57
330
2
100
AcDbEntity
  8
0
100
AcDbLine
 10
506.1431561668286
 20
177.3118828645389
 30
0.0
 11
430.6431561668346
 21
177.3118828645389
 31
0.0
  0
LINE
  5
2A58
330
2
100
AcDbEntity
  8
0
100
AcDbLine
 10
430.6431561668364
 20
214.3078544428687
 30
0.0
 11
507.1431561668268
 21
213.6402490568749
 31
0.0
  0
LINE
  5
2A59
330
2
100
AcDbEntity
  8
0
100
AcDbLine
 10
430.6431561668309
 20
94.30785444286687
 30
0.0
 11
507.1431561668287
 21
94.97545982886061
 31
0.0
  0
LINE
  5
2A5A
330
2
100
AcDbEntity
  8
0
100
AcDbLine
 10
506.1431561668286
 20
104.3078544428686
 30
0.0
 11
430.6431561668364
 21
104.3078544428686
 31
0.0
  0
LINE
  5
2A5B
330
2
100
AcDbEntity
  8
0
100
AcDbLine
 10
506.1431561668286
 20
108.3078544428723
 30
0.0
 11
430.6431561668364
 21
108.3078544428723
 31
0.0
  0
LINE
  5
2A5C
330
2
100
AcDbEntity
  8
0
100
AcDbLine
 10
506.1431561668286
 20
131.3038260211984
 30
0.0
 11
430.6431561668346
 21
131.3038260211984
 31
0.0
  0
LINE
  5
2A5E
330
2
100
AcDbEntity
  8
0
100
AcDbLine
 10
414.1431561668282
 20
197.8078544428687
 30
0.0
 11
414.1431561668282
 21
110.8078544428686
 31
0.0
  0
LINE
  5
2A5F
330
2
100
AcDbEntity
  8
0
100
AcDbLine
 10
430.6431561668309
 20
214.3078544428687
 30
0.0
 11
430.6431561668382
 21
94.30785444286868
 31
0.0
  0
LINE
  5
2A60
330
2
100
AcDbEntity
  8
0
100
AcDbLine
 10
412.1431561668282
 20
110.8078544428686
 30
0.0
 11
412.1431561668282
 21
197.8078544428687
 31
0.0
  0
LINE
  5
2A61
330
2
100
AcDbEntity
  8
0
100
AcDbLine
 10
403.6431561668282
 20
191.2305041736787
 30
0.0
 11
403.6431561668282
 21
117.3852047120586
 31
0.0
  0
LINE
  5
2A62
330
2
100
AcDbEntity
  8
0
100
AcDbLine
 10
411.6431561668282
 20
114.8078544428686
 30
0.0
 11
411.6431561668282
 21
193.8078544428686
 31
0.0
  0
LINE
  5
2A63
330
2
100
AcDbEntity
  8
0
100
AcDbLine
 10
406.1431561668282
 20
117.0078544428694
 30
0.0
 11
406.1431561668282
 21
191.6078544428697
 31
0.0
  0
LINE
  5
2A64
330
2
100
AcDbEntity
  8
0
100
AcDbLine
 10
408.1431561668282
 20
117.0078544428694
 30
0.0
 11
408.1431561668282
 21
191.6078544428697
 31
0.0
  0
LINE
  5
2A65
330
2
100
AcDbEntity
  8
0
100
AcDbLine
 10
404.6431561668282
 20
116.8078544428686
 30
0.0
 11
404.6431561668282
 21
191.8078544428686
 31
0.0
  0
LINE
  5
2A66
330
2
100
AcDbEntity
  8
0
100
AcDbLine
 10
408.343156166828
 20
116.8078544428686
 30
0.0
 11
408.343156166828
 21
191.8078544428686
 31
0.0
  0
LINE
  5
2A67
330
2
100
AcDbEntity
  8
0
100
AcDbLine
 10
430.6431561668309
 20
94.30785444286687
 30
0.0
 11
430.6431561668364
 21
214.3078544428687
 31
0.0
  0
LINE
  5
2A68
330
2
100
AcDbEntity
  8
CENTER
  6
CENS
100
AcDbLine
 10
437.4030384586822
 20
104.3078544428686
 30
0.0
 11
407.6431561666872
 21
104.3078544428686
 31
0.0
  0
LINE
  5
2A69
330
2
100
AcDbEntity
  8
0
100
AcDbLine
 10
406.343156166828
 20
117.5078544428675
 30
0.0
 11
407.9431561668275
 21
117.5078544428675
 31
0.0
  0
LINE
  5
2A6A
330
2
100
AcDbEntity
  8
0
100
AcDbLine
 10
420.6431561666873
 20
112.312198837572
 30
0.0
 11
420.6431561666873
 21
95.38643433137314
 31
0.0
  0
ARC
  5
2A6B
330
2
100
AcDbEntity
  8
0
100
AcDbCircle
 10
420.1431561666872
 20
112.312198837572
 30
0.0
 40
0.5
100
AcDbArc
 50
0.0
 51
89.50000000003447
  0
ARC
  5
2A6C
330
2
100
AcDbEntity
  8
0
100
AcDbCircle
 10
421.6431561666873
 20
95.38643433137314
 30
0.0
 40
1.0
100
AcDbArc
 50
180.0
 51
269.4999999999823
  0
LINE
  5
2A6D
330
2
100
AcDbEntity
  8
0
100
AcDbLine
 10
418.6431561666872
 20
110.8078544428686
 30
0.0
 11
418.6431561666881
 21
97.8078544428687
 31
0.0
  0
LINE
  5
2A6E
330
2
100
AcDbEntity
  8
0
100
AcDbLine
 10
420.6431561666873
 20
97.8078544428687
 30
0.0
 11
418.6431561666872
 21
97.8078544428687
 31
0.0
  0
LINE
  5
2A6F
330
2
100
AcDbEntity
  8
0
100
AcDbLine
 10
420.6431561666873
 20
110.8078544428686
 30
0.0
 11
418.6431561666872
 21
110.8078544428686
 31
0.0
  0
LINE
  5
2A70
330
2
100
AcDbEntity
  8
HIDS
100
AcDbLine
 10
414.1431561668273
 20
110.8078544428686
 30
0.0
 11
414.1431561668282
 21
97.8078544428687
 31
0.0
  0
LINE
  5
2A71
330
2
100
AcDbEntity
  8
0
100
AcDbLine
 10
414.1431561668282
 20
97.8078544428687
 30
0.0
 11
414.1431561668282
 21
96.43447018260724
 31
0.0
  0
ARC
  5
2A72
330
2
100
AcDbEntity
  8
0
100
AcDbCircle
 10
416.1431561668282
 20
96.43447018260724
 30
0.0
 40
2.0
100
AcDbArc
 50
180.0
 51
269.5000000000344
  0
LINE
  5
2A73
330
2
100
AcDbEntity
  8
HIDS
100
AcDbLine
 10
412.1431561668282
 20
109.1362815676153
 30
0.0
 11
412.1431561668282
 21
110.8078544428686
 31
0.0
  0
LINE
  5
2A74
330
2
100
AcDbEntity
  8
HIDS
100
AcDbLine
 10
413.5573697292016
 20
106.8936408804953
 30
0.0
 11
412.7289426044549
 21
107.722068005242
 31
0.0
  0
LINE
  5
2A75
330
2
100
AcDbEntity
  8
0
100
AcDbLine
 10
408.343156166828
 20
116.8078544428686
 30
0.0
 11
411.6431561668282
 21
116.8078544428686
 31
0.0
  0
LINE
  5
2A76
330
2
100
AcDbEntity
  8
0
100
AcDbLine
 10
412.1431561668282
 20
114.3078544428686
 30
0.0
 11
411.6431561668282
 21
114.8078544428686
 31
0.0
  0
LINE
  5
2A77
330
2
100
AcDbEntity
  8
0
100
AcDbLine
 10
404.6431561668282
 20
116.8078544428686
 30
0.0
 11
405.9431561668284
 21
116.8078544428686
 31
0.0
  0
LINE
  5
2A78
330
2
100
AcDbEntity
  8
0
100
AcDbLine
 10
408.1431561668282
 20
117.0078544428694
 30
0.0
 11
408.343156166828
 21
116.8078544428686
 31
0.0
  0
LINE
  5
2A79
330
2
100
AcDbEntity
  8
0
100
AcDbLine
 10
404.6431561668282
 20
116.8078544428686
 30
0.0
 11
403.6431561668282
 21
117.3852047120586
 31
0.0
  0
ARC
  5
2A7A
330
2
100
AcDbEntity
  8
HIDS
100
AcDbCircle
 10
414.1431561668282
 20
109.1362815676153
 30
0.0
 40
2.0
100
AcDbArc
 50
180.0
 51
224.9999999999908
  0
ARC
  5
2A7B
330
2
100
AcDbEntity
  8
HIDS
100
AcDbCircle
 10
412.1431561668282
 20
105.479427318122
 30
0.0
 40
2.0
100
AcDbArc
 50
0.0
 51
44.99999999999078
  0
ARC
  5
2A7C
330
2
100
AcDbEntity
  8
0
100
AcDbCircle
 10
405.9431561668284
 20
117.0078544428694
 30
0.0
 40
0.2
100
AcDbArc
 50
270.0
 51
0.0
  0
ARC
  5
2A7D
330
2
100
AcDbEntity
  8
0
100
AcDbCircle
 10
416.1431561668282
 20
114.8472015046996
 30
0.0
 40
2.0
100
AcDbArc
 50
180.0
 51
269.5000000000344
  0
LINE
  5
2A7E
330
2
100
AcDbEntity
  8
0
100
AcDbLine
 10
410.6431561666872
 20
109.9418290390846
 30
0.0
 11
410.6431561666872
 21
98.67387984665459
 31
0.0
  0
LINE
  5
2A7F
330
2
100
AcDbEntity
  8
0
100
AcDbLine
 10
411.1431561666872
 20
97.8078544428687
 30
0.0
 11
410.6431561666872
 21
98.67387984665459
 31
0.0
  0
LINE
  5
2A80
330
2
100
AcDbEntity
  8
0
100
AcDbLine
 10
411.1431561666872
 20
110.8078544428686
 30
0.0
 11
411.1431561666872
 21
97.8078544428687
 31
0.0
  0
LINE
  5
2A81
330
2
100
AcDbEntity
  8
0
100
AcDbLine
 10
411.1431561666872
 20
110.8078544428686
 30
0.0
 11
410.6431561666872
 21
109.9418290390846
 31
0.0
  0
LINE
  5
2A82
330
2
100
AcDbEntity
  8
0
100
AcDbLine
 10
420.1475194344371
 20
112.8121797991067
 30
0.0
 11
416.1257030958317
 21
112.8472776585718
 31
0.0
  0
LINE
  5
2A83
330
2
100
AcDbEntity
  8
0
100
AcDbLine
 10
418.6431561666872
 20
97.8078544428687
 30
0.0
 11
411.1431561666872
 21
97.8078544428687
 31
0.0
  0
LINE
  5
2A84
330
2
100
AcDbEntity
  8
0
100
AcDbLine
 10
418.6431561666872
 20
110.8078544428686
 30
0.0
 11
411.1431561666872
 21
110.8078544428686
 31
0.0
  0
ARC
  5
2A85
330
2
100
AcDbEntity
  8
0
100
AcDbCircle
 10
406.343156166828
 20
117.3078544428686
 30
0.0
 40
0.2
100
AcDbArc
 50
90.0
 51
180.0
  0
ARC
  5
2A86
330
2
100
AcDbEntity
  8
0
100
AcDbCircle
 10
407.9431561668284
 20
117.3078544428686
 30
0.0
 40
0.2
100
AcDbArc
 50
0.0
 51
90.0
  0
LINE
  5
2A87
330
2
100
AcDbEntity
  8
0
100
AcDbLine
 10
421.6344296311895
 20
104.3078544428686
 30
0.0
 11
430.6431561668364
 21
104.3078544428686
 31
0.0
  0
LINE
  5
2A88
330
2
100
AcDbEntity
  8
0
100
AcDbLine
 10
421.6344296311895
 20
108.3078544428723
 30
0.0
 11
430.6431561668364
 21
108.3078544428723
 31
0.0
  0
LINE
  5
2A89
330
2
100
AcDbEntity
  8
0
100
AcDbLine
 10
430.6431561668382
 20
94.30785444286868
 30
0.0
 11
416.1257030958317
 21
94.43454633647945
 31
0.0
  0
LINE
  5
2A8A
330
2
100
AcDbEntity
  8
0
100
AcDbLine
 10
416.1257030958317
 20
131.3038260211729
 30
0.0
 11
430.6431561668346
 21
131.3038260211729
 31
0.0
  0
LINE
  5
2A8B
330
2
100
AcDbEntity
  8
0
100
AcDbLine
 10
416.1257030958317
 20
177.3118828645643
 30
0.0
 11
430.6431561668346
 21
177.3118828645643
 31
0.0
  0
LINE
  5
2A8C
330
2
100
AcDbEntity
  8
CENTER
  6
CENS
100
AcDbLine
 10
437.4030384586822
 20
204.3078544428686
 30
0.0
 11
407.6431561666872
 21
204.3078544428686
 31
0.0
  0
LINE
  5
2A8D
330
2
100
AcDbEntity
  8
HIDS
100
AcDbLine
 10
414.1431561668282
 20
210.8078544428686
 30
0.0
 11
414.1431561668282
 21
197.8078544428687
 31
0.0
  0
LINE
  5
2A8E
330
2
100
AcDbEntity
  8
0
100
AcDbLine
 10
420.6431561666873
 20
196.3035100481671
 30
0.0
 11
420.6431561666873
 21
213.2292745543642
 31
0.0
  0
LINE
  5
2A8F
330
2
100
AcDbEntity
  8
0
100
AcDbLine
 10
410.6431561666872
 20
198.6738798466527
 30
0.0
 11
410.6431561666872
 21
209.9418290390846
 31
0.0
  0
LINE
  5
2A90
330
2
100
AcDbEntity
  8
0
100
AcDbLine
 10
420.6431561666873
 20
197.8078544428687
 30
0.0
 11
420.6431561666873
 21
210.8078544428686
 31
0.0
  0
LINE
  5
2A91
330
2
100
AcDbEntity
  8
0
100
AcDbLine
 10
418.6431561666872
 20
197.8078544428687
 30
0.0
 11
418.6431561666881
 21
210.8078544428686
 31
0.0
  0
LINE
  5
2A92
330
2
100
AcDbEntity
  8
0
100
AcDbLine
 10
411.1431561666872
 20
197.8078544428687
 30
0.0
 11
411.1431561666872
 21
210.8078544428686
 31
0.0
  0
ARC
  5
2A93
330
2
100
AcDbEntity
  8
0
100
AcDbCircle
 10
420.1431561666872
 20
196.3035100481671
 30
0.0
 40
0.5
100
AcDbArc
 50
270.4999999999655
 51
0.0
  0
LINE
  5
2A94
330
2
100
AcDbEntity
  8
0
100
AcDbLine
 10
420.6431561666873
 20
197.8078544428687
 30
0.0
 11
418.6431561666872
 21
197.8078544428687
 31
0.0
  0
LINE
  5
2A95
330
2
100
AcDbEntity
  8
0
100
AcDbLine
 10
408.343156166828
 20
191.8078544428686
 30
0.0
 11
411.6431561668282
 21
191.8078544428686
 31
0.0
  0
LINE
  5
2A96
330
2
100
AcDbEntity
  8
HIDS
100
AcDbLine
 10
412.1431561668282
 20
197.8078544428687
 30
0.0
 11
412.1431561668282
 21
199.4794273181238
 31
0.0
  0
LINE
  5
2A97
330
2
100
AcDbEntity
  8
HIDS
100
AcDbLine
 10
413.5573697292016
 20
201.722068005242
 30
0.0
 11
412.7289426044549
 21
200.8936408804953
 31
0.0
  0
LINE
  5
2A98
330
2
100
AcDbEntity
  8
0
100
AcDbLine
 10
412.1431561668282
 20
194.3078544428686
 30
0.0
 11
411.6431561668282
 21
193.8078544428686
 31
0.0
  0
LINE
  5
2A99
330
2
100
AcDbEntity
  8
0
100
AcDbLine
 10
404.6431561668273
 20
191.8078544428686
 30
0.0
 11
405.9431561668275
 21
191.8078544428686
 31
0.0
  0
LINE
  5
2A9A
330
2
100
AcDbEntity
  8
0
100
AcDbLine
 10
408.1431561668273
 20
191.6078544428697
 30
0.0
 11
408.343156166828
 21
191.8078544428686
 31
0.0
  0
LINE
  5
2A9B
330
2
100
AcDbEntity
  8
0
100
AcDbLine
 10
406.343156166828
 20
191.1078544428697
 30
0.0
 11
407.9431561668275
 21
191.1078544428697
 31
0.0
  0
LINE
  5
2A9C
330
2
100
AcDbEntity
  8
0
100
AcDbLine
 10
404.6431561668282
 20
191.8078544428686
 30
0.0
 11
403.6431561668273
 21
191.2305041736787
 31
0.0
  0
ARC
  5
2A9D
330
2
100
AcDbEntity
  8
HIDS
100
AcDbCircle
 10
414.1431561668282
 20
199.4794273181238
 30
0.0
 40
2.0
100
AcDbArc
 50
135.0000000000092
 51
180.0
  0
ARC
  5
2A9E
330
2
100
AcDbEntity
  8
HIDS
100
AcDbCircle
 10
412.1431561668282
 20
203.1362815676153
 30
0.0
 40
2.0
100
AcDbArc
 50
315.0000000000092
 51
0.0
  0
ARC
  5
2A9F
330
2
100
AcDbEntity
  8
0
100
AcDbCircle
 10
405.9431561668275
 20
191.6078544428697
 30
0.0
 40
0.2
100
AcDbArc
 50
0.0
 51
90.0
  0
ARC
  5
2AA0
330
2
100
AcDbEntity
  8
0
100
AcDbCircle
 10
406.343156166828
 20
191.3078544428686
 30
0.0
 40
0.2
100
AcDbArc
 50
180.0
 51
270.0
  0
ARC
  5
2AA1
330
2
100
AcDbEntity
  8
0
100
AcDbCircle
 10
407.9431561668275
 20
191.3078544428686
 30
0.0
 40
0.2
100
AcDbArc
 50
270.0
 51
0.0
  0
ARC
  5
2AA2
330
2
100
AcDbEntity
  8
0
100
AcDbCircle
 10
416.1431561668282
 20
193.7685073810376
 30
0.0
 40
2.0
100
AcDbArc
 50
90.49999999996552
 51
180.0
  0
LINE
  5
2AA3
330
2
100
AcDbEntity
  8
0
100
AcDbLine
 10
411.1431561666872
 20
197.8078544428687
 30
0.0
 11
410.6431561666872
 21
198.6738798466527
 31
0.0
  0
LINE
  5
2AA4
330
2
100
AcDbEntity
  8
0
100
AcDbLine
 10
420.1475194344371
 20
195.8035290866324
 30
0.0
 11
416.1257030958317
 21
195.7684312271654
 31
0.0
  0
LINE
  5
2AA5
330
2
100
AcDbEntity
  8
0
100
AcDbLine
 10
418.6431561666872
 20
197.8078544428687
 30
0.0
 11
411.1431561666872
 21
197.8078544428687
 31
0.0
  0
LINE
  5
2AA6
330
2
100
AcDbEntity
  8
0
100
AcDbLine
 10
421.6344296311895
 20
204.3078544428705
 30
0.0
 11
430.6431561668364
 21
204.3078544428705
 31
0.0
  0
LINE
  5
2AA7
330
2
100
AcDbEntity
  8
0
100
AcDbLine
 10
421.6344296311895
 20
200.3078544428668
 30
0.0
 11
430.6431561668364
 21
200.3078544428668
 31
0.0
  0
ARC
  5
2AA8
330
2
100
AcDbEntity
  8
0
100
AcDbCircle
 10
421.6431561666873
 20
213.2292745543642
 30
0.0
 40
1.0
100
AcDbArc
 50
90.50000000001762
 51
180.0
  0
LINE
  5
2AA9
330
2
100
AcDbEntity
  8
0
100
AcDbLine
 10
420.6431561666873
 20
210.8078544428686
 30
0.0
 11
418.6431561666872
 21
210.8078544428686
 31
0.0
  0
LINE
  5
2AAA
330
2
100
AcDbEntity
  8
0
100
AcDbLine
 10
414.1431561668282
 20
212.1812387031319
 30
0.0
 11
414.1431561668282
 21
210.8078544428686
 31
0.0
  0
ARC
  5
2AAB
330
2
100
AcDbEntity
  8
0
100
AcDbCircle
 10
416.1431561668282
 20
212.1812387031319
 30
0.0
 40
2.0
100
AcDbArc
 50
90.49999999996552
 51
180.0
  0
LINE
  5
2AAC
330
2
100
AcDbEntity
  8
0
100
AcDbLine
 10
411.1431561666872
 20
210.8078544428686
 30
0.0
 11
410.6431561666872
 21
209.9418290390846
 31
0.0
  0
LINE
  5
2AAD
330
2
100
AcDbEntity
  8
0
100
AcDbLine
 10
418.6431561666872
 20
210.8078544428686
 30
0.0
 11
411.1431561666872
 21
210.8078544428686
 31
0.0
  0
LINE
  5
2AAE
330
2
100
AcDbEntity
  8
0
100
AcDbLine
 10
430.6431561668309
 20
214.3078544428687
 30
0.0
 11
416.1257030958317
 21
214.1811625492597
 31
0.0
  0
LINE
  5
2AAF
330
2
100
AcDbEntity
  8
0
100
AcDbLine
 10
526.1431561668286
 20
116.2392319924825
 30
0.0
 11
526.1431561668286
 21
192.3764768932547
 31
0.0
  0
LINE
  5
2AB0
330
2
100
AcDbEntity
  8
0
100
AcDbLine
 10
507.1431561668287
 20
94.97545982886061
 30
0.0
 11
507.1431561668268
 21
213.6402490568749
 31
0.0
  0
LINE
  5
2AB1
330
2
100
AcDbEntity
  8
0
100
AcDbLine
 10
512.1431561668287
 20
99.30785444286687
 30
0.0
 11
512.1431561668287
 21
209.3078544428668
 31
0.0
  0
LINE
  5
2AB2
330
2
100
AcDbEntity
  8
0
100
AcDbLine
 10
527.1431561668286
 20
175.5191793082739
 30
0.0
 11
527.1431561668286
 21
133.0965295774634
 31
0.0
  0
LINE
  5
2AB3
330
2
100
AcDbEntity
  8
0
100
AcDbLine
 10
512.1431561668287
 20
99.30785444286687
 30
0.0
 11
507.1431561668287
 21
99.30785444286687
 31
0.0
  0
ARC
  5
2AB4
330
2
100
AcDbEntity
  8
0
100
AcDbCircle
 10
524.1431561668287
 20
116.2392319924825
 30
0.0
 40
2.0
100
AcDbArc
 50
272.0000000000037
 51
0.0
  0
ARC
  5
2AB5
330
2
100
AcDbEntity
  8
0
100
AcDbCircle
 10
514.1431561668286
 20
111.8875861203711
 30
0.0
 40
2.0
100
AcDbArc
 50
92.0000000000037
 51
180.0
  0
LINE
  5
2AB6
330
2
100
AcDbEntity
  8
0
100
AcDbLine
 10
514.0733571734235
 20
113.8863677744089
 30
0.0
 11
524.2129551602338
 21
114.2404503384446
 31
0.0
  0
ARC
  5
2AB7
330
2
100
AcDbEntity
  8
0
100
AcDbCircle
 10
526.6431561668286
 20
133.0965295774634
 30
0.0
 40
0.5
100
AcDbArc
 50
300.0000000000005
 51
0.0
  0
ARC
  5
2AB8
330
2
100
AcDbEntity
  8
0
100
AcDbCircle
 10
525.7412323781827
 20
134.3078544428687
 30
0.0
 40
2.0
100
AcDbArc
 50
281.593213623511
 51
300.0000000000005
  0
LINE
  5
2AB9
330
2
100
AcDbEntity
  8
0
100
AcDbLine
 10
526.7412323781827
 20
132.5758036352998
 30
0.0
 11
526.8931561668287
 21
132.6635168755711
 31
0.0
  0
LINE
  5
2ABA
330
2
100
AcDbEntity
  8
0
100
AcDbLine
 10
572.6431561668286
 20
168.3078544428686
 30
0.0
 11
528.1431561668287
 21
168.3078544428686
 31
0.0
  0
LINE
  5
2ABB
330
2
100
AcDbEntity
  8
0
100
AcDbLine
 10
528.1431561668287
 20
140.3078544428686
 30
0.0
 11
572.6431561668286
 21
140.3078544428686
 31
0.0
  0
LINE
  5
2ABC
330
2
100
AcDbEntity
  8
0
100
AcDbLine
 10
528.1431561668287
 20
169.3078544428686
 30
0.0
 11
528.1431561668287
 21
139.3078544428686
 31
0.0
  0
LINE
  5
2ABD
330
2
100
AcDbEntity
  8
0
100
AcDbLine
 10
528.1431561668287
 20
139.3078544428686
 30
0.0
 11
527.1431561668286
 21
138.7305041736789
 31
0.0
  0
LINE
  5
2ABE
330
2
100
AcDbEntity
  8
0
100
AcDbLine
 10
528.1431561668287
 20
169.3078544428686
 30
0.0
 11
527.1431561668286
 21
169.8852047120584
 31
0.0
  0
ARC
  5
2ABF
330
2
100
AcDbEntity
  8
0
100
AcDbCircle
 10
526.6431561668286
 20
175.5191793082739
 30
0.0
 40
0.5
100
AcDbArc
 50
0.0
 51
59.99999999999946
  0
ARC
  5
2AC0
330
2
100
AcDbEntity
  8
0
100
AcDbCircle
 10
525.7412323781827
 20
174.3078544428686
 30
0.0
 40
2.0
100
AcDbArc
 50
59.99999999999946
 51
78.40678637648899
  0
LINE
  5
2AC1
330
2
100
AcDbEntity
  8
0
100
AcDbLine
 10
526.7412323781827
 20
176.0399052504375
 30
0.0
 11
526.8931561668287
 21
175.9521920101661
 31
0.0
  0
LINE
  5
2AC2
330
2
100
AcDbEntity
  8
0
100
AcDbLine
 10
512.1431561668287
 20
209.3078544428668
 30
0.0
 11
507.1431561668287
 21
209.3078544428668
 31
0.0
  0
ARC
  5
2AC3
330
2
100
AcDbEntity
  8
0
100
AcDbCircle
 10
524.1431561668287
 20
192.3764768932547
 30
0.0
 40
2.0
100
AcDbArc
 50
0.0
 51
87.99999999999627
  0
ARC
  5
2AC4
330
2
100
AcDbEntity
  8
0
100
AcDbCircle
 10
514.1431561668286
 20
196.728122765368
 30
0.0
 40
2.0
100
AcDbArc
 50
180.0
 51
267.9999999999963
  0
LINE
  5
2AC5
330
2
100
AcDbEntity
  8
0
100
AcDbLine
 10
514.0733571734235
 20
194.7293411113301
 30
0.0
 11
524.2129551602338
 21
194.3752585472926
 31
0.0
  0
LINE
  5
2AC6
330
2
100
AcDbEntity
  8
0
100
AcDbLine
 10
573.1431561668286
 20
140.8078544428686
 30
0.0
 11
573.1431561668286
 21
167.8078544428687
 31
0.0
  0
LINE
  5
2AC7
330
2
100
AcDbEntity
  8
0
100
AcDbLine
 10
572.6431561668286
 20
168.3078544428686
 30
0.0
 11
572.6431561668286
 21
140.3078544428686
 31
0.0
  0
LINE
  5
2AC8
330
2
100
AcDbEntity
  8
0
100
AcDbLine
 10
573.1431561668286
 20
140.8078544428686
 30
0.0
 11
572.6431561668286
 21
140.3078544428686
 31
0.0
  0
LINE
  5
2AC9
330
2
100
AcDbEntity
  8
0
100
AcDbLine
 10
572.6431561668286
 20
168.3078544428686
 30
0.0
 11
573.1431561668286
 21
167.8078544428687
 31
0.0
  0
LINE
  5
2ACB
330
2
100
AcDbEntity
  8
CENTER
100
AcDbLine
 10
810.4561451394323
 20
69.3078544428705
 30
0.0
 11
810.4561451394321
 21
239.3078544428705
 31
0.0
  0
CIRCLE
  5
2ACC
330
2
100
AcDbEntity
  8
CENTER
100
AcDbCircle
 10
810.4561451394305
 20
154.3078544428705
 30
0.0
 40
70.0
  0
ARC
  5
2ACE
330
2
100
AcDbEntity
  8
0
100
AcDbCircle
 10
938.8661451393668
 20
190.3078544428686
 30
0.0
 40
5.0
100
AcDbArc
 50
270.0
 51
0.0
  0
ARC
  5
2ACF
330
2
100
AcDbEntity
  8
0
100
AcDbCircle
 10
938.8661451393668
 20
118.3078544428686
 30
0.0
 40
5.0
100
AcDbArc
 50
0.0
 51
90.0
  0
LINE
  5
2AD0
330
2
100
AcDbEntity
  8
CENTER
100
AcDbLine
 10
874.5982807631625
 20
90.16571881914059
 30
0.0
 11
746.3140095156997
 21
218.4499900666014
 31
0.0
  0
LINE
  5
2AD1
330
2
100
AcDbEntity
  8
CENTER
100
AcDbLine
 10
746.3140095157015
 20
90.16571881913774
 30
0.0
 11
874.5982807631643
 21
218.4499900665986
 31
0.0
  0
CIRCLE
  5
2AD2
330
2
100
AcDbEntity
  8
0
100
AcDbCircle
 10
810.4561451394323
 20
154.3078544428686
 30
0.0
 40
22.00000000000181
  0
CIRCLE
  5
2AD3
330
2
100
AcDbEntity
  8
0
100
AcDbCircle
 10
810.4561451394323
 20
154.3078544428686
 30
0.0
 40
15.57735026919158
  0
CIRCLE
  5
2AD4
330
2
100
AcDbEntity
  8
0
100
AcDbCircle
 10
810.4561451394323
 20
154.3078544428686
 30
0.0
 40
15.00000000000182
  0
CIRCLE
  5
2AD5
330
2
100
AcDbEntity
  8
0
100
AcDbCircle
 10
810.4561451394323
 20
154.3078544428686
 30
0.0
 40
14.00000000000181
  0
ARC
  5
2AD6
330
2
100
AcDbEntity
  8
0
100
AcDbCircle
 10
810.4561451394323
 20
-35.69214555712949
 30
0.0
 40
250.0
100
AcDbArc
 50
84.72039671760308
 51
95.27960328239691
  0
ARC
  5
2AD7
330
2
100
AcDbEntity
  8
0
100
AcDbCircle
 10
810.4561451394269
 20
344.3078544428705
 30
0.0
 40
250.0
100
AcDbArc
 50
264.7203967176031
 51
275.2796032823969
  0
CIRCLE
  5
2AD9
330
2
100
AcDbEntity
  8
0
100
AcDbCircle
 10
810.4561451394305
 20
154.3078544428705
 30
0.0
 40
55.0
  0
CIRCLE
  5
2ADA
330
2
100
AcDbEntity
  8
0
100
AcDbCircle
 10
810.4561451394305
 20
154.3078544428705
 30
0.0
 40
32.5
  0
CIRCLE
  5
2ADB
330
2
100
AcDbEntity
  8
0
100
AcDbCircle
 10
810.4561451394305
 20
154.3078544428705
 30
0.0
 40
40.0
  0
ARC
  5
2ADC
330
2
100
AcDbEntity
  8
0
100
AcDbCircle
 10
1000.45614513943
 20
154.3078544428705
 30
0.0
 40
250.0
100
AcDbArc
 50
174.7203967175508
 51
185.2796032824491
  0
CIRCLE
  5
2ADD
330
2
100
AcDbEntity
  8
0
100
AcDbCircle
 10
760.9586704563729
 20
104.8103797598129
 30
0.0
 40
3.2
  0
CIRCLE
  5
2ADE
330
2
100
AcDbEntity
  8
HOJO
100
AcDbCircle
 10
760.9586704563729
 20
104.8103797598129
 30
0.0
 40
4.0
  0
LINE
  5
2ADF
330
2
100
AcDbEntity
  8
CENTER
100
AcDbLine
 10
751.9586704563729
 20
104.810379759811
 30
0.0
 11
769.9586704563729
 21
104.810379759811
 31
0.0
  0
LINE
  5
2AE0
330
2
100
AcDbEntity
  8
0
100
AcDbLine
 10
760.4561451394305
 20
94.30785444287051
 30
0.0
 11
764.4561451394359
 21
94.30785444287051
 31
0.0
  0
ARC
  5
2AE1
330
2
100
AcDbEntity
  8
0
100
AcDbCircle
 10
760.4561451394305
 20
104.3078544428705
 30
0.0
 40
10.0
100
AcDbArc
 50
180.0
 51
270.0
  0
LINE
  5
2AE2
330
2
100
AcDbEntity
  8
0
100
AcDbLine
 10
750.4561451394305
 20
104.3078544428705
 30
0.0
 11
750.4561451394305
 21
108.3078544428741
 31
0.0
  0
ARC
  5
2AE3
330
2
100
AcDbEntity
  8
0
100
AcDbCircle
 10
758.4561451394305
 20
108.3078544428741
 30
0.0
 40
8.0
100
AcDbArc
 50
169.7661103968432
 51
180.0
  0
LINE
  5
2AE4
330
2
100
AcDbEntity
  8
CENTER
100
AcDbLine
 10
760.9586704563729
 20
113.8103797598092
 30
0.0
 11
760.9586704563729
 21
95.81037975980928
 31
0.0
  0
ARC
  5
2AE5
330
2
100
AcDbEntity
  8
0
100
AcDbCircle
 10
671.8561641715126
 20
123.9425369262631
 30
0.0
 40
80.0
100
AcDbArc
 50
349.7661103968432
 51
5.279603282449114
  0
ARC
  5
2AE6
330
2
100
AcDbEntity
  8
0
100
AcDbCircle
 10
780.0908276228268
 20
15.70787347495263
 30
0.0
 40
80.0
100
AcDbArc
 50
84.72039671760308
 51
100.2338896031036
  0
ARC
  5
2AE7
330
2
100
AcDbEntity
  8
0
100
AcDbCircle
 10
764.4561451394359
 20
102.3078544428686
 30
0.0
 40
8.0
100
AcDbArc
 50
270.0
 51
280.2338896031037
  0
ARC
  5
2AE8
330
2
100
AcDbEntity
  8
0
100
AcDbCircle
 10
671.8561641715126
 20
184.6731719594796
 30
0.0
 40
80.0
100
AcDbArc
 50
354.7203967175509
 51
10.23388960315672
  0
LINE
  5
2AE9
330
2
100
AcDbEntity
  8
0
100
AcDbLine
 10
760.4561451394305
 20
214.3078544428705
 30
0.0
 11
764.4561451394341
 21
214.3078544428705
 31
0.0
  0
CIRCLE
  5
2AEA
330
2
100
AcDbEntity
  8
HOJO
100
AcDbCircle
 10
760.9586704563729
 20
203.8053291259299
 30
0.0
 40
4.0
  0
CIRCLE
  5
2AEB
330
2
100
AcDbEntity
  8
0
100
AcDbCircle
 10
760.9586704563729
 20
203.8053291259299
 30
0.0
 40
3.2
  0
LINE
  5
2AEC
330
2
100
AcDbEntity
  8
CENTER
100
AcDbLine
 10
751.9586704563729
 20
203.805329125928
 30
0.0
 11
769.9586704563729
 21
203.805329125928
 31
0.0
  0
ARC
  5
2AED
330
2
100
AcDbEntity
  8
0
100
AcDbCircle
 10
758.4561451394305
 20
200.3078544428668
 30
0.0
 40
8.0
100
AcDbArc
 50
180.0
 51
190.2338896031567
  0
LINE
  5
2AEE
330
2
100
AcDbEntity
  8
0
100
AcDbLine
 10
750.4561451394305
 20
200.3078544428668
 30
0.0
 11
750.4561451394305
 21
204.3078544428705
 31
0.0
  0
ARC
  5
2AEF
330
2
100
AcDbEntity
  8
0
100
AcDbCircle
 10
760.4561451394305
 20
204.3078544428705
 30
0.0
 40
10.0
100
AcDbArc
 50
90.0
 51
180.0
  0
LINE
  5
2AF0
330
2
100
AcDbEntity
  8
CENTER
100
AcDbLine
 10
760.9586704563729
 20
194.8053291259281
 30
0.0
 11
760.9586704563729
 21
212.8053291259281
 31
0.0
  0
ARC
  5
2AF1
330
2
100
AcDbEntity
  8
0
100
AcDbCircle
 10
780.0908276228232
 20
292.9078354107865
 30
0.0
 40
80.0
100
AcDbArc
 50
259.7661103968963
 51
275.2796032823969
  0
ARC
  5
2AF2
330
2
100
AcDbEntity
  8
0
100
AcDbCircle
 10
764.4561451394341
 20
206.3078544428705
 30
0.0
 40
8.0
100
AcDbArc
 50
79.76611039689631
 51
90.0
  0
LINE
  5
2AF3
330
2
100
AcDbEntity
  8
0
100
AcDbLine
 10
932.4185169825554
 20
182.3078544428723
 30
0.0
 11
932.4185169824771
 21
126.3078544428723
 31
0.0
  0
LINE
  5
2AF4
330
2
100
AcDbEntity
  8
0
100
AcDbLine
 10
870.4561451394305
 20
104.3078544428705
 30
0.0
 11
870.4561451394305
 21
204.3078544428705
 31
0.0
  0
LINE
  5
2AF5
330
2
100
AcDbEntity
  8
0
100
AcDbLine
 10
913.9561451394341
 20
119.3078544428705
 30
0.0
 11
913.9561451394287
 21
189.3078544428705
 31
0.0
  0
ARC
  5
2AF6
330
2
100
AcDbEntity
  8
0
100
AcDbCircle
 10
860.4561451394305
 20
104.3078544428705
 30
0.0
 40
10.0
100
AcDbArc
 50
270.0
 51
0.0
  0
ARC
  5
2AF7
330
2
100
AcDbEntity
  8
0
100
AcDbCircle
 10
878.4283458950424
 20
103.3078544428668
 30
0.0
 40
8.0
100
AcDbArc
 50
90.0
 51
176.8152614633259
  0
ARC
  5
2AF8
330
2
100
AcDbEntity
  8
0
100
AcDbCircle
 10
840.8214626560324
 20
15.70787347495263
 30
0.0
 40
80.0
100
AcDbArc
 50
79.76611039689631
 51
95.27960328239691
  0
LINE
  5
2AF9
330
2
100
AcDbEntity
  8
0
100
AcDbLine
 10
814.7179146478659
 20
102.3078544428577
 30
0.0
 11
817.5979158891962
 21
102.3078544428577
 31
0.0
  0
LINE
  5
2AFA
330
2
100
AcDbEntity
  8
0
100
AcDbLine
 10
815.6108470093416
 20
105.4304816412501
 30
0.0
 11
817.5979158891962
 21
102.3078544428577
 31
0.0
  0
ARC
  5
2AFB
330
2
100
AcDbEntity
  8
0
100
AcDbCircle
 10
813.9543016296823
 20
107.5878544428657
 30
0.0
 40
2.720000000003957
100
AcDbArc
 50
307.5189678668038
 51
90.0
  0
LINE
  5
2AFC
330
2
100
AcDbEntity
  8
0
100
AcDbLine
 10
807.314374389672
 20
110.3078544428686
 30
0.0
 11
813.9543016296823
 21
110.3078544428686
 31
0.0
  0
ARC
  5
2AFD
330
2
100
AcDbEntity
  8
0
100
AcDbCircle
 10
813.7843743896823
 20
107.4178544428656
 30
0.0
 40
0.1700000000002474
100
AcDbArc
 50
270.0
 51
90.0
  0
LINE
  5
2AFE
330
2
100
AcDbEntity
  8
0
100
AcDbLine
 10
811.5743743896777
 20
107.2478544428637
 30
0.0
 11
813.7843743896823
 21
107.2478544428637
 31
0.0
  0
LINE
  5
2AFF
330
2
100
AcDbEntity
  8
0
100
AcDbLine
 10
811.2343016296776
 20
107.5878544428657
 30
0.0
 11
813.7843743896805
 21
107.5878544428657
 31
0.0
  0
LINE
  5
2B00
330
2
100
AcDbEntity
  8
0
100
AcDbLine
 10
811.2343016296776
 20
107.5878544428657
 30
0.0
 11
811.2343016296776
 21
102.3078544428577
 31
0.0
  0
LINE
  5
2B01
330
2
100
AcDbEntity
  8
0
100
AcDbLine
 10
811.5743743896777
 20
107.2478544428637
 30
0.0
 11
814.7179146478659
 21
102.3078544428577
 31
0.0
  0
LINE
  5
2B02
330
2
100
AcDbEntity
  8
0
100
AcDbLine
 10
808.8343743896743
 20
107.5878519602089
 30
0.0
 11
808.0743756310015
 21
106.0678544428616
 31
0.0
  0
LINE
  5
2B03
330
2
100
AcDbEntity
  8
0
100
AcDbLine
 10
808.8343743896743
 20
107.5878519602089
 30
0.0
 11
808.8343743896743
 21
106.0678544428634
 31
0.0
  0
LINE
  5
2B04
330
2
100
AcDbEntity
  8
0
100
AcDbLine
 10
808.0743756310015
 20
106.0678544428616
 30
0.0
 11
808.8343743896743
 21
106.0678544428634
 31
0.0
  0
LINE
  5
2B05
330
2
100
AcDbEntity
  8
0
100
AcDbLine
 10
808.8343743896743
 20
103.5078544428585
 30
0.0
 11
808.8343743896743
 21
102.3078544428577
 31
0.0
  0
LINE
  5
2B06
330
2
100
AcDbEntity
  8
0
100
AcDbLine
 10
806.794375630999
 20
103.5078544428603
 30
0.0
 11
808.8343743896743
 21
103.5078544428585
 31
0.0
  0
LINE
  5
2B07
330
2
100
AcDbEntity
  8
0
100
AcDbLine
 10
806.794375630999
 20
103.5078544428603
 30
0.0
 11
806.1943756309986
 21
102.3078544428577
 31
0.0
  0
LINE
  5
2B08
330
2
100
AcDbEntity
  8
0
100
AcDbLine
 10
808.8343743896743
 20
102.3078544428577
 30
0.0
 11
811.2343016296776
 21
102.3078544428577
 31
0.0
  0
LINE
  5
2B09
330
2
100
AcDbEntity
  8
0
100
AcDbLine
 10
807.314374389672
 20
110.3078544428686
 30
0.0
 11
803.3143743896665
 21
102.3078544428577
 31
0.0
  0
LINE
  5
2B0A
330
2
100
AcDbEntity
  8
0
100
AcDbLine
 10
803.3143743896665
 20
102.3078544428577
 30
0.0
 11
806.1943756309986
 21
102.3078544428577
 31
0.0
  0
LINE
  5
2B0B
330
2
100
AcDbEntity
  8
CENTER
100
AcDbLine
 10
868.9536198224899
 20
104.8103797598129
 30
0.0
 11
850.95361982249
 21
104.8103797598129
 31
0.0
  0
LINE
  5
2B0C
330
2
100
AcDbEntity
  8
CENTER
100
AcDbLine
 10
859.95361982249
 20
113.8103797598129
 30
0.0
 11
859.95361982249
 21
95.81037975981292
 31
0.0
  0
ARC
  5
2B0D
330
2
100
AcDbEntity
  8
0
100
AcDbCircle
 10
856.4561451394268
 20
102.3078544428686
 30
0.0
 40
8.0
100
AcDbArc
 50
259.7661103968963
 51
270.0
  0
CIRCLE
  5
2B0E
330
2
100
AcDbEntity
  8
0
100
AcDbCircle
 10
859.95361982249
 20
104.8103797598129
 30
0.0
 40
3.2
  0
LINE
  5
2B0F
330
2
100
AcDbEntity
  8
0
100
AcDbLine
 10
856.4561451394268
 20
94.30785444287051
 30
0.0
 11
860.4561451394305
 21
94.30785444287051
 31
0.0
  0
CIRCLE
  5
2B10
330
2
100
AcDbEntity
  8
HOJO
100
AcDbCircle
 10
859.95361982249
 20
104.8103797598129
 30
0.0
 40
4.0
  0
LINE
  5
2B11
330
2
100
AcDbEntity
  8
0
100
AcDbLine
 10
905.9561451394342
 20
111.3078544428705
 30
0.0
 11
878.3935362540827
 21
111.3078544428705
 31
0.0
  0
ARC
  5
2B12
330
2
100
AcDbEntity
  8
0
100
AcDbCircle
 10
935.4185169824772
 20
126.3078544428686
 30
0.0
 40
3.0
100
AcDbArc
 50
179.9999999998957
 51
270.0
  0
ARC
  5
2B13
330
2
100
AcDbEntity
  8
0
100
AcDbCircle
 10
930.5451198100721
 20
122.8078544428686
 30
0.0
 40
3.0
100
AcDbArc
 50
35.68533471271784
 51
90.0
  0
LINE
  5
2B14
330
2
100
AcDbEntity
  8
0
100
AcDbLine
 10
918.9561451394341
 20
130.8078544428686
 30
0.0
 11
927.4341572711414
 21
130.8078544428686
 31
0.0
  0
ARC
  5
2B15
330
2
100
AcDbEntity
  8
0
100
AcDbCircle
 10
916.9561451394342
 20
122.8078544428686
 30
0.0
 40
3.0
100
AcDbArc
 50
90.0
 51
180.0
  0
ARC
  5
2B16
330
2
100
AcDbEntity
  8
0
100
AcDbCircle
 10
918.9561451394341
 20
125.8078544428686
 30
0.0
 40
5.0
100
AcDbArc
 50
90.0
 51
180.0
  0
LINE
  5
2B17
330
2
100
AcDbEntity
  8
0
100
AcDbLine
 10
916.9561451394342
 20
125.8078544428686
 30
0.0
 11
930.5451198100721
 21
125.8078544428686
 31
0.0
  0
ARC
  5
2B18
330
2
100
AcDbEntity
  8
0
100
AcDbCircle
 10
927.4341572711414
 20
125.8078544428686
 30
0.0
 40
5.0
100
AcDbArc
 50
3.583321698471883
 51
90.0
  0
LINE
  5
2B19
330
2
100
AcDbEntity
  8
0
100
AcDbLine
 10
935.4185169824772
 20
123.3078544428686
 30
0.0
 11
938.8661451393668
 21
123.3078544428686
 31
0.0
  0
ARC
  5
2B1A
330
2
100
AcDbEntity
  8
0
100
AcDbCircle
 10
905.9561451394342
 20
119.3078544428705
 30
0.0
 40
8.0
100
AcDbArc
 50
270.0
 51
0.0
  0
ARC
  5
2B1B
330
2
100
AcDbEntity
  8
0
100
AcDbCircle
 10
878.4283458950424
 20
205.3078544428704
 30
0.0
 40
8.0
100
AcDbArc
 50
183.184738536674
 51
270.0
  0
ARC
  5
2B1C
330
2
100
AcDbEntity
  8
0
100
AcDbCircle
 10
860.4561451394305
 20
204.3078544428705
 30
0.0
 40
10.0
100
AcDbArc
 50
0.0
 51
90.0
  0
ARC
  5
2B1D
330
2
100
AcDbEntity
  8
0
100
AcDbCircle
 10
840.8214626560397
 20
292.9078354107865
 30
0.0
 40
80.0
100
AcDbArc
 50
264.7203967176031
 51
280.2338896031037
  0
ARC
  5
2B1E
330
2
100
AcDbEntity
  8
0
100
AcDbCircle
 10
856.4561451394286
 20
206.3078544428705
 30
0.0
 40
8.0
100
AcDbArc
 50
90.0
 51
100.2338896031036
  0
LINE
  5
2B1F
330
2
100
AcDbEntity
  8
0
100
AcDbLine
 10
856.4561451394286
 20
214.3078544428705
 30
0.0
 11
860.4561451394305
 21
214.3078544428705
 31
0.0
  0
LINE
  5
2B20
330
2
100
AcDbEntity
  8
CENTER
100
AcDbLine
 10
868.9536198224917
 20
203.8053291259262
 30
0.0
 11
850.9536198224918
 21
203.8053291259262
 31
0.0
  0
CIRCLE
  5
2B21
330
2
100
AcDbEntity
  8
HOJO
100
AcDbCircle
 10
859.95361982249
 20
203.8053291259299
 30
0.0
 40
4.0
  0
CIRCLE
  5
2B22
330
2
100
AcDbEntity
  8
0
100
AcDbCircle
 10
859.95361982249
 20
203.8053291259299
 30
0.0
 40
3.2
  0
LINE
  5
2B23
330
2
100
AcDbEntity
  8
CENTER
100
AcDbLine
 10
859.9536198224917
 20
194.8053291259281
 30
0.0
 11
859.9536198224917
 21
212.8053291259281
 31
0.0
  0
ARC
  5
2B24
330
2
100
AcDbEntity
  8
0
100
AcDbCircle
 10
918.9561451394286
 20
182.8078544428686
 30
0.0
 40
5.0
100
AcDbArc
 50
180.0
 51
270.0
  0
ARC
  5
2B25
330
2
100
AcDbEntity
  8
0
100
AcDbCircle
 10
927.4341572712195
 20
182.8078544428686
 30
0.0
 40
5.0
100
AcDbArc
 50
270.0
 51
356.4166783015281
  0
LINE
  5
2B26
330
2
100
AcDbEntity
  8
0
100
AcDbLine
 10
918.9561451394286
 20
177.8078544428686
 30
0.0
 11
927.4341572712195
 21
177.8078544428686
 31
0.0
  0
ARC
  5
2B27
330
2
100
AcDbEntity
  8
0
100
AcDbCircle
 10
929.4185169825098
 20
148.8078544428686
 30
0.0
 40
3.0
100
AcDbArc
 50
359.9999999998958
 51
90.0
  0
ARC
  5
2B28
330
2
100
AcDbEntity
  8
0
100
AcDbCircle
 10
929.4185169825244
 20
159.8078544428686
 30
0.0
 40
3.0
100
AcDbArc
 50
270.0
 51
359.9999999998958
  0
ARC
  5
2B29
330
2
100
AcDbEntity
  8
0
100
AcDbCircle
 10
916.9561451394304
 20
159.8078544428686
 30
0.0
 40
3.0
100
AcDbArc
 50
180.0
 51
270.0
  0
ARC
  5
2B2A
330
2
100
AcDbEntity
  8
0
100
AcDbCircle
 10
916.9561451394324
 20
148.8078544428686
 30
0.0
 40
3.0
100
AcDbArc
 50
90.0
 51
180.0
  0
LINE
  5
2B2B
330
2
100
AcDbEntity
  8
0
100
AcDbLine
 10
916.9561451394304
 20
156.8078544428686
 30
0.0
 11
929.4185169825244
 21
156.8078544428686
 31
0.0
  0
LINE
  5
2B2C
330
2
100
AcDbEntity
  8
0
100
AcDbLine
 10
916.9561451394324
 20
151.8078544428686
 30
0.0
 11
929.4185169825098
 21
151.8078544428686
 31
0.0
  0
LINE
  5
2B2D
330
2
100
AcDbEntity
  8
0
100
AcDbLine
 10
905.9561451394287
 20
197.3078544428705
 30
0.0
 11
878.4283458950424
 21
197.3078544428705
 31
0.0
  0
ARC
  5
2B2E
330
2
100
AcDbEntity
  8
0
100
AcDbCircle
 10
935.4185169825553
 20
182.3078544428686
 30
0.0
 40
3.0
100
AcDbArc
 50
90.0
 51
176.4166783015281
  0
ARC
  5
2B2F
330
2
100
AcDbEntity
  8
0
100
AcDbCircle
 10
930.5451198101504
 20
185.8078544428686
 30
0.0
 40
3.0
100
AcDbArc
 50
270.0
 51
324.3146652872821
  0
ARC
  5
2B30
330
2
100
AcDbEntity
  8
0
100
AcDbCircle
 10
916.9561451394287
 20
185.8078544428686
 30
0.0
 40
3.0
100
AcDbArc
 50
180.0
 51
270.0
  0
ARC
  5
2B31
330
2
100
AcDbEntity
  8
0
100
AcDbCircle
 10
905.9561451394287
 20
189.3078544428705
 30
0.0
 40
8.0
100
AcDbArc
 50
0.0
 51
90.0
  0
LINE
  5
2B32
330
2
100
AcDbEntity
  8
0
100
AcDbLine
 10
916.9561451394287
 20
182.8078544428686
 30
0.0
 11
930.5451198101504
 21
182.8078544428686
 31
0.0
  0
LINE
  5
2B33
330
2
100
AcDbEntity
  8
0
100
AcDbLine
 10
935.4185169825553
 20
185.3078544428687
 30
0.0
 11
938.8661451393668
 21
185.3078544428687
 31
0.0
  0
LINE
  5
2B37
330
2
100
AcDbEntity
  8
0
100
AcDbLine
 10
1238.328568352436
 20
133.0965295774655
 30
0.0
 11
1238.328568352436
 21
175.5191793082755
 31
0.0
  0
LINE
  5
2B39
330
2
100
AcDbEntity
  8
0
100
AcDbLine
 10
943.8661451394322
 20
193.8078544428705
 30
0.0
 11
943.8661451394322
 21
114.8078544428705
 31
0.0
  0
ARC
  5
2B3B
330
2
100
AcDbEntity
  8
0
100
AcDbCircle
 10
945.8661451394322
 20
114.8078544428705
 30
0.0
 40
2.0
100
AcDbArc
 50
180.0
 51
270.0
  0
LINE
  5
2B3C
330
2
100
AcDbEntity
  8
0
100
AcDbLine
 10
955.8661451394321
 20
112.8078544428705
 30
0.0
 11
945.8661451394322
 21
112.8078544428705
 31
0.0
  0
LINE
  5
2B3D
330
2
100
AcDbEntity
  8
0
100
AcDbLine
 10
955.8661451394321
 20
113.3078544428705
 30
0.0
 11
945.8661451394322
 21
113.3078544428705
 31
0.0
  0
ARC
  5
2B3E
330
2
100
AcDbEntity
  8
0
100
AcDbCircle
 10
945.8661451394322
 20
115.3078544428705
 30
0.0
 40
2.0
100
AcDbArc
 50
180.0
 51
270.0
  0
LINE
  5
2B3F
330
2
100
AcDbEntity
  8
0
100
AcDbLine
 10
1238.730492141082
 20
132.5758036353014
 30
0.0
 11
1238.578568352436
 21
132.6635168755725
 31
0.0
  0
ARC
  5
2B40
330
2
100
AcDbEntity
  8
0
100
AcDbCircle
 10
1239.730492141082
 20
134.3078544428705
 30
0.0
 40
2.0
100
AcDbArc
 50
239.9999999999994
 51
258.4067863765158
  0
ARC
  5
2B41
330
2
100
AcDbEntity
  8
0
100
AcDbCircle
 10
1238.828568352436
 20
133.0965295774655
 30
0.0
 40
0.5
100
AcDbArc
 50
180.0
 51
239.9999999999994
  0
ARC
  5
2B43
330
2
100
AcDbEntity
  8
0
100
AcDbCircle
 10
945.8661451394322
 20
193.8078544428705
 30
0.0
 40
2.0
100
AcDbArc
 50
90.0
 51
180.0
  0
LINE
  5
2B44
330
2
100
AcDbEntity
  8
0
100
AcDbLine
 10
945.8661451394322
 20
195.8078544428705
 30
0.0
 11
955.8661451394321
 21
195.8078544428705
 31
0.0
  0
LINE
  5
2B45
330
2
100
AcDbEntity
  8
0
100
AcDbLine
 10
945.8661451394322
 20
195.3078544428705
 30
0.0
 11
955.8661451394321
 21
195.3078544428705
 31
0.0
  0
ARC
  5
2B46
330
2
100
AcDbEntity
  8
0
100
AcDbCircle
 10
945.8661451394322
 20
193.3078544428705
 30
0.0
 40
2.0
100
AcDbArc
 50
90.0
 51
180.0
  0
LINE
  5
2B47
330
2
100
AcDbEntity
  8
0
100
AcDbLine
 10
1237.328568352436
 20
168.3078544428705
 30
0.0
 11
1192.828568352436
 21
168.3078544428705
 31
0.0
  0
LINE
  5
2B48
330
2
100
AcDbEntity
  8
0
100
AcDbLine
 10
1192.828568352436
 20
140.3078544428705
 30
0.0
 11
1237.328568352436
 21
140.3078544428705
 31
0.0
  0
LINE
  5
2B49
330
2
100
AcDbEntity
  8
0
100
AcDbLine
 10
1192.328568352436
 20
167.8078544428705
 30
0.0
 11
1192.828568352436
 21
168.3078544428705
 31
0.0
  0
LINE
  5
2B4A
330
2
100
AcDbEntity
  8
0
100
AcDbLine
 10
1192.828568352436
 20
140.3078544428705
 30
0.0
 11
1192.328568352436
 21
140.8078544428705
 31
0.0
  0
LINE
  5
2B4B
330
2
100
AcDbEntity
  8
0
100
AcDbLine
 10
1192.828568352436
 20
140.3078544428705
 30
0.0
 11
1192.828568352436
 21
168.3078544428705
 31
0.0
  0
LINE
  5
2B4C
330
2
100
AcDbEntity
  8
0
100
AcDbLine
 10
1192.328568352436
 20
167.8078544428705
 30
0.0
 11
1192.328568352436
 21
140.8078544428705
 31
0.0
  0
LINE
  5
2B4D
330
2
100
AcDbEntity
  8
0
100
AcDbLine
 10
1238.730492141082
 20
176.0399052504395
 30
0.0
 11
1238.578568352436
 21
175.9521920101684
 31
0.0
  0
LINE
  5
2B4E
330
2
100
AcDbEntity
  8
0
100
AcDbLine
 10
1237.328568352436
 20
169.3078544428705
 30
0.0
 11
1238.328568352436
 21
169.8852047120604
 31
0.0
  0
ARC
  5
2B4F
330
2
100
AcDbEntity
  8
0
100
AcDbCircle
 10
1239.730492141082
 20
174.3078544428705
 30
0.0
 40
2.0
100
AcDbArc
 50
101.5932136234841
 51
120.0000000000005
  0
ARC
  5
2B50
330
2
100
AcDbEntity
  8
0
100
AcDbCircle
 10
1238.828568352436
 20
175.5191793082755
 30
0.0
 40
0.5
100
AcDbArc
 50
120.0000000000005
 51
180.0
  0
LINE
  5
2B51
330
2
100
AcDbEntity
  8
0
100
AcDbLine
 10
1237.328568352436
 20
139.3078544428705
 30
0.0
 11
1238.328568352436
 21
138.7305041736805
 31
0.0
  0
LINE
  5
2B52
330
2
100
AcDbEntity
  8
0
100
AcDbLine
 10
1237.328568352436
 20
139.3078544428705
 30
0.0
 11
1237.328568352436
 21
169.3078544428705
 31
0.0
  0
ARC
  5
2BDB
330
2
100
AcDbEntity
  8
0
100
AcDbCircle
 10
938.7335015691968
 20
567.6975102207824
 30
0.0
 40
5.0
100
AcDbArc
 50
270.0
 51
358.4999999999059
  0
ARC
  5
2BDC
330
2
100
AcDbEntity
  8
0
100
AcDbCircle
 10
938.7335015690622
 20
495.6975102207824
 30
0.0
 40
5.0
100
AcDbArc
 50
1.499999999989714
 51
90.0
  0
LINE
  5
2BDD
330
2
100
AcDbEntity
  8
CENTER
100
AcDbLine
 10
810.4561451394326
 20
605.1975102261592
 30
0.0
 11
810.4561451394326
 21
405.6975102207823
 31
0.0
  0
LINE
  5
2BDE
330
2
100
AcDbEntity
  8
0
100
AcDbLine
 10
824.4561451394329
 20
421.1975102207824
 30
0.0
 11
824.4561451394329
 21
465.6975102207824
 31
0.0
  0
LINE
  5
2BDF
330
2
100
AcDbEntity
  8
0
100
AcDbLine
 10
796.4561451394327
 20
465.6975102207824
 30
0.0
 11
796.4561451394327
 21
421.1975102207824
 31
0.0
  0
LINE
  5
2BE0
330
2
100
AcDbEntity
  8
0
100
AcDbLine
 10
796.9561451394327
 20
420.6975102207824
 30
0.0
 11
823.9561451394328
 21
420.6975102207824
 31
0.0
  0
LINE
  5
2BE1
330
2
100
AcDbEntity
  8
0
100
AcDbLine
 10
824.4561451394329
 20
421.1975102207824
 30
0.0
 11
796.4561451394327
 21
421.1975102207824
 31
0.0
  0
LINE
  5
2BE2
330
2
100
AcDbEntity
  8
0
100
AcDbLine
 10
796.9561451394327
 20
420.6975102207824
 30
0.0
 11
796.4561451394327
 21
421.1975102207824
 31
0.0
  0
LINE
  5
2BE3
330
2
100
AcDbEntity
  8
0
100
AcDbLine
 10
824.4561451394329
 20
421.1975102207824
 30
0.0
 11
823.9561451394328
 21
420.6975102207824
 31
0.0
  0
LINE
  5
2BE4
330
2
100
AcDbEntity
  8
0
100
AcDbLine
 10
868.4735227182427
 20
579.6975102261593
 30
0.0
 11
766.9561451394528
 21
579.6975102261593
 31
0.0
  0
LINE
  5
2BE5
330
2
100
AcDbEntity
  8
0
100
AcDbLine
 10
772.9561451394328
 20
589.1975102261593
 30
0.0
 11
847.9561451394328
 21
589.1975102261593
 31
0.0
  0
LINE
  5
2BE6
330
2
100
AcDbEntity
  8
0
100
AcDbLine
 10
772.9561451394328
 20
585.4975102261604
 30
0.0
 11
847.9561451394328
 21
585.4975102261604
 31
0.0
  0
LINE
  5
2BE7
330
2
100
AcDbEntity
  8
0
100
AcDbLine
 10
766.9561451394528
 20
581.6975102261593
 30
0.0
 11
855.627718014688
 21
581.6975102261593
 31
0.0
  0
LINE
  5
2BE8
330
2
100
AcDbEntity
  8
0
100
AcDbLine
 10
847.3787948702428
 20
590.1975102261594
 30
0.0
 11
773.5334954086227
 21
590.1975102261594
 31
0.0
  0
LINE
  5
2BE9
330
2
100
AcDbEntity
  8
0
100
AcDbLine
 10
770.9561451394328
 20
582.1975102261593
 30
0.0
 11
849.9561451394328
 21
582.1975102261593
 31
0.0
  0
LINE
  5
2BEA
330
2
100
AcDbEntity
  8
0
100
AcDbLine
 10
773.1561451394335
 20
587.6975102261593
 30
0.0
 11
847.7561451394338
 21
587.6975102261593
 31
0.0
  0
LINE
  5
2BEB
330
2
100
AcDbEntity
  8
0
100
AcDbLine
 10
773.1561451394335
 20
585.6975102261593
 30
0.0
 11
847.7561451394338
 21
585.6975102261593
 31
0.0
  0
LINE
  5
2BEC
330
2
100
AcDbEntity
  8
0
100
AcDbLine
 10
825.4561451394328
 20
465.6975102207824
 30
0.0
 11
795.4561451394328
 21
465.6975102207824
 31
0.0
  0
LINE
  5
2BED
330
2
100
AcDbEntity
  8
0
100
AcDbLine
 10
848.524767589819
 20
467.6975102256155
 30
0.0
 11
772.3875226890466
 21
467.6975102256155
 31
0.0
  0
LINE
  5
2BEE
330
2
100
AcDbEntity
  8
0
100
AcDbLine
 10
831.6674700048388
 20
466.6975102207824
 30
0.0
 11
789.2448202740287
 21
466.6975102207824
 31
0.0
  0
LINE
  5
2BEF
330
2
100
AcDbEntity
  8
0
100
AcDbLine
 10
913.9561451394328
 20
563.1975102261593
 30
0.0
 11
750.4561451394327
 21
563.1975102261502
 31
0.0
  0
LINE
  5
2BF0
330
2
100
AcDbEntity
  8
0
100
AcDbLine
 10
750.4561451394327
 20
563.1975102261575
 30
0.0
 11
913.9561451394328
 21
563.1975102261466
 31
0.0
  0
LINE
  5
2BF1
330
2
100
AcDbEntity
  8
0
100
AcDbLine
 10
751.1237505254301
 20
486.6975102256136
 30
0.0
 11
869.7841763195482
 21
486.6975102256154
 31
0.0
  0
LINE
  5
2BF2
330
2
100
AcDbEntity
  8
0
100
AcDbLine
 10
755.4561451394327
 20
481.6975102256136
 30
0.0
 11
865.4561451394327
 21
481.6975102256136
 31
0.0
  0
LINE
  5
2BF3
330
2
100
AcDbEntity
  8
0
100
AcDbLine
 10
760.4561451394309
 20
562.6975102207824
 30
0.0
 11
760.4561451394309
 21
488.1975102207824
 31
0.0
  0
LINE
  5
2BF4
330
2
100
AcDbEntity
  8
0
100
AcDbLine
 10
764.4561451394328
 20
562.6975102207824
 30
0.0
 11
764.4561451394309
 21
488.1975102207824
 31
0.0
  0
LINE
  5
2BF5
330
2
100
AcDbEntity
  8
0
100
AcDbLine
 10
787.4521167177553
 20
562.6975102207824
 30
0.0
 11
787.4521167177534
 21
488.1975102207824
 31
0.0
  0
LINE
  5
2BF6
330
2
100
AcDbEntity
  8
0
100
AcDbLine
 10
751.1237505254301
 20
486.6975102256136
 30
0.0
 11
750.4561451394327
 21
563.1975102261575
 31
0.0
  0
LINE
  5
2BF7
330
2
100
AcDbEntity
  8
0
100
AcDbLine
 10
770.034658470973
 20
479.7673092190187
 30
0.0
 11
770.3887410350088
 21
469.6277112322085
 31
0.0
  0
LINE
  5
2BF8
330
2
100
AcDbEntity
  8
0
100
AcDbLine
 10
795.4561451394328
 20
465.6975102207824
 30
0.0
 11
794.8787948702427
 21
466.6975102207824
 31
0.0
  0
ARC
  5
2BF9
330
2
100
AcDbEntity
  8
0
100
AcDbCircle
 10
772.3875226890466
 20
469.6975102256137
 30
0.0
 40
2.0
100
AcDbArc
 50
182.0000000000036
 51
270.0
  0
ARC
  5
2BFA
330
2
100
AcDbEntity
  8
0
100
AcDbCircle
 10
789.2448202740287
 20
467.1975102207824
 30
0.0
 40
0.5
100
AcDbArc
 50
209.9999999999932
 51
270.0
  0
ARC
  5
2BFB
330
2
100
AcDbEntity
  8
0
100
AcDbCircle
 10
790.4561451394328
 20
468.0994340094283
 30
0.0
 40
2.0
100
AcDbArc
 50
191.5932136234848
 51
209.9999999999932
  0
LINE
  5
2BFC
330
2
100
AcDbEntity
  8
0
100
AcDbLine
 10
788.7240943318646
 20
467.0994340094283
 30
0.0
 11
788.8118075721357
 21
466.9475102207824
 31
0.0
  0
LINE
  5
2BFD
330
2
100
AcDbEntity
  8
0
100
AcDbLine
 10
755.4561451394327
 20
481.6975102256136
 30
0.0
 11
755.4561451394327
 21
486.6975102256136
 31
0.0
  0
ARC
  5
2BFE
330
2
100
AcDbEntity
  8
0
100
AcDbCircle
 10
768.0358768169352
 20
479.6975102256136
 30
0.0
 40
2.0
100
AcDbArc
 50
2.000000000003612
 51
90.0
  0
LINE
  5
2BFF
330
2
100
AcDbEntity
  8
CENTER
  6
CENS
100
AcDbLine
 10
760.4561451394528
 20
556.9235182363944
 30
0.0
 11
760.4561451394528
 21
586.1975102263012
 31
0.0
  0
LINE
  5
2C00
330
2
100
AcDbEntity
  8
0
100
AcDbLine
 10
787.4521167177371
 20
577.7149632971567
 30
0.0
 11
787.4521167177371
 21
563.197510226152
 31
0.0
  0
LINE
  5
2C01
330
2
100
AcDbEntity
  8
0
100
AcDbLine
 10
760.4561451394328
 20
572.206236761799
 30
0.0
 11
760.4561451394328
 21
563.1975102261502
 31
0.0
  0
LINE
  5
2C02
330
2
100
AcDbEntity
  8
0
100
AcDbLine
 10
764.4561451394364
 20
572.206236761799
 30
0.0
 11
764.4561451394364
 21
563.1975102261502
 31
0.0
  0
LINE
  5
2C03
330
2
100
AcDbEntity
  8
0
100
AcDbLine
 10
750.4561451394327
 20
563.1975102261502
 30
0.0
 11
750.5828370330435
 21
577.7149632971567
 31
0.0
  0
ARC
  5
2C04
330
2
100
AcDbEntity
  8
HIDS
100
AcDbCircle
 10
765.2845722641794
 20
579.6975102261593
 30
0.0
 40
2.0
100
AcDbArc
 50
90.0
 51
135.0000000000092
  0
LINE
  5
2C05
330
2
100
AcDbEntity
  8
0
100
AcDbLine
 10
768.4604895341362
 20
573.1975102263012
 30
0.0
 11
751.5347250279372
 21
573.1975102263012
 31
0.0
  0
LINE
  5
2C06
330
2
100
AcDbEntity
  8
0
100
AcDbLine
 10
754.8221705432369
 20
583.1975102263012
 30
0.0
 11
766.0901197356669
 21
583.1975102263012
 31
0.0
  0
LINE
  5
2C07
330
2
100
AcDbEntity
  8
0
100
AcDbLine
 10
753.9561451394527
 20
573.1975102263012
 30
0.0
 11
766.9561451394528
 21
573.1975102263012
 31
0.0
  0
LINE
  5
2C08
330
2
100
AcDbEntity
  8
0
100
AcDbLine
 10
753.9561451394527
 20
575.1975102263012
 30
0.0
 11
766.9561451394528
 21
575.1975102262994
 31
0.0
  0
LINE
  5
2C09
330
2
100
AcDbEntity
  8
0
100
AcDbLine
 10
753.9561451394527
 20
582.6975102263012
 30
0.0
 11
766.9561451394528
 21
582.6975102263012
 31
0.0
  0
LINE
  5
2C0A
330
2
100
AcDbEntity
  8
HIDS
100
AcDbLine
 10
766.9561451394528
 20
579.6975102261593
 30
0.0
 11
753.9561451394527
 21
579.6975102261593
 31
0.0
  0
LINE
  5
2C0B
330
2
100
AcDbEntity
  8
HIDS
100
AcDbLine
 10
763.0419315770595
 20
580.2832966637859
 30
0.0
 11
763.8703587018061
 21
581.1117237885326
 31
0.0
  0
ARC
  5
2C0C
330
2
100
AcDbEntity
  8
HIDS
100
AcDbCircle
 10
761.6277180146861
 20
581.6975102261593
 30
0.0
 40
2.0
100
AcDbArc
 50
270.0
 51
315.0000000000092
  0
LINE
  5
2C0D
330
2
100
AcDbEntity
  8
0
100
AcDbLine
 10
753.9561451394527
 20
579.6975102261593
 30
0.0
 11
752.5827608791713
 21
579.6975102261593
 31
0.0
  0
ARC
  5
2C0E
330
2
100
AcDbEntity
  8
0
100
AcDbCircle
 10
751.5347250279372
 20
572.1975102263012
 30
0.0
 40
1.0
100
AcDbArc
 50
90.0
 51
179.5000000000344
  0
ARC
  5
2C0F
330
2
100
AcDbEntity
  8
0
100
AcDbCircle
 10
752.5827608791713
 20
577.6975102261594
 30
0.0
 40
2.0
100
AcDbArc
 50
90.0
 51
179.5000000000344
  0
LINE
  5
2C10
330
2
100
AcDbEntity
  8
0
100
AcDbLine
 10
753.9561451394527
 20
582.6975102263012
 30
0.0
 11
754.8221705432369
 21
583.1975102263012
 31
0.0
  0
LINE
  5
2C11
330
2
100
AcDbEntity
  8
0
100
AcDbLine
 10
753.9561451394527
 20
573.1975102263012
 30
0.0
 11
753.9561451394527
 21
575.1975102263012
 31
0.0
  0
LINE
  5
2C12
330
2
100
AcDbEntity
  8
0
100
AcDbLine
 10
753.9561451394527
 20
575.1975102263012
 30
0.0
 11
753.9561451394527
 21
582.6975102263012
 31
0.0
  0
ARC
  5
2C13
330
2
100
AcDbEntity
  8
0
100
AcDbCircle
 10
773.1561451394335
 20
587.89751022616
 30
0.0
 40
0.2
100
AcDbArc
 50
180.0
 51
270.0
  0
ARC
  5
2C14
330
2
100
AcDbEntity
  8
0
100
AcDbCircle
 10
773.4561451394328
 20
587.4975102261604
 30
0.0
 40
0.2
100
AcDbArc
 50
0.0
 51
90.0
  0
ARC
  5
2C15
330
2
100
AcDbEntity
  8
0
100
AcDbCircle
 10
773.4561451394328
 20
585.8975102261601
 30
0.0
 40
0.2
100
AcDbArc
 50
270.0
 51
0.0
  0
LINE
  5
2C16
330
2
100
AcDbEntity
  8
0
100
AcDbLine
 10
768.9604704956708
 20
573.6931469585514
 30
0.0
 11
768.995568355136
 21
577.7149632971567
 31
0.0
  0
ARC
  5
2C17
330
2
100
AcDbEntity
  8
0
100
AcDbCircle
 10
768.4604895341362
 20
573.6975102263012
 30
0.0
 40
0.5
100
AcDbArc
 50
270.0
 51
359.5000000000345
  0
ARC
  5
2C18
330
2
100
AcDbEntity
  8
0
100
AcDbCircle
 10
770.9954922012638
 20
577.6975102261594
 30
0.0
 40
2.0
100
AcDbArc
 50
90.0
 51
179.5000000000344
  0
LINE
  5
2C19
330
2
100
AcDbEntity
  8
0
100
AcDbLine
 10
766.9561451394528
 20
582.6975102263012
 30
0.0
 11
766.0901197356669
 21
583.1975102263012
 31
0.0
  0
LINE
  5
2C1A
330
2
100
AcDbEntity
  8
0
100
AcDbLine
 10
766.9561451394528
 20
573.1975102263012
 30
0.0
 11
766.9561451394528
 21
575.1975102263012
 31
0.0
  0
LINE
  5
2C1B
330
2
100
AcDbEntity
  8
0
100
AcDbLine
 10
766.9561451394528
 20
575.1975102263012
 30
0.0
 11
766.9561451394528
 21
582.6975102263012
 31
0.0
  0
LINE
  5
2C1C
330
2
100
AcDbEntity
  8
HIDS
100
AcDbLine
 10
765.2845722641794
 20
581.6975102261593
 30
0.0
 11
766.956145139451
 21
581.6975102261593
 31
0.0
  0
LINE
  5
2C1D
330
2
100
AcDbEntity
  8
0
100
AcDbLine
 10
772.9561451394328
 20
585.4975102261604
 30
0.0
 11
772.9561451394328
 21
582.1975102261593
 31
0.0
  0
LINE
  5
2C1E
330
2
100
AcDbEntity
  8
0
100
AcDbLine
 10
770.4561451394328
 20
581.6975102261593
 30
0.0
 11
770.9561451394328
 21
582.1975102261593
 31
0.0
  0
LINE
  5
2C1F
330
2
100
AcDbEntity
  8
0
100
AcDbLine
 10
772.9561451394328
 20
589.1975102261593
 30
0.0
 11
772.9561451394328
 21
587.89751022616
 31
0.0
  0
LINE
  5
2C20
330
2
100
AcDbEntity
  8
0
100
AcDbLine
 10
773.6561451394335
 20
587.4975102261604
 30
0.0
 11
773.6561451394335
 21
585.8975102261601
 31
0.0
  0
LINE
  5
2C21
330
2
100
AcDbEntity
  8
0
100
AcDbLine
 10
773.1561451394335
 20
585.6975102261593
 30
0.0
 11
772.9561451394328
 21
585.4975102261604
 31
0.0
  0
LINE
  5
2C22
330
2
100
AcDbEntity
  8
0
100
AcDbLine
 10
772.9561451394328
 20
589.1975102261593
 30
0.0
 11
773.5334954086227
 21
590.1975102261594
 31
0.0
  0
LINE
  5
2C23
330
2
100
AcDbEntity
  8
0
100
AcDbLine
 10
932.2896437772723
 20
503.6189793758556
 30
0.0
 11
931.5543815707531
 21
531.6975102207824
 31
0.0
  0
LINE
  5
2C24
330
2
100
AcDbEntity
  8
0
100
AcDbLine
 10
913.8730875847778
 20
490.6800571546178
 30
0.0
 11
914.2310414748225
 21
531.6975102256136
 31
0.0
  0
LINE
  5
2C25
330
2
100
AcDbEntity
  8
0
100
AcDbLine
 10
856.4561451394347
 20
562.6975102207824
 30
0.0
 11
856.4561451394347
 21
488.1975102207824
 31
0.0
  0
LINE
  5
2C26
330
2
100
AcDbEntity
  8
0
100
AcDbLine
 10
833.4601735611121
 20
562.6975102207824
 30
0.0
 11
833.4601735611121
 21
488.1975102207824
 31
0.0
  0
LINE
  5
2C27
330
2
100
AcDbEntity
  8
0
100
AcDbLine
 10
860.4561451394346
 20
562.6975102207824
 30
0.0
 11
860.4561451394346
 21
488.1975102207824
 31
0.0
  0
LINE
  5
2C28
330
2
100
AcDbEntity
  8
0
100
AcDbLine
 10
870.4517817055457
 20
563.1975102261484
 30
0.0
 11
869.7841763195482
 21
486.6975102256154
 31
0.0
  0
LINE
  5
2C29
330
2
100
AcDbEntity
  8
0
100
AcDbLine
 10
850.8776318078943
 20
479.7673092190187
 30
0.0
 11
850.5235492438568
 21
469.6277112322085
 31
0.0
  0
ARC
  5
2C2A
330
2
100
AcDbEntity
  8
0
100
AcDbCircle
 10
831.6674700048388
 20
467.1975102207824
 30
0.0
 40
0.5
100
AcDbArc
 50
270.0
 51
330.0000000000067
  0
ARC
  5
2C2B
330
2
100
AcDbEntity
  8
0
100
AcDbCircle
 10
830.4561451394327
 20
468.0994340094283
 30
0.0
 40
2.0
100
AcDbArc
 50
330.0000000000067
 51
348.4067863765151
  0
LINE
  5
2C2C
330
2
100
AcDbEntity
  8
0
100
AcDbLine
 10
832.1881959470028
 20
467.0994340094283
 30
0.0
 11
832.1004827067316
 21
466.9475102207824
 31
0.0
  0
LINE
  5
2C2D
330
2
100
AcDbEntity
  8
0
100
AcDbLine
 10
825.4561451394328
 20
465.6975102207824
 30
0.0
 11
826.0334954086228
 21
466.6975102207824
 31
0.0
  0
ARC
  5
2C2E
330
2
100
AcDbEntity
  8
0
100
AcDbCircle
 10
848.524767589819
 20
469.6975102256137
 30
0.0
 40
2.0
100
AcDbArc
 50
270.0
 51
357.9999999999964
  0
LINE
  5
2C2F
330
2
100
AcDbEntity
  8
0
100
AcDbLine
 10
865.4561451394327
 20
481.6975102256154
 30
0.0
 11
865.4561451394327
 21
486.6975102256154
 31
0.0
  0
ARC
  5
2C30
330
2
100
AcDbEntity
  8
0
100
AcDbCircle
 10
852.8764134619322
 20
479.6975102256136
 30
0.0
 40
2.0
100
AcDbArc
 50
90.0
 51
177.9999999999963
  0
LINE
  5
2C31
330
2
100
AcDbEntity
  8
0
100
AcDbLine
 10
871.2885968710214
 20
488.6975102256155
 30
0.0
 11
911.8731637386494
 21
488.6975102256137
 31
0.0
  0
ARC
  5
2C32
330
2
100
AcDbEntity
  8
0
100
AcDbCircle
 10
871.2885968710214
 20
487.1975102256154
 30
0.0
 40
1.5
100
AcDbArc
 50
90.0
 51
179.5000000000344
  0
LINE
  5
2C33
330
2
100
AcDbEntity
  8
0
100
AcDbLine
 10
935.2886157521988
 20
500.6975102207824
 30
0.0
 11
938.7335015690622
 21
500.6975102207824
 31
0.0
  0
ARC
  5
2C34
330
2
100
AcDbEntity
  8
0
100
AcDbCircle
 10
927.3042560408629
 20
503.1975102207824
 30
0.0
 40
5.0
100
AcDbArc
 50
3.583321698471883
 51
90.0
  0
LINE
  5
2C35
330
2
100
AcDbEntity
  8
0
100
AcDbLine
 10
930.4152185797937
 20
503.1975102207824
 30
0.0
 11
916.9562593745849
 21
503.1975102207824
 31
0.0
  0
ARC
  5
2C37
330
2
100
AcDbEntity
  8
0
100
AcDbCircle
 10
916.956259374543
 20
500.1975102207824
 30
0.0
 40
3.0
100
AcDbArc
 50
90.0
 51
179.5000000000344
  0
ARC
  5
2C38
330
2
100
AcDbEntity
  8
0
100
AcDbCircle
 10
918.9825161346851
 20
503.1975102207824
 30
0.0
 40
5.0
100
AcDbArc
 50
90.0
 51
179.5000000000344
  0
LINE
  5
2C39
330
2
100
AcDbEntity
  8
0
100
AcDbLine
 10
927.3042560408629
 20
508.1975102207824
 30
0.0
 11
918.9825161346851
 21
508.1975102207824
 31
0.0
  0
ARC
  5
2C3A
330
2
100
AcDbEntity
  8
0
100
AcDbCircle
 10
930.4152185797937
 20
500.1975102207824
 30
0.0
 40
3.0
100
AcDbArc
 50
35.68533471271784
 51
90.0
  0
ARC
  5
2C3B
330
2
100
AcDbEntity
  8
0
100
AcDbCircle
 10
935.2886157521988
 20
503.6975102207824
 30
0.0
 40
3.0
100
AcDbArc
 50
181.5000000000939
 51
270.0
  0
ARC
  5
2C3C
330
2
100
AcDbEntity
  8
0
100
AcDbCircle
 10
868.4735227182427
 20
577.6975102261594
 30
0.0
 40
2.0
100
AcDbArc
 50
0.4999999999654926
 51
90.0
  0
LINE
  5
2C3D
330
2
100
AcDbEntity
  8
0
100
AcDbLine
 10
856.4561451394309
 20
577.7149632971567
 30
0.0
 11
856.4561451394309
 21
563.1975102261502
 31
0.0
  0
LINE
  5
2C3E
330
2
100
AcDbEntity
  8
0
100
AcDbLine
 10
833.4601735611284
 20
577.7149632971567
 30
0.0
 11
833.4601735611284
 21
563.197510226152
 31
0.0
  0
LINE
  5
2C3F
330
2
100
AcDbEntity
  8
0
100
AcDbLine
 10
860.4561451394346
 20
577.7149632971567
 30
0.0
 11
860.4561451394346
 21
563.1975102261502
 31
0.0
  0
ARC
  5
2C40
330
2
100
AcDbEntity
  8
0
100
AcDbCircle
 10
859.2845722641795
 20
581.6975102261593
 30
0.0
 40
2.0
100
AcDbArc
 50
224.9999999999908
 51
270.0
  0
LINE
  5
2C41
330
2
100
AcDbEntity
  8
0
100
AcDbLine
 10
857.8703587018061
 20
580.2832966637859
 30
0.0
 11
857.0419315770594
 21
581.1117237885326
 31
0.0
  0
ARC
  5
2C42
330
2
100
AcDbEntity
  8
0
100
AcDbCircle
 10
855.627718014688
 20
579.6975102261593
 30
0.0
 40
2.0
100
AcDbArc
 50
44.99999999999078
 51
90.0
  0
ARC
  5
2C43
330
2
100
AcDbEntity
  8
0
100
AcDbCircle
 10
847.7561451394338
 20
587.89751022616
 30
0.0
 40
0.2
100
AcDbArc
 50
270.0
 51
0.0
  0
ARC
  5
2C44
330
2
100
AcDbEntity
  8
0
100
AcDbCircle
 10
847.4561451394327
 20
587.4975102261604
 30
0.0
 40
0.2
100
AcDbArc
 50
90.0
 51
180.0
  0
ARC
  5
2C45
330
2
100
AcDbEntity
  8
0
100
AcDbCircle
 10
847.4561451394327
 20
585.8975102261601
 30
0.0
 40
0.2
100
AcDbArc
 50
180.0
 51
270.0
  0
LINE
  5
2C46
330
2
100
AcDbEntity
  8
0
100
AcDbLine
 10
847.9561451394328
 20
585.4975102261604
 30
0.0
 11
847.9561451394328
 21
582.1975102261593
 31
0.0
  0
LINE
  5
2C47
330
2
100
AcDbEntity
  8
0
100
AcDbLine
 10
850.4561451394328
 20
581.6975102261593
 30
0.0
 11
849.9561451394328
 21
582.1975102261593
 31
0.0
  0
LINE
  5
2C48
330
2
100
AcDbEntity
  8
0
100
AcDbLine
 10
847.9561451394328
 20
589.1975102261612
 30
0.0
 11
847.9561451394328
 21
587.89751022616
 31
0.0
  0
LINE
  5
2C49
330
2
100
AcDbEntity
  8
0
100
AcDbLine
 10
847.7561451394338
 20
585.6975102261611
 30
0.0
 11
847.9561451394328
 21
585.4975102261604
 31
0.0
  0
LINE
  5
2C4A
330
2
100
AcDbEntity
  8
0
100
AcDbLine
 10
847.2561451394339
 20
587.4975102261604
 30
0.0
 11
847.2561451394339
 21
585.8975102261601
 31
0.0
  0
LINE
  5
2C4B
330
2
100
AcDbEntity
  8
0
100
AcDbLine
 10
847.9561451394328
 20
589.1975102261593
 30
0.0
 11
847.3787948702428
 21
590.1975102261611
 31
0.0
  0
LINE
  5
2C4C
330
2
100
AcDbEntity
  8
CENTER
  6
CENS
100
AcDbLine
 10
905.9561451394509
 20
556.9235182363944
 30
0.0
 11
905.9561451394509
 21
586.1975102263012
 31
0.0
  0
LINE
  5
2C4D
330
2
100
AcDbEntity
  8
0
100
AcDbLine
 10
913.9561451394291
 20
563.1975102266996
 30
0.0
 11
913.8556338491961
 21
574.7149632971567
 31
0.0
  0
LINE
  5
2C4E
330
2
100
AcDbEntity
  8
0
100
AcDbLine
 10
870.4561451394328
 20
563.1975102261575
 30
0.0
 11
870.4561451394328
 21
577.9605849968874
 31
0.0
  0
LINE
  5
2C4F
330
2
100
AcDbEntity
  8
0
100
AcDbLine
 10
935.2886157521988
 20
562.6975102207824
 30
0.0
 11
938.7335015691968
 21
562.6975102207824
 31
0.0
  0
ARC
  5
2C50
330
2
100
AcDbEntity
  8
0
100
AcDbCircle
 10
928.6842828012176
 20
537.1975102207824
 30
0.0
 40
3.0
100
AcDbArc
 50
270.0
 51
358.5000000001145
  0
ARC
  5
2C51
330
2
100
AcDbEntity
  8
0
100
AcDbCircle
 10
927.3042560408629
 20
560.1975102207823
 30
0.0
 40
5.0
100
AcDbArc
 50
270.0
 51
356.4166783015281
  0
ARC
  5
2C52
330
2
100
AcDbEntity
  8
0
100
AcDbCircle
 10
928.6842828011321
 20
526.1975102207824
 30
0.0
 40
3.0
100
AcDbArc
 50
1.500000000093984
 51
90.0
  0
LINE
  5
2C53
330
2
100
AcDbEntity
  8
0
100
AcDbLine
 10
930.4152185797937
 20
560.1975102207823
 30
0.0
 11
916.9562593745885
 21
560.1975102207823
 31
0.0
  0
ARC
  5
2C54
330
2
100
AcDbEntity
  8
0
100
AcDbCircle
 10
907.7682515006708
 20
532.6975102207824
 30
0.0
 40
1.0
100
AcDbArc
 50
181.5000000001981
 51
270.0
  0
LINE
  5
2C55
330
2
100
AcDbEntity
  8
0
100
AcDbLine
 10
907.7682515006708
 20
531.6975102207824
 30
0.0
 11
913.9561451394328
 21
531.6975102207824
 31
0.0
  0
ARC
  5
2C56
330
2
100
AcDbEntity
  8
0
100
AcDbCircle
 10
918.9825161348052
 20
560.1975102207823
 30
0.0
 40
5.0
100
AcDbArc
 50
180.5000000005908
 51
270.0
  0
ARC
  5
2C57
330
2
100
AcDbEntity
  8
0
100
AcDbCircle
 10
917.1831579374428
 20
537.1975102207824
 30
0.0
 40
3.0
100
AcDbArc
 50
180.5000000005908
 51
270.0
  0
ARC
  5
2C58
330
2
100
AcDbEntity
  8
0
100
AcDbCircle
 10
917.1831579370918
 20
526.1975102207824
 30
0.0
 40
3.0
100
AcDbArc
 50
90.0
 51
179.5000000000344
  0
LINE
  5
2C59
330
2
100
AcDbEntity
  8
0
100
AcDbLine
 10
917.1831579370918
 20
529.1975102207824
 30
0.0
 11
928.6842828011321
 21
529.1975102207824
 31
0.0
  0
LINE
  5
2C5A
330
2
100
AcDbEntity
  8
0
100
AcDbLine
 10
917.1831579374428
 20
534.1975102207824
 30
0.0
 11
928.6842828012176
 21
534.1975102207824
 31
0.0
  0
LINE
  5
2C5B
330
2
100
AcDbEntity
  8
0
100
AcDbLine
 10
927.3042560408629
 20
555.1975102207824
 30
0.0
 11
918.9825161348052
 21
555.1975102207824
 31
0.0
  0
LINE
  5
2C5C
330
2
100
AcDbEntity
  8
0
100
AcDbLine
 10
905.9692381000767
 20
563.1975102261466
 30
0.0
 11
906.7685941756971
 21
532.671333272471
 31
0.0
  0
LINE
  5
2C5D
330
2
100
AcDbEntity
  8
0
100
AcDbLine
 10
913.9561451394328
 20
563.1975102256136
 30
0.0
 11
914.2310414751445
 21
531.6975102256136
 31
0.0
  0
ARC
  5
2C5E
330
2
100
AcDbEntity
  8
0
100
AcDbCircle
 10
916.9562593746322
 20
563.1975102207824
 30
0.0
 40
3.0
100
AcDbArc
 50
180.5000000005908
 51
270.0
  0
LINE
  5
2C5F
330
2
100
AcDbEntity
  8
0
100
AcDbLine
 10
932.2896437772723
 20
559.7760410657072
 30
0.0
 11
931.5543815708551
 21
531.6975102207824
 31
0.0
  0
ARC
  5
2C60
330
2
100
AcDbEntity
  8
0
100
AcDbCircle
 10
930.4152185797937
 20
563.1975102207824
 30
0.0
 40
3.0
100
AcDbArc
 50
270.0
 51
324.3146652872821
  0
ARC
  5
2C61
330
2
100
AcDbEntity
  8
0
100
AcDbCircle
 10
935.2886157521988
 20
559.6975102207824
 30
0.0
 40
3.0
100
AcDbArc
 50
90.0
 51
178.5000000001145
  0
LINE
  5
2C62
330
2
100
AcDbEntity
  8
0
100
AcDbLine
 10
900.3221705432368
 20
583.1975102263012
 30
0.0
 11
911.5901197356668
 21
583.1975102262994
 31
0.0
  0
LINE
  5
2C63
330
2
100
AcDbEntity
  8
0
100
AcDbLine
 10
899.456145139451
 20
573.1975102263012
 30
0.0
 11
912.4561451394511
 21
573.1975102263012
 31
0.0
  0
LINE
  5
2C64
330
2
100
AcDbEntity
  8
0
100
AcDbLine
 10
899.456145139451
 20
575.1975102262994
 30
0.0
 11
912.4561451394511
 21
575.1975102262994
 31
0.0
  0
LINE
  5
2C65
330
2
100
AcDbEntity
  8
0
100
AcDbLine
 10
899.456145139451
 20
582.6975102263012
 30
0.0
 11
912.4561451394511
 21
582.6975102262994
 31
0.0
  0
LINE
  5
2C66
330
2
100
AcDbEntity
  8
HIDS
100
AcDbLine
 10
911.8557100030683
 20
576.6975102261593
 30
0.0
 11
899.456145139451
 21
576.6975102261593
 31
0.0
  0
LINE
  5
2C67
330
2
100
AcDbEntity
  8
0
100
AcDbLine
 10
898.0348742997191
 20
573.1975102263012
 30
0.0
 11
912.8775652509302
 21
573.1975102263012
 31
0.0
  0
LINE
  5
2C68
330
2
100
AcDbEntity
  8
0
100
AcDbLine
 10
899.456145139451
 20
582.6975102263012
 30
0.0
 11
900.322170543235
 21
583.1975102262994
 31
0.0
  0
LINE
  5
2C69
330
2
100
AcDbEntity
  8
0
100
AcDbLine
 10
899.456145139451
 20
573.1975102263012
 30
0.0
 11
899.456145139451
 21
575.1975102263012
 31
0.0
  0
LINE
  5
2C6A
330
2
100
AcDbEntity
  8
0
100
AcDbLine
 10
899.456145139451
 20
575.1975102263012
 30
0.0
 11
899.456145139451
 21
582.6975102263012
 31
0.0
  0
ARC
  5
2C6B
330
2
100
AcDbEntity
  8
0
100
AcDbCircle
 10
871.4736369534001
 20
577.6975102261594
 30
0.0
 40
1.0
100
AcDbArc
 50
180.4999999999655
 51
270.0
  0
LINE
  5
2C6C
330
2
100
AcDbEntity
  8
0
100
AcDbLine
 10
870.4734465643722
 20
577.7149632971567
 30
0.0
 11
870.4736750303363
 21
577.6887836906616
 31
0.0
  0
LINE
  5
2C6D
330
2
100
AcDbEntity
  8
0
100
AcDbLine
 10
897.5350456372305
 20
573.6844217521474
 30
0.0
 11
897.507146046877
 21
574.7498641227801
 31
0.0
  0
ARC
  5
2C6E
330
2
100
AcDbEntity
  8
0
100
AcDbCircle
 10
898.0348742997191
 20
573.6975102263012
 30
0.0
 40
0.5
100
AcDbArc
 50
181.4999999999897
 51
270.0
  0
ARC
  5
2C6F
330
2
100
AcDbEntity
  8
0
100
AcDbCircle
 10
895.5078313969259
 20
574.6975102261647
 30
0.0
 40
2.0
100
AcDbArc
 50
1.499999999989714
 51
90.0
  0
LINE
  5
2C70
330
2
100
AcDbEntity
  8
0
100
AcDbLine
 10
899.456145139451
 20
576.6975102261593
 30
0.0
 11
871.4736369534001
 21
576.6975102261593
 31
0.0
  0
LINE
  5
2C71
330
2
100
AcDbEntity
  8
0
100
AcDbLine
 10
912.4561451394511
 20
582.6975102262994
 30
0.0
 11
911.5901197356668
 21
583.1975102262994
 31
0.0
  0
LINE
  5
2C72
330
2
100
AcDbEntity
  8
0
100
AcDbLine
 10
912.4561451394511
 20
573.1975102262993
 30
0.0
 11
912.4561451394511
 21
575.1975102262994
 31
0.0
  0
LINE
  5
2C73
330
2
100
AcDbEntity
  8
0
100
AcDbLine
 10
912.4561451394511
 20
575.1975102262994
 30
0.0
 11
912.4561451394511
 21
582.6975102262994
 31
0.0
  0
ARC
  5
2C74
330
2
100
AcDbEntity
  8
0
100
AcDbCircle
 10
911.8557100030683
 20
574.6975102261593
 30
0.0
 40
2.0
100
AcDbArc
 50
0.4999999999654926
 51
72.52932876219034
  0
ARC
  5
2C75
330
2
100
AcDbEntity
  8
HIDS
100
AcDbCircle
 10
911.8557100030683
 20
574.6975102261593
 30
0.0
 40
2.0
100
AcDbArc
 50
72.52932876219034
 51
90.0
  0
ARC
  5
2C76
330
2
100
AcDbEntity
  8
0
100
AcDbCircle
 10
912.8775652509302
 20
572.1975102263012
 30
0.0
 40
1.0
100
AcDbArc
 50
0.4999999999654926
 51
90.0
  0
LINE
  5
2C77
330
2
100
AcDbEntity
  8
0
100
AcDbLine
 10
942.7925223550154
 20
531.6975102207824
 30
0.0
 11
943.8151442312554
 21
492.645156324167
 31
0.0
  0
LINE
  5
2C79
330
2
100
AcDbEntity
  8
0
100
AcDbLine
 10
955.8661451394344
 20
490.6975102207824
 30
0.0
 11
945.8144588812064
 21
490.6975102207824
 31
0.0
  0
ARC
  5
2C7A
330
2
100
AcDbEntity
  8
0
100
AcDbCircle
 10
945.8144588812064
 20
492.6975102207824
 30
0.0
 40
2.0
100
AcDbArc
 50
181.4999999999897
 51
270.0
  0
LINE
  5
2C7B
330
2
100
AcDbEntity
  8
0
100
AcDbLine
 10
943.8151442313955
 20
570.7498641174033
 30
0.0
 11
942.7925223550699
 21
531.6975102207824
 31
0.0
  0
LINE
  5
2C7C
330
2
100
AcDbEntity
  8
0
100
AcDbLine
 10
942.7925223550428
 20
531.6975102197401
 30
0.0
 11
955.8661451394344
 21
531.6975102207824
 31
0.0
  0
LINE
  5
2C7D
330
2
100
AcDbEntity
  8
0
100
AcDbLine
 10
945.8144588813464
 20
572.6975102207823
 30
0.0
 11
955.8661451394344
 21
572.6975102207823
 31
0.0
  0
ARC
  5
2C7E
330
2
100
AcDbEntity
  8
0
100
AcDbCircle
 10
945.8144588813464
 20
570.6975102207824
 30
0.0
 40
2.0
100
AcDbArc
 50
90.0
 51
178.499999999906
  0
LINE
  5
38C5
330
2
100
AcDbEntity
  8
0
100
AcDbLine
 10
410.6431561668277
 20
191.8078544428686
 30
0.0
 11
410.6431561668277
 21
194.9418290390827
 31
0.0
  0
LINE
  5
38C6
330
2
100
AcDbEntity
  8
0
100
AcDbLine
 10
411.1431561668277
 20
195.8078544428668
 30
0.0
 11
410.6431561668277
 21
194.9418290390827
 31
0.0
  0
LINE
  5
38C7
330
2
100
AcDbEntity
  8
0
100
AcDbLine
 10
412.1431561668282
 20
195.8078544428668
 30
0.0
 11
411.1431561668277
 21
195.8078544428668
 31
0.0
  0
LINE
  5
38C8
330
2
100
AcDbEntity
  8
0
100
AcDbLine
 10
411.1431561668277
 20
191.8078544428686
 30
0.0
 11
411.1431561668277
 21
195.8078544428668
 31
0.0
  0
LINE
  5
38C9
330
2
100
AcDbEntity
  8
0
100
AcDbLine
 10
410.6431561668277
 20
116.8078544428686
 30
0.0
 11
410.6431561668277
 21
113.6738798466545
 31
0.0
  0
LINE
  5
38CA
330
2
100
AcDbEntity
  8
0
100
AcDbLine
 10
411.1431561668277
 20
112.8078544428704
 30
0.0
 11
410.6431561668277
 21
113.6738798466545
 31
0.0
  0
LINE
  5
38CB
330
2
100
AcDbEntity
  8
0
100
AcDbLine
 10
412.1431561668282
 20
112.8078544428704
 30
0.0
 11
411.1431561668277
 21
112.8078544428704
 31
0.0
  0
LINE
  5
38CE
330
2
100
AcDbEntity
  8
0
100
AcDbLine
 10
411.1431561668277
 20
116.8078544428686
 30
0.0
 11
411.1431561668277
 21
112.8078544428704
 31
0.0
  0
CIRCLE
  5
392F
330
2
100
AcDbEntity
  8
0
100
AcDbCircle
 10
810.4561451394159
 20
154.3078544428669
 30
0.0
 40
33.07735
  0
ARC
  5
3934
330
2
100
AcDbEntity
  8
0
100
AcDbCircle
 10
911.8731637386495
 20
490.6975102256136
 30
0.0
 40
2.0
100
AcDbArc
 50
269.9999999999974
 51
359.500000000027
  0
ARC
  5
3939
330
2
100
AcDbEntity
  8
0
100
AcDbCircle
 10
965.8661451394344
 20
570.6101653861028
 30
0.0
 40
2.0
100
AcDbArc
 50
0.0
 51
89.49999999999816
  0
ARC
  5
393C
330
2
100
AcDbEntity
  8
0
100
AcDbCircle
 10
965.8661451394344
 20
492.7848550554609
 30
0.0
 40
2.0
100
AcDbArc
 50
270.4999999999971
 51
0.0
  0
ARC
  5
393D
330
2
100
AcDbEntity
  8
0
100
AcDbCircle
 10
965.8661451394321
 20
193.2205096081901
 30
0.0
 40
2.0
100
AcDbArc
 50
0.0
 51
89.50000000000288
  0
ARC
  5
393E
330
2
100
AcDbEntity
  8
0
100
AcDbCircle
 10
965.8661451394321
 20
115.3951992775479
 30
0.0
 40
2.0
100
AcDbArc
 50
270.5000000000018
 51
0.0
  0
ARC
  5
393F
330
2
100
AcDbEntity
  8
0
100
AcDbCircle
 10
82.86246813553862
 20
193.2205096081901
 30
0.0
 40
2.0
100
AcDbArc
 50
90.49999999999714
 51
180.0
  0
ARC
  5
3940
330
2
100
AcDbEntity
  8
0
100
AcDbCircle
 10
82.86246813553862
 20
115.395199277548
 30
0.0
 40
2.0
100
AcDbArc
 50
180.0
 51
269.4999999999981
  0
ARC
  5
3941
330
2
100
AcDbEntity
  8
0
100
AcDbCircle
 10
55.18471589061575
 20
183.8219021747327
 30
0.0
 40
2.0
100
AcDbArc
 50
90.99999999999965
 51
133.9822385472697
  0
ARC
  5
3942
330
2
100
AcDbEntity
  8
0
100
AcDbCircle
 10
55.18471589061577
 20
124.7938067110044
 30
0.0
 40
2.0
100
AcDbArc
 50
226.0177614527302
 51
268.9999999999976
  0
ARC
  5
3943
330
2
100
AcDbEntity
  8
0
100
AcDbCircle
 10
993.5438973843549
 20
183.8219021747327
 30
0.0
 40
2.0
100
AcDbArc
 50
46.0177614527303
 51
89.00000000000034
  0
ARC
  5
3944
330
2
100
AcDbEntity
  8
0
100
AcDbCircle
 10
993.5438973843551
 20
124.7938067110044
 30
0.0
 40
2.0
100
AcDbArc
 50
271.0000000000023
 51
313.9822385472697
  0
ARC
  5
3957
330
2
100
AcDbEntity
  8
0
100
AcDbCircle
 10
993.5438973843572
 20
561.2115579526464
 30
0.0
 40
2.0
100
AcDbArc
 50
46.0177614527303
 51
89.00000000000034
  0
ARC
  5
3958
330
2
100
AcDbEntity
  8
0
100
AcDbCircle
 10
993.543897384357
 20
502.1834624889173
 30
0.0
 40
2.0
100
AcDbArc
 50
270.9999999999969
 51
313.9822385472876
  0
ENDSEC
  0
SECTION
  2
OBJECTS
  0
DICTIONARY
  5
7
330
0
100
AcDbDictionary
  3
ACAD_COLOR
350
3899
  3
ACAD_GROUP
350
75
  3
ACAD_LAYOUT
350
61
  3
ACAD_MATERIAL
350
386F
  3
ACAD_MLEADERSTYLE
350
38BE
  3
ACAD_MLINESTYLE
350
76
  3
ACAD_PLOTSETTINGS
350
77
  3
ACAD_PLOTSTYLENAME
350
6
  3
ACAD_SCALELIST
350
389C
  3
ACAD_TABLESTYLE
350
389A
  3
ACAD_VISUALSTYLE
350
3888
  3
ACADDIM
350
480
  3
ACDB_RECOMPOSE_DATA
350
3905
  3
ACDBHEADERROUNDTRIPXREC
350
398E
  3
ACDBVARIABLEDICTIONARY
350
102
  3
DWGPROPS
350
395A
  0
DICTIONARY
  5
390E
330
6E
100
AcDbDictionary
280
     1
  3
ACAD_XREC_ROUNDTRIP
360
3962
  0
DICTIONARY
  5
B16
330
66
100
AcDbDictionary
280
     1
  3
ACAD_LAYERSTATES
360
B17
  0
DICTIONARY
  5
38CF
330
5E
100
AcDbDictionary
280
     1
  3
ACAD_XREC_ROUNDTRIP
360
395D
  3
ADSK_XREC_LAYER_RECONCILED
360
38D0
  0
DICTIONARY
  5
38D1
330
3E
100
AcDbDictionary
280
     1
  3
ACAD_XREC_ROUNDTRIP
360
395C
  3
ADSK_XREC_LAYER_RECONCILED
360
38D2
  0
DICTIONARY
  5
38D7
330
2B5
100
AcDbDictionary
280
     1
  3
ACAD_XREC_ROUNDTRIP
360
3968
  3
ADSK_XREC_LAYER_RECONCILED
360
38D8
  0
DICTIONARY
  5
38D9
330
2BA
100
AcDbDictionary
280
     1
  3
ACAD_XREC_ROUNDTRIP
360
3969
  3
ADSK_XREC_LAYER_RECONCILED
360
38DA
  0
DICTIONARY
  5
38DD
330
3FA
100
AcDbDictionary
280
     1
  3
ACAD_XREC_ROUNDTRIP
360
396B
  3
ADSK_XREC_LAYER_RECONCILED
360
38DE
  0
DICTIONARY
  5
393A
330
2
100
AcDbDictionary
280
     1
  3
ACAD_LAYOUTSELFREF
360
39AF
  3
ACAD_SORTENTS
360
393B
  0
DICTIONARY
  5
39B0
330
3988
100
AcDbDictionary
280
     1
  3
ACAD_LAYOUTSELFREF
360
39B1
  0
DICTIONARY
  5
3899
102
{ACAD_REACTORS
330
7
102
}
330
7
100
AcDbDictionary
  0
DICTIONARY
  5
75
102
{ACAD_REACTORS
330
7
102
}
330
7
100
AcDbDictionary
  0
DICTIONARY
  5
61
102
{ACAD_REACTORS
330
7
102
}
330
7
100
AcDbDictionary
  0
DICTIONARY
  5
386F
102
{ACAD_REACTORS
330
7
102
}
330
7
100
AcDbDictionary
  3
BYBLOCK
350
3878
  3
BYLAYER
350
3870
  3
GLOBAL
350
3880
  0
DICTIONARY
  5
38BE
102
{ACAD_REACTORS
330
7
102
}
330
7
100
AcDbDictionary
  3
STANDARD
350
38BF
  0
DICTIONARY
  5
76
102
{ACAD_REACTORS
330
7
102
}
330
7
100
AcDbDictionary
  3
STANDARD
350
78
  0
DICTIONARY
  5
77
102
{ACAD_REACTORS
330
7
102
}
330
7
100
AcDbDictionary
  0
ACDBDICTIONARYWDFLT
  5
6
102
{ACAD_REACTORS
330
7
102
}
330
7
100
AcDbDictionary
281
     1
  3
Normal
350
5
100
AcDbDictionaryWithDefault
340
5
  0
DICTIONARY
  5
389C
102
{ACAD_REACTORS
330
7
102
}
330
7
100
AcDbDictionary
  3
A0
350
389D
  3
A1
350
389E
  3
A2
350
389F
  3
A3
350
38A0
  3
A4
350
38A1
  3
A5
350
38A2
  3
A6
350
38A3
  3
A7
350
38A4
  3
A8
350
38A5
  3
A9
350
38A6
  3
B0
350
38A7
  3
B1
350
38A8
  3
B2
350
38A9
  3
B3
350
38AA
  3
B4
350
38AB
  3
B5
350
38AC
  3
B6
350
38AD
  3
B7
350
38AE
  3
B8
350
38AF
  3
B9
350
38B0
  3
C0
350
38B1
  3
C1
350
38B2
  3
C2
350
38B3
  3
C3
350
38B4
  3
C4
350
38B5
  3
C5
350
38B6
  3
C6
350
38B7
  3
C7
350
38B8
  3
C8
350
38B9
  3
C9
350
38BA
  3
D0
350
38BB
  3
D1
350
38BC
  3
D2
350
38BD
  0
DICTIONARY
  5
389A
102
{ACAD_REACTORS
330
7
102
}
330
7
100
AcDbDictionary
  3
STANDARD
350
389B
  0
DICTIONARY
  5
3888
102
{ACAD_REACTORS
330
7
102
}
330
7
100
AcDbDictionary
  3
2DWIREFRAME
350
388E
  3
3D_HIDDEN
350
3890
  3
3DWIREFRAME
350
388F
  3
BASIC
350
388D
  3
BRIGHTEN
350
3894
  3
COLORCHANGE
350
3898
  3
CONCEPTUAL
350
3891
  3
DIM
350
3893
  3
FACEPATTERN
350
3897
  3
FLAT
350
3889
  3
FLATWITHEDGES
350
388A
  3
GOURAUD
350
388B
  3
GOURAUDWITHEDGES
350
388C
  3
LINEPATTERN
350
3896
  3
REALISTIC
350
3892
  3
THICKEN
350
3895
  0
XRECORD
  5
480
102
{ACAD_REACTORS
330
7
102
}
330
7
100
AcDbXrecord
 90
   990106
  3

 60
     0
 61
     0
 62
     1
 63
     3
 64
     1
 65
     0
 66
     0
 67
     3
 68
     1
 69
     0
 70
     0
 71
     0
 72
     0
 40
0.0
170
     2
340
0
  0
XRECORD
  5
3905
102
{ACAD_REACTORS
330
7
102
}
330
7
100
AcDbXrecord
 90
        1
330
389B
  0
DICTIONARY
  5
398E
102
{ACAD_REACTORS
330
7
102
}
330
7
100
AcDbDictionary
  3
CEPSNTYPE
350
3998
  3
DIMSTYLEDATA
350
399C
  3
FINGERPRINTGUID
350
3999
  3
HYPERLINKBASE
350
3991
  3
INSUNITS
350
3997
  3
LAYOUTDICT
350
3993
  3
LWETCUNION
350
3996
  3
PLOTSETDICT
350
3994
  3
PLOTSTYLNAMDICT
350
3995
  3
PSVPSCALE
350
399B
  3
PUCSBASE
350
399F
  3
PUCSORGBACK
350
39A5
  3
PUCSORGBOTTOM
350
39A1
  3
PUCSORGFRONT
350
39A4
  3
PUCSORGLEFT
350
39A2
  3
PUCSORGRIGHT
350
39A3
  3
PUCSORGTOP
350
39A0
  3
PUCSORTHOREF
350
399D
  3
PUCSORTHOVIEW
350
399E
  3
STYLESHEET
350
3992
  3
TSTACKALIGN
350
398F
  3
TSTACKSIZE
350
3990
  3
UCSBASE
350
39A8
  3
UCSORGBACK
350
39AE
  3
UCSORGBOTTOM
350
39AA
  3
UCSORGFRONT
350
39AD
  3
UCSORGLEFT
350
39AB
  3
UCSORGRIGHT
350
39AC
  3
UCSORGTOP
350
39A9
  3
UCSORTHOREF
350
39A6
  3
UCSORTHOVIEW
350
39A7
  3
VERSIONGUID
350
399A
  0
DICTIONARY
  5
102
102
{ACAD_REACTORS
330
7
102
}
330
7
100
AcDbDictionary
  3
CANNOSCALE
350
3925
  3
CMLEADERSTYLE
350
3924
  3
CTABLESTYLE
350
3923
  3
DIMASSOC
350
103
  3
INDEXCTL
350
3926
  3
SORTENTS
350
549
  0
XRECORD
  5
395A
102
{ACAD_REACTORS
330
7
102
}
330
7
100
AcDbXrecord
  1
DWGPROPS COOKIE
  2

  3

  4

  6

  7

  8
ymorima
  9

300
=
301
=
302
=
303
=
304
=
305
=
306
=
307
=
308
=
309
=
 40
0.0562349768518519
 41
2454412.723801354
 42
2454424.46026294
  1

 90
        0
  0
XRECORD
  5
3962
102
{ACAD_REACTORS
330
390E
102
}
330
390E
100
AcDbXrecord
102
VTR_0.000_0.000_1.000_1.000_VISUALSTYLE
340
388E
102
VTR_0.000_0.000_1.000_1.000_GRIDDISPLAY
 70
     3
102
VTR_0.000_0.000_1.000_1.000_GRIDMAJOR
 70
     5
102
VTR_0.000_0.000_1.000_1.000_DEFAULTLIGHTING
280
     1
102
VTR_0.000_0.000_1.000_1.000_DEFAULTLIGHTINGTYPE
 70
     1
102
VTR_0.000_0.000_1.000_1.000_BRIGHTNESS
141
0.0
102
VTR_0.000_0.000_1.000_1.000_CONTRAST
142
0.0
  0
DICTIONARY
  5
B17
102
{ACAD_REACTORS
330
B16
102
}
330
B16
100
AcDbDictionary
  0
XRECORD
  5
395D
102
{ACAD_REACTORS
330
38CF
102
}
330
38CF
100
AcDbXrecord
102
MATERIAL
340
3880
  0
XRECORD
  5
38D0
102
{ACAD_REACTORS
330
38CF
102
}
330
38CF
100
AcDbXrecord
290
     1
  0
XRECORD
  5
395C
102
{ACAD_REACTORS
330
38D1
102
}
330
38D1
100
AcDbXrecord
102
MATERIAL
340
3880
  0
XRECORD
  5
38D2
102
{ACAD_REACTORS
330
38D1
102
}
330
38D1
100
AcDbXrecord
290
     1
  0
XRECORD
  5
3968
102
{ACAD_REACTORS
330
38D7
102
}
330
38D7
100
AcDbXrecord
102
MATERIAL
340
3880
  0
XRECORD
  5
38D8
102
{ACAD_REACTORS
330
38D7
102
}
330
38D7
100
AcDbXrecord
290
     1
  0
XRECORD
  5
3969
102
{ACAD_REACTORS
330
38D9
102
}
330
38D9
100
AcDbXrecord
102
MATERIAL
340
3880
  0
XRECORD
  5
38DA
102
{ACAD_REACTORS
330
38D9
102
}
330
38D9
100
AcDbXrecord
290
     1
  0
XRECORD
  5
396B
102
{ACAD_REACTORS
330
38DD
102
}
330
38DD
100
AcDbXrecord
102
MATERIAL
340
3880
  0
XRECORD
  5
38DE
102
{ACAD_REACTORS
330
38DD
102
}
330
38DD
100
AcDbXrecord
290
     1
  0
XRECORD
  5
39AF
102
{ACAD_REACTORS
330
393A
102
}
330
393A
100
AcDbXrecord
340
2
  0
SORTENTSTABLE
  5
393B
102
{ACAD_REACTORS
330
393A
102
}
330
393A
100
AcDbSortentsTable
330
2
331
2A54
  5
2A60
331
2ABD
  5
2AC9
331
11E5
  5
11E5
331
2AE8
  5
2AF4
331
2B0B
  5
2B17
331
2B51
  5
2BE5
331
13A9
  5
13AD
331
299B
  5
29A8
331
1422
  5
142E
331
2BF8
  5
2C04
331
29C6
  5
29D2
331
1445
  5
1451
331
2C23
  5
2C2F
331
2A04
  5
2A10
331
2C61
  5
2C6D
331
2A2F
  5
2A3B
331
393D
  5
136F
331
2A5A
  5
2A66
331
2A98
  5
2AA4
331
10C8
  5
10C8
331
11EB
  5
11EB
331
2AC3
  5
2AD1
331
2AEE
  5
2AFA
331
1384
  5
1388
331
13AF
  5
13B7
331
13FD
  5
1409
331
29A1
  5
29AD
331
1428
  5
1434
331
2BFE
  5
2C0A
331
144B
  5
1457
331
2A0A
  5
2A16
331
1491
  5
299A
331
2C67
  5
2C73
331
2A35
  5
2A41
331
2A9E
  5
2AAA
331
2AC9
  5
2AD7
331
11F1
  5
11F1
331
138A
  5
138E
331
2B32
  5
2B44
331
2BDD
  5
2BE9
331
29A7
  5
29B4
331
13B5
  5
13BD
331
1403
  5
140F
331
29ED
  5
29F9
331
142E
  5
143A
331
2C04
  5
2C10
331
2C4A
  5
2C56
331
2A10
  5
2A1C
331
2C6D
  5
2C7A
331
2A3B
  5
2A47
331
2A79
  5
2A85
331
2AA4
  5
2AB0
331
2ACF
  5
2ADC
331
11F7
  5
11F7
331
1390
  5
1394
331
13DE
  5
13EA
331
1409
  5
1415
331
29C8
  5
29D4
331
2BE3
  5
2BEF
331
29F3
  5
29FF
331
38C9
  5
3941
331
1472
  5
147F
331
2A16
  5
2A22
331
2C50
  5
2C5C
331
2C73
  5
38C6
331
104F
  5
104F
331
2A7F
  5
2A8B
331
2AAA
  5
2AB6
331
11D2
  5
11D2
331
2AD5
  5
2AE2
331
1210
  5
1210
331
2B13
  5
2B1F
331
13B9
  5
13C1
331
2B3E
  5
2B4B
331
1396
  5
139A
331
13E4
  5
13F0
331
140F
  5
141B
331
29CE
  5
29DA
331
2C2B
  5
2C38
331
29F9
  5
2A05
331
1478
  5
1485
331
2C56
  5
2C62
331
2A1C
  5
2A28
331
2A62
  5
2A6E
331
2C79
  5
38CB
331
2A85
  5
2A91
331
1055
  5
1055
331
2AB0
  5
2ABC
331
1216
  5
1216
331
2B19
  5
2B25
331
1371
  5
1373
331
13BF
  5
13C7
331
29A9
  5
29B6
331
2B44
  5
2B50
331
139C
  5
13A0
331
13EA
  5
13F6
331
1415
  5
1421
331
29D4
  5
29E0
331
1453
  5
145F
331
2C31
  5
2C3E
331
29FF
  5
2A0B
331
147E
  5
148B
331
2C5C
  5
2C68
331
2A68
  5
2A74
331
1030
  5
1030
331
2A8B
  5
2A97
331
2AB6
  5
2AC2
331
11F9
  5
11F9
331
2AF4
  5
2B00
331
13C5
  5
13CD
331
1377
  5
137A
331
2B1F
  5
2B2B
331
29AF
  5
29BB
331
2B4A
  5
2BDE
331
13F0
  5
13FC
331
29DA
  5
29E6
331
2C0C
  5
2C18
331
1459
  5
1465
331
2C37
  5
2C43
331
1484
  5
1491
331
2A43
  5
2A4F
331
2A6E
  5
2A7A
331
1036
  5
1036
331
2A91
  5
2A9D
331
11FF
  5
11FF
331
2AFA
  5
2B06
331
2B25
  5
2B31
331
137D
  5
1381
331
13CB
  5
13D3
331
13F6
  5
1403
331
29B5
  5
29C1
331
1434
  5
1440
331
2C12
  5
2C1E
331
29E0
  5
29EC
331
145F
  5
146B
331
2C3D
  5
2C49
331
2A49
  5
2A55
331
FF9
  5
FF9
331
3957
  5
13BA
331
148A
  5
2993
331
2A74
  5
2A80
331
11DA
  5
11DA
331
2A97
  5
2AA3
331
2ADD
  5
2AE9
331
1205
  5
1205
331
2B00
  5
2B0C
331
1350
  5
1350
331
2B2B
  5
2B3C
331
13D1
  5
13D9
331
2BED
  5
2BF9
331
29BB
  5
29C7
331
143A
  5
1446
331
2C18
  5
2C24
331
29E6
  5
29F2
331
1465
  5
1471
331
2C43
  5
2C4F
331
2A24
  5
2A30
331
2A4F
  5
2A5B
331
2AB8
  5
2AC4
331
11E0
  5
11E0
331
120B
  5
120B
331
2AE3
  5
2AEF
331
2B06
  5
2B12
331
1356
  5
1356
331
2996
  5
29A3
331
13A4
  5
13A8
331
141D
  5
1429
331
2BF3
  5
2BFF
331
29C1
  5
29CD
331
1440
  5
144C
331
2C1E
  5
2C2A
331
146B
  5
1477
331
2A2A
  5
2A36
331
2A55
  5
2A61
331
2ABE
  5
2ACB
331
11E6
  5
11E6
331
2AE9
  5
2AF5
331
2B0C
  5
2B18
331
13F8
  5
1405
331
13AA
  5
13AE
331
299C
  5
29A9
331
2B52
  5
2BE6
331
1423
  5
142F
331
29C7
  5
29D3
331
2BF9
  5
2C05
331
2A05
  5
2A11
331
1446
  5
1452
331
2C24
  5
2C30
331
2C62
  5
2C6E
331
2A30
  5
2A3C
331
393E
  5
1371
331
2A5B
  5
2A67
331
2A99
  5
2AA5
331
10C9
  5
10C9
331
2AC4
  5
2AD2
331
11EC
  5
11EC
331
2AEF
  5
2AFB
331
1385
  5
1389
331
13B0
  5
13B8
331
13FE
  5
140A
331
29A2
  5
29AF
331
1429
  5
1435
331
2BFF
  5
2C0B
331
29E8
  5
29F4
331
2A0B
  5
2A17
331
144C
  5
1458
331
1492
  5
299B
331
2A36
  5
2A42
331
2C68
  5
2C74
331
2A9F
  5
2AAB
331
11F2
  5
11F2
331
1358
  5
1358
331
2B33
  5
2B45
331
138B
  5
138F
331
13D9
  5
13E4
331
2BDE
  5
2BEA
331
13B6
  5
13BE
331
1404
  5
1410
331
142F
  5
143B
331
2C05
  5
2C11
331
29EE
  5
29FA
331
2C4B
  5
2C57
331
2A11
  5
2A1D
331
2C6E
  5
2C7B
331
2A3C
  5
2A48
331
2A7A
  5
2A86
331
104A
  5
104A
331
2AA5
  5
2AB1
331
11CD
  5
11CD
331
2AD0
  5
2ADD
331
2B39
  5
2B47
331
1391
  5
1395
331
13DF
  5
13EB
331
29C9
  5
29D5
331
2BE4
  5
2BF0
331
140A
  5
1416
331
38CA
  5
3942
331
29F4
  5
2A00
331
1473
  5
1480
331
2C51
  5
2C5D
331
2A17
  5
2A23
331
3940
  5
13DB
331
2C74
  5
38C7
331
2A80
  5
2A8C
331
1050
  5
1050
331
2AAB
  5
2AB7
331
11D3
  5
11D3
331
2AD6
  5
2AE3
331
1211
  5
1211
331
2B14
  5
2B20
331
13BA
  5
13C2
331
13E5
  5
13F1
331
2B3F
  5
2B4C
331
1397
  5
139B
331
29CF
  5
29DB
331
1410
  5
141C
331
29FA
  5
2A06
331
2C2C
  5
2C39
331
FE8
  5
FE8
331
1479
  5
1486
331
2C57
  5
2C63
331
2A1D
  5
2A29
331
2C7A
  5
38CE
331
2A63
  5
2A6F
331
2A86
  5
2A92
331
1056
  5
1056
331
2AB1
  5
2ABD
331
1217
  5
1217
331
2B1A
  5
2B26
331
1372
  5
1374
331
13C0
  5
13C8
331
2B45
  5
2B51
331
139D
  5
13A1
331
13EB
  5
13F7
331
29AA
  5
29B7
331
29D5
  5
29E1
331
1416
  5
1422
331
1454
  5
1460
331
2C32
  5
2C3F
331
147F
  5
148C
331
2C5D
  5
2C69
331
2A69
  5
2A75
331
1031
  5
1031
331
2A8C
  5
2A98
331
11FA
  5
11FA
331
2AB7
  5
2AC3
331
2AF5
  5
2B01
331
2B20
  5
2B2C
331
1378
  5
137B
331
13C6
  5
13CE
331
2B4B
  5
2BDF
331
13F1
  5
13FD
331
29B0
  5
29BC
331
2C0D
  5
2C19
331
29DB
  5
29E7
331
145A
  5
1466
331
2C38
  5
2C44
331
2A44
  5
2A50
331
1485
  5
1492
331
2A6F
  5
2A7B
331
1037
  5
1037
331
2A92
  5
2A9E
331
1200
  5
1200
331
2AFB
  5
2B07
331
2B26
  5
2B32
331
137E
  5
1382
331
13CC
  5
13D4
331
29B6
  5
29C2
331
13F7
  5
1404
331
2BE8
  5
2BF4
331
1435
  5
1441
331
2C13
  5
2C1F
331
29E1
  5
29ED
331
1460
  5
146C
331
2C3E
  5
2C4A
331
2A4A
  5
2A56
331
148B
  5
2994
331
FFA
  5
FFA
331
2A75
  5
2A81
331
11DB
  5
11DB
331
2ADE
  5
2AEA
331
1206
  5
1206
331
2B01
  5
2B0D
331
1351
  5
1351
331
2991
  5
299D
331
2B2C
  5
2B3D
331
13D2
  5
13DA
331
1418
  5
1424
331
2BEE
  5
2BFA
331
29BC
  5
29C8
331
143B
  5
1447
331
29E7
  5
29F3
331
2C19
  5
2C25
331
2A25
  5
2A31
331
1466
  5
1472
331
2C44
  5
2C50
331
2A50
  5
2A5C
331
2AB9
  5
2AC5
331
11E1
  5
11E1
331
2AE4
  5
2AF0
331
120C
  5
120C
331
2B07
  5
2B13
331
1357
  5
1357
331
13A5
  5
13A9
331
2997
  5
29A4
331
141E
  5
142A
331
2BF4
  5
2C00
331
29C2
  5
29CE
331
2A00
  5
2A0C
331
2C1F
  5
2C2B
331
1441
  5
144D
331
2A2B
  5
2A37
331
3939
  5
13B1
331
146C
  5
1478
331
2A56
  5
2A62
331
2ABF
  5
2ACC
331
11E7
  5
11E7
331
2AEA
  5
2AF6
331
2B0D
  5
2B19
331
1380
  5
1384
331
13AB
  5
13AF
331
299D
  5
29AA
331
1424
  5
1430
331
2BFA
  5
2C06
331
1447
  5
1453
331
2C25
  5
2C31
331
2A06
  5
2A12
331
2C63
  5
2C6F
331
2A31
  5
2A3D
331
393F
  5
13DD
331
2A5C
  5
2A68
331
2A9A
  5
2AA6
331
10CA
  5
10CA
331
2AC5
  5
2AD3
331
11ED
  5
11ED
331
1386
  5
138A
331
29A3
  5
29B0
331
13FF
  5
140B
331
29E9
  5
29F5
331
142A
  5
1436
331
2C00
  5
2C0C
331
144D
  5
1459
331
2A0C
  5
2A18
331
2C69
  5
2C75
331
2A37
  5
2A43
331
FE7
  5
FE7
331
3958
  5
13BC
331
2AA0
  5
2AAC
331
2ACB
  5
2AD9
331
11F3
  5
11F3
331
1359
  5
1359
331
138C
  5
1390
331
13DA
  5
13E5
331
2BDF
  5
2BEB
331
13B7
  5
13BF
331
1405
  5
1411
331
29EF
  5
29FB
331
2C06
  5
2C12
331
38C5
  5
393D
331
2A12
  5
2A1E
331
2C4C
  5
2C58
331
2C6F
  5
2C7C
331
2A3D
  5
2A49
331
2A7B
  5
2A87
331
104B
  5
104B
331
2AA6
  5
2AB2
331
11CE
  5
11CE
331
2AD1
  5
2ADE
331
1392
  5
1396
331
13E0
  5
13EC
331
140B
  5
1417
331
29CA
  5
29D6
331
2BE5
  5
2BF1
331
29F5
  5
2A01
331
38CB
  5
3943
331
3941
  5
13E6
331
2C52
  5
2C5E
331
2A18
  5
2A24
331
1474
  5
1481
331
2C75
  5
38C8
331
2A81
  5
2A8D
331
1051
  5
1051
331
2AAC
  5
2AB8
331
11D4
  5
11D4
331
2AD7
  5
2AE4
331
1212
  5
1212
331
2B15
  5
2B21
331
13BB
  5
13C3
331
2B40
  5
2B4D
331
1398
  5
139C
331
13E6
  5
13F2
331
1411
  5
141D
331
29D0
  5
29DC
331
2C2D
  5
2C3A
331
29FB
  5
2A07
331
147A
  5
1487
331
2C58
  5
2C64
331
2A1E
  5
2A2A
331
2A64
  5
2A70
331
2C7B
  5
392F
331
2A87
  5
2A93
331
1057
  5
1057
331
2AB2
  5
2ABE
331
2AF0
  5
2AFC
331
1218
  5
1218
331
2B1B
  5
2B27
331
1373
  5
1377
331
13C1
  5
13C9
331
29AB
  5
29B8
331
2B46
  5
2B52
331
139E
  5
13A2
331
13EC
  5
13F8
331
29D6
  5
29E2
331
1417
  5
1423
331
2C08
  5
2C14
331
1455
  5
1461
331
2C33
  5
2C40
331
1480
  5
148D
331
2C5E
  5
2C6A
331
2A6A
  5
2A76
331
1032
  5
1032
331
2A8D
  5
2A99
331
11FB
  5
11FB
331
2AF6
  5
2B02
331
13C7
  5
13CF
331
1379
  5
137C
331
2B21
  5
2B2D
331
29B1
  5
29BD
331
2B4C
  5
2BE0
331
13F2
  5
13FE
331
2C0E
  5
2C1A
331
29DC
  5
29E8
331
1430
  5
143C
331
145B
  5
1467
331
2C39
  5
2C45
331
2A45
  5
2A51
331
1486
  5
1C51
331
2A70
  5
2A7C
331
2A93
  5
2A9F
331
2AD9
  5
2AE5
331
1201
  5
1201
331
2AFC
  5
2B08
331
2B27
  5
2B33
331
137F
  5
1383
331
13CD
  5
13D5
331
2BE9
  5
2BF5
331
29B7
  5
29C3
331
1436
  5
1442
331
2C14
  5
2C20
331
29E2
  5
29EE
331
2A20
  5
2A2C
331
1461
  5
146D
331
2C3F
  5
2C4B
331
2A4B
  5
2A57
331
148C
  5
2995
331
2A76
  5
2A82
331
11DC
  5
11DC
331
2ADF
  5
2AEB
331
1207
  5
1207
331
2B02
  5
2B0E
331
1352
  5
1352
331
2992
  5
299E
331
2B2D
  5
2B3E
331
13D3
  5
13DF
331
13A0
  5
13A4
331
1419
  5
1425
331
2BEF
  5
2BFB
331
29BD
  5
29C9
331
143C
  5
1448
331
2C1A
  5
2C26
331
2A26
  5
2A32
331
1467
  5
1473
331
2C45
  5
2C51
331
3934
  5
3958
331
2A51
  5
2A5D
331
1011
  5
1011
331
2ABA
  5
2AC6
331
11E2
  5
11E2
331
120D
  5
120D
331
2AE5
  5
2AF1
331
2B08
  5
2B14
331
2998
  5
29A5
331
13A6
  5
13AA
331
141F
  5
142B
331
2BF5
  5
2C01
331
29C3
  5
29CF
331
2A01
  5
2A0D
331
1442
  5
144E
331
2C20
  5
2C2C
331
146D
  5
1479
331
2A2C
  5
2A38
331
2A57
  5
2A63
331
10C5
  5
10C5
331
2AC0
  5
2ACE
331
11E8
  5
11E8
331
2AEB
  5
2AF7
331
1381
  5
1385
331
2B0E
  5
2B1A
331
13FA
  5
1406
331
299E
  5
29AB
331
1425
  5
1431
331
2BFB
  5
2C07
331
2A07
  5
2A13
331
1448
  5
1454
331
2C26
  5
2C32
331
2C64
  5
2C70
331
2A32
  5
2A3E
331
1038
  5
1038
331
2A5D
  5
2A69
331
2A9B
  5
2AA7
331
2AC6
  5
2AD4
331
11EE
  5
11EE
331
1387
  5
138B
331
1400
  5
140C
331
29A4
  5
29B1
331
142B
  5
1437
331
2C01
  5
2C0D
331
29EA
  5
29F6
331
2A0D
  5
2A19
331
144E
  5
145A
331
2A38
  5
2A44
331
2C6A
  5
2C76
331
103E
  5
103E
331
2AA1
  5
2AAD
331
2ACC
  5
2ADA
331
11F4
  5
11F4
331
135A
  5
135A
331
138D
  5
1391
331
13DB
  5
13E7
331
2BE0
  5
2BEC
331
1406
  5
1412
331
2C07
  5
2C13
331
38C6
  5
393E
331
29F0
  5
29FC
331
2C4D
  5
2C59
331
2A13
  5
2A1F
331
2C70
  5
2C7D
331
2A3E
  5
2A4A
331
2A7C
  5
2A88
331
104C
  5
104C
331
2AA7
  5
2AB3
331
11CF
  5
11CF
331
2AD2
  5
2ADF
331
2B10
  5
2B1C
331
2B3B
  5
2B48
331
1393
  5
1397
331
13E1
  5
13ED
331
29CB
  5
29D7
331
2BE6
  5
2BF2
331
140C
  5
1418
331
2C28
  5
2C34
331
29F6
  5
2A02
331
3942
  5
13E1
331
1475
  5
1482
331
2C53
  5
2C5F
331
2A19
  5
2A25
331
2C76
  5
38C9
331
1027
  5
1027
331
2A82
  5
2A8E
331
1052
  5
1052
331
2AAD
  5
2AB9
331
11D5
  5
11D5
331
1213
  5
1213
331
2B16
  5
2B22
331
136E
  5
136E
331
13BC
  5
13C4
331
13E7
  5
13F3
331
1399
  5
139D
331
2B41
  5
2B4E
331
29D1
  5
29DD
331
1412
  5
141E
331
1450
  5
145C
331
29FC
  5
2A08
331
2C2E
  5
2C3B
331
FEA
  5
FEA
331
147B
  5
1489
331
2C59
  5
2C65
331
2A1F
  5
2A2B
331
2C7C
  5
3934
331
2A65
  5
2A71
331
2A88
  5
2A94
331
1058
  5
1058
331
2AB3
  5
2ABF
331
2AF1
  5
2AFD
331
1219
  5
1219
331
2B1C
  5
2B28
331
1374
  5
1379
331
13C2
  5
13CA
331
2B47
  5
2BDB
331
139F
  5
13A3
331
13ED
  5
13F9
331
29AC
  5
29B9
331
2C09
  5
2C15
331
29D7
  5
29E3
331
1456
  5
1462
331
2C34
  5
2C41
331
2A40
  5
2A4C
331
FF0
  5
FF0
331
1481
  5
148E
331
2C5F
  5
2C6B
331
2A6B
  5
2A77
331
1033
  5
1033
331
2A8E
  5
2A9A
331
11FC
  5
11FC
331
2AF7
  5
2B03
331
2B22
  5
2B2E
331
137A
  5
137D
331
13C8
  5
13D0
331
2B4D
  5
2BE1
331
13F3
  5
13FF
331
29B2
  5
29BE
331
1431
  5
143D
331
2C0F
  5
2C1B
331
29DD
  5
29E9
331
145C
  5
1468
331
2C3A
  5
2C46
331
1487
  5
2991
331
2A46
  5
2A52
331
2A71
  5
2A7D
331
2A94
  5
2AA0
331
2ADA
  5
2AE6
331
1202
  5
1202
331
2AFD
  5
2B09
331
2B28
  5
2B37
331
13CE
  5
13D6
331
29B8
  5
29C4
331
2BEA
  5
2BF6
331
1437
  5
1443
331
2C15
  5
2C21
331
29E3
  5
29EF
331
1462
  5
146E
331
2C40
  5
2C4C
331
392F
  5
3957
331
2A21
  5
2A2D
331
148D
  5
2996
331
2A4C
  5
2A58
331
2A77
  5
2A83
331
11DD
  5
11DD
331
2AE0
  5
2AEC
331
1208
  5
1208
331
2B03
  5
2B0F
331
1353
  5
1353
331
13A1
  5
13A5
331
13D4
  5
13E0
331
2993
  5
299F
331
2B2E
  5
2B3F
331
141A
  5
1426
331
2BF0
  5
2BFC
331
29BE
  5
29CA
331
143D
  5
1449
331
2C1B
  5
2C27
331
2A27
  5
2A33
331
1468
  5
1474
331
2C46
  5
2C52
331
2A52
  5
2A5E
331
2ABB
  5
2AC7
331
11E3
  5
11E3
331
2AE6
  5
2AF2
331
120E
  5
120E
331
2B09
  5
2B15
331
13A7
  5
13AB
331
2999
  5
29A6
331
1420
  5
142C
331
2BF6
  5
2C02
331
29C4
  5
29D0
331
1443
  5
144F
331
2C21
  5
2C2D
331
2A02
  5
2A0E
331
2A2D
  5
2A39
331
146E
  5
147A
331
2A58
  5
2A64
331
10C6
  5
10C6
331
11E9
  5
11E9
331
2AC1
  5
2ACF
331
2AEC
  5
2AF8
331
2B0F
  5
2B1B
331
1382
  5
1386
331
13AD
  5
13B5
331
13FB
  5
1407
331
299F
  5
29AC
331
1426
  5
1432
331
2BFC
  5
2C08
331
1449
  5
1455
331
2C27
  5
2C33
331
2A08
  5
2A14
331
2C65
  5
2C71
331
2A33
  5
2A3F
331
2A5E
  5
2A6A
331
2A9C
  5
2AA8
331
2AC7
  5
2AD5
331
11EF
  5
11EF
331
1388
  5
138C
331
2B30
  5
2B41
331
2BDB
  5
2BE7
331
29A5
  5
29B2
331
13B3
  5
13B9
331
1401
  5
140D
331
29EB
  5
29F7
331
142C
  5
1438
331
2C02
  5
2C0E
331
2C48
  5
2C54
331
144F
  5
145B
331
2A0E
  5
2A1A
331
2C6B
  5
2C77
331
2A39
  5
2A45
331
2AA2
  5
2AAE
331
11F5
  5
11F5
331
135B
  5
135B
331
138E
  5
1392
331
13DC
  5
13E8
331
1407
  5
1413
331
2BE1
  5
2BED
331
29F1
  5
29FD
331
38C7
  5
393F
331
1470
  5
147D
331
2A14
  5
2A20
331
2C4E
  5
2C5A
331
2C71
  5
2C7E
331
2A3F
  5
2A4B
331
104D
  5
104D
331
2A7D
  5
2A89
331
2AA8
  5
2AB4
331
11D0
  5
11D0
331
2AD3
  5
2AE0
331
2B11
  5
2B1D
331
2B3C
  5
2B49
331
1394
  5
1398
331
13E2
  5
13EE
331
2BE7
  5
2BF3
331
140D
  5
1419
331
29CC
  5
29D8
331
2C29
  5
2C35
331
29F7
  5
2A03
331
1476
  5
1483
331
2C54
  5
2C60
331
2A1A
  5
2A26
331
3943
  5
137E
331
2A60
  5
2A6C
331
2C77
  5
38CA
331
2A83
  5
2A8F
331
1053
  5
1053
331
2AAE
  5
2ABA
331
11D6
  5
11D6
331
1214
  5
1214
331
2B17
  5
2B23
331
136F
  5
1370
331
13BD
  5
13C5
331
139A
  5
139E
331
13E8
  5
13F4
331
1413
  5
141F
331
29D2
  5
29DE
331
1451
  5
145D
331
2C2F
  5
2C3C
331
29FD
  5
2A09
331
2C5A
  5
2C66
331
2C7D
  5
3939
331
2A66
  5
2A72
331
2A89
  5
2A95
331
1059
  5
1059
331
2AB4
  5
2AC0
331
2AF2
  5
2AFE
331
13C3
  5
13CB
331
2B1D
  5
2B29
331
29AD
  5
29BA
331
2B48
  5
2BDC
331
13EE
  5
13FA
331
29D8
  5
29E4
331
2C0A
  5
2C16
331
1457
  5
1463
331
2C35
  5
2C42
331
1482
  5
148F
331
2A41
  5
2A4D
331
2A6C
  5
2A78
331
1034
  5
1034
331
2A8F
  5
2A9B
331
11FD
  5
11FD
331
2AF8
  5
2B04
331
2B23
  5
2B2F
331
137B
  5
137F
331
13C9
  5
13D1
331
29B3
  5
29BF
331
2B4E
  5
2BE2
331
13F4
  5
1401
331
1432
  5
143E
331
2C10
  5
2C1C
331
29DE
  5
29EA
331
145D
  5
1469
331
2C3B
  5
2C47
331
2A47
  5
2A53
331
2A72
  5
2A7E
331
11D8
  5
11D8
331
2A95
  5
2AA1
331
2ADB
  5
2AE7
331
1203
  5
1203
331
2AFE
  5
2B0A
331
2B29
  5
2B39
331
13CF
  5
13D7
331
2BEB
  5
2BF7
331
29B9
  5
29C5
331
1438
  5
1444
331
2C16
  5
2C22
331
29E4
  5
29F0
331
2A22
  5
2A2E
331
2C41
  5
2C4D
331
1463
  5
146F
331
2A4D
  5
2A59
331
148E
  5
2997
331
11DE
  5
11DE
331
2AE1
  5
2AED
331
1209
  5
1209
331
2B04
  5
2B10
331
1354
  5
1354
331
2994
  5
29A1
331
2B2F
  5
2B40
331
13D5
  5
13E2
331
13A2
  5
13A6
331
141B
  5
1427
331
2BF1
  5
2BFD
331
29BF
  5
29CB
331
143E
  5
144A
331
2C1C
  5
2C28
331
1469
  5
1475
331
2C47
  5
2C53
331
2A28
  5
2A34
331
2A53
  5
2A5F
331
2ABC
  5
2AC8
331
11E4
  5
11E4
331
2AE7
  5
2AF3
331
120F
  5
120F
331
2B0A
  5
2B16
331
299A
  5
29A7
331
1C51
  5
299C
331
2B50
  5
2BE4
331
1421
  5
142D
331
29C5
  5
29D1
331
2BF7
  5
2C03
331
2A03
  5
2A0F
331
1444
  5
1450
331
2C22
  5
2C2E
331
2C60
  5
2C6C
331
2A2E
  5
2A3A
331
146F
  5
147B
331
393C
  5
13B0
331
2A59
  5
2A65
331
10C7
  5
10C7
331
2AC2
  5
2AD0
331
11EA
  5
11EA
331
2AED
  5
2AF9
331
1383
  5
1387
331
13AE
  5
13B6
331
13FC
  5
1408
331
2BFD
  5
2C09
331
1427
  5
1433
331
2A09
  5
2A15
331
144A
  5
1456
331
1490
  5
2999
331
2A34
  5
2A40
331
2C66
  5
2C72
331
2A5F
  5
2A6B
331
2A9D
  5
2AA9
331
2AC8
  5
2AD6
331
11F0
  5
11F0
331
2B31
  5
2B43
331
1389
  5
138D
331
2BDC
  5
2BE8
331
13B4
  5
13BB
331
1402
  5
140E
331
29A6
  5
29B3
331
142D
  5
1439
331
2C03
  5
2C0F
331
29EC
  5
29F8
331
2C49
  5
2C55
331
2A0F
  5
2A1B
331
2C6C
  5
2C79
331
2A3A
  5
2A46
331
2A78
  5
2A84
331
2AA3
  5
2AAF
331
2ACE
  5
2ADB
331
11F6
  5
11F6
331
135C
  5
135C
331
2B37
  5
2B46
331
138F
  5
1393
331
13DD
  5
13E9
331
2BE2
  5
2BEE
331
1408
  5
1414
331
38C8
  5
3940
331
29F2
  5
29FE
331
1471
  5
147E
331
2C4F
  5
2C5B
331
2A15
  5
2A21
331
2C72
  5
38C5
331
2A7E
  5
2A8A
331
104E
  5
104E
331
2AA9
  5
2AB5
331
11D1
  5
11D1
331
2AD4
  5
2AE1
331
2B12
  5
2B1E
331
13B8
  5
13C0
331
2B3D
  5
2B4A
331
1395
  5
1399
331
13E3
  5
13EF
331
29CD
  5
29D9
331
140E
  5
141A
331
29F8
  5
2A04
331
38CE
  5
3944
331
2C2A
  5
2C37
331
3944
  5
1375
331
1477
  5
1484
331
2C55
  5
2C61
331
2A1B
  5
2A27
331
2A61
  5
2A6D
331
1029
  5
1029
331
2A84
  5
2A90
331
1054
  5
1054
331
2AAF
  5
2ABB
331
11D7
  5
11D7
331
1215
  5
1215
331
2B18
  5
2B24
331
13BE
  5
13C6
331
13E9
  5
13F5
331
29A8
  5
29B5
331
139B
  5
139F
331
2B43
  5
2B4F
331
29D3
  5
29DF
331
1414
  5
1420
331
2C30
  5
2C3D
331
29FE
  5
2A0A
331
1452
  5
145E
331
147D
  5
148A
331
2C5B
  5
2C67
331
2A67
  5
2A73
331
102F
  5
102F
331
2C7E
  5
393C
331
2A8A
  5
2A96
331
2AB5
  5
2AC1
331
11F8
  5
11F8
331
2AF3
  5
2AFF
331
2B1E
  5
2B2A
331
13C4
  5
13CC
331
2B49
  5
2BDD
331
13EF
  5
13FB
331
2C0B
  5
2C17
331
29D9
  5
29E5
331
1458
  5
1464
331
2A42
  5
2A4E
331
1483
  5
1490
331
2A6D
  5
2A79
331
1035
  5
1035
331
2A90
  5
2A9C
331
11FE
  5
11FE
331
2AF9
  5
2B05
331
2B24
  5
2B30
331
137C
  5
1380
331
13CA
  5
13D2
331
29B4
  5
29C0
331
2B4F
  5
2BE3
331
13F5
  5
1402
331
1433
  5
143F
331
2C11
  5
2C1D
331
29DF
  5
29EB
331
145E
  5
146A
331
2C3C
  5
2C48
331
1489
  5
2992
331
2A48
  5
2A54
331
2A73
  5
2A7F
331
2A96
  5
2AA2
331
11D9
  5
11D9
331
2ADC
  5
2AE8
331
1204
  5
1204
331
134F
  5
134F
331
2AFF
  5
2B0B
331
2B2A
  5
2B3B
331
13D0
  5
13D8
331
2BEC
  5
2BF8
331
29BA
  5
29C6
331
1439
  5
1445
331
2C17
  5
2C23
331
29E5
  5
29F1
331
2A23
  5
2A2F
331
1464
  5
1470
331
2C42
  5
2C4E
331
148F
  5
2998
331
2A4E
  5
2A5A
331
11DF
  5
11DF
331
2AE2
  5
2AEE
331
120A
  5
120A
331
2B05
  5
2B11
331
1355
  5
1355
331
13A3
  5
13A7
331
13D6
  5
13E3
331
2995
  5
29A2
331
141C
  5
1428
331
2BF2
  5
2BFE
331
29C0
  5
29CC
331
143F
  5
144B
331
2C1D
  5
2C29
331
2A29
  5
2A35
331
146A
  5
1476
  0
XRECORD
  5
39B1
102
{ACAD_REACTORS
330
39B0
102
}
330
39B0
100
AcDbXrecord
340
3988
  0
ACAD_PROXY_OBJECT
  5
3878
102
{ACAD_XDICTIONARY
360
3879
102
}
102
{ACAD_REACTORS
330
386F
102
}
330
386F
100
AcDbProxyObject
 90
      499
 91
      511
 93
     1340
310
42109E509B1BD8DAC02004014080404555555555555953FAA155555555555654FEA9AA400014080404555555555555953FAA155555555555654FEA9AA400000000000000E03F4080404555555555555953FAA155555555555654FEA9AA4014080404555555555555953FAA155555555555654FEA9AA4010201011555555555
310
55654FEA8555555555555953FAA6A9005020101155555555555654FEA8555555555555953FAA6A9000
 94
        0
1001
ACAD
1000
AcadProxyRoundTripData
1071
      504
1071
   655383
1070
     0
  0
ACAD_PROXY_OBJECT
  5
3870
102
{ACAD_XDICTIONARY
360
3871
102
}
102
{ACAD_REACTORS
330
386F
102
}
330
386F
100
AcDbProxyObject
 90
      499
 91
      511
 93
     1340
310
42109E53185E595C802004014080404555555555555953FAA155555555555654FEA9AA400014080404555555555555953FAA155555555555654FEA9AA400000000000000E03F4080404555555555555953FAA155555555555654FEA9AA4014080404555555555555953FAA155555555555654FEA9AA4010201011555555555
310
55654FEA8555555555555953FAA6A9005020101155555555555654FEA8555555555555953FAA6A9000
 94
        0
1001
ACAD
1000
AcadProxyRoundTripData
1071
      504
1071
   655383
1070
     0
  0
ACAD_PROXY_OBJECT
  5
3880
102
{ACAD_XDICTIONARY
360
3881
102
}
102
{ACAD_REACTORS
330
386F
102
}
330
386F
100
AcDbProxyObject
 90
      499
 91
      511
 93
     1332
310
41D1DB1BD8985B002004014080404555555555555953FAA155555555555654FEA9AA400014080404555555555555953FAA155555555555654FEA9AA400000000000000E03F4080404555555555555953FAA155555555555654FEA9AA4014080404555555555555953FAA155555555555654FEA9AA401020101155555555555
310
654FEA8555555555555953FAA6A9005020101155555555555654FEA8555555555555953FAA6A9000
 94
        0
1001
ACAD
1000
AcadProxyRoundTripData
1071
      504
1071
   655383
1070
     0
  0
ACAD_PROXY_OBJECT
  5
38BF
102
{ACAD_REACTORS
330
38BE
102
}
330
38BE
100
AcDbProxyObject
 90
      499
 91
      511
 93
      618
310
40901902A4063FBFFFFFE056BD1B81E855B9FC0AD7A3703D0AD73F4254DD185B99185C990000AD7A3703D0AC73F90141901A02B5E8DC0F42B1CFC02B5E8DC0F42B1CFE5764000000000000300FC6
340
6A
340
0
340
16
340
0
 94
        0
1001
ACAD_MLEADERVER
1070
     2
1001
ACAD
1000
AcadProxyRoundTripData
1071
      508
1071
   655383
1070
     0
  0
MLINESTYLE
  5
78
102
{ACAD_REACTORS
330
76
102
}
330
76
100
AcDbMlineStyle
  2
STANDARD
 70
     0
  3

 62
     0
 51
90.0
 52
90.0
 71
     2
 49
0.5
 62
   256
  6
BYLAYER
 49
-0.5
 62
   256
  6
BYLAYER
  0
ACDBPLACEHOLDER
  5
5
102
{ACAD_REACTORS
330
6
102
}
330
6
100
AcDbPlaceHolder
280
     0
  0
ACAD_PROXY_OBJECT
  5
389D
102
{ACAD_REACTORS
330
389C
102
}
330
389C
100
AcDbProxyObject
 90
      499
 91
      511
 93
       49
310
904313A3100598
 94
        0
1001
ACAD
1000
AcadProxyRoundTripData
1071
      507
1071
   655383
1070
     0
  0
ACAD_PROXY_OBJECT
  5
389E
102
{ACAD_REACTORS
330
389C
102
}
330
389C
100
AcDbProxyObject
 90
      499
 91
      511
 93
      113
310
904313A3200400000000000000406B
 94
        0
1001
ACAD
1000
AcadProxyRoundTripData
1071
      507
1071
   655383
1070
     0
  0
ACAD_PROXY_OBJECT
  5
389F
102
{ACAD_REACTORS
330
389C
102
}
330
389C
100
AcDbProxyObject
 90
      499
 91
      511
 93
      113
310
904313A3400400000000000010406B
 94
        0
1001
ACAD
1000
AcadProxyRoundTripData
1071
      507
1071
   655383
1070
     0
  0
ACAD_PROXY_OBJECT
  5
38A0
102
{ACAD_REACTORS
330
389C
102
}
330
389C
100
AcDbProxyObject
 90
      499
 91
      511
 93
      113
310
904313A3500400000000000014406B
 94
        0
1001
ACAD
1000
AcadProxyRoundTripData
1071
      507
1071
   655383
1070
     0
  0
ACAD_PROXY_OBJECT
  5
38A1
102
{ACAD_REACTORS
330
389C
102
}
330
389C
100
AcDbProxyObject
 90
      499
 91
      511
 93
      113
310
904313A3800400000000000020406B
 94
        0
1001
ACAD
1000
AcadProxyRoundTripData
1071
      507
1071
   655383
1070
     0
  0
ACAD_PROXY_OBJECT
  5
38A2
102
{ACAD_REACTORS
330
389C
102
}
330
389C
100
AcDbProxyObject
 90
      499
 91
      511
 93
      121
310
905313A3130004000000000000244051
 94
        0
1001
ACAD
1000
AcadProxyRoundTripData
1071
      507
1071
   655383
1070
     0
  0
ACAD_PROXY_OBJECT
  5
38A3
102
{ACAD_REACTORS
330
389C
102
}
330
389C
100
AcDbProxyObject
 90
      499
 91
      511
 93
      121
310
905313A3136004000000000000304051
 94
        0
1001
ACAD
1000
AcadProxyRoundTripData
1071
      507
1071
   655383
1070
     0
  0
ACAD_PROXY_OBJECT
  5
38A4
102
{ACAD_REACTORS
330
389C
102
}
330
389C
100
AcDbProxyObject
 90
      499
 91
      511
 93
      121
310
905313A3230004000000000000344051
 94
        0
1001
ACAD
1000
AcadProxyRoundTripData
1071
      507
1071
   655383
1070
     0
  0
ACAD_PROXY_OBJECT
  5
38A5
102
{ACAD_REACTORS
330
389C
102
}
330
389C
100
AcDbProxyObject
 90
      499
 91
      511
 93
      121
310
905313A33300040000000000003E4051
 94
        0
1001
ACAD
1000
AcadProxyRoundTripData
1071
      507
1071
   655383
1070
     0
  0
ACAD_PROXY_OBJECT
  5
38A6
102
{ACAD_REACTORS
330
389C
102
}
330
389C
100
AcDbProxyObject
 90
      499
 91
      511
 93
      121
310
905313A3430004000000000000444051
 94
        0
1001
ACAD
1000
AcadProxyRoundTripData
1071
      507
1071
   655383
1070
     0
  0
ACAD_PROXY_OBJECT
  5
38A7
102
{ACAD_REACTORS
330
389C
102
}
330
389C
100
AcDbProxyObject
 90
      499
 91
      511
 93
      121
310
905313A3530004000000000000494051
 94
        0
1001
ACAD
1000
AcadProxyRoundTripData
1071
      507
1071
   655383
1070
     0
  0
ACAD_PROXY_OBJECT
  5
38A8
102
{ACAD_REACTORS
330
389C
102
}
330
389C
100
AcDbProxyObject
 90
      499
 91
      511
 93
      129
310
906313A313030004000000000000594038
 94
        0
1001
ACAD
1000
AcadProxyRoundTripData
1071
      507
1071
   655383
1070
     0
  0
ACAD_PROXY_OBJECT
  5
38A9
102
{ACAD_REACTORS
330
389C
102
}
330
389C
100
AcDbProxyObject
 90
      499
 91
      511
 93
      113
310
904323A31000000000000000010159
 94
        0
1001
ACAD
1000
AcadProxyRoundTripData
1071
      507
1071
   655383
1070
     0
  0
ACAD_PROXY_OBJECT
  5
38AA
102
{ACAD_REACTORS
330
389C
102
}
330
389C
100
AcDbProxyObject
 90
      499
 91
      511
 93
      113
310
904343A31000000000000000410159
 94
        0
1001
ACAD
1000
AcadProxyRoundTripData
1071
      507
1071
   655383
1070
     0
  0
ACAD_PROXY_OBJECT
  5
38AB
102
{ACAD_REACTORS
330
389C
102
}
330
389C
100
AcDbProxyObject
 90
      499
 91
      511
 93
      113
310
904383A31000000000000000810159
 94
        0
1001
ACAD
1000
AcadProxyRoundTripData
1071
      507
1071
   655383
1070
     0
  0
ACAD_PROXY_OBJECT
  5
38AC
102
{ACAD_REACTORS
330
389C
102
}
330
389C
100
AcDbProxyObject
 90
      499
 91
      511
 93
      121
310
90531303A31000000000000000910140
 94
        0
1001
ACAD
1000
AcadProxyRoundTripData
1071
      507
1071
   655383
1070
     0
  0
ACAD_PROXY_OBJECT
  5
38AD
102
{ACAD_REACTORS
330
389C
102
}
330
389C
100
AcDbProxyObject
 90
      499
 91
      511
 93
      129
310
9063130303A31000000000000001650138
 94
        0
1001
ACAD
1000
AcadProxyRoundTripData
1071
      507
1071
   655383
1070
     0
  0
ACAD_PROXY_OBJECT
  5
38AE
102
{ACAD_REACTORS
330
389C
102
}
330
389C
100
AcDbProxyObject
 90
      499
 91
      511
 93
      265
310
90F312F31323822203D2031272D302200000000000000200FC00000000000028402B
 94
        0
1001
ACAD
1000
AcadProxyRoundTripData
1071
      507
1071
   655383
1070
     0
  0
ACAD_PROXY_OBJECT
  5
38AF
102
{ACAD_REACTORS
330
389C
102
}
330
389C
100
AcDbProxyObject
 90
      499
 91
      511
 93
      257
310
90E312F363422203D2031272D302200000000000000240FC000000000000284040
 94
        0
1001
ACAD
1000
AcadProxyRoundTripData
1071
      507
1071
   655383
1070
     0
  0
ACAD_PROXY_OBJECT
  5
38B0
102
{ACAD_REACTORS
330
389C
102
}
330
389C
100
AcDbProxyObject
 90
      499
 91
      511
 93
      257
310
90E312F333222203D2031272D302200000000000000280FC000000000000284040
 94
        0
1001
ACAD
1000
AcadProxyRoundTripData
1071
      507
1071
   655383
1070
     0
  0
ACAD_PROXY_OBJECT
  5
38B1
102
{ACAD_REACTORS
330
389C
102
}
330
389C
100
AcDbProxyObject
 90
      499
 91
      511
 93
      257
310
90E312F313622203D2031272D3022000000000000002C0FC000000000000284040
 94
        0
1001
ACAD
1000
AcadProxyRoundTripData
1071
      507
1071
   655383
1070
     0
  0
ACAD_PROXY_OBJECT
  5
38B2
102
{ACAD_REACTORS
330
389C
102
}
330
389C
100
AcDbProxyObject
 90
      499
 91
      511
 93
      257
310
90E332F333222203D2031272D3022000000000000002E0FC000000000000284040
 94
        0
1001
ACAD
1000
AcadProxyRoundTripData
1071
      507
1071
   655383
1070
     0
  0
ACAD_PROXY_OBJECT
  5
38B3
102
{ACAD_REACTORS
330
389C
102
}
330
389C
100
AcDbProxyObject
 90
      499
 91
      511
 93
      249
310
90D312F3822203D2031272D302200000000000000300FC000000000000284040
 94
        0
1001
ACAD
1000
AcadProxyRoundTripData
1071
      507
1071
   655383
1070
     0
  0
ACAD_PROXY_OBJECT
  5
38B4
102
{ACAD_REACTORS
330
389C
102
}
330
389C
100
AcDbProxyObject
 90
      499
 91
      511
 93
      257
310
90E332F313622203D2031272D302200000000000000320FC000000000000284040
 94
        0
1001
ACAD
1000
AcadProxyRoundTripData
1071
      507
1071
   655383
1070
     0
  0
ACAD_PROXY_OBJECT
  5
38B5
102
{ACAD_REACTORS
330
389C
102
}
330
389C
100
AcDbProxyObject
 90
      499
 91
      511
 93
      249
310
90D312F3422203D2031272D302200000000000000340FC000000000000284040
 94
        0
1001
ACAD
1000
AcadProxyRoundTripData
1071
      507
1071
   655383
1070
     0
  0
ACAD_PROXY_OBJECT
  5
38B6
102
{ACAD_REACTORS
330
389C
102
}
330
389C
100
AcDbProxyObject
 90
      499
 91
      511
 93
      249
310
90D332F3822203D2031272D302200000000000000360FC000000000000284040
 94
        0
1001
ACAD
1000
AcadProxyRoundTripData
1071
      507
1071
   655383
1070
     0
  0
ACAD_PROXY_OBJECT
  5
38B7
102
{ACAD_REACTORS
330
389C
102
}
330
389C
100
AcDbProxyObject
 90
      499
 91
      511
 93
      249
310
90D312F3222203D2031272D302200000000000000380FC000000000000284040
 94
        0
1001
ACAD
1000
AcadProxyRoundTripData
1071
      507
1071
   655383
1070
     0
  0
ACAD_PROXY_OBJECT
  5
38B8
102
{ACAD_REACTORS
330
389C
102
}
330
389C
100
AcDbProxyObject
 90
      499
 91
      511
 93
      249
310
90D332F3422203D2031272D3022000000000000003A0FC000000000000284040
 94
        0
1001
ACAD
1000
AcadProxyRoundTripData
1071
      507
1071
   655383
1070
     0
  0
ACAD_PROXY_OBJECT
  5
38B9
102
{ACAD_REACTORS
330
389C
102
}
330
389C
100
AcDbProxyObject
 90
      499
 91
      511
 93
      169
310
90B3122203D2031272D3022004000000000000284020
 94
        0
1001
ACAD
1000
AcadProxyRoundTripData
1071
      507
1071
   655383
1070
     0
  0
ACAD_PROXY_OBJECT
  5
38BA
102
{ACAD_REACTORS
330
389C
102
}
330
389C
100
AcDbProxyObject
 90
      499
 91
      511
 93
      265
310
90F312D312F3222203D2031272D3022000000000000003E0FC00000000000028402B
 94
        0
1001
ACAD
1000
AcadProxyRoundTripData
1071
      507
1071
   655383
1070
     0
  0
ACAD_PROXY_OBJECT
  5
38BB
102
{ACAD_REACTORS
330
389C
102
}
330
389C
100
AcDbProxyObject
 90
      499
 91
      511
 93
      233
310
90B3322203D2031272D30220000000000000002100000000000000284000
 94
        0
1001
ACAD
1000
AcadProxyRoundTripData
1071
      507
1071
   655383
1070
     0
  0
ACAD_PROXY_OBJECT
  5
38BC
102
{ACAD_REACTORS
330
389C
102
}
330
389C
100
AcDbProxyObject
 90
      499
 91
      511
 93
      233
310
90B3622203D2031272D30220000000000000006100000000000000284000
 94
        0
1001
ACAD
1000
AcadProxyRoundTripData
1071
      507
1071
   655383
1070
     0
  0
ACAD_PROXY_OBJECT
  5
38BD
102
{ACAD_REACTORS
330
389C
102
}
330
389C
100
AcDbProxyObject
 90
      499
 91
      511
 93
      257
310
90E31272D3022203D2031272D3022000000000000000A100000000000000284040
 94
        0
1001
ACAD
1000
AcadProxyRoundTripData
1071
      507
1071
   655383
1070
     0
  0
ACAD_PROXY_OBJECT
  5
389B
102
{ACAD_XDICTIONARY
360
3903
102
}
102
{ACAD_REACTORS
330
389A
102
}
330
389A
100
AcDbProxyObject
 90
      499
 91
      511
 93
     1849
310
4254DD185B99185C990028B81E85EB51B8AE3F2E07A17AD46E2B8FC02B5E8DC0F42B1CFD028000000C1008070000C3001FDFF8000000C1003FBFF000000182007F7FE00000030400FEFFC00000060801FDFF8000000C1003FBFF00000018200000000000000681FA0B0000001820100E000186003FBFF000000182007F7FE0
310
0000030400FEFFC00000060801FDFF8000000C1003FBFF000000182007F7FE000000304000AD7A3703D0AC73F4160000003040201C00030C007F7FE00000030400FEFFC00000060801FDFF8000000C1003FBFF000000182007F7FE00000030400FEFFC000000608055
340
16
340
16
340
16
 94
        0
1001
ACAD
1000
AcadProxyRoundTripData
1071
      506
1071
   655383
1070
     0
  0
ACAD_PROXY_OBJECT
  5
388E
102
{ACAD_REACTORS
330
3888
102
}
330
3888
100
AcDbProxyObject
 90
      499
 91
      511
 93
      444
310
430C9915DA5C99599C985B59401049028333333333333E3BF0000000000000FB0107901411070040501600405405064090741402480A0340
 94
        0
1001
ACAD
1000
AcDbSavedByObjectVersion
1070
     0
1000
AcadProxyRoundTripData
1071
      505
1071
   655383
1070
     0
  0
ACAD_PROXY_OBJECT
  5
3890
102
{ACAD_REACTORS
330
3888
102
}
330
3888
100
AcDbProxyObject
 90
      499
 91
      511
 93
      508
310
428CD108121A5919195B8010640502408333333333333E3BF0000000000000FB01079024090700405020000000000001110200405405064090740C02480A0340
 94
        0
1001
ACAD
1000
AcDbSavedByObjectVersion
1070
     0
1000
AcadProxyRoundTripData
1071
      505
1071
   655383
1070
     0
  0
ACAD_PROXY_OBJECT
  5
388F
102
{ACAD_REACTORS
330
3888
102
}
330
3888
100
AcDbProxyObject
 90
      499
 91
      511
 93
      444
310
430CD915DA5C99599C985B59401059028333333333333E3BF0000000000000FB0107901411070040501600405405064090741402480A0340
 94
        0
1001
ACAD
1000
AcDbSavedByObjectVersion
1070
     0
1000
AcadProxyRoundTripData
1071
      505
1071
   655383
1070
     0
  0
ACAD_PROXY_OBJECT
  5
388D
102
{ACAD_REACTORS
330
3888
102
}
330
3888
100
AcDbProxyObject
 90
      499
 91
      511
 93
      396
310
4190985CDA58C0107406404333333333333E3BF0000000000000FB0107A41107004050150841D405064090741402480A0356
 94
        0
1001
ACAD
1000
AcDbSavedByObjectVersion
1070
     0
1000
AcadProxyRoundTripData
1071
      505
1071
   655383
1070
     0
  0
ACAD_PROXY_OBJECT
  5
3894
102
{ACAD_REACTORS
330
3888
102
}
330
3888
100
AcDbProxyObject
 90
      499
 91
      511
 93
      436
310
42509C9A59DA1D195B8010C409028333333333333E3BF0000000000000FB010790141107004050150841D405064090741402480A029956
 94
        0
1001
ACAD
1000
AcDbSavedByObjectVersion
1070
     0
1000
AcadProxyRoundTripData
1071
      505
1071
   655383
1070
     0
  0
ACAD_PROXY_OBJECT
  5
3898
102
{ACAD_REACTORS
330
3888
102
}
330
3888
100
AcDbProxyObject
 90
      499
 91
      511
 93
      460
310
4310DBDB1BDC90DA185B99D9401104090240C333333333333E3BF0000000000000FB0108901411070040501508421405064090741402480A0354
 94
        0
1001
ACAD
1000
AcDbSavedByObjectVersion
1070
     0
1000
AcadProxyRoundTripData
1071
      505
1071
   655383
1070
     0
  0
ACAD_PROXY_OBJECT
  5
3891
102
{ACAD_REACTORS
330
3888
102
}
330
3888
100
AcDbProxyObject
 90
      499
 91
      511
 93
      508
310
42D0DBDB98D95C1D1D585B0010940D028333333333333E3BF0000000000000FB0107902409070040501000000000000111010841D405064090740C02480A0340
 94
        0
1001
ACAD
1000
AcDbSavedByObjectVersion
1070
     0
1000
AcadProxyRoundTripData
1071
      505
1071
   655383
1070
     0
  0
ACAD_PROXY_OBJECT
  5
3893
102
{ACAD_REACTORS
330
3888
102
}
330
3888
100
AcDbProxyObject
 90
      499
 91
      511
 93
      420
310
41111A5B4010B409028333333333333E3BF0000000000000FB010790141107004050150841D405064090741402480A02677FFFFFDB
 94
        0
1001
ACAD
1000
AcDbSavedByObjectVersion
1070
     0
1000
AcadProxyRoundTripData
1071
      505
1071
   655383
1070
     0
  0
ACAD_PROXY_OBJECT
  5
3897
102
{ACAD_REACTORS
330
3888
102
}
330
3888
100
AcDbProxyObject
 90
      499
 91
      511
 93
      452
310
43119858D95C185D1D195C9B8010F409028333333333333E3BF0000000000000FB010790141107004050150841D405064090741402480A0350
 94
        0
1001
ACAD
1000
AcDbSavedByObjectVersion
1070
     0
1000
AcadProxyRoundTripData
1071
      505
1071
   655383
1070
     0
  0
ACAD_PROXY_OBJECT
  5
3889
102
{ACAD_REACTORS
330
3888
102
}
330
3888
100
AcDbProxyObject
 90
      499
 91
      511
 93
      396
310
41519B185D00240901404333333333333E3BF0000000000000F9010740A41107004050150841D405064090741402480A1B55
 94
        0
1001
ACAD
1000
AcDbSavedByObjectVersion
1070
     0
1000
AcadProxyRoundTripData
1071
      505
1071
   655383
1070
     0
  0
ACAD_PROXY_OBJECT
  5
388A
102
{ACAD_REACTORS
330
3888
102
}
330
3888
100
AcDbProxyObject
 90
      499
 91
      511
 93
      484
310
43919B185D15DA5D1A115919D95CC010140901404333333333333E3BF0000000000000F9010740901411070040501600405405064090741402480A1B50
 94
        0
1001
ACAD
1000
AcDbSavedByObjectVersion
1070
     0
1000
AcadProxyRoundTripData
1071
      505
1071
   655383
1070
     0
  0
ACAD_PROXY_OBJECT
  5
388B
102
{ACAD_REACTORS
330
3888
102
}
330
3888
100
AcDbProxyObject
 90
      499
 91
      511
 93
      420
310
4211DBDD5C985D590010240902404333333333333E3BF0000000000000F9010740A411070040501641D405064090741402480A1B50
 94
        0
1001
ACAD
1000
AcDbSavedByObjectVersion
1070
     0
1000
AcadProxyRoundTripData
1071
      505
1071
   655383
1070
     0
  0
ACAD_PROXY_OBJECT
  5
388C
102
{ACAD_REACTORS
330
3888
102
}
330
3888
100
AcDbProxyObject
 90
      499
 91
      511
 93
      508
310
4451DBDD5C985D5915DA5D1A115919D95CC010340902404333333333333E3BF0000000000000F9010740901411070040501600405405064090741402480A1B50
 94
        0
1001
ACAD
1000
AcDbSavedByObjectVersion
1070
     0
1000
AcadProxyRoundTripData
1071
      505
1071
   655383
1070
     0
  0
ACAD_PROXY_OBJECT
  5
3896
102
{ACAD_REACTORS
330
3888
102
}
330
3888
100
AcDbProxyObject
 90
      499
 91
      511
 93
      452
310
43131A5B995C185D1D195C9B8010E409028333333333333E3BF0000000000000FB010790141107004050750841D405064090741402483A0350
 94
        0
1001
ACAD
1000
AcDbSavedByObjectVersion
1070
     0
1000
AcadProxyRoundTripData
1071
      505
1071
   655383
1070
     0
  0
ACAD_PROXY_OBJECT
  5
3892
102
{ACAD_REACTORS
330
3888
102
}
330
3888
100
AcDbProxyObject
 90
      499
 91
      511
 93
      428
310
429499585B1A5CDD1A58C0108409028333333333333E3BF0000000000000FB01079019070040501508421405064090741402480A1B45
 94
        0
1001
ACAD
1000
AcDbSavedByObjectVersion
1070
     0
1000
AcadProxyRoundTripData
1071
      505
1071
   655383
1070
     0
  0
ACAD_PROXY_OBJECT
  5
3895
102
{ACAD_REACTORS
330
3888
102
}
330
3888
100
AcDbProxyObject
 90
      499
 91
      511
 93
      420
310
42151A1A58DAD95B8010D409028333333333333E3BF0000000000000FB010790141107004050150C41D405064090741402480A0352
 94
        0
1001
ACAD
1000
AcDbSavedByObjectVersion
1070
     0
1000
AcadProxyRoundTripData
1071
      505
1071
   655383
1070
     0
  0
XRECORD
  5
3998
102
{ACAD_REACTORS
330
398E
102
}
330
398E
100
AcDbXrecord
 90
        0
  0
XRECORD
  5
399C
102
{ACAD_REACTORS
330
398E
102
}
330
398E
100
AcDbXrecord
1000
DSTYLE
1002
{
1070
   179
 70
     2
1070
   277
 70
     6
1002
}
  0
XRECORD
  5
3999
102
{ACAD_REACTORS
330
398E
102
}
330
398E
100
AcDbXrecord
  1
{6385560B-F4B1-4644-A7C2-A3E32AC3D232}
  0
XRECORD
  5
3991
102
{ACAD_REACTORS
330
398E
102
}
330
398E
100
AcDbXrecord
  1

  0
XRECORD
  5
3997
102
{ACAD_REACTORS
330
398E
102
}
330
398E
100
AcDbXrecord
 90
        0
  0
XRECORD
  5
3993
102
{ACAD_REACTORS
330
398E
102
}
330
398E
100
AcDbXrecord
340
61
  0
XRECORD
  5
3996
102
{ACAD_REACTORS
330
398E
102
}
330
398E
100
AcDbXrecord
 90
    10781
  0
XRECORD
  5
3994
102
{ACAD_REACTORS
330
398E
102
}
330
398E
100
AcDbXrecord
340
77
  0
XRECORD
  5
3995
102
{ACAD_REACTORS
330
398E
102
}
330
398E
100
AcDbXrecord
340
6
  0
XRECORD
  5
399B
102
{ACAD_REACTORS
330
398E
102
}
330
398E
100
AcDbXrecord
 40
0.0
  0
XRECORD
  5
399F
102
{ACAD_REACTORS
330
398E
102
}
330
398E
100
AcDbXrecord
340
0
  0
XRECORD
  5
39A5
102
{ACAD_REACTORS
330
398E
102
}
330
398E
100
AcDbXrecord
 10
0.0
 20
0.0
 30
0.0
  0
XRECORD
  5
39A1
102
{ACAD_REACTORS
330
398E
102
}
330
398E
100
AcDbXrecord
 10
0.0
 20
0.0
 30
0.0
  0
XRECORD
  5
39A4
102
{ACAD_REACTORS
330
398E
102
}
330
398E
100
AcDbXrecord
 10
0.0
 20
0.0
 30
0.0
  0
XRECORD
  5
39A2
102
{ACAD_REACTORS
330
398E
102
}
330
398E
100
AcDbXrecord
 10
0.0
 20
0.0
 30
0.0
  0
XRECORD
  5
39A3
102
{ACAD_REACTORS
330
398E
102
}
330
398E
100
AcDbXrecord
 10
0.0
 20
0.0
 30
0.0
  0
XRECORD
  5
39A0
102
{ACAD_REACTORS
330
398E
102
}
330
398E
100
AcDbXrecord
 10
0.0
 20
0.0
 30
0.0
  0
XRECORD
  5
399D
102
{ACAD_REACTORS
330
398E
102
}
330
398E
100
AcDbXrecord
340
0
  0
XRECORD
  5
399E
102
{ACAD_REACTORS
330
398E
102
}
330
398E
100
AcDbXrecord
 70
     0
  0
XRECORD
  5
3992
102
{ACAD_REACTORS
330
398E
102
}
330
398E
100
AcDbXrecord
  1
Sekkei.ctb
  0
XRECORD
  5
398F
102
{ACAD_REACTORS
330
398E
102
}
330
398E
100
AcDbXrecord
 90
        1
  0
XRECORD
  5
3990
102
{ACAD_REACTORS
330
398E
102
}
330
398E
100
AcDbXrecord
 90
       70
  0
XRECORD
  5
39A8
102
{ACAD_REACTORS
330
398E
102
}
330
398E
100
AcDbXrecord
340
0
  0
XRECORD
  5
39AE
102
{ACAD_REACTORS
330
398E
102
}
330
398E
100
AcDbXrecord
 10
0.0
 20
0.0
 30
0.0
  0
XRECORD
  5
39AA
102
{ACAD_REACTORS
330
398E
102
}
330
398E
100
AcDbXrecord
 10
0.0
 20
0.0
 30
0.0
  0
XRECORD
  5
39AD
102
{ACAD_REACTORS
330
398E
102
}
330
398E
100
AcDbXrecord
 10
0.0
 20
0.0
 30
0.0
  0
XRECORD
  5
39AB
102
{ACAD_REACTORS
330
398E
102
}
330
398E
100
AcDbXrecord
 10
0.0
 20
0.0
 30
0.0
  0
XRECORD
  5
39AC
102
{ACAD_REACTORS
330
398E
102
}
330
398E
100
AcDbXrecord
 10
0.0
 20
0.0
 30
0.0
  0
XRECORD
  5
39A9
102
{ACAD_REACTORS
330
398E
102
}
330
398E
100
AcDbXrecord
 10
0.0
 20
0.0
 30
0.0
  0
XRECORD
  5
39A6
102
{ACAD_REACTORS
330
398E
102
}
330
398E
100
AcDbXrecord
340
0
  0
XRECORD
  5
39A7
102
{ACAD_REACTORS
330
398E
102
}
330
398E
100
AcDbXrecord
 70
     0
  0
XRECORD
  5
399A
102
{ACAD_REACTORS
330
398E
102
}
330
398E
100
AcDbXrecord
  1
{2593F9EE-1E42-4940-83E7-437C49CC643E}
  0
DICTIONARYVAR
  5
3925
102
{ACAD_REACTORS
330
102
102
}
330
102
100
DictionaryVariables
280
     0
  1
1:1
  0
DICTIONARYVAR
  5
3924
102
{ACAD_REACTORS
330
102
102
}
330
102
100
DictionaryVariables
280
     0
  1
STANDARD
  0
DICTIONARYVAR
  5
3923
102
{ACAD_REACTORS
330
102
102
}
330
102
100
DictionaryVariables
280
     0
  1
STANDARD
  0
DICTIONARYVAR
  5
103
102
{ACAD_REACTORS
330
102
102
}
330
102
100
DictionaryVariables
280
     0
  1
1
  0
DICTIONARYVAR
  5
3926
102
{ACAD_REACTORS
330
102
102
}
330
102
100
DictionaryVariables
280
     0
  1
0
  0
DICTIONARYVAR
  5
549
102
{ACAD_REACTORS
330
102
102
}
330
102
100
DictionaryVariables
280
     0
  1
96
  0
DICTIONARY
  5
3879
330
3878
100
AcDbDictionary
280
     1
  3
ACAD_XREC_ROUNDTRIP
360
3973
  3
BUMPTILE
360
387B
  3
DIFFUSETILE
360
387A
  3
OPACITYTILE
360
387E
  3
REFLECTIONTILE
360
387D
  3
REFRACTIONTILE
360
387F
  3
SPECULARTILE
360
387C
  0
DICTIONARY
  5
3871
330
3870
100
AcDbDictionary
280
     1
  3
ACAD_XREC_ROUNDTRIP
360
3972
  3
BUMPTILE
360
3873
  3
DIFFUSETILE
360
3872
  3
OPACITYTILE
360
3876
  3
REFLECTIONTILE
360
3875
  3
REFRACTIONTILE
360
3877
  3
SPECULARTILE
360
3874
  0
DICTIONARY
  5
3881
330
3880
100
AcDbDictionary
280
     1
  3
ACAD_XREC_ROUNDTRIP
360
3974
  3
BUMPTILE
360
3883
  3
DIFFUSETILE
360
3882
  3
OPACITYTILE
360
3886
  3
REFLECTIONTILE
360
3885
  3
REFRACTIONTILE
360
3887
  3
SPECULARTILE
360
3884
  0
DICTIONARY
  5
3903
330
389B
100
AcDbDictionary
280
     1
  3
ACAD_ROUNDTRIP_2008_TABLES
360
3959
  3
ACAD_XREC_ROUNDTRIP
360
3975
  0
XRECORD
  5
3973
102
{ACAD_REACTORS
330
3879
102
}
330
3879
100
AcDbXrecord
102
MATERIAL
148
0.0
149
0.0
149
0.0
 93
        0
 94
      127
282
     0
 72
     0
 77
     0
171
     0
175
     0
179
     0
273
     0
  0
XRECORD
  5
387B
102
{ACAD_REACTORS
330
3879
102
}
330
3879
100
AcDbXrecord
270
     1
271
     1
  0
XRECORD
  5
387A
102
{ACAD_REACTORS
330
3879
102
}
330
3879
100
AcDbXrecord
270
     1
271
     1
  0
XRECORD
  5
387E
102
{ACAD_REACTORS
330
3879
102
}
330
3879
100
AcDbXrecord
270
     1
271
     1
  0
XRECORD
  5
387D
102
{ACAD_REACTORS
330
3879
102
}
330
3879
100
AcDbXrecord
270
     1
271
     1
  0
XRECORD
  5
387F
102
{ACAD_REACTORS
330
3879
102
}
330
3879
100
AcDbXrecord
270
     1
271
     1
  0
XRECORD
  5
387C
102
{ACAD_REACTORS
330
3879
102
}
330
3879
100
AcDbXrecord
270
     1
271
     1
  0
XRECORD
  5
3972
102
{ACAD_REACTORS
330
3871
102
}
330
3871
100
AcDbXrecord
102
MATERIAL
148
0.0
149
0.0
149
0.0
 93
        0
 94
      127
282
     0
 72
     0
 77
     0
171
     0
175
     0
179
     0
273
     0
  0
XRECORD
  5
3873
102
{ACAD_REACTORS
330
3871
102
}
330
3871
100
AcDbXrecord
270
     1
271
     1
  0
XRECORD
  5
3872
102
{ACAD_REACTORS
330
3871
102
}
330
3871
100
AcDbXrecord
270
     1
271
     1
  0
XRECORD
  5
3876
102
{ACAD_REACTORS
330
3871
102
}
330
3871
100
AcDbXrecord
270
     1
271
     1
  0
XRECORD
  5
3875
102
{ACAD_REACTORS
330
3871
102
}
330
3871
100
AcDbXrecord
270
     1
271
     1
  0
XRECORD
  5
3877
102
{ACAD_REACTORS
330
3871
102
}
330
3871
100
AcDbXrecord
270
     1
271
     1
  0
XRECORD
  5
3874
102
{ACAD_REACTORS
330
3871
102
}
330
3871
100
AcDbXrecord
270
     1
271
     1
  0
XRECORD
  5
3974
102
{ACAD_REACTORS
330
3881
102
}
330
3881
100
AcDbXrecord
102
MATERIAL
148
0.0
149
0.0
149
0.0
 93
        0
 94
      127
282
     0
 72
     0
 77
     0
171
     0
175
     0
179
     0
273
     0
  0
XRECORD
  5
3883
102
{ACAD_REACTORS
330
3881
102
}
330
3881
100
AcDbXrecord
270
     1
271
     1
  0
XRECORD
  5
3882
102
{ACAD_REACTORS
330
3881
102
}
330
3881
100
AcDbXrecord
270
     1
271
     1
  0
XRECORD
  5
3886
102
{ACAD_REACTORS
330
3881
102
}
330
3881
100
AcDbXrecord
270
     1
271
     1
  0
XRECORD
  5
3885
102
{ACAD_REACTORS
330
3881
102
}
330
3881
100
AcDbXrecord
270
     1
271
     1
  0
XRECORD
  5
3887
102
{ACAD_REACTORS
330
3881
102
}
330
3881
100
AcDbXrecord
270
     1
271
     1
  0
XRECORD
  5
3884
102
{ACAD_REACTORS
330
3881
102
}
330
3881
100
AcDbXrecord
270
     1
271
     1
  0
ACAD_PROXY_OBJECT
  5
3959
102
{ACAD_REACTORS
330
3903
102
}
330
3903
100
AcDbProxyObject
 90
      499
 91
      511
 93
     5304
310
40D054060020000020000003200101A000080002A5058000000C100000000000000340FD012E07A17AD46E2B8FCB81E85EB51B8AE3F2E07A17AD46E2B8FCB81E85EB51B8AE3F02B5E8DC0F42B1CFC0AD7A3703D0AC73F419019018000000C1003FBFFFFFE02B5E8DC0F42A9CFD029018000000C1003FBFFFFFE02B5E8DC0F4
310
2A9CFD049018000000C1003FBFFFFFE02B5E8DC0F42A9CFD089018000000C1003FBFFFFFE02B5E8DC0F42A9CFD109018000000C1003FBFFFFFE02B5E8DC0F42A9CFD209018000000C1003FBFFFFFE02B5E8DC0F42A9CFD01405075F5449544C450041501A8000000C800406800020000A9416000000304000AD7A3703D0AC7
310
3F404B81E85EB51B8AE3F2E07A17AD46E2B8FCB81E85EB51B8AE3F2E07A17AD46E2B8FC0AD7A3703D0AC73F02B5E8DC0F42B1CFD0640640600000030400FEFFFFFF80AD7A3703D0AA73F40A40600000030400FEFFFFFF80AD7A3703D0AA73F41240600000030400FEFFFFFF80AD7A3703D0AA73F42240600000030400FEFFF
310
FFF80AD7A3703D0AA73F44240600000030400FEFFFFFF80AD7A3703D0AA73F48240600000030400FEFFFFFF80AD7A3703D0AA73F409014217D2115051115480105406A0000003200101A000080002A5028000000C10002B5E8DC0F42B1CFD012E07A17AD46E2B8FCB81E85EB51B8AE3F2E07A17AD46E2B8FCB81E85EB51B8A
310
E3F02B5E8DC0F42B1CFC0AD7A3703D0AC73F419019018000000C1003FBFFFFFE02B5E8DC0F42A9CFD029018000000C1003FBFFFFFE02B5E8DC0F42A9CFD049018000000C1003FBFFFFFE02B5E8DC0F42A9CFD089018000000C1003FBFFFFFE02B5E8DC0F42A9CFD109018000000C1003FBFFFFFE02B5E8DC0F42A9CFD20901
310
8000000C1003FBFFFFFE02B5E8DC0F42A9CFD03409065F444154410000
340
16
340
0
340
0
340
0
340
0
340
0
340
0
340
16
340
0
340
0
340
0
340
0
340
0
340
0
340
16
340
0
340
0
340
0
340
0
340
0
340
0
 94
        0
1001
ACAD
1000
AcadProxyRoundTripData
1071
      509
1071
   655383
1070
     0
  0
XRECORD
  5
3975
102
{ACAD_REACTORS
330
3903
102
}
330
3903
100
AcDbXrecord
102
ACAD_ROUNDTRIP_PRE2007_TABLESTYLE
 90
      512
 91
        0
  1

 92
      512
 93
        0
  2

 94
      512
 95
        0
  3

  0
ENDSEC
  0
EOF
