  0
SECTION
  2
HEADER
  9
$ACADVER
  1
AC1014
  9
$ACADMAINTVER
 70
     9
  9
$DWGCODEPAGE
  3
ANSI_932
  9
$INSBASE
 10
0.0
 20
0.0
 30
0.0
  9
$EXTMIN
 10
34.86246813553191
 20
69.30785444286607
 30
0.0
  9
$EXTMAX
 10
1376.828568352434
 20
605.1975102261547
 30
0.0
  9
$LIMMIN
 10
0.0
 20
0.0
  9
$LIMMAX
 10
297.0
 20
210.0
  9
$ORTHOMODE
 70
     1
  9
$REGENMODE
 70
     1
  9
$FILLMODE
 70
     1
  9
$QTEXTMODE
 70
     0
  9
$MIRRTEXT
 70
     0
  9
$DRAGMODE
 70
     2
  9
$LTSCALE
 40
4.0
  9
$OSMODE
 70
    37
  9
$ATTMODE
 70
     1
  9
$TEXTSIZE
 40
2.0
  9
$TRACEWID
 40
1.0
  9
$TEXTSTYLE
  7
STANDARD
  9
$CLAYER
  8
0
  9
$CELTYPE
  6
BYLAYER
  9
$CECOLOR
 62
   256
  9
$CELTSCALE
 40
1.0
  9
$DELOBJ
 70
     1
  9
$DISPSILH
 70
     0
  9
$DIMSCALE
 40
4.0
  9
$DIMASZ
 40
1.8
  9
$DIMEXO
 40
0.625
  9
$DIMDLI
 40
3.75
  9
$DIMRND
 40
0.0
  9
$DIMDLE
 40
0.0
  9
$DIMEXE
 40
0.8
  9
$DIMTP
 40
0.0
  9
$DIMTM
 40
0.0
  9
$DIMTXT
 40
1.8
  9
$DIMCEN
 40
2.5
  9
$DIMTSZ
 40
0.0
  9
$DIMTOL
 70
     0
  9
$DIMLIM
 70
     0
  9
$DIMTIH
 70
     0
  9
$DIMTOH
 70
     0
  9
$DIMSE1
 70
     0
  9
$DIMSE2
 70
     0
  9
$DIMTAD
 70
     1
  9
$DIMZIN
 70
     8
  9
$DIMBLK
  1

  9
$DIMASO
 70
     1
  9
$DIMSHO
 70
     1
  9
$DIMPOST
  1

  9
$DIMAPOST
  1

  9
$DIMALT
 70
     0
  9
$DIMALTD
 70
     4
  9
$DIMALTF
 40
0.0394
  9
$DIMLFAC
 40
1.0
  9
$DIMTOFL
 70
     1
  9
$DIMTVP
 40
0.0
  9
$DIMTIX
 70
     0
  9
$DIMSOXD
 70
     0
  9
$DIMSAH
 70
     0
  9
$DIMBLK1
  1

  9
$DIMBLK2
  1

  9
$DIMSTYLE
  2
STANDARD
  9
$DIMCLRD
 70
     0
  9
$DIMCLRE
 70
     0
  9
$DIMCLRT
 70
     0
  9
$DIMTFAC
 40
1.0
  9
$DIMGAP
 40
0.75
  9
$DIMJUST
 70
     0
  9
$DIMSD1
 70
     0
  9
$DIMSD2
 70
     0
  9
$DIMTOLJ
 70
     1
  9
$DIMTZIN
 70
     0
  9
$DIMALTZ
 70
     0
  9
$DIMALTTZ
 70
     0
  9
$DIMFIT
 70
     3
  9
$DIMUPT
 70
     0
  9
$DIMUNIT
 70
     8
  9
$DIMDEC
 70
     2
  9
$DIMTDEC
 70
     2
  9
$DIMALTU
 70
     8
  9
$DIMALTTD
 70
     4
  9
$DIMTXSTY
  7
STANDARD
  9
$DIMAUNIT
 70
     0
  9
$LUNITS
 70
     2
  9
$LUPREC
 70
     3
  9
$SKETCHINC
 40
1.0
  9
$FILLETRAD
 40
2.0
  9
$AUNITS
 70
     0
  9
$AUPREC
 70
     2
  9
$MENU
  1
.
  9
$ELEVATION
 40
0.0
  9
$PELEVATION
 40
0.0
  9
$THICKNESS
 40
0.0
  9
$LIMCHECK
 70
     0
  9
$BLIPMODE
 70
     0
  9
$CHAMFERA
 40
0.0
  9
$CHAMFERB
 40
0.0
  9
$CHAMFERC
 40
20.0
  9
$CHAMFERD
 40
0.0
  9
$SKPOLY
 70
     0
  9
$TDCREATE
 40
2454413.383856874
  9
$TDUPDATE
 40
2454424.572596748
  9
$TDINDWG
 40
0.0644842014
  9
$TDUSRTIMER
 40
0.0644842014
  9
$USRTIMER
 70
     1
  9
$ANGBASE
 50
0.0
  9
$ANGDIR
 70
     0
  9
$PDMODE
 70
     0
  9
$PDSIZE
 40
-10.0
  9
$PLINEWID
 40
0.0
  9
$COORDS
 70
     0
  9
$SPLFRAME
 70
     0
  9
$SPLINETYPE
 70
     6
  9
$SPLINESEGS
 70
     8
  9
$ATTDIA
 70
     0
  9
$ATTREQ
 70
     1
  9
$HANDLING
 70
-16383
  9
$HANDSEED
  5
2C8A
  9
$SURFTAB1
 70
     6
  9
$SURFTAB2
 70
     6
  9
$SURFTYPE
 70
     6
  9
$SURFU
 70
     6
  9
$SURFV
 70
     6
  9
$UCSNAME
  2

  9
$UCSORG
 10
0.0
 20
0.0
 30
0.0
  9
$UCSXDIR
 10
1.0
 20
0.0
 30
0.0
  9
$UCSYDIR
 10
0.0
 20
1.0
 30
0.0
  9
$PUCSNAME
  2

  9
$PUCSORG
 10
0.0
 20
0.0
 30
0.0
  9
$PUCSXDIR
 10
1.0
 20
0.0
 30
0.0
  9
$PUCSYDIR
 10
0.0
 20
1.0
 30
0.0
  9
$USERI1
 70
     0
  9
$USERI2
 70
     0
  9
$USERI3
 70
     0
  9
$USERI4
 70
     0
  9
$USERI5
 70
     0
  9
$USERR1
 40
0.0
  9
$USERR2
 40
0.0
  9
$USERR3
 40
0.0
  9
$USERR4
 40
0.0
  9
$USERR5
 40
0.0
  9
$WORLDVIEW
 70
     1
  9
$SHADEDGE
 70
     3
  9
$SHADEDIF
 70
    70
  9
$TILEMODE
 70
     1
  9
$MAXACTVP
 70
    48
  9
$PINSBASE
 10
0.0
 20
0.0
 30
0.0
  9
$PLIMCHECK
 70
     0
  9
$PEXTMIN
 10
0.0
 20
0.0
 30
0.0
  9
$PEXTMAX
 10
0.0
 20
0.0
 30
0.0
  9
$PLIMMIN
 10
0.0
 20
0.0
  9
$PLIMMAX
 10
12.0
 20
9.0
  9
$UNITMODE
 70
     0
  9
$VISRETAIN
 70
     1
  9
$PLINEGEN
 70
     0
  9
$PSLTSCALE
 70
     1
  9
$TREEDEPTH
 70
  3020
  9
$PICKSTYLE
 70
     1
  9
$CMLSTYLE
  2
STANDARD
  9
$CMLJUST
 70
     0
  9
$CMLSCALE
 40
1.0
  9
$PROXYGRAPHICS
 70
     1
  9
$MEASUREMENT
 70
     0
  0
ENDSEC
  0
SECTION
  2
CLASSES
  0
CLASS
  1
DICTIONARYVAR
  2
AcDbDictionaryVar
  3
AutoCAD 2000
 90
        0
280
     0
281
     0
  0
CLASS
  1
ACDBDICTIONARYWDFLT
  2
AcDbDictionaryWithDefault
  3
AutoCAD 2000
 90
        0
280
     0
281
     0
  0
CLASS
  1
ACDBPLACEHOLDER
  2
AcDbPlaceHolder
  3
AutoCAD 2000
 90
        0
280
     0
281
     0
  0
CLASS
  1
LAYOUT
  2
AcDbLayout
  3
AutoCAD 2000
 90
        0
280
     0
281
     0
  0
CLASS
  1
MATERIAL
  2
AcDbMaterial
  3
ObjectDBX Classes
 90
     1153
280
     0
281
     0
  0
CLASS
  1
VISUALSTYLE
  2
AcDbVisualStyle
  3
ObjectDBX Classes
 90
     4095
280
     0
281
     0
  0
CLASS
  1
TABLESTYLE
  2
AcDbTableStyle
  3
ObjectDBX Classes
 90
     4095
280
     0
281
     0
  0
CLASS
  1
SCALE
  2
AcDbScale
  3
ObjectDBX Classes
 90
     1153
280
     0
281
     0
  0
CLASS
  1
MLEADERSTYLE
  2
AcDbMLeaderStyle
  3
ACDB_MLEADERSTYLE_CLASS
 90
     4095
280
     0
281
     0
  0
CLASS
  1
CELLSTYLEMAP
  2
AcDbCellStyleMap
  3
ObjectDBX Classes
 90
     1152
280
     0
281
     0
  0
CLASS
  1
SORTENTSTABLE
  2
AcDbSortentsTable
  3
AutoCAD 2000
 90
        0
280
     0
281
     0
  0
CLASS
  1
ACAD_PROXY_OBJECT_WRAPPER
  2
AcDbProxyObjectWrapper
  3
AutoCAD 2000
 90
        0
280
     0
281
     0
  0
CLASS
  1
LONG_TRANSACTION
  2
AcDbLongTransaction
  3
AutoCAD 2000
 90
        0
280
     0
281
     0
  0
CLASS
  1
LWPOLYLINE
  2
AcDbPolyline
  3
AutoCAD 2000
 90
        0
280
     0
281
     1
  0
CLASS
  1
HATCH
  2
AcDbHatch
  3
AutoCAD 2000
 90
        0
280
     0
281
     1
  0
CLASS
  1
XRECORD
  2
AcDbXrecord
  3
AutoCAD 2000
 90
        0
280
     0
281
     0
  0
ENDSEC
  0
SECTION
  2
TABLES
  0
TABLE
  2
VPORT
  5
6E
102
{ACAD_XDICTIONARY
360
2BC9
102
}
330
0
100
AcDbSymbolTable
 70
     2
  0
VPORT
  5
2C65
330
6E
100
AcDbSymbolTableRecord
100
AcDbViewportTableRecord
  2
*ACTIVE
 70
     0
 10
0.0
 20
0.0
 11
1.0
 21
1.0
 12
715.4835710378255
 22
325.9441355116395
 13
0.0
 23
0.0
 14
10.0
 24
10.0
 15
10.0
 25
10.0
 16
0.0
 26
0.0
 36
1.0
 17
0.0
 27
0.0
 37
0.0
 40
779.3296232055759
 41
1.753504672897196
 42
50.0
 43
0.0
 44
0.0
 50
0.0
 51
0.0
 71
     0
 72
   100
 73
     1
 74
     3
 75
     0
 76
     0
 77
     0
 78
     0
  0
ENDTAB
  0
TABLE
  2
LTYPE
  5
69
330
0
100
AcDbSymbolTable
 70
     6
  0
LTYPE
  5
6A
330
69
100
AcDbSymbolTableRecord
100
AcDbLinetypeTableRecord
  2
BYBLOCK
 70
     0
  3

 72
    65
 73
     0
 40
0.0
  0
LTYPE
  5
6B
330
69
100
AcDbSymbolTableRecord
100
AcDbLinetypeTableRecord
  2
BYLAYER
 70
     0
  3

 72
    65
 73
     0
 40
0.0
  0
LTYPE
  5
8
330
69
100
AcDbSymbolTableRecord
100
AcDbLinetypeTableRecord
  2
CONTINUOUS
 70
     0
  3
Solid line
 72
    65
 73
     0
 40
0.0
  0
LTYPE
  5
27C
330
69
100
AcDbSymbolTableRecord
100
AcDbLinetypeTableRecord
  2
SEKKEI_A2_
 70
     0
  3
center(A2)  ____ _ ____ _ ____ _ ____ _ ____ _ 
 72
    65
 73
     4
 40
14.28749999999999
 49
9.525
 74
     0
 49
-1.587499999999999
 74
     0
 49
1.587499999999999
 74
     0
 49
-1.587499999999999
 74
     0
  0
LTYPE
  5
48F
330
69
100
AcDbSymbolTableRecord
100
AcDbLinetypeTableRecord
  2
SEKKEI_H
 70
     0
  3
Hidden-S _ _ _ _ _ _ _ _ _ _ _ _ _ _ _ _ _
 72
    65
 73
     2
 40
2.381249999999999
 49
1.587499999999999
 74
     0
 49
-0.79375
 74
     0
  0
LTYPE
  5
7F0
330
69
100
AcDbSymbolTableRecord
100
AcDbLinetypeTableRecord
  2
HIDDEN3
 70
     0
  3
Hidden (.3x) _ _ _ _ _ _ _ _ _ _ _ _ _ _ _ _ _
 72
    65
 73
     2
 40
2.857499999999999
 49
1.905
 74
     0
 49
-0.9525
 74
     0
  0
LTYPE
  5
B15
330
69
100
AcDbSymbolTableRecord
100
AcDbLinetypeTableRecord
  2
CENS
 70
     0
  3
(一点鎖線１)---- - ---- - ---- - ---- - ---- - 
 72
    65
 73
     4
 40
7.0
 49
4.0
 74
     0
 49
-1.0
 74
     0
 49
1.0
 74
     0
 49
-1.0
 74
     0
  0
ENDTAB
  0
TABLE
  2
LAYER
  5
66
102
{ACAD_XDICTIONARY
360
B16
102
}
330
0
100
AcDbSymbolTable
 70
     9
  0
LAYER
  5
5E
102
{ACAD_XDICTIONARY
360
2BAE
102
}
330
66
100
AcDbSymbolTableRecord
100
AcDbLayerTableRecord
  2
0
 70
     0
 62
     7
  6
CONTINUOUS
  0
LAYER
  5
3E
102
{ACAD_XDICTIONARY
360
2BB0
102
}
330
66
100
AcDbSymbolTableRecord
100
AcDbLayerTableRecord
  2
CENTER
 70
     0
 62
     3
  6
SEKKEI_A2_
  0
LAYER
  5
2B5
102
{ACAD_XDICTIONARY
360
2BB6
102
}
330
66
100
AcDbSymbolTableRecord
100
AcDbLayerTableRecord
  2
HIDS
 70
     0
 62
     1
  6
HIDDEN3
  0
LAYER
  5
2BA
102
{ACAD_XDICTIONARY
360
2BB8
102
}
330
66
100
AcDbSymbolTableRecord
100
AcDbLayerTableRecord
  2
HOJO
 70
     0
 62
     4
  6
CONTINUOUS
  0
LAYER
  5
3FA
102
{ACAD_XDICTIONARY
360
2BBC
102
}
330
66
100
AcDbSymbolTableRecord
100
AcDbLayerTableRecord
  2
TITLE
 70
     0
 62
     4
  6
CONTINUOUS
  0
ENDTAB
  0
TABLE
  2
STYLE
  5
67
330
0
100
AcDbSymbolTable
 70
     2
  0
STYLE
  5
16
330
67
100
AcDbSymbolTableRecord
100
AcDbTextStyleTableRecord
  2
STANDARD
 70
     0
 40
0.0
 41
1.0
 50
0.0
 71
     0
 42
2.0
  3
simplex.shx
  4
extfont.shx
  0
ENDTAB
  0
TABLE
  2
VIEW
  5
6C
330
0
100
AcDbSymbolTable
 70
     0
  0
ENDTAB
  0
TABLE
  2
UCS
  5
6D
330
0
100
AcDbSymbolTable
 70
     0
  0
ENDTAB
  0
TABLE
  2
APPID
  5
70
330
0
100
AcDbSymbolTable
 70
     2
  0
APPID
  5
71
330
70
100
AcDbSymbolTableRecord
100
AcDbRegAppTableRecord
  2
ACAD
 70
     0
  0
APPID
  5
2B26
330
70
100
AcDbSymbolTableRecord
100
AcDbRegAppTableRecord
  2
ACAD_MLEADERVER
 70
     0
  0
ENDTAB
  0
TABLE
  2
DIMSTYLE
  5
72
330
0
100
AcDbSymbolTable
 70
     1
  0
DIMSTYLE
105
73
330
72
100
AcDbSymbolTableRecord
100
AcDbDimStyleTableRecord
  2
STANDARD
 70
     0
  3

  4

  5

  6

  7

 40
4.0
 41
1.8
 42
0.625
 43
3.75
 44
0.8
 45
0.0
 46
0.0
 47
0.0
 48
0.0
140
1.8
141
2.5
142
0.0
143
0.0394
144
1.0
145
0.0
146
1.0
147
0.75
 71
     0
 72
     0
 73
     0
 74
     0
 75
     0
 76
     0
 77
     1
 78
     8
170
     0
171
     4
172
     1
173
     0
174
     0
175
     0
176
     0
177
     0
178
     0
270
     8
271
     2
272
     2
273
     8
274
     4
340
16
275
     0
280
     0
281
     0
282
     0
283
     1
284
     0
285
     0
286
     0
287
     3
288
     0
  0
ENDTAB
  0
TABLE
  2
BLOCK_RECORD
  5
1
330
0
100
AcDbSymbolTable
 70
    44
  0
BLOCK_RECORD
  5
2
102
{ACAD_XDICTIONARY
360
2BF5
102
}
330
1
100
AcDbSymbolTableRecord
100
AcDbBlockTableRecord
  2
*MODEL_SPACE
  0
BLOCK_RECORD
  5
2C60
102
{ACAD_XDICTIONARY
360
2C88
102
}
330
1
100
AcDbSymbolTableRecord
100
AcDbBlockTableRecord
  2
*PAPER_SPACE
  0
BLOCK_RECORD
  5
8DB
330
1
100
AcDbSymbolTableRecord
100
AcDbBlockTableRecord
  2
A$C79D50562
  0
ENDTAB
  0
ENDSEC
  0
SECTION
  2
BLOCKS
  0
BLOCK
  5
5D
330
2
100
AcDbEntity
  8
0
100
AcDbBlockBegin
  2
*MODEL_SPACE
 70
     0
 10
0.0
 20
0.0
 30
0.0
  3
*MODEL_SPACE
  1

  0
ENDBLK
  5
5F
330
2
100
AcDbEntity
  8
0
100
AcDbBlockEnd
  0
BLOCK
  5
2C62
330
2C60
100
AcDbEntity
 67
     1
  8
0
100
AcDbBlockBegin
  2
*PAPER_SPACE
 70
     0
 10
0.0
 20
0.0
 30
0.0
  3
*PAPER_SPACE
  1

  0
ENDBLK
  5
2C63
330
2C60
100
AcDbEntity
 67
     1
  8
0
100
AcDbBlockEnd
  0
BLOCK
  5
8DE
330
8DB
100
AcDbEntity
  8
0
100
AcDbBlockBegin
  2
A$C79D50562
 70
     0
 10
0.0
 20
0.0
 30
0.0
  3
A$C79D50562
  1

  0
LINE
  5
8DC
330
8DB
100
AcDbEntity
  8
CENTER
100
AcDbLine
 10
0.0
 20
7.659444835277668
 30
0.0
 11
0.0
 21
-7.659444835277668
 31
0.0
  0
LINE
  5
8DD
330
8DB
100
AcDbEntity
  8
CENTER
100
AcDbLine
 10
-7.659444835277668
 20
0.0
 30
0.0
 11
7.659444835277668
 21
0.0
 31
0.0
  0
ENDBLK
  5
8DF
330
8DB
100
AcDbEntity
  8
0
100
AcDbBlockEnd
  0
ENDSEC
  0
SECTION
  2
ENTITIES
  0
TEXT
  5
FE8
330
2
100
AcDbEntity
  8
TITLE
100
AcDbText
 10
483.4552246488708
 20
532.333429746276
 30
0.0
 40
10.0
  1
AFCZ28H-40~60M400S3
100
AcDbText
  0
TEXT
  5
FE9
330
2
100
AcDbEntity
  8
TITLE
100
AcDbText
 10
483.4552246488708
 20
517.0000964129426
 30
0.0
 40
10.0
  1
AFCZ28H-40~60L400S3
100
AcDbText
  0
LINE
  5
FEC
330
2
100
AcDbEntity
  8
CENTER
100
AcDbLine
 10
735.731041474881
 20
531.6975102207781
 30
0.0
 11
1013.866145139424
 21
531.6975102207778
 31
0.0
  0
LINE
  5
FF2
330
2
100
AcDbEntity
  8
CENTER
100
AcDbLine
 10
725.4561451394238
 20
154.3078544428642
 30
0.0
 11
1013.866145139424
 21
154.3078544428642
 31
0.0
  0
LINE
  5
1011
330
2
100
AcDbEntity
  8
0
100
AcDbLine
 10
955.8661451394245
 20
195.807854442866
 30
0.0
 11
955.8661451394245
 21
112.807854442866
 31
0.0
  0
LINE
  5
1027
330
2
100
AcDbEntity
  8
CENTER
100
AcDbLine
 10
313.272468135514
 20
154.3078544428642
 30
0.0
 11
34.86246813553191
 21
154.3078544428642
 31
0.0
  0
LINE
  5
1029
330
2
100
AcDbEntity
  8
0
100
AcDbLine
 10
92.86246813553146
 20
112.8078544428642
 30
0.0
 11
92.86246813553146
 21
195.8078544428641
 31
0.0
  0
LINE
  5
1034
330
2
100
AcDbEntity
  8
0
100
AcDbLine
 10
955.8661451394266
 20
572.6975102207781
 30
0.0
 11
955.8661451394275
 21
490.697510220778
 31
0.0
  0
LINE
  5
1329
330
2
100
AcDbEntity
  8
CENTER
100
AcDbLine
 10
1303.328568352429
 20
229.0329581074572
 30
0.0
 11
1303.328568352429
 21
79.58275077827483
 31
0.0
  0
LINE
  5
132A
330
2
100
AcDbEntity
  8
CENTER
100
AcDbLine
 10
1376.828568352434
 20
154.3078544428637
 30
0.0
 11
1177.328568352429
 21
154.3078544428637
 31
0.0
  0
LINE
  5
132B
330
2
100
AcDbEntity
  8
0
100
AcDbLine
 10
1334.828568352421
 20
94.30785444286556
 30
0.0
 11
1258.328568352429
 21
94.97545982885929
 31
0.0
  0
LINE
  5
132C
330
2
100
AcDbEntity
  8
0
100
AcDbLine
 10
1334.828568352429
 20
214.3078544428655
 30
0.0
 11
1258.328568352429
 21
213.6402490568736
 31
0.0
  0
LINE
  5
132D
330
2
100
AcDbEntity
  8
0
100
AcDbLine
 10
1260.328568352429
 20
194.6707169373723
 30
0.0
 11
1260.328568352429
 21
113.9449919483624
 31
0.0
  0
LINE
  5
132E
330
2
100
AcDbEntity
  8
0
100
AcDbLine
 10
1258.328568352429
 20
213.6402490568736
 30
0.0
 11
1258.328568352429
 21
94.97545982885929
 31
0.0
  0
LINE
  5
132F
330
2
100
AcDbEntity
  8
0
100
AcDbLine
 10
1253.328568352429
 20
209.3078544428655
 30
0.0
 11
1253.328568352429
 21
99.30785444286556
 31
0.0
  0
LINE
  5
1330
330
2
100
AcDbEntity
  8
0
100
AcDbLine
 10
1253.328568352429
 20
209.3078544428655
 30
0.0
 11
1258.328568352429
 21
209.3078544428655
 31
0.0
  0
LINE
  5
1331
330
2
100
AcDbEntity
  8
0
100
AcDbLine
 10
1253.328568352429
 20
99.30785444286556
 30
0.0
 11
1258.328568352429
 21
99.30785444286556
 31
0.0
  0
LINE
  5
1332
330
2
100
AcDbEntity
  8
0
100
AcDbLine
 10
1344.328569224578
 20
190.3684582533107
 30
0.0
 11
1344.328569224578
 21
118.2472506324167
 31
0.0
  0
LINE
  5
1333
330
2
100
AcDbEntity
  8
0
100
AcDbLine
 10
1334.828568352429
 20
214.3078544428655
 30
0.0
 11
1334.828568352428
 21
195.4237081014045
 31
0.0
  0
LINE
  5
1334
330
2
100
AcDbEntity
  8
0
100
AcDbLine
 10
1334.828568352422
 20
113.1920007843247
 30
0.0
 11
1334.828568352421
 21
94.30785444286556
 31
0.0
  0
LINE
  5
1335
330
2
100
AcDbEntity
  8
0
100
AcDbLine
 10
1339.389540300665
 20
195.3680864922782
 30
0.0
 11
1303.32856835243
 21
195.8078544428801
 31
0.0
  0
LINE
  5
1336
330
2
100
AcDbEntity
  8
0
100
AcDbLine
 10
1267.267597276346
 20
195.368086502912
 30
0.0
 11
1303.32856835243
 21
195.8078544428655
 31
0.0
  0
LINE
  5
1337
330
2
100
AcDbEntity
  8
0
100
AcDbLine
 10
1339.389539428515
 20
113.2476223828136
 30
0.0
 11
1303.32856835243
 21
112.8078544428637
 31
0.0
  0
LINE
  5
1338
330
2
100
AcDbEntity
  8
0
100
AcDbLine
 10
1267.267597276346
 20
113.2476223828154
 30
0.0
 11
1303.32856835243
 21
112.8078544428637
 31
0.0
  0
ARC
  5
1339
330
2
100
AcDbEntity
  8
0
100
AcDbCircle
 10
1339.328569224578
 20
190.3684582533107
 30
0.0
 40
5.0
100
AcDbArc
 50
0.0
 51
89.30130561700025
  0
ARC
  5
133A
330
2
100
AcDbEntity
  8
0
100
AcDbCircle
 10
1339.328569224578
 20
118.2472506324167
 30
0.0
 40
5.0
100
AcDbArc
 50
270.6986943829997
 51
0.0
  0
ARC
  5
133B
330
2
100
AcDbEntity
  8
0
100
AcDbCircle
 10
1267.328567480282
 20
190.3684582533107
 30
0.0
 40
5.0
100
AcDbArc
 50
90.69869438299972
 51
180.0
  0
LINE
  5
133C
330
2
100
AcDbEntity
  8
0
100
AcDbLine
 10
1262.328567480282
 20
190.3684582533107
 30
0.0
 11
1262.328567480281
 21
118.2472506324167
 31
0.0
  0
ARC
  5
133D
330
2
100
AcDbEntity
  8
0
100
AcDbCircle
 10
1267.328567480281
 20
118.2472506324167
 30
0.0
 40
5.0
100
AcDbArc
 50
180.0
 51
269.3013056170002
  0
LINE
  5
133E
330
2
100
AcDbEntity
  8
0
100
AcDbLine
 10
1239.328568352429
 20
192.3764768932498
 30
0.0
 11
1239.328568352429
 21
116.2392319924776
 31
0.0
  0
ARC
  5
133F
330
2
100
AcDbEntity
  8
0
100
AcDbCircle
 10
1241.328568352429
 20
116.2392319924776
 30
0.0
 40
2.0
100
AcDbArc
 50
180.0
 51
267.9999999999963
  0
ARC
  5
1340
330
2
100
AcDbEntity
  8
0
100
AcDbCircle
 10
1241.328568352429
 20
192.3764768932498
 30
0.0
 40
2.0
100
AcDbArc
 50
92.00000000000365
 51
180.0
  0
LINE
  5
1341
330
2
100
AcDbEntity
  8
0
100
AcDbLine
 10
1251.398367345834
 20
194.7293411113234
 30
0.0
 11
1241.258769359024
 21
194.3752585472877
 31
0.0
  0
ARC
  5
1342
330
2
100
AcDbEntity
  8
0
100
AcDbCircle
 10
1251.328568352429
 20
196.7281227653613
 30
0.0
 40
2.0
100
AcDbArc
 50
272.0000000000036
 51
0.0
  0
LINE
  5
1343
330
2
100
AcDbEntity
  8
0
100
AcDbLine
 10
1251.398367345834
 20
113.886367774404
 30
0.0
 11
1241.258769359024
 21
114.2404503384397
 31
0.0
  0
ARC
  5
1344
330
2
100
AcDbEntity
  8
0
100
AcDbCircle
 10
1251.328568352429
 20
111.8875861203661
 30
0.0
 40
2.0
100
AcDbArc
 50
0.0
 51
87.99999999999636
  0
LINE
  5
1345
330
2
100
AcDbEntity
  8
0
100
AcDbLine
 10
1334.828568352422
 20
111.3122178767618
 30
0.0
 11
1262.311115281433
 21
111.9450681022328
 31
0.0
  0
LINE
  5
1346
330
2
100
AcDbEntity
  8
0
100
AcDbLine
 10
1334.828568352428
 20
197.303491008971
 30
0.0
 11
1262.311115281433
 21
196.6706407835001
 31
0.0
  0
LINE
  5
1347
330
2
100
AcDbEntity
  8
0
100
AcDbLine
 10
1334.828568352427
 20
196.753698338157
 30
0.0
 11
1303.328568352429
 21
197.0285946735631
 31
0.0
  0
LINE
  5
1348
330
2
100
AcDbEntity
  8
0
100
AcDbLine
 10
1334.828568352427
 20
111.8620105475758
 30
0.0
 11
1303.328568352429
 21
111.5871142121679
 31
0.0
  0
ARC
  5
1349
330
2
100
AcDbEntity
  8
0
100
AcDbCircle
 10
1262.328568352429
 20
194.6707169373723
 30
0.0
 40
2.0
100
AcDbArc
 50
90.49999999996549
 51
180.0
  0
ARC
  5
134A
330
2
100
AcDbEntity
  8
0
100
AcDbCircle
 10
1262.328568352429
 20
113.9449919483624
 30
0.0
 40
2.0
100
AcDbArc
 50
180.0
 51
269.4999999999824
  0
LINE
  5
134B
330
2
100
AcDbEntity
  8
0
100
AcDbLine
 10
1351.328568352434
 20
212.1812387031269
 30
0.0
 11
1351.328568352434
 21
195.8078544428619
 31
0.0
  0
LINE
  5
134C
330
2
100
AcDbEntity
  8
0
100
AcDbLine
 10
1351.328568352434
 20
182.8078544428619
 30
0.0
 11
1351.328568352434
 21
125.8078544428655
 31
0.0
  0
LINE
  5
134D
330
2
100
AcDbEntity
  8
0
100
AcDbLine
 10
1351.328568352434
 20
112.8078544428655
 30
0.0
 11
1351.328568352434
 21
96.4344701826023
 31
0.0
  0
ARC
  5
134E
330
2
100
AcDbEntity
  8
0
100
AcDbCircle
 10
1349.328568352434
 20
96.4344701826023
 30
0.0
 40
2.0
100
AcDbArc
 50
270.4999999999654
 51
0.0
  0
LINE
  5
134F
330
2
100
AcDbEntity
  8
0
100
AcDbLine
 10
1334.828568352432
 20
214.3078544428637
 30
0.0
 11
1334.828568352431
 21
195.4237081014045
 31
0.0
  0
LINE
  5
1350
330
2
100
AcDbEntity
  8
0
100
AcDbLine
 10
1334.828568352427
 20
113.1920007843247
 30
0.0
 11
1334.828568352425
 21
94.30785444286374
 31
0.0
  0
LINE
  5
1351
330
2
100
AcDbEntity
  8
0
100
AcDbLine
 10
1344.82856835243
 20
195.2379633437642
 30
0.0
 11
1344.82856835243
 21
181.3078544428619
 31
0.0
  0
ARC
  5
1352
330
2
100
AcDbEntity
  8
0
100
AcDbCircle
 10
1342.82856835243
 20
195.2379633437642
 30
0.0
 40
2.0
100
AcDbArc
 50
0.0
 51
89.49999999998238
  0
LINE
  5
1353
330
2
100
AcDbEntity
  8
0
100
AcDbLine
 10
1348.32856835243
 20
182.8078544428619
 30
0.0
 11
1348.328568352426
 21
125.8078544428655
 31
0.0
  0
ARC
  5
1354
330
2
100
AcDbEntity
  8
0
100
AcDbCircle
 10
1346.328568352431
 20
195.2074193064974
 30
0.0
 40
2.0
100
AcDbArc
 50
17.47067123731572
 51
89.49999999998238
  0
LINE
  5
1355
330
2
100
AcDbEntity
  8
0
100
AcDbLine
 10
1357.128568352435
 20
191.8078544428637
 30
0.0
 11
1354.82856835243
 21
191.8078544428637
 31
0.0
  0
LINE
  5
1356
330
2
100
AcDbEntity
  8
0
100
AcDbLine
 10
1353.328568352434
 20
109.1362815676104
 30
0.0
 11
1353.328568352435
 21
112.8078544428655
 31
0.0
  0
LINE
  5
1357
330
2
100
AcDbEntity
  8
0
100
AcDbLine
 10
1353.328568352435
 20
125.8078544428655
 30
0.0
 11
1353.328568352434
 21
182.8078544428619
 31
0.0
  0
LINE
  5
1358
330
2
100
AcDbEntity
  8
0
100
AcDbLine
 10
1353.328568352434
 20
195.8078544428619
 30
0.0
 11
1353.328568352434
 21
199.4794273181188
 31
0.0
  0
LINE
  5
1359
330
2
100
AcDbEntity
  8
0
100
AcDbLine
 10
1351.91435479006
 20
201.722068005237
 30
0.0
 11
1352.742781914807
 21
200.8936408804903
 31
0.0
  0
LINE
  5
135A
330
2
100
AcDbEntity
  8
0
100
AcDbLine
 10
1360.828568352435
 20
191.8078544428637
 30
0.0
 11
1359.528568352434
 21
191.8078544428637
 31
0.0
  0
LINE
  5
135B
330
2
100
AcDbEntity
  8
0
100
AcDbLine
 10
1357.328568352435
 20
191.6078544428648
 30
0.0
 11
1357.128568352435
 21
191.8078544428637
 31
0.0
  0
LINE
  5
135C
330
2
100
AcDbEntity
  8
0
100
AcDbLine
 10
1359.128568352435
 20
191.1078544428648
 30
0.0
 11
1357.528568352434
 21
191.1078544428648
 31
0.0
  0
LINE
  5
135D
330
2
100
AcDbEntity
  8
0
100
AcDbLine
 10
1360.828568352434
 20
191.8078544428637
 30
0.0
 11
1361.828568352435
 21
191.2305041736737
 31
0.0
  0
LINE
  5
135E
330
2
100
AcDbEntity
  8
0
100
AcDbLine
 10
1334.828568352425
 20
94.30785444286374
 30
0.0
 11
1349.346021423431
 21
94.43454633647451
 31
0.0
  0
LINE
  5
135F
330
2
100
AcDbEntity
  8
0
100
AcDbLine
 10
1351.91435479006
 20
106.8936408804904
 30
0.0
 11
1352.742781914807
 21
107.722068005237
 31
0.0
  0
LINE
  5
1360
330
2
100
AcDbEntity
  8
0
100
AcDbLine
 10
1361.828568352434
 20
191.2305041736737
 30
0.0
 11
1361.828568352434
 21
117.3852047120537
 31
0.0
  0
LINE
  5
1361
330
2
100
AcDbEntity
  8
0
100
AcDbLine
 10
1357.128568352435
 20
116.8078544428637
 30
0.0
 11
1354.82856835243
 21
116.8078544428637
 31
0.0
  0
LINE
  5
1362
330
2
100
AcDbEntity
  8
0
100
AcDbLine
 10
1353.828568352434
 20
125.8078544428655
 30
0.0
 11
1353.828568352434
 21
182.8078544428619
 31
0.0
  0
LINE
  5
1363
330
2
100
AcDbEntity
  8
0
100
AcDbLine
 10
1360.828568352434
 20
116.8078544428637
 30
0.0
 11
1359.528568352434
 21
116.8078544428637
 31
0.0
  0
LINE
  5
1364
330
2
100
AcDbEntity
  8
0
100
AcDbLine
 10
1359.328568352434
 20
117.0078544428644
 30
0.0
 11
1359.328568352434
 21
191.6078544428648
 31
0.0
  0
LINE
  5
1365
330
2
100
AcDbEntity
  8
0
100
AcDbLine
 10
1357.328568352434
 20
117.0078544428644
 30
0.0
 11
1357.328568352434
 21
191.6078544428648
 31
0.0
  0
LINE
  5
1366
330
2
100
AcDbEntity
  8
0
100
AcDbLine
 10
1359.128568352435
 20
117.5078544428644
 30
0.0
 11
1357.528568352434
 21
117.5078544428644
 31
0.0
  0
LINE
  5
1367
330
2
100
AcDbEntity
  8
0
100
AcDbLine
 10
1357.328568352434
 20
117.0078544428644
 30
0.0
 11
1357.128568352435
 21
116.8078544428637
 31
0.0
  0
LINE
  5
1368
330
2
100
AcDbEntity
  8
0
100
AcDbLine
 10
1360.828568352434
 20
116.8078544428637
 30
0.0
 11
1361.828568352434
 21
117.3852047120537
 31
0.0
  0
ARC
  5
1369
330
2
100
AcDbEntity
  8
0
100
AcDbCircle
 10
1351.328568352434
 20
199.4794273181188
 30
0.0
 40
2.0
100
AcDbArc
 50
0.0
 51
45.00000000001871
  0
ARC
  5
136A
330
2
100
AcDbEntity
  8
0
100
AcDbCircle
 10
1353.328568352434
 20
203.1362815676104
 30
0.0
 40
2.0
100
AcDbArc
 50
180.0
 51
225.0000000000187
  0
ARC
  5
136B
330
2
100
AcDbEntity
  8
0
100
AcDbCircle
 10
1351.328568352434
 20
109.1362815676104
 30
0.0
 40
2.0
100
AcDbArc
 50
314.9999999999812
 51
0.0
  0
ARC
  5
136C
330
2
100
AcDbEntity
  8
0
100
AcDbCircle
 10
1353.328568352434
 20
105.479427318117
 30
0.0
 40
2.0
100
AcDbArc
 50
134.9999999999812
 51
180.0
  0
ARC
  5
136D
330
2
100
AcDbEntity
  8
0
100
AcDbCircle
 10
1359.528568352434
 20
117.0078544428644
 30
0.0
 40
0.2
100
AcDbArc
 50
180.0
 51
270.0
  0
ARC
  5
136E
330
2
100
AcDbEntity
  8
0
100
AcDbCircle
 10
1359.128568352435
 20
117.3078544428637
 30
0.0
 40
0.2
100
AcDbArc
 50
0.0
 51
90.0
  0
ARC
  5
136F
330
2
100
AcDbEntity
  8
0
100
AcDbCircle
 10
1357.528568352434
 20
117.3078544428637
 30
0.0
 40
0.2
100
AcDbArc
 50
90.0
 51
180.0
  0
ARC
  5
1370
330
2
100
AcDbEntity
  8
0
100
AcDbCircle
 10
1359.528568352434
 20
191.6078544428648
 30
0.0
 40
0.2
100
AcDbArc
 50
90.0
 51
180.0
  0
ARC
  5
1371
330
2
100
AcDbEntity
  8
0
100
AcDbCircle
 10
1359.128568352435
 20
191.3078544428637
 30
0.0
 40
0.2
100
AcDbArc
 50
270.0
 51
0.0
  0
ARC
  5
1372
330
2
100
AcDbEntity
  8
0
100
AcDbCircle
 10
1357.528568352434
 20
191.3078544428637
 30
0.0
 40
0.2
100
AcDbArc
 50
180.0
 51
270.0
  0
LINE
  5
1373
330
2
100
AcDbEntity
  8
0
100
AcDbLine
 10
1360.828568352434
 20
116.8078544428637
 30
0.0
 11
1360.828568352434
 21
191.8078544428637
 31
0.0
  0
LINE
  5
1374
330
2
100
AcDbEntity
  8
0
100
AcDbLine
 10
1357.128568352435
 20
116.8078544428637
 30
0.0
 11
1357.128568352435
 21
191.8078544428637
 31
0.0
  0
ARC
  5
1375
330
2
100
AcDbEntity
  8
0
100
AcDbCircle
 10
1349.328568352434
 20
212.1812387031269
 30
0.0
 40
2.0
100
AcDbArc
 50
0.0
 51
89.5000000000345
  0
LINE
  5
1376
330
2
100
AcDbEntity
  8
0
100
AcDbLine
 10
1334.828568352432
 20
214.3078544428637
 30
0.0
 11
1349.346021423431
 21
214.1811625492548
 31
0.0
  0
LINE
  5
1377
330
2
100
AcDbEntity
  8
0
100
AcDbLine
 10
1334.82856835243
 20
197.3078544428619
 30
0.0
 11
1346.346021423427
 21
197.2073431526252
 31
0.0
  0
LINE
  5
1378
330
2
100
AcDbEntity
  8
0
100
AcDbLine
 10
1345.32856835243
 20
180.8078544428619
 30
0.0
 11
1346.32856835243
 21
180.8078544428619
 31
0.0
  0
ARC
  5
1379
330
2
100
AcDbEntity
  8
0
100
AcDbCircle
 10
1345.328568352429
 20
181.3078544428619
 30
0.0
 40
0.5
100
AcDbArc
 50
179.9999999998957
 51
270.0000000000521
  0
ARC
  5
137A
330
2
100
AcDbEntity
  8
0
100
AcDbCircle
 10
1346.32856835243
 20
178.8078544428619
 30
0.0
 40
2.0
100
AcDbArc
 50
0.0
 51
90.0
  0
LINE
  5
137B
330
2
100
AcDbEntity
  8
0
100
AcDbLine
 10
1344.82856835243
 20
113.3777455419632
 30
0.0
 11
1344.82856835243
 21
127.3078544428655
 31
0.0
  0
ARC
  5
137C
330
2
100
AcDbEntity
  8
0
100
AcDbCircle
 10
1342.82856835243
 20
113.3777455419632
 30
0.0
 40
2.0
100
AcDbArc
 50
270.5000000000175
 51
0.0
  0
LINE
  5
137D
330
2
100
AcDbEntity
  8
0
100
AcDbLine
 10
1345.32856835243
 20
127.8078544428655
 30
0.0
 11
1346.32856835243
 21
127.8078544428655
 31
0.0
  0
ARC
  5
137E
330
2
100
AcDbEntity
  8
0
100
AcDbCircle
 10
1345.328568352429
 20
127.3078544428655
 30
0.0
 40
0.5
100
AcDbArc
 50
89.99999999994789
 51
180.0000000001042
  0
ARC
  5
137F
330
2
100
AcDbEntity
  8
0
100
AcDbCircle
 10
1346.32856835243
 20
129.8078544428655
 30
0.0
 40
2.0
100
AcDbArc
 50
270.0
 51
0.0
  0
LINE
  5
1380
330
2
100
AcDbEntity
  8
0
100
AcDbLine
 10
1334.82856835243
 20
111.3078544428655
 30
0.0
 11
1346.346021423423
 21
111.4083657331022
 31
0.0
  0
ARC
  5
1381
330
2
100
AcDbEntity
  8
0
100
AcDbCircle
 10
1346.328568352427
 20
113.40828957923
 30
0.0
 40
2.0
100
AcDbArc
 50
270.5000000000175
 51
342.5293287626843
  0
LINE
  5
1382
330
2
100
AcDbEntity
  8
CENTER
  6
CENS
100
AcDbLine
 10
1356.328568352434
 20
189.3078544428619
 30
0.0
 11
1329.82856835243
 21
189.3078544428619
 31
0.0
  0
LINE
  5
1383
330
2
100
AcDbEntity
  8
0
100
AcDbLine
 10
1354.82856835243
 20
183.6738798466478
 30
0.0
 11
1354.82856835243
 21
194.9418290390778
 31
0.0
  0
LINE
  5
1384
330
2
100
AcDbEntity
  8
0
100
AcDbLine
 10
1344.82856835243
 20
182.8078544428619
 30
0.0
 11
1344.82856835243
 21
195.8078544428619
 31
0.0
  0
LINE
  5
1385
330
2
100
AcDbEntity
  8
0
100
AcDbLine
 10
1346.82856835243
 20
182.8078544428619
 30
0.0
 11
1346.828568352429
 21
195.8078544428619
 31
0.0
  0
LINE
  5
1386
330
2
100
AcDbEntity
  8
0
100
AcDbLine
 10
1354.32856835243
 20
195.8078544428619
 30
0.0
 11
1354.82856835243
 21
194.9418290390778
 31
0.0
  0
LINE
  5
1387
330
2
100
AcDbEntity
  8
0
100
AcDbLine
 10
1344.82856835243
 20
195.8078544428619
 30
0.0
 11
1346.82856835243
 21
195.8078544428619
 31
0.0
  0
LINE
  5
1388
330
2
100
AcDbEntity
  8
0
100
AcDbLine
 10
1346.82856835243
 20
195.8078544428619
 30
0.0
 11
1354.32856835243
 21
195.8078544428619
 31
0.0
  0
LINE
  5
1389
330
2
100
AcDbEntity
  8
0
100
AcDbLine
 10
1354.32856835243
 20
182.8078544428619
 30
0.0
 11
1354.82856835243
 21
183.6738798466459
 31
0.0
  0
LINE
  5
138A
330
2
100
AcDbEntity
  8
0
100
AcDbLine
 10
1344.82856835243
 20
182.8078544428619
 30
0.0
 11
1346.82856835243
 21
182.8078544428619
 31
0.0
  0
LINE
  5
138B
330
2
100
AcDbEntity
  8
0
100
AcDbLine
 10
1346.82856835243
 20
182.8078544428619
 30
0.0
 11
1354.32856835243
 21
182.8078544428619
 31
0.0
  0
LINE
  5
138C
330
2
100
AcDbEntity
  8
0
100
AcDbLine
 10
1354.32856835243
 20
182.8078544428619
 30
0.0
 11
1354.32856835243
 21
195.8078544428619
 31
0.0
  0
LINE
  5
138D
330
2
100
AcDbEntity
  8
CENTER
  6
CENS
100
AcDbLine
 10
1356.328568352434
 20
119.3078544428655
 30
0.0
 11
1329.82856835243
 21
119.3078544428655
 31
0.0
  0
LINE
  5
138E
330
2
100
AcDbEntity
  8
0
100
AcDbLine
 10
1354.82856835243
 20
124.9418290390814
 30
0.0
 11
1354.82856835243
 21
113.6738798466496
 31
0.0
  0
LINE
  5
138F
330
2
100
AcDbEntity
  8
0
100
AcDbLine
 10
1344.82856835243
 20
125.8078544428655
 30
0.0
 11
1344.82856835243
 21
112.8078544428655
 31
0.0
  0
LINE
  5
1390
330
2
100
AcDbEntity
  8
0
100
AcDbLine
 10
1346.82856835243
 20
125.8078544428655
 30
0.0
 11
1346.828568352429
 21
112.8078544428655
 31
0.0
  0
LINE
  5
1391
330
2
100
AcDbEntity
  8
0
100
AcDbLine
 10
1354.32856835243
 20
112.8078544428655
 30
0.0
 11
1354.82856835243
 21
113.6738798466496
 31
0.0
  0
LINE
  5
1392
330
2
100
AcDbEntity
  8
0
100
AcDbLine
 10
1344.82856835243
 20
112.8078544428655
 30
0.0
 11
1346.82856835243
 21
112.8078544428655
 31
0.0
  0
LINE
  5
1393
330
2
100
AcDbEntity
  8
0
100
AcDbLine
 10
1346.82856835243
 20
112.8078544428655
 30
0.0
 11
1354.32856835243
 21
112.8078544428655
 31
0.0
  0
LINE
  5
1394
330
2
100
AcDbEntity
  8
0
100
AcDbLine
 10
1354.32856835243
 20
125.8078544428655
 30
0.0
 11
1354.82856835243
 21
124.9418290390814
 31
0.0
  0
LINE
  5
1395
330
2
100
AcDbEntity
  8
0
100
AcDbLine
 10
1346.82856835243
 20
125.8078544428655
 30
0.0
 11
1354.32856835243
 21
125.8078544428655
 31
0.0
  0
LINE
  5
1396
330
2
100
AcDbEntity
  8
0
100
AcDbLine
 10
1354.32856835243
 20
125.8078544428655
 30
0.0
 11
1354.32856835243
 21
112.8078544428655
 31
0.0
  0
LINE
  5
1397
330
2
100
AcDbEntity
  8
0
100
AcDbLine
 10
1346.82856835243
 20
125.8078544428655
 30
0.0
 11
1344.82856835243
 21
125.8078544428655
 31
0.0
  0
LINE
  5
139E
330
2
100
AcDbEntity
  8
0
100
AcDbLine
 10
1354.82856835257
 20
198.6738798466478
 30
0.0
 11
1354.82856835257
 21
209.9418290390796
 31
0.0
  0
LINE
  5
139F
330
2
100
AcDbEntity
  8
0
100
AcDbLine
 10
1354.32856835257
 20
210.8078544428637
 30
0.0
 11
1354.82856835257
 21
209.9418290390796
 31
0.0
  0
LINE
  5
13A0
330
2
100
AcDbEntity
  8
0
100
AcDbLine
 10
1351.328568352434
 20
210.8078544428637
 30
0.0
 11
1354.32856835257
 21
210.8078544428637
 31
0.0
  0
LINE
  5
13A1
330
2
100
AcDbEntity
  8
CENTER
  6
CENS
100
AcDbLine
 10
1328.068686060575
 20
204.3078544428637
 30
0.0
 11
1357.82856835257
 21
204.3078544428637
 31
0.0
  0
LINE
  5
13A2
330
2
100
AcDbEntity
  8
0
100
AcDbLine
 10
1354.32856835257
 20
197.8078544428637
 30
0.0
 11
1354.82856835257
 21
198.6738798466478
 31
0.0
  0
LINE
  5
13A3
330
2
100
AcDbEntity
  8
0
100
AcDbLine
 10
1353.328568352434
 20
197.8078544428637
 30
0.0
 11
1354.32856835257
 21
197.8078544428637
 31
0.0
  0
LINE
  5
13A4
330
2
100
AcDbEntity
  8
0
100
AcDbLine
 10
1354.32856835257
 20
197.8078544428637
 30
0.0
 11
1354.32856835257
 21
210.8078544428637
 31
0.0
  0
LINE
  5
13A5
330
2
100
AcDbEntity
  8
0
100
AcDbLine
 10
1354.82856835257
 20
109.9418290390796
 30
0.0
 11
1354.82856835257
 21
98.67387984664965
 31
0.0
  0
LINE
  5
13A6
330
2
100
AcDbEntity
  8
0
100
AcDbLine
 10
1354.32856835257
 20
97.80785444286374
 30
0.0
 11
1354.82856835257
 21
98.67387984664965
 31
0.0
  0
LINE
  5
13A7
330
2
100
AcDbEntity
  8
0
100
AcDbLine
 10
1351.328568352433
 20
97.80785444286374
 30
0.0
 11
1354.32856835257
 21
97.80785444286374
 31
0.0
  0
LINE
  5
13A8
330
2
100
AcDbEntity
  8
CENTER
  6
CENS
100
AcDbLine
 10
1328.068686060575
 20
104.3078544428637
 30
0.0
 11
1357.82856835257
 21
104.3078544428637
 31
0.0
  0
LINE
  5
13A9
330
2
100
AcDbEntity
  8
0
100
AcDbLine
 10
1353.328568352435
 20
110.8078544428637
 30
0.0
 11
1354.32856835257
 21
110.8078544428637
 31
0.0
  0
LINE
  5
13AA
330
2
100
AcDbEntity
  8
0
100
AcDbLine
 10
1354.32856835257
 20
110.8078544428637
 30
0.0
 11
1354.32856835257
 21
97.80785444286374
 31
0.0
  0
LINE
  5
13AB
330
2
100
AcDbEntity
  8
0
100
AcDbLine
 10
1354.32856835257
 20
110.8078544428637
 30
0.0
 11
1354.82856835257
 21
109.9418290390796
 31
0.0
  0
LINE
  5
13AC
330
2
100
AcDbEntity
  8
0
100
AcDbLine
 10
967.8661451394246
 20
193.2205096081857
 30
0.0
 11
967.8661451394246
 21
163.3470163363169
 31
0.0
  0
LINE
  5
13AD
330
2
100
AcDbEntity
  8
0
100
AcDbLine
 10
967.8661451394246
 20
154.3078544428642
 30
0.0
 11
967.8661451394246
 21
114.6596221647239
 31
0.0
  0
LINE
  5
13AF
330
2
100
AcDbEntity
  8
0
100
AcDbLine
 10
955.8661451394245
 20
113.3078544428642
 30
0.0
 11
965.8835982104214
 21
113.3952754314152
 31
0.0
  0
LINE
  5
13B0
330
2
100
AcDbEntity
  8
0
100
AcDbLine
 10
974.8661451394246
 20
122.4674806767641
 30
0.0
 11
993.578802197222
 21
122.7941113206873
 31
0.0
  0
LINE
  5
13B1
330
2
100
AcDbEntity
  8
0
100
AcDbLine
 10
995.8661451394245
 20
124.2554892480791
 30
0.0
 11
998.8661451394246
 21
124.3078544428642
 31
0.0
  0
LINE
  5
13B2
330
2
100
AcDbEntity
  8
0
100
AcDbLine
 10
955.8661451394245
 20
195.3078544428642
 30
0.0
 11
965.8835982104214
 21
195.220433454314
 31
0.0
  0
LINE
  5
13B3
330
2
100
AcDbEntity
  8
0
100
AcDbLine
 10
988.765478467806
 20
176.8078544428642
 30
0.0
 11
991.8661451394255
 21
176.8078544428642
 31
0.0
  0
LINE
  5
13B6
330
2
100
AcDbEntity
  8
0
100
AcDbLine
 10
995.8661451394245
 20
124.2554892480791
 30
0.0
 11
994.9327680738408
 21
123.35469649706
 31
0.0
  0
LINE
  5
13B7
330
2
100
AcDbEntity
  8
0
100
AcDbLine
 10
974.8661451394246
 20
186.1482282089643
 30
0.0
 11
993.8647637867807
 21
185.8166060869284
 31
0.0
  0
LINE
  5
13B8
330
2
100
AcDbEntity
  8
0
100
AcDbLine
 10
995.8661451394245
 20
184.3602196376494
 30
0.0
 11
998.8661451394246
 21
184.3078544428642
 31
0.0
  0
LINE
  5
13B9
330
2
100
AcDbEntity
  8
0
100
AcDbLine
 10
995.8661451394245
 20
184.3602196376494
 30
0.0
 11
994.9327680738408
 21
185.2610123886684
 31
0.0
  0
LINE
  5
13BA
330
2
100
AcDbEntity
  8
0
100
AcDbLine
 10
998.8661451394246
 20
124.3078544428642
 30
0.0
 11
998.8661451394246
 21
184.3078544428642
 31
0.0
  0
LINE
  5
13BB
330
2
100
AcDbEntity
  8
0
100
AcDbLine
 10
995.8661451394245
 20
184.3602196376494
 30
0.0
 11
995.8661451394245
 21
180.8051350449484
 31
0.0
  0
LINE
  5
13BC
330
2
100
AcDbEntity
  8
CENTER
100
AcDbLine
 10
1337.976800630571
 20
127.3190670000028
 30
0.0
 11
1337.976800630571
 21
112.0001773294476
 31
0.0
  0
INSERT
  5
13BD
330
2
100
AcDbEntity
  8
0
100
AcDbBlockReference
  2
A$C79D50562
 10
1268.680336074288
 20
119.6596221647256
 30
0.0
  0
ARC
  5
13BE
330
2
100
AcDbEntity
  8
0
100
AcDbCircle
 10
1267.328568352429
 20
118.307854442866
 30
0.0
 40
5.0
100
AcDbArc
 50
180.0
 51
270.0
  0
ARC
  5
13BF
330
2
100
AcDbEntity
  8
0
100
AcDbCircle
 10
1339.328568352429
 20
118.307854442866
 30
0.0
 40
5.0
100
AcDbArc
 50
270.0
 51
0.0
  0
LINE
  5
13C0
330
2
100
AcDbEntity
  8
CENTER
100
AcDbLine
 10
1330.317355795293
 20
188.9560867210063
 30
0.0
 11
1345.636245465847
 21
188.9560867210063
 31
0.0
  0
LINE
  5
13C1
330
2
100
AcDbEntity
  8
0
100
AcDbLine
 10
1267.328568352429
 20
195.307854442866
 30
0.0
 11
1339.328568352429
 21
195.307854442866
 31
0.0
  0
ARC
  5
13C2
330
2
100
AcDbEntity
  8
0
100
AcDbCircle
 10
1328.328568352429
 20
179.307854442866
 30
0.0
 40
5.0
100
AcDbArc
 50
0.0
 51
90.0
  0
ARC
  5
13C3
330
2
100
AcDbEntity
  8
0
100
AcDbCircle
 10
1328.328568352429
 20
179.307854442866
 30
0.0
 40
6.499999999999829
100
AcDbArc
 50
0.0
 51
90.0
  0
LINE
  5
13C4
330
2
100
AcDbEntity
  8
CENTER
100
AcDbLine
 10
1330.317355795293
 20
119.6596221647256
 30
0.0
 11
1345.636245465847
 21
119.6596221647256
 31
0.0
  0
ARC
  5
13C5
330
2
100
AcDbEntity
  8
0
100
AcDbCircle
 10
1328.328568352429
 20
129.307854442866
 30
0.0
 40
5.0
100
AcDbArc
 50
270.0
 51
0.0
  0
ARC
  5
13C6
330
2
100
AcDbEntity
  8
0
100
AcDbCircle
 10
1328.328568352429
 20
129.307854442866
 30
0.0
 40
6.499999999999829
100
AcDbArc
 50
270.0
 51
0.0
  0
LINE
  5
13C7
330
2
100
AcDbEntity
  8
0
100
AcDbLine
 10
1333.328568352429
 20
179.307854442866
 30
0.0
 11
1333.328568352429
 21
129.307854442866
 31
0.0
  0
LINE
  5
13C8
330
2
100
AcDbEntity
  8
0
100
AcDbLine
 10
1273.328568352429
 20
179.307854442866
 30
0.0
 11
1273.328568352429
 21
129.307854442866
 31
0.0
  0
LINE
  5
13C9
330
2
100
AcDbEntity
  8
0
100
AcDbLine
 10
1271.828568352429
 20
179.307854442866
 30
0.0
 11
1271.828568352429
 21
129.307854442866
 31
0.0
  0
CIRCLE
  5
13CA
330
2
100
AcDbEntity
  8
0
100
AcDbCircle
 10
1303.328568352429
 20
154.307854442866
 30
0.0
 40
25.00000000482703
  0
LINE
  5
13CB
330
2
100
AcDbEntity
  8
0
100
AcDbLine
 10
1328.328568352429
 20
124.307854442866
 30
0.0
 11
1278.328568352429
 21
124.307854442866
 31
0.0
  0
LINE
  5
13CC
330
2
100
AcDbEntity
  8
0
100
AcDbLine
 10
1328.328568352429
 20
122.807854442866
 30
0.0
 11
1278.328568352429
 21
122.807854442866
 31
0.0
  0
ARC
  5
13CD
330
2
100
AcDbEntity
  8
0
100
AcDbCircle
 10
1278.328568352429
 20
129.307854442866
 30
0.0
 40
5.0
100
AcDbArc
 50
180.0
 51
270.0
  0
ARC
  5
13CE
330
2
100
AcDbEntity
  8
0
100
AcDbCircle
 10
1278.328568352429
 20
129.307854442866
 30
0.0
 40
6.499999999999829
100
AcDbArc
 50
180.0
 51
270.0
  0
LINE
  5
13CF
330
2
100
AcDbEntity
  8
CENTER
100
AcDbLine
 10
1278.579831010901
 20
133.015399823838
 30
0.0
 11
1278.579831010901
 21
126.1028343788354
 31
0.0
  0
LINE
  5
13D0
330
2
100
AcDbEntity
  8
CENTER
100
AcDbLine
 10
1275.1235482884
 20
129.5591171013372
 30
0.0
 11
1282.036113733401
 21
129.5591171013372
 31
0.0
  0
LINE
  5
13D1
330
2
100
AcDbEntity
  8
CENTER
100
AcDbLine
 10
1324.621022971459
 20
129.5591171013372
 30
0.0
 11
1331.533588416459
 21
129.5591171013372
 31
0.0
  0
LINE
  5
13D2
330
2
100
AcDbEntity
  8
CENTER
100
AcDbLine
 10
1328.077305693959
 20
133.0153998238371
 30
0.0
 11
1328.077305693959
 21
126.1028343788354
 31
0.0
  0
LINE
  5
13D3
330
2
100
AcDbEntity
  8
0
100
AcDbLine
 10
1278.328568352429
 20
184.307854442866
 30
0.0
 11
1328.328568352429
 21
184.307854442866
 31
0.0
  0
LINE
  5
13D4
330
2
100
AcDbEntity
  8
0
100
AcDbLine
 10
1278.328568352429
 20
185.807854442866
 30
0.0
 11
1328.328568352429
 21
185.807854442866
 31
0.0
  0
ARC
  5
13D5
330
2
100
AcDbEntity
  8
0
100
AcDbCircle
 10
1267.328568352429
 20
190.307854442866
 30
0.0
 40
5.0
100
AcDbArc
 50
180.0
 51
180.0
  0
LINE
  5
13D6
330
2
100
AcDbEntity
  8
CENTER
100
AcDbLine
 10
1261.020891239011
 20
188.9560867210063
 30
0.0
 11
1276.339780909567
 21
188.9560867210063
 31
0.0
  0
LINE
  5
13D7
330
2
100
AcDbEntity
  8
CENTER
100
AcDbLine
 10
1268.680336074288
 20
196.6155315562843
 30
0.0
 11
1268.680336074288
 21
181.2966418857292
 31
0.0
  0
ARC
  5
13D8
330
2
100
AcDbEntity
  8
0
100
AcDbCircle
 10
1278.328568352429
 20
179.307854442866
 30
0.0
 40
5.0
100
AcDbArc
 50
90.0
 51
180.0
  0
ARC
  5
13D9
330
2
100
AcDbEntity
  8
0
100
AcDbCircle
 10
1278.328568352429
 20
179.307854442866
 30
0.0
 40
6.499999999999829
100
AcDbArc
 50
90.0
 51
180.0
  0
LINE
  5
13DA
330
2
100
AcDbEntity
  8
CENTER
100
AcDbLine
 10
1278.579831010901
 20
182.5128745068965
 30
0.0
 11
1278.579831010901
 21
175.6003090618939
 31
0.0
  0
LINE
  5
13DB
330
2
100
AcDbEntity
  8
CENTER
100
AcDbLine
 10
1275.1235482884
 20
179.0565917843948
 30
0.0
 11
1282.036113733401
 21
179.0565917843948
 31
0.0
  0
LINE
  5
13DC
330
2
100
AcDbEntity
  8
CENTER
100
AcDbLine
 10
1328.077305693959
 20
182.5128745068965
 30
0.0
 11
1328.077305693959
 21
175.6003090618939
 31
0.0
  0
LINE
  5
13DD
330
2
100
AcDbEntity
  8
CENTER
100
AcDbLine
 10
1324.621022971459
 20
179.0565917843948
 30
0.0
 11
1331.533588416459
 21
179.0565917843948
 31
0.0
  0
LINE
  5
13DE
330
2
100
AcDbEntity
  8
0
100
AcDbLine
 10
1334.828568352429
 20
179.307854442866
 30
0.0
 11
1334.828568352429
 21
129.307854442866
 31
0.0
  0
LINE
  5
13DF
330
2
100
AcDbEntity
  8
CENTER
100
AcDbLine
 10
1337.976800630571
 20
196.6155315562843
 30
0.0
 11
1337.976800630571
 21
181.2966418857292
 31
0.0
  0
ARC
  5
13E0
330
2
100
AcDbEntity
  8
0
100
AcDbCircle
 10
1339.328568352429
 20
190.307854442866
 30
0.0
 40
5.0
100
AcDbArc
 50
0.0
 51
90.0
  0
CIRCLE
  5
13E1
330
2
100
AcDbEntity
  8
CENTER
100
AcDbCircle
 10
1303.328568352429
 20
154.307854442866
 30
0.0
 40
35.00000000000003
  0
LINE
  5
13E2
330
2
100
AcDbEntity
  8
HIDS
100
AcDbLine
 10
1287.078568352429
 20
185.807854442866
 30
0.0
 11
1287.078568352429
 21
169.8702289403524
 31
0.0
  0
LINE
  5
13E3
330
2
100
AcDbEntity
  8
HIDS
100
AcDbLine
 10
1298.578568352429
 20
185.807854442866
 30
0.0
 11
1298.578568352429
 21
176.3007510233534
 31
0.0
  0
LINE
  5
13E4
330
2
100
AcDbEntity
  8
0
100
AcDbLine
 10
1339.328568352429
 20
113.307854442866
 30
0.0
 11
1267.328568352429
 21
113.307854442866
 31
0.0
  0
LINE
  5
13E5
330
2
100
AcDbEntity
  8
0
100
AcDbLine
 10
967.8661451394274
 20
492.0492779426367
 30
0.0
 11
967.8661451394274
 21
571.3457424989181
 31
0.0
  0
LINE
  5
13E7
330
2
100
AcDbEntity
  8
0
100
AcDbLine
 10
955.8661451394275
 20
572.6975102207778
 30
0.0
 11
965.8835982104243
 21
572.6100892322267
 31
0.0
  0
LINE
  5
13E8
330
2
100
AcDbEntity
  8
0
100
AcDbLine
 10
974.8661451394275
 20
563.537883986878
 30
0.0
 11
993.5788021972243
 21
563.2112533429546
 31
0.0
  0
LINE
  5
13E9
330
2
100
AcDbEntity
  8
0
100
AcDbLine
 10
995.8661451394275
 20
561.749875415562
 30
0.0
 11
998.8661451394275
 21
561.6975102207779
 31
0.0
  0
LINE
  5
13EA
330
2
100
AcDbEntity
  8
0
100
AcDbLine
 10
955.8661451394275
 20
490.6975102207779
 30
0.0
 11
965.8835982104243
 21
490.784931209328
 31
0.0
  0
LINE
  5
13ED
330
2
100
AcDbEntity
  8
0
100
AcDbLine
 10
995.8661451394275
 20
561.749875415562
 30
0.0
 11
994.9327680738436
 21
562.6506681665815
 31
0.0
  0
LINE
  5
13EE
330
2
100
AcDbEntity
  8
0
100
AcDbLine
 10
974.8661451394275
 20
499.8571364546768
 30
0.0
 11
993.578802197225
 21
500.1837670986009
 31
0.0
  0
LINE
  5
13EF
330
2
100
AcDbEntity
  8
0
100
AcDbLine
 10
995.8661451394275
 20
501.6451450259928
 30
0.0
 11
998.8661451394275
 21
501.6975102207778
 31
0.0
  0
LINE
  5
13F0
330
2
100
AcDbEntity
  8
0
100
AcDbLine
 10
995.8661451394275
 20
501.6451450259928
 30
0.0
 11
994.9327680738436
 21
500.7443522749736
 31
0.0
  0
LINE
  5
13F1
330
2
100
AcDbEntity
  8
0
100
AcDbLine
 10
998.8661451394275
 20
561.6975102207779
 30
0.0
 11
998.8661451394275
 21
501.6975102207778
 31
0.0
  0
LINE
  5
13F2
330
2
100
AcDbEntity
  8
0
100
AcDbLine
 10
995.8661451394275
 20
501.6451450259928
 30
0.0
 11
995.8661451394275
 21
561.749875415562
 31
0.0
  0
CIRCLE
  5
13F3
330
2
100
AcDbEntity
  8
0
100
AcDbCircle
 10
1338.179982706307
 20
188.9560867210063
 30
0.0
 40
5.0
  0
CIRCLE
  5
13F4
330
2
100
AcDbEntity
  8
0
100
AcDbCircle
 10
1338.179982706307
 20
188.9560867210063
 30
0.0
 40
4.307179676972423
  0
CIRCLE
  5
13F5
330
2
100
AcDbEntity
  8
0
100
AcDbCircle
 10
1338.179982706307
 20
188.9560867210063
 30
0.0
 40
2.886751345948113
  0
LWPOLYLINE
  5
13F6
330
2
100
AcDbEntity
  8
0
100
AcDbPolyline
 90
        6
 70
     1
 43
0.0
 10
1340.679982706307
 20
190.3994623939803
 10
1338.179982706307
 20
191.8428380669544
 10
1335.679982706307
 20
190.3994623939803
 10
1335.679982706307
 20
187.5127110480322
 10
1338.179982706307
 20
186.0693353750581
 10
1340.679982706307
 20
187.5127110480322
  0
CIRCLE
  5
13F7
330
2
100
AcDbEntity
  8
0
100
AcDbCircle
 10
1338.179982706307
 20
119.6596221647256
 30
0.0
 40
5.0
  0
CIRCLE
  5
13F8
330
2
100
AcDbEntity
  8
0
100
AcDbCircle
 10
1338.179982706307
 20
119.6596221647256
 30
0.0
 40
4.307179676972423
  0
CIRCLE
  5
13F9
330
2
100
AcDbEntity
  8
0
100
AcDbCircle
 10
1338.179982706307
 20
119.6596221647256
 30
0.0
 40
2.886751345948113
  0
LWPOLYLINE
  5
13FA
330
2
100
AcDbEntity
  8
0
100
AcDbPolyline
 90
        6
 70
     1
 43
0.0
 10
1340.679982706307
 20
121.1029978376997
 10
1338.179982706307
 20
122.5463735106738
 10
1335.679982706307
 20
121.1029978376997
 10
1335.679982706307
 20
118.2162464917516
 10
1338.179982706307
 20
116.7728708187775
 10
1340.679982706307
 20
118.2162464917516
  0
CIRCLE
  5
13FB
330
2
100
AcDbEntity
  8
0
100
AcDbCircle
 10
1268.680336074288
 20
119.6596221647256
 30
0.0
 40
5.0
  0
CIRCLE
  5
13FC
330
2
100
AcDbEntity
  8
0
100
AcDbCircle
 10
1268.680336074288
 20
119.6596221647256
 30
0.0
 40
4.307179676972423
  0
CIRCLE
  5
13FD
330
2
100
AcDbEntity
  8
0
100
AcDbCircle
 10
1268.680336074288
 20
119.6596221647256
 30
0.0
 40
2.886751345948113
  0
LWPOLYLINE
  5
13FE
330
2
100
AcDbEntity
  8
0
100
AcDbPolyline
 90
        6
 70
     1
 43
0.0
 10
1271.180336074288
 20
121.1029978376997
 10
1268.680336074288
 20
122.5463735106738
 10
1266.180336074288
 20
121.1029978376997
 10
1266.180336074288
 20
118.2162464917516
 10
1268.680336074288
 20
116.7728708187775
 10
1271.180336074288
 20
118.2162464917516
  0
CIRCLE
  5
13FF
330
2
100
AcDbEntity
  8
0
100
AcDbCircle
 10
1268.680336074288
 20
188.9560867210063
 30
0.0
 40
5.0
  0
CIRCLE
  5
1400
330
2
100
AcDbEntity
  8
0
100
AcDbCircle
 10
1268.680336074288
 20
188.9560867210063
 30
0.0
 40
4.307179676972423
  0
CIRCLE
  5
1401
330
2
100
AcDbEntity
  8
0
100
AcDbCircle
 10
1268.680336074288
 20
188.9560867210063
 30
0.0
 40
2.886751345948113
  0
LWPOLYLINE
  5
1402
330
2
100
AcDbEntity
  8
0
100
AcDbPolyline
 90
        6
 70
     1
 43
0.0
 10
1271.180336074288
 20
190.3994623939803
 10
1268.680336074288
 20
191.8428380669544
 10
1266.180336074288
 20
190.3994623939803
 10
1266.180336074288
 20
187.5127110480322
 10
1268.680336074288
 20
186.0693353750581
 10
1271.180336074288
 20
187.5127110480322
  0
LINE
  5
1403
330
2
100
AcDbEntity
  8
CENTER
  6
CENS
100
AcDbLine
 10
952.8661451394246
 20
188.9560867210045
 30
0.0
 11
979.8661451394245
 21
188.9560867210045
 31
0.0
  0
LINE
  5
1404
330
2
100
AcDbEntity
  8
0
100
AcDbLine
 10
974.4661451394248
 20
183.9560867210045
 30
0.0
 11
974.4661451394248
 21
193.9560867210045
 31
0.0
  0
LINE
  5
1405
330
2
100
AcDbEntity
  8
0
100
AcDbLine
 10
974.8661451394246
 20
193.2632663979773
 30
0.0
 11
974.8661451394246
 21
184.6489070440327
 31
0.0
  0
LINE
  5
1406
330
2
100
AcDbEntity
  8
0
100
AcDbLine
 10
968.8661451394246
 20
183.9560867210045
 30
0.0
 11
968.8661451394246
 21
193.9560867210045
 31
0.0
  0
LINE
  5
1407
330
2
100
AcDbEntity
  8
0
100
AcDbLine
 10
968.8661451394246
 20
193.9560867210045
 30
0.0
 11
967.8661451394246
 21
193.9560867210045
 31
0.0
  0
LINE
  5
1408
330
2
100
AcDbEntity
  8
0
100
AcDbLine
 10
967.8661451394246
 20
193.9560867210045
 30
0.0
 11
967.8661451394246
 21
183.9560867210045
 31
0.0
  0
LINE
  5
1409
330
2
100
AcDbEntity
  8
0
100
AcDbLine
 10
967.8661451394246
 20
183.9560867210045
 30
0.0
 11
968.8661451394246
 21
183.9560867210045
 31
0.0
  0
LINE
  5
140A
330
2
100
AcDbEntity
  8
0
100
AcDbLine
 10
968.8661451394246
 20
183.9560867210045
 30
0.0
 11
968.8661451394246
 21
193.9560867210045
 31
0.0
  0
LINE
  5
140B
330
2
100
AcDbEntity
  8
0
100
AcDbLine
 10
974.4661451394248
 20
183.9560867210045
 30
0.0
 11
968.8661451394246
 21
183.9560867210045
 31
0.0
  0
LINE
  5
140C
330
2
100
AcDbEntity
  8
0
100
AcDbLine
 10
968.8661451394246
 20
193.9560867210045
 30
0.0
 11
974.4661451394248
 21
193.9560867210045
 31
0.0
  0
LINE
  5
140D
330
2
100
AcDbEntity
  8
0
100
AcDbLine
 10
974.4661451394248
 20
193.9560867210045
 30
0.0
 11
974.8661451394246
 21
193.2632663979773
 31
0.0
  0
LINE
  5
140E
330
2
100
AcDbEntity
  8
0
100
AcDbLine
 10
974.4661451394248
 20
183.9560867210045
 30
0.0
 11
974.8661451394246
 21
184.6489070440327
 31
0.0
  0
LINE
  5
140F
330
2
100
AcDbEntity
  8
CENTER
  6
CENS
100
AcDbLine
 10
952.8661451394246
 20
119.6596221647239
 30
0.0
 11
979.8661451394245
 21
119.6596221647239
 31
0.0
  0
LINE
  5
1410
330
2
100
AcDbEntity
  8
0
100
AcDbLine
 10
974.4661451394248
 20
124.6596221647239
 30
0.0
 11
974.4661451394248
 21
114.6596221647239
 31
0.0
  0
LINE
  5
1411
330
2
100
AcDbEntity
  8
0
100
AcDbLine
 10
974.8661451394246
 20
115.3524424877512
 30
0.0
 11
974.8661451394246
 21
123.9668018416957
 31
0.0
  0
LINE
  5
1412
330
2
100
AcDbEntity
  8
0
100
AcDbLine
 10
968.8661451394246
 20
124.6596221647239
 30
0.0
 11
968.8661451394246
 21
114.6596221647239
 31
0.0
  0
LINE
  5
1413
330
2
100
AcDbEntity
  8
0
100
AcDbLine
 10
968.8661451394246
 20
114.6596221647239
 30
0.0
 11
967.8661451394246
 21
114.6596221647239
 31
0.0
  0
LINE
  5
1414
330
2
100
AcDbEntity
  8
0
100
AcDbLine
 10
967.8661451394246
 20
124.6596221647239
 30
0.0
 11
968.8661451394246
 21
124.6596221647239
 31
0.0
  0
LINE
  5
1415
330
2
100
AcDbEntity
  8
0
100
AcDbLine
 10
968.8661451394246
 20
124.6596221647239
 30
0.0
 11
968.8661451394246
 21
114.6596221647239
 31
0.0
  0
LINE
  5
1416
330
2
100
AcDbEntity
  8
0
100
AcDbLine
 10
974.4661451394248
 20
124.6596221647239
 30
0.0
 11
968.8661451394246
 21
124.6596221647239
 31
0.0
  0
LINE
  5
1417
330
2
100
AcDbEntity
  8
0
100
AcDbLine
 10
968.8661451394246
 20
114.6596221647239
 30
0.0
 11
974.4661451394248
 21
114.6596221647239
 31
0.0
  0
LINE
  5
1418
330
2
100
AcDbEntity
  8
0
100
AcDbLine
 10
974.4661451394248
 20
114.659622164723
 30
0.0
 11
974.8661451394246
 21
115.3524424877512
 31
0.0
  0
LINE
  5
1419
330
2
100
AcDbEntity
  8
0
100
AcDbLine
 10
974.4661451394248
 20
124.6596221647239
 30
0.0
 11
974.8661451394246
 21
123.9668018416957
 31
0.0
  0
LINE
  5
141A
330
2
100
AcDbEntity
  8
CENTER
  6
CENS
100
AcDbLine
 10
952.8661451394276
 20
497.0492779426366
 30
0.0
 11
979.8661451394275
 21
497.0492779426366
 31
0.0
  0
LINE
  5
141B
330
2
100
AcDbEntity
  8
0
100
AcDbLine
 10
974.4661451394279
 20
502.0492779426366
 30
0.0
 11
974.4661451394279
 21
492.0492779426366
 31
0.0
  0
LINE
  5
141C
330
2
100
AcDbEntity
  8
0
100
AcDbLine
 10
974.8661451394275
 20
492.7420982656639
 30
0.0
 11
974.8661451394275
 21
501.3564576196094
 31
0.0
  0
LINE
  5
141D
330
2
100
AcDbEntity
  8
0
100
AcDbLine
 10
968.8661451394276
 20
502.0492779426366
 30
0.0
 11
968.8661451394276
 21
492.0492779426366
 31
0.0
  0
LINE
  5
141E
330
2
100
AcDbEntity
  8
0
100
AcDbLine
 10
968.8661451394276
 20
492.0492779426366
 30
0.0
 11
967.8661451394274
 21
492.0492779426367
 31
0.0
  0
LINE
  5
141F
330
2
100
AcDbEntity
  8
0
100
AcDbLine
 10
967.8661451394274
 20
502.0492779426366
 30
0.0
 11
968.8661451394276
 21
502.0492779426366
 31
0.0
  0
LINE
  5
1420
330
2
100
AcDbEntity
  8
0
100
AcDbLine
 10
968.8661451394276
 20
502.0492779426366
 30
0.0
 11
968.8661451394276
 21
492.0492779426366
 31
0.0
  0
LINE
  5
1421
330
2
100
AcDbEntity
  8
0
100
AcDbLine
 10
974.4661451394279
 20
502.0492779426366
 30
0.0
 11
968.8661451394276
 21
502.0492779426366
 31
0.0
  0
LINE
  5
1422
330
2
100
AcDbEntity
  8
0
100
AcDbLine
 10
968.8661451394276
 20
492.0492779426366
 30
0.0
 11
974.4661451394279
 21
492.0492779426366
 31
0.0
  0
LINE
  5
1423
330
2
100
AcDbEntity
  8
0
100
AcDbLine
 10
974.4661451394279
 20
492.0492779426366
 30
0.0
 11
974.8661451394275
 21
492.7420982656639
 31
0.0
  0
LINE
  5
1424
330
2
100
AcDbEntity
  8
CENTER
  6
CENS
100
AcDbLine
 10
952.8661451394276
 20
566.3457424989181
 30
0.0
 11
979.8661451394275
 21
566.3457424989181
 31
0.0
  0
LINE
  5
1425
330
2
100
AcDbEntity
  8
0
100
AcDbLine
 10
974.4661451394279
 20
561.3457424989181
 30
0.0
 11
974.4661451394279
 21
571.3457424989181
 31
0.0
  0
LINE
  5
1426
330
2
100
AcDbEntity
  8
0
100
AcDbLine
 10
974.8661451394275
 20
570.6529221758909
 30
0.0
 11
974.8661451394275
 21
562.0385628219463
 31
0.0
  0
LINE
  5
1427
330
2
100
AcDbEntity
  8
0
100
AcDbLine
 10
968.8661451394276
 20
561.3457424989181
 30
0.0
 11
968.8661451394276
 21
571.3457424989181
 31
0.0
  0
LINE
  5
1428
330
2
100
AcDbEntity
  8
0
100
AcDbLine
 10
968.8661451394276
 20
571.3457424989181
 30
0.0
 11
967.8661451394274
 21
571.3457424989181
 31
0.0
  0
LINE
  5
1429
330
2
100
AcDbEntity
  8
0
100
AcDbLine
 10
967.8661451394274
 20
561.3457424989181
 30
0.0
 11
968.8661451394276
 21
561.3457424989181
 31
0.0
  0
LINE
  5
142A
330
2
100
AcDbEntity
  8
0
100
AcDbLine
 10
968.8661451394276
 20
561.3457424989181
 30
0.0
 11
968.8661451394276
 21
571.3457424989181
 31
0.0
  0
LINE
  5
142B
330
2
100
AcDbEntity
  8
0
100
AcDbLine
 10
974.4661451394279
 20
561.3457424989181
 30
0.0
 11
968.8661451394276
 21
561.3457424989181
 31
0.0
  0
LINE
  5
142C
330
2
100
AcDbEntity
  8
0
100
AcDbLine
 10
968.8661451394276
 20
571.3457424989181
 30
0.0
 11
974.4661451394279
 21
571.3457424989181
 31
0.0
  0
LINE
  5
142D
330
2
100
AcDbEntity
  8
0
100
AcDbLine
 10
974.4661451394279
 20
571.3457424989191
 30
0.0
 11
974.8661451394275
 21
570.6529221758909
 31
0.0
  0
LINE
  5
142E
330
2
100
AcDbEntity
  8
0
100
AcDbLine
 10
974.4661451394279
 20
561.3457424989181
 30
0.0
 11
974.8661451394275
 21
562.0385628219463
 31
0.0
  0
LINE
  5
142F
330
2
100
AcDbEntity
  8
0
100
AcDbLine
 10
974.8661451394275
 20
501.3564576196094
 30
0.0
 11
974.4661451394279
 21
502.0492779426366
 31
0.0
  0
LINE
  5
1430
330
2
100
AcDbEntity
  8
0
100
AcDbLine
 10
989.3661345303726
 20
161.3078544428651
 30
0.0
 11
979.3661345303727
 21
161.3078544428651
 31
0.0
  0
LINE
  5
1431
330
2
100
AcDbEntity
  8
0
100
AcDbLine
 10
989.3661345303726
 20
161.3078544428642
 30
0.0
 11
989.3661345303726
 21
154.3078544428642
 31
0.0
  0
LINE
  5
1432
330
2
100
AcDbEntity
  8
0
100
AcDbLine
 10
991.3661345303726
 20
162.4625549812433
 30
0.0
 11
989.3661345303726
 21
161.3078544428642
 31
0.0
  0
LINE
  5
1433
330
2
100
AcDbEntity
  8
0
100
AcDbLine
 10
962.3661345303727
 20
161.5578544428642
 30
0.0
 11
962.3661345303727
 21
154.3078544428642
 31
0.0
  0
LINE
  5
1434
330
2
100
AcDbEntity
  8
0
100
AcDbLine
 10
989.3661345303726
 20
161.3078544428642
 30
0.0
 11
979.3661345303727
 21
161.3078544428642
 31
0.0
  0
LINE
  5
1435
330
2
100
AcDbEntity
  8
0
100
AcDbLine
 10
984.2783487090464
 20
169.0578544428642
 30
0.0
 11
991.3661345303726
 21
169.0578544428642
 31
0.0
  0
LINE
  5
1436
330
2
100
AcDbEntity
  8
0
100
AcDbLine
 10
991.3661345303726
 20
169.0578544428642
 30
0.0
 11
991.3661345303726
 21
154.3078544428642
 31
0.0
  0
LINE
  5
1437
330
2
100
AcDbEntity
  8
0
100
AcDbLine
 10
977.3661345303725
 20
164.5925356295872
 30
0.0
 11
977.3661345303725
 21
154.3078544428642
 31
0.0
  0
LINE
  5
1438
330
2
100
AcDbEntity
  8
0
100
AcDbLine
 10
979.3661345303727
 20
165.1179357770195
 30
0.0
 11
979.3661345303727
 21
154.3078544428642
 31
0.0
  0
LINE
  5
1439
330
2
100
AcDbEntity
  8
0
100
AcDbLine
 10
970.3661345303727
 20
161.5578544428642
 30
0.0
 11
962.3661345303727
 21
161.5578544428642
 31
0.0
  0
LINE
  5
143A
330
2
100
AcDbEntity
  8
0
100
AcDbLine
 10
970.3661345303727
 20
154.3078544428642
 30
0.0
 11
970.3661345303727
 21
161.5578544428642
 31
0.0
  0
LINE
  5
143B
330
2
100
AcDbEntity
  8
0
100
AcDbLine
 10
977.3661345303725
 20
161.3078544428642
 30
0.0
 11
970.3661345303727
 21
161.3078544428642
 31
0.0
  0
LINE
  5
143C
330
2
100
AcDbEntity
  8
0
100
AcDbLine
 10
958.6133577806403
 20
154.3078544428642
 30
0.0
 11
962.3661345303727
 21
160.8078544428642
 31
0.0
  0
LINE
  5
143D
330
2
100
AcDbEntity
  8
0
100
AcDbLine
 10
991.8661451394246
 20
179.3078544428642
 30
0.0
 11
998.8661451394246
 21
179.3078544428642
 31
0.0
  0
LINE
  5
143E
330
2
100
AcDbEntity
  8
0
100
AcDbLine
 10
991.8661451394246
 20
179.3078544428642
 30
0.0
 11
991.8661451394246
 21
154.3078544428642
 31
0.0
  0
SPLINE
  5
143F
330
2
100
AcDbEntity
  8
HOJO
100
AcDbSpline
210
0.0
220
0.0
230
1.0
 70
     8
 71
     3
 72
    20
 73
    16
 74
     0
 42
0.0000000001
 43
0.0000000001
 40
0.0
 40
0.0
 40
0.0
 40
0.0
 40
5.311626210389601
 40
7.954639692924123
 40
10.24579206730457
 40
14.18281221953265
 40
18.83794314114633
 40
26.54246833222011
 40
31.19712602527561
 40
34.95638115537181
 40
42.12378530287149
 40
45.78553747213095
 40
50.20353689726185
 40
53.26513166942802
 40
54.23175360515262
 40
54.23175360515262
 40
54.23175360515262
 40
54.23175360515262
 10
998.8661451394246
 20
180.9953031648808
 30
0.0
 10
997.1531659735346
 20
180.8872611146541
 30
0.0
 10
994.5878250541236
 20
180.7254583922501
 30
0.0
 10
990.816071167047
 20
180.4733257200821
 30
0.0
 10
989.496929950913
 20
177.5408842351159
 30
0.0
 10
987.061720582623
 20
174.8863754118199
 30
0.0
 10
985.2236722394728
 20
169.7350799786561
 30
0.0
 10
981.0988358299955
 20
165.025332627031
 30
0.0
 10
975.6211883269889
 20
164.388001192611
 30
0.0
 10
970.7078028174228
 20
163.5339775610525
 30
0.0
 10
965.8738034706647
 20
163.1978370392814
 30
0.0
 10
960.8360767060249
 20
162.7944622903767
 30
0.0
 10
957.7649260846564
 20
158.5922592935173
 30
0.0
 10
956.7649517899308
 20
155.9140187726277
 30
0.0
 10
956.4089122646974
 20
154.6190057425562
 30
0.0
 10
956.3261844926101
 20
154.3078544428642
 30
0.0
  0
LINE
  5
1440
330
2
100
AcDbEntity
  8
HIDS
  6
SEKKEI_H
100
AcDbLine
 10
1294.495235019097
 20
153.557854442866
 30
0.0
 11
1294.495235019097
 21
144.7745211095322
 31
0.0
  0
LINE
  5
1441
330
2
100
AcDbEntity
  8
HIDS
  6
SEKKEI_H
100
AcDbLine
 10
1291.161901685763
 20
153.557854442866
 30
0.0
 11
1291.161901685763
 21
145.969106202139
 31
0.0
  0
LINE
  5
1442
330
2
100
AcDbEntity
  8
HIDS
  6
SEKKEI_H
100
AcDbLine
 10
1290.828568352429
 20
153.557854442866
 30
0.0
 11
1290.828568352429
 21
146.4776245611835
 31
0.0
  0
LINE
  5
1443
330
2
100
AcDbEntity
  8
CENTER
  6
CENS
100
AcDbLine
 10
1292.828568352429
 20
193.2347883404297
 30
0.0
 11
1292.828568352429
 21
142.8556040983091
 31
0.0
  0
LINE
  5
1444
330
2
100
AcDbEntity
  8
HIDS
  6
SEKKEI_H
100
AcDbLine
 10
1294.828568352429
 20
153.557854442866
 30
0.0
 11
1294.828568352429
 21
142.253290991625
 31
0.0
  0
LINE
  5
1445
330
2
100
AcDbEntity
  8
HIDS
  6
SEKKEI_H
100
AcDbLine
 10
1291.799366298515
 20
145.1078544428662
 30
0.0
 11
1292.828568352429
 21
145.1078544428662
 31
0.0
  0
LINE
  5
1446
330
2
100
AcDbEntity
  8
0
100
AcDbLine
 10
1291.628568352428
 20
144.307854442866
 30
0.0
 11
1292.485944131328
 21
144.307854442866
 31
0.0
  0
LINE
  5
1447
330
2
100
AcDbEntity
  8
0
100
AcDbLine
 10
1290.828568352429
 20
146.4776245611835
 30
0.0
 11
1290.828568352429
 21
145.1078544428662
 31
0.0
  0
LINE
  5
1448
330
2
100
AcDbEntity
  8
HOJO
100
AcDbLine
 10
1291.161901685763
 20
145.969106202139
 30
0.0
 11
1291.161901685763
 21
144.7745211095322
 31
0.0
  0
LINE
  5
1449
330
2
100
AcDbEntity
  8
0
100
AcDbLine
 10
1290.828568352429
 20
145.1078544428662
 30
0.0
 11
1291.799366298515
 21
145.1078544428662
 31
0.0
  0
LINE
  5
144A
330
2
100
AcDbEntity
  8
0
100
AcDbLine
 10
1290.828568352429
 20
145.1078544428662
 30
0.0
 11
1291.628568352428
 21
144.307854442866
 31
0.0
  0
LINE
  5
144B
330
2
100
AcDbEntity
  8
HIDS
  6
SEKKEI_H
100
AcDbLine
 10
1292.485944131328
 20
144.307854442866
 30
0.0
 11
1292.828568352429
 21
144.307854442866
 31
0.0
  0
LINE
  5
144C
330
2
100
AcDbEntity
  8
HIDS
  6
SEKKEI_H
100
AcDbLine
 10
1294.828568352429
 20
145.1078544428662
 30
0.0
 11
1294.02856835243
 21
144.307854442866
 31
0.0
  0
LINE
  5
144D
330
2
100
AcDbEntity
  8
HIDS
  6
SEKKEI_H
100
AcDbLine
 10
1294.02856835243
 20
144.307854442866
 30
0.0
 11
1292.828568352429
 21
144.307854442866
 31
0.0
  0
LINE
  5
144E
330
2
100
AcDbEntity
  8
HIDS
  6
SEKKEI_H
100
AcDbLine
 10
1294.828568352429
 20
145.1078544428662
 30
0.0
 11
1292.828568352429
 21
145.1078544428662
 31
0.0
  0
LINE
  5
144F
330
2
100
AcDbEntity
  8
HIDS
  6
SEKKEI_H
100
AcDbLine
 10
1294.495235019097
 20
144.7745211095322
 30
0.0
 11
1294.495235019097
 21
142.495372814427
 31
0.0
  0
LINE
  5
1450
330
2
100
AcDbEntity
  8
HIDS
  6
SEKKEI_H
100
AcDbLine
 10
1289.451879266052
 20
159.307854442866
 30
0.0
 11
1296.328568352429
 21
159.307854442866
 31
0.0
  0
LINE
  5
1451
330
2
100
AcDbEntity
  8
HIDS
  6
SEKKEI_H
100
AcDbLine
 10
1291.417544047191
 20
163.0078544428658
 30
0.0
 11
1296.328568352429
 21
163.0078544428658
 31
0.0
  0
LINE
  5
1452
330
2
100
AcDbEntity
  8
HIDS
  6
SEKKEI_H
100
AcDbLine
 10
1295.808953110159
 20
163.307854442866
 30
0.0
 11
1291.64257245991
 21
163.307854442866
 31
0.0
  0
LINE
  5
1453
330
2
100
AcDbEntity
  8
HIDS
  6
SEKKEI_H
100
AcDbLine
 10
1294.828568352429
 20
157.641187776199
 30
0.0
 11
1290.828568352429
 21
157.641187776199
 31
0.0
  0
LINE
  5
1454
330
2
100
AcDbEntity
  8
HIDS
  6
SEKKEI_H
100
AcDbLine
 10
1289.451879266052
 20
159.307854442866
 30
0.0
 11
1296.828568352429
 21
159.307854442866
 31
0.0
  0
LINE
  5
1455
330
2
100
AcDbEntity
  8
0
100
AcDbLine
 10
1288.597648489772
 20
155.057854442866
 30
0.0
 11
1292.828568352429
 21
155.057854442866
 31
0.0
  0
LINE
  5
1456
330
2
100
AcDbEntity
  8
0
100
AcDbLine
 10
1288.597648489772
 20
153.557854442866
 30
0.0
 11
1292.828568352429
 21
153.557854442866
 31
0.0
  0
LINE
  5
1457
330
2
100
AcDbEntity
  8
0
100
AcDbLine
 10
1289.328568352429
 20
163.0078544428658
 30
0.0
 11
1289.328568352429
 21
159.307854442866
 31
0.0
  0
LINE
  5
1458
330
2
100
AcDbEntity
  8
0
100
AcDbLine
 10
1290.828568352429
 20
155.057854442866
 30
0.0
 11
1290.828568352429
 21
153.557854442866
 31
0.0
  0
LINE
  5
1459
330
2
100
AcDbEntity
  8
HOJO
100
AcDbLine
 10
1291.161901685763
 20
155.057854442866
 30
0.0
 11
1291.161901685763
 21
153.557854442866
 31
0.0
  0
LINE
  5
145A
330
2
100
AcDbEntity
  8
HIDS
  6
SEKKEI_H
100
AcDbLine
 10
1290.828568352429
 20
159.307854442866
 30
0.0
 11
1291.161901685763
 21
157.641187776199
 31
0.0
  0
LINE
  5
145B
330
2
100
AcDbEntity
  8
0
100
AcDbLine
 10
1289.328568352429
 20
159.307854442866
 30
0.0
 11
1289.451879266052
 21
159.307854442866
 31
0.0
  0
LINE
  5
145C
330
2
100
AcDbEntity
  8
HIDS
  6
SEKKEI_H
100
AcDbLine
 10
1291.161901685763
 20
157.641187776199
 30
0.0
 11
1291.161901685763
 21
155.057854442866
 31
0.0
  0
LINE
  5
145D
330
2
100
AcDbEntity
  8
HIDS
  6
SEKKEI_H
100
AcDbLine
 10
1290.828568352429
 20
159.307854442866
 30
0.0
 11
1290.828568352429
 21
155.057854442866
 31
0.0
  0
LINE
  5
145E
330
2
100
AcDbEntity
  8
HIDS
  6
SEKKEI_H
100
AcDbLine
 10
1290.328568352429
 20
159.307854442866
 30
0.0
 11
1290.328568352429
 21
155.057854442866
 31
0.0
  0
LINE
  5
145F
330
2
100
AcDbEntity
  8
0
100
AcDbLine
 10
1291.64257245991
 20
163.307854442866
 30
0.0
 11
1289.8481835947
 21
163.307854442866
 31
0.0
  0
LINE
  5
1460
330
2
100
AcDbEntity
  8
0
100
AcDbLine
 10
1289.328568352429
 20
163.0078544428658
 30
0.0
 11
1289.8481835947
 21
163.307854442866
 31
0.0
  0
LINE
  5
1461
330
2
100
AcDbEntity
  8
0
100
AcDbLine
 10
1289.328568352429
 20
163.0078544428658
 30
0.0
 11
1291.417544047191
 21
163.0078544428658
 31
0.0
  0
LINE
  5
1462
330
2
100
AcDbEntity
  8
HIDS
  6
SEKKEI_H
100
AcDbLine
 10
1296.328568352429
 20
159.307854442866
 30
0.0
 11
1296.328568352429
 21
163.0078544428658
 31
0.0
  0
LINE
  5
1463
330
2
100
AcDbEntity
  8
HIDS
  6
SEKKEI_H
100
AcDbLine
 10
1296.828568352429
 20
167.5484171197319
 30
0.0
 11
1296.828568352429
 21
159.307854442866
 31
0.0
  0
LINE
  5
1464
330
2
100
AcDbEntity
  8
HOJO
100
AcDbLine
 10
1294.495235019097
 20
155.057854442866
 30
0.0
 11
1294.495235019097
 21
153.557854442866
 31
0.0
  0
LINE
  5
1465
330
2
100
AcDbEntity
  8
0
100
AcDbLine
 10
1294.828568352429
 20
155.057854442866
 30
0.0
 11
1294.828568352429
 21
153.557854442866
 31
0.0
  0
LINE
  5
1466
330
2
100
AcDbEntity
  8
0
100
AcDbLine
 10
1292.828568352429
 20
153.557854442866
 30
0.0
 11
1296.368862898892
 21
153.557854442866
 31
0.0
  0
LINE
  5
1467
330
2
100
AcDbEntity
  8
0
100
AcDbLine
 10
1292.828568352429
 20
155.057854442866
 30
0.0
 11
1296.368862898892
 21
155.057854442866
 31
0.0
  0
LINE
  5
1468
330
2
100
AcDbEntity
  8
HIDS
  6
SEKKEI_H
100
AcDbLine
 10
1294.828568352429
 20
159.307854442866
 30
0.0
 11
1294.495235019097
 21
157.641187776199
 31
0.0
  0
LINE
  5
1469
330
2
100
AcDbEntity
  8
HIDS
  6
SEKKEI_H
100
AcDbLine
 10
1294.828568352429
 20
159.307854442866
 30
0.0
 11
1294.828568352429
 21
155.057854442866
 31
0.0
  0
LINE
  5
146A
330
2
100
AcDbEntity
  8
HIDS
  6
SEKKEI_H
100
AcDbLine
 10
1294.495235019097
 20
157.641187776199
 30
0.0
 11
1294.495235019097
 21
155.057854442866
 31
0.0
  0
LINE
  5
146B
330
2
100
AcDbEntity
  8
HIDS
  6
SEKKEI_H
100
AcDbLine
 10
1295.328568352429
 20
159.307854442866
 30
0.0
 11
1295.328568352429
 21
155.057854442866
 31
0.0
  0
LINE
  5
146C
330
2
100
AcDbEntity
  8
HIDS
  6
SEKKEI_H
100
AcDbLine
 10
1295.808953110159
 20
163.307854442866
 30
0.0
 11
1296.328568352429
 21
163.0078544428658
 31
0.0
  0
LINE
  5
146D
330
2
100
AcDbEntity
  8
0
100
AcDbLine
 10
1317.328568352429
 20
153.557854442866
 30
0.0
 11
1310.288273805966
 21
153.557854442866
 31
0.0
  0
LINE
  5
146E
330
2
100
AcDbEntity
  8
0
100
AcDbLine
 10
1310.288273805966
 20
155.057854442866
 30
0.0
 11
1317.328568352429
 21
155.057854442866
 31
0.0
  0
LINE
  5
146F
330
2
100
AcDbEntity
  8
0
100
AcDbLine
 10
1317.328568352429
 20
155.057854442866
 30
0.0
 11
1317.328568352429
 21
153.557854442866
 31
0.0
  0
ARC
  5
1470
330
2
100
AcDbEntity
  8
0
100
AcDbCircle
 10
1303.328568352427
 20
154.3078544428669
 30
0.0
 40
8.154700538378051
100
AcDbArc
 50
185.2770359348315
 51
354.7229640651684
  0
ARC
  5
1471
330
2
100
AcDbEntity
  8
0
100
AcDbCircle
 10
1303.328568352427
 20
154.3078544428669
 30
0.0
 40
8.154700538378051
100
AcDbArc
 50
5.277035934805344
 51
174.7229640651946
  0
CIRCLE
  5
1472
330
2
100
AcDbEntity
  8
0
100
AcDbCircle
 10
1303.328568352429
 20
154.307854442866
 30
0.0
 40
7.000000000000113
  0
CIRCLE
  5
1473
330
2
100
AcDbEntity
  8
HOJO
100
AcDbCircle
 10
1278.579831010901
 20
179.0565917843948
 30
0.0
 40
2.0
  0
CIRCLE
  5
1474
330
2
100
AcDbEntity
  8
0
100
AcDbCircle
 10
1278.579831010901
 20
179.0565917843948
 30
0.0
 40
1.6
  0
CIRCLE
  5
1475
330
2
100
AcDbEntity
  8
HOJO
100
AcDbCircle
 10
1328.077305693959
 20
179.0565917843948
 30
0.0
 40
2.0
  0
CIRCLE
  5
1476
330
2
100
AcDbEntity
  8
0
100
AcDbCircle
 10
1328.077305693959
 20
179.0565917843948
 30
0.0
 40
1.6
  0
CIRCLE
  5
1477
330
2
100
AcDbEntity
  8
HOJO
100
AcDbCircle
 10
1328.077305693959
 20
129.5591171013372
 30
0.0
 40
2.0
  0
CIRCLE
  5
1478
330
2
100
AcDbEntity
  8
0
100
AcDbCircle
 10
1328.077305693959
 20
129.5591171013372
 30
0.0
 40
1.6
  0
CIRCLE
  5
1479
330
2
100
AcDbEntity
  8
HOJO
100
AcDbCircle
 10
1278.579831010901
 20
129.5591171013372
 30
0.0
 40
2.0
  0
CIRCLE
  5
147A
330
2
100
AcDbEntity
  8
0
100
AcDbCircle
 10
1278.579831010901
 20
129.5591171013372
 30
0.0
 40
1.6
  0
CIRCLE
  5
147C
330
2
100
AcDbEntity
  8
0
100
AcDbCircle
 10
1303.328568352431
 20
154.307854442866
 30
0.0
 40
14.75000000000022
  0
CIRCLE
  5
147D
330
2
100
AcDbEntity
  8
0
100
AcDbCircle
 10
984.8661345303774
 20
521.1975102207778
 30
0.0
 40
9.0
  0
LINE
  5
147E
330
2
100
AcDbEntity
  8
CENTER
  6
CENS
100
AcDbLine
 10
984.8661345303755
 20
509.6113443754019
 30
0.0
 11
984.8661345303755
 21
532.7836760661538
 31
0.0
  0
LINE
  5
147F
330
2
100
AcDbEntity
  8
CENTER
  6
CENS
100
AcDbLine
 10
996.4523003757514
 20
521.1975102207778
 30
0.0
 11
973.2799686849997
 21
521.1975102207778
 31
0.0
  0
LINE
  5
1480
330
2
100
AcDbEntity
  8
0
100
AcDbLine
 10
989.9351826319062
 20
189.8858064933035
 30
0.0
 11
979.9367056803411
 21
190.0603305576757
 31
0.0
  0
ARC
  5
1481
330
2
100
AcDbEntity
  8
0
100
AcDbCircle
 10
979.8668960545919
 20
186.0609397770501
 30
0.0
 40
4.000000000000023
100
AcDbArc
 50
89.0000000000243
 51
178.9999999999982
  0
ARC
  5
1482
330
2
100
AcDbEntity
  8
0
100
AcDbCircle
 10
989.8653730061552
 20
185.8864157126779
 30
0.0
 40
4.000000000000023
100
AcDbArc
 50
358.999999999995
 51
89.0000000000243
  0
LINE
  5
1483
330
2
100
AcDbEntity
  8
CENTER
  6
CENS
100
AcDbLine
 10
984.8661345303744
 20
193.2347883404279
 30
0.0
 11
984.8661345303744
 21
169.8748623380611
 31
0.0
  0
LINE
  5
1485
330
2
100
AcDbEntity
  8
0
100
AcDbLine
 10
995.8661451394245
 20
124.2554892480791
 30
0.0
 11
995.8661451394245
 21
154.3078544428642
 31
0.0
  0
LINE
  5
1486
330
2
100
AcDbEntity
  8
0
100
AcDbLine
 10
1287.953568352429
 20
190.0603305576775
 30
0.0
 11
1297.703568352429
 21
190.0603305576775
 31
0.0
  0
ARC
  5
1487
330
2
100
AcDbEntity
  8
0
100
AcDbCircle
 10
1287.953568352429
 20
185.8103305576775
 30
0.0
 40
4.25
100
AcDbArc
 50
90.0
 51
179.9485848525427
  0
ARC
  5
1488
330
2
100
AcDbEntity
  8
0
100
AcDbCircle
 10
1297.453568352429
 20
185.8103305576775
 30
0.0
 40
4.25
100
AcDbArc
 50
0.0
 51
90.0
  0
ARC
  5
1489
330
2
100
AcDbEntity
  8
0
100
AcDbCircle
 10
1267.328568352426
 20
190.307854442866
 30
0.0
 40
5.0
100
AcDbArc
 50
90.0
 51
180.0
  0
LINE
  5
148A
330
2
100
AcDbEntity
  8
0
100
AcDbLine
 10
80.86246813553145
 20
193.2205096081856
 30
0.0
 11
80.86246813553145
 21
114.6596221647238
 31
0.0
  0
LINE
  5
148B
330
2
100
AcDbEntity
  8
0
100
AcDbLine
 10
92.86246813553146
 20
113.3078544428641
 30
0.0
 11
82.84501506453464
 21
113.3952754314152
 31
0.0
  0
LINE
  5
148C
330
2
100
AcDbEntity
  8
0
100
AcDbLine
 10
73.86246813553146
 20
122.467480676764
 30
0.0
 11
55.14981107773404
 21
122.7941113206872
 31
0.0
  0
LINE
  5
148D
330
2
100
AcDbEntity
  8
0
100
AcDbLine
 10
52.86246813553145
 20
124.255489248079
 30
0.0
 11
49.86246813553146
 21
124.3078544428642
 31
0.0
  0
LINE
  5
148E
330
2
100
AcDbEntity
  8
0
100
AcDbLine
 10
92.86246813553146
 20
195.3078544428642
 30
0.0
 11
82.8450150645348
 21
195.2204334543139
 31
0.0
  0
LINE
  5
1491
330
2
100
AcDbEntity
  8
0
100
AcDbLine
 10
52.86246813553145
 20
124.255489248079
 30
0.0
 11
53.79584520111536
 21
123.35469649706
 31
0.0
  0
LINE
  5
1492
330
2
100
AcDbEntity
  8
0
100
AcDbLine
 10
73.86246813553146
 20
186.1482282089643
 30
0.0
 11
54.86384948817539
 21
185.8166060869283
 31
0.0
  0
LINE
  5
1493
330
2
100
AcDbEntity
  8
0
100
AcDbLine
 10
52.86246813553145
 20
184.3602196376493
 30
0.0
 11
49.86246813553146
 21
184.3078544428641
 31
0.0
  0
LINE
  5
1494
330
2
100
AcDbEntity
  8
0
100
AcDbLine
 10
52.86246813553145
 20
184.3602196376493
 30
0.0
 11
53.79584520111539
 21
185.2610123886684
 31
0.0
  0
LINE
  5
1495
330
2
100
AcDbEntity
  8
0
100
AcDbLine
 10
49.86246813553146
 20
124.3078544428642
 30
0.0
 11
49.86246813553146
 21
184.3078544428641
 31
0.0
  0
LINE
  5
1496
330
2
100
AcDbEntity
  8
CENTER
  6
CENS
100
AcDbLine
 10
95.86246813553145
 20
188.9560867210045
 30
0.0
 11
68.86246813553146
 21
188.9560867210045
 31
0.0
  0
LINE
  5
1497
330
2
100
AcDbEntity
  8
0
100
AcDbLine
 10
74.2624681355311
 20
183.9560867210045
 30
0.0
 11
74.2624681355311
 21
193.9560867210045
 31
0.0
  0
LINE
  5
1498
330
2
100
AcDbEntity
  8
0
100
AcDbLine
 10
73.86246813553146
 20
193.2632663979772
 30
0.0
 11
73.86246813553146
 21
184.6489070440327
 31
0.0
  0
LINE
  5
1499
330
2
100
AcDbEntity
  8
0
100
AcDbLine
 10
79.86246813553146
 20
183.9560867210045
 30
0.0
 11
79.86246813553146
 21
193.9560867210045
 31
0.0
  0
LINE
  5
149A
330
2
100
AcDbEntity
  8
0
100
AcDbLine
 10
79.86246813553146
 20
193.9560867210045
 30
0.0
 11
80.86246813553145
 21
193.9560867210045
 31
0.0
  0
LINE
  5
149B
330
2
100
AcDbEntity
  8
0
100
AcDbLine
 10
80.86246813553145
 20
193.9560867210045
 30
0.0
 11
80.86246813553145
 21
183.9560867210045
 31
0.0
  0
LINE
  5
149C
330
2
100
AcDbEntity
  8
0
100
AcDbLine
 10
80.86246813553145
 20
183.9560867210045
 30
0.0
 11
79.86246813553146
 21
183.9560867210045
 31
0.0
  0
LINE
  5
149D
330
2
100
AcDbEntity
  8
0
100
AcDbLine
 10
79.86246813553146
 20
183.9560867210045
 30
0.0
 11
79.86246813553146
 21
193.9560867210045
 31
0.0
  0
LINE
  5
149E
330
2
100
AcDbEntity
  8
0
100
AcDbLine
 10
74.2624681355311
 20
183.9560867210045
 30
0.0
 11
79.86246813553146
 21
183.9560867210045
 31
0.0
  0
LINE
  5
149F
330
2
100
AcDbEntity
  8
0
100
AcDbLine
 10
79.86246813553146
 20
193.9560867210045
 30
0.0
 11
74.2624681355311
 21
193.9560867210045
 31
0.0
  0
LINE
  5
14A0
330
2
100
AcDbEntity
  8
0
100
AcDbLine
 10
74.2624681355311
 20
193.9560867210045
 30
0.0
 11
73.86246813553146
 21
193.2632663979772
 31
0.0
  0
LINE
  5
14A1
330
2
100
AcDbEntity
  8
0
100
AcDbLine
 10
74.2624681355311
 20
183.9560867210045
 30
0.0
 11
73.86246813553146
 21
184.6489070440327
 31
0.0
  0
LINE
  5
14A2
330
2
100
AcDbEntity
  8
CENTER
  6
CENS
100
AcDbLine
 10
95.86246813553145
 20
119.6596221647238
 30
0.0
 11
68.86246813553146
 21
119.6596221647238
 31
0.0
  0
LINE
  5
14A3
330
2
100
AcDbEntity
  8
0
100
AcDbLine
 10
74.2624681355311
 20
124.6596221647238
 30
0.0
 11
74.2624681355311
 21
114.6596221647238
 31
0.0
  0
LINE
  5
14A4
330
2
100
AcDbEntity
  8
0
100
AcDbLine
 10
73.86246813553146
 20
115.3524424877511
 30
0.0
 11
73.86246813553146
 21
123.9668018416957
 31
0.0
  0
LINE
  5
14A5
330
2
100
AcDbEntity
  8
0
100
AcDbLine
 10
79.86246813553146
 20
124.6596221647238
 30
0.0
 11
79.86246813553146
 21
114.6596221647238
 31
0.0
  0
LINE
  5
14A6
330
2
100
AcDbEntity
  8
0
100
AcDbLine
 10
79.86246813553146
 20
114.6596221647238
 30
0.0
 11
80.86246813553145
 21
114.6596221647238
 31
0.0
  0
LINE
  5
14A7
330
2
100
AcDbEntity
  8
0
100
AcDbLine
 10
80.86246813553145
 20
124.6596221647238
 30
0.0
 11
79.86246813553146
 21
124.6596221647238
 31
0.0
  0
LINE
  5
14A8
330
2
100
AcDbEntity
  8
0
100
AcDbLine
 10
79.86246813553146
 20
124.6596221647238
 30
0.0
 11
79.86246813553146
 21
114.6596221647238
 31
0.0
  0
LINE
  5
14A9
330
2
100
AcDbEntity
  8
0
100
AcDbLine
 10
74.2624681355311
 20
124.6596221647238
 30
0.0
 11
79.86246813553146
 21
124.6596221647238
 31
0.0
  0
LINE
  5
14AA
330
2
100
AcDbEntity
  8
0
100
AcDbLine
 10
79.86246813553146
 20
114.6596221647238
 30
0.0
 11
74.2624681355311
 21
114.6596221647238
 31
0.0
  0
LINE
  5
14AB
330
2
100
AcDbEntity
  8
0
100
AcDbLine
 10
74.2624681355311
 20
114.6596221647229
 30
0.0
 11
73.86246813553146
 21
115.3524424877511
 31
0.0
  0
LINE
  5
14AC
330
2
100
AcDbEntity
  8
0
100
AcDbLine
 10
74.2624681355311
 20
124.6596221647238
 30
0.0
 11
73.86246813553146
 21
123.9668018416957
 31
0.0
  0
LINE
  5
14AD
330
2
100
AcDbEntity
  8
0
100
AcDbLine
 10
58.79343064304987
 20
189.8858064933035
 30
0.0
 11
68.79190759461483
 21
190.0603305576757
 31
0.0
  0
ARC
  5
14AE
330
2
100
AcDbEntity
  8
0
100
AcDbCircle
 10
68.86171722036408
 20
186.0609397770501
 30
0.0
 40
4.000000000000023
100
AcDbArc
 50
1.000000000001775
 51
90.99999999997569
  0
ARC
  5
14AF
330
2
100
AcDbEntity
  8
0
100
AcDbCircle
 10
58.86324026880095
 20
185.8864157126778
 30
0.0
 40
4.000000000000023
100
AcDbArc
 50
90.99999999997569
 51
181.000000000005
  0
LINE
  5
14B0
330
2
100
AcDbEntity
  8
CENTER
  6
CENS
100
AcDbLine
 10
63.86247874458161
 20
193.2347883404278
 30
0.0
 11
63.86247874458161
 21
169.874862338061
 31
0.0
  0
LINE
  5
14B2
330
2
100
AcDbEntity
  8
0
100
AcDbLine
 10
52.86246813553145
 20
124.255489248079
 30
0.0
 11
52.86246813553145
 21
184.3602196376493
 31
0.0
  0
CIRCLE
  5
14B3
330
2
100
AcDbEntity
  8
0
100
AcDbCircle
 10
1303.328568352429
 20
154.307854442866
 30
0.0
 40
22.5
  0
LINE
  5
267F
330
2
100
AcDbEntity
  8
CENTER
100
AcDbLine
 10
462.1431561668219
 20
79.5827507782717
 30
0.0
 11
462.1431561668219
 21
229.032958107455
 31
0.0
  0
LINE
  5
2680
330
2
100
AcDbEntity
  8
CENTER
100
AcDbLine
 10
238.2724681355304
 20
229.3078544428624
 30
0.0
 11
238.2724681355304
 21
79.30785444286243
 31
0.0
  0
ARC
  5
2682
330
2
100
AcDbEntity
  8
0
100
AcDbCircle
 10
207.272468135514
 20
185.3078544428624
 30
0.0
 40
15.0
100
AcDbArc
 50
90.0
 51
180.0
  0
ARC
  5
2683
330
2
100
AcDbEntity
  8
0
100
AcDbCircle
 10
207.907150618903
 20
292.9078354107803
 30
0.0
 40
80.0
100
AcDbArc
 50
259.7661103968963
 51
275.2796032823969
  0
ARC
  5
2684
330
2
100
AcDbEntity
  8
0
100
AcDbCircle
 10
207.272468135514
 20
185.3078544428624
 30
0.0
 40
17.0
100
AcDbArc
 50
90.0
 51
180.0
  0
ARC
  5
2685
330
2
100
AcDbEntity
  8
0
100
AcDbCircle
 10
207.2724681355131
 20
123.3078544428624
 30
0.0
 40
15.0
100
AcDbArc
 50
180.0
 51
270.0
  0
ARC
  5
2686
330
2
100
AcDbEntity
  8
0
100
AcDbCircle
 10
207.907150618903
 20
15.70787347494456
 30
0.0
 40
80.0
100
AcDbArc
 50
84.72039671760308
 51
100.2338896031036
  0
ARC
  5
2687
330
2
100
AcDbEntity
  8
0
100
AcDbCircle
 10
207.2724681355131
 20
123.3078544428624
 30
0.0
 40
17.0
100
AcDbArc
 50
180.0
 51
270.0
  0
CIRCLE
  5
2688
330
2
100
AcDbEntity
  8
0
100
AcDbCircle
 10
238.272468135514
 20
154.3078544428624
 30
0.0
 40
39.99999999999994
  0
CIRCLE
  5
2689
330
2
100
AcDbEntity
  8
0
100
AcDbCircle
 10
238.272468135514
 20
154.3078544428624
 30
0.0
 40
39.49999999999994
  0
CIRCLE
  5
268A
330
2
100
AcDbEntity
  8
0
100
AcDbCircle
 10
238.272468135514
 20
154.3078544428624
 30
0.0
 40
37.49999999999994
  0
CIRCLE
  5
268B
330
2
100
AcDbEntity
  8
0
100
AcDbCircle
 10
238.272468135514
 20
154.3078544428624
 30
0.0
 40
36.92264999999999
  0
LINE
  5
268C
330
2
100
AcDbEntity
  8
0
100
AcDbLine
 10
178.2724681355013
 20
204.3078544428624
 30
0.0
 11
178.2724681355122
 21
104.3078544428624
 31
0.0
  0
LINE
  5
268D
330
2
100
AcDbEntity
  8
0
100
AcDbLine
 10
134.7724681355122
 20
189.3078544428624
 30
0.0
 11
134.7724681355122
 21
119.3078544428624
 31
0.0
  0
LINE
  5
268E
330
2
100
AcDbEntity
  8
0
100
AcDbLine
 10
134.7724681355304
 20
189.3078544428642
 30
0.0
 11
134.7724681355304
 21
119.3078544428642
 31
0.0
  0
LINE
  5
2690
330
2
100
AcDbEntity
  8
0
100
AcDbLine
 10
104.8624681355314
 20
114.8078544428642
 30
0.0
 11
104.8624681355314
 21
193.8078544428642
 31
0.0
  0
LINE
  5
2691
330
2
100
AcDbEntity
  8
0
100
AcDbLine
 10
116.3100962924064
 20
126.3078544428624
 30
0.0
 11
116.3100962924837
 21
182.3078544428624
 31
0.0
  0
LINE
  5
2692
330
2
100
AcDbEntity
  8
0
100
AcDbLine
 10
190.272468135514
 20
185.3078544428624
 30
0.0
 11
190.2724681355131
 21
123.3078544428624
 31
0.0
  0
LINE
  5
2693
330
2
100
AcDbEntity
  8
0
100
AcDbLine
 10
192.272468135514
 20
185.3078544428624
 30
0.0
 11
192.2724681355131
 21
123.3078544428624
 31
0.0
  0
LINE
  5
2694
330
2
100
AcDbEntity
  8
CENTER
100
AcDbLine
 10
153.522468135514
 20
119.307854442866
 30
0.0
 11
132.022468135514
 21
119.307854442866
 31
0.0
  0
ARC
  5
2695
330
2
100
AcDbEntity
  8
0
100
AcDbCircle
 10
129.7724681355322
 20
125.807854442866
 30
0.0
 40
5.0
100
AcDbArc
 50
0.0
 51
90.0
  0
ARC
  5
2696
330
2
100
AcDbEntity
  8
0
100
AcDbCircle
 10
131.7724681355322
 20
122.807854442866
 30
0.0
 40
3.0
100
AcDbArc
 50
0.0
 51
90.0
  0
LINE
  5
2697
330
2
100
AcDbEntity
  8
0
100
AcDbLine
 10
102.8624681355314
 20
113.3078544428642
 30
0.0
 11
92.86246813553146
 21
113.3078544428642
 31
0.0
  0
LINE
  5
2698
330
2
100
AcDbEntity
  8
0
100
AcDbLine
 10
102.8624681355314
 20
112.8078544428642
 30
0.0
 11
92.86246813553146
 21
112.8078544428642
 31
0.0
  0
LINE
  5
2699
330
2
100
AcDbEntity
  8
0
100
AcDbLine
 10
129.7724681355322
 20
130.807854442866
 30
0.0
 11
121.2944560037423
 21
130.807854442866
 31
0.0
  0
ARC
  5
269A
330
2
100
AcDbEntity
  8
0
100
AcDbCircle
 10
109.8624681355951
 20
118.307854442866
 30
0.0
 40
5.0
100
AcDbArc
 50
90.0
 51
180.0
  0
ARC
  5
269B
330
2
100
AcDbEntity
  8
0
100
AcDbCircle
 10
102.8624681355314
 20
115.3078544428642
 30
0.0
 40
2.0
100
AcDbArc
 50
270.0
 51
0.0
  0
ARC
  5
269C
330
2
100
AcDbEntity
  8
0
100
AcDbCircle
 10
102.8624681355314
 20
114.8078544428642
 30
0.0
 40
2.0
100
AcDbArc
 50
270.0
 51
0.0
  0
ARC
  5
269D
330
2
100
AcDbEntity
  8
0
100
AcDbCircle
 10
118.1834934648105
 20
122.807854442866
 30
0.0
 40
3.0
100
AcDbArc
 50
90.0
 51
144.3146652872802
  0
ARC
  5
269E
330
2
100
AcDbEntity
  8
0
100
AcDbCircle
 10
113.3100962924064
 20
126.307854442866
 30
0.0
 40
3.0
100
AcDbArc
 50
270.0
 51
356.4166783015281
  0
LINE
  5
269F
330
2
100
AcDbEntity
  8
0
100
AcDbLine
 10
113.3100962924064
 20
123.307854442866
 30
0.0
 11
109.8624681355951
 21
123.307854442866
 31
0.0
  0
LINE
  5
26A0
330
2
100
AcDbEntity
  8
0
100
AcDbLine
 10
131.7724681355322
 20
125.807854442866
 30
0.0
 11
118.1834934648105
 21
125.807854442866
 31
0.0
  0
ARC
  5
26A1
330
2
100
AcDbEntity
  8
0
100
AcDbCircle
 10
121.2944560037423
 20
125.807854442866
 30
0.0
 40
5.0
100
AcDbArc
 50
90.0
 51
176.4166783015281
  0
LINE
  5
26A2
330
2
100
AcDbEntity
  8
0
100
AcDbLine
 10
142.7724681355122
 20
111.3078544428624
 30
0.0
 11
170.3002673799011
 21
111.3078544428624
 31
0.0
  0
LINE
  5
26A3
330
2
100
AcDbEntity
  8
CENTER
100
AcDbLine
 10
157.272468135514
 20
108.807854442866
 30
0.0
 11
157.272468135514
 21
124.807854442866
 31
0.0
  0
CIRCLE
  5
26A4
330
2
100
AcDbEntity
  8
HOJO
100
AcDbCircle
 10
157.272468135514
 20
116.8078544428624
 30
0.0
 40
2.5
  0
CIRCLE
  5
26A5
330
2
100
AcDbEntity
  8
0
100
AcDbCircle
 10
157.272468135514
 20
116.8078544428624
 30
0.0
 40
3.5
  0
CIRCLE
  5
26A6
330
2
100
AcDbEntity
  8
0
100
AcDbCircle
 10
157.272468135514
 20
116.8078544428624
 30
0.0
 40
2.0
  0
ARC
  5
26A7
330
2
100
AcDbEntity
  8
0
100
AcDbCircle
 10
142.7724681355194
 20
119.3078544428624
 30
0.0
 40
8.5
100
AcDbArc
 50
0.0
 51
90.0
  0
LINE
  5
26A8
330
2
100
AcDbEntity
  8
0
100
AcDbLine
 10
139.772468135514
 20
121.0399052504342
 30
0.0
 11
142.772468135514
 21
122.7719560580042
 31
0.0
  0
LINE
  5
26A9
330
2
100
AcDbEntity
  8
0
100
AcDbLine
 10
142.772468135514
 20
122.7719560580042
 30
0.0
 11
145.772468135514
 21
121.0399052504342
 31
0.0
  0
LINE
  5
26AA
330
2
100
AcDbEntity
  8
CENTER
100
AcDbLine
 10
142.7724681355122
 20
108.557854442866
 30
0.0
 11
142.772468135514
 21
130.057854442866
 31
0.0
  0
CIRCLE
  5
26AB
330
2
100
AcDbEntity
  8
0
100
AcDbCircle
 10
142.772468135514
 20
119.307854442866
 30
0.0
 40
5.63397459621558
  0
CIRCLE
  5
26AC
330
2
100
AcDbEntity
  8
0
100
AcDbCircle
 10
142.772468135514
 20
119.307854442866
 30
0.0
 40
6.5
  0
ARC
  5
26AD
330
2
100
AcDbEntity
  8
0
100
AcDbCircle
 10
153.2724681355231
 20
113.3078544428624
 30
0.0
 40
2.0
100
AcDbArc
 50
180.0
 51
270.0
  0
LINE
  5
26AE
330
2
100
AcDbEntity
  8
0
100
AcDbLine
 10
151.2724681355194
 20
119.3078544428678
 30
0.0
 11
151.2724681355231
 21
113.3078544428624
 31
0.0
  0
LINE
  5
26AF
330
2
100
AcDbEntity
  8
0
100
AcDbLine
 10
142.772468135514
 20
115.8437528277279
 30
0.0
 11
145.772468135514
 21
117.5758036352979
 31
0.0
  0
LINE
  5
26B0
330
2
100
AcDbEntity
  8
0
100
AcDbLine
 10
139.772468135514
 20
121.0399052504342
 30
0.0
 11
139.772468135514
 21
117.575803635296
 31
0.0
  0
LINE
  5
26B1
330
2
100
AcDbEntity
  8
0
100
AcDbLine
 10
139.772468135514
 20
117.575803635296
 30
0.0
 11
142.772468135514
 21
115.8437528277279
 31
0.0
  0
ARC
  5
26B2
330
2
100
AcDbEntity
  8
0
100
AcDbCircle
 10
142.7724681355122
 20
119.3078544428624
 30
0.0
 40
8.0
100
AcDbArc
 50
180.0
 51
270.0
  0
LINE
  5
26B3
330
2
100
AcDbEntity
  8
0
100
AcDbLine
 10
145.772468135514
 20
117.5758036352979
 30
0.0
 11
145.772468135514
 21
121.0399052504342
 31
0.0
  0
LINE
  5
26B4
330
2
100
AcDbEntity
  8
0
100
AcDbLine
 10
142.772468135514
 20
127.8078544428624
 30
0.0
 11
136.772468135514
 21
127.8078544428606
 31
0.0
  0
ARC
  5
26B5
330
2
100
AcDbEntity
  8
0
100
AcDbCircle
 10
136.7724681355122
 20
129.8078544428606
 30
0.0
 40
2.0
100
AcDbArc
 50
180.0
 51
270.0
  0
LINE
  5
26B6
330
2
100
AcDbEntity
  8
CENTER
100
AcDbLine
 10
165.272468135514
 20
116.807854442866
 30
0.0
 11
149.272468135514
 21
116.807854442866
 31
0.0
  0
CIRCLE
  5
26B7
330
2
100
AcDbEntity
  8
0
100
AcDbCircle
 10
157.272468135514
 20
116.8078544428624
 30
0.0
 40
4.0
  0
ARC
  5
26B8
330
2
100
AcDbEntity
  8
0
100
AcDbCircle
 10
192.2724681355158
 20
102.3078544428624
 30
0.0
 40
8.0
100
AcDbArc
 50
270.0
 51
280.2338896031037
  0
LINE
  5
26B9
330
2
100
AcDbEntity
  8
0
100
AcDbLine
 10
196.6658664177149
 20
112.7012527250642
 30
0.0
 11
195.2516528553425
 21
111.2870391626909
 31
0.0
  0
ARC
  5
26BA
330
2
100
AcDbEntity
  8
0
100
AcDbCircle
 10
170.3002673799011
 20
103.3078544428624
 30
0.0
 40
8.0
100
AcDbArc
 50
3.184738536778241
 51
90.0
  0
ARC
  5
26BB
330
2
100
AcDbEntity
  8
0
100
AcDbCircle
 10
188.2724681355122
 20
104.3078544428642
 30
0.0
 40
10.0
100
AcDbArc
 50
180.0
 51
270.0
  0
LINE
  5
26BC
330
2
100
AcDbEntity
  8
0
100
AcDbLine
 10
188.2724681355122
 20
94.30785444286243
 30
0.0
 11
192.2724681355158
 21
94.30785444286243
 31
0.0
  0
ARC
  5
26BD
330
2
100
AcDbEntity
  8
0
100
AcDbCircle
 10
131.7724681355285
 20
185.807854442866
 30
0.0
 40
3.0
100
AcDbArc
 50
270.0
 51
0.0
  0
LINE
  5
26BE
330
2
100
AcDbEntity
  8
CENTER
100
AcDbLine
 10
153.522468135514
 20
189.3078544428642
 30
0.0
 11
132.022468135514
 21
189.3078544428624
 31
0.0
  0
ARC
  5
26BF
330
2
100
AcDbEntity
  8
0
100
AcDbCircle
 10
131.7724681355304
 20
148.807854442866
 30
0.0
 40
3.0
100
AcDbArc
 50
0.0
 51
90.0
  0
ARC
  5
26C0
330
2
100
AcDbEntity
  8
0
100
AcDbCircle
 10
131.7724681355304
 20
159.807854442866
 30
0.0
 40
3.0
100
AcDbArc
 50
270.0
 51
0.0
  0
ARC
  5
26C1
330
2
100
AcDbEntity
  8
0
100
AcDbCircle
 10
129.7724681355285
 20
182.807854442866
 30
0.0
 40
5.0
100
AcDbArc
 50
270.0
 51
0.0
  0
ARC
  5
26C2
330
2
100
AcDbEntity
  8
0
100
AcDbCircle
 10
121.2944560038196
 20
182.807854442866
 30
0.0
 40
5.0
100
AcDbArc
 50
183.5833216984718
 51
270.0
  0
LINE
  5
26C3
330
2
100
AcDbEntity
  8
0
100
AcDbLine
 10
131.7724681355304
 20
156.807854442866
 30
0.0
 11
119.3100962924519
 21
156.807854442866
 31
0.0
  0
LINE
  5
26C4
330
2
100
AcDbEntity
  8
0
100
AcDbLine
 10
131.7724681355304
 20
151.807854442866
 30
0.0
 11
119.3100962924364
 21
151.807854442866
 31
0.0
  0
LINE
  5
26C5
330
2
100
AcDbEntity
  8
0
100
AcDbLine
 10
129.7724681355285
 20
177.807854442866
 30
0.0
 11
121.2944560038196
 21
177.807854442866
 31
0.0
  0
ARC
  5
26C6
330
2
100
AcDbEntity
  8
0
100
AcDbCircle
 10
119.3100962924364
 20
148.807854442866
 30
0.0
 40
3.0
100
AcDbArc
 50
90.0
 51
179.9999999998957
  0
ARC
  5
26C7
330
2
100
AcDbEntity
  8
0
100
AcDbCircle
 10
119.3100962924519
 20
159.807854442866
 30
0.0
 40
3.0
100
AcDbArc
 50
179.9999999998957
 51
270.0
  0
LINE
  5
26C8
330
2
100
AcDbEntity
  8
0
100
AcDbLine
 10
92.86246813553146
 20
195.3078544428642
 30
0.0
 11
102.8624681355314
 21
195.3078544428642
 31
0.0
  0
LINE
  5
26C9
330
2
100
AcDbEntity
  8
0
100
AcDbLine
 10
92.86246813553146
 20
195.8078544428642
 30
0.0
 11
102.8624681355314
 21
195.8078544428642
 31
0.0
  0
ARC
  5
26CA
330
2
100
AcDbEntity
  8
0
100
AcDbCircle
 10
118.1834934648887
 20
185.807854442866
 30
0.0
 40
3.0
100
AcDbArc
 50
215.6853347127197
 51
270.0
  0
ARC
  5
26CB
330
2
100
AcDbEntity
  8
0
100
AcDbCircle
 10
113.3100962924837
 20
182.307854442866
 30
0.0
 40
3.0
100
AcDbArc
 50
359.9999999998958
 51
90.0
  0
ARC
  5
26CC
330
2
100
AcDbEntity
  8
0
100
AcDbCircle
 10
109.8624681355951
 20
190.307854442866
 30
0.0
 40
5.0
100
AcDbArc
 50
180.0
 51
270.0
  0
ARC
  5
26CD
330
2
100
AcDbEntity
  8
0
100
AcDbCircle
 10
102.8624681355314
 20
193.3078544428642
 30
0.0
 40
2.0
100
AcDbArc
 50
0.0
 51
90.0
  0
ARC
  5
26CE
330
2
100
AcDbEntity
  8
0
100
AcDbCircle
 10
102.8624681355314
 20
193.8078544428642
 30
0.0
 40
2.0
100
AcDbArc
 50
0.0
 51
90.0
  0
LINE
  5
26CF
330
2
100
AcDbEntity
  8
0
100
AcDbLine
 10
113.3100962924837
 20
185.307854442866
 30
0.0
 11
109.8624681355951
 21
185.307854442866
 31
0.0
  0
LINE
  5
26D0
330
2
100
AcDbEntity
  8
0
100
AcDbLine
 10
131.7724681355285
 20
182.807854442866
 30
0.0
 11
118.1834934648887
 21
182.807854442866
 31
0.0
  0
LINE
  5
26D1
330
2
100
AcDbEntity
  8
0
100
AcDbLine
 10
142.7724681355122
 20
197.3078544428624
 30
0.0
 11
170.3002673798892
 21
197.3078544428624
 31
0.0
  0
LINE
  5
26D2
330
2
100
AcDbEntity
  8
CENTER
100
AcDbLine
 10
157.272468135514
 20
199.8078544428642
 30
0.0
 11
157.272468135514
 21
183.8078544428642
 31
0.0
  0
CIRCLE
  5
26D3
330
2
100
AcDbEntity
  8
HOJO
100
AcDbCircle
 10
157.272468135514
 20
191.8078544428642
 30
0.0
 40
2.5
  0
CIRCLE
  5
26D4
330
2
100
AcDbEntity
  8
0
100
AcDbCircle
 10
157.272468135514
 20
191.8078544428624
 30
0.0
 40
3.5
  0
CIRCLE
  5
26D5
330
2
100
AcDbEntity
  8
0
100
AcDbCircle
 10
157.272468135514
 20
191.8078544428624
 30
0.0
 40
2.0
  0
LINE
  5
26D6
330
2
100
AcDbEntity
  8
0
100
AcDbLine
 10
151.2724681355194
 20
189.3078544428588
 30
0.0
 11
151.2724681355231
 21
195.3078544428642
 31
0.0
  0
ARC
  5
26D7
330
2
100
AcDbEntity
  8
0
100
AcDbCircle
 10
153.2724681355231
 20
195.3078544428624
 30
0.0
 40
2.0
100
AcDbArc
 50
90.0
 51
179.9999999998957
  0
LINE
  5
26D8
330
2
100
AcDbEntity
  8
0
100
AcDbLine
 10
142.772468135514
 20
185.8437528277261
 30
0.0
 11
145.772468135514
 21
187.5758036352942
 31
0.0
  0
LINE
  5
26D9
330
2
100
AcDbEntity
  8
0
100
AcDbLine
 10
142.772468135514
 20
192.7719560580005
 30
0.0
 11
145.772468135514
 21
191.0399052504324
 31
0.0
  0
LINE
  5
26DA
330
2
100
AcDbEntity
  8
CENTER
100
AcDbLine
 10
142.7724681355122
 20
200.0578544428624
 30
0.0
 11
142.772468135514
 21
178.5578544428624
 31
0.0
  0
LINE
  5
26DB
330
2
100
AcDbEntity
  8
0
100
AcDbLine
 10
142.772468135514
 20
180.8078544428624
 30
0.0
 11
136.772468135514
 21
180.807854442866
 31
0.0
  0
LINE
  5
26DC
330
2
100
AcDbEntity
  8
0
100
AcDbLine
 10
139.772468135514
 20
191.0399052504324
 30
0.0
 11
139.772468135514
 21
187.5758036352942
 31
0.0
  0
LINE
  5
26DD
330
2
100
AcDbEntity
  8
0
100
AcDbLine
 10
139.772468135514
 20
187.5758036352942
 30
0.0
 11
142.772468135514
 21
185.8437528277242
 31
0.0
  0
LINE
  5
26DE
330
2
100
AcDbEntity
  8
0
100
AcDbLine
 10
139.772468135514
 20
191.0399052504324
 30
0.0
 11
142.772468135514
 21
192.7719560580005
 31
0.0
  0
ARC
  5
26DF
330
2
100
AcDbEntity
  8
0
100
AcDbCircle
 10
142.7724681355122
 20
189.3078544428624
 30
0.0
 40
8.0
100
AcDbArc
 50
90.0
 51
180.0
  0
ARC
  5
26E0
330
2
100
AcDbEntity
  8
0
100
AcDbCircle
 10
136.7724681355122
 20
178.807854442866
 30
0.0
 40
2.0
100
AcDbArc
 50
89.99999999994789
 51
180.0
  0
LINE
  5
26E1
330
2
100
AcDbEntity
  8
0
100
AcDbLine
 10
145.772468135514
 20
187.5758036352942
 30
0.0
 11
145.772468135514
 21
191.0399052504324
 31
0.0
  0
ARC
  5
26E2
330
2
100
AcDbEntity
  8
0
100
AcDbCircle
 10
142.7724681355194
 20
189.3078544428624
 30
0.0
 40
8.5
100
AcDbArc
 50
269.9999999999478
 51
359.9999999998958
  0
CIRCLE
  5
26E3
330
2
100
AcDbEntity
  8
0
100
AcDbCircle
 10
142.772468135514
 20
189.3078544428624
 30
0.0
 40
5.63397459621558
  0
CIRCLE
  5
26E4
330
2
100
AcDbEntity
  8
0
100
AcDbCircle
 10
142.772468135514
 20
189.3078544428624
 30
0.0
 40
6.5
  0
LINE
  5
26E5
330
2
100
AcDbEntity
  8
CENTER
100
AcDbLine
 10
165.272468135514
 20
191.8078544428642
 30
0.0
 11
149.272468135514
 21
191.8078544428624
 31
0.0
  0
CIRCLE
  5
26E6
330
2
100
AcDbEntity
  8
0
100
AcDbCircle
 10
157.272468135514
 20
191.8078544428624
 30
0.0
 40
4.0
  0
LINE
  5
26E7
330
2
100
AcDbEntity
  8
0
100
AcDbLine
 10
196.6658664177158
 20
195.9144561606606
 30
0.0
 11
195.2516528553425
 21
197.3286697230339
 31
0.0
  0
ARC
  5
26E8
330
2
100
AcDbEntity
  8
0
100
AcDbCircle
 10
192.2724681355167
 20
206.3078544428624
 30
0.0
 40
8.0
100
AcDbArc
 50
79.76611039689631
 51
90.0
  0
ARC
  5
26E9
330
2
100
AcDbEntity
  8
0
100
AcDbCircle
 10
188.2724681355012
 20
204.3078544428624
 30
0.0
 40
10.0
100
AcDbArc
 50
90.0
 51
180.0
  0
ARC
  5
26EA
330
2
100
AcDbEntity
  8
0
100
AcDbCircle
 10
170.3002673798892
 20
205.3078544428624
 30
0.0
 40
8.0
100
AcDbArc
 50
270.0
 51
356.8152614632217
  0
LINE
  5
26EB
330
2
100
AcDbEntity
  8
0
100
AcDbLine
 10
188.2724681355122
 20
214.3078544428624
 30
0.0
 11
192.2724681355158
 21
214.3078544428624
 31
0.0
  0
LINE
  5
26EC
330
2
100
AcDbEntity
  8
0
100
AcDbLine
 10
286.272468135514
 20
185.3078544428624
 30
0.0
 11
286.2724681355131
 21
123.3078544428642
 31
0.0
  0
LINE
  5
26ED
330
2
100
AcDbEntity
  8
0
100
AcDbLine
 10
284.272468135514
 20
185.3078544428624
 30
0.0
 11
284.2724681355131
 21
123.3078544428642
 31
0.0
  0
ARC
  5
26EE
330
2
100
AcDbEntity
  8
0
100
AcDbCircle
 10
48.27246813551403
 20
154.3078544428624
 30
0.0
 40
250.0
100
AcDbArc
 50
354.7203967175511
 51
5.279603282448815
  0
CIRCLE
  5
26EF
330
2
100
AcDbEntity
  8
0
100
AcDbCircle
 10
238.2724681355131
 20
154.3078544428624
 30
0.0
 40
32.5
  0
CIRCLE
  5
26F0
330
2
100
AcDbEntity
  8
0
100
AcDbCircle
 10
238.272468135514
 20
154.3078544428624
 30
0.0
 40
33.07735
  0
ARC
  5
26F1
330
2
100
AcDbEntity
  8
0
100
AcDbCircle
 10
269.2724681355131
 20
123.3078544428642
 30
0.0
 40
17.0
100
AcDbArc
 50
270.0
 51
0.0
  0
ARC
  5
26F2
330
2
100
AcDbEntity
  8
0
100
AcDbCircle
 10
269.2724681355131
 20
123.3078544428642
 30
0.0
 40
15.0
100
AcDbArc
 50
270.0
 51
0.0
  0
ARC
  5
26F3
330
2
100
AcDbEntity
  8
0
100
AcDbCircle
 10
268.6377856521231
 20
15.70787347494456
 30
0.0
 40
80.0
100
AcDbArc
 50
79.76611039689631
 51
95.27960328239691
  0
LINE
  5
26F4
330
2
100
AcDbEntity
  8
0
100
AcDbLine
 10
269.272468135514
 20
106.3078544428642
 30
0.0
 11
207.272468135514
 21
106.3078544428624
 31
0.0
  0
LINE
  5
26F5
330
2
100
AcDbEntity
  8
0
100
AcDbLine
 10
269.272468135514
 20
108.3078544428642
 30
0.0
 11
207.272468135514
 21
108.3078544428624
 31
0.0
  0
ARC
  5
26F6
330
2
100
AcDbEntity
  8
0
100
AcDbCircle
 10
238.2724681355131
 20
344.3078544428624
 30
0.0
 40
250.0
100
AcDbArc
 50
264.7203967176031
 51
275.2796032823969
  0
ARC
  5
26F7
330
2
100
AcDbEntity
  8
0
100
AcDbCircle
 10
376.87244910343
 20
123.9425369262514
 30
0.0
 40
80.0
100
AcDbArc
 50
174.7203967175511
 51
190.2338896031561
  0
ARC
  5
26F8
330
2
100
AcDbEntity
  8
0
100
AcDbCircle
 10
295.3828327346701
 20
114.8078544428624
 30
0.0
 40
2.0
100
AcDbArc
 50
270.0
 51
6.395943096304094
  0
ARC
  5
26F9
330
2
100
AcDbEntity
  8
0
100
AcDbCircle
 10
290.2724681355122
 20
108.307854442866
 30
0.0
 40
8.0
100
AcDbArc
 50
0.0
 51
10.23388960315614
  0
LINE
  5
26FA
330
2
100
AcDbEntity
  8
0
100
AcDbLine
 10
298.2724681355122
 20
104.3078544428624
 30
0.0
 11
298.2724681355122
 21
108.307854442866
 31
0.0
  0
LINE
  5
26FB
330
2
100
AcDbEntity
  8
CENTER
100
AcDbLine
 10
291.2724681355085
 20
111.6486970447092
 30
0.0
 11
291.2724681355085
 21
125.9670118410229
 31
0.0
  0
LINE
  5
26FC
330
2
100
AcDbEntity
  8
0
100
AcDbLine
 10
291.2724681355104
 20
102.5758036352961
 30
0.0
 11
291.2724681355104
 21
106.0399052504342
 31
0.0
  0
CIRCLE
  5
26FD
330
2
100
AcDbEntity
  8
0
100
AcDbCircle
 10
291.2724681355104
 20
118.8078544428642
 30
0.0
 40
2.0
  0
ARC
  5
26FE
330
2
100
AcDbEntity
  8
0
100
AcDbCircle
 10
288.2724681355103
 20
104.3078544428624
 30
0.0
 40
8.5
100
AcDbArc
 50
90.0
 51
180.0
  0
ARC
  5
26FF
330
2
100
AcDbEntity
  8
0
100
AcDbCircle
 10
284.2724681355104
 20
102.3078544428624
 30
0.0
 40
8.0
100
AcDbArc
 50
259.7661103968963
 51
270.0
  0
LINE
  5
2700
330
2
100
AcDbEntity
  8
0
100
AcDbLine
 10
279.7724681355103
 20
104.3078544428642
 30
0.0
 11
279.7724681355103
 21
97.19748984370539
 31
0.0
  0
ARC
  5
2701
330
2
100
AcDbEntity
  8
0
100
AcDbCircle
 10
277.7724681355103
 20
97.19748984370539
 30
0.0
 40
2.0
100
AcDbArc
 50
263.6040569036959
 51
0.0
  0
LINE
  5
2702
330
2
100
AcDbEntity
  8
0
100
AcDbLine
 10
281.2932834156846
 20
111.2870391626927
 30
0.0
 11
279.8790698533113
 21
112.701252725066
 31
0.0
  0
LINE
  5
2703
330
2
100
AcDbEntity
  8
0
100
AcDbLine
 10
288.272468135514
 20
94.30785444286243
 30
0.0
 11
284.2724681355104
 21
94.30785444286243
 31
0.0
  0
LINE
  5
2704
330
2
100
AcDbEntity
  8
CENTER
100
AcDbLine
 10
288.2724681355103
 20
115.0578544428642
 30
0.0
 11
288.2724681355122
 21
93.55785444286425
 31
0.0
  0
LINE
  5
2705
330
2
100
AcDbEntity
  8
0
100
AcDbLine
 10
285.2724681355104
 20
106.0399052504342
 30
0.0
 11
285.2724681355104
 21
102.5758036352961
 31
0.0
  0
LINE
  5
2706
330
2
100
AcDbEntity
  8
0
100
AcDbLine
 10
285.2724681355104
 20
102.5758036352961
 30
0.0
 11
288.2724681355103
 21
100.8437528277279
 31
0.0
  0
LINE
  5
2707
330
2
100
AcDbEntity
  8
0
100
AcDbLine
 10
285.2724681355104
 20
106.0399052504342
 30
0.0
 11
288.2724681355103
 21
107.7719560580042
 31
0.0
  0
CIRCLE
  5
2708
330
2
100
AcDbEntity
  8
0
100
AcDbCircle
 10
288.2724681355103
 20
104.307854442866
 30
0.0
 40
5.63397459621558
  0
LINE
  5
2709
330
2
100
AcDbEntity
  8
0
100
AcDbLine
 10
288.2724681355103
 20
100.8437528277279
 30
0.0
 11
291.2724681355104
 21
102.5758036352961
 31
0.0
  0
LINE
  5
270A
330
2
100
AcDbEntity
  8
0
100
AcDbLine
 10
288.2724681355103
 20
107.7719560580042
 30
0.0
 11
291.2724681355104
 21
106.0399052504342
 31
0.0
  0
CIRCLE
  5
270B
330
2
100
AcDbEntity
  8
HOJO
100
AcDbCircle
 10
291.2724681355104
 20
118.8078544428642
 30
0.0
 40
2.5
  0
CIRCLE
  5
270C
330
2
100
AcDbEntity
  8
0
100
AcDbCircle
 10
291.2724681355104
 20
118.8078544428642
 30
0.0
 40
4.0
  0
LINE
  5
270D
330
2
100
AcDbEntity
  8
CENTER
100
AcDbLine
 10
299.0224681355103
 20
104.3078544428642
 30
0.0
 11
277.5224681355104
 21
104.307854442866
 31
0.0
  0
CIRCLE
  5
270E
330
2
100
AcDbEntity
  8
0
100
AcDbCircle
 10
288.2724681355103
 20
104.307854442866
 30
0.0
 40
6.5
  0
LINE
  5
270F
330
2
100
AcDbEntity
  8
CENTER
100
AcDbLine
 10
284.1133107373517
 20
118.807854442866
 30
0.0
 11
298.4316255336654
 21
118.807854442866
 31
0.0
  0
ARC
  5
2710
330
2
100
AcDbEntity
  8
0
100
AcDbCircle
 10
288.272468135514
 20
104.3078544428624
 30
0.0
 40
10.0
100
AcDbArc
 50
270.0
 51
0.0
  0
LINE
  5
2711
330
2
100
AcDbEntity
  8
0
100
AcDbLine
 10
288.2724681355103
 20
112.8078544428624
 30
0.0
 11
295.3828327346701
 21
112.8078544428624
 31
0.0
  0
CIRCLE
  5
2712
330
2
100
AcDbEntity
  8
0
100
AcDbCircle
 10
291.2724681355104
 20
118.8078544428642
 30
0.0
 40
3.5
  0
ARC
  5
2713
330
2
100
AcDbEntity
  8
0
100
AcDbCircle
 10
269.272468135514
 20
185.3078544428624
 30
0.0
 40
15.0
100
AcDbArc
 50
0.0
 51
90.0
  0
ARC
  5
2714
330
2
100
AcDbEntity
  8
0
100
AcDbCircle
 10
269.272468135514
 20
185.3078544428624
 30
0.0
 40
17.0
100
AcDbArc
 50
0.0
 51
90.0
  0
ARC
  5
2715
330
2
100
AcDbEntity
  8
0
100
AcDbCircle
 10
268.6377856521231
 20
292.9078354107803
 30
0.0
 40
80.0
100
AcDbArc
 50
264.7203967176031
 51
280.2338896031037
  0
ARC
  5
2716
330
2
100
AcDbEntity
  8
0
100
AcDbCircle
 10
238.2724681355131
 20
-35.69214555713756
 30
0.0
 40
250.0
100
AcDbArc
 50
84.72039671760308
 51
95.27960328239691
  0
LINE
  5
2717
330
2
100
AcDbEntity
  8
0
100
AcDbLine
 10
269.272468135514
 20
202.3078544428624
 30
0.0
 11
207.272468135514
 21
202.3078544428624
 31
0.0
  0
LINE
  5
2718
330
2
100
AcDbEntity
  8
0
100
AcDbLine
 10
269.272468135514
 20
200.3078544428624
 30
0.0
 11
207.272468135514
 21
200.3078544428624
 31
0.0
  0
ARC
  5
2719
330
2
100
AcDbEntity
  8
0
100
AcDbCircle
 10
376.87244910343
 20
184.6731719594715
 30
0.0
 40
80.0
100
AcDbArc
 50
169.7661103968438
 51
185.2796032824488
  0
ARC
  5
271A
330
2
100
AcDbEntity
  8
0
100
AcDbCircle
 10
295.382832734671
 20
193.8078544428642
 30
0.0
 40
2.0
100
AcDbArc
 50
353.6040569036959
 51
90.0
  0
LINE
  5
271B
330
2
100
AcDbEntity
  8
0
100
AcDbLine
 10
298.2724681355122
 20
204.3078544428624
 30
0.0
 11
298.2724681355122
 21
200.3078544428587
 31
0.0
  0
ARC
  5
271C
330
2
100
AcDbEntity
  8
0
100
AcDbCircle
 10
290.2724681355122
 20
200.3078544428587
 30
0.0
 40
8.0
100
AcDbArc
 50
349.7661103968439
 51
0.0
  0
CIRCLE
  5
271D
330
2
100
AcDbEntity
  8
0
100
AcDbCircle
 10
288.2724681355103
 20
204.3078544428624
 30
0.0
 40
5.63397459621558
  0
LINE
  5
271E
330
2
100
AcDbEntity
  8
0
100
AcDbLine
 10
279.7724681355103
 20
204.3078544428624
 30
0.0
 11
279.7724681355103
 21
211.4182190420194
 31
0.0
  0
LINE
  5
271F
330
2
100
AcDbEntity
  8
CENTER
100
AcDbLine
 10
288.2724681355103
 20
193.5578544428642
 30
0.0
 11
288.2724681355122
 21
215.0578544428642
 31
0.0
  0
LINE
  5
2720
330
2
100
AcDbEntity
  8
CENTER
100
AcDbLine
 10
291.2724681355076
 20
196.9670118410192
 30
0.0
 11
291.2724681355076
 21
182.6486970447056
 31
0.0
  0
CIRCLE
  5
2721
330
2
100
AcDbEntity
  8
0
100
AcDbCircle
 10
291.2724681355104
 20
189.8078544428624
 30
0.0
 40
2.0
  0
LINE
  5
2722
330
2
100
AcDbEntity
  8
0
100
AcDbLine
 10
291.2724681355104
 20
202.5758036352942
 30
0.0
 11
291.2724681355104
 21
206.0399052504324
 31
0.0
  0
ARC
  5
2723
330
2
100
AcDbEntity
  8
0
100
AcDbCircle
 10
288.2724681355103
 20
204.3078544428642
 30
0.0
 40
8.5
100
AcDbArc
 50
180.0
 51
270.0
  0
LINE
  5
2724
330
2
100
AcDbEntity
  8
0
100
AcDbLine
 10
281.2932834156846
 20
197.3286697230339
 30
0.0
 11
279.8790698533122
 21
195.9144561606606
 31
0.0
  0
LINE
  5
2725
330
2
100
AcDbEntity
  8
0
100
AcDbLine
 10
285.2724681355104
 20
206.0399052504324
 30
0.0
 11
288.2724681355103
 21
207.7719560580005
 31
0.0
  0
LINE
  5
2726
330
2
100
AcDbEntity
  8
0
100
AcDbLine
 10
285.2724681355104
 20
202.5758036352942
 30
0.0
 11
288.2724681355103
 21
200.8437528277261
 31
0.0
  0
LINE
  5
2727
330
2
100
AcDbEntity
  8
0
100
AcDbLine
 10
285.2724681355104
 20
206.0399052504324
 30
0.0
 11
285.2724681355104
 21
202.5758036352942
 31
0.0
  0
LINE
  5
2728
330
2
100
AcDbEntity
  8
0
100
AcDbLine
 10
288.2724681355103
 20
207.7719560580005
 30
0.0
 11
291.2724681355104
 21
206.0399052504324
 31
0.0
  0
CIRCLE
  5
2729
330
2
100
AcDbEntity
  8
HOJO
100
AcDbCircle
 10
291.2724681355104
 20
189.8078544428624
 30
0.0
 40
2.5
  0
LINE
  5
272A
330
2
100
AcDbEntity
  8
0
100
AcDbLine
 10
288.2724681355103
 20
200.8437528277261
 30
0.0
 11
291.2724681355104
 21
202.5758036352942
 31
0.0
  0
ARC
  5
272B
330
2
100
AcDbEntity
  8
0
100
AcDbCircle
 10
284.2724681355104
 20
206.3078544428624
 30
0.0
 40
8.0
100
AcDbArc
 50
90.0
 51
100.2338896031036
  0
ARC
  5
272C
330
2
100
AcDbEntity
  8
0
100
AcDbCircle
 10
277.7724681355103
 20
211.4182190420194
 30
0.0
 40
2.0
100
AcDbArc
 50
0.0
 51
96.39594309630409
  0
LINE
  5
272D
330
2
100
AcDbEntity
  8
0
100
AcDbLine
 10
288.272468135514
 20
214.3078544428624
 30
0.0
 11
284.2724681355104
 21
214.3078544428624
 31
0.0
  0
CIRCLE
  5
272E
330
2
100
AcDbEntity
  8
0
100
AcDbCircle
 10
288.2724681355103
 20
204.3078544428624
 30
0.0
 40
6.5
  0
ARC
  5
272F
330
2
100
AcDbEntity
  8
0
100
AcDbCircle
 10
288.2724681355122
 20
204.3078544428642
 30
0.0
 40
10.0
100
AcDbArc
 50
0.0
 51
90.0
  0
LINE
  5
2730
330
2
100
AcDbEntity
  8
CENTER
100
AcDbLine
 10
299.0224681355103
 20
204.3078544428642
 30
0.0
 11
277.5224681355104
 21
204.3078544428624
 31
0.0
  0
LINE
  5
2731
330
2
100
AcDbEntity
  8
CENTER
100
AcDbLine
 10
284.1133107373508
 20
189.8078544428624
 30
0.0
 11
298.4316255336644
 21
189.8078544428624
 31
0.0
  0
CIRCLE
  5
2732
330
2
100
AcDbEntity
  8
0
100
AcDbCircle
 10
291.2724681355104
 20
189.8078544428624
 30
0.0
 40
4.0
  0
CIRCLE
  5
2733
330
2
100
AcDbEntity
  8
0
100
AcDbCircle
 10
291.2724681355104
 20
189.8078544428624
 30
0.0
 40
3.5
  0
LINE
  5
2734
330
2
100
AcDbEntity
  8
0
100
AcDbLine
 10
288.2724681355103
 20
195.8078544428642
 30
0.0
 11
295.382832734671
 21
195.8078544428642
 31
0.0
  0
LINE
  5
2735
330
2
100
AcDbEntity
  8
CENTER
100
AcDbLine
 10
388.6431561668215
 20
154.3078544428642
 30
0.0
 11
588.1431561668217
 21
154.3078544428642
 31
0.0
  0
LINE
  5
2736
330
2
100
AcDbEntity
  8
0
100
AcDbLine
 10
506.143156166822
 20
204.3078544428642
 30
0.0
 11
430.6431561668297
 21
204.3078544428642
 31
0.0
  0
LINE
  5
2737
330
2
100
AcDbEntity
  8
0
100
AcDbLine
 10
506.143156166822
 20
200.3078544428606
 30
0.0
 11
430.6431561668297
 21
200.3078544428606
 31
0.0
  0
LINE
  5
2738
330
2
100
AcDbEntity
  8
0
100
AcDbLine
 10
506.143156166822
 20
177.3118828645344
 30
0.0
 11
430.6431561668278
 21
177.3118828645344
 31
0.0
  0
LINE
  5
2739
330
2
100
AcDbEntity
  8
0
100
AcDbLine
 10
430.6431561668297
 20
214.3078544428642
 30
0.0
 11
507.1431561668202
 21
213.6402490568705
 31
0.0
  0
LINE
  5
273A
330
2
100
AcDbEntity
  8
0
100
AcDbLine
 10
430.6431561668242
 20
94.30785444286243
 30
0.0
 11
507.1431561668219
 21
94.97545982885617
 31
0.0
  0
LINE
  5
273B
330
2
100
AcDbEntity
  8
0
100
AcDbLine
 10
506.143156166822
 20
104.3078544428642
 30
0.0
 11
430.6431561668297
 21
104.3078544428642
 31
0.0
  0
LINE
  5
273C
330
2
100
AcDbEntity
  8
0
100
AcDbLine
 10
506.143156166822
 20
108.3078544428679
 30
0.0
 11
430.6431561668297
 21
108.3078544428679
 31
0.0
  0
LINE
  5
273D
330
2
100
AcDbEntity
  8
0
100
AcDbLine
 10
506.143156166822
 20
131.303826021194
 30
0.0
 11
430.6431561668278
 21
131.303826021194
 31
0.0
  0
LINE
  5
273F
330
2
100
AcDbEntity
  8
0
100
AcDbLine
 10
414.1431561668215
 20
197.8078544428642
 30
0.0
 11
414.1431561668215
 21
110.8078544428642
 31
0.0
  0
LINE
  5
2741
330
2
100
AcDbEntity
  8
0
100
AcDbLine
 10
412.1431561668215
 20
110.8078544428642
 30
0.0
 11
412.1431561668215
 21
197.8078544428642
 31
0.0
  0
LINE
  5
2742
330
2
100
AcDbEntity
  8
0
100
AcDbLine
 10
403.6431561668215
 20
191.2305041736742
 30
0.0
 11
403.6431561668215
 21
117.3852047120542
 31
0.0
  0
LINE
  5
2743
330
2
100
AcDbEntity
  8
0
100
AcDbLine
 10
411.6431561668215
 20
114.8078544428642
 30
0.0
 11
411.6431561668215
 21
193.8078544428642
 31
0.0
  0
LINE
  5
2744
330
2
100
AcDbEntity
  8
0
100
AcDbLine
 10
406.1431561668215
 20
117.0078544428649
 30
0.0
 11
406.1431561668215
 21
191.6078544428653
 31
0.0
  0
LINE
  5
2745
330
2
100
AcDbEntity
  8
0
100
AcDbLine
 10
408.1431561668215
 20
117.0078544428649
 30
0.0
 11
408.1431561668215
 21
191.6078544428653
 31
0.0
  0
LINE
  5
2746
330
2
100
AcDbEntity
  8
0
100
AcDbLine
 10
404.6431561668215
 20
116.8078544428642
 30
0.0
 11
404.6431561668215
 21
191.8078544428642
 31
0.0
  0
LINE
  5
2747
330
2
100
AcDbEntity
  8
0
100
AcDbLine
 10
408.3431561668213
 20
116.8078544428642
 30
0.0
 11
408.3431561668213
 21
191.8078544428642
 31
0.0
  0
LINE
  5
2748
330
2
100
AcDbEntity
  8
0
100
AcDbLine
 10
430.6431561668242
 20
94.30785444286243
 30
0.0
 11
430.6431561668297
 21
214.3078544428642
 31
0.0
  0
LINE
  5
2749
330
2
100
AcDbEntity
  8
CENTER
  6
CENS
100
AcDbLine
 10
437.4030384586754
 20
104.3078544428642
 30
0.0
 11
407.6431561666805
 21
104.3078544428642
 31
0.0
  0
LINE
  5
274A
330
2
100
AcDbEntity
  8
0
100
AcDbLine
 10
406.3431561668213
 20
117.5078544428631
 30
0.0
 11
407.9431561668208
 21
117.5078544428631
 31
0.0
  0
LINE
  5
274B
330
2
100
AcDbEntity
  8
0
100
AcDbLine
 10
420.6431561666805
 20
112.3121988375676
 30
0.0
 11
420.6431561666805
 21
95.38643433136872
 31
0.0
  0
ARC
  5
274C
330
2
100
AcDbEntity
  8
0
100
AcDbCircle
 10
420.1431561666805
 20
112.3121988375676
 30
0.0
 40
0.5
100
AcDbArc
 50
0.0
 51
89.50000000003447
  0
ARC
  5
274D
330
2
100
AcDbEntity
  8
0
100
AcDbCircle
 10
421.6431561666805
 20
95.38643433136872
 30
0.0
 40
1.0
100
AcDbArc
 50
180.0
 51
269.4999999999823
  0
LINE
  5
274E
330
2
100
AcDbEntity
  8
0
100
AcDbLine
 10
418.6431561666806
 20
110.8078544428642
 30
0.0
 11
418.6431561666815
 21
97.80785444286426
 31
0.0
  0
LINE
  5
274F
330
2
100
AcDbEntity
  8
0
100
AcDbLine
 10
420.6431561666805
 20
97.80785444286426
 30
0.0
 11
418.6431561666806
 21
97.80785444286426
 31
0.0
  0
LINE
  5
2750
330
2
100
AcDbEntity
  8
0
100
AcDbLine
 10
420.6431561666805
 20
110.8078544428642
 30
0.0
 11
418.6431561666806
 21
110.8078544428642
 31
0.0
  0
LINE
  5
2751
330
2
100
AcDbEntity
  8
HIDS
100
AcDbLine
 10
414.1431561668206
 20
110.8078544428642
 30
0.0
 11
414.1431561668215
 21
97.80785444286426
 31
0.0
  0
LINE
  5
2752
330
2
100
AcDbEntity
  8
0
100
AcDbLine
 10
414.1431561668215
 20
97.80785444286426
 30
0.0
 11
414.1431561668215
 21
96.43447018260282
 31
0.0
  0
ARC
  5
2753
330
2
100
AcDbEntity
  8
0
100
AcDbCircle
 10
416.1431561668215
 20
96.43447018260282
 30
0.0
 40
2.0
100
AcDbArc
 50
180.0
 51
269.5000000000344
  0
LINE
  5
2754
330
2
100
AcDbEntity
  8
HIDS
100
AcDbLine
 10
412.1431561668215
 20
109.1362815676109
 30
0.0
 11
412.1431561668215
 21
110.8078544428642
 31
0.0
  0
LINE
  5
2755
330
2
100
AcDbEntity
  8
HIDS
100
AcDbLine
 10
413.5573697291948
 20
106.8936408804909
 30
0.0
 11
412.7289426044482
 21
107.7220680052375
 31
0.0
  0
LINE
  5
2756
330
2
100
AcDbEntity
  8
0
100
AcDbLine
 10
408.3431561668213
 20
116.8078544428642
 30
0.0
 11
411.6431561668215
 21
116.8078544428642
 31
0.0
  0
LINE
  5
2757
330
2
100
AcDbEntity
  8
0
100
AcDbLine
 10
412.1431561668215
 20
114.3078544428642
 30
0.0
 11
411.6431561668215
 21
114.8078544428642
 31
0.0
  0
LINE
  5
2758
330
2
100
AcDbEntity
  8
0
100
AcDbLine
 10
404.6431561668215
 20
116.8078544428642
 30
0.0
 11
405.9431561668217
 21
116.8078544428642
 31
0.0
  0
LINE
  5
2759
330
2
100
AcDbEntity
  8
0
100
AcDbLine
 10
408.1431561668215
 20
117.0078544428649
 30
0.0
 11
408.3431561668213
 21
116.8078544428642
 31
0.0
  0
LINE
  5
275A
330
2
100
AcDbEntity
  8
0
100
AcDbLine
 10
404.6431561668215
 20
116.8078544428642
 30
0.0
 11
403.6431561668215
 21
117.3852047120542
 31
0.0
  0
ARC
  5
275B
330
2
100
AcDbEntity
  8
HIDS
100
AcDbCircle
 10
414.1431561668215
 20
109.1362815676109
 30
0.0
 40
2.0
100
AcDbArc
 50
180.0
 51
224.9999999999908
  0
ARC
  5
275C
330
2
100
AcDbEntity
  8
HIDS
100
AcDbCircle
 10
412.1431561668215
 20
105.4794273181175
 30
0.0
 40
2.0
100
AcDbArc
 50
0.0
 51
44.99999999999078
  0
ARC
  5
275D
330
2
100
AcDbEntity
  8
0
100
AcDbCircle
 10
405.9431561668217
 20
117.0078544428649
 30
0.0
 40
0.2
100
AcDbArc
 50
270.0
 51
0.0
  0
ARC
  5
275E
330
2
100
AcDbEntity
  8
0
100
AcDbCircle
 10
416.1431561668215
 20
114.8472015046952
 30
0.0
 40
2.0
100
AcDbArc
 50
180.0
 51
269.5000000000344
  0
LINE
  5
275F
330
2
100
AcDbEntity
  8
0
100
AcDbLine
 10
410.6431561666806
 20
109.9418290390801
 30
0.0
 11
410.6431561666806
 21
98.67387984665015
 31
0.0
  0
LINE
  5
2760
330
2
100
AcDbEntity
  8
0
100
AcDbLine
 10
411.1431561666806
 20
97.80785444286426
 30
0.0
 11
410.6431561666806
 21
98.67387984665015
 31
0.0
  0
LINE
  5
2761
330
2
100
AcDbEntity
  8
0
100
AcDbLine
 10
411.1431561666806
 20
110.8078544428642
 30
0.0
 11
411.1431561666806
 21
97.80785444286426
 31
0.0
  0
LINE
  5
2762
330
2
100
AcDbEntity
  8
0
100
AcDbLine
 10
411.1431561666806
 20
110.8078544428642
 30
0.0
 11
410.6431561666806
 21
109.9418290390801
 31
0.0
  0
LINE
  5
2763
330
2
100
AcDbEntity
  8
0
100
AcDbLine
 10
420.1475194344303
 20
112.8121797991022
 30
0.0
 11
416.1257030958251
 21
112.8472776585674
 31
0.0
  0
LINE
  5
2764
330
2
100
AcDbEntity
  8
0
100
AcDbLine
 10
418.6431561666806
 20
97.80785444286426
 30
0.0
 11
411.1431561666806
 21
97.80785444286426
 31
0.0
  0
LINE
  5
2765
330
2
100
AcDbEntity
  8
0
100
AcDbLine
 10
418.6431561666806
 20
110.8078544428642
 30
0.0
 11
411.1431561666806
 21
110.8078544428642
 31
0.0
  0
ARC
  5
2766
330
2
100
AcDbEntity
  8
0
100
AcDbCircle
 10
406.3431561668213
 20
117.3078544428642
 30
0.0
 40
0.2
100
AcDbArc
 50
90.0
 51
180.0
  0
ARC
  5
2767
330
2
100
AcDbEntity
  8
0
100
AcDbCircle
 10
407.9431561668217
 20
117.3078544428642
 30
0.0
 40
0.2
100
AcDbArc
 50
0.0
 51
90.0
  0
LINE
  5
2768
330
2
100
AcDbEntity
  8
0
100
AcDbLine
 10
421.6344296311827
 20
104.3078544428642
 30
0.0
 11
430.6431561668297
 21
104.3078544428642
 31
0.0
  0
LINE
  5
2769
330
2
100
AcDbEntity
  8
0
100
AcDbLine
 10
421.6344296311827
 20
108.3078544428679
 30
0.0
 11
430.6431561668297
 21
108.3078544428679
 31
0.0
  0
LINE
  5
276A
330
2
100
AcDbEntity
  8
0
100
AcDbLine
 10
430.6431561668315
 20
94.30785444286426
 30
0.0
 11
416.1257030958251
 21
94.43454633647503
 31
0.0
  0
LINE
  5
276B
330
2
100
AcDbEntity
  8
0
100
AcDbLine
 10
416.1257030958251
 20
131.3038260211685
 30
0.0
 11
430.6431561668278
 21
131.3038260211685
 31
0.0
  0
LINE
  5
276C
330
2
100
AcDbEntity
  8
0
100
AcDbLine
 10
416.1257030958251
 20
177.3118828645599
 30
0.0
 11
430.6431561668278
 21
177.3118828645599
 31
0.0
  0
LINE
  5
276D
330
2
100
AcDbEntity
  8
CENTER
  6
CENS
100
AcDbLine
 10
437.4030384586754
 20
204.3078544428642
 30
0.0
 11
407.6431561666805
 21
204.3078544428642
 31
0.0
  0
LINE
  5
276E
330
2
100
AcDbEntity
  8
HIDS
100
AcDbLine
 10
414.1431561668215
 20
210.8078544428642
 30
0.0
 11
414.1431561668215
 21
197.8078544428642
 31
0.0
  0
LINE
  5
276F
330
2
100
AcDbEntity
  8
0
100
AcDbLine
 10
420.6431561666805
 20
196.3035100481627
 30
0.0
 11
420.6431561666805
 21
213.2292745543598
 31
0.0
  0
LINE
  5
2770
330
2
100
AcDbEntity
  8
0
100
AcDbLine
 10
410.6431561666806
 20
198.6738798466483
 30
0.0
 11
410.6431561666806
 21
209.9418290390801
 31
0.0
  0
LINE
  5
2771
330
2
100
AcDbEntity
  8
0
100
AcDbLine
 10
420.6431561666805
 20
197.8078544428642
 30
0.0
 11
420.6431561666805
 21
210.8078544428642
 31
0.0
  0
LINE
  5
2772
330
2
100
AcDbEntity
  8
0
100
AcDbLine
 10
418.6431561666806
 20
197.8078544428642
 30
0.0
 11
418.6431561666815
 21
210.8078544428642
 31
0.0
  0
LINE
  5
2773
330
2
100
AcDbEntity
  8
0
100
AcDbLine
 10
411.1431561666806
 20
197.8078544428642
 30
0.0
 11
411.1431561666806
 21
210.8078544428642
 31
0.0
  0
ARC
  5
2774
330
2
100
AcDbEntity
  8
0
100
AcDbCircle
 10
420.1431561666805
 20
196.3035100481627
 30
0.0
 40
0.5
100
AcDbArc
 50
270.4999999999655
 51
0.0
  0
LINE
  5
2775
330
2
100
AcDbEntity
  8
0
100
AcDbLine
 10
420.6431561666805
 20
197.8078544428642
 30
0.0
 11
418.6431561666806
 21
197.8078544428642
 31
0.0
  0
LINE
  5
2776
330
2
100
AcDbEntity
  8
0
100
AcDbLine
 10
408.3431561668213
 20
191.8078544428642
 30
0.0
 11
411.6431561668215
 21
191.8078544428642
 31
0.0
  0
LINE
  5
2777
330
2
100
AcDbEntity
  8
HIDS
100
AcDbLine
 10
412.1431561668215
 20
197.8078544428642
 30
0.0
 11
412.1431561668215
 21
199.4794273181194
 31
0.0
  0
LINE
  5
2778
330
2
100
AcDbEntity
  8
HIDS
100
AcDbLine
 10
413.5573697291948
 20
201.7220680052375
 30
0.0
 11
412.7289426044482
 21
200.8936408804909
 31
0.0
  0
LINE
  5
2779
330
2
100
AcDbEntity
  8
0
100
AcDbLine
 10
412.1431561668215
 20
194.3078544428642
 30
0.0
 11
411.6431561668215
 21
193.8078544428642
 31
0.0
  0
LINE
  5
277A
330
2
100
AcDbEntity
  8
0
100
AcDbLine
 10
404.6431561668206
 20
191.8078544428642
 30
0.0
 11
405.9431561668207
 21
191.8078544428642
 31
0.0
  0
LINE
  5
277B
330
2
100
AcDbEntity
  8
0
100
AcDbLine
 10
408.1431561668206
 20
191.6078544428653
 30
0.0
 11
408.3431561668213
 21
191.8078544428642
 31
0.0
  0
LINE
  5
277C
330
2
100
AcDbEntity
  8
0
100
AcDbLine
 10
406.3431561668213
 20
191.1078544428653
 30
0.0
 11
407.9431561668208
 21
191.1078544428653
 31
0.0
  0
LINE
  5
277D
330
2
100
AcDbEntity
  8
0
100
AcDbLine
 10
404.6431561668215
 20
191.8078544428642
 30
0.0
 11
403.6431561668206
 21
191.2305041736742
 31
0.0
  0
ARC
  5
277E
330
2
100
AcDbEntity
  8
HIDS
100
AcDbCircle
 10
414.1431561668215
 20
199.4794273181194
 30
0.0
 40
2.0
100
AcDbArc
 50
135.0000000000092
 51
180.0
  0
ARC
  5
277F
330
2
100
AcDbEntity
  8
HIDS
100
AcDbCircle
 10
412.1431561668215
 20
203.1362815676109
 30
0.0
 40
2.0
100
AcDbArc
 50
315.0000000000092
 51
0.0
  0
ARC
  5
2780
330
2
100
AcDbEntity
  8
0
100
AcDbCircle
 10
405.9431561668207
 20
191.6078544428653
 30
0.0
 40
0.2
100
AcDbArc
 50
0.0
 51
90.0
  0
ARC
  5
2781
330
2
100
AcDbEntity
  8
0
100
AcDbCircle
 10
406.3431561668213
 20
191.3078544428642
 30
0.0
 40
0.2
100
AcDbArc
 50
180.0
 51
270.0
  0
ARC
  5
2782
330
2
100
AcDbEntity
  8
0
100
AcDbCircle
 10
407.9431561668208
 20
191.3078544428642
 30
0.0
 40
0.2
100
AcDbArc
 50
270.0
 51
0.0
  0
ARC
  5
2783
330
2
100
AcDbEntity
  8
0
100
AcDbCircle
 10
416.1431561668215
 20
193.7685073810332
 30
0.0
 40
2.0
100
AcDbArc
 50
90.49999999996552
 51
180.0
  0
LINE
  5
2784
330
2
100
AcDbEntity
  8
0
100
AcDbLine
 10
411.1431561666806
 20
197.8078544428642
 30
0.0
 11
410.6431561666806
 21
198.6738798466483
 31
0.0
  0
LINE
  5
2785
330
2
100
AcDbEntity
  8
0
100
AcDbLine
 10
420.1475194344303
 20
195.803529086628
 30
0.0
 11
416.1257030958251
 21
195.768431227161
 31
0.0
  0
LINE
  5
2786
330
2
100
AcDbEntity
  8
0
100
AcDbLine
 10
418.6431561666806
 20
197.8078544428642
 30
0.0
 11
411.1431561666806
 21
197.8078544428642
 31
0.0
  0
LINE
  5
2787
330
2
100
AcDbEntity
  8
0
100
AcDbLine
 10
421.6344296311827
 20
204.307854442866
 30
0.0
 11
430.6431561668297
 21
204.307854442866
 31
0.0
  0
LINE
  5
2788
330
2
100
AcDbEntity
  8
0
100
AcDbLine
 10
421.6344296311827
 20
200.3078544428624
 30
0.0
 11
430.6431561668297
 21
200.3078544428624
 31
0.0
  0
ARC
  5
2789
330
2
100
AcDbEntity
  8
0
100
AcDbCircle
 10
421.6431561666805
 20
213.2292745543598
 30
0.0
 40
1.0
100
AcDbArc
 50
90.50000000001762
 51
180.0
  0
LINE
  5
278A
330
2
100
AcDbEntity
  8
0
100
AcDbLine
 10
420.6431561666805
 20
210.8078544428642
 30
0.0
 11
418.6431561666806
 21
210.8078544428642
 31
0.0
  0
LINE
  5
278B
330
2
100
AcDbEntity
  8
0
100
AcDbLine
 10
414.1431561668215
 20
212.1812387031275
 30
0.0
 11
414.1431561668215
 21
210.8078544428642
 31
0.0
  0
ARC
  5
278C
330
2
100
AcDbEntity
  8
0
100
AcDbCircle
 10
416.1431561668215
 20
212.1812387031275
 30
0.0
 40
2.0
100
AcDbArc
 50
90.49999999996552
 51
180.0
  0
LINE
  5
278D
330
2
100
AcDbEntity
  8
0
100
AcDbLine
 10
411.1431561666806
 20
210.8078544428642
 30
0.0
 11
410.6431561666806
 21
209.9418290390801
 31
0.0
  0
LINE
  5
278E
330
2
100
AcDbEntity
  8
0
100
AcDbLine
 10
418.6431561666806
 20
210.8078544428642
 30
0.0
 11
411.1431561666806
 21
210.8078544428642
 31
0.0
  0
LINE
  5
278F
330
2
100
AcDbEntity
  8
0
100
AcDbLine
 10
430.6431561668242
 20
214.3078544428642
 30
0.0
 11
416.1257030958251
 21
214.1811625492552
 31
0.0
  0
LINE
  5
2790
330
2
100
AcDbEntity
  8
0
100
AcDbLine
 10
526.143156166822
 20
116.2392319924781
 30
0.0
 11
526.143156166822
 21
192.3764768932503
 31
0.0
  0
LINE
  5
2791
330
2
100
AcDbEntity
  8
0
100
AcDbLine
 10
507.1431561668219
 20
94.97545982885617
 30
0.0
 11
507.1431561668202
 21
213.6402490568705
 31
0.0
  0
LINE
  5
2792
330
2
100
AcDbEntity
  8
0
100
AcDbLine
 10
512.1431561668219
 20
99.30785444286243
 30
0.0
 11
512.1431561668219
 21
209.3078544428624
 31
0.0
  0
LINE
  5
2793
330
2
100
AcDbEntity
  8
0
100
AcDbLine
 10
527.143156166822
 20
175.5191793082694
 30
0.0
 11
527.143156166822
 21
133.096529577459
 31
0.0
  0
LINE
  5
2794
330
2
100
AcDbEntity
  8
0
100
AcDbLine
 10
512.1431561668219
 20
99.30785444286243
 30
0.0
 11
507.1431561668219
 21
99.30785444286243
 31
0.0
  0
ARC
  5
2795
330
2
100
AcDbEntity
  8
0
100
AcDbCircle
 10
524.1431561668219
 20
116.2392319924781
 30
0.0
 40
2.0
100
AcDbArc
 50
272.0000000000037
 51
0.0
  0
ARC
  5
2796
330
2
100
AcDbEntity
  8
0
100
AcDbCircle
 10
514.143156166822
 20
111.8875861203666
 30
0.0
 40
2.0
100
AcDbArc
 50
92.0000000000037
 51
180.0
  0
LINE
  5
2797
330
2
100
AcDbEntity
  8
0
100
AcDbLine
 10
514.0733571734168
 20
113.8863677744045
 30
0.0
 11
524.2129551602271
 21
114.2404503384402
 31
0.0
  0
ARC
  5
2798
330
2
100
AcDbEntity
  8
0
100
AcDbCircle
 10
526.643156166822
 20
133.096529577459
 30
0.0
 40
0.5
100
AcDbArc
 50
300.0000000000005
 51
0.0
  0
ARC
  5
2799
330
2
100
AcDbEntity
  8
0
100
AcDbCircle
 10
525.741232378176
 20
134.3078544428642
 30
0.0
 40
2.0
100
AcDbArc
 50
281.593213623511
 51
300.0000000000005
  0
LINE
  5
279A
330
2
100
AcDbEntity
  8
0
100
AcDbLine
 10
526.741232378176
 20
132.5758036352954
 30
0.0
 11
526.8931561668219
 21
132.6635168755667
 31
0.0
  0
LINE
  5
279B
330
2
100
AcDbEntity
  8
0
100
AcDbLine
 10
572.643156166822
 20
168.3078544428642
 30
0.0
 11
528.1431561668219
 21
168.3078544428642
 31
0.0
  0
LINE
  5
279C
330
2
100
AcDbEntity
  8
0
100
AcDbLine
 10
528.1431561668219
 20
140.3078544428642
 30
0.0
 11
572.643156166822
 21
140.3078544428642
 31
0.0
  0
LINE
  5
279D
330
2
100
AcDbEntity
  8
0
100
AcDbLine
 10
528.1431561668219
 20
169.3078544428642
 30
0.0
 11
528.1431561668219
 21
139.3078544428642
 31
0.0
  0
LINE
  5
279E
330
2
100
AcDbEntity
  8
0
100
AcDbLine
 10
528.1431561668219
 20
139.3078544428642
 30
0.0
 11
527.143156166822
 21
138.7305041736744
 31
0.0
  0
LINE
  5
279F
330
2
100
AcDbEntity
  8
0
100
AcDbLine
 10
528.1431561668219
 20
169.3078544428642
 30
0.0
 11
527.143156166822
 21
169.885204712054
 31
0.0
  0
ARC
  5
27A0
330
2
100
AcDbEntity
  8
0
100
AcDbCircle
 10
526.643156166822
 20
175.5191793082694
 30
0.0
 40
0.5
100
AcDbArc
 50
0.0
 51
59.99999999999946
  0
ARC
  5
27A1
330
2
100
AcDbEntity
  8
0
100
AcDbCircle
 10
525.741232378176
 20
174.3078544428642
 30
0.0
 40
2.0
100
AcDbArc
 50
59.99999999999946
 51
78.40678637648899
  0
LINE
  5
27A2
330
2
100
AcDbEntity
  8
0
100
AcDbLine
 10
526.741232378176
 20
176.039905250433
 30
0.0
 11
526.8931561668219
 21
175.9521920101617
 31
0.0
  0
LINE
  5
27A3
330
2
100
AcDbEntity
  8
0
100
AcDbLine
 10
512.1431561668219
 20
209.3078544428624
 30
0.0
 11
507.1431561668219
 21
209.3078544428624
 31
0.0
  0
ARC
  5
27A4
330
2
100
AcDbEntity
  8
0
100
AcDbCircle
 10
524.1431561668219
 20
192.3764768932503
 30
0.0
 40
2.0
100
AcDbArc
 50
0.0
 51
87.99999999999627
  0
ARC
  5
27A5
330
2
100
AcDbEntity
  8
0
100
AcDbCircle
 10
514.143156166822
 20
196.7281227653636
 30
0.0
 40
2.0
100
AcDbArc
 50
180.0
 51
267.9999999999963
  0
LINE
  5
27A6
330
2
100
AcDbEntity
  8
0
100
AcDbLine
 10
514.0733571734168
 20
194.7293411113257
 30
0.0
 11
524.2129551602271
 21
194.3752585472882
 31
0.0
  0
LINE
  5
27A7
330
2
100
AcDbEntity
  8
0
100
AcDbLine
 10
573.143156166822
 20
140.8078544428642
 30
0.0
 11
573.143156166822
 21
167.8078544428642
 31
0.0
  0
LINE
  5
27A8
330
2
100
AcDbEntity
  8
0
100
AcDbLine
 10
572.643156166822
 20
168.3078544428642
 30
0.0
 11
572.643156166822
 21
140.3078544428642
 31
0.0
  0
LINE
  5
27A9
330
2
100
AcDbEntity
  8
0
100
AcDbLine
 10
573.143156166822
 20
140.8078544428642
 30
0.0
 11
572.643156166822
 21
140.3078544428642
 31
0.0
  0
LINE
  5
27AA
330
2
100
AcDbEntity
  8
0
100
AcDbLine
 10
572.643156166822
 20
168.3078544428642
 30
0.0
 11
573.143156166822
 21
167.8078544428642
 31
0.0
  0
LINE
  5
27AC
330
2
100
AcDbEntity
  8
CENTER
100
AcDbLine
 10
810.4561451394246
 20
69.30785444286607
 30
0.0
 11
810.4561451394244
 21
239.307854442866
 31
0.0
  0
CIRCLE
  5
27AD
330
2
100
AcDbEntity
  8
CENTER
100
AcDbCircle
 10
810.4561451394229
 20
154.307854442866
 30
0.0
 40
70.0
  0
ARC
  5
27AF
330
2
100
AcDbEntity
  8
0
100
AcDbCircle
 10
938.8661451393591
 20
190.3078544428642
 30
0.0
 40
5.0
100
AcDbArc
 50
270.0
 51
0.0
  0
ARC
  5
27B0
330
2
100
AcDbEntity
  8
0
100
AcDbCircle
 10
938.8661451393591
 20
118.3078544428642
 30
0.0
 40
5.0
100
AcDbArc
 50
0.0
 51
90.0
  0
LINE
  5
27B1
330
2
100
AcDbEntity
  8
CENTER
100
AcDbLine
 10
874.5982807631548
 20
90.16571881913614
 30
0.0
 11
746.314009515692
 21
218.449990066597
 31
0.0
  0
LINE
  5
27B2
330
2
100
AcDbEntity
  8
CENTER
100
AcDbLine
 10
746.3140095156939
 20
90.1657188191333
 30
0.0
 11
874.5982807631566
 21
218.4499900665942
 31
0.0
  0
CIRCLE
  5
27B3
330
2
100
AcDbEntity
  8
0
100
AcDbCircle
 10
810.4561451394246
 20
154.3078544428642
 30
0.0
 40
22.00000000000181
  0
CIRCLE
  5
27B4
330
2
100
AcDbEntity
  8
0
100
AcDbCircle
 10
810.4561451394246
 20
154.3078544428642
 30
0.0
 40
15.57735026919158
  0
CIRCLE
  5
27B5
330
2
100
AcDbEntity
  8
0
100
AcDbCircle
 10
810.4561451394246
 20
154.3078544428642
 30
0.0
 40
15.00000000000182
  0
CIRCLE
  5
27B6
330
2
100
AcDbEntity
  8
0
100
AcDbCircle
 10
810.4561451394246
 20
154.3078544428642
 30
0.0
 40
14.00000000000181
  0
ARC
  5
27B7
330
2
100
AcDbEntity
  8
0
100
AcDbCircle
 10
810.4561451394246
 20
-35.69214555713392
 30
0.0
 40
250.0
100
AcDbArc
 50
84.72039671760308
 51
95.27960328239691
  0
ARC
  5
27B8
330
2
100
AcDbEntity
  8
0
100
AcDbCircle
 10
810.4561451394193
 20
344.307854442866
 30
0.0
 40
250.0
100
AcDbArc
 50
264.7203967176031
 51
275.2796032823969
  0
CIRCLE
  5
27BA
330
2
100
AcDbEntity
  8
0
100
AcDbCircle
 10
810.4561451394229
 20
154.307854442866
 30
0.0
 40
55.0
  0
CIRCLE
  5
27BB
330
2
100
AcDbEntity
  8
0
100
AcDbCircle
 10
810.4561451394229
 20
154.307854442866
 30
0.0
 40
32.5
  0
CIRCLE
  5
27BC
330
2
100
AcDbEntity
  8
0
100
AcDbCircle
 10
810.4561451394229
 20
154.307854442866
 30
0.0
 40
40.0
  0
ARC
  5
27BD
330
2
100
AcDbEntity
  8
0
100
AcDbCircle
 10
1000.456145139422
 20
154.307854442866
 30
0.0
 40
250.0
100
AcDbArc
 50
174.7203967175511
 51
185.2796032824488
  0
CIRCLE
  5
27BE
330
2
100
AcDbEntity
  8
0
100
AcDbCircle
 10
760.9586704563653
 20
104.8103797598084
 30
0.0
 40
3.2
  0
CIRCLE
  5
27BF
330
2
100
AcDbEntity
  8
HOJO
100
AcDbCircle
 10
760.9586704563653
 20
104.8103797598084
 30
0.0
 40
4.0
  0
LINE
  5
27C0
330
2
100
AcDbEntity
  8
CENTER
100
AcDbLine
 10
751.9586704563653
 20
104.8103797598066
 30
0.0
 11
769.9586704563653
 21
104.8103797598066
 31
0.0
  0
LINE
  5
27C1
330
2
100
AcDbEntity
  8
0
100
AcDbLine
 10
760.4561451394229
 20
94.30785444286607
 30
0.0
 11
764.4561451394284
 21
94.30785444286607
 31
0.0
  0
ARC
  5
27C2
330
2
100
AcDbEntity
  8
0
100
AcDbCircle
 10
760.4561451394229
 20
104.307854442866
 30
0.0
 40
10.0
100
AcDbArc
 50
180.0
 51
270.0
  0
LINE
  5
27C3
330
2
100
AcDbEntity
  8
0
100
AcDbLine
 10
750.4561451394229
 20
104.307854442866
 30
0.0
 11
750.4561451394229
 21
108.3078544428697
 31
0.0
  0
ARC
  5
27C4
330
2
100
AcDbEntity
  8
0
100
AcDbCircle
 10
758.4561451394229
 20
108.3078544428697
 30
0.0
 40
8.0
100
AcDbArc
 50
169.7661103968438
 51
180.0
  0
LINE
  5
27C5
330
2
100
AcDbEntity
  8
CENTER
100
AcDbLine
 10
760.9586704563653
 20
113.8103797598048
 30
0.0
 11
760.9586704563653
 21
95.81037975980484
 31
0.0
  0
ARC
  5
27C6
330
2
100
AcDbEntity
  8
0
100
AcDbCircle
 10
671.856164171505
 20
123.9425369262587
 30
0.0
 40
80.0
100
AcDbArc
 50
349.7661103968439
 51
5.279603282448815
  0
ARC
  5
27C7
330
2
100
AcDbEntity
  8
0
100
AcDbCircle
 10
780.0908276228192
 20
15.7078734749482
 30
0.0
 40
80.0
100
AcDbArc
 50
84.72039671760308
 51
100.2338896031036
  0
ARC
  5
27C8
330
2
100
AcDbEntity
  8
0
100
AcDbCircle
 10
764.4561451394284
 20
102.3078544428642
 30
0.0
 40
8.0
100
AcDbArc
 50
270.0
 51
280.2338896031037
  0
ARC
  5
27C9
330
2
100
AcDbEntity
  8
0
100
AcDbCircle
 10
671.856164171505
 20
184.6731719594752
 30
0.0
 40
80.0
100
AcDbArc
 50
354.7203967175511
 51
10.23388960315614
  0
LINE
  5
27CA
330
2
100
AcDbEntity
  8
0
100
AcDbLine
 10
760.4561451394229
 20
214.307854442866
 30
0.0
 11
764.4561451394265
 21
214.307854442866
 31
0.0
  0
CIRCLE
  5
27CB
330
2
100
AcDbEntity
  8
HOJO
100
AcDbCircle
 10
760.9586704563653
 20
203.8053291259255
 30
0.0
 40
4.0
  0
CIRCLE
  5
27CC
330
2
100
AcDbEntity
  8
0
100
AcDbCircle
 10
760.9586704563653
 20
203.8053291259255
 30
0.0
 40
3.2
  0
LINE
  5
27CD
330
2
100
AcDbEntity
  8
CENTER
100
AcDbLine
 10
751.9586704563653
 20
203.8053291259236
 30
0.0
 11
769.9586704563653
 21
203.8053291259236
 31
0.0
  0
ARC
  5
27CE
330
2
100
AcDbEntity
  8
0
100
AcDbCircle
 10
758.4561451394229
 20
200.3078544428624
 30
0.0
 40
8.0
100
AcDbArc
 50
180.0
 51
190.2338896031561
  0
LINE
  5
27CF
330
2
100
AcDbEntity
  8
0
100
AcDbLine
 10
750.4561451394229
 20
200.3078544428624
 30
0.0
 11
750.4561451394229
 21
204.307854442866
 31
0.0
  0
ARC
  5
27D0
330
2
100
AcDbEntity
  8
0
100
AcDbCircle
 10
760.4561451394229
 20
204.307854442866
 30
0.0
 40
10.0
100
AcDbArc
 50
90.0
 51
180.0
  0
LINE
  5
27D1
330
2
100
AcDbEntity
  8
CENTER
100
AcDbLine
 10
760.9586704563653
 20
194.8053291259236
 30
0.0
 11
760.9586704563653
 21
212.8053291259236
 31
0.0
  0
ARC
  5
27D2
330
2
100
AcDbEntity
  8
0
100
AcDbCircle
 10
780.0908276228156
 20
292.9078354107821
 30
0.0
 40
80.0
100
AcDbArc
 50
259.7661103968963
 51
275.2796032823969
  0
ARC
  5
27D3
330
2
100
AcDbEntity
  8
0
100
AcDbCircle
 10
764.4561451394265
 20
206.307854442866
 30
0.0
 40
8.0
100
AcDbArc
 50
79.76611039689631
 51
90.0
  0
LINE
  5
27D4
330
2
100
AcDbEntity
  8
0
100
AcDbLine
 10
932.4185169825478
 20
182.3078544428678
 30
0.0
 11
932.4185169824696
 21
126.3078544428678
 31
0.0
  0
LINE
  5
27D5
330
2
100
AcDbEntity
  8
0
100
AcDbLine
 10
870.4561451394228
 20
104.307854442866
 30
0.0
 11
870.4561451394228
 21
204.307854442866
 31
0.0
  0
LINE
  5
27D6
330
2
100
AcDbEntity
  8
0
100
AcDbLine
 10
913.9561451394266
 20
119.307854442866
 30
0.0
 11
913.9561451394211
 21
189.307854442866
 31
0.0
  0
ARC
  5
27D7
330
2
100
AcDbEntity
  8
0
100
AcDbCircle
 10
860.4561451394229
 20
104.307854442866
 30
0.0
 40
10.0
100
AcDbArc
 50
270.0
 51
0.0
  0
ARC
  5
27D8
330
2
100
AcDbEntity
  8
0
100
AcDbCircle
 10
878.428345895035
 20
103.3078544428624
 30
0.0
 40
8.0
100
AcDbArc
 50
90.0
 51
176.8152614633258
  0
ARC
  5
27D9
330
2
100
AcDbEntity
  8
0
100
AcDbCircle
 10
840.8214626560248
 20
15.7078734749482
 30
0.0
 40
80.0
100
AcDbArc
 50
79.76611039689631
 51
95.27960328239691
  0
LINE
  5
27DA
330
2
100
AcDbEntity
  8
0
100
AcDbLine
 10
814.7179146478583
 20
102.3078544428533
 30
0.0
 11
817.5979158891887
 21
102.3078544428533
 31
0.0
  0
LINE
  5
27DB
330
2
100
AcDbEntity
  8
0
100
AcDbLine
 10
815.6108470093339
 20
105.4304816412457
 30
0.0
 11
817.5979158891887
 21
102.3078544428533
 31
0.0
  0
ARC
  5
27DC
330
2
100
AcDbEntity
  8
0
100
AcDbCircle
 10
813.9543016296748
 20
107.5878544428612
 30
0.0
 40
2.720000000003957
100
AcDbArc
 50
307.5189678668038
 51
90.0
  0
LINE
  5
27DD
330
2
100
AcDbEntity
  8
0
100
AcDbLine
 10
807.3143743896643
 20
110.3078544428642
 30
0.0
 11
813.9543016296748
 21
110.3078544428642
 31
0.0
  0
ARC
  5
27DE
330
2
100
AcDbEntity
  8
0
100
AcDbCircle
 10
813.7843743896747
 20
107.4178544428612
 30
0.0
 40
0.1700000000002474
100
AcDbArc
 50
270.0
 51
90.0
  0
LINE
  5
27DF
330
2
100
AcDbEntity
  8
0
100
AcDbLine
 10
811.57437438967
 20
107.2478544428593
 30
0.0
 11
813.7843743896747
 21
107.2478544428593
 31
0.0
  0
LINE
  5
27E0
330
2
100
AcDbEntity
  8
0
100
AcDbLine
 10
811.23430162967
 20
107.5878544428612
 30
0.0
 11
813.7843743896729
 21
107.5878544428612
 31
0.0
  0
LINE
  5
27E1
330
2
100
AcDbEntity
  8
0
100
AcDbLine
 10
811.23430162967
 20
107.5878544428612
 30
0.0
 11
811.23430162967
 21
102.3078544428533
 31
0.0
  0
LINE
  5
27E2
330
2
100
AcDbEntity
  8
0
100
AcDbLine
 10
811.57437438967
 20
107.2478544428593
 30
0.0
 11
814.7179146478583
 21
102.3078544428533
 31
0.0
  0
LINE
  5
27E3
330
2
100
AcDbEntity
  8
0
100
AcDbLine
 10
808.8343743896666
 20
107.5878519602044
 30
0.0
 11
808.0743756309939
 21
106.0678544428572
 31
0.0
  0
LINE
  5
27E4
330
2
100
AcDbEntity
  8
0
100
AcDbLine
 10
808.8343743896666
 20
107.5878519602044
 30
0.0
 11
808.8343743896666
 21
106.067854442859
 31
0.0
  0
LINE
  5
27E5
330
2
100
AcDbEntity
  8
0
100
AcDbLine
 10
808.0743756309939
 20
106.0678544428572
 30
0.0
 11
808.8343743896666
 21
106.067854442859
 31
0.0
  0
LINE
  5
27E6
330
2
100
AcDbEntity
  8
0
100
AcDbLine
 10
808.8343743896666
 20
103.507854442854
 30
0.0
 11
808.8343743896666
 21
102.3078544428533
 31
0.0
  0
LINE
  5
27E7
330
2
100
AcDbEntity
  8
0
100
AcDbLine
 10
806.7943756309913
 20
103.5078544428558
 30
0.0
 11
808.8343743896666
 21
103.507854442854
 31
0.0
  0
LINE
  5
27E8
330
2
100
AcDbEntity
  8
0
100
AcDbLine
 10
806.7943756309913
 20
103.5078544428558
 30
0.0
 11
806.1943756309911
 21
102.3078544428533
 31
0.0
  0
LINE
  5
27E9
330
2
100
AcDbEntity
  8
0
100
AcDbLine
 10
808.8343743896666
 20
102.3078544428533
 30
0.0
 11
811.23430162967
 21
102.3078544428533
 31
0.0
  0
LINE
  5
27EA
330
2
100
AcDbEntity
  8
0
100
AcDbLine
 10
807.3143743896643
 20
110.3078544428642
 30
0.0
 11
803.3143743896589
 21
102.3078544428533
 31
0.0
  0
LINE
  5
27EB
330
2
100
AcDbEntity
  8
0
100
AcDbLine
 10
803.3143743896589
 20
102.3078544428533
 30
0.0
 11
806.1943756309911
 21
102.3078544428533
 31
0.0
  0
LINE
  5
27EC
330
2
100
AcDbEntity
  8
CENTER
100
AcDbLine
 10
868.9536198224823
 20
104.8103797598084
 30
0.0
 11
850.9536198224823
 21
104.8103797598084
 31
0.0
  0
LINE
  5
27ED
330
2
100
AcDbEntity
  8
CENTER
100
AcDbLine
 10
859.9536198224823
 20
113.8103797598084
 30
0.0
 11
859.9536198224823
 21
95.81037975980848
 31
0.0
  0
ARC
  5
27EE
330
2
100
AcDbEntity
  8
0
100
AcDbCircle
 10
856.4561451394192
 20
102.3078544428642
 30
0.0
 40
8.0
100
AcDbArc
 50
259.7661103968963
 51
270.0
  0
CIRCLE
  5
27EF
330
2
100
AcDbEntity
  8
0
100
AcDbCircle
 10
859.9536198224823
 20
104.8103797598084
 30
0.0
 40
3.2
  0
LINE
  5
27F0
330
2
100
AcDbEntity
  8
0
100
AcDbLine
 10
856.4561451394192
 20
94.30785444286607
 30
0.0
 11
860.4561451394229
 21
94.30785444286607
 31
0.0
  0
CIRCLE
  5
27F1
330
2
100
AcDbEntity
  8
HOJO
100
AcDbCircle
 10
859.9536198224823
 20
104.8103797598084
 30
0.0
 40
4.0
  0
LINE
  5
27F2
330
2
100
AcDbEntity
  8
0
100
AcDbLine
 10
905.9561451394266
 20
111.307854442866
 30
0.0
 11
878.393536254075
 21
111.307854442866
 31
0.0
  0
ARC
  5
27F3
330
2
100
AcDbEntity
  8
0
100
AcDbCircle
 10
935.4185169824695
 20
126.3078544428642
 30
0.0
 40
3.0
100
AcDbArc
 50
179.9999999998957
 51
270.0
  0
ARC
  5
27F4
330
2
100
AcDbEntity
  8
0
100
AcDbCircle
 10
930.5451198100644
 20
122.8078544428642
 30
0.0
 40
3.0
100
AcDbArc
 50
35.68533471271973
 51
90.0
  0
LINE
  5
27F5
330
2
100
AcDbEntity
  8
0
100
AcDbLine
 10
918.9561451394265
 20
130.8078544428642
 30
0.0
 11
927.4341572711337
 21
130.8078544428642
 31
0.0
  0
ARC
  5
27F6
330
2
100
AcDbEntity
  8
0
100
AcDbCircle
 10
916.9561451394265
 20
122.8078544428642
 30
0.0
 40
3.0
100
AcDbArc
 50
90.0
 51
180.0
  0
ARC
  5
27F7
330
2
100
AcDbEntity
  8
0
100
AcDbCircle
 10
918.9561451394265
 20
125.8078544428642
 30
0.0
 40
5.0
100
AcDbArc
 50
90.0
 51
180.0
  0
LINE
  5
27F8
330
2
100
AcDbEntity
  8
0
100
AcDbLine
 10
916.9561451394265
 20
125.8078544428642
 30
0.0
 11
930.5451198100644
 21
125.8078544428642
 31
0.0
  0
ARC
  5
27F9
330
2
100
AcDbEntity
  8
0
100
AcDbCircle
 10
927.4341572711337
 20
125.8078544428642
 30
0.0
 40
5.0
100
AcDbArc
 50
3.583321698471883
 51
90.0
  0
LINE
  5
27FA
330
2
100
AcDbEntity
  8
0
100
AcDbLine
 10
935.4185169824695
 20
123.3078544428642
 30
0.0
 11
938.8661451393591
 21
123.3078544428642
 31
0.0
  0
ARC
  5
27FB
330
2
100
AcDbEntity
  8
0
100
AcDbCircle
 10
905.9561451394266
 20
119.307854442866
 30
0.0
 40
8.0
100
AcDbArc
 50
270.0
 51
0.0
  0
ARC
  5
27FC
330
2
100
AcDbEntity
  8
0
100
AcDbCircle
 10
878.428345895035
 20
205.307854442866
 30
0.0
 40
8.0
100
AcDbArc
 50
183.1847385366741
 51
270.0
  0
ARC
  5
27FD
330
2
100
AcDbEntity
  8
0
100
AcDbCircle
 10
860.4561451394229
 20
204.307854442866
 30
0.0
 40
10.0
100
AcDbArc
 50
0.0
 51
90.0
  0
ARC
  5
27FE
330
2
100
AcDbEntity
  8
0
100
AcDbCircle
 10
840.8214626560321
 20
292.9078354107821
 30
0.0
 40
80.0
100
AcDbArc
 50
264.7203967176031
 51
280.2338896031037
  0
ARC
  5
27FF
330
2
100
AcDbEntity
  8
0
100
AcDbCircle
 10
856.456145139421
 20
206.307854442866
 30
0.0
 40
8.0
100
AcDbArc
 50
90.0
 51
100.2338896031036
  0
LINE
  5
2800
330
2
100
AcDbEntity
  8
0
100
AcDbLine
 10
856.456145139421
 20
214.307854442866
 30
0.0
 11
860.4561451394229
 21
214.307854442866
 31
0.0
  0
LINE
  5
2801
330
2
100
AcDbEntity
  8
CENTER
100
AcDbLine
 10
868.9536198224841
 20
203.8053291259218
 30
0.0
 11
850.9536198224841
 21
203.8053291259218
 31
0.0
  0
CIRCLE
  5
2802
330
2
100
AcDbEntity
  8
HOJO
100
AcDbCircle
 10
859.9536198224823
 20
203.8053291259255
 30
0.0
 40
4.0
  0
CIRCLE
  5
2803
330
2
100
AcDbEntity
  8
0
100
AcDbCircle
 10
859.9536198224823
 20
203.8053291259255
 30
0.0
 40
3.2
  0
LINE
  5
2804
330
2
100
AcDbEntity
  8
CENTER
100
AcDbLine
 10
859.9536198224841
 20
194.8053291259236
 30
0.0
 11
859.9536198224841
 21
212.8053291259236
 31
0.0
  0
ARC
  5
2805
330
2
100
AcDbEntity
  8
0
100
AcDbCircle
 10
918.956145139421
 20
182.8078544428642
 30
0.0
 40
5.0
100
AcDbArc
 50
180.0
 51
270.0
  0
ARC
  5
2806
330
2
100
AcDbEntity
  8
0
100
AcDbCircle
 10
927.4341572712119
 20
182.8078544428642
 30
0.0
 40
5.0
100
AcDbArc
 50
270.0
 51
356.4166783015281
  0
LINE
  5
2807
330
2
100
AcDbEntity
  8
0
100
AcDbLine
 10
918.956145139421
 20
177.8078544428642
 30
0.0
 11
927.4341572712119
 21
177.8078544428642
 31
0.0
  0
ARC
  5
2808
330
2
100
AcDbEntity
  8
0
100
AcDbCircle
 10
929.4185169825023
 20
148.8078544428642
 30
0.0
 40
3.0
100
AcDbArc
 50
359.9999999998958
 51
90.0
  0
ARC
  5
2809
330
2
100
AcDbEntity
  8
0
100
AcDbCircle
 10
929.4185169825167
 20
159.8078544428642
 30
0.0
 40
3.0
100
AcDbArc
 50
270.0
 51
359.9999999998958
  0
ARC
  5
280A
330
2
100
AcDbEntity
  8
0
100
AcDbCircle
 10
916.9561451394228
 20
159.8078544428642
 30
0.0
 40
3.0
100
AcDbArc
 50
180.0
 51
270.0
  0
ARC
  5
280B
330
2
100
AcDbEntity
  8
0
100
AcDbCircle
 10
916.9561451394248
 20
148.8078544428642
 30
0.0
 40
3.0
100
AcDbArc
 50
90.0
 51
180.0
  0
LINE
  5
280C
330
2
100
AcDbEntity
  8
0
100
AcDbLine
 10
916.9561451394228
 20
156.8078544428642
 30
0.0
 11
929.4185169825167
 21
156.8078544428642
 31
0.0
  0
LINE
  5
280D
330
2
100
AcDbEntity
  8
0
100
AcDbLine
 10
916.9561451394248
 20
151.8078544428642
 30
0.0
 11
929.4185169825023
 21
151.8078544428642
 31
0.0
  0
LINE
  5
280E
330
2
100
AcDbEntity
  8
0
100
AcDbLine
 10
905.9561451394211
 20
197.307854442866
 30
0.0
 11
878.428345895035
 21
197.307854442866
 31
0.0
  0
ARC
  5
280F
330
2
100
AcDbEntity
  8
0
100
AcDbCircle
 10
935.4185169825477
 20
182.3078544428642
 30
0.0
 40
3.0
100
AcDbArc
 50
90.0
 51
176.4166783015281
  0
ARC
  5
2810
330
2
100
AcDbEntity
  8
0
100
AcDbCircle
 10
930.5451198101428
 20
185.8078544428642
 30
0.0
 40
3.0
100
AcDbArc
 50
270.0
 51
324.3146652872802
  0
ARC
  5
2811
330
2
100
AcDbEntity
  8
0
100
AcDbCircle
 10
916.956145139421
 20
185.8078544428642
 30
0.0
 40
3.0
100
AcDbArc
 50
180.0
 51
270.0
  0
ARC
  5
2812
330
2
100
AcDbEntity
  8
0
100
AcDbCircle
 10
905.9561451394211
 20
189.307854442866
 30
0.0
 40
8.0
100
AcDbArc
 50
0.0
 51
90.0
  0
LINE
  5
2813
330
2
100
AcDbEntity
  8
0
100
AcDbLine
 10
916.956145139421
 20
182.8078544428642
 30
0.0
 11
930.5451198101428
 21
182.8078544428642
 31
0.0
  0
LINE
  5
2814
330
2
100
AcDbEntity
  8
0
100
AcDbLine
 10
935.4185169825477
 20
185.3078544428642
 30
0.0
 11
938.8661451393591
 21
185.3078544428642
 31
0.0
  0
LINE
  5
2818
330
2
100
AcDbEntity
  8
0
100
AcDbLine
 10
1238.328568352429
 20
133.0965295774624
 30
0.0
 11
1238.328568352429
 21
175.5191793082724
 31
0.0
  0
LINE
  5
281A
330
2
100
AcDbEntity
  8
0
100
AcDbLine
 10
943.8661451394246
 20
193.807854442866
 30
0.0
 11
943.8661451394246
 21
114.807854442866
 31
0.0
  0
ARC
  5
281C
330
2
100
AcDbEntity
  8
0
100
AcDbCircle
 10
945.8661451394245
 20
114.807854442866
 30
0.0
 40
2.0
100
AcDbArc
 50
180.0
 51
270.0
  0
LINE
  5
281D
330
2
100
AcDbEntity
  8
0
100
AcDbLine
 10
955.8661451394245
 20
112.807854442866
 30
0.0
 11
945.8661451394245
 21
112.807854442866
 31
0.0
  0
LINE
  5
281E
330
2
100
AcDbEntity
  8
0
100
AcDbLine
 10
955.8661451394245
 20
113.307854442866
 30
0.0
 11
945.8661451394245
 21
113.307854442866
 31
0.0
  0
ARC
  5
281F
330
2
100
AcDbEntity
  8
0
100
AcDbCircle
 10
945.8661451394245
 20
115.307854442866
 30
0.0
 40
2.0
100
AcDbArc
 50
180.0
 51
270.0
  0
LINE
  5
2820
330
2
100
AcDbEntity
  8
0
100
AcDbLine
 10
1238.730492141075
 20
132.5758036352983
 30
0.0
 11
1238.578568352429
 21
132.6635168755694
 31
0.0
  0
ARC
  5
2821
330
2
100
AcDbEntity
  8
0
100
AcDbCircle
 10
1239.730492141075
 20
134.3078544428674
 30
0.0
 40
2.0
100
AcDbArc
 50
239.9999999999994
 51
258.4067863765158
  0
ARC
  5
2822
330
2
100
AcDbEntity
  8
0
100
AcDbCircle
 10
1238.828568352429
 20
133.0965295774624
 30
0.0
 40
0.5
100
AcDbArc
 50
180.0
 51
239.9999999999994
  0
ARC
  5
2824
330
2
100
AcDbEntity
  8
0
100
AcDbCircle
 10
945.8661451394245
 20
193.807854442866
 30
0.0
 40
2.0
100
AcDbArc
 50
90.0
 51
180.0
  0
LINE
  5
2825
330
2
100
AcDbEntity
  8
0
100
AcDbLine
 10
945.8661451394245
 20
195.807854442866
 30
0.0
 11
955.8661451394245
 21
195.807854442866
 31
0.0
  0
LINE
  5
2826
330
2
100
AcDbEntity
  8
0
100
AcDbLine
 10
945.8661451394245
 20
195.307854442866
 30
0.0
 11
955.8661451394245
 21
195.307854442866
 31
0.0
  0
ARC
  5
2827
330
2
100
AcDbEntity
  8
0
100
AcDbCircle
 10
945.8661451394245
 20
193.307854442866
 30
0.0
 40
2.0
100
AcDbArc
 50
90.0
 51
180.0
  0
LINE
  5
2828
330
2
100
AcDbEntity
  8
0
100
AcDbLine
 10
1237.328568352429
 20
168.3078544428674
 30
0.0
 11
1192.828568352429
 21
168.3078544428674
 31
0.0
  0
LINE
  5
2829
330
2
100
AcDbEntity
  8
0
100
AcDbLine
 10
1192.828568352429
 20
140.3078544428674
 30
0.0
 11
1237.328568352429
 21
140.3078544428674
 31
0.0
  0
LINE
  5
282A
330
2
100
AcDbEntity
  8
0
100
AcDbLine
 10
1192.328568352429
 20
167.8078544428674
 30
0.0
 11
1192.828568352429
 21
168.3078544428674
 31
0.0
  0
LINE
  5
282B
330
2
100
AcDbEntity
  8
0
100
AcDbLine
 10
1192.828568352429
 20
140.3078544428674
 30
0.0
 11
1192.328568352429
 21
140.8078544428674
 31
0.0
  0
LINE
  5
282C
330
2
100
AcDbEntity
  8
0
100
AcDbLine
 10
1192.828568352429
 20
140.3078544428674
 30
0.0
 11
1192.828568352429
 21
168.3078544428674
 31
0.0
  0
LINE
  5
282D
330
2
100
AcDbEntity
  8
0
100
AcDbLine
 10
1192.328568352429
 20
167.8078544428674
 30
0.0
 11
1192.328568352429
 21
140.8078544428674
 31
0.0
  0
LINE
  5
282E
330
2
100
AcDbEntity
  8
0
100
AcDbLine
 10
1238.730492141075
 20
176.0399052504365
 30
0.0
 11
1238.578568352429
 21
175.9521920101653
 31
0.0
  0
LINE
  5
282F
330
2
100
AcDbEntity
  8
0
100
AcDbLine
 10
1237.328568352429
 20
169.3078544428674
 30
0.0
 11
1238.328568352429
 21
169.8852047120574
 31
0.0
  0
ARC
  5
2830
330
2
100
AcDbEntity
  8
0
100
AcDbCircle
 10
1239.730492141075
 20
174.3078544428674
 30
0.0
 40
2.0
100
AcDbArc
 50
101.5932136234841
 51
120.0000000000005
  0
ARC
  5
2831
330
2
100
AcDbEntity
  8
0
100
AcDbCircle
 10
1238.828568352429
 20
175.5191793082724
 30
0.0
 40
0.5
100
AcDbArc
 50
120.0000000000005
 51
180.0
  0
LINE
  5
2832
330
2
100
AcDbEntity
  8
0
100
AcDbLine
 10
1237.328568352429
 20
139.3078544428674
 30
0.0
 11
1238.328568352429
 21
138.7305041736774
 31
0.0
  0
LINE
  5
2833
330
2
100
AcDbEntity
  8
0
100
AcDbLine
 10
1237.328568352429
 20
139.3078544428674
 30
0.0
 11
1237.328568352429
 21
169.3078544428674
 31
0.0
  0
ARC
  5
28BC
330
2
100
AcDbEntity
  8
0
100
AcDbCircle
 10
938.7335015691894
 20
567.6975102207778
 30
0.0
 40
5.0
100
AcDbArc
 50
270.0
 51
358.4999999999059
  0
ARC
  5
28BD
330
2
100
AcDbEntity
  8
0
100
AcDbCircle
 10
938.7335015690549
 20
495.6975102207779
 30
0.0
 40
5.0
100
AcDbArc
 50
1.499999999989629
 51
90.0
  0
LINE
  5
28BE
330
2
100
AcDbEntity
  8
CENTER
100
AcDbLine
 10
810.4561451394252
 20
605.1975102261547
 30
0.0
 11
810.4561451394252
 21
405.6975102207778
 31
0.0
  0
LINE
  5
28BF
330
2
100
AcDbEntity
  8
0
100
AcDbLine
 10
824.4561451394254
 20
421.1975102207778
 30
0.0
 11
824.4561451394254
 21
465.6975102207779
 31
0.0
  0
LINE
  5
28C0
330
2
100
AcDbEntity
  8
0
100
AcDbLine
 10
796.4561451394254
 20
465.6975102207779
 30
0.0
 11
796.4561451394254
 21
421.1975102207778
 31
0.0
  0
LINE
  5
28C1
330
2
100
AcDbEntity
  8
0
100
AcDbLine
 10
796.9561451394254
 20
420.6975102207779
 30
0.0
 11
823.9561451394253
 21
420.6975102207779
 31
0.0
  0
LINE
  5
28C2
330
2
100
AcDbEntity
  8
0
100
AcDbLine
 10
824.4561451394254
 20
421.1975102207778
 30
0.0
 11
796.4561451394254
 21
421.1975102207778
 31
0.0
  0
LINE
  5
28C3
330
2
100
AcDbEntity
  8
0
100
AcDbLine
 10
796.9561451394254
 20
420.6975102207779
 30
0.0
 11
796.4561451394254
 21
421.1975102207778
 31
0.0
  0
LINE
  5
28C4
330
2
100
AcDbEntity
  8
0
100
AcDbLine
 10
824.4561451394254
 20
421.1975102207778
 30
0.0
 11
823.9561451394253
 21
420.6975102207779
 31
0.0
  0
LINE
  5
28C5
330
2
100
AcDbEntity
  8
0
100
AcDbLine
 10
868.4735227182352
 20
579.6975102261548
 30
0.0
 11
766.9561451394454
 21
579.6975102261548
 31
0.0
  0
LINE
  5
28C6
330
2
100
AcDbEntity
  8
0
100
AcDbLine
 10
772.9561451394254
 20
589.1975102261548
 30
0.0
 11
847.9561451394253
 21
589.1975102261548
 31
0.0
  0
LINE
  5
28C7
330
2
100
AcDbEntity
  8
0
100
AcDbLine
 10
772.9561451394254
 20
585.4975102261558
 30
0.0
 11
847.9561451394253
 21
585.4975102261558
 31
0.0
  0
LINE
  5
28C8
330
2
100
AcDbEntity
  8
0
100
AcDbLine
 10
766.9561451394454
 20
581.6975102261547
 30
0.0
 11
855.6277180146805
 21
581.6975102261547
 31
0.0
  0
LINE
  5
28C9
330
2
100
AcDbEntity
  8
0
100
AcDbLine
 10
847.3787948702353
 20
590.1975102261547
 30
0.0
 11
773.5334954086154
 21
590.1975102261547
 31
0.0
  0
LINE
  5
28CA
330
2
100
AcDbEntity
  8
0
100
AcDbLine
 10
770.9561451394254
 20
582.1975102261547
 30
0.0
 11
849.9561451394253
 21
582.1975102261547
 31
0.0
  0
LINE
  5
28CB
330
2
100
AcDbEntity
  8
0
100
AcDbLine
 10
773.1561451394261
 20
587.6975102261548
 30
0.0
 11
847.7561451394265
 21
587.6975102261548
 31
0.0
  0
LINE
  5
28CC
330
2
100
AcDbEntity
  8
0
100
AcDbLine
 10
773.1561451394261
 20
585.6975102261547
 30
0.0
 11
847.7561451394265
 21
585.6975102261547
 31
0.0
  0
LINE
  5
28CD
330
2
100
AcDbEntity
  8
0
100
AcDbLine
 10
825.4561451394254
 20
465.6975102207779
 30
0.0
 11
795.4561451394254
 21
465.6975102207779
 31
0.0
  0
LINE
  5
28CE
330
2
100
AcDbEntity
  8
0
100
AcDbLine
 10
848.5247675898115
 20
467.6975102256109
 30
0.0
 11
772.3875226890393
 21
467.6975102256109
 31
0.0
  0
LINE
  5
28CF
330
2
100
AcDbEntity
  8
0
100
AcDbLine
 10
831.6674700048313
 20
466.6975102207779
 30
0.0
 11
789.2448202740212
 21
466.6975102207779
 31
0.0
  0
LINE
  5
28D1
330
2
100
AcDbEntity
  8
0
100
AcDbLine
 10
750.4561451394254
 20
563.1975102261529
 30
0.0
 11
913.9561451394254
 21
563.197510226142
 31
0.0
  0
LINE
  5
28D2
330
2
100
AcDbEntity
  8
0
100
AcDbLine
 10
751.1237505254228
 20
486.697510225609
 30
0.0
 11
869.7841763195409
 21
486.6975102256109
 31
0.0
  0
LINE
  5
28D3
330
2
100
AcDbEntity
  8
0
100
AcDbLine
 10
755.4561451394254
 20
481.697510225609
 30
0.0
 11
865.4561451394254
 21
481.697510225609
 31
0.0
  0
LINE
  5
28D4
330
2
100
AcDbEntity
  8
0
100
AcDbLine
 10
760.4561451394236
 20
562.6975102207778
 30
0.0
 11
760.4561451394236
 21
488.1975102207778
 31
0.0
  0
LINE
  5
28D5
330
2
100
AcDbEntity
  8
0
100
AcDbLine
 10
764.4561451394253
 20
562.6975102207778
 30
0.0
 11
764.4561451394236
 21
488.1975102207778
 31
0.0
  0
LINE
  5
28D6
330
2
100
AcDbEntity
  8
0
100
AcDbLine
 10
787.4521167177479
 20
562.6975102207778
 30
0.0
 11
787.452116717746
 21
488.1975102207778
 31
0.0
  0
LINE
  5
28D7
330
2
100
AcDbEntity
  8
0
100
AcDbLine
 10
751.1237505254228
 20
486.697510225609
 30
0.0
 11
750.4561451394254
 21
563.1975102261529
 31
0.0
  0
LINE
  5
28D8
330
2
100
AcDbEntity
  8
0
100
AcDbLine
 10
770.0346584709657
 20
479.7673092190142
 30
0.0
 11
770.3887410350014
 21
469.6277112322039
 31
0.0
  0
LINE
  5
28D9
330
2
100
AcDbEntity
  8
0
100
AcDbLine
 10
795.4561451394254
 20
465.6975102207779
 30
0.0
 11
794.8787948702354
 21
466.6975102207779
 31
0.0
  0
ARC
  5
28DA
330
2
100
AcDbEntity
  8
0
100
AcDbCircle
 10
772.3875226890393
 20
469.697510225609
 30
0.0
 40
2.0
100
AcDbArc
 50
182.0000000000037
 51
270.0
  0
ARC
  5
28DB
330
2
100
AcDbEntity
  8
0
100
AcDbCircle
 10
789.2448202740212
 20
467.1975102207778
 30
0.0
 40
0.5
100
AcDbArc
 50
209.9999999999949
 51
270.0
  0
ARC
  5
28DC
330
2
100
AcDbEntity
  8
0
100
AcDbCircle
 10
790.4561451394254
 20
468.0994340094238
 30
0.0
 40
2.0
100
AcDbArc
 50
191.5932136234841
 51
209.9999999999949
  0
LINE
  5
28DD
330
2
100
AcDbEntity
  8
0
100
AcDbLine
 10
788.7240943318572
 20
467.0994340094238
 30
0.0
 11
788.8118075721283
 21
466.9475102207778
 31
0.0
  0
LINE
  5
28DE
330
2
100
AcDbEntity
  8
0
100
AcDbLine
 10
755.4561451394254
 20
481.697510225609
 30
0.0
 11
755.4561451394254
 21
486.697510225609
 31
0.0
  0
ARC
  5
28DF
330
2
100
AcDbEntity
  8
0
100
AcDbCircle
 10
768.0358768169278
 20
479.6975102256091
 30
0.0
 40
2.0
100
AcDbArc
 50
2.000000000003725
 51
90.0
  0
LINE
  5
28E0
330
2
100
AcDbEntity
  8
CENTER
  6
CENS
100
AcDbLine
 10
760.4561451394454
 20
556.9235182363899
 30
0.0
 11
760.4561451394454
 21
586.1975102262967
 31
0.0
  0
LINE
  5
28E1
330
2
100
AcDbEntity
  8
0
100
AcDbLine
 10
787.4521167177297
 20
577.7149632971521
 30
0.0
 11
787.4521167177297
 21
563.1975102261475
 31
0.0
  0
LINE
  5
28E2
330
2
100
AcDbEntity
  8
0
100
AcDbLine
 10
760.4561451394253
 20
572.2062367617944
 30
0.0
 11
760.4561451394253
 21
563.1975102261456
 31
0.0
  0
LINE
  5
28E3
330
2
100
AcDbEntity
  8
0
100
AcDbLine
 10
764.456145139429
 20
572.2062367617944
 30
0.0
 11
764.456145139429
 21
563.1975102261456
 31
0.0
  0
LINE
  5
28E4
330
2
100
AcDbEntity
  8
0
100
AcDbLine
 10
750.4561451394254
 20
563.1975102261456
 30
0.0
 11
750.5828370330362
 21
577.7149632971521
 31
0.0
  0
ARC
  5
28E5
330
2
100
AcDbEntity
  8
HIDS
100
AcDbCircle
 10
765.284572264172
 20
579.6975102261548
 30
0.0
 40
2.0
100
AcDbArc
 50
90.0
 51
135.0000000000092
  0
LINE
  5
28E6
330
2
100
AcDbEntity
  8
0
100
AcDbLine
 10
768.4604895341288
 20
573.1975102262967
 30
0.0
 11
751.5347250279298
 21
573.1975102262967
 31
0.0
  0
LINE
  5
28E7
330
2
100
AcDbEntity
  8
0
100
AcDbLine
 10
754.8221705432295
 20
583.1975102262966
 30
0.0
 11
766.0901197356595
 21
583.1975102262966
 31
0.0
  0
LINE
  5
28E8
330
2
100
AcDbEntity
  8
0
100
AcDbLine
 10
753.9561451394454
 20
573.1975102262967
 30
0.0
 11
766.9561451394454
 21
573.1975102262967
 31
0.0
  0
LINE
  5
28E9
330
2
100
AcDbEntity
  8
0
100
AcDbLine
 10
753.9561451394454
 20
575.1975102262966
 30
0.0
 11
766.9561451394454
 21
575.1975102262949
 31
0.0
  0
LINE
  5
28EA
330
2
100
AcDbEntity
  8
0
100
AcDbLine
 10
753.9561451394454
 20
582.6975102262966
 30
0.0
 11
766.9561451394454
 21
582.6975102262966
 31
0.0
  0
LINE
  5
28EB
330
2
100
AcDbEntity
  8
HIDS
100
AcDbLine
 10
766.9561451394454
 20
579.6975102261548
 30
0.0
 11
753.9561451394454
 21
579.6975102261548
 31
0.0
  0
LINE
  5
28EC
330
2
100
AcDbEntity
  8
HIDS
100
AcDbLine
 10
763.041931577052
 20
580.2832966637814
 30
0.0
 11
763.8703587017987
 21
581.1117237885281
 31
0.0
  0
ARC
  5
28ED
330
2
100
AcDbEntity
  8
HIDS
100
AcDbCircle
 10
761.6277180146787
 20
581.6975102261547
 30
0.0
 40
2.0
100
AcDbArc
 50
270.0
 51
315.0000000000092
  0
LINE
  5
28EE
330
2
100
AcDbEntity
  8
0
100
AcDbLine
 10
753.9561451394454
 20
579.6975102261548
 30
0.0
 11
752.5827608791639
 21
579.6975102261548
 31
0.0
  0
ARC
  5
28EF
330
2
100
AcDbEntity
  8
0
100
AcDbCircle
 10
751.5347250279298
 20
572.1975102262966
 30
0.0
 40
1.0
100
AcDbArc
 50
90.0
 51
179.5000000000344
  0
ARC
  5
28F0
330
2
100
AcDbEntity
  8
0
100
AcDbCircle
 10
752.5827608791639
 20
577.6975102261547
 30
0.0
 40
2.0
100
AcDbArc
 50
90.0
 51
179.5000000000344
  0
LINE
  5
28F1
330
2
100
AcDbEntity
  8
0
100
AcDbLine
 10
753.9561451394454
 20
582.6975102262966
 30
0.0
 11
754.8221705432295
 21
583.1975102262966
 31
0.0
  0
LINE
  5
28F2
330
2
100
AcDbEntity
  8
0
100
AcDbLine
 10
753.9561451394454
 20
573.1975102262967
 30
0.0
 11
753.9561451394454
 21
575.1975102262966
 31
0.0
  0
LINE
  5
28F3
330
2
100
AcDbEntity
  8
0
100
AcDbLine
 10
753.9561451394454
 20
575.1975102262966
 30
0.0
 11
753.9561451394454
 21
582.6975102262966
 31
0.0
  0
ARC
  5
28F4
330
2
100
AcDbEntity
  8
0
100
AcDbCircle
 10
773.1561451394261
 20
587.8975102261555
 30
0.0
 40
0.2
100
AcDbArc
 50
180.0
 51
270.0
  0
ARC
  5
28F5
330
2
100
AcDbEntity
  8
0
100
AcDbCircle
 10
773.4561451394254
 20
587.4975102261559
 30
0.0
 40
0.2
100
AcDbArc
 50
0.0
 51
90.0
  0
ARC
  5
28F6
330
2
100
AcDbEntity
  8
0
100
AcDbCircle
 10
773.4561451394254
 20
585.8975102261555
 30
0.0
 40
0.2
100
AcDbArc
 50
270.0
 51
0.0
  0
LINE
  5
28F7
330
2
100
AcDbEntity
  8
0
100
AcDbLine
 10
768.9604704956634
 20
573.6931469585469
 30
0.0
 11
768.9955683551286
 21
577.7149632971521
 31
0.0
  0
ARC
  5
28F8
330
2
100
AcDbEntity
  8
0
100
AcDbCircle
 10
768.4604895341288
 20
573.6975102262967
 30
0.0
 40
0.5
100
AcDbArc
 50
270.0
 51
359.5000000000345
  0
ARC
  5
28F9
330
2
100
AcDbEntity
  8
0
100
AcDbCircle
 10
770.9954922012564
 20
577.6975102261547
 30
0.0
 40
2.0
100
AcDbArc
 50
90.0
 51
179.5000000000344
  0
LINE
  5
28FA
330
2
100
AcDbEntity
  8
0
100
AcDbLine
 10
766.9561451394454
 20
582.6975102262966
 30
0.0
 11
766.0901197356595
 21
583.1975102262966
 31
0.0
  0
LINE
  5
28FB
330
2
100
AcDbEntity
  8
0
100
AcDbLine
 10
766.9561451394454
 20
573.1975102262967
 30
0.0
 11
766.9561451394454
 21
575.1975102262966
 31
0.0
  0
LINE
  5
28FC
330
2
100
AcDbEntity
  8
0
100
AcDbLine
 10
766.9561451394454
 20
575.1975102262966
 30
0.0
 11
766.9561451394454
 21
582.6975102262966
 31
0.0
  0
LINE
  5
28FD
330
2
100
AcDbEntity
  8
HIDS
100
AcDbLine
 10
765.284572264172
 20
581.6975102261547
 30
0.0
 11
766.9561451394436
 21
581.6975102261547
 31
0.0
  0
LINE
  5
28FE
330
2
100
AcDbEntity
  8
0
100
AcDbLine
 10
772.9561451394254
 20
585.4975102261558
 30
0.0
 11
772.9561451394254
 21
582.1975102261547
 31
0.0
  0
LINE
  5
28FF
330
2
100
AcDbEntity
  8
0
100
AcDbLine
 10
770.4561451394254
 20
581.6975102261547
 30
0.0
 11
770.9561451394254
 21
582.1975102261547
 31
0.0
  0
LINE
  5
2900
330
2
100
AcDbEntity
  8
0
100
AcDbLine
 10
772.9561451394254
 20
589.1975102261548
 30
0.0
 11
772.9561451394254
 21
587.8975102261555
 31
0.0
  0
LINE
  5
2901
330
2
100
AcDbEntity
  8
0
100
AcDbLine
 10
773.6561451394261
 20
587.4975102261559
 30
0.0
 11
773.6561451394261
 21
585.8975102261555
 31
0.0
  0
LINE
  5
2902
330
2
100
AcDbEntity
  8
0
100
AcDbLine
 10
773.1561451394261
 20
585.6975102261547
 30
0.0
 11
772.9561451394254
 21
585.4975102261558
 31
0.0
  0
LINE
  5
2903
330
2
100
AcDbEntity
  8
0
100
AcDbLine
 10
772.9561451394254
 20
589.1975102261548
 30
0.0
 11
773.5334954086154
 21
590.1975102261547
 31
0.0
  0
LINE
  5
2904
330
2
100
AcDbEntity
  8
0
100
AcDbLine
 10
932.289643777265
 20
503.6189793758511
 30
0.0
 11
931.5543815707458
 21
531.6975102207778
 31
0.0
  0
LINE
  5
2905
330
2
100
AcDbEntity
  8
0
100
AcDbLine
 10
913.8730875847702
 20
490.6800571546132
 30
0.0
 11
914.231041474815
 21
531.697510225609
 31
0.0
  0
LINE
  5
2906
330
2
100
AcDbEntity
  8
0
100
AcDbLine
 10
856.4561451394272
 20
562.6975102207778
 30
0.0
 11
856.4561451394272
 21
488.1975102207778
 31
0.0
  0
LINE
  5
2907
330
2
100
AcDbEntity
  8
0
100
AcDbLine
 10
833.4601735611046
 20
562.6975102207778
 30
0.0
 11
833.4601735611046
 21
488.1975102207778
 31
0.0
  0
LINE
  5
2908
330
2
100
AcDbEntity
  8
0
100
AcDbLine
 10
860.4561451394273
 20
562.6975102207778
 30
0.0
 11
860.4561451394273
 21
488.1975102207778
 31
0.0
  0
LINE
  5
2909
330
2
100
AcDbEntity
  8
0
100
AcDbLine
 10
870.4517817055382
 20
563.1975102261439
 30
0.0
 11
869.7841763195409
 21
486.6975102256109
 31
0.0
  0
LINE
  5
290A
330
2
100
AcDbEntity
  8
0
100
AcDbLine
 10
850.8776318078869
 20
479.7673092190142
 30
0.0
 11
850.5235492438494
 21
469.6277112322039
 31
0.0
  0
ARC
  5
290B
330
2
100
AcDbEntity
  8
0
100
AcDbCircle
 10
831.6674700048313
 20
467.1975102207778
 30
0.0
 40
0.5
100
AcDbArc
 50
270.0
 51
330.0000000000051
  0
ARC
  5
290C
330
2
100
AcDbEntity
  8
0
100
AcDbCircle
 10
830.4561451394254
 20
468.0994340094238
 30
0.0
 40
2.0
100
AcDbArc
 50
330.0000000000051
 51
348.4067863765158
  0
LINE
  5
290D
330
2
100
AcDbEntity
  8
0
100
AcDbLine
 10
832.1881959469953
 20
467.0994340094238
 30
0.0
 11
832.1004827067243
 21
466.9475102207778
 31
0.0
  0
LINE
  5
290E
330
2
100
AcDbEntity
  8
0
100
AcDbLine
 10
825.4561451394254
 20
465.6975102207779
 30
0.0
 11
826.0334954086154
 21
466.6975102207779
 31
0.0
  0
ARC
  5
290F
330
2
100
AcDbEntity
  8
0
100
AcDbCircle
 10
848.5247675898115
 20
469.697510225609
 30
0.0
 40
2.0
100
AcDbArc
 50
270.0
 51
357.9999999999962
  0
LINE
  5
2910
330
2
100
AcDbEntity
  8
0
100
AcDbLine
 10
865.4561451394254
 20
481.6975102256109
 30
0.0
 11
865.4561451394254
 21
486.6975102256109
 31
0.0
  0
ARC
  5
2911
330
2
100
AcDbEntity
  8
0
100
AcDbCircle
 10
852.8764134619247
 20
479.6975102256091
 30
0.0
 40
2.0
100
AcDbArc
 50
90.0
 51
177.9999999999962
  0
LINE
  5
2912
330
2
100
AcDbEntity
  8
0
100
AcDbLine
 10
871.2885968710141
 20
488.6975102256108
 30
0.0
 11
911.8731637386417
 21
488.6975102256091
 31
0.0
  0
ARC
  5
2913
330
2
100
AcDbEntity
  8
0
100
AcDbCircle
 10
871.2885968710141
 20
487.1975102256109
 30
0.0
 40
1.5
100
AcDbArc
 50
90.0
 51
179.5000000000344
  0
LINE
  5
2914
330
2
100
AcDbEntity
  8
0
100
AcDbLine
 10
935.2886157521913
 20
500.6975102207778
 30
0.0
 11
938.7335015690549
 21
500.6975102207778
 31
0.0
  0
ARC
  5
2915
330
2
100
AcDbEntity
  8
0
100
AcDbCircle
 10
927.3042560408555
 20
503.1975102207779
 30
0.0
 40
5.0
100
AcDbArc
 50
3.583321698471883
 51
90.0
  0
LINE
  5
2916
330
2
100
AcDbEntity
  8
0
100
AcDbLine
 10
930.4152185797864
 20
503.1975102207779
 30
0.0
 11
916.9562593745775
 21
503.1975102207779
 31
0.0
  0
ARC
  5
2918
330
2
100
AcDbEntity
  8
0
100
AcDbCircle
 10
916.9562593745355
 20
500.1975102207778
 30
0.0
 40
3.0
100
AcDbArc
 50
90.0
 51
179.5000000000344
  0
ARC
  5
2919
330
2
100
AcDbEntity
  8
0
100
AcDbCircle
 10
918.9825161346778
 20
503.1975102207779
 30
0.0
 40
5.0
100
AcDbArc
 50
90.0
 51
179.5000000000344
  0
LINE
  5
291A
330
2
100
AcDbEntity
  8
0
100
AcDbLine
 10
927.3042560408555
 20
508.1975102207779
 30
0.0
 11
918.9825161346778
 21
508.1975102207779
 31
0.0
  0
ARC
  5
291B
330
2
100
AcDbEntity
  8
0
100
AcDbCircle
 10
930.4152185797864
 20
500.1975102207778
 30
0.0
 40
3.0
100
AcDbArc
 50
35.68533471271973
 51
90.0
  0
ARC
  5
291C
330
2
100
AcDbEntity
  8
0
100
AcDbCircle
 10
935.2886157521913
 20
503.6975102207779
 30
0.0
 40
3.0
100
AcDbArc
 50
181.5000000000939
 51
270.0
  0
ARC
  5
291D
330
2
100
AcDbEntity
  8
0
100
AcDbCircle
 10
868.4735227182352
 20
577.6975102261547
 30
0.0
 40
2.0
100
AcDbArc
 50
0.499999999965521
 51
90.0
  0
LINE
  5
291E
330
2
100
AcDbEntity
  8
0
100
AcDbLine
 10
856.4561451394236
 20
577.7149632971521
 30
0.0
 11
856.4561451394236
 21
563.1975102261456
 31
0.0
  0
LINE
  5
291F
330
2
100
AcDbEntity
  8
0
100
AcDbLine
 10
833.4601735611212
 20
577.7149632971521
 30
0.0
 11
833.4601735611212
 21
563.1975102261475
 31
0.0
  0
LINE
  5
2920
330
2
100
AcDbEntity
  8
0
100
AcDbLine
 10
860.4561451394273
 20
577.7149632971521
 30
0.0
 11
860.4561451394273
 21
563.1975102261456
 31
0.0
  0
ARC
  5
2921
330
2
100
AcDbEntity
  8
0
100
AcDbCircle
 10
859.2845722641721
 20
581.6975102261547
 30
0.0
 40
2.0
100
AcDbArc
 50
224.9999999999908
 51
270.0
  0
LINE
  5
2922
330
2
100
AcDbEntity
  8
0
100
AcDbLine
 10
857.8703587017987
 20
580.2832966637814
 30
0.0
 11
857.041931577052
 21
581.1117237885281
 31
0.0
  0
ARC
  5
2923
330
2
100
AcDbEntity
  8
0
100
AcDbCircle
 10
855.6277180146805
 20
579.6975102261548
 30
0.0
 40
2.0
100
AcDbArc
 50
44.99999999999078
 51
90.0
  0
ARC
  5
2924
330
2
100
AcDbEntity
  8
0
100
AcDbCircle
 10
847.7561451394265
 20
587.8975102261555
 30
0.0
 40
0.2
100
AcDbArc
 50
270.0
 51
0.0
  0
ARC
  5
2925
330
2
100
AcDbEntity
  8
0
100
AcDbCircle
 10
847.4561451394254
 20
587.4975102261559
 30
0.0
 40
0.2
100
AcDbArc
 50
90.0
 51
180.0
  0
ARC
  5
2926
330
2
100
AcDbEntity
  8
0
100
AcDbCircle
 10
847.4561451394254
 20
585.8975102261555
 30
0.0
 40
0.2
100
AcDbArc
 50
180.0
 51
270.0
  0
LINE
  5
2927
330
2
100
AcDbEntity
  8
0
100
AcDbLine
 10
847.9561451394253
 20
585.4975102261558
 30
0.0
 11
847.9561451394253
 21
582.1975102261547
 31
0.0
  0
LINE
  5
2928
330
2
100
AcDbEntity
  8
0
100
AcDbLine
 10
850.4561451394254
 20
581.6975102261547
 30
0.0
 11
849.9561451394253
 21
582.1975102261547
 31
0.0
  0
LINE
  5
2929
330
2
100
AcDbEntity
  8
0
100
AcDbLine
 10
847.9561451394253
 20
589.1975102261566
 30
0.0
 11
847.9561451394253
 21
587.8975102261555
 31
0.0
  0
LINE
  5
292A
330
2
100
AcDbEntity
  8
0
100
AcDbLine
 10
847.7561451394265
 20
585.6975102261566
 30
0.0
 11
847.9561451394253
 21
585.4975102261558
 31
0.0
  0
LINE
  5
292B
330
2
100
AcDbEntity
  8
0
100
AcDbLine
 10
847.2561451394264
 20
587.4975102261559
 30
0.0
 11
847.2561451394264
 21
585.8975102261555
 31
0.0
  0
LINE
  5
292C
330
2
100
AcDbEntity
  8
0
100
AcDbLine
 10
847.9561451394253
 20
589.1975102261548
 30
0.0
 11
847.3787948702353
 21
590.1975102261566
 31
0.0
  0
LINE
  5
292D
330
2
100
AcDbEntity
  8
CENTER
  6
CENS
100
AcDbLine
 10
905.9561451394436
 20
556.9235182363899
 30
0.0
 11
905.9561451394436
 21
586.1975102262967
 31
0.0
  0
LINE
  5
292E
330
2
100
AcDbEntity
  8
0
100
AcDbLine
 10
913.9561451394218
 20
563.197510226695
 30
0.0
 11
913.8556338491888
 21
574.7149632971521
 31
0.0
  0
LINE
  5
292F
330
2
100
AcDbEntity
  8
0
100
AcDbLine
 10
870.4561451394253
 20
563.1975102261529
 30
0.0
 11
870.4561451394253
 21
577.9605849968828
 31
0.0
  0
LINE
  5
2930
330
2
100
AcDbEntity
  8
0
100
AcDbLine
 10
935.2886157521913
 20
562.6975102207778
 30
0.0
 11
938.7335015691894
 21
562.6975102207778
 31
0.0
  0
ARC
  5
2931
330
2
100
AcDbEntity
  8
0
100
AcDbCircle
 10
928.6842828012101
 20
537.1975102207779
 30
0.0
 40
3.0
100
AcDbArc
 50
270.0
 51
358.5000000001145
  0
ARC
  5
2932
330
2
100
AcDbEntity
  8
0
100
AcDbCircle
 10
927.3042560408555
 20
560.1975102207778
 30
0.0
 40
5.0
100
AcDbArc
 50
270.0
 51
356.4166783015281
  0
ARC
  5
2933
330
2
100
AcDbEntity
  8
0
100
AcDbCircle
 10
928.6842828011247
 20
526.1975102207778
 30
0.0
 40
3.0
100
AcDbArc
 50
1.500000000093984
 51
90.0
  0
LINE
  5
2934
330
2
100
AcDbEntity
  8
0
100
AcDbLine
 10
930.4152185797864
 20
560.1975102207778
 30
0.0
 11
916.956259374581
 21
560.1975102207778
 31
0.0
  0
ARC
  5
2935
330
2
100
AcDbEntity
  8
0
100
AcDbCircle
 10
907.7682515006634
 20
532.6975102207779
 30
0.0
 40
1.0
100
AcDbArc
 50
181.5000000001981
 51
270.0
  0
LINE
  5
2936
330
2
100
AcDbEntity
  8
0
100
AcDbLine
 10
907.7682515006634
 20
531.6975102207778
 30
0.0
 11
913.9561451394254
 21
531.6975102207778
 31
0.0
  0
ARC
  5
2937
330
2
100
AcDbEntity
  8
0
100
AcDbCircle
 10
918.9825161347979
 20
560.1975102207778
 30
0.0
 40
5.0
100
AcDbArc
 50
180.5000000005908
 51
270.0
  0
ARC
  5
2938
330
2
100
AcDbEntity
  8
0
100
AcDbCircle
 10
917.1831579374353
 20
537.1975102207779
 30
0.0
 40
3.0
100
AcDbArc
 50
180.5000000005908
 51
270.0
  0
ARC
  5
2939
330
2
100
AcDbEntity
  8
0
100
AcDbCircle
 10
917.1831579370843
 20
526.1975102207778
 30
0.0
 40
3.0
100
AcDbArc
 50
90.0
 51
179.5000000000344
  0
LINE
  5
293A
330
2
100
AcDbEntity
  8
0
100
AcDbLine
 10
917.1831579370843
 20
529.1975102207779
 30
0.0
 11
928.6842828011247
 21
529.1975102207779
 31
0.0
  0
LINE
  5
293B
330
2
100
AcDbEntity
  8
0
100
AcDbLine
 10
917.1831579374353
 20
534.1975102207778
 30
0.0
 11
928.6842828012101
 21
534.1975102207778
 31
0.0
  0
LINE
  5
293C
330
2
100
AcDbEntity
  8
0
100
AcDbLine
 10
927.3042560408555
 20
555.1975102207778
 30
0.0
 11
918.9825161347979
 21
555.1975102207778
 31
0.0
  0
LINE
  5
293D
330
2
100
AcDbEntity
  8
0
100
AcDbLine
 10
905.9692381000694
 20
563.197510226142
 30
0.0
 11
906.7685941756897
 21
532.6713332724665
 31
0.0
  0
LINE
  5
293E
330
2
100
AcDbEntity
  8
0
100
AcDbLine
 10
913.9561451394254
 20
563.1975102256091
 30
0.0
 11
914.2310414751371
 21
531.697510225609
 31
0.0
  0
ARC
  5
293F
330
2
100
AcDbEntity
  8
0
100
AcDbCircle
 10
916.9562593746247
 20
563.1975102207778
 30
0.0
 40
3.0
100
AcDbArc
 50
180.5000000005908
 51
270.0
  0
LINE
  5
2940
330
2
100
AcDbEntity
  8
0
100
AcDbLine
 10
932.289643777265
 20
559.7760410657027
 30
0.0
 11
931.5543815708476
 21
531.6975102207778
 31
0.0
  0
ARC
  5
2941
330
2
100
AcDbEntity
  8
0
100
AcDbCircle
 10
930.4152185797864
 20
563.1975102207778
 30
0.0
 40
3.0
100
AcDbArc
 50
270.0
 51
324.3146652872802
  0
ARC
  5
2942
330
2
100
AcDbEntity
  8
0
100
AcDbCircle
 10
935.2886157521913
 20
559.6975102207778
 30
0.0
 40
3.0
100
AcDbArc
 50
90.0
 51
178.5000000001145
  0
LINE
  5
2943
330
2
100
AcDbEntity
  8
0
100
AcDbLine
 10
900.3221705432295
 20
583.1975102262966
 30
0.0
 11
911.5901197356595
 21
583.1975102262949
 31
0.0
  0
LINE
  5
2944
330
2
100
AcDbEntity
  8
0
100
AcDbLine
 10
899.4561451394435
 20
573.1975102262967
 30
0.0
 11
912.4561451394436
 21
573.1975102262967
 31
0.0
  0
LINE
  5
2945
330
2
100
AcDbEntity
  8
0
100
AcDbLine
 10
899.4561451394435
 20
575.1975102262949
 30
0.0
 11
912.4561451394436
 21
575.1975102262949
 31
0.0
  0
LINE
  5
2946
330
2
100
AcDbEntity
  8
0
100
AcDbLine
 10
899.4561451394435
 20
582.6975102262966
 30
0.0
 11
912.4561451394436
 21
582.6975102262948
 31
0.0
  0
LINE
  5
2947
330
2
100
AcDbEntity
  8
HIDS
100
AcDbLine
 10
911.855710003061
 20
576.6975102261548
 30
0.0
 11
899.4561451394435
 21
576.6975102261548
 31
0.0
  0
LINE
  5
2948
330
2
100
AcDbEntity
  8
0
100
AcDbLine
 10
898.0348742997119
 20
573.1975102262967
 30
0.0
 11
912.8775652509228
 21
573.1975102262967
 31
0.0
  0
LINE
  5
2949
330
2
100
AcDbEntity
  8
0
100
AcDbLine
 10
899.4561451394435
 20
582.6975102262966
 30
0.0
 11
900.3221705432277
 21
583.1975102262949
 31
0.0
  0
LINE
  5
294A
330
2
100
AcDbEntity
  8
0
100
AcDbLine
 10
899.4561451394435
 20
573.1975102262967
 30
0.0
 11
899.4561451394435
 21
575.1975102262966
 31
0.0
  0
LINE
  5
294B
330
2
100
AcDbEntity
  8
0
100
AcDbLine
 10
899.4561451394435
 20
575.1975102262966
 30
0.0
 11
899.4561451394435
 21
582.6975102262966
 31
0.0
  0
ARC
  5
294C
330
2
100
AcDbEntity
  8
0
100
AcDbCircle
 10
871.4736369533927
 20
577.6975102261547
 30
0.0
 40
1.0
100
AcDbArc
 50
180.4999999999655
 51
270.0
  0
LINE
  5
294D
330
2
100
AcDbEntity
  8
0
100
AcDbLine
 10
870.4734465643648
 20
577.7149632971521
 30
0.0
 11
870.4736750303288
 21
577.688783690657
 31
0.0
  0
LINE
  5
294E
330
2
100
AcDbEntity
  8
0
100
AcDbLine
 10
897.5350456372233
 20
573.6844217521428
 30
0.0
 11
897.5071460468695
 21
574.7498641227756
 31
0.0
  0
ARC
  5
294F
330
2
100
AcDbEntity
  8
0
100
AcDbCircle
 10
898.0348742997119
 20
573.6975102262967
 30
0.0
 40
0.5
100
AcDbArc
 50
181.4999999999896
 51
270.0
  0
ARC
  5
2950
330
2
100
AcDbEntity
  8
0
100
AcDbCircle
 10
895.5078313969186
 20
574.6975102261602
 30
0.0
 40
2.0
100
AcDbArc
 50
1.499999999989629
 51
90.0
  0
LINE
  5
2951
330
2
100
AcDbEntity
  8
0
100
AcDbLine
 10
899.4561451394435
 20
576.6975102261548
 30
0.0
 11
871.4736369533927
 21
576.6975102261548
 31
0.0
  0
LINE
  5
2952
330
2
100
AcDbEntity
  8
0
100
AcDbLine
 10
912.4561451394436
 20
582.6975102262948
 30
0.0
 11
911.5901197356595
 21
583.1975102262949
 31
0.0
  0
LINE
  5
2953
330
2
100
AcDbEntity
  8
0
100
AcDbLine
 10
912.4561451394436
 20
573.1975102262948
 30
0.0
 11
912.4561451394436
 21
575.1975102262949
 31
0.0
  0
LINE
  5
2954
330
2
100
AcDbEntity
  8
0
100
AcDbLine
 10
912.4561451394436
 20
575.1975102262949
 30
0.0
 11
912.4561451394436
 21
582.6975102262948
 31
0.0
  0
ARC
  5
2955
330
2
100
AcDbEntity
  8
0
100
AcDbCircle
 10
911.855710003061
 20
574.6975102261548
 30
0.0
 40
2.0
100
AcDbArc
 50
0.499999999965521
 51
72.52932876219034
  0
ARC
  5
2956
330
2
100
AcDbEntity
  8
HIDS
100
AcDbCircle
 10
911.855710003061
 20
574.6975102261548
 30
0.0
 40
2.0
100
AcDbArc
 50
72.52932876219034
 51
90.0
  0
ARC
  5
2957
330
2
100
AcDbEntity
  8
0
100
AcDbCircle
 10
912.8775652509228
 20
572.1975102262966
 30
0.0
 40
1.0
100
AcDbArc
 50
0.499999999965521
 51
90.0
  0
LINE
  5
2958
330
2
100
AcDbEntity
  8
0
100
AcDbLine
 10
942.7925223550079
 20
531.6975102207778
 30
0.0
 11
943.8151442312481
 21
492.6451563241625
 31
0.0
  0
LINE
  5
295A
330
2
100
AcDbEntity
  8
0
100
AcDbLine
 10
955.866145139427
 20
490.6975102207779
 30
0.0
 11
945.814458881199
 21
490.6975102207779
 31
0.0
  0
ARC
  5
295B
330
2
100
AcDbEntity
  8
0
100
AcDbCircle
 10
945.814458881199
 20
492.6975102207778
 30
0.0
 40
2.0
100
AcDbArc
 50
181.4999999999896
 51
270.0
  0
LINE
  5
295C
330
2
100
AcDbEntity
  8
0
100
AcDbLine
 10
943.8151442313881
 20
570.7498641173986
 30
0.0
 11
942.7925223550627
 21
531.6975102207778
 31
0.0
  0
LINE
  5
295D
330
2
100
AcDbEntity
  8
0
100
AcDbLine
 10
942.7925223550353
 20
531.6975102197355
 30
0.0
 11
955.866145139427
 21
531.6975102207778
 31
0.0
  0
LINE
  5
295E
330
2
100
AcDbEntity
  8
0
100
AcDbLine
 10
945.8144588813391
 20
572.6975102207778
 30
0.0
 11
955.866145139427
 21
572.6975102207778
 31
0.0
  0
ARC
  5
295F
330
2
100
AcDbEntity
  8
0
100
AcDbCircle
 10
945.8144588813391
 20
570.6975102207779
 30
0.0
 40
2.0
100
AcDbArc
 50
90.0
 51
178.499999999906
  0
LINE
  5
2BA6
330
2
100
AcDbEntity
  8
0
100
AcDbLine
 10
410.643156166821
 20
191.8078544428642
 30
0.0
 11
410.6431561668211
 21
194.9418290390783
 31
0.0
  0
LINE
  5
2BA7
330
2
100
AcDbEntity
  8
0
100
AcDbLine
 10
411.1431561668211
 20
195.8078544428624
 30
0.0
 11
410.6431561668211
 21
194.9418290390783
 31
0.0
  0
LINE
  5
2BA8
330
2
100
AcDbEntity
  8
0
100
AcDbLine
 10
412.1431561668216
 20
195.8078544428624
 30
0.0
 11
411.1431561668211
 21
195.8078544428624
 31
0.0
  0
LINE
  5
2BA9
330
2
100
AcDbEntity
  8
0
100
AcDbLine
 10
411.1431561668211
 20
191.8078544428642
 30
0.0
 11
411.1431561668211
 21
195.8078544428624
 31
0.0
  0
LINE
  5
2BAA
330
2
100
AcDbEntity
  8
0
100
AcDbLine
 10
410.6431561668211
 20
116.8078544428643
 30
0.0
 11
410.6431561668211
 21
113.6738798466501
 31
0.0
  0
LINE
  5
2BAB
330
2
100
AcDbEntity
  8
0
100
AcDbLine
 10
411.1431561668211
 20
112.807854442866
 30
0.0
 11
410.6431561668211
 21
113.6738798466501
 31
0.0
  0
LINE
  5
2BAC
330
2
100
AcDbEntity
  8
0
100
AcDbLine
 10
412.1431561668216
 20
112.807854442866
 30
0.0
 11
411.1431561668211
 21
112.807854442866
 31
0.0
  0
LINE
  5
2BAD
330
2
100
AcDbEntity
  8
0
100
AcDbLine
 10
411.1431561668211
 20
116.8078544428643
 30
0.0
 11
411.1431561668211
 21
112.807854442866
 31
0.0
  0
CIRCLE
  5
2BEA
330
2
100
AcDbEntity
  8
0
100
AcDbCircle
 10
810.4561451394083
 20
154.3078544428625
 30
0.0
 40
33.07735
  0
ARC
  5
2BEF
330
2
100
AcDbEntity
  8
0
100
AcDbCircle
 10
911.8731637386419
 20
490.697510225609
 30
0.0
 40
2.0
100
AcDbArc
 50
269.9999999999974
 51
359.500000000027
  0
ARC
  5
2BF4
330
2
100
AcDbEntity
  8
0
100
AcDbCircle
 10
965.8661451394275
 20
570.6101653860984
 30
0.0
 40
2.0
100
AcDbArc
 50
0.0
 51
89.49999999999816
  0
ARC
  5
2BF7
330
2
100
AcDbEntity
  8
0
100
AcDbCircle
 10
965.8661451394275
 20
492.7848550554564
 30
0.0
 40
2.0
100
AcDbArc
 50
270.4999999999971
 51
0.0
  0
ARC
  5
2BF8
330
2
100
AcDbEntity
  8
0
100
AcDbCircle
 10
993.5438973843476
 20
183.8219021747283
 30
0.0
 40
2.0
100
AcDbArc
 50
46.0177614527303
 51
89.00000000000034
  0
ARC
  5
2BF9
330
2
100
AcDbEntity
  8
0
100
AcDbCircle
 10
993.5438973843474
 20
124.7938067110001
 30
0.0
 40
2.0
100
AcDbArc
 50
270.9999999999996
 51
313.9822385472697
  0
ARC
  5
2C0C
330
2
100
AcDbEntity
  8
0
100
AcDbCircle
 10
82.86246813553146
 20
193.2205096081856
 30
0.0
 40
2.0
100
AcDbArc
 50
90.49999999999711
 51
180.0
  0
ARC
  5
2C0D
330
2
100
AcDbEntity
  8
0
100
AcDbCircle
 10
82.86246813553146
 20
115.3951992775435
 30
0.0
 40
2.0
100
AcDbArc
 50
180.0
 51
269.4999999999981
  0
ARC
  5
2C0E
330
2
100
AcDbEntity
  8
0
100
AcDbCircle
 10
55.18471589060863
 20
183.8219021747283
 30
0.0
 40
2.0
100
AcDbArc
 50
90.99999999999965
 51
133.9822385472697
  0
ARC
  5
2C0F
330
2
100
AcDbEntity
  8
0
100
AcDbCircle
 10
55.18471589060859
 20
124.793806711
 30
0.0
 40
2.0
100
AcDbArc
 50
226.0177614527302
 51
269.0000000000003
  0
ARC
  5
2C10
330
2
100
AcDbEntity
  8
0
100
AcDbCircle
 10
965.8661451394246
 20
193.2205096081857
 30
0.0
 40
2.0
100
AcDbArc
 50
0.0
 51
89.50000000000288
  0
ARC
  5
2C11
330
2
100
AcDbEntity
  8
0
100
AcDbCircle
 10
965.8661451394246
 20
115.3951992775436
 30
0.0
 40
2.0
100
AcDbArc
 50
270.5000000000018
 51
0.0
  0
ARC
  5
2C12
330
2
100
AcDbEntity
  8
0
100
AcDbCircle
 10
993.5438973843504
 20
502.1834624889137
 30
0.0
 40
2.0
100
AcDbArc
 50
271.0000000000023
 51
313.9822385472697
  0
ARC
  5
2C13
330
2
100
AcDbEntity
  8
0
100
AcDbCircle
 10
993.5438973843499
 20
561.2115579526419
 30
0.0
 40
2.0
100
AcDbArc
 50
46.01776145271228
 51
89.00000000000034
  0
ENDSEC
  0
SECTION
  2
OBJECTS
  0
DICTIONARY
  5
7
330
0
100
AcDbDictionary
  3
ACAD_COLOR
350
2B71
  3
ACAD_GROUP
350
75
  3
ACAD_LAYOUT
350
61
  3
ACAD_MATERIAL
350
2B47
  3
ACAD_MLEADERSTYLE
350
2B96
  3
ACAD_MLINESTYLE
350
76
  3
ACAD_PLOTSETTINGS
350
77
  3
ACAD_PLOTSTYLENAME
350
6
  3
ACAD_SCALELIST
350
2B74
  3
ACAD_TABLESTYLE
350
2B72
  3
ACAD_VISUALSTYLE
350
2B60
  3
ACADDIM
350
480
  3
ACDB_RECOMPOSE_DATA
350
2BC0
  3
ACDBHEADERROUNDTRIPXREC
350
2C66
  3
ACDBVARIABLEDICTIONARY
350
102
  3
DWGPROPS
350
2C32
  0
DICTIONARY
  5
2BC9
330
6E
100
AcDbDictionary
280
     1
  3
ACAD_XREC_ROUNDTRIP
360
2C3A
  0
DICTIONARY
  5
B16
330
66
100
AcDbDictionary
280
     1
  3
ACAD_LAYERSTATES
360
B17
  0
DICTIONARY
  5
2BAE
330
5E
100
AcDbDictionary
280
     1
  3
ACAD_XREC_ROUNDTRIP
360
2C35
  3
ADSK_XREC_LAYER_RECONCILED
360
2BAF
  0
DICTIONARY
  5
2BB0
330
3E
100
AcDbDictionary
280
     1
  3
ACAD_XREC_ROUNDTRIP
360
2C34
  3
ADSK_XREC_LAYER_RECONCILED
360
2BB1
  0
DICTIONARY
  5
2BB6
330
2B5
100
AcDbDictionary
280
     1
  3
ACAD_XREC_ROUNDTRIP
360
2C40
  3
ADSK_XREC_LAYER_RECONCILED
360
2BB7
  0
DICTIONARY
  5
2BB8
330
2BA
100
AcDbDictionary
280
     1
  3
ACAD_XREC_ROUNDTRIP
360
2C41
  3
ADSK_XREC_LAYER_RECONCILED
360
2BB9
  0
DICTIONARY
  5
2BBC
330
3FA
100
AcDbDictionary
280
     1
  3
ACAD_XREC_ROUNDTRIP
360
2C43
  3
ADSK_XREC_LAYER_RECONCILED
360
2BBD
  0
DICTIONARY
  5
2BF5
330
2
100
AcDbDictionary
280
     1
  3
ACAD_LAYOUTSELFREF
360
2C87
  3
ACAD_SORTENTS
360
2BF6
  0
DICTIONARY
  5
2C88
330
2C60
100
AcDbDictionary
280
     1
  3
ACAD_LAYOUTSELFREF
360
2C89
  0
DICTIONARY
  5
2B71
102
{ACAD_REACTORS
330
7
102
}
330
7
100
AcDbDictionary
  0
DICTIONARY
  5
75
102
{ACAD_REACTORS
330
7
102
}
330
7
100
AcDbDictionary
  0
DICTIONARY
  5
61
102
{ACAD_REACTORS
330
7
102
}
330
7
100
AcDbDictionary
  0
DICTIONARY
  5
2B47
102
{ACAD_REACTORS
330
7
102
}
330
7
100
AcDbDictionary
  3
BYBLOCK
350
2B50
  3
BYLAYER
350
2B48
  3
GLOBAL
350
2B58
  0
DICTIONARY
  5
2B96
102
{ACAD_REACTORS
330
7
102
}
330
7
100
AcDbDictionary
  3
STANDARD
350
2B97
  0
DICTIONARY
  5
76
102
{ACAD_REACTORS
330
7
102
}
330
7
100
AcDbDictionary
  3
STANDARD
350
78
  0
DICTIONARY
  5
77
102
{ACAD_REACTORS
330
7
102
}
330
7
100
AcDbDictionary
  0
ACDBDICTIONARYWDFLT
  5
6
102
{ACAD_REACTORS
330
7
102
}
330
7
100
AcDbDictionary
281
     1
  3
Normal
350
5
100
AcDbDictionaryWithDefault
340
5
  0
DICTIONARY
  5
2B74
102
{ACAD_REACTORS
330
7
102
}
330
7
100
AcDbDictionary
  3
A0
350
2B75
  3
A1
350
2B76
  3
A2
350
2B77
  3
A3
350
2B78
  3
A4
350
2B79
  3
A5
350
2B7A
  3
A6
350
2B7B
  3
A7
350
2B7C
  3
A8
350
2B7D
  3
A9
350
2B7E
  3
B0
350
2B7F
  3
B1
350
2B80
  3
B2
350
2B81
  3
B3
350
2B82
  3
B4
350
2B83
  3
B5
350
2B84
  3
B6
350
2B85
  3
B7
350
2B86
  3
B8
350
2B87
  3
B9
350
2B88
  3
C0
350
2B89
  3
C1
350
2B8A
  3
C2
350
2B8B
  3
C3
350
2B8C
  3
C4
350
2B8D
  3
C5
350
2B8E
  3
C6
350
2B8F
  3
C7
350
2B90
  3
C8
350
2B91
  3
C9
350
2B92
  3
D0
350
2B93
  3
D1
350
2B94
  3
D2
350
2B95
  0
DICTIONARY
  5
2B72
102
{ACAD_REACTORS
330
7
102
}
330
7
100
AcDbDictionary
  3
STANDARD
350
2B73
  0
DICTIONARY
  5
2B60
102
{ACAD_REACTORS
330
7
102
}
330
7
100
AcDbDictionary
  3
2DWIREFRAME
350
2B66
  3
3D_HIDDEN
350
2B68
  3
3DWIREFRAME
350
2B67
  3
BASIC
350
2B65
  3
BRIGHTEN
350
2B6C
  3
COLORCHANGE
350
2B70
  3
CONCEPTUAL
350
2B69
  3
DIM
350
2B6B
  3
FACEPATTERN
350
2B6F
  3
FLAT
350
2B61
  3
FLATWITHEDGES
350
2B62
  3
GOURAUD
350
2B63
  3
GOURAUDWITHEDGES
350
2B64
  3
LINEPATTERN
350
2B6E
  3
REALISTIC
350
2B6A
  3
THICKEN
350
2B6D
  0
XRECORD
  5
480
102
{ACAD_REACTORS
330
7
102
}
330
7
100
AcDbXrecord
 90
   990106
  3

 60
     0
 61
     0
 62
     1
 63
     3
 64
     1
 65
     0
 66
     0
 67
     3
 68
     1
 69
     0
 70
     0
 71
     0
 72
     0
 40
0.0
170
     2
340
0
  0
XRECORD
  5
2BC0
102
{ACAD_REACTORS
330
7
102
}
330
7
100
AcDbXrecord
 90
        1
330
2B73
  0
DICTIONARY
  5
2C66
102
{ACAD_REACTORS
330
7
102
}
330
7
100
AcDbDictionary
  3
CEPSNTYPE
350
2C70
  3
DIMSTYLEDATA
350
2C74
  3
FINGERPRINTGUID
350
2C71
  3
HYPERLINKBASE
350
2C69
  3
INSUNITS
350
2C6F
  3
LAYOUTDICT
350
2C6B
  3
LWETCUNION
350
2C6E
  3
PLOTSETDICT
350
2C6C
  3
PLOTSTYLNAMDICT
350
2C6D
  3
PSVPSCALE
350
2C73
  3
PUCSBASE
350
2C77
  3
PUCSORGBACK
350
2C7D
  3
PUCSORGBOTTOM
350
2C79
  3
PUCSORGFRONT
350
2C7C
  3
PUCSORGLEFT
350
2C7A
  3
PUCSORGRIGHT
350
2C7B
  3
PUCSORGTOP
350
2C78
  3
PUCSORTHOREF
350
2C75
  3
PUCSORTHOVIEW
350
2C76
  3
STYLESHEET
350
2C6A
  3
TSTACKALIGN
350
2C67
  3
TSTACKSIZE
350
2C68
  3
UCSBASE
350
2C80
  3
UCSORGBACK
350
2C86
  3
UCSORGBOTTOM
350
2C82
  3
UCSORGFRONT
350
2C85
  3
UCSORGLEFT
350
2C83
  3
UCSORGRIGHT
350
2C84
  3
UCSORGTOP
350
2C81
  3
UCSORTHOREF
350
2C7E
  3
UCSORTHOVIEW
350
2C7F
  3
VERSIONGUID
350
2C72
  0
DICTIONARY
  5
102
102
{ACAD_REACTORS
330
7
102
}
330
7
100
AcDbDictionary
  3
CANNOSCALE
350
2BE0
  3
CMLEADERSTYLE
350
2BDF
  3
CTABLESTYLE
350
2BDE
  3
DIMASSOC
350
103
  3
INDEXCTL
350
2BE1
  3
SORTENTS
350
549
  0
XRECORD
  5
2C32
102
{ACAD_REACTORS
330
7
102
}
330
7
100
AcDbXrecord
  1
DWGPROPS COOKIE
  2

  3

  4

  6

  7

  8
ymorima
  9

300
=
301
=
302
=
303
=
304
=
305
=
306
=
307
=
308
=
309
=
 40
0.0642999189814815
 41
2454413.383856874
 42
2454424.462588425
  1

 90
        0
  0
XRECORD
  5
2C3A
102
{ACAD_REACTORS
330
2BC9
102
}
330
2BC9
100
AcDbXrecord
102
VTR_0.000_0.000_1.000_1.000_VISUALSTYLE
340
2B66
102
VTR_0.000_0.000_1.000_1.000_GRIDDISPLAY
 70
     3
102
VTR_0.000_0.000_1.000_1.000_GRIDMAJOR
 70
     5
102
VTR_0.000_0.000_1.000_1.000_DEFAULTLIGHTING
280
     1
102
VTR_0.000_0.000_1.000_1.000_DEFAULTLIGHTINGTYPE
 70
     1
102
VTR_0.000_0.000_1.000_1.000_BRIGHTNESS
141
0.0
102
VTR_0.000_0.000_1.000_1.000_CONTRAST
142
0.0
  0
DICTIONARY
  5
B17
102
{ACAD_REACTORS
330
B16
102
}
330
B16
100
AcDbDictionary
  0
XRECORD
  5
2C35
102
{ACAD_REACTORS
330
2BAE
102
}
330
2BAE
100
AcDbXrecord
102
MATERIAL
340
2B58
  0
XRECORD
  5
2BAF
102
{ACAD_REACTORS
330
2BAE
102
}
330
2BAE
100
AcDbXrecord
290
     1
  0
XRECORD
  5
2C34
102
{ACAD_REACTORS
330
2BB0
102
}
330
2BB0
100
AcDbXrecord
102
MATERIAL
340
2B58
  0
XRECORD
  5
2BB1
102
{ACAD_REACTORS
330
2BB0
102
}
330
2BB0
100
AcDbXrecord
290
     1
  0
XRECORD
  5
2C40
102
{ACAD_REACTORS
330
2BB6
102
}
330
2BB6
100
AcDbXrecord
102
MATERIAL
340
2B58
  0
XRECORD
  5
2BB7
102
{ACAD_REACTORS
330
2BB6
102
}
330
2BB6
100
AcDbXrecord
290
     1
  0
XRECORD
  5
2C41
102
{ACAD_REACTORS
330
2BB8
102
}
330
2BB8
100
AcDbXrecord
102
MATERIAL
340
2B58
  0
XRECORD
  5
2BB9
102
{ACAD_REACTORS
330
2BB8
102
}
330
2BB8
100
AcDbXrecord
290
     1
  0
XRECORD
  5
2C43
102
{ACAD_REACTORS
330
2BBC
102
}
330
2BBC
100
AcDbXrecord
102
MATERIAL
340
2B58
  0
XRECORD
  5
2BBD
102
{ACAD_REACTORS
330
2BBC
102
}
330
2BBC
100
AcDbXrecord
290
     1
  0
XRECORD
  5
2C87
102
{ACAD_REACTORS
330
2BF5
102
}
330
2BF5
100
AcDbXrecord
340
2
  0
SORTENTSTABLE
  5
2BF6
102
{ACAD_REACTORS
330
2BF5
102
}
330
2BF5
100
AcDbSortentsTable
330
2
331
2739
  5
2746
331
2931
  5
293D
331
13EA
  5
13F2
331
14A1
  5
14AD
331
26F7
  5
2703
331
27E4
  5
27F0
331
1457
  5
145F
331
13A8
  5
13A8
331
26AD
  5
26B9
331
2925
  5
2931
331
2BA8
  5
2C0C
331
279A
  5
27A6
331
28E3
  5
28EF
331
144B
  5
1453
331
2796
  5
27A2
331
2C11
  5
13B0
331
1352
  5
1352
331
274C
  5
2758
331
13FD
  5
1405
331
14AC
  5
20BA
331
270A
  5
2716
331
2C0D
  5
1493
331
2938
  5
2944
331
13F1
  5
13F9
331
28F6
  5
2902
331
26FE
  5
270A
331
27EB
  5
27F7
331
145E
  5
1466
331
13AF
  5
13B1
331
26B4
  5
26C0
331
27A1
  5
27AF
331
1365
  5
1365
331
28EA
  5
28F6
331
2672
  5
267E
331
2820
  5
282D
331
1359
  5
1359
331
294B
  5
2957
331
2753
  5
275F
331
1027
  5
1027
331
14B3
  5
20C0
331
1404
  5
140C
331
2711
  5
271D
331
27FE
  5
280A
331
1471
  5
1479
331
13BA
  5
13BE
331
293F
  5
294B
331
28FD
  5
2909
331
2705
  5
2711
331
27F2
  5
27FE
331
1465
  5
146D
331
13B6
  5
13B8
331
26BB
  5
26C7
331
2833
  5
28C7
331
27A8
  5
27B6
331
136C
  5
136C
331
2679
  5
2686
331
2766
  5
2772
331
226D
  5
2678
331
132A
  5
132A
331
2827
  5
2833
331
2952
  5
295F
331
275A
  5
2766
331
140B
  5
1413
331
2908
  5
2914
331
2718
  5
2724
331
2805
  5
2811
331
1478
  5
1481
331
13C1
  5
13C5
331
2946
  5
2952
331
26CE
  5
26DA
331
27BB
  5
27C7
331
2904
  5
2910
331
146C
  5
1474
331
26C2
  5
26CE
331
27AF
  5
27BC
331
1373
  5
1373
331
2680
  5
268D
331
276D
  5
2779
331
1331
  5
1331
331
20BD
  5
20C9
331
282E
  5
28C2
331
141E
  5
1426
331
2723
  5
272F
331
1412
  5
141A
331
271F
  5
272B
331
290F
  5
291C
331
280C
  5
281D
331
13C8
  5
13CC
331
147F
  5
1487
331
26D5
  5
26E1
331
27C2
  5
27CE
331
1435
  5
143D
331
1386
  5
1386
331
2693
  5
269F
331
2780
  5
278C
331
28C1
  5
28CD
331
27B6
  5
27C3
331
137A
  5
137A
331
2687
  5
2694
331
2774
  5
2780
331
1338
  5
1338
331
20C4
  5
2271
331
1425
  5
142D
331
272A
  5
2736
331
13DB
  5
13DF
331
1492
  5
149D
331
26E8
  5
26F4
331
2916
  5
2923
331
1486
  5
148E
331
13CF
  5
13D3
331
28D4
  5
28E0
331
26DC
  5
26E8
331
27C9
  5
27D5
331
143C
  5
1444
331
138D
  5
138D
331
269A
  5
26A6
331
2787
  5
2793
331
1343
  5
1343
331
28C8
  5
28D5
331
268E
  5
269B
331
277B
  5
2787
331
133F
  5
133F
331
142C
  5
1434
331
2929
  5
2935
331
2731
  5
273D
331
1499
  5
14A5
331
13E2
  5
13E6
331
26EF
  5
26FB
331
27DC
  5
27E8
331
13A0
  5
13A0
331
291D
  5
2929
331
148D
  5
149A
331
13D6
  5
13DA
331
28DB
  5
28E7
331
26E3
  5
26EF
331
27D0
  5
27DC
331
1443
  5
144B
331
1394
  5
1394
331
26A1
  5
26AD
331
2811
  5
2822
331
278E
  5
279A
331
134A
  5
134A
331
28CF
  5
28DC
331
2744
  5
2750
331
2930
  5
293C
331
2738
  5
2745
331
FEC
  5
FEC
331
14A0
  5
14AC
331
13E9
  5
13F1
331
26F6
  5
2702
331
27E3
  5
27EF
331
1456
  5
145E
331
13A7
  5
13A7
331
26AC
  5
26B8
331
2924
  5
2930
331
2BA7
  5
2BF9
331
2799
  5
27A5
331
28E2
  5
28EE
331
27D7
  5
27E3
331
144A
  5
1452
331
2818
  5
2827
331
2795
  5
27A1
331
2C10
  5
13AD
331
1351
  5
1351
331
274B
  5
2757
331
14AB
  5
20B8
331
13FC
  5
1404
331
2C0C
  5
1495
331
2709
  5
2715
331
2937
  5
2943
331
273F
  5
274C
331
13F0
  5
13F7
331
14A7
  5
14B3
331
26FD
  5
2709
331
28F5
  5
2901
331
27EA
  5
27F6
331
145D
  5
1465
331
26B3
  5
26BF
331
27A0
  5
27AD
331
1364
  5
1364
331
28E9
  5
28F5
331
281F
  5
282C
331
1358
  5
1358
331
294A
  5
2956
331
2752
  5
275E
331
14B2
  5
20BF
331
1403
  5
140B
331
2710
  5
271C
331
27FD
  5
2809
331
13B9
  5
13BC
331
1470
  5
1478
331
293E
  5
294A
331
13F7
  5
13FF
331
28FC
  5
2908
331
2704
  5
2710
331
27F1
  5
27FD
331
1464
  5
146C
331
2832
  5
28C6
331
26BA
  5
26C6
331
27A7
  5
27B5
331
136B
  5
136B
331
2678
  5
2685
331
2765
  5
2771
331
226C
  5
2677
331
1329
  5
1329
331
2826
  5
2832
331
135F
  5
135F
331
2759
  5
2765
331
2951
  5
295E
331
140A
  5
1412
331
2717
  5
2723
331
2804
  5
2810
331
1477
  5
1480
331
13C0
  5
13C4
331
2945
  5
2951
331
26CD
  5
26D9
331
27BA
  5
27C6
331
2903
  5
290F
331
146B
  5
1473
331
26C1
  5
26CD
331
1372
  5
1372
331
267F
  5
268C
331
276C
  5
2778
331
1330
  5
1330
331
141D
  5
1425
331
282D
  5
28C1
331
20BC
  5
20C8
331
2722
  5
272E
331
2958
  5
2BAB
331
1034
  5
1034
331
1411
  5
1419
331
290E
  5
291B
331
271E
  5
272A
331
280B
  5
281C
331
147E
  5
1486
331
13C7
  5
13CB
331
26D4
  5
26E0
331
27C1
  5
27CD
331
1434
  5
143C
331
1385
  5
1385
331
2692
  5
269E
331
28C0
  5
28CC
331
27B5
  5
27C2
331
1379
  5
1379
331
2686
  5
2693
331
2773
  5
277F
331
1337
  5
1337
331
20C3
  5
2270
331
1424
  5
142C
331
2729
  5
2735
331
1491
  5
149C
331
13DA
  5
13DE
331
295F
  5
2BF7
331
2BEA
  5
2C12
331
20B7
  5
20C3
331
2915
  5
2922
331
13CE
  5
13D2
331
1485
  5
148D
331
26DB
  5
26E7
331
28D3
  5
28DF
331
27C8
  5
27D4
331
138C
  5
138C
331
143B
  5
1443
331
2699
  5
26A5
331
2786
  5
2792
331
1342
  5
1342
331
28C7
  5
28D4
331
268D
  5
269A
331
277A
  5
2786
331
133E
  5
133E
331
20CA
  5
2676
331
142B
  5
1433
331
2928
  5
2934
331
2730
  5
273C
331
1498
  5
14A4
331
13E1
  5
13E5
331
26EE
  5
26FA
331
27DB
  5
27E7
331
291C
  5
2928
331
148C
  5
1498
331
13D5
  5
13D9
331
28DA
  5
28E6
331
26E2
  5
26EE
331
27CF
  5
27DB
331
1442
  5
144A
331
1393
  5
1393
331
2810
  5
2821
331
26A0
  5
26AC
331
278D
  5
2799
331
1349
  5
1349
331
28CE
  5
28DB
331
2743
  5
274F
331
2737
  5
2744
331
292F
  5
293B
331
149F
  5
14AB
331
13E8
  5
13F0
331
26F5
  5
2701
331
27E2
  5
27EE
331
1455
  5
145D
331
13A6
  5
13A6
331
26AB
  5
26B7
331
2923
  5
292F
331
2BA6
  5
2BF8
331
2798
  5
27A4
331
28E1
  5
28ED
331
27D6
  5
27E2
331
1449
  5
1451
331
26A7
  5
26B3
331
2794
  5
27A0
331
1350
  5
1350
331
274A
  5
2756
331
13FB
  5
1403
331
14AA
  5
20B7
331
2708
  5
2714
331
2936
  5
2942
331
273E
  5
274B
331
FF2
  5
FF2
331
14A6
  5
14B2
331
13EF
  5
13F6
331
28F4
  5
2900
331
26FC
  5
2708
331
27E9
  5
27F5
331
145C
  5
1464
331
13AD
  5
13AF
331
26B2
  5
26BE
331
2BAD
  5
2C11
331
279F
  5
27AC
331
1363
  5
1363
331
28E8
  5
28F4
331
281E
  5
282B
331
1357
  5
1357
331
2949
  5
2955
331
2751
  5
275D
331
1402
  5
140A
331
270F
  5
271B
331
27FC
  5
2808
331
13B8
  5
13BB
331
293D
  5
2949
331
13F6
  5
13FE
331
28FB
  5
2907
331
2703
  5
270F
331
27F0
  5
27FC
331
1463
  5
146B
331
26B9
  5
26C5
331
2831
  5
28C5
331
27A6
  5
27B4
331
136A
  5
136A
331
28EF
  5
28FB
331
2677
  5
2684
331
2764
  5
2770
331
2825
  5
2831
331
135E
  5
135E
331
2950
  5
295D
331
2758
  5
2764
331
1409
  5
1411
331
2716
  5
2722
331
2803
  5
280F
331
1476
  5
147F
331
13BF
  5
13C3
331
26CC
  5
26D8
331
2944
  5
2950
331
2902
  5
290E
331
27F7
  5
2803
331
146A
  5
1472
331
26C0
  5
26CC
331
27AD
  5
27BB
331
1371
  5
1371
331
267E
  5
268B
331
276B
  5
2777
331
2272
  5
267D
331
132F
  5
132F
331
20BB
  5
20C7
331
282C
  5
28C0
331
141C
  5
1424
331
2721
  5
272D
331
2957
  5
2BAA
331
275F
  5
276B
331
1410
  5
1418
331
271D
  5
2729
331
290D
  5
291A
331
280A
  5
281A
331
147D
  5
1485
331
13C6
  5
13CA
331
26D3
  5
26DF
331
27C0
  5
27CC
331
1433
  5
143B
331
1384
  5
1384
331
2691
  5
269D
331
28BF
  5
28CB
331
26C7
  5
26D3
331
27B4
  5
27C1
331
1378
  5
1378
331
2685
  5
2692
331
2772
  5
277E
331
1336
  5
1336
331
1423
  5
142B
331
20C2
  5
226F
331
2728
  5
2734
331
13D9
  5
13DD
331
295E
  5
2BF4
331
20B6
  5
20C2
331
1417
  5
141F
331
2914
  5
2921
331
13CD
  5
13D1
331
28D2
  5
28DE
331
26DA
  5
26E6
331
27C7
  5
27D3
331
143A
  5
1442
331
138B
  5
138B
331
2698
  5
26A4
331
2785
  5
2791
331
1341
  5
1341
331
28C6
  5
28D3
331
137F
  5
137F
331
268C
  5
2699
331
2779
  5
2785
331
133D
  5
133D
331
20C9
  5
2675
331
142A
  5
1432
331
272F
  5
273B
331
1497
  5
14A3
331
13E0
  5
13E4
331
26ED
  5
26F9
331
27DA
  5
27E6
331
291B
  5
2927
331
148B
  5
1497
331
13D4
  5
13D8
331
28D9
  5
28E5
331
26E1
  5
26ED
331
27CE
  5
27DA
331
1392
  5
1392
331
1441
  5
1449
331
269F
  5
26AB
331
278C
  5
2798
331
1348
  5
1348
331
28CD
  5
28DA
331
2742
  5
274E
331
292E
  5
293A
331
2736
  5
2743
331
149E
  5
14AA
331
13E7
  5
13EF
331
26F4
  5
2700
331
2BF7
  5
13EA
331
27E1
  5
27ED
331
1454
  5
145C
331
13A5
  5
13A5
331
26AA
  5
26B6
331
2922
  5
292E
331
28E0
  5
28EC
331
27D5
  5
27E1
331
1448
  5
1450
331
26A6
  5
26B2
331
2793
  5
279F
331
134F
  5
134F
331
2749
  5
2755
331
14A9
  5
20B6
331
13FA
  5
1402
331
2935
  5
2941
331
273D
  5
274A
331
13EE
  5
13F5
331
14A5
  5
14B1
331
26FB
  5
2707
331
28F3
  5
28FF
331
27E8
  5
27F4
331
145B
  5
1463
331
13AC
  5
13AC
331
2BAC
  5
2C10
331
26B1
  5
26BD
331
279E
  5
27AA
331
1362
  5
1362
331
28E7
  5
28F3
331
144F
  5
1457
331
281D
  5
282A
331
1356
  5
1356
331
2948
  5
2954
331
2750
  5
275C
331
1401
  5
1409
331
14B0
  5
20BE
331
270E
  5
271A
331
27FB
  5
2807
331
293C
  5
2948
331
13F5
  5
13FD
331
28FA
  5
2906
331
2702
  5
270E
331
27EF
  5
27FB
331
1462
  5
146A
331
13B3
  5
13B6
331
2830
  5
28C4
331
26B8
  5
26C4
331
27A5
  5
27B3
331
1369
  5
1369
331
28EE
  5
28FA
331
2676
  5
2683
331
2763
  5
276F
331
2824
  5
2830
331
135D
  5
135D
331
2757
  5
2763
331
294F
  5
295C
331
1408
  5
1410
331
2715
  5
2721
331
2802
  5
280E
331
1475
  5
147E
331
13BE
  5
13C2
331
2943
  5
294F
331
26CB
  5
26D7
331
27B8
  5
27C5
331
2901
  5
290D
331
27F6
  5
2802
331
1469
  5
1471
331
26BF
  5
26CB
331
27AC
  5
27BA
331
1370
  5
1370
331
267D
  5
268A
331
276A
  5
2776
331
2271
  5
267C
331
132E
  5
132E
331
20BA
  5
20C6
331
282B
  5
28BF
331
141B
  5
1423
331
2720
  5
272C
331
2956
  5
2BA9
331
275E
  5
276A
331
140F
  5
1417
331
290C
  5
2919
331
271C
  5
2728
331
2809
  5
2818
331
147C
  5
1484
331
13C5
  5
13C9
331
26D2
  5
26DE
331
27BF
  5
27CB
331
1432
  5
143A
331
1383
  5
1383
331
2690
  5
269C
331
26C6
  5
26D2
331
28BE
  5
28CA
331
27B3
  5
27C0
331
1377
  5
1377
331
2684
  5
2691
331
2771
  5
277D
331
1335
  5
1335
331
20C1
  5
226E
331
1422
  5
142A
331
2727
  5
2733
331
13D8
  5
13DC
331
295D
  5
2BEF
331
20B5
  5
20C1
331
1416
  5
141E
331
2913
  5
2920
331
13CC
  5
13D0
331
1483
  5
148C
331
26D9
  5
26E5
331
28D1
  5
28DD
331
27C6
  5
27D2
331
1439
  5
1441
331
138A
  5
138A
331
2697
  5
26A3
331
2784
  5
2790
331
1340
  5
1340
331
28C5
  5
28D2
331
137E
  5
137E
331
268B
  5
2698
331
2778
  5
2784
331
133C
  5
133C
331
20C8
  5
2674
331
1429
  5
1431
331
272E
  5
273A
331
13DF
  5
13E3
331
1496
  5
14A2
331
26EC
  5
26F8
331
2BEF
  5
2C13
331
27D9
  5
27E5
331
291A
  5
2926
331
148A
  5
1492
331
13D3
  5
13D7
331
28D8
  5
28E4
331
26E0
  5
26EC
331
27CD
  5
27D9
331
1440
  5
1448
331
1391
  5
1391
331
269E
  5
26AA
331
278B
  5
2797
331
1347
  5
1347
331
28CC
  5
28D9
331
2741
  5
274D
331
277F
  5
278B
331
2735
  5
2742
331
292D
  5
2939
331
FE9
  5
FE9
331
149D
  5
14A9
331
26F3
  5
26FF
331
27E0
  5
27EC
331
1453
  5
145B
331
13A4
  5
13A4
331
2921
  5
292D
331
26A9
  5
26B5
331
28DF
  5
28EB
331
26E7
  5
26F3
331
27D4
  5
27E0
331
1447
  5
144F
331
26A5
  5
26B1
331
2792
  5
279E
331
134E
  5
134E
331
2748
  5
2754
331
14A8
  5
20B5
331
13F9
  5
1401
331
2934
  5
2940
331
273C
  5
2749
331
14A4
  5
14B0
331
13ED
  5
13F3
331
28F2
  5
28FE
331
26FA
  5
2706
331
27E7
  5
27F3
331
145A
  5
1462
331
13AB
  5
13AB
331
26B0
  5
26BC
331
2BAB
  5
2C0F
331
279D
  5
27A9
331
1361
  5
1361
331
28E6
  5
28F2
331
139F
  5
139F
331
144E
  5
1456
331
281C
  5
2829
331
1355
  5
1355
331
274F
  5
275B
331
14AF
  5
20BD
331
1400
  5
1408
331
270D
  5
2719
331
27FA
  5
2806
331
293B
  5
2947
331
13F4
  5
13FC
331
28F9
  5
2905
331
2701
  5
270D
331
27EE
  5
27FA
331
13B2
  5
13B4
331
1461
  5
1469
331
26B7
  5
26C3
331
27A4
  5
27B2
331
1368
  5
1368
331
28ED
  5
28F9
331
2675
  5
2682
331
2762
  5
276E
331
135C
  5
135C
331
294E
  5
295B
331
2756
  5
2762
331
1407
  5
140F
331
2714
  5
2720
331
2801
  5
280D
331
13BD
  5
13C1
331
1474
  5
147D
331
26CA
  5
26D6
331
2942
  5
294E
331
2900
  5
290C
331
27F5
  5
2801
331
1468
  5
1470
331
26BE
  5
26CA
331
136F
  5
136F
331
267C
  5
2689
331
2769
  5
2775
331
2270
  5
267B
331
132D
  5
132D
331
20B9
  5
20C5
331
282A
  5
28BE
331
141A
  5
1422
331
275D
  5
2769
331
2955
  5
2BA8
331
140E
  5
1416
331
271B
  5
2727
331
290B
  5
2918
331
2808
  5
2814
331
13C4
  5
13C8
331
26D1
  5
26DD
331
27BE
  5
27CA
331
1431
  5
1439
331
1382
  5
1382
331
2907
  5
2913
331
146F
  5
1477
331
28BD
  5
28C9
331
26C5
  5
26D1
331
27B2
  5
27BF
331
1376
  5
1376
331
2683
  5
2690
331
2770
  5
277C
331
1334
  5
1334
331
1421
  5
1429
331
20C0
  5
226D
331
2726
  5
2732
331
295C
  5
2BEA
331
1415
  5
141D
331
2912
  5
291F
331
280F
  5
2820
331
1482
  5
148B
331
13CB
  5
13CF
331
26D8
  5
26E4
331
27C5
  5
27D1
331
1438
  5
1440
331
1389
  5
1389
331
2696
  5
26A2
331
2783
  5
278F
331
28C4
  5
28D1
331
137D
  5
137D
331
268A
  5
2697
331
2777
  5
2783
331
133B
  5
133B
331
20C7
  5
2673
331
1428
  5
1430
331
272D
  5
2739
331
1495
  5
14A1
331
13DE
  5
13E2
331
26EB
  5
26F7
331
27D8
  5
27E4
331
2919
  5
2925
331
1489
  5
1491
331
13D2
  5
13D6
331
28D7
  5
28E3
331
26DF
  5
26EB
331
27CC
  5
27D8
331
1390
  5
1390
331
143F
  5
1447
331
269D
  5
26A9
331
278A
  5
2796
331
1346
  5
1346
331
28CB
  5
28D8
331
277E
  5
278A
331
142F
  5
1437
331
292C
  5
2938
331
2734
  5
2741
331
FE8
  5
FE8
331
149C
  5
14A8
331
13E5
  5
13E9
331
26F2
  5
26FE
331
27DF
  5
27EB
331
13A3
  5
13A3
331
1452
  5
145A
331
26A8
  5
26B4
331
2920
  5
292C
331
28DE
  5
28EA
331
26E6
  5
26F2
331
27D3
  5
27DF
331
1446
  5
144E
331
1397
  5
1397
331
26A4
  5
26B0
331
2814
  5
2826
331
2791
  5
279D
331
134D
  5
134D
331
2747
  5
2753
331
13F8
  5
1400
331
273B
  5
2748
331
2933
  5
293F
331
14A3
  5
14AF
331
26F9
  5
2705
331
28F1
  5
28FD
331
27E6
  5
27F2
331
1459
  5
1461
331
13AA
  5
13AA
331
26AF
  5
26BB
331
2927
  5
2933
331
2BAA
  5
2C0E
331
279C
  5
27A8
331
1360
  5
1360
331
28E5
  5
28F1
331
144D
  5
1455
331
139E
  5
139E
331
2C13
  5
13F4
331
1354
  5
1354
331
274E
  5
275A
331
13FF
  5
1407
331
14AE
  5
20BC
331
270C
  5
2718
331
2C0F
  5
1499
331
27F9
  5
2805
331
293A
  5
2946
331
13F3
  5
13FB
331
28F8
  5
2904
331
2700
  5
270C
331
27ED
  5
27F9
331
1460
  5
1468
331
13B1
  5
13B3
331
26B6
  5
26C2
331
27A3
  5
27B1
331
1367
  5
1367
331
28EC
  5
28F8
331
2674
  5
2680
331
2761
  5
276D
331
2822
  5
282F
331
135B
  5
135B
331
294D
  5
295A
331
2755
  5
2761
331
1029
  5
1029
331
1406
  5
140E
331
2713
  5
271F
331
2800
  5
280C
331
1473
  5
147C
331
13BC
  5
13C0
331
2941
  5
294D
331
26C9
  5
26D5
331
28FF
  5
290B
331
2707
  5
2713
331
27F4
  5
2800
331
1467
  5
146F
331
26BD
  5
26C9
331
27AA
  5
27B8
331
136E
  5
136E
331
267B
  5
2688
331
2768
  5
2774
331
226F
  5
267A
331
132C
  5
132C
331
20B8
  5
20C4
331
2829
  5
28BD
331
1419
  5
1421
331
2954
  5
2BA7
331
275C
  5
2768
331
140D
  5
1415
331
290A
  5
2916
331
271A
  5
2726
331
2807
  5
2813
331
147A
  5
1483
331
13C3
  5
13C7
331
26D0
  5
26DC
331
27BD
  5
27C9
331
1381
  5
1381
331
1430
  5
1438
331
2906
  5
2912
331
146E
  5
1476
331
28BC
  5
28C8
331
26C4
  5
26D0
331
27B1
  5
27BE
331
1375
  5
1375
331
2682
  5
268E
331
276F
  5
277B
331
1333
  5
1333
331
20BF
  5
226C
331
1420
  5
1428
331
2725
  5
2731
331
295B
  5
2BAD
331
1414
  5
141C
331
2911
  5
291E
331
280E
  5
281F
331
13CA
  5
13CE
331
1481
  5
148A
331
26D7
  5
26E3
331
27C4
  5
27D0
331
1437
  5
143F
331
1388
  5
1388
331
2695
  5
26A1
331
2782
  5
278E
331
28C3
  5
28CF
331
137C
  5
137C
331
2689
  5
2696
331
2776
  5
2782
331
2BF9
  5
13B9
331
133A
  5
133A
331
20C6
  5
2672
331
1427
  5
142F
331
272C
  5
2738
331
13DD
  5
13E1
331
1494
  5
149F
331
26EA
  5
26F6
331
2918
  5
2924
331
1488
  5
1490
331
13D1
  5
13D5
331
28D6
  5
28E2
331
26DE
  5
26EA
331
27CB
  5
27D7
331
143E
  5
1446
331
138F
  5
138F
331
269C
  5
26A8
331
2789
  5
2795
331
1345
  5
1345
331
28CA
  5
28D7
331
277D
  5
2789
331
142E
  5
1436
331
292B
  5
2937
331
2733
  5
273F
331
149B
  5
14A7
331
13E4
  5
13E8
331
2BF4
  5
13EB
331
26F1
  5
26FD
331
27DE
  5
27EA
331
1451
  5
1459
331
13A2
  5
13A2
331
291F
  5
292B
331
28DD
  5
28E9
331
26E5
  5
26F1
331
27D2
  5
27DE
331
1445
  5
144D
331
1396
  5
1396
331
2813
  5
2825
331
26A3
  5
26AF
331
2790
  5
279C
331
134C
  5
134C
331
2746
  5
2752
331
2932
  5
293E
331
273A
  5
2747
331
14A2
  5
14AE
331
28F0
  5
28FC
331
26F8
  5
2704
331
27E5
  5
27F1
331
1458
  5
1460
331
13A9
  5
13A9
331
26AE
  5
26BA
331
2926
  5
2932
331
2BA9
  5
2C0D
331
279B
  5
27A7
331
28E4
  5
28F0
331
144C
  5
1454
331
281A
  5
2828
331
2797
  5
27A3
331
2C12
  5
13F8
331
1353
  5
1353
331
274D
  5
2759
331
14AD
  5
20BB
331
13FE
  5
1406
331
2C0E
  5
14A0
331
270B
  5
2717
331
27F8
  5
2804
331
2939
  5
2945
331
13F2
  5
13FA
331
26FF
  5
270B
331
28F7
  5
2903
331
27EC
  5
27F8
331
13B0
  5
13B2
331
145F
  5
1467
331
26B5
  5
26C1
331
27A2
  5
27B0
331
1366
  5
1366
331
28EB
  5
28F7
331
2673
  5
267F
331
2760
  5
276C
331
2821
  5
282E
331
135A
  5
135A
331
294C
  5
2958
331
2754
  5
2760
331
1405
  5
140D
331
2712
  5
271E
331
27FF
  5
280B
331
13BB
  5
13BF
331
1472
  5
147A
331
26C8
  5
26D4
331
2940
  5
294C
331
28FE
  5
290A
331
2706
  5
2712
331
27F3
  5
27FF
331
1466
  5
146E
331
13B7
  5
13BA
331
26BC
  5
26C8
331
27A9
  5
27B7
331
136D
  5
136D
331
267A
  5
2687
331
2767
  5
2773
331
226E
  5
2679
331
132B
  5
132B
331
2828
  5
28BC
331
1418
  5
1420
331
275B
  5
2767
331
2953
  5
2BA6
331
140C
  5
1414
331
2719
  5
2725
331
2909
  5
2915
331
2806
  5
2812
331
1479
  5
1482
331
13C2
  5
13C6
331
2947
  5
2953
331
26CF
  5
26DB
331
27BC
  5
27C8
331
1380
  5
1380
331
2905
  5
2911
331
146D
  5
1475
331
26C3
  5
26CF
331
27B0
  5
27BD
331
1374
  5
1374
331
276E
  5
277A
331
1332
  5
1332
331
141F
  5
1427
331
282F
  5
28C3
331
20BE
  5
20CA
331
2724
  5
2730
331
295A
  5
2BAC
331
1413
  5
141B
331
2910
  5
291D
331
280D
  5
281E
331
1480
  5
1489
331
13C9
  5
13CD
331
26D6
  5
26E2
331
27C3
  5
27CF
331
1436
  5
143E
331
1387
  5
1387
331
2694
  5
26A0
331
2781
  5
278D
331
28C2
  5
28CE
331
27B7
  5
27C4
331
137B
  5
137B
331
2688
  5
2695
331
2BF8
  5
13BD
331
2775
  5
2781
331
1339
  5
1339
331
20C5
  5
2272
331
1426
  5
142E
331
272B
  5
2737
331
1493
  5
149E
331
13DC
  5
13E0
331
26E9
  5
26F5
331
1487
  5
148F
331
13D0
  5
13D4
331
26DD
  5
26E9
331
28D5
  5
28E1
331
27CA
  5
27D6
331
138E
  5
138E
331
143D
  5
1445
331
269B
  5
26A7
331
2788
  5
2794
331
1344
  5
1344
331
28C9
  5
28D6
331
277C
  5
2788
331
142D
  5
1435
331
292A
  5
2936
331
2732
  5
273E
331
149A
  5
14A6
331
13E3
  5
13E7
331
26F0
  5
26FC
331
27DD
  5
27E9
331
13A1
  5
13A1
331
1450
  5
1458
331
291E
  5
292A
331
148E
  5
149B
331
13D7
  5
13DB
331
28DC
  5
28E8
331
26E4
  5
26F0
331
27D1
  5
27DD
331
1444
  5
144C
331
1395
  5
1395
331
2812
  5
2824
331
26A2
  5
26AE
331
278F
  5
279B
331
134B
  5
134B
331
2745
  5
2751
331
1011
  5
1011
  0
XRECORD
  5
2C89
102
{ACAD_REACTORS
330
2C88
102
}
330
2C88
100
AcDbXrecord
340
2C60
  0
ACAD_PROXY_OBJECT
  5
2B50
102
{ACAD_XDICTIONARY
360
2B51
102
}
102
{ACAD_REACTORS
330
2B47
102
}
330
2B47
100
AcDbProxyObject
 90
      499
 91
      511
 93
     1340
310
42109E509B1BD8DAC02004014080404555555555555953FAA155555555555654FEA9AA400014080404555555555555953FAA155555555555654FEA9AA400000000000000E03F4080404555555555555953FAA155555555555654FEA9AA4014080404555555555555953FAA155555555555654FEA9AA4010201011555555555
310
55654FEA8555555555555953FAA6A9005020101155555555555654FEA8555555555555953FAA6A9002
 94
        0
1001
ACAD
1000
AcadProxyRoundTripData
1071
      504
1071
   655383
1070
     0
  0
ACAD_PROXY_OBJECT
  5
2B48
102
{ACAD_XDICTIONARY
360
2B49
102
}
102
{ACAD_REACTORS
330
2B47
102
}
330
2B47
100
AcDbProxyObject
 90
      499
 91
      511
 93
     1340
310
42109E53185E595C802004014080404555555555555953FAA155555555555654FEA9AA400014080404555555555555953FAA155555555555654FEA9AA400000000000000E03F4080404555555555555953FAA155555555555654FEA9AA4014080404555555555555953FAA155555555555654FEA9AA4010201011555555555
310
55654FEA8555555555555953FAA6A9005020101155555555555654FEA8555555555555953FAA6A9002
 94
        0
1001
ACAD
1000
AcadProxyRoundTripData
1071
      504
1071
   655383
1070
     0
  0
ACAD_PROXY_OBJECT
  5
2B58
102
{ACAD_XDICTIONARY
360
2B59
102
}
102
{ACAD_REACTORS
330
2B47
102
}
330
2B47
100
AcDbProxyObject
 90
      499
 91
      511
 93
     1332
310
41D1DB1BD8985B002004014080404555555555555953FAA155555555555654FEA9AA400014080404555555555555953FAA155555555555654FEA9AA400000000000000E03F4080404555555555555953FAA155555555555654FEA9AA4014080404555555555555953FAA155555555555654FEA9AA401020101155555555555
310
654FEA8555555555555953FAA6A9005020101155555555555654FEA8555555555555953FAA6A9000
 94
        0
1001
ACAD
1000
AcadProxyRoundTripData
1071
      504
1071
   655383
1070
     0
  0
ACAD_PROXY_OBJECT
  5
2B97
102
{ACAD_REACTORS
330
2B96
102
}
330
2B96
100
AcDbProxyObject
 90
      499
 91
      511
 93
      618
310
40901902A4063FBFFFFFE056BD1B81E855B9FC0AD7A3703D0AD73F4254DD185B99185C990000AD7A3703D0AC73F90141901A02B5E8DC0F42B1CFC02B5E8DC0F42B1CFE5764000000000000300FC6
340
6A
340
0
340
16
340
0
 94
        0
1001
ACAD_MLEADERVER
1070
     2
1001
ACAD
1000
AcadProxyRoundTripData
1071
      508
1071
   655383
1070
     0
  0
MLINESTYLE
  5
78
102
{ACAD_REACTORS
330
76
102
}
330
76
100
AcDbMlineStyle
  2
STANDARD
 70
     0
  3

 62
     0
 51
90.0
 52
90.0
 71
     2
 49
0.5
 62
   256
  6
BYLAYER
 49
-0.5
 62
   256
  6
BYLAYER
  0
ACDBPLACEHOLDER
  5
5
102
{ACAD_REACTORS
330
6
102
}
330
6
100
AcDbPlaceHolder
280
     0
  0
ACAD_PROXY_OBJECT
  5
2B75
102
{ACAD_REACTORS
330
2B74
102
}
330
2B74
100
AcDbProxyObject
 90
      499
 91
      511
 93
       49
310
904313A3100598
 94
        0
1001
ACAD
1000
AcadProxyRoundTripData
1071
      507
1071
   655383
1070
     0
  0
ACAD_PROXY_OBJECT
  5
2B76
102
{ACAD_REACTORS
330
2B74
102
}
330
2B74
100
AcDbProxyObject
 90
      499
 91
      511
 93
      113
310
904313A3200400000000000000406B
 94
        0
1001
ACAD
1000
AcadProxyRoundTripData
1071
      507
1071
   655383
1070
     0
  0
ACAD_PROXY_OBJECT
  5
2B77
102
{ACAD_REACTORS
330
2B74
102
}
330
2B74
100
AcDbProxyObject
 90
      499
 91
      511
 93
      113
310
904313A3400400000000000010406B
 94
        0
1001
ACAD
1000
AcadProxyRoundTripData
1071
      507
1071
   655383
1070
     0
  0
ACAD_PROXY_OBJECT
  5
2B78
102
{ACAD_REACTORS
330
2B74
102
}
330
2B74
100
AcDbProxyObject
 90
      499
 91
      511
 93
      113
310
904313A3500400000000000014406B
 94
        0
1001
ACAD
1000
AcadProxyRoundTripData
1071
      507
1071
   655383
1070
     0
  0
ACAD_PROXY_OBJECT
  5
2B79
102
{ACAD_REACTORS
330
2B74
102
}
330
2B74
100
AcDbProxyObject
 90
      499
 91
      511
 93
      113
310
904313A3800400000000000020406B
 94
        0
1001
ACAD
1000
AcadProxyRoundTripData
1071
      507
1071
   655383
1070
     0
  0
ACAD_PROXY_OBJECT
  5
2B7A
102
{ACAD_REACTORS
330
2B74
102
}
330
2B74
100
AcDbProxyObject
 90
      499
 91
      511
 93
      121
310
905313A3130004000000000000244051
 94
        0
1001
ACAD
1000
AcadProxyRoundTripData
1071
      507
1071
   655383
1070
     0
  0
ACAD_PROXY_OBJECT
  5
2B7B
102
{ACAD_REACTORS
330
2B74
102
}
330
2B74
100
AcDbProxyObject
 90
      499
 91
      511
 93
      121
310
905313A3136004000000000000304051
 94
        0
1001
ACAD
1000
AcadProxyRoundTripData
1071
      507
1071
   655383
1070
     0
  0
ACAD_PROXY_OBJECT
  5
2B7C
102
{ACAD_REACTORS
330
2B74
102
}
330
2B74
100
AcDbProxyObject
 90
      499
 91
      511
 93
      121
310
905313A3230004000000000000344051
 94
        0
1001
ACAD
1000
AcadProxyRoundTripData
1071
      507
1071
   655383
1070
     0
  0
ACAD_PROXY_OBJECT
  5
2B7D
102
{ACAD_REACTORS
330
2B74
102
}
330
2B74
100
AcDbProxyObject
 90
      499
 91
      511
 93
      121
310
905313A33300040000000000003E4051
 94
        0
1001
ACAD
1000
AcadProxyRoundTripData
1071
      507
1071
   655383
1070
     0
  0
ACAD_PROXY_OBJECT
  5
2B7E
102
{ACAD_REACTORS
330
2B74
102
}
330
2B74
100
AcDbProxyObject
 90
      499
 91
      511
 93
      121
310
905313A3430004000000000000444051
 94
        0
1001
ACAD
1000
AcadProxyRoundTripData
1071
      507
1071
   655383
1070
     0
  0
ACAD_PROXY_OBJECT
  5
2B7F
102
{ACAD_REACTORS
330
2B74
102
}
330
2B74
100
AcDbProxyObject
 90
      499
 91
      511
 93
      121
310
905313A3530004000000000000494051
 94
        0
1001
ACAD
1000
AcadProxyRoundTripData
1071
      507
1071
   655383
1070
     0
  0
ACAD_PROXY_OBJECT
  5
2B80
102
{ACAD_REACTORS
330
2B74
102
}
330
2B74
100
AcDbProxyObject
 90
      499
 91
      511
 93
      129
310
906313A313030004000000000000594038
 94
        0
1001
ACAD
1000
AcadProxyRoundTripData
1071
      507
1071
   655383
1070
     0
  0
ACAD_PROXY_OBJECT
  5
2B81
102
{ACAD_REACTORS
330
2B74
102
}
330
2B74
100
AcDbProxyObject
 90
      499
 91
      511
 93
      113
310
904323A31000000000000000010159
 94
        0
1001
ACAD
1000
AcadProxyRoundTripData
1071
      507
1071
   655383
1070
     0
  0
ACAD_PROXY_OBJECT
  5
2B82
102
{ACAD_REACTORS
330
2B74
102
}
330
2B74
100
AcDbProxyObject
 90
      499
 91
      511
 93
      113
310
904343A31000000000000000410159
 94
        0
1001
ACAD
1000
AcadProxyRoundTripData
1071
      507
1071
   655383
1070
     0
  0
ACAD_PROXY_OBJECT
  5
2B83
102
{ACAD_REACTORS
330
2B74
102
}
330
2B74
100
AcDbProxyObject
 90
      499
 91
      511
 93
      113
310
904383A31000000000000000810159
 94
        0
1001
ACAD
1000
AcadProxyRoundTripData
1071
      507
1071
   655383
1070
     0
  0
ACAD_PROXY_OBJECT
  5
2B84
102
{ACAD_REACTORS
330
2B74
102
}
330
2B74
100
AcDbProxyObject
 90
      499
 91
      511
 93
      121
310
90531303A31000000000000000910140
 94
        0
1001
ACAD
1000
AcadProxyRoundTripData
1071
      507
1071
   655383
1070
     0
  0
ACAD_PROXY_OBJECT
  5
2B85
102
{ACAD_REACTORS
330
2B74
102
}
330
2B74
100
AcDbProxyObject
 90
      499
 91
      511
 93
      129
310
9063130303A31000000000000001650138
 94
        0
1001
ACAD
1000
AcadProxyRoundTripData
1071
      507
1071
   655383
1070
     0
  0
ACAD_PROXY_OBJECT
  5
2B86
102
{ACAD_REACTORS
330
2B74
102
}
330
2B74
100
AcDbProxyObject
 90
      499
 91
      511
 93
      265
310
90F312F31323822203D2031272D302200000000000000200FC00000000000028402B
 94
        0
1001
ACAD
1000
AcadProxyRoundTripData
1071
      507
1071
   655383
1070
     0
  0
ACAD_PROXY_OBJECT
  5
2B87
102
{ACAD_REACTORS
330
2B74
102
}
330
2B74
100
AcDbProxyObject
 90
      499
 91
      511
 93
      257
310
90E312F363422203D2031272D302200000000000000240FC000000000000284040
 94
        0
1001
ACAD
1000
AcadProxyRoundTripData
1071
      507
1071
   655383
1070
     0
  0
ACAD_PROXY_OBJECT
  5
2B88
102
{ACAD_REACTORS
330
2B74
102
}
330
2B74
100
AcDbProxyObject
 90
      499
 91
      511
 93
      257
310
90E312F333222203D2031272D302200000000000000280FC000000000000284040
 94
        0
1001
ACAD
1000
AcadProxyRoundTripData
1071
      507
1071
   655383
1070
     0
  0
ACAD_PROXY_OBJECT
  5
2B89
102
{ACAD_REACTORS
330
2B74
102
}
330
2B74
100
AcDbProxyObject
 90
      499
 91
      511
 93
      257
310
90E312F313622203D2031272D3022000000000000002C0FC000000000000284040
 94
        0
1001
ACAD
1000
AcadProxyRoundTripData
1071
      507
1071
   655383
1070
     0
  0
ACAD_PROXY_OBJECT
  5
2B8A
102
{ACAD_REACTORS
330
2B74
102
}
330
2B74
100
AcDbProxyObject
 90
      499
 91
      511
 93
      257
310
90E332F333222203D2031272D3022000000000000002E0FC000000000000284040
 94
        0
1001
ACAD
1000
AcadProxyRoundTripData
1071
      507
1071
   655383
1070
     0
  0
ACAD_PROXY_OBJECT
  5
2B8B
102
{ACAD_REACTORS
330
2B74
102
}
330
2B74
100
AcDbProxyObject
 90
      499
 91
      511
 93
      249
310
90D312F3822203D2031272D302200000000000000300FC000000000000284040
 94
        0
1001
ACAD
1000
AcadProxyRoundTripData
1071
      507
1071
   655383
1070
     0
  0
ACAD_PROXY_OBJECT
  5
2B8C
102
{ACAD_REACTORS
330
2B74
102
}
330
2B74
100
AcDbProxyObject
 90
      499
 91
      511
 93
      257
310
90E332F313622203D2031272D302200000000000000320FC000000000000284040
 94
        0
1001
ACAD
1000
AcadProxyRoundTripData
1071
      507
1071
   655383
1070
     0
  0
ACAD_PROXY_OBJECT
  5
2B8D
102
{ACAD_REACTORS
330
2B74
102
}
330
2B74
100
AcDbProxyObject
 90
      499
 91
      511
 93
      249
310
90D312F3422203D2031272D302200000000000000340FC000000000000284040
 94
        0
1001
ACAD
1000
AcadProxyRoundTripData
1071
      507
1071
   655383
1070
     0
  0
ACAD_PROXY_OBJECT
  5
2B8E
102
{ACAD_REACTORS
330
2B74
102
}
330
2B74
100
AcDbProxyObject
 90
      499
 91
      511
 93
      249
310
90D332F3822203D2031272D302200000000000000360FC000000000000284040
 94
        0
1001
ACAD
1000
AcadProxyRoundTripData
1071
      507
1071
   655383
1070
     0
  0
ACAD_PROXY_OBJECT
  5
2B8F
102
{ACAD_REACTORS
330
2B74
102
}
330
2B74
100
AcDbProxyObject
 90
      499
 91
      511
 93
      249
310
90D312F3222203D2031272D302200000000000000380FC000000000000284040
 94
        0
1001
ACAD
1000
AcadProxyRoundTripData
1071
      507
1071
   655383
1070
     0
  0
ACAD_PROXY_OBJECT
  5
2B90
102
{ACAD_REACTORS
330
2B74
102
}
330
2B74
100
AcDbProxyObject
 90
      499
 91
      511
 93
      249
310
90D332F3422203D2031272D3022000000000000003A0FC000000000000284040
 94
        0
1001
ACAD
1000
AcadProxyRoundTripData
1071
      507
1071
   655383
1070
     0
  0
ACAD_PROXY_OBJECT
  5
2B91
102
{ACAD_REACTORS
330
2B74
102
}
330
2B74
100
AcDbProxyObject
 90
      499
 91
      511
 93
      169
310
90B3122203D2031272D3022004000000000000284020
 94
        0
1001
ACAD
1000
AcadProxyRoundTripData
1071
      507
1071
   655383
1070
     0
  0
ACAD_PROXY_OBJECT
  5
2B92
102
{ACAD_REACTORS
330
2B74
102
}
330
2B74
100
AcDbProxyObject
 90
      499
 91
      511
 93
      265
310
90F312D312F3222203D2031272D3022000000000000003E0FC00000000000028402B
 94
        0
1001
ACAD
1000
AcadProxyRoundTripData
1071
      507
1071
   655383
1070
     0
  0
ACAD_PROXY_OBJECT
  5
2B93
102
{ACAD_REACTORS
330
2B74
102
}
330
2B74
100
AcDbProxyObject
 90
      499
 91
      511
 93
      233
310
90B3322203D2031272D30220000000000000002100000000000000284000
 94
        0
1001
ACAD
1000
AcadProxyRoundTripData
1071
      507
1071
   655383
1070
     0
  0
ACAD_PROXY_OBJECT
  5
2B94
102
{ACAD_REACTORS
330
2B74
102
}
330
2B74
100
AcDbProxyObject
 90
      499
 91
      511
 93
      233
310
90B3622203D2031272D30220000000000000006100000000000000284000
 94
        0
1001
ACAD
1000
AcadProxyRoundTripData
1071
      507
1071
   655383
1070
     0
  0
ACAD_PROXY_OBJECT
  5
2B95
102
{ACAD_REACTORS
330
2B74
102
}
330
2B74
100
AcDbProxyObject
 90
      499
 91
      511
 93
      257
310
90E31272D3022203D2031272D3022000000000000000A100000000000000284040
 94
        0
1001
ACAD
1000
AcadProxyRoundTripData
1071
      507
1071
   655383
1070
     0
  0
ACAD_PROXY_OBJECT
  5
2B73
102
{ACAD_XDICTIONARY
360
2BBE
102
}
102
{ACAD_REACTORS
330
2B72
102
}
330
2B72
100
AcDbProxyObject
 90
      499
 91
      511
 93
     1849
310
4254DD185B99185C990028B81E85EB51B8AE3F2E07A17AD46E2B8FC02B5E8DC0F42B1CFD028000000C1008070000C3001FDFF8000000C1003FBFF000000182007F7FE00000030400FEFFC00000060801FDFF8000000C1003FBFF00000018200000000000000681FA0B0000001820100E000186003FBFF000000182007F7FE0
310
0000030400FEFFC00000060801FDFF8000000C1003FBFF000000182007F7FE000000304000AD7A3703D0AC73F4160000003040201C00030C007F7FE00000030400FEFFC00000060801FDFF8000000C1003FBFF000000182007F7FE00000030400FEFFC000000608014
340
16
340
16
340
16
 94
        0
1001
ACAD
1000
AcadProxyRoundTripData
1071
      506
1071
   655383
1070
     0
  0
ACAD_PROXY_OBJECT
  5
2B66
102
{ACAD_REACTORS
330
2B60
102
}
330
2B60
100
AcDbProxyObject
 90
      499
 91
      511
 93
      444
310
430C9915DA5C99599C985B59401049028333333333333E3BF0000000000000FB0107901411070040501600405405064090741402480A0340
 94
        0
1001
ACAD
1000
AcDbSavedByObjectVersion
1070
     0
1000
AcadProxyRoundTripData
1071
      505
1071
   655383
1070
     0
  0
ACAD_PROXY_OBJECT
  5
2B68
102
{ACAD_REACTORS
330
2B60
102
}
330
2B60
100
AcDbProxyObject
 90
      499
 91
      511
 93
      508
310
428CD108121A5919195B8010640502408333333333333E3BF0000000000000FB01079024090700405020000000000001110200405405064090740C02480A0340
 94
        0
1001
ACAD
1000
AcDbSavedByObjectVersion
1070
     0
1000
AcadProxyRoundTripData
1071
      505
1071
   655383
1070
     0
  0
ACAD_PROXY_OBJECT
  5
2B67
102
{ACAD_REACTORS
330
2B60
102
}
330
2B60
100
AcDbProxyObject
 90
      499
 91
      511
 93
      444
310
430CD915DA5C99599C985B59401059028333333333333E3BF0000000000000FB0107901411070040501600405405064090741402480A0340
 94
        0
1001
ACAD
1000
AcDbSavedByObjectVersion
1070
     0
1000
AcadProxyRoundTripData
1071
      505
1071
   655383
1070
     0
  0
ACAD_PROXY_OBJECT
  5
2B65
102
{ACAD_REACTORS
330
2B60
102
}
330
2B60
100
AcDbProxyObject
 90
      499
 91
      511
 93
      396
310
4190985CDA58C0107406404333333333333E3BF0000000000000FB0107A41107004050150841D405064090741402480A0356
 94
        0
1001
ACAD
1000
AcDbSavedByObjectVersion
1070
     0
1000
AcadProxyRoundTripData
1071
      505
1071
   655383
1070
     0
  0
ACAD_PROXY_OBJECT
  5
2B6C
102
{ACAD_REACTORS
330
2B60
102
}
330
2B60
100
AcDbProxyObject
 90
      499
 91
      511
 93
      436
310
42509C9A59DA1D195B8010C409028333333333333E3BF0000000000000FB010790141107004050150841D405064090741402480A029956
 94
        0
1001
ACAD
1000
AcDbSavedByObjectVersion
1070
     0
1000
AcadProxyRoundTripData
1071
      505
1071
   655383
1070
     0
  0
ACAD_PROXY_OBJECT
  5
2B70
102
{ACAD_REACTORS
330
2B60
102
}
330
2B60
100
AcDbProxyObject
 90
      499
 91
      511
 93
      460
310
4310DBDB1BDC90DA185B99D9401104090240C333333333333E3BF0000000000000FB0108901411070040501508421405064090741402480A0354
 94
        0
1001
ACAD
1000
AcDbSavedByObjectVersion
1070
     0
1000
AcadProxyRoundTripData
1071
      505
1071
   655383
1070
     0
  0
ACAD_PROXY_OBJECT
  5
2B69
102
{ACAD_REACTORS
330
2B60
102
}
330
2B60
100
AcDbProxyObject
 90
      499
 91
      511
 93
      508
310
42D0DBDB98D95C1D1D585B0010940D028333333333333E3BF0000000000000FB0107902409070040501000000000000111010841D405064090740C02480A0340
 94
        0
1001
ACAD
1000
AcDbSavedByObjectVersion
1070
     0
1000
AcadProxyRoundTripData
1071
      505
1071
   655383
1070
     0
  0
ACAD_PROXY_OBJECT
  5
2B6B
102
{ACAD_REACTORS
330
2B60
102
}
330
2B60
100
AcDbProxyObject
 90
      499
 91
      511
 93
      420
310
41111A5B4010B409028333333333333E3BF0000000000000FB010790141107004050150841D405064090741402480A02677FFFFFDB
 94
        0
1001
ACAD
1000
AcDbSavedByObjectVersion
1070
     0
1000
AcadProxyRoundTripData
1071
      505
1071
   655383
1070
     0
  0
ACAD_PROXY_OBJECT
  5
2B6F
102
{ACAD_REACTORS
330
2B60
102
}
330
2B60
100
AcDbProxyObject
 90
      499
 91
      511
 93
      452
310
43119858D95C185D1D195C9B8010F409028333333333333E3BF0000000000000FB010790141107004050150841D405064090741402480A0350
 94
        0
1001
ACAD
1000
AcDbSavedByObjectVersion
1070
     0
1000
AcadProxyRoundTripData
1071
      505
1071
   655383
1070
     0
  0
ACAD_PROXY_OBJECT
  5
2B61
102
{ACAD_REACTORS
330
2B60
102
}
330
2B60
100
AcDbProxyObject
 90
      499
 91
      511
 93
      396
310
41519B185D00240901404333333333333E3BF0000000000000F9010740A41107004050150841D405064090741402480A1B55
 94
        0
1001
ACAD
1000
AcDbSavedByObjectVersion
1070
     0
1000
AcadProxyRoundTripData
1071
      505
1071
   655383
1070
     0
  0
ACAD_PROXY_OBJECT
  5
2B62
102
{ACAD_REACTORS
330
2B60
102
}
330
2B60
100
AcDbProxyObject
 90
      499
 91
      511
 93
      484
310
43919B185D15DA5D1A115919D95CC010140901404333333333333E3BF0000000000000F9010740901411070040501600405405064090741402480A1B50
 94
        0
1001
ACAD
1000
AcDbSavedByObjectVersion
1070
     0
1000
AcadProxyRoundTripData
1071
      505
1071
   655383
1070
     0
  0
ACAD_PROXY_OBJECT
  5
2B63
102
{ACAD_REACTORS
330
2B60
102
}
330
2B60
100
AcDbProxyObject
 90
      499
 91
      511
 93
      420
310
4211DBDD5C985D590010240902404333333333333E3BF0000000000000F9010740A411070040501641D405064090741402480A1B50
 94
        0
1001
ACAD
1000
AcDbSavedByObjectVersion
1070
     0
1000
AcadProxyRoundTripData
1071
      505
1071
   655383
1070
     0
  0
ACAD_PROXY_OBJECT
  5
2B64
102
{ACAD_REACTORS
330
2B60
102
}
330
2B60
100
AcDbProxyObject
 90
      499
 91
      511
 93
      508
310
4451DBDD5C985D5915DA5D1A115919D95CC010340902404333333333333E3BF0000000000000F9010740901411070040501600405405064090741402480A1B50
 94
        0
1001
ACAD
1000
AcDbSavedByObjectVersion
1070
     0
1000
AcadProxyRoundTripData
1071
      505
1071
   655383
1070
     0
  0
ACAD_PROXY_OBJECT
  5
2B6E
102
{ACAD_REACTORS
330
2B60
102
}
330
2B60
100
AcDbProxyObject
 90
      499
 91
      511
 93
      452
310
43131A5B995C185D1D195C9B8010E409028333333333333E3BF0000000000000FB010790141107004050750841D405064090741402483A0350
 94
        0
1001
ACAD
1000
AcDbSavedByObjectVersion
1070
     0
1000
AcadProxyRoundTripData
1071
      505
1071
   655383
1070
     0
  0
ACAD_PROXY_OBJECT
  5
2B6A
102
{ACAD_REACTORS
330
2B60
102
}
330
2B60
100
AcDbProxyObject
 90
      499
 91
      511
 93
      428
310
429499585B1A5CDD1A58C0108409028333333333333E3BF0000000000000FB01079019070040501508421405064090741402480A1B45
 94
        0
1001
ACAD
1000
AcDbSavedByObjectVersion
1070
     0
1000
AcadProxyRoundTripData
1071
      505
1071
   655383
1070
     0
  0
ACAD_PROXY_OBJECT
  5
2B6D
102
{ACAD_REACTORS
330
2B60
102
}
330
2B60
100
AcDbProxyObject
 90
      499
 91
      511
 93
      420
310
42151A1A58DAD95B8010D409028333333333333E3BF0000000000000FB010790141107004050150C41D405064090741402480A0352
 94
        0
1001
ACAD
1000
AcDbSavedByObjectVersion
1070
     0
1000
AcadProxyRoundTripData
1071
      505
1071
   655383
1070
     0
  0
XRECORD
  5
2C70
102
{ACAD_REACTORS
330
2C66
102
}
330
2C66
100
AcDbXrecord
 90
        0
  0
XRECORD
  5
2C74
102
{ACAD_REACTORS
330
2C66
102
}
330
2C66
100
AcDbXrecord
1000
DSTYLE
1002
{
1070
   179
 70
     2
1070
   277
 70
     6
1002
}
  0
XRECORD
  5
2C71
102
{ACAD_REACTORS
330
2C66
102
}
330
2C66
100
AcDbXrecord
  1
{6385560B-F4B1-4644-A7C2-A3E32AC3D232}
  0
XRECORD
  5
2C69
102
{ACAD_REACTORS
330
2C66
102
}
330
2C66
100
AcDbXrecord
  1

  0
XRECORD
  5
2C6F
102
{ACAD_REACTORS
330
2C66
102
}
330
2C66
100
AcDbXrecord
 90
        0
  0
XRECORD
  5
2C6B
102
{ACAD_REACTORS
330
2C66
102
}
330
2C66
100
AcDbXrecord
340
61
  0
XRECORD
  5
2C6E
102
{ACAD_REACTORS
330
2C66
102
}
330
2C66
100
AcDbXrecord
 90
    10781
  0
XRECORD
  5
2C6C
102
{ACAD_REACTORS
330
2C66
102
}
330
2C66
100
AcDbXrecord
340
77
  0
XRECORD
  5
2C6D
102
{ACAD_REACTORS
330
2C66
102
}
330
2C66
100
AcDbXrecord
340
6
  0
XRECORD
  5
2C73
102
{ACAD_REACTORS
330
2C66
102
}
330
2C66
100
AcDbXrecord
 40
0.0
  0
XRECORD
  5
2C77
102
{ACAD_REACTORS
330
2C66
102
}
330
2C66
100
AcDbXrecord
340
0
  0
XRECORD
  5
2C7D
102
{ACAD_REACTORS
330
2C66
102
}
330
2C66
100
AcDbXrecord
 10
0.0
 20
0.0
 30
0.0
  0
XRECORD
  5
2C79
102
{ACAD_REACTORS
330
2C66
102
}
330
2C66
100
AcDbXrecord
 10
0.0
 20
0.0
 30
0.0
  0
XRECORD
  5
2C7C
102
{ACAD_REACTORS
330
2C66
102
}
330
2C66
100
AcDbXrecord
 10
0.0
 20
0.0
 30
0.0
  0
XRECORD
  5
2C7A
102
{ACAD_REACTORS
330
2C66
102
}
330
2C66
100
AcDbXrecord
 10
0.0
 20
0.0
 30
0.0
  0
XRECORD
  5
2C7B
102
{ACAD_REACTORS
330
2C66
102
}
330
2C66
100
AcDbXrecord
 10
0.0
 20
0.0
 30
0.0
  0
XRECORD
  5
2C78
102
{ACAD_REACTORS
330
2C66
102
}
330
2C66
100
AcDbXrecord
 10
0.0
 20
0.0
 30
0.0
  0
XRECORD
  5
2C75
102
{ACAD_REACTORS
330
2C66
102
}
330
2C66
100
AcDbXrecord
340
0
  0
XRECORD
  5
2C76
102
{ACAD_REACTORS
330
2C66
102
}
330
2C66
100
AcDbXrecord
 70
     0
  0
XRECORD
  5
2C6A
102
{ACAD_REACTORS
330
2C66
102
}
330
2C66
100
AcDbXrecord
  1
Sekkei.ctb
  0
XRECORD
  5
2C67
102
{ACAD_REACTORS
330
2C66
102
}
330
2C66
100
AcDbXrecord
 90
        1
  0
XRECORD
  5
2C68
102
{ACAD_REACTORS
330
2C66
102
}
330
2C66
100
AcDbXrecord
 90
       70
  0
XRECORD
  5
2C80
102
{ACAD_REACTORS
330
2C66
102
}
330
2C66
100
AcDbXrecord
340
0
  0
XRECORD
  5
2C86
102
{ACAD_REACTORS
330
2C66
102
}
330
2C66
100
AcDbXrecord
 10
0.0
 20
0.0
 30
0.0
  0
XRECORD
  5
2C82
102
{ACAD_REACTORS
330
2C66
102
}
330
2C66
100
AcDbXrecord
 10
0.0
 20
0.0
 30
0.0
  0
XRECORD
  5
2C85
102
{ACAD_REACTORS
330
2C66
102
}
330
2C66
100
AcDbXrecord
 10
0.0
 20
0.0
 30
0.0
  0
XRECORD
  5
2C83
102
{ACAD_REACTORS
330
2C66
102
}
330
2C66
100
AcDbXrecord
 10
0.0
 20
0.0
 30
0.0
  0
XRECORD
  5
2C84
102
{ACAD_REACTORS
330
2C66
102
}
330
2C66
100
AcDbXrecord
 10
0.0
 20
0.0
 30
0.0
  0
XRECORD
  5
2C81
102
{ACAD_REACTORS
330
2C66
102
}
330
2C66
100
AcDbXrecord
 10
0.0
 20
0.0
 30
0.0
  0
XRECORD
  5
2C7E
102
{ACAD_REACTORS
330
2C66
102
}
330
2C66
100
AcDbXrecord
340
0
  0
XRECORD
  5
2C7F
102
{ACAD_REACTORS
330
2C66
102
}
330
2C66
100
AcDbXrecord
 70
     0
  0
XRECORD
  5
2C72
102
{ACAD_REACTORS
330
2C66
102
}
330
2C66
100
AcDbXrecord
  1
{E184D555-0572-4454-BB58-17EDF33F151E}
  0
DICTIONARYVAR
  5
2BE0
102
{ACAD_REACTORS
330
102
102
}
330
102
100
DictionaryVariables
280
     0
  1
1:1
  0
DICTIONARYVAR
  5
2BDF
102
{ACAD_REACTORS
330
102
102
}
330
102
100
DictionaryVariables
280
     0
  1
STANDARD
  0
DICTIONARYVAR
  5
2BDE
102
{ACAD_REACTORS
330
102
102
}
330
102
100
DictionaryVariables
280
     0
  1
STANDARD
  0
DICTIONARYVAR
  5
103
102
{ACAD_REACTORS
330
102
102
}
330
102
100
DictionaryVariables
280
     0
  1
1
  0
DICTIONARYVAR
  5
2BE1
102
{ACAD_REACTORS
330
102
102
}
330
102
100
DictionaryVariables
280
     0
  1
0
  0
DICTIONARYVAR
  5
549
102
{ACAD_REACTORS
330
102
102
}
330
102
100
DictionaryVariables
280
     0
  1
96
  0
DICTIONARY
  5
2B51
330
2B50
100
AcDbDictionary
280
     1
  3
ACAD_XREC_ROUNDTRIP
360
2C4B
  3
BUMPTILE
360
2B53
  3
DIFFUSETILE
360
2B52
  3
OPACITYTILE
360
2B56
  3
REFLECTIONTILE
360
2B55
  3
REFRACTIONTILE
360
2B57
  3
SPECULARTILE
360
2B54
  0
DICTIONARY
  5
2B49
330
2B48
100
AcDbDictionary
280
     1
  3
ACAD_XREC_ROUNDTRIP
360
2C4A
  3
BUMPTILE
360
2B4B
  3
DIFFUSETILE
360
2B4A
  3
OPACITYTILE
360
2B4E
  3
REFLECTIONTILE
360
2B4D
  3
REFRACTIONTILE
360
2B4F
  3
SPECULARTILE
360
2B4C
  0
DICTIONARY
  5
2B59
330
2B58
100
AcDbDictionary
280
     1
  3
ACAD_XREC_ROUNDTRIP
360
2C4C
  3
BUMPTILE
360
2B5B
  3
DIFFUSETILE
360
2B5A
  3
OPACITYTILE
360
2B5E
  3
REFLECTIONTILE
360
2B5D
  3
REFRACTIONTILE
360
2B5F
  3
SPECULARTILE
360
2B5C
  0
DICTIONARY
  5
2BBE
330
2B73
100
AcDbDictionary
280
     1
  3
ACAD_ROUNDTRIP_2008_TABLES
360
2C31
  3
ACAD_XREC_ROUNDTRIP
360
2C4D
  0
XRECORD
  5
2C4B
102
{ACAD_REACTORS
330
2B51
102
}
330
2B51
100
AcDbXrecord
102
MATERIAL
148
0.0
149
0.0
149
0.0
 93
        0
 94
      127
282
     0
 72
     0
 77
     0
171
     0
175
     0
179
     0
273
     0
  0
XRECORD
  5
2B53
102
{ACAD_REACTORS
330
2B51
102
}
330
2B51
100
AcDbXrecord
270
     1
271
     1
  0
XRECORD
  5
2B52
102
{ACAD_REACTORS
330
2B51
102
}
330
2B51
100
AcDbXrecord
270
     1
271
     1
  0
XRECORD
  5
2B56
102
{ACAD_REACTORS
330
2B51
102
}
330
2B51
100
AcDbXrecord
270
     1
271
     1
  0
XRECORD
  5
2B55
102
{ACAD_REACTORS
330
2B51
102
}
330
2B51
100
AcDbXrecord
270
     1
271
     1
  0
XRECORD
  5
2B57
102
{ACAD_REACTORS
330
2B51
102
}
330
2B51
100
AcDbXrecord
270
     1
271
     1
  0
XRECORD
  5
2B54
102
{ACAD_REACTORS
330
2B51
102
}
330
2B51
100
AcDbXrecord
270
     1
271
     1
  0
XRECORD
  5
2C4A
102
{ACAD_REACTORS
330
2B49
102
}
330
2B49
100
AcDbXrecord
102
MATERIAL
148
0.0
149
0.0
149
0.0
 93
        0
 94
      127
282
     0
 72
     0
 77
     0
171
     0
175
     0
179
     0
273
     0
  0
XRECORD
  5
2B4B
102
{ACAD_REACTORS
330
2B49
102
}
330
2B49
100
AcDbXrecord
270
     1
271
     1
  0
XRECORD
  5
2B4A
102
{ACAD_REACTORS
330
2B49
102
}
330
2B49
100
AcDbXrecord
270
     1
271
     1
  0
XRECORD
  5
2B4E
102
{ACAD_REACTORS
330
2B49
102
}
330
2B49
100
AcDbXrecord
270
     1
271
     1
  0
XRECORD
  5
2B4D
102
{ACAD_REACTORS
330
2B49
102
}
330
2B49
100
AcDbXrecord
270
     1
271
     1
  0
XRECORD
  5
2B4F
102
{ACAD_REACTORS
330
2B49
102
}
330
2B49
100
AcDbXrecord
270
     1
271
     1
  0
XRECORD
  5
2B4C
102
{ACAD_REACTORS
330
2B49
102
}
330
2B49
100
AcDbXrecord
270
     1
271
     1
  0
XRECORD
  5
2C4C
102
{ACAD_REACTORS
330
2B59
102
}
330
2B59
100
AcDbXrecord
102
MATERIAL
148
0.0
149
0.0
149
0.0
 93
        0
 94
      127
282
     0
 72
     0
 77
     0
171
     0
175
     0
179
     0
273
     0
  0
XRECORD
  5
2B5B
102
{ACAD_REACTORS
330
2B59
102
}
330
2B59
100
AcDbXrecord
270
     1
271
     1
  0
XRECORD
  5
2B5A
102
{ACAD_REACTORS
330
2B59
102
}
330
2B59
100
AcDbXrecord
270
     1
271
     1
  0
XRECORD
  5
2B5E
102
{ACAD_REACTORS
330
2B59
102
}
330
2B59
100
AcDbXrecord
270
     1
271
     1
  0
XRECORD
  5
2B5D
102
{ACAD_REACTORS
330
2B59
102
}
330
2B59
100
AcDbXrecord
270
     1
271
     1
  0
XRECORD
  5
2B5F
102
{ACAD_REACTORS
330
2B59
102
}
330
2B59
100
AcDbXrecord
270
     1
271
     1
  0
XRECORD
  5
2B5C
102
{ACAD_REACTORS
330
2B59
102
}
330
2B59
100
AcDbXrecord
270
     1
271
     1
  0
ACAD_PROXY_OBJECT
  5
2C31
102
{ACAD_REACTORS
330
2BBE
102
}
330
2BBE
100
AcDbProxyObject
 90
      499
 91
      511
 93
     5304
310
40D054060020000020000003200101A000080002A5058000000C100000000000000340FD012E07A17AD46E2B8FCB81E85EB51B8AE3F2E07A17AD46E2B8FCB81E85EB51B8AE3F02B5E8DC0F42B1CFC0AD7A3703D0AC73F419019018000000C1003FBFFFFFE02B5E8DC0F42A9CFD029018000000C1003FBFFFFFE02B5E8DC0F4
310
2A9CFD049018000000C1003FBFFFFFE02B5E8DC0F42A9CFD089018000000C1003FBFFFFFE02B5E8DC0F42A9CFD109018000000C1003FBFFFFFE02B5E8DC0F42A9CFD209018000000C1003FBFFFFFE02B5E8DC0F42A9CFD01405075F5449544C450041501A8000000C800406800020000A9416000000304000AD7A3703D0AC7
310
3F404B81E85EB51B8AE3F2E07A17AD46E2B8FCB81E85EB51B8AE3F2E07A17AD46E2B8FC0AD7A3703D0AC73F02B5E8DC0F42B1CFD0640640600000030400FEFFFFFF80AD7A3703D0AA73F40A40600000030400FEFFFFFF80AD7A3703D0AA73F41240600000030400FEFFFFFF80AD7A3703D0AA73F42240600000030400FEFFF
310
FFF80AD7A3703D0AA73F44240600000030400FEFFFFFF80AD7A3703D0AA73F48240600000030400FEFFFFFF80AD7A3703D0AA73F409014217D2115051115480105406A0000003200101A000080002A5028000000C10002B5E8DC0F42B1CFD012E07A17AD46E2B8FCB81E85EB51B8AE3F2E07A17AD46E2B8FCB81E85EB51B8A
310
E3F02B5E8DC0F42B1CFC0AD7A3703D0AC73F419019018000000C1003FBFFFFFE02B5E8DC0F42A9CFD029018000000C1003FBFFFFFE02B5E8DC0F42A9CFD049018000000C1003FBFFFFFE02B5E8DC0F42A9CFD089018000000C1003FBFFFFFE02B5E8DC0F42A9CFD109018000000C1003FBFFFFFE02B5E8DC0F42A9CFD20901
310
8000000C1003FBFFFFFE02B5E8DC0F42A9CFD03409065F444154410000
340
16
340
0
340
0
340
0
340
0
340
0
340
0
340
16
340
0
340
0
340
0
340
0
340
0
340
0
340
16
340
0
340
0
340
0
340
0
340
0
340
0
 94
        0
1001
ACAD
1000
AcadProxyRoundTripData
1071
      509
1071
   655383
1070
     0
  0
XRECORD
  5
2C4D
102
{ACAD_REACTORS
330
2BBE
102
}
330
2BBE
100
AcDbXrecord
102
ACAD_ROUNDTRIP_PRE2007_TABLESTYLE
 90
      512
 91
        0
  1

 92
      512
 93
        0
  2

 94
      512
 95
        0
  3

  0
ENDSEC
  0
EOF
