  0
SECTION
  2
HEADER
  9
$ACADVER
  1
AC1014
  9
$ACADMAINTVER
 70
     9
  9
$DWGCODEPAGE
  3
ANSI_932
  9
$INSBASE
 10
0.0
 20
0.0
 30
0.0
  9
$EXTMIN
 10
36.41978460885832
 20
69.30785444286607
 30
0.0
  9
$EXTMAX
 10
1358.464299538766
 20
605.1975102261549
 30
0.0
  9
$LIMMIN
 10
0.0
 20
0.0
  9
$LIMMAX
 10
297.0
 20
210.0
  9
$ORTHOMODE
 70
     1
  9
$REGENMODE
 70
     1
  9
$FILLMODE
 70
     1
  9
$QTEXTMODE
 70
     0
  9
$MIRRTEXT
 70
     0
  9
$DRAGMODE
 70
     2
  9
$LTSCALE
 40
4.0
  9
$OSMODE
 70
    37
  9
$ATTMODE
 70
     1
  9
$TEXTSIZE
 40
2.0
  9
$TRACEWID
 40
1.0
  9
$TEXTSTYLE
  7
STANDARD
  9
$CLAYER
  8
0
  9
$CELTYPE
  6
BYLAYER
  9
$CECOLOR
 62
   256
  9
$CELTSCALE
 40
1.0
  9
$DELOBJ
 70
     1
  9
$DISPSILH
 70
     0
  9
$DIMSCALE
 40
4.0
  9
$DIMASZ
 40
1.8
  9
$DIMEXO
 40
0.625
  9
$DIMDLI
 40
3.75
  9
$DIMRND
 40
0.0
  9
$DIMDLE
 40
0.0
  9
$DIMEXE
 40
0.8
  9
$DIMTP
 40
0.0
  9
$DIMTM
 40
0.0
  9
$DIMTXT
 40
1.8
  9
$DIMCEN
 40
2.5
  9
$DIMTSZ
 40
0.0
  9
$DIMTOL
 70
     0
  9
$DIMLIM
 70
     0
  9
$DIMTIH
 70
     0
  9
$DIMTOH
 70
     0
  9
$DIMSE1
 70
     0
  9
$DIMSE2
 70
     0
  9
$DIMTAD
 70
     1
  9
$DIMZIN
 70
     8
  9
$DIMBLK
  1

  9
$DIMASO
 70
     1
  9
$DIMSHO
 70
     1
  9
$DIMPOST
  1

  9
$DIMAPOST
  1

  9
$DIMALT
 70
     0
  9
$DIMALTD
 70
     4
  9
$DIMALTF
 40
0.0394
  9
$DIMLFAC
 40
1.0
  9
$DIMTOFL
 70
     1
  9
$DIMTVP
 40
0.0
  9
$DIMTIX
 70
     0
  9
$DIMSOXD
 70
     0
  9
$DIMSAH
 70
     0
  9
$DIMBLK1
  1

  9
$DIMBLK2
  1

  9
$DIMSTYLE
  2
STANDARD
  9
$DIMCLRD
 70
     0
  9
$DIMCLRE
 70
     0
  9
$DIMCLRT
 70
     0
  9
$DIMTFAC
 40
1.0
  9
$DIMGAP
 40
0.75
  9
$DIMJUST
 70
     0
  9
$DIMSD1
 70
     0
  9
$DIMSD2
 70
     0
  9
$DIMTOLJ
 70
     1
  9
$DIMTZIN
 70
     0
  9
$DIMALTZ
 70
     0
  9
$DIMALTTZ
 70
     0
  9
$DIMFIT
 70
     3
  9
$DIMUPT
 70
     0
  9
$DIMUNIT
 70
     8
  9
$DIMDEC
 70
     2
  9
$DIMTDEC
 70
     2
  9
$DIMALTU
 70
     8
  9
$DIMALTTD
 70
     4
  9
$DIMTXSTY
  7
STANDARD
  9
$DIMAUNIT
 70
     0
  9
$LUNITS
 70
     2
  9
$LUPREC
 70
     3
  9
$SKETCHINC
 40
1.0
  9
$FILLETRAD
 40
2.0
  9
$AUNITS
 70
     0
  9
$AUPREC
 70
     2
  9
$MENU
  1
.
  9
$ELEVATION
 40
0.0
  9
$PELEVATION
 40
0.0
  9
$THICKNESS
 40
0.0
  9
$LIMCHECK
 70
     0
  9
$BLIPMODE
 70
     0
  9
$CHAMFERA
 40
0.0
  9
$CHAMFERB
 40
0.0
  9
$CHAMFERC
 40
20.0
  9
$CHAMFERD
 40
0.0
  9
$SKPOLY
 70
     0
  9
$TDCREATE
 40
2454413.391157766
  9
$TDUPDATE
 40
2454424.572397280
  9
$TDINDWG
 40
0.0365757060
  9
$TDUSRTIMER
 40
0.0365757060
  9
$USRTIMER
 70
     1
  9
$ANGBASE
 50
0.0
  9
$ANGDIR
 70
     0
  9
$PDMODE
 70
     0
  9
$PDSIZE
 40
-10.0
  9
$PLINEWID
 40
0.0
  9
$COORDS
 70
     0
  9
$SPLFRAME
 70
     0
  9
$SPLINETYPE
 70
     6
  9
$SPLINESEGS
 70
     8
  9
$ATTDIA
 70
     0
  9
$ATTREQ
 70
     1
  9
$HANDLING
 70
-16383
  9
$HANDSEED
  5
2864
  9
$SURFTAB1
 70
     6
  9
$SURFTAB2
 70
     6
  9
$SURFTYPE
 70
     6
  9
$SURFU
 70
     6
  9
$SURFV
 70
     6
  9
$UCSNAME
  2

  9
$UCSORG
 10
0.0
 20
0.0
 30
0.0
  9
$UCSXDIR
 10
1.0
 20
0.0
 30
0.0
  9
$UCSYDIR
 10
0.0
 20
1.0
 30
0.0
  9
$PUCSNAME
  2

  9
$PUCSORG
 10
0.0
 20
0.0
 30
0.0
  9
$PUCSXDIR
 10
1.0
 20
0.0
 30
0.0
  9
$PUCSYDIR
 10
0.0
 20
1.0
 30
0.0
  9
$USERI1
 70
     0
  9
$USERI2
 70
     0
  9
$USERI3
 70
     0
  9
$USERI4
 70
     0
  9
$USERI5
 70
     0
  9
$USERR1
 40
0.0
  9
$USERR2
 40
0.0
  9
$USERR3
 40
0.0
  9
$USERR4
 40
0.0
  9
$USERR5
 40
0.0
  9
$WORLDVIEW
 70
     1
  9
$SHADEDGE
 70
     3
  9
$SHADEDIF
 70
    70
  9
$TILEMODE
 70
     1
  9
$MAXACTVP
 70
    48
  9
$PINSBASE
 10
0.0
 20
0.0
 30
0.0
  9
$PLIMCHECK
 70
     0
  9
$PEXTMIN
 10
0.0
 20
0.0
 30
0.0
  9
$PEXTMAX
 10
0.0
 20
0.0
 30
0.0
  9
$PLIMMIN
 10
0.0
 20
0.0
  9
$PLIMMAX
 10
12.0
 20
9.0
  9
$UNITMODE
 70
     0
  9
$VISRETAIN
 70
     1
  9
$PLINEGEN
 70
     0
  9
$PSLTSCALE
 70
     1
  9
$TREEDEPTH
 70
  3020
  9
$PICKSTYLE
 70
     1
  9
$CMLSTYLE
  2
STANDARD
  9
$CMLJUST
 70
     0
  9
$CMLSCALE
 40
1.0
  9
$PROXYGRAPHICS
 70
     1
  9
$MEASUREMENT
 70
     0
  0
ENDSEC
  0
SECTION
  2
CLASSES
  0
CLASS
  1
DICTIONARYVAR
  2
AcDbDictionaryVar
  3
AutoCAD 2000
 90
        0
280
     0
281
     0
  0
CLASS
  1
ACDBDICTIONARYWDFLT
  2
AcDbDictionaryWithDefault
  3
AutoCAD 2000
 90
        0
280
     0
281
     0
  0
CLASS
  1
ACDBPLACEHOLDER
  2
AcDbPlaceHolder
  3
AutoCAD 2000
 90
        0
280
     0
281
     0
  0
CLASS
  1
LAYOUT
  2
AcDbLayout
  3
AutoCAD 2000
 90
        0
280
     0
281
     0
  0
CLASS
  1
MATERIAL
  2
AcDbMaterial
  3
ObjectDBX Classes
 90
     1153
280
     0
281
     0
  0
CLASS
  1
VISUALSTYLE
  2
AcDbVisualStyle
  3
ObjectDBX Classes
 90
     4095
280
     0
281
     0
  0
CLASS
  1
TABLESTYLE
  2
AcDbTableStyle
  3
ObjectDBX Classes
 90
     4095
280
     0
281
     0
  0
CLASS
  1
SCALE
  2
AcDbScale
  3
ObjectDBX Classes
 90
     1153
280
     0
281
     0
  0
CLASS
  1
MLEADERSTYLE
  2
AcDbMLeaderStyle
  3
ACDB_MLEADERSTYLE_CLASS
 90
     4095
280
     0
281
     0
  0
CLASS
  1
CELLSTYLEMAP
  2
AcDbCellStyleMap
  3
ObjectDBX Classes
 90
     1152
280
     0
281
     0
  0
CLASS
  1
ACAD_PROXY_OBJECT_WRAPPER
  2
AcDbProxyObjectWrapper
  3
AutoCAD 2000
 90
        0
280
     0
281
     0
  0
CLASS
  1
LONG_TRANSACTION
  2
AcDbLongTransaction
  3
AutoCAD 2000
 90
        0
280
     0
281
     0
  0
CLASS
  1
LWPOLYLINE
  2
AcDbPolyline
  3
AutoCAD 2000
 90
        0
280
     0
281
     1
  0
CLASS
  1
HATCH
  2
AcDbHatch
  3
AutoCAD 2000
 90
        0
280
     0
281
     1
  0
CLASS
  1
XRECORD
  2
AcDbXrecord
  3
AutoCAD 2000
 90
        0
280
     0
281
     0
  0
ENDSEC
  0
SECTION
  2
TABLES
  0
TABLE
  2
VPORT
  5
6E
102
{ACAD_XDICTIONARY
360
1940
102
}
330
0
100
AcDbSymbolTable
 70
     2
  0
VPORT
  5
283E
330
6E
100
AcDbSymbolTableRecord
100
AcDbViewportTableRecord
  2
*ACTIVE
 70
     0
 10
0.0
 20
0.0
 11
1.0
 21
1.0
 12
792.2407879952636
 22
322.5420523810829
 13
0.0
 23
0.0
 14
10.0
 24
10.0
 15
10.0
 25
10.0
 16
0.0
 26
0.0
 36
1.0
 17
0.0
 27
0.0
 37
0.0
 40
865.9769313353935
 41
1.753504672897196
 42
50.0
 43
0.0
 44
0.0
 50
0.0
 51
0.0
 71
     0
 72
   100
 73
     1
 74
     3
 75
     0
 76
     0
 77
     0
 78
     0
  0
ENDTAB
  0
TABLE
  2
LTYPE
  5
69
330
0
100
AcDbSymbolTable
 70
     5
  0
LTYPE
  5
6A
330
69
100
AcDbSymbolTableRecord
100
AcDbLinetypeTableRecord
  2
BYBLOCK
 70
     0
  3

 72
    65
 73
     0
 40
0.0
  0
LTYPE
  5
6B
330
69
100
AcDbSymbolTableRecord
100
AcDbLinetypeTableRecord
  2
BYLAYER
 70
     0
  3

 72
    65
 73
     0
 40
0.0
  0
LTYPE
  5
8
330
69
100
AcDbSymbolTableRecord
100
AcDbLinetypeTableRecord
  2
CONTINUOUS
 70
     0
  3
Solid line
 72
    65
 73
     0
 40
0.0
  0
LTYPE
  5
27C
330
69
100
AcDbSymbolTableRecord
100
AcDbLinetypeTableRecord
  2
SEKKEI_A2_
 70
     0
  3
center(A2)  ____ _ ____ _ ____ _ ____ _ ____ _ 
 72
    65
 73
     4
 40
14.28749999999999
 49
9.525
 74
     0
 49
-1.587499999999999
 74
     0
 49
1.587499999999999
 74
     0
 49
-1.587499999999999
 74
     0
  0
LTYPE
  5
7F0
330
69
100
AcDbSymbolTableRecord
100
AcDbLinetypeTableRecord
  2
HIDDEN3
 70
     0
  3
Hidden (.3x) _ _ _ _ _ _ _ _ _ _ _ _ _ _ _ _ _
 72
    65
 73
     2
 40
2.857499999999999
 49
1.905
 74
     0
 49
-0.9525
 74
     0
  0
LTYPE
  5
B0E
330
69
100
AcDbSymbolTableRecord
100
AcDbLinetypeTableRecord
  2
CENS
 70
     0
  3
(一点鎖線１)---- - ---- - ---- - ---- - ---- - 
 72
    65
 73
     4
 40
7.0
 49
4.0
 74
     0
 49
-1.0
 74
     0
 49
1.0
 74
     0
 49
-1.0
 74
     0
  0
ENDTAB
  0
TABLE
  2
LAYER
  5
66
102
{ACAD_XDICTIONARY
360
B0F
102
}
330
0
100
AcDbSymbolTable
 70
     9
  0
LAYER
  5
5E
102
{ACAD_XDICTIONARY
360
1923
102
}
330
66
100
AcDbSymbolTableRecord
100
AcDbLayerTableRecord
  2
0
 70
     0
 62
     7
  6
CONTINUOUS
  0
LAYER
  5
3E
102
{ACAD_XDICTIONARY
360
1925
102
}
330
66
100
AcDbSymbolTableRecord
100
AcDbLayerTableRecord
  2
CENTER
 70
     0
 62
     3
  6
SEKKEI_A2_
  0
LAYER
  5
2B5
102
{ACAD_XDICTIONARY
360
192B
102
}
330
66
100
AcDbSymbolTableRecord
100
AcDbLayerTableRecord
  2
HIDS
 70
     0
 62
     1
  6
HIDDEN3
  0
LAYER
  5
2BA
102
{ACAD_XDICTIONARY
360
192D
102
}
330
66
100
AcDbSymbolTableRecord
100
AcDbLayerTableRecord
  2
HOJO
 70
     0
 62
     4
  6
CONTINUOUS
  0
LAYER
  5
3FA
102
{ACAD_XDICTIONARY
360
1931
102
}
330
66
100
AcDbSymbolTableRecord
100
AcDbLayerTableRecord
  2
TITLE
 70
     0
 62
     4
  6
CONTINUOUS
  0
ENDTAB
  0
TABLE
  2
STYLE
  5
67
330
0
100
AcDbSymbolTable
 70
     2
  0
STYLE
  5
16
330
67
100
AcDbSymbolTableRecord
100
AcDbTextStyleTableRecord
  2
STANDARD
 70
     0
 40
0.0
 41
1.0
 50
0.0
 71
     0
 42
2.0
  3
simplex.shx
  4
extfont.shx
  0
ENDTAB
  0
TABLE
  2
VIEW
  5
6C
330
0
100
AcDbSymbolTable
 70
     0
  0
ENDTAB
  0
TABLE
  2
UCS
  5
6D
330
0
100
AcDbSymbolTable
 70
     0
  0
ENDTAB
  0
TABLE
  2
APPID
  5
70
330
0
100
AcDbSymbolTable
 70
     3
  0
APPID
  5
71
330
70
100
AcDbSymbolTableRecord
100
AcDbRegAppTableRecord
  2
ACAD
 70
     0
  0
APPID
  5
191F
330
70
100
AcDbSymbolTableRecord
100
AcDbRegAppTableRecord
  2
ACAD_MLEADERVER
 70
     0
  0
APPID
  5
1922
330
70
100
AcDbSymbolTableRecord
100
AcDbRegAppTableRecord
  2
ACAD_DSTYLE_DIMRADIAL_EXTENSION
 70
     0
  0
ENDTAB
  0
TABLE
  2
DIMSTYLE
  5
72
330
0
100
AcDbSymbolTable
 70
     1
  0
DIMSTYLE
105
73
330
72
100
AcDbSymbolTableRecord
100
AcDbDimStyleTableRecord
  2
STANDARD
 70
     0
  3

  4

  5

  6

  7

 40
4.0
 41
1.8
 42
0.625
 43
3.75
 44
0.8
 45
0.0
 46
0.0
 47
0.0
 48
0.0
140
1.8
141
2.5
142
0.0
143
0.0394
144
1.0
145
0.0
146
1.0
147
0.75
 71
     0
 72
     0
 73
     0
 74
     0
 75
     0
 76
     0
 77
     1
 78
     8
170
     0
171
     4
172
     1
173
     0
174
     0
175
     0
176
     0
177
     0
178
     0
270
     8
271
     2
272
     2
273
     8
274
     4
340
16
275
     0
280
     0
281
     0
282
     0
283
     1
284
     0
285
     0
286
     0
287
     3
288
     0
  0
ENDTAB
  0
TABLE
  2
BLOCK_RECORD
  5
1
330
0
100
AcDbSymbolTable
 70
    42
  0
BLOCK_RECORD
  5
2
102
{ACAD_XDICTIONARY
360
2860
102
}
330
1
100
AcDbSymbolTableRecord
100
AcDbBlockTableRecord
  2
*MODEL_SPACE
  0
BLOCK_RECORD
  5
2839
102
{ACAD_XDICTIONARY
360
2862
102
}
330
1
100
AcDbSymbolTableRecord
100
AcDbBlockTableRecord
  2
*PAPER_SPACE
  0
ENDTAB
  0
ENDSEC
  0
SECTION
  2
BLOCKS
  0
BLOCK
  5
5D
330
2
100
AcDbEntity
  8
0
100
AcDbBlockBegin
  2
*MODEL_SPACE
 70
     0
 10
0.0
 20
0.0
 30
0.0
  3
*MODEL_SPACE
  1

  0
ENDBLK
  5
5F
330
2
100
AcDbEntity
  8
0
100
AcDbBlockEnd
  0
BLOCK
  5
283B
330
2839
100
AcDbEntity
 67
     1
  8
0
100
AcDbBlockBegin
  2
*PAPER_SPACE
 70
     0
 10
0.0
 20
0.0
 30
0.0
  3
*PAPER_SPACE
  1

  0
ENDBLK
  5
283C
330
2839
100
AcDbEntity
 67
     1
  8
0
100
AcDbBlockEnd
  0
ENDSEC
  0
SECTION
  2
ENTITIES
  0
TEXT
  5
FE3
330
2
100
AcDbEntity
  8
TITLE
100
AcDbText
 10
499.591518626438
 20
531.3187187118096
 30
0.0
 40
10.0
  1
AFCZ28H-10~30M750S3
100
AcDbText
  0
TEXT
  5
FE4
330
2
100
AcDbEntity
  8
TITLE
100
AcDbText
 10
499.591518626438
 20
515.9853853784763
 30
0.0
 40
10.0
  1
AFCZ28H-10~30L750S3
100
AcDbText
  0
LINE
  5
FE6
330
2
100
AcDbEntity
  8
CENTER
100
AcDbLine
 10
739.2883579482072
 20
531.6975102207781
 30
0.0
 11
1029.42346161275
 21
531.6975102207781
 31
0.0
  0
LINE
  5
FEC
330
2
100
AcDbEntity
  8
CENTER
100
AcDbLine
 10
729.0134616127497
 20
154.3078544428642
 30
0.0
 11
1029.42346161275
 21
154.3078544428642
 31
0.0
  0
LINE
  5
100B
330
2
100
AcDbEntity
  8
0
100
AcDbLine
 10
959.4234616127515
 20
195.807854442866
 30
0.0
 11
959.4234616127515
 21
112.807854442866
 31
0.0
  0
LINE
  5
1021
330
2
100
AcDbEntity
  8
CENTER
100
AcDbLine
 10
326.8297846088409
 20
154.3078544428642
 30
0.0
 11
36.41978460885832
 21
154.3078544428641
 31
0.0
  0
LINE
  5
1023
330
2
100
AcDbEntity
  8
0
100
AcDbLine
 10
106.4197846088583
 20
112.8078544428642
 30
0.0
 11
106.4197846088583
 21
195.8078544428641
 31
0.0
  0
LINE
  5
102E
330
2
100
AcDbEntity
  8
0
100
AcDbLine
 10
959.4234616127536
 20
572.6975102207781
 30
0.0
 11
959.4234616127536
 21
490.697510220778
 31
0.0
  0
LINE
  5
1312
330
2
100
AcDbEntity
  8
CENTER
100
AcDbLine
 10
1284.964299538763
 20
229.0329581074455
 30
0.0
 11
1284.964299538763
 21
79.58275077826323
 31
0.0
  0
LINE
  5
1313
330
2
100
AcDbEntity
  8
CENTER
100
AcDbLine
 10
1358.464299538766
 20
154.3078544428521
 30
0.0
 11
1158.964299538763
 21
154.3078544428521
 31
0.0
  0
LINE
  5
1314
330
2
100
AcDbEntity
  8
0
100
AcDbLine
 10
1316.464299538754
 20
94.30785444285396
 30
0.0
 11
1239.964299538763
 21
94.97545982884771
 31
0.0
  0
LINE
  5
1315
330
2
100
AcDbEntity
  8
0
100
AcDbLine
 10
1316.464299538763
 20
214.3078544428539
 30
0.0
 11
1239.964299538763
 21
213.640249056862
 31
0.0
  0
LINE
  5
1316
330
2
100
AcDbEntity
  8
0
100
AcDbLine
 10
1241.964299538763
 20
194.6707169373607
 30
0.0
 11
1241.964299538763
 21
113.9449919483508
 31
0.0
  0
LINE
  5
1317
330
2
100
AcDbEntity
  8
0
100
AcDbLine
 10
1239.964299538763
 20
213.640249056862
 30
0.0
 11
1239.964299538763
 21
94.97545982884771
 31
0.0
  0
LINE
  5
1318
330
2
100
AcDbEntity
  8
0
100
AcDbLine
 10
1234.964299538763
 20
209.3078544428539
 30
0.0
 11
1234.964299538763
 21
99.30785444285398
 31
0.0
  0
LINE
  5
1319
330
2
100
AcDbEntity
  8
0
100
AcDbLine
 10
1234.964299538763
 20
209.3078544428539
 30
0.0
 11
1239.964299538763
 21
209.3078544428539
 31
0.0
  0
LINE
  5
131A
330
2
100
AcDbEntity
  8
0
100
AcDbLine
 10
1234.964299538763
 20
99.30785444285398
 30
0.0
 11
1239.964299538763
 21
99.30785444285398
 31
0.0
  0
LINE
  5
131B
330
2
100
AcDbEntity
  8
0
100
AcDbLine
 10
1316.464299538763
 20
214.3078544428539
 30
0.0
 11
1316.464299538761
 21
195.4237081013929
 31
0.0
  0
LINE
  5
131C
330
2
100
AcDbEntity
  8
0
100
AcDbLine
 10
1316.464299538755
 20
113.1920007843131
 30
0.0
 11
1316.464299538754
 21
94.30785444285396
 31
0.0
  0
LINE
  5
131D
330
2
100
AcDbEntity
  8
0
100
AcDbLine
 10
1321.025271486997
 20
195.3680864922666
 30
0.0
 11
1284.964299538763
 21
195.8078544428685
 31
0.0
  0
LINE
  5
131E
330
2
100
AcDbEntity
  8
0
100
AcDbLine
 10
1248.903328462679
 20
195.3680865029004
 30
0.0
 11
1261.151575367926
 21
195.5174553675989
 31
0.0
  0
LINE
  5
131F
330
2
100
AcDbEntity
  8
0
100
AcDbLine
 10
1321.025270614848
 20
113.247622382802
 30
0.0
 11
1284.964299538763
 21
112.8078544428521
 31
0.0
  0
LINE
  5
1320
330
2
100
AcDbEntity
  8
0
100
AcDbLine
 10
1248.903328462679
 20
113.2476223828038
 30
0.0
 11
1284.964299538763
 21
112.8078544428521
 31
0.0
  0
ARC
  5
1321
330
2
100
AcDbEntity
  8
0
100
AcDbCircle
 10
1320.964300410912
 20
190.3684582532991
 30
0.0
 40
5.0
100
AcDbArc
 50
44.50852684283193
 51
89.30130561700025
  0
ARC
  5
1322
330
2
100
AcDbEntity
  8
0
100
AcDbCircle
 10
1320.964300410912
 20
118.2472506324051
 30
0.0
 40
5.0
100
AcDbArc
 50
270.6986943829997
 51
315.4914731703942
  0
ARC
  5
1323
330
2
100
AcDbEntity
  8
0
100
AcDbCircle
 10
1248.964298666615
 20
190.3684582532991
 30
0.0
 40
5.0
100
AcDbArc
 50
90.69869438299972
 51
135.4914731563116
  0
ARC
  5
1324
330
2
100
AcDbEntity
  8
0
100
AcDbCircle
 10
1248.964298666614
 20
118.2472506324051
 30
0.0
 40
5.0
100
AcDbArc
 50
224.5085268291851
 51
269.3013056170002
  0
LINE
  5
1325
330
2
100
AcDbEntity
  8
0
100
AcDbLine
 10
1220.964299538763
 20
192.3764768932382
 30
0.0
 11
1220.964299538763
 21
116.239231992466
 31
0.0
  0
ARC
  5
1326
330
2
100
AcDbEntity
  8
0
100
AcDbCircle
 10
1222.964299538763
 20
116.239231992466
 30
0.0
 40
2.0
100
AcDbArc
 50
180.0
 51
267.9999999999963
  0
ARC
  5
1327
330
2
100
AcDbEntity
  8
0
100
AcDbCircle
 10
1222.964299538763
 20
192.3764768932382
 30
0.0
 40
2.0
100
AcDbArc
 50
92.00000000000365
 51
180.0
  0
LINE
  5
1328
330
2
100
AcDbEntity
  8
0
100
AcDbLine
 10
1233.034098532168
 20
194.7293411113118
 30
0.0
 11
1222.894500545358
 21
194.3752585472761
 31
0.0
  0
ARC
  5
1329
330
2
100
AcDbEntity
  8
0
100
AcDbCircle
 10
1232.964299538763
 20
196.7281227653497
 30
0.0
 40
2.0
100
AcDbArc
 50
272.0000000000036
 51
0.0
  0
LINE
  5
132A
330
2
100
AcDbEntity
  8
0
100
AcDbLine
 10
1233.034098532168
 20
113.8863677743924
 30
0.0
 11
1222.894500545358
 21
114.2404503384281
 31
0.0
  0
ARC
  5
132B
330
2
100
AcDbEntity
  8
0
100
AcDbCircle
 10
1232.964299538763
 20
111.8875861203545
 30
0.0
 40
2.0
100
AcDbArc
 50
0.0
 51
87.99999999999636
  0
LINE
  5
132C
330
2
100
AcDbEntity
  8
0
100
AcDbLine
 10
1316.464299538755
 20
111.3122178767502
 30
0.0
 11
1243.946846467765
 21
111.9450681022212
 31
0.0
  0
LINE
  5
132D
330
2
100
AcDbEntity
  8
0
100
AcDbLine
 10
1316.464299538761
 20
197.3034910089594
 30
0.0
 11
1277.952077601108
 21
196.9673999397824
 31
0.0
  0
LINE
  5
132E
330
2
100
AcDbEntity
  8
0
100
AcDbLine
 10
1316.464299538759
 20
196.7536983381455
 30
0.0
 11
1284.964299538763
 21
197.0285946735516
 31
0.0
  0
LINE
  5
132F
330
2
100
AcDbEntity
  8
0
100
AcDbLine
 10
1316.464299538759
 20
111.8620105475642
 30
0.0
 11
1284.964299538763
 21
111.5871142121563
 31
0.0
  0
ARC
  5
1330
330
2
100
AcDbEntity
  8
0
100
AcDbCircle
 10
1243.964299538763
 20
194.6707169373607
 30
0.0
 40
2.0
100
AcDbArc
 50
90.49999999996549
 51
180.0
  0
ARC
  5
1331
330
2
100
AcDbEntity
  8
0
100
AcDbCircle
 10
1243.964299538763
 20
113.9449919483508
 30
0.0
 40
2.0
100
AcDbArc
 50
180.0
 51
269.4999999999824
  0
LINE
  5
1332
330
2
100
AcDbEntity
  8
0
100
AcDbLine
 10
1332.964299538766
 20
212.1812387031154
 30
0.0
 11
1332.964299538766
 21
195.8078544428503
 31
0.0
  0
LINE
  5
1333
330
2
100
AcDbEntity
  8
0
100
AcDbLine
 10
1332.964299538766
 20
182.8078544428503
 30
0.0
 11
1332.964299538766
 21
125.8078544428539
 31
0.0
  0
LINE
  5
1334
330
2
100
AcDbEntity
  8
0
100
AcDbLine
 10
1332.964299538766
 20
112.8078544428539
 30
0.0
 11
1332.964299538766
 21
96.4344701825907
 31
0.0
  0
ARC
  5
1335
330
2
100
AcDbEntity
  8
0
100
AcDbCircle
 10
1330.964299538766
 20
96.4344701825907
 30
0.0
 40
2.0
100
AcDbArc
 50
270.4999999999654
 51
0.0
  0
LINE
  5
1336
330
2
100
AcDbEntity
  8
0
100
AcDbLine
 10
1316.464299538764
 20
214.3078544428521
 30
0.0
 11
1316.464299538764
 21
195.4237081013929
 31
0.0
  0
LINE
  5
1337
330
2
100
AcDbEntity
  8
0
100
AcDbLine
 10
1316.464299538759
 20
113.1920007843131
 30
0.0
 11
1316.464299538757
 21
94.30785444285215
 31
0.0
  0
LINE
  5
1338
330
2
100
AcDbEntity
  8
0
100
AcDbLine
 10
1326.464299538763
 20
195.2379633437526
 30
0.0
 11
1326.464299538763
 21
181.3078544428503
 31
0.0
  0
ARC
  5
1339
330
2
100
AcDbEntity
  8
0
100
AcDbCircle
 10
1324.464299538763
 20
195.2379633437526
 30
0.0
 40
2.0
100
AcDbArc
 50
0.0
 51
89.49999999998238
  0
LINE
  5
133A
330
2
100
AcDbEntity
  8
0
100
AcDbLine
 10
1329.964299538763
 20
182.8078544428503
 30
0.0
 11
1329.964299538759
 21
125.8078544428539
 31
0.0
  0
ARC
  5
133B
330
2
100
AcDbEntity
  8
0
100
AcDbCircle
 10
1327.964299538765
 20
195.2074193064858
 30
0.0
 40
2.0
100
AcDbArc
 50
17.4706712373165
 51
89.49999999998238
  0
LINE
  5
133C
330
2
100
AcDbEntity
  8
0
100
AcDbLine
 10
1338.764299538767
 20
191.8078544428521
 30
0.0
 11
1336.464299538763
 21
191.8078544428521
 31
0.0
  0
LINE
  5
133D
330
2
100
AcDbEntity
  8
0
100
AcDbLine
 10
1334.964299538766
 20
109.1362815675988
 30
0.0
 11
1334.964299538768
 21
112.8078544428539
 31
0.0
  0
LINE
  5
133E
330
2
100
AcDbEntity
  8
0
100
AcDbLine
 10
1334.964299538768
 20
125.8078544428539
 30
0.0
 11
1334.964299538766
 21
182.8078544428503
 31
0.0
  0
LINE
  5
133F
330
2
100
AcDbEntity
  8
0
100
AcDbLine
 10
1334.964299538766
 20
195.8078544428503
 30
0.0
 11
1334.964299538766
 21
199.4794273181073
 31
0.0
  0
LINE
  5
1340
330
2
100
AcDbEntity
  8
0
100
AcDbLine
 10
1333.550085976393
 20
201.7220680052254
 30
0.0
 11
1334.37851310114
 21
200.8936408804788
 31
0.0
  0
LINE
  5
1341
330
2
100
AcDbEntity
  8
0
100
AcDbLine
 10
1342.464299538768
 20
191.8078544428521
 30
0.0
 11
1341.164299538767
 21
191.8078544428521
 31
0.0
  0
LINE
  5
1342
330
2
100
AcDbEntity
  8
0
100
AcDbLine
 10
1338.964299538768
 20
191.6078544428532
 30
0.0
 11
1338.764299538767
 21
191.8078544428521
 31
0.0
  0
LINE
  5
1343
330
2
100
AcDbEntity
  8
0
100
AcDbLine
 10
1340.764299538767
 20
191.1078544428532
 30
0.0
 11
1339.164299538767
 21
191.1078544428532
 31
0.0
  0
LINE
  5
1344
330
2
100
AcDbEntity
  8
0
100
AcDbLine
 10
1342.464299538766
 20
191.8078544428521
 30
0.0
 11
1343.464299538768
 21
191.2305041736621
 31
0.0
  0
LINE
  5
1345
330
2
100
AcDbEntity
  8
0
100
AcDbLine
 10
1316.464299538757
 20
94.30785444285215
 30
0.0
 11
1330.981752609764
 21
94.43454633646291
 31
0.0
  0
LINE
  5
1346
330
2
100
AcDbEntity
  8
0
100
AcDbLine
 10
1333.550085976393
 20
106.8936408804788
 30
0.0
 11
1334.37851310114
 21
107.7220680052254
 31
0.0
  0
LINE
  5
1347
330
2
100
AcDbEntity
  8
0
100
AcDbLine
 10
1343.464299538766
 20
191.2305041736621
 30
0.0
 11
1343.464299538766
 21
117.3852047120421
 31
0.0
  0
LINE
  5
1348
330
2
100
AcDbEntity
  8
0
100
AcDbLine
 10
1338.764299538767
 20
116.8078544428521
 30
0.0
 11
1336.464299538763
 21
116.8078544428521
 31
0.0
  0
LINE
  5
1349
330
2
100
AcDbEntity
  8
0
100
AcDbLine
 10
1335.464299538766
 20
125.8078544428539
 30
0.0
 11
1335.464299538766
 21
182.8078544428503
 31
0.0
  0
LINE
  5
134A
330
2
100
AcDbEntity
  8
0
100
AcDbLine
 10
1342.464299538766
 20
116.8078544428521
 30
0.0
 11
1341.164299538767
 21
116.8078544428521
 31
0.0
  0
LINE
  5
134B
330
2
100
AcDbEntity
  8
0
100
AcDbLine
 10
1340.964299538766
 20
117.0078544428528
 30
0.0
 11
1340.964299538766
 21
191.6078544428532
 31
0.0
  0
LINE
  5
134C
330
2
100
AcDbEntity
  8
0
100
AcDbLine
 10
1338.964299538766
 20
117.0078544428528
 30
0.0
 11
1338.964299538766
 21
191.6078544428532
 31
0.0
  0
LINE
  5
134D
330
2
100
AcDbEntity
  8
0
100
AcDbLine
 10
1340.764299538767
 20
117.5078544428528
 30
0.0
 11
1339.164299538767
 21
117.5078544428528
 31
0.0
  0
LINE
  5
134E
330
2
100
AcDbEntity
  8
0
100
AcDbLine
 10
1338.964299538766
 20
117.0078544428528
 30
0.0
 11
1338.764299538767
 21
116.8078544428521
 31
0.0
  0
LINE
  5
134F
330
2
100
AcDbEntity
  8
0
100
AcDbLine
 10
1342.464299538766
 20
116.8078544428521
 30
0.0
 11
1343.464299538766
 21
117.3852047120421
 31
0.0
  0
ARC
  5
1350
330
2
100
AcDbEntity
  8
0
100
AcDbCircle
 10
1332.964299538766
 20
199.4794273181073
 30
0.0
 40
2.0
100
AcDbArc
 50
0.0
 51
45.00000000001871
  0
ARC
  5
1351
330
2
100
AcDbEntity
  8
0
100
AcDbCircle
 10
1334.964299538766
 20
203.1362815675988
 30
0.0
 40
2.0
100
AcDbArc
 50
180.0
 51
225.0000000000184
  0
ARC
  5
1352
330
2
100
AcDbEntity
  8
0
100
AcDbCircle
 10
1332.964299538766
 20
109.1362815675988
 30
0.0
 40
2.0
100
AcDbArc
 50
314.9999999999816
 51
0.0
  0
ARC
  5
1353
330
2
100
AcDbEntity
  8
0
100
AcDbCircle
 10
1334.964299538766
 20
105.4794273181054
 30
0.0
 40
2.0
100
AcDbArc
 50
134.9999999999812
 51
180.0
  0
ARC
  5
1354
330
2
100
AcDbEntity
  8
0
100
AcDbCircle
 10
1341.164299538767
 20
117.0078544428528
 30
0.0
 40
0.2
100
AcDbArc
 50
180.0
 51
270.0
  0
ARC
  5
1355
330
2
100
AcDbEntity
  8
0
100
AcDbCircle
 10
1340.764299538767
 20
117.3078544428521
 30
0.0
 40
0.2
100
AcDbArc
 50
0.0
 51
90.0
  0
ARC
  5
1356
330
2
100
AcDbEntity
  8
0
100
AcDbCircle
 10
1339.164299538767
 20
117.3078544428521
 30
0.0
 40
0.2
100
AcDbArc
 50
90.0
 51
180.0
  0
ARC
  5
1357
330
2
100
AcDbEntity
  8
0
100
AcDbCircle
 10
1341.164299538767
 20
191.6078544428532
 30
0.0
 40
0.2
100
AcDbArc
 50
90.0
 51
180.0
  0
ARC
  5
1358
330
2
100
AcDbEntity
  8
0
100
AcDbCircle
 10
1340.764299538767
 20
191.3078544428521
 30
0.0
 40
0.2
100
AcDbArc
 50
270.0
 51
0.0
  0
ARC
  5
1359
330
2
100
AcDbEntity
  8
0
100
AcDbCircle
 10
1339.164299538767
 20
191.3078544428521
 30
0.0
 40
0.2
100
AcDbArc
 50
180.0
 51
270.0
  0
LINE
  5
135A
330
2
100
AcDbEntity
  8
0
100
AcDbLine
 10
1342.464299538766
 20
116.8078544428521
 30
0.0
 11
1342.464299538766
 21
191.8078544428521
 31
0.0
  0
LINE
  5
135B
330
2
100
AcDbEntity
  8
0
100
AcDbLine
 10
1338.764299538767
 20
116.8078544428521
 30
0.0
 11
1338.764299538767
 21
191.8078544428521
 31
0.0
  0
ARC
  5
135C
330
2
100
AcDbEntity
  8
0
100
AcDbCircle
 10
1330.964299538766
 20
212.1812387031154
 30
0.0
 40
2.0
100
AcDbArc
 50
0.0
 51
89.5000000000345
  0
LINE
  5
135D
330
2
100
AcDbEntity
  8
0
100
AcDbLine
 10
1316.464299538764
 20
214.3078544428521
 30
0.0
 11
1330.981752609764
 21
214.1811625492432
 31
0.0
  0
LINE
  5
135E
330
2
100
AcDbEntity
  8
0
100
AcDbLine
 10
1316.464299538763
 20
197.3078544428503
 30
0.0
 11
1327.98175260976
 21
197.2073431526136
 31
0.0
  0
LINE
  5
135F
330
2
100
AcDbEntity
  8
0
100
AcDbLine
 10
1326.964299538763
 20
180.8078544428503
 30
0.0
 11
1327.964299538763
 21
180.8078544428503
 31
0.0
  0
ARC
  5
1360
330
2
100
AcDbEntity
  8
0
100
AcDbCircle
 10
1326.964299538763
 20
181.3078544428503
 30
0.0
 40
0.5
100
AcDbArc
 50
179.9999999998957
 51
270.0000000000521
  0
ARC
  5
1361
330
2
100
AcDbEntity
  8
0
100
AcDbCircle
 10
1327.964299538763
 20
178.8078544428503
 30
0.0
 40
2.0
100
AcDbArc
 50
0.0
 51
90.0
  0
LINE
  5
1362
330
2
100
AcDbEntity
  8
0
100
AcDbLine
 10
1326.464299538763
 20
113.3777455419517
 30
0.0
 11
1326.464299538763
 21
127.3078544428539
 31
0.0
  0
ARC
  5
1363
330
2
100
AcDbEntity
  8
0
100
AcDbCircle
 10
1324.464299538763
 20
113.3777455419517
 30
0.0
 40
2.0
100
AcDbArc
 50
270.5000000000175
 51
0.0
  0
LINE
  5
1364
330
2
100
AcDbEntity
  8
0
100
AcDbLine
 10
1326.964299538763
 20
127.8078544428539
 30
0.0
 11
1327.964299538763
 21
127.8078544428539
 31
0.0
  0
ARC
  5
1365
330
2
100
AcDbEntity
  8
0
100
AcDbCircle
 10
1326.964299538763
 20
127.3078544428539
 30
0.0
 40
0.5
100
AcDbArc
 50
89.99999999994789
 51
180.0000000001042
  0
ARC
  5
1366
330
2
100
AcDbEntity
  8
0
100
AcDbCircle
 10
1327.964299538763
 20
129.8078544428539
 30
0.0
 40
2.0
100
AcDbArc
 50
270.0
 51
0.0
  0
LINE
  5
1367
330
2
100
AcDbEntity
  8
0
100
AcDbLine
 10
1316.464299538763
 20
111.3078544428539
 30
0.0
 11
1327.981752609757
 21
111.4083657330906
 31
0.0
  0
ARC
  5
1368
330
2
100
AcDbEntity
  8
0
100
AcDbCircle
 10
1327.964299538759
 20
113.4082895792184
 30
0.0
 40
2.0
100
AcDbArc
 50
270.5000000000175
 51
342.5293287626834
  0
LINE
  5
1369
330
2
100
AcDbEntity
  8
CENTER
  6
CENS
100
AcDbLine
 10
1337.964299538766
 20
189.3078544428503
 30
0.0
 11
1311.464299538763
 21
189.3078544428503
 31
0.0
  0
LINE
  5
136A
330
2
100
AcDbEntity
  8
0
100
AcDbLine
 10
1336.464299538763
 20
183.6738798466362
 30
0.0
 11
1336.464299538763
 21
194.9418290390662
 31
0.0
  0
LINE
  5
136B
330
2
100
AcDbEntity
  8
0
100
AcDbLine
 10
1326.464299538763
 20
182.8078544428503
 30
0.0
 11
1326.464299538763
 21
195.8078544428503
 31
0.0
  0
LINE
  5
136C
330
2
100
AcDbEntity
  8
0
100
AcDbLine
 10
1328.464299538762
 20
182.8078544428503
 30
0.0
 11
1328.464299538762
 21
195.8078544428503
 31
0.0
  0
LINE
  5
136D
330
2
100
AcDbEntity
  8
0
100
AcDbLine
 10
1335.964299538763
 20
195.8078544428503
 30
0.0
 11
1336.464299538763
 21
194.9418290390662
 31
0.0
  0
LINE
  5
136E
330
2
100
AcDbEntity
  8
0
100
AcDbLine
 10
1326.464299538763
 20
195.8078544428503
 30
0.0
 11
1328.464299538762
 21
195.8078544428503
 31
0.0
  0
LINE
  5
136F
330
2
100
AcDbEntity
  8
0
100
AcDbLine
 10
1328.464299538762
 20
195.8078544428503
 30
0.0
 11
1335.964299538763
 21
195.8078544428503
 31
0.0
  0
LINE
  5
1370
330
2
100
AcDbEntity
  8
0
100
AcDbLine
 10
1335.964299538763
 20
182.8078544428503
 30
0.0
 11
1336.464299538763
 21
183.6738798466344
 31
0.0
  0
LINE
  5
1371
330
2
100
AcDbEntity
  8
0
100
AcDbLine
 10
1326.464299538763
 20
182.8078544428503
 30
0.0
 11
1328.464299538762
 21
182.8078544428503
 31
0.0
  0
LINE
  5
1372
330
2
100
AcDbEntity
  8
0
100
AcDbLine
 10
1328.464299538762
 20
182.8078544428503
 30
0.0
 11
1335.964299538763
 21
182.8078544428503
 31
0.0
  0
LINE
  5
1373
330
2
100
AcDbEntity
  8
0
100
AcDbLine
 10
1335.964299538763
 20
182.8078544428503
 30
0.0
 11
1335.964299538763
 21
195.8078544428503
 31
0.0
  0
LINE
  5
1374
330
2
100
AcDbEntity
  8
CENTER
  6
CENS
100
AcDbLine
 10
1337.964299538766
 20
119.3078544428539
 30
0.0
 11
1311.464299538763
 21
119.3078544428539
 31
0.0
  0
LINE
  5
1375
330
2
100
AcDbEntity
  8
0
100
AcDbLine
 10
1336.464299538763
 20
124.9418290390698
 30
0.0
 11
1336.464299538763
 21
113.673879846638
 31
0.0
  0
LINE
  5
1376
330
2
100
AcDbEntity
  8
0
100
AcDbLine
 10
1326.464299538763
 20
125.8078544428539
 30
0.0
 11
1326.464299538763
 21
112.8078544428539
 31
0.0
  0
LINE
  5
1377
330
2
100
AcDbEntity
  8
0
100
AcDbLine
 10
1328.464299538762
 20
125.8078544428539
 30
0.0
 11
1328.464299538762
 21
112.8078544428539
 31
0.0
  0
LINE
  5
1378
330
2
100
AcDbEntity
  8
0
100
AcDbLine
 10
1335.964299538763
 20
112.8078544428539
 30
0.0
 11
1336.464299538763
 21
113.673879846638
 31
0.0
  0
LINE
  5
1379
330
2
100
AcDbEntity
  8
0
100
AcDbLine
 10
1326.464299538763
 20
112.8078544428539
 30
0.0
 11
1328.464299538762
 21
112.8078544428539
 31
0.0
  0
LINE
  5
137A
330
2
100
AcDbEntity
  8
0
100
AcDbLine
 10
1328.464299538762
 20
112.8078544428539
 30
0.0
 11
1335.964299538763
 21
112.8078544428539
 31
0.0
  0
LINE
  5
137B
330
2
100
AcDbEntity
  8
0
100
AcDbLine
 10
1335.964299538763
 20
125.8078544428539
 30
0.0
 11
1336.464299538763
 21
124.9418290390698
 31
0.0
  0
LINE
  5
137C
330
2
100
AcDbEntity
  8
0
100
AcDbLine
 10
1328.464299538762
 20
125.8078544428539
 30
0.0
 11
1335.964299538763
 21
125.8078544428539
 31
0.0
  0
LINE
  5
137D
330
2
100
AcDbEntity
  8
0
100
AcDbLine
 10
1335.964299538763
 20
125.8078544428539
 30
0.0
 11
1335.964299538763
 21
112.8078544428539
 31
0.0
  0
LINE
  5
137E
330
2
100
AcDbEntity
  8
0
100
AcDbLine
 10
1328.464299538762
 20
125.8078544428539
 30
0.0
 11
1326.464299538763
 21
125.8078544428539
 31
0.0
  0
LINE
  5
1385
330
2
100
AcDbEntity
  8
0
100
AcDbLine
 10
1336.464299538903
 20
198.6738798466362
 30
0.0
 11
1336.464299538903
 21
209.941829039068
 31
0.0
  0
LINE
  5
1386
330
2
100
AcDbEntity
  8
0
100
AcDbLine
 10
1335.964299538903
 20
210.8078544428521
 30
0.0
 11
1336.464299538903
 21
209.941829039068
 31
0.0
  0
LINE
  5
1387
330
2
100
AcDbEntity
  8
0
100
AcDbLine
 10
1332.964299538768
 20
210.8078544428521
 30
0.0
 11
1335.964299538903
 21
210.8078544428521
 31
0.0
  0
LINE
  5
1388
330
2
100
AcDbEntity
  8
CENTER
  6
CENS
100
AcDbLine
 10
1309.704417246907
 20
204.3078544428521
 30
0.0
 11
1339.464299538903
 21
204.3078544428521
 31
0.0
  0
LINE
  5
1389
330
2
100
AcDbEntity
  8
0
100
AcDbLine
 10
1335.964299538903
 20
197.8078544428521
 30
0.0
 11
1336.464299538903
 21
198.6738798466362
 31
0.0
  0
LINE
  5
138A
330
2
100
AcDbEntity
  8
0
100
AcDbLine
 10
1334.964299538766
 20
197.8078544428521
 30
0.0
 11
1335.964299538903
 21
197.8078544428521
 31
0.0
  0
LINE
  5
138B
330
2
100
AcDbEntity
  8
0
100
AcDbLine
 10
1335.964299538903
 20
197.8078544428521
 30
0.0
 11
1335.964299538903
 21
210.8078544428521
 31
0.0
  0
LINE
  5
138C
330
2
100
AcDbEntity
  8
0
100
AcDbLine
 10
1336.464299538903
 20
109.941829039068
 30
0.0
 11
1336.464299538903
 21
98.67387984663805
 31
0.0
  0
LINE
  5
138D
330
2
100
AcDbEntity
  8
0
100
AcDbLine
 10
1335.964299538903
 20
97.80785444285214
 30
0.0
 11
1336.464299538903
 21
98.67387984663805
 31
0.0
  0
LINE
  5
138E
330
2
100
AcDbEntity
  8
0
100
AcDbLine
 10
1332.964299538766
 20
97.80785444285214
 30
0.0
 11
1335.964299538903
 21
97.80785444285214
 31
0.0
  0
LINE
  5
138F
330
2
100
AcDbEntity
  8
CENTER
  6
CENS
100
AcDbLine
 10
1309.704417246907
 20
104.3078544428521
 30
0.0
 11
1339.464299538903
 21
104.3078544428521
 31
0.0
  0
LINE
  5
1390
330
2
100
AcDbEntity
  8
0
100
AcDbLine
 10
1334.964299538768
 20
110.8078544428521
 30
0.0
 11
1335.964299538903
 21
110.8078544428521
 31
0.0
  0
LINE
  5
1391
330
2
100
AcDbEntity
  8
0
100
AcDbLine
 10
1335.964299538903
 20
110.8078544428521
 30
0.0
 11
1335.964299538903
 21
97.80785444285214
 31
0.0
  0
LINE
  5
1392
330
2
100
AcDbEntity
  8
0
100
AcDbLine
 10
1335.964299538903
 20
110.8078544428521
 30
0.0
 11
1336.464299538903
 21
109.941829039068
 31
0.0
  0
LINE
  5
13A1
330
2
100
AcDbEntity
  8
0
100
AcDbLine
 10
968.4234616127538
 20
561.3475102207786
 30
0.0
 11
968.4234616127556
 21
502.0475102207784
 31
0.0
  0
LINE
  5
13A2
330
2
100
AcDbEntity
  8
0
100
AcDbLine
 10
990.4234616127537
 20
528.697510220778
 30
0.0
 11
990.4234616127537
 21
509.6975102207781
 31
0.0
  0
LINE
  5
13A3
330
2
100
AcDbEntity
  8
0
100
AcDbLine
 10
993.4234616127538
 20
531.6975102207781
 30
0.0
 11
1001.423461612751
 21
531.6975102207781
 31
0.0
  0
LINE
  5
13A4
330
2
100
AcDbEntity
  8
0
100
AcDbLine
 10
970.0290128882183
 20
571.6975102207781
 30
0.0
 11
1014.423461612752
 21
571.6975102207781
 31
0.0
  0
LINE
  5
13A5
330
2
100
AcDbEntity
  8
0
100
AcDbLine
 10
1004.423461612752
 20
566.697510220778
 30
0.0
 11
1004.423461612752
 21
534.6975102207781
 31
0.0
  0
ARC
  5
13A6
330
2
100
AcDbEntity
  8
0
100
AcDbCircle
 10
1009.423461612751
 20
566.697510220778
 30
0.0
 40
5.0
100
AcDbArc
 50
90.0
 51
180.0
  0
ARC
  5
13A7
330
2
100
AcDbEntity
  8
0
100
AcDbCircle
 10
1001.423461612751
 20
534.6975102207781
 30
0.0
 40
3.0
100
AcDbArc
 50
270.0
 51
0.0
  0
LINE
  5
13A8
330
2
100
AcDbEntity
  8
0
100
AcDbLine
 10
959.4234616127536
 20
572.6975102207781
 30
0.0
 11
966.4234616127556
 21
572.6975102207781
 31
0.0
  0
ARC
  5
13A9
330
2
100
AcDbEntity
  8
0
100
AcDbCircle
 10
970.0290128882183
 20
576.6975102207781
 30
0.0
 40
5.0
100
AcDbArc
 50
238.9972808660663
 51
270.0
  0
ARC
  5
13AA
330
2
100
AcDbEntity
  8
0
100
AcDbCircle
 10
966.4234616127556
 20
570.697510220778
 30
0.0
 40
2.0
100
AcDbArc
 50
18.96557498886337
 51
90.0
  0
ARC
  5
13AB
330
2
100
AcDbEntity
  8
0
100
AcDbCircle
 10
993.4234616127538
 20
528.697510220778
 30
0.0
 40
3.0
100
AcDbArc
 50
90.0
 51
180.0
  0
LINE
  5
13AC
330
2
100
AcDbEntity
  8
0
100
AcDbLine
 10
970.0290128882183
 20
491.697510220778
 30
0.0
 11
1014.423461612752
 21
491.697510220778
 31
0.0
  0
LINE
  5
13AD
330
2
100
AcDbEntity
  8
0
100
AcDbLine
 10
993.4234616127538
 20
506.6975102207781
 30
0.0
 11
1001.423461612751
 21
506.6975102207781
 31
0.0
  0
LINE
  5
13AE
330
2
100
AcDbEntity
  8
0
100
AcDbLine
 10
1004.423461612752
 20
503.697510220778
 30
0.0
 11
1004.423461612752
 21
496.6975102207781
 31
0.0
  0
ARC
  5
13AF
330
2
100
AcDbEntity
  8
0
100
AcDbCircle
 10
1001.423461612751
 20
503.697510220778
 30
0.0
 40
3.0
100
AcDbArc
 50
0.0
 51
90.0
  0
ARC
  5
13B0
330
2
100
AcDbEntity
  8
0
100
AcDbCircle
 10
1009.423461612751
 20
496.6975102207781
 30
0.0
 40
5.0
100
AcDbArc
 50
180.0
 51
270.0
  0
ARC
  5
13B1
330
2
100
AcDbEntity
  8
0
100
AcDbCircle
 10
993.4234616127538
 20
509.6975102207781
 30
0.0
 40
3.0
100
AcDbArc
 50
180.0
 51
270.0
  0
LINE
  5
13B2
330
2
100
AcDbEntity
  8
0
100
AcDbLine
 10
959.4234616127536
 20
490.697510220778
 30
0.0
 11
966.4234616127556
 21
490.697510220778
 31
0.0
  0
ARC
  5
13B3
330
2
100
AcDbEntity
  8
0
100
AcDbCircle
 10
970.0290128882183
 20
486.697510220778
 30
0.0
 40
5.0
100
AcDbArc
 50
90.0
 51
121.0027191339336
  0
ARC
  5
13B4
330
2
100
AcDbEntity
  8
0
100
AcDbCircle
 10
966.4234616127556
 20
492.6975102207781
 30
0.0
 40
2.0
100
AcDbArc
 50
270.0
 51
341.0344250111366
  0
LINE
  5
13B5
330
2
100
AcDbEntity
  8
0
100
AcDbLine
 10
1014.423461612752
 20
571.6975102207781
 30
0.0
 11
1014.423461612752
 21
491.697510220778
 31
0.0
  0
LINE
  5
13B6
330
2
100
AcDbEntity
  8
0
100
AcDbLine
 10
1248.903695717682
 20
195.307854442866
 30
0.0
 11
1261.091316192555
 21
195.3078544428669
 31
0.0
  0
LINE
  5
13B7
330
2
100
AcDbEntity
  8
0
100
AcDbLine
 10
1278.837282884969
 20
195.3078544428678
 30
0.0
 11
1321.024903359844
 21
195.3078544428714
 31
0.0
  0
CIRCLE
  5
13B8
330
2
100
AcDbEntity
  8
HIDS
100
AcDbCircle
 10
1284.964299538763
 20
154.307854442866
 30
0.0
 40
40.0
  0
CIRCLE
  5
13B9
330
2
100
AcDbEntity
  8
0
100
AcDbCircle
 10
1284.964299538763
 20
154.307854442866
 30
0.0
 40
34.99999999543831
  0
LINE
  5
13BA
330
2
100
AcDbEntity
  8
0
100
AcDbLine
 10
1252.964299538763
 20
194.307854442866
 30
0.0
 11
1316.964299538763
 21
194.307854442866
 31
0.0
  0
LINE
  5
13BB
330
2
100
AcDbEntity
  8
0
100
AcDbLine
 10
1252.964299538763
 20
114.307854442866
 30
0.0
 11
1316.871181240202
 21
114.3078544428669
 31
0.0
  0
LINE
  5
13BC
330
2
100
AcDbEntity
  8
0
100
AcDbLine
 10
1243.904067478714
 20
118.2468833667814
 30
0.0
 11
1243.464299538772
 21
154.307854442866
 31
0.0
  0
LINE
  5
13BD
330
2
100
AcDbEntity
  8
0
100
AcDbLine
 10
1245.057451683652
 20
122.2845834282995
 30
0.0
 11
1244.964299538763
 21
154.307854442866
 31
0.0
  0
ARC
  5
13BE
330
2
100
AcDbEntity
  8
0
100
AcDbCircle
 10
1248.903695717682
 20
118.3078544428669
 30
0.0
 40
5.0
100
AcDbArc
 50
180.6986943829997
 51
270.0
  0
ARC
  5
13BF
330
2
100
AcDbEntity
  8
0
100
AcDbCircle
 10
1253.057417837323
 20
122.307854442866
 30
0.0
 40
7.999999999999998
100
AcDbArc
 50
180.1666666000128
 51
270.0
  0
LINE
  5
13C0
330
2
100
AcDbEntity
  8
CENTER
100
AcDbLine
 10
1253.144299538763
 20
127.9878544428663
 30
0.0
 11
1253.144299538763
 21
116.9878544428663
 31
0.0
  0
LINE
  5
13C1
330
2
100
AcDbEntity
  8
CENTER
100
AcDbLine
 10
1247.644299538763
 20
122.4878544428663
 30
0.0
 11
1258.644299538763
 21
122.4878544428663
 31
0.0
  0
LINE
  5
13C2
330
2
100
AcDbEntity
  8
0
100
AcDbLine
 10
1243.904067478714
 20
190.3688255189505
 30
0.0
 11
1243.464299538772
 21
154.307854442866
 31
0.0
  0
LINE
  5
13C3
330
2
100
AcDbEntity
  8
HIDS
100
AcDbLine
 10
1264.214299538761
 20
194.307854442866
 30
0.0
 11
1264.552921175122
 21
174.9082338883105
 31
0.0
  0
LINE
  5
13C4
330
2
100
AcDbEntity
  8
HIDS
100
AcDbLine
 10
1275.714299538761
 20
194.307854442866
 30
0.0
 11
1275.494545255569
 21
181.7181399907392
 31
0.0
  0
LINE
  5
13C5
330
2
100
AcDbEntity
  8
0
100
AcDbLine
 10
1245.057451683652
 20
186.3311254574334
 30
0.0
 11
1244.964299538763
 21
154.307854442866
 31
0.0
  0
LINE
  5
13C6
330
2
100
AcDbEntity
  8
CENTER
100
AcDbLine
 10
1253.144299538763
 20
191.6278544428666
 30
0.0
 11
1253.144299538763
 21
180.6278544428666
 31
0.0
  0
ARC
  5
13C7
330
2
100
AcDbEntity
  8
HIDS
100
AcDbCircle
 10
1261.929694064994
 20
192.307854442866
 30
0.0
 40
2.0
100
AcDbArc
 50
90.0
 51
178.9999999999982
  0
ARC
  5
13C8
330
2
100
AcDbEntity
  8
0
100
AcDbCircle
 10
1248.903695717682
 20
190.307854442866
 30
0.0
 40
5.0
100
AcDbArc
 50
90.0
 51
179.3013056170263
  0
ARC
  5
13C9
330
2
100
AcDbEntity
  8
0
100
AcDbCircle
 10
1253.057417837323
 20
186.307854442866
 30
0.0
 40
7.999999999999998
100
AcDbArc
 50
90.0
 51
179.8333333999871
  0
LINE
  5
13CA
330
2
100
AcDbEntity
  8
CENTER
100
AcDbLine
 10
1247.644299538763
 20
186.1278544428666
 30
0.0
 11
1258.644299538763
 21
186.1278544428666
 31
0.0
  0
LINE
  5
13CB
330
2
100
AcDbEntity
  8
HIDS
100
AcDbLine
 10
1259.929998674682
 20
192.3427592557406
 30
0.0
 11
1259.832847712422
 21
186.7769843554739
 31
0.0
  0
ARC
  5
13CC
330
2
100
AcDbEntity
  8
HIDS
100
AcDbCircle
 10
1256.833304626951
 20
186.8293415747863
 30
0.0
 40
3.0
100
AcDbArc
 50
310.8597132650692
 51
358.9999999999982
  0
LINE
  5
13CD
330
2
100
AcDbEntity
  8
0
100
AcDbLine
 10
1326.024531598811
 20
118.2468833667814
 30
0.0
 11
1326.464299538754
 21
154.307854442835
 31
0.0
  0
LINE
  5
13CE
330
2
100
AcDbEntity
  8
0
100
AcDbLine
 10
1324.871147393873
 20
122.2845834282995
 30
0.0
 11
1324.964299538763
 21
154.307854442866
 31
0.0
  0
ARC
  5
13CF
330
2
100
AcDbEntity
  8
0
100
AcDbCircle
 10
1321.024903359844
 20
118.307854442866
 30
0.0
 40
5.0
100
AcDbArc
 50
270.0
 51
359.3013056170002
  0
ARC
  5
13D0
330
2
100
AcDbEntity
  8
0
100
AcDbCircle
 10
1316.871181240202
 20
122.307854442866
 30
0.0
 40
8.0
100
AcDbArc
 50
270.0
 51
359.8333334000132
  0
LINE
  5
13D1
330
2
100
AcDbEntity
  8
HIDS
100
AcDbLine
 10
1309.998600402844
 20
116.2729496299913
 30
0.0
 11
1310.095751365103
 21
121.838724530258
 31
0.0
  0
LINE
  5
13D2
330
2
100
AcDbEntity
  8
CENTER
100
AcDbLine
 10
1316.784299538762
 20
127.9878544428663
 30
0.0
 11
1316.784299538762
 21
116.9878544428663
 31
0.0
  0
ARC
  5
13D3
330
2
100
AcDbEntity
  8
HIDS
100
AcDbCircle
 10
1307.99890501253
 20
116.3078544428669
 30
0.0
 40
2.0
100
AcDbArc
 50
270.0
 51
358.9999999999982
  0
LINE
  5
13D4
330
2
100
AcDbEntity
  8
CENTER
100
AcDbLine
 10
1311.284299538762
 20
122.4878544428663
 30
0.0
 11
1322.284299538762
 21
122.4878544428663
 31
0.0
  0
ARC
  5
13D5
330
2
100
AcDbEntity
  8
HIDS
100
AcDbCircle
 10
1313.095294450572
 20
121.7863673109456
 30
0.0
 40
3.0
100
AcDbArc
 50
130.8597132650689
 51
178.9999999999982
  0
LINE
  5
13D6
330
2
100
AcDbEntity
  8
0
100
AcDbLine
 10
1326.024531598811
 20
190.3688255189514
 30
0.0
 11
1326.464299538754
 21
154.307854442835
 31
0.0
  0
LINE
  5
13D7
330
2
100
AcDbEntity
  8
0
100
AcDbLine
 10
1324.871147393873
 20
186.3311254574334
 30
0.0
 11
1324.964299538763
 21
154.307854442866
 31
0.0
  0
LINE
  5
13D8
330
2
100
AcDbEntity
  8
CENTER
100
AcDbLine
 10
1316.784299538762
 20
191.6278544428666
 30
0.0
 11
1316.784299538762
 21
180.6278544428666
 31
0.0
  0
ARC
  5
13D9
330
2
100
AcDbEntity
  8
0
100
AcDbCircle
 10
1316.871181240202
 20
186.307854442866
 30
0.0
 40
8.0
100
AcDbArc
 50
0.1666666000128655
 51
90.0
  0
LINE
  5
13DA
330
2
100
AcDbEntity
  8
CENTER
100
AcDbLine
 10
1311.284299538762
 20
186.1278544428666
 30
0.0
 11
1322.284299538762
 21
186.1278544428666
 31
0.0
  0
ARC
  5
13DB
330
2
100
AcDbEntity
  8
0
100
AcDbCircle
 10
1321.024903359844
 20
190.307854442866
 30
0.0
 40
5.0
100
AcDbArc
 50
0.6986943829736866
 51
90.0
  0
LINE
  5
13DC
330
2
100
AcDbEntity
  8
0
100
AcDbLine
 10
968.2338382184589
 20
165.1713714230525
 30
0.0
 11
967.7421048147753
 21
193.3427592557352
 31
0.0
  0
LINE
  5
13DD
330
2
100
AcDbEntity
  8
0
100
AcDbLine
 10
1005.035912049675
 20
189.3951164750503
 30
0.0
 11
1004.973878346871
 21
185.8412080216119
 31
0.0
  0
ARC
  5
13DE
330
2
100
AcDbEntity
  8
0
100
AcDbCircle
 10
965.7424094244634
 20
115.3078544428642
 30
0.0
 40
2.0
100
AcDbArc
 50
270.0
 51
358.9999999999982
  0
LINE
  5
13DF
330
2
100
AcDbEntity
  8
0
100
AcDbLine
 10
959.4234616127506
 20
154.3078544428642
 30
0.0
 11
961.8732925479735
 21
154.3078544428642
 31
0.0
  0
LINE
  5
13E0
330
2
100
AcDbEntity
  8
0
100
AcDbLine
 10
968.4234616127506
 20
154.3078544428642
 30
0.0
 11
967.742104814777
 21
115.2729496299896
 31
0.0
  0
LINE
  5
13E1
330
2
100
AcDbEntity
  8
0
100
AcDbLine
 10
1005.035912049675
 20
119.2205924106781
 30
0.0
 11
1004.423461612752
 21
154.3078544428642
 31
0.0
  0
LINE
  5
13E2
330
2
100
AcDbEntity
  8
0
100
AcDbLine
 10
1014.42346161275
 20
114.3078544428642
 30
0.0
 11
968.9046870846324
 21
114.3078544428642
 31
0.0
  0
ARC
  5
13E3
330
2
100
AcDbEntity
  8
0
100
AcDbCircle
 10
1010.035150525458
 20
119.3078544428642
 30
0.0
 40
5.0
100
AcDbArc
 50
181.0000000000017
 51
270.0
  0
LINE
  5
13E4
330
2
100
AcDbEntity
  8
0
100
AcDbLine
 10
959.4234616127506
 20
113.3078544428642
 30
0.0
 11
965.7424094244634
 21
113.3078544428642
 31
0.0
  0
ARC
  5
13E5
330
2
100
AcDbEntity
  8
0
100
AcDbCircle
 10
965.7424094244634
 20
193.3078544428651
 30
0.0
 40
2.0
100
AcDbArc
 50
0.9999999998975358
 51
90.0
  0
LINE
  5
13E6
330
2
100
AcDbEntity
  8
0
100
AcDbLine
 10
1014.42346161275
 20
194.3078544428642
 30
0.0
 11
968.9046870846324
 21
194.3078544428642
 31
0.0
  0
ARC
  5
13E7
330
2
100
AcDbEntity
  8
0
100
AcDbCircle
 10
1010.035150525458
 20
189.3078544428642
 30
0.0
 40
5.0
100
AcDbArc
 50
90.0
 51
178.9999999999982
  0
LINE
  5
13E8
330
2
100
AcDbEntity
  8
0
100
AcDbLine
 10
959.4234616127524
 20
195.3078544428642
 30
0.0
 11
965.7424094244634
 21
195.3078544428651
 31
0.0
  0
LINE
  5
13E9
330
2
100
AcDbEntity
  8
0
100
AcDbLine
 10
1014.42346161275
 20
194.3078544428642
 30
0.0
 11
1014.42346161275
 21
114.3078544428642
 31
0.0
  0
ARC
  5
13EA
330
2
100
AcDbEntity
  8
0
100
AcDbCircle
 10
968.9046870846324
 20
197.8078544428642
 30
0.0
 40
3.5
100
AcDbArc
 50
234.9031987723859
 51
270.0
  0
ARC
  5
13EB
330
2
100
AcDbEntity
  8
0
100
AcDbCircle
 10
968.9046870846324
 20
110.8078544428642
 30
0.0
 40
3.5
100
AcDbArc
 50
90.0
 51
125.0968012276146
  0
ARC
  5
13EC
330
2
100
AcDbEntity
  8
0
100
AcDbCircle
 10
1307.560342978949
 20
234.0886457548291
 30
0.0
 40
40.0
100
AcDbArc
 50
263.8230035951091
 51
263.9988421367181
  0
ARC
  5
13ED
330
2
100
AcDbEntity
  8
0
100
AcDbCircle
 10
1262.368256098577
 20
74.52706313090283
 30
0.0
 40
40.0
100
AcDbArc
 50
83.82300359510905
 51
83.99884213682296
  0
LINE
  5
13EE
330
2
100
AcDbEntity
  8
0
100
AcDbLine
 10
1248.903695717682
 20
113.307854442866
 30
0.0
 11
1321.024903359844
 21
113.307854442866
 31
0.0
  0
ARC
  5
13EF
330
2
100
AcDbEntity
  8
0
100
AcDbCircle
 10
1307.560342978949
 20
74.52706313090374
 30
0.0
 40
40.0
100
AcDbArc
 50
96.00115786317706
 51
96.17699640489092
  0
LINE
  5
13F0
330
2
100
AcDbEntity
  8
CENTER
  6
CENS
100
AcDbLine
 10
952.8186436129798
 20
188.9578544428648
 30
0.0
 11
979.81864361298
 21
188.9578544428648
 31
0.0
  0
LINE
  5
13F1
330
2
100
AcDbEntity
  8
0
100
AcDbLine
 10
974.5059189376116
 20
183.9578544428648
 30
0.0
 11
974.5059189376116
 21
193.9578544428647
 31
0.0
  0
LINE
  5
13F2
330
2
100
AcDbEntity
  8
0
100
AcDbLine
 10
974.9059189376112
 20
193.2650341198375
 30
0.0
 11
974.9059189376112
 21
184.650674765892
 31
0.0
  0
LINE
  5
13F3
330
2
100
AcDbEntity
  8
0
100
AcDbLine
 10
968.9059189376111
 20
183.9578544428648
 30
0.0
 11
968.9059189376111
 21
193.9578544428647
 31
0.0
  0
LINE
  5
13F4
330
2
100
AcDbEntity
  8
0
100
AcDbLine
 10
968.9059189376111
 20
193.9578544428647
 30
0.0
 11
967.9059189376111
 21
193.9578544428647
 31
0.0
  0
LINE
  5
13F5
330
2
100
AcDbEntity
  8
0
100
AcDbLine
 10
967.9059189376111
 20
193.9578544428647
 30
0.0
 11
967.9059189376111
 21
183.9578544428648
 31
0.0
  0
LINE
  5
13F6
330
2
100
AcDbEntity
  8
0
100
AcDbLine
 10
967.9059189376111
 20
183.9578544428648
 30
0.0
 11
968.9059189376111
 21
183.9578544428648
 31
0.0
  0
LINE
  5
13F7
330
2
100
AcDbEntity
  8
0
100
AcDbLine
 10
968.9059189376111
 20
183.9578544428648
 30
0.0
 11
968.9059189376111
 21
193.9578544428647
 31
0.0
  0
LINE
  5
13F8
330
2
100
AcDbEntity
  8
0
100
AcDbLine
 10
974.5059189376116
 20
183.9578544428648
 30
0.0
 11
968.9059189376111
 21
183.9578544428648
 31
0.0
  0
LINE
  5
13F9
330
2
100
AcDbEntity
  8
0
100
AcDbLine
 10
968.9059189376111
 20
193.9578544428647
 30
0.0
 11
974.5059189376116
 21
193.9578544428647
 31
0.0
  0
LINE
  5
13FA
330
2
100
AcDbEntity
  8
0
100
AcDbLine
 10
974.5059189376116
 20
193.9578544428647
 30
0.0
 11
974.9059189376112
 21
193.2650341198375
 31
0.0
  0
LINE
  5
13FB
330
2
100
AcDbEntity
  8
0
100
AcDbLine
 10
974.5059189376116
 20
183.9578544428648
 30
0.0
 11
974.9059189376112
 21
184.650674765892
 31
0.0
  0
LINE
  5
13FC
330
2
100
AcDbEntity
  8
CENTER
  6
CENS
100
AcDbLine
 10
952.8186436129798
 20
119.6578544428646
 30
0.0
 11
979.81864361298
 21
119.6578544428646
 31
0.0
  0
LINE
  5
13FD
330
2
100
AcDbEntity
  8
0
100
AcDbLine
 10
974.5059189376116
 20
124.6578544428646
 30
0.0
 11
974.5059189376116
 21
114.6578544428646
 31
0.0
  0
LINE
  5
13FE
330
2
100
AcDbEntity
  8
0
100
AcDbLine
 10
974.9059189376112
 20
115.3506747658918
 30
0.0
 11
974.9059189376112
 21
123.9650341198364
 31
0.0
  0
LINE
  5
13FF
330
2
100
AcDbEntity
  8
0
100
AcDbLine
 10
968.9059189376111
 20
124.6578544428646
 30
0.0
 11
968.9059189376111
 21
114.6578544428646
 31
0.0
  0
LINE
  5
1400
330
2
100
AcDbEntity
  8
0
100
AcDbLine
 10
968.9059189376111
 20
114.6578544428646
 30
0.0
 11
967.9059189376111
 21
114.6578544428646
 31
0.0
  0
LINE
  5
1401
330
2
100
AcDbEntity
  8
0
100
AcDbLine
 10
967.9059189376111
 20
114.6578544428646
 30
0.0
 11
967.9059189376111
 21
124.6578544428646
 31
0.0
  0
LINE
  5
1402
330
2
100
AcDbEntity
  8
0
100
AcDbLine
 10
967.9059189376111
 20
124.6578544428646
 30
0.0
 11
968.9059189376111
 21
124.6578544428646
 31
0.0
  0
LINE
  5
1403
330
2
100
AcDbEntity
  8
0
100
AcDbLine
 10
968.9059189376111
 20
124.6578544428646
 30
0.0
 11
968.9059189376111
 21
114.6578544428646
 31
0.0
  0
LINE
  5
1404
330
2
100
AcDbEntity
  8
0
100
AcDbLine
 10
974.5059189376116
 20
124.6578544428646
 30
0.0
 11
968.9059189376111
 21
124.6578544428646
 31
0.0
  0
LINE
  5
1405
330
2
100
AcDbEntity
  8
0
100
AcDbLine
 10
968.9059189376111
 20
114.6578544428646
 30
0.0
 11
974.5059189376116
 21
114.6578544428646
 31
0.0
  0
LINE
  5
1406
330
2
100
AcDbEntity
  8
0
100
AcDbLine
 10
974.5059189376116
 20
114.6578544428646
 30
0.0
 11
974.9059189376112
 21
115.3506747658918
 31
0.0
  0
LINE
  5
1407
330
2
100
AcDbEntity
  8
0
100
AcDbLine
 10
974.5059189376116
 20
124.6578544428646
 30
0.0
 11
974.9059189376112
 21
123.9650341198364
 31
0.0
  0
LINE
  5
1408
330
2
100
AcDbEntity
  8
CENTER
  6
CENS
100
AcDbLine
 10
952.8186436129812
 20
497.0475102207784
 30
0.0
 11
979.8186436129812
 21
497.0475102207784
 31
0.0
  0
LINE
  5
1409
330
2
100
AcDbEntity
  8
0
100
AcDbLine
 10
974.505918937613
 20
502.0475102207784
 30
0.0
 11
974.505918937613
 21
492.0475102207785
 31
0.0
  0
LINE
  5
140A
330
2
100
AcDbEntity
  8
0
100
AcDbLine
 10
974.9059189376126
 20
492.7403305438057
 30
0.0
 11
974.9059189376126
 21
501.3546898977511
 31
0.0
  0
LINE
  5
140B
330
2
100
AcDbEntity
  8
0
100
AcDbLine
 10
968.9059189376125
 20
502.0475102207784
 30
0.0
 11
968.9059189376125
 21
492.0475102207785
 31
0.0
  0
LINE
  5
140C
330
2
100
AcDbEntity
  8
0
100
AcDbLine
 10
968.9059189376125
 20
492.0475102207785
 30
0.0
 11
967.9059189376125
 21
492.0475102207785
 31
0.0
  0
LINE
  5
140D
330
2
100
AcDbEntity
  8
0
100
AcDbLine
 10
967.9059189376125
 20
492.0475102207785
 30
0.0
 11
967.9059189376125
 21
502.0475102207784
 31
0.0
  0
LINE
  5
140E
330
2
100
AcDbEntity
  8
0
100
AcDbLine
 10
967.9059189376125
 20
502.0475102207784
 30
0.0
 11
968.9059189376125
 21
502.0475102207784
 31
0.0
  0
LINE
  5
140F
330
2
100
AcDbEntity
  8
0
100
AcDbLine
 10
968.9059189376125
 20
502.0475102207784
 30
0.0
 11
968.9059189376125
 21
492.0475102207785
 31
0.0
  0
LINE
  5
1410
330
2
100
AcDbEntity
  8
0
100
AcDbLine
 10
974.505918937613
 20
502.0475102207784
 30
0.0
 11
968.9059189376125
 21
502.0475102207784
 31
0.0
  0
LINE
  5
1411
330
2
100
AcDbEntity
  8
0
100
AcDbLine
 10
968.9059189376125
 20
492.0475102207785
 30
0.0
 11
974.505918937613
 21
492.0475102207785
 31
0.0
  0
LINE
  5
1412
330
2
100
AcDbEntity
  8
0
100
AcDbLine
 10
974.505918937613
 20
492.0475102207785
 30
0.0
 11
974.9059189376126
 21
492.7403305438057
 31
0.0
  0
LINE
  5
1413
330
2
100
AcDbEntity
  8
0
100
AcDbLine
 10
974.505918937613
 20
502.0475102207784
 30
0.0
 11
974.9059189376126
 21
501.3546898977511
 31
0.0
  0
LINE
  5
1414
330
2
100
AcDbEntity
  8
CENTER
  6
CENS
100
AcDbLine
 10
952.8186436129812
 20
566.3475102207786
 30
0.0
 11
979.8186436129812
 21
566.3475102207786
 31
0.0
  0
LINE
  5
1415
330
2
100
AcDbEntity
  8
0
100
AcDbLine
 10
974.505918937613
 20
561.3475102207786
 30
0.0
 11
974.505918937613
 21
571.3475102207786
 31
0.0
  0
LINE
  5
1416
330
2
100
AcDbEntity
  8
0
100
AcDbLine
 10
974.9059189376126
 20
570.6546898977514
 30
0.0
 11
974.9059189376126
 21
562.0403305438068
 31
0.0
  0
LINE
  5
1417
330
2
100
AcDbEntity
  8
0
100
AcDbLine
 10
968.9059189376125
 20
561.3475102207786
 30
0.0
 11
968.9059189376125
 21
571.3475102207786
 31
0.0
  0
LINE
  5
1418
330
2
100
AcDbEntity
  8
0
100
AcDbLine
 10
968.9059189376125
 20
571.3475102207786
 30
0.0
 11
967.9059189376125
 21
571.3475102207786
 31
0.0
  0
LINE
  5
1419
330
2
100
AcDbEntity
  8
0
100
AcDbLine
 10
967.9059189376125
 20
571.3475102207786
 30
0.0
 11
967.9059189376125
 21
561.3475102207786
 31
0.0
  0
LINE
  5
141A
330
2
100
AcDbEntity
  8
0
100
AcDbLine
 10
967.9059189376125
 20
561.3475102207786
 30
0.0
 11
968.9059189376125
 21
561.3475102207786
 31
0.0
  0
LINE
  5
141B
330
2
100
AcDbEntity
  8
0
100
AcDbLine
 10
968.9059189376125
 20
561.3475102207786
 30
0.0
 11
968.9059189376125
 21
571.3475102207786
 31
0.0
  0
LINE
  5
141C
330
2
100
AcDbEntity
  8
0
100
AcDbLine
 10
974.505918937613
 20
561.3475102207786
 30
0.0
 11
968.9059189376125
 21
561.3475102207786
 31
0.0
  0
LINE
  5
141D
330
2
100
AcDbEntity
  8
0
100
AcDbLine
 10
968.9059189376125
 20
571.3475102207786
 30
0.0
 11
974.505918937613
 21
571.3475102207786
 31
0.0
  0
LINE
  5
141E
330
2
100
AcDbEntity
  8
0
100
AcDbLine
 10
974.505918937613
 20
571.3475102207786
 30
0.0
 11
974.9059189376126
 21
570.6546898977514
 31
0.0
  0
LINE
  5
141F
330
2
100
AcDbEntity
  8
0
100
AcDbLine
 10
974.505918937613
 20
561.3475102207786
 30
0.0
 11
974.9059189376126
 21
562.0403305438059
 31
0.0
  0
LINE
  5
1420
330
2
100
AcDbEntity
  8
0
100
AcDbLine
 10
1014.42346161275
 20
189.3078544428642
 30
0.0
 11
1007.42346161275
 21
189.3078544428642
 31
0.0
  0
LINE
  5
1421
330
2
100
AcDbEntity
  8
0
100
AcDbLine
 10
1007.42346161275
 20
189.3078544428642
 30
0.0
 11
1007.42346161275
 21
154.3078544428642
 31
0.0
  0
LINE
  5
1423
330
2
100
AcDbEntity
  8
0
100
AcDbLine
 10
1007.42346161275
 20
174.0578544428642
 30
0.0
 11
1007.423461612752
 21
154.3078544428642
 31
0.0
  0
SPLINE
  5
1424
330
2
100
AcDbEntity
  8
HOJO
100
AcDbSpline
210
0.0
220
0.0
230
1.0
 70
     8
 71
     3
 72
    20
 73
    16
 74
     0
 42
0.0000000001
 43
0.0000000001
 40
1.102548511336045
 40
1.102548511336045
 40
1.102548511336045
 40
1.102548511336045
 40
5.647385924430076
 40
9.759277458584113
 40
14.59638394258456
 40
18.6386056126129
 40
22.25598020257161
 40
26.57819511411361
 40
31.00332353479096
 40
40.39337194914635
 40
45.49899296170218
 40
52.02718752358933
 40
57.17041693382338
 40
65.63449353306062
 40
69.3611614947018
 40
69.3611614947018
 40
69.3611614947018
 40
69.3611614947018
 10
1010.834213535059
 20
194.3078544428642
 30
0.0
 10
1009.425426014666
 20
193.5794269931763
 30
0.0
 10
1006.912740052906
 20
192.0487143710176
 30
0.0
 10
1005.591813806779
 20
187.4841917136634
 30
0.0
 10
1004.441904481231
 20
184.0926222191453
 30
0.0
 10
1000.954148069242
 20
180.4188570079011
 30
0.0
 10
999.2823128928794
 20
176.8934968779219
 30
0.0
 10
997.3050663324247
 20
173.342780180427
 30
0.0
 10
993.9172850198611
 20
167.7537355919728
 30
0.0
 10
986.392925975546
 20
167.9293120395639
 30
0.0
 10
979.6645866188974
 20
166.7829415060666
 30
0.0
 10
974.3213200734899
 20
166.0463264225934
 30
0.0
 10
967.3225395591034
 20
166.3163054621788
 30
0.0
 10
963.6078067598791
 20
159.2421637849072
 30
0.0
 10
962.2859653210834
 20
155.4722572917314
 30
0.0
 10
961.8732925479744
 20
154.3078544428642
 30
0.0
  0
LINE
  5
1425
330
2
100
AcDbEntity
  8
HIDS
100
AcDbLine
 10
1274.964299538763
 20
171.3390757731173
 30
0.0
 11
1274.964299538763
 21
159.307854442866
 31
0.0
  0
LINE
  5
1426
330
2
100
AcDbEntity
  8
CENTER
  6
CENS
100
AcDbLine
 10
1269.964299538763
 20
203.4315388655692
 30
0.0
 11
1269.964299538763
 21
138.4601892853367
 31
0.0
  0
LINE
  5
1427
330
2
100
AcDbEntity
  8
0
100
AcDbLine
 10
1265.228545182773
 20
153.557854442866
 30
0.0
 11
1275.493951076325
 21
153.557854442866
 31
0.0
  0
LINE
  5
1428
330
2
100
AcDbEntity
  8
0
100
AcDbLine
 10
1265.228545182773
 20
155.057854442866
 30
0.0
 11
1275.493951076325
 21
155.057854442866
 31
0.0
  0
LINE
  5
1429
330
2
100
AcDbEntity
  8
0
100
AcDbLine
 10
1302.164299538762
 20
153.557854442866
 30
0.0
 11
1302.164299538762
 21
155.057854442866
 31
0.0
  0
LINE
  5
142A
330
2
100
AcDbEntity
  8
0
100
AcDbLine
 10
1294.434648001201
 20
153.557854442866
 30
0.0
 11
1302.164299538762
 21
153.557854442866
 31
0.0
  0
LINE
  5
142B
330
2
100
AcDbEntity
  8
0
100
AcDbLine
 10
1294.434648001201
 20
155.057854442866
 30
0.0
 11
1302.164299538762
 21
155.057854442866
 31
0.0
  0
LINE
  5
142C
330
2
100
AcDbEntity
  8
HIDS
100
AcDbLine
 10
1272.464299538763
 20
153.557854442866
 30
0.0
 11
1272.464299538763
 21
139.0169257594931
 31
0.0
  0
LINE
  5
142D
330
2
100
AcDbEntity
  8
HIDS
100
AcDbLine
 10
1272.047632872097
 20
153.557854442866
 30
0.0
 11
1272.047632872097
 21
139.3672312221894
 31
0.0
  0
LINE
  5
142E
330
2
100
AcDbEntity
  8
HIDS
100
AcDbLine
 10
1267.880966205429
 20
153.557854442866
 30
0.0
 11
1267.880966205429
 21
144.397141944654
 31
0.0
  0
LINE
  5
142F
330
2
100
AcDbEntity
  8
HIDS
100
AcDbLine
 10
1267.464299538763
 20
153.557854442866
 30
0.0
 11
1267.464299538763
 21
145.1529377310659
 31
0.0
  0
LINE
  5
1430
330
2
100
AcDbEntity
  8
HIDS
100
AcDbLine
 10
1272.964299538763
 20
159.307854442866
 30
0.0
 11
1272.964299538763
 21
155.057854442866
 31
0.0
  0
LINE
  5
1431
330
2
100
AcDbEntity
  8
HIDS
100
AcDbLine
 10
1266.964299538763
 20
159.307854442866
 30
0.0
 11
1266.964299538763
 21
155.057854442866
 31
0.0
  0
LINE
  5
1432
330
2
100
AcDbEntity
  8
HIDS
100
AcDbLine
 10
1265.857690734478
 20
159.307854442866
 30
0.0
 11
1274.964299538763
 21
159.307854442866
 31
0.0
  0
LINE
  5
1433
330
2
100
AcDbEntity
  8
HIDS
100
AcDbLine
 10
1274.214299538763
 20
159.307854442866
 30
0.0
 11
1274.214299538763
 21
164.0078544428658
 31
0.0
  0
LINE
  5
1434
330
2
100
AcDbEntity
  8
0
100
AcDbLine
 10
1265.714299538763
 20
164.0078544428658
 30
0.0
 11
1265.714299538763
 21
159.307854442866
 31
0.0
  0
LINE
  5
1435
330
2
100
AcDbEntity
  8
HIDS
100
AcDbLine
 10
1272.464299538763
 20
145.307854442866
 30
0.0
 11
1271.464299538763
 21
144.307854442866
 31
0.0
  0
LINE
  5
1436
330
2
100
AcDbEntity
  8
HIDS
100
AcDbLine
 10
1267.464299538763
 20
145.307854442866
 30
0.0
 11
1268.464299538763
 21
144.307854442866
 31
0.0
  0
LINE
  5
1437
330
2
100
AcDbEntity
  8
HIDS
100
AcDbLine
 10
1271.464299538763
 20
144.307854442866
 30
0.0
 11
1269.964299538763
 21
144.307854442866
 31
0.0
  0
LINE
  5
1438
330
2
100
AcDbEntity
  8
HIDS
100
AcDbLine
 10
1268.464299538763
 20
144.307854442866
 30
0.0
 11
1269.964299538763
 21
144.307854442866
 31
0.0
  0
LINE
  5
1439
330
2
100
AcDbEntity
  8
HIDS
100
AcDbLine
 10
1272.464299538763
 20
159.307854442866
 30
0.0
 11
1272.464299538763
 21
155.057854442866
 31
0.0
  0
LINE
  5
143A
330
2
100
AcDbEntity
  8
HIDS
100
AcDbLine
 10
1272.047632872097
 20
157.224521109533
 30
0.0
 11
1272.047632872097
 21
155.057854442866
 31
0.0
  0
LINE
  5
143B
330
2
100
AcDbEntity
  8
HIDS
100
AcDbLine
 10
1267.880966205429
 20
157.224521109533
 30
0.0
 11
1267.880966205429
 21
155.057854442866
 31
0.0
  0
LINE
  5
143C
330
2
100
AcDbEntity
  8
HIDS
100
AcDbLine
 10
1267.464299538763
 20
159.307854442866
 30
0.0
 11
1267.464299538763
 21
155.057854442866
 31
0.0
  0
LINE
  5
143D
330
2
100
AcDbEntity
  8
HIDS
100
AcDbLine
 10
1272.464299538763
 20
145.307854442866
 30
0.0
 11
1269.964299538763
 21
145.307854442866
 31
0.0
  0
LINE
  5
143E
330
2
100
AcDbEntity
  8
HIDS
100
AcDbLine
 10
1267.464299538763
 20
145.307854442866
 30
0.0
 11
1269.964299538763
 21
145.307854442866
 31
0.0
  0
LINE
  5
143F
330
2
100
AcDbEntity
  8
HIDS
100
AcDbLine
 10
1272.464299538763
 20
157.224521109533
 30
0.0
 11
1267.464299538763
 21
157.224521109533
 31
0.0
  0
LINE
  5
1440
330
2
100
AcDbEntity
  8
0
100
AcDbLine
 10
1265.714299538763
 20
159.307854442866
 30
0.0
 11
1265.857690734478
 21
159.307854442866
 31
0.0
  0
LINE
  5
1441
330
2
100
AcDbEntity
  8
HIDS
100
AcDbLine
 10
1267.464299538763
 20
159.307854442866
 30
0.0
 11
1267.880966205429
 21
157.224521109533
 31
0.0
  0
LINE
  5
1442
330
2
100
AcDbEntity
  8
HIDS
100
AcDbLine
 10
1272.464299538763
 20
159.307854442866
 30
0.0
 11
1272.047632872097
 21
157.224521109533
 31
0.0
  0
LINE
  5
1443
330
2
100
AcDbEntity
  8
0
100
AcDbLine
 10
1265.714299538763
 20
164.0078544428658
 30
0.0
 11
1267.760448225758
 21
164.0078544428658
 31
0.0
  0
LINE
  5
1444
330
2
100
AcDbEntity
  8
HIDS
100
AcDbLine
 10
1273.694684296492
 20
164.307854442866
 30
0.0
 11
1267.933078208511
 21
164.307854442866
 31
0.0
  0
LINE
  5
1445
330
2
100
AcDbEntity
  8
0
100
AcDbLine
 10
1265.714299538763
 20
164.0078544428658
 30
0.0
 11
1266.233914781033
 21
164.307854442866
 31
0.0
  0
LINE
  5
1446
330
2
100
AcDbEntity
  8
HIDS
100
AcDbLine
 10
1273.694684296492
 20
164.307854442866
 30
0.0
 11
1274.214299538763
 21
164.0078544428658
 31
0.0
  0
LINE
  5
1447
330
2
100
AcDbEntity
  8
HIDS
100
AcDbLine
 10
1265.857690734478
 20
159.307854442866
 30
0.0
 11
1274.214299538763
 21
159.307854442866
 31
0.0
  0
LINE
  5
1448
330
2
100
AcDbEntity
  8
0
100
AcDbLine
 10
1267.933078208511
 20
164.307854442866
 30
0.0
 11
1266.233914781033
 21
164.307854442866
 31
0.0
  0
LINE
  5
1449
330
2
100
AcDbEntity
  8
HIDS
100
AcDbLine
 10
1267.760448225758
 20
164.0078544428658
 30
0.0
 11
1274.214299538763
 21
164.0078544428658
 31
0.0
  0
LINE
  5
144A
330
2
100
AcDbEntity
  8
0
100
AcDbLine
 10
1272.464299538763
 20
155.057854442866
 30
0.0
 11
1272.464299538763
 21
153.557854442866
 31
0.0
  0
LINE
  5
144B
330
2
100
AcDbEntity
  8
HOJO
100
AcDbLine
 10
1272.047632872097
 20
155.057854442866
 30
0.0
 11
1272.047632872097
 21
153.557854442866
 31
0.0
  0
LINE
  5
144C
330
2
100
AcDbEntity
  8
HOJO
100
AcDbLine
 10
1267.880966205429
 20
155.057854442866
 30
0.0
 11
1267.880966205429
 21
153.557854442866
 31
0.0
  0
LINE
  5
144D
330
2
100
AcDbEntity
  8
0
100
AcDbLine
 10
1267.464299538763
 20
155.057854442866
 30
0.0
 11
1267.464299538763
 21
153.557854442866
 31
0.0
  0
LINE
  5
144E
330
2
100
AcDbEntity
  8
HIDS
100
AcDbLine
 10
1267.464299538763
 20
153.557854442866
 30
0.0
 11
1267.464299538763
 21
145.307854442866
 31
0.0
  0
LINE
  5
144F
330
2
100
AcDbEntity
  8
HIDS
100
AcDbLine
 10
1272.047632872097
 20
153.557854442866
 30
0.0
 11
1272.047632872097
 21
144.891187776199
 31
0.0
  0
LINE
  5
1450
330
2
100
AcDbEntity
  8
HIDS
100
AcDbLine
 10
1272.464299538763
 20
153.557854442866
 30
0.0
 11
1272.464299538763
 21
145.307854442866
 31
0.0
  0
LINE
  5
1451
330
2
100
AcDbEntity
  8
HIDS
100
AcDbLine
 10
1267.880966205429
 20
153.557854442866
 30
0.0
 11
1267.880966205429
 21
144.891187776199
 31
0.0
  0
CIRCLE
  5
1452
330
2
100
AcDbEntity
  8
0
100
AcDbCircle
 10
1284.964299538763
 20
154.307854442866
 30
0.0
 40
19.75
  0
LINE
  5
1453
330
2
100
AcDbEntity
  8
0
100
AcDbLine
 10
1264.964299538763
 20
198.307854442866
 30
0.0
 11
1274.964299538763
 21
198.307854442866
 31
0.0
  0
ARC
  5
1454
330
2
100
AcDbEntity
  8
0
100
AcDbCircle
 10
1274.964299538763
 20
194.307854442866
 30
0.0
 40
4.0
100
AcDbArc
 50
0.0
 51
90.0
  0
ARC
  5
1455
330
2
100
AcDbEntity
  8
0
100
AcDbCircle
 10
1264.964299538763
 20
194.307854442866
 30
0.0
 40
4.0
100
AcDbArc
 50
90.0
 51
180.0
  0
LINE
  5
1456
330
2
100
AcDbEntity
  8
0
100
AcDbLine
 10
1005.423461612714
 20
198.3078544428642
 30
0.0
 11
995.4234616127141
 21
198.3078544428642
 31
0.0
  0
ARC
  5
1457
330
2
100
AcDbEntity
  8
0
100
AcDbCircle
 10
995.4234616127141
 20
194.3078544428642
 30
0.0
 40
4.0
100
AcDbArc
 50
90.0
 51
180.0
  0
ARC
  5
1458
330
2
100
AcDbEntity
  8
0
100
AcDbCircle
 10
1005.423461612714
 20
194.3078544428642
 30
0.0
 40
4.0
100
AcDbArc
 50
0.0
 51
90.0
  0
LINE
  5
1459
330
2
100
AcDbEntity
  8
CENTER
  6
CENS
100
AcDbLine
 10
1000.423461612714
 20
203.4315388655675
 30
0.0
 11
1000.423461612714
 21
180.0716128632027
 31
0.0
  0
CIRCLE
  5
145A
330
2
100
AcDbEntity
  8
0
100
AcDbCircle
 10
1000.423461612753
 20
516.697510220778
 30
0.0
 40
9.0
  0
LINE
  5
145B
330
2
100
AcDbEntity
  8
CENTER
  6
CENS
100
AcDbLine
 10
1000.423461612753
 20
502.7629430330891
 30
0.0
 11
1000.423461612753
 21
530.6320774084671
 31
0.0
  0
LINE
  5
145C
330
2
100
AcDbEntity
  8
CENTER
  6
CENS
100
AcDbLine
 10
1014.358028800442
 20
516.697510220778
 30
0.0
 11
986.4888944250647
 21
516.697510220778
 31
0.0
  0
CIRCLE
  5
145D
330
2
100
AcDbEntity
  8
CENTER
100
AcDbCircle
 10
1284.964299538763
 20
154.307854442866
 30
0.0
 40
45.0002755547118
  0
LINE
  5
145E
330
2
100
AcDbEntity
  8
0
100
AcDbLine
 10
1244.964299538655
 20
154.307854442866
 30
0.0
 11
1243.464299538772
 21
154.307854442866
 31
0.0
  0
LINE
  5
145F
330
2
100
AcDbEntity
  8
0
100
AcDbLine
 10
1324.964299538763
 20
154.3078544426804
 30
0.0
 11
1326.464299538754
 21
154.3078544428674
 31
0.0
  0
LINE
  5
1460
330
2
100
AcDbEntity
  8
0
100
AcDbLine
 10
97.41978460893291
 20
154.3078544428642
 30
0.0
 11
98.10114140683356
 21
193.3427592557351
 31
0.0
  0
LINE
  5
1461
330
2
100
AcDbEntity
  8
0
100
AcDbLine
 10
60.8073341719329
 20
189.3951164750503
 30
0.0
 11
61.41978460887014
 21
154.3078544428642
 31
0.0
  0
ARC
  5
1462
330
2
100
AcDbEntity
  8
0
100
AcDbCircle
 10
100.1008367971454
 20
115.3078544428641
 30
0.0
 40
2.0
100
AcDbArc
 50
181.0000000000017
 51
270.0
  0
LINE
  5
1463
330
2
100
AcDbEntity
  8
0
100
AcDbLine
 10
106.4197846088583
 20
154.3078544428642
 30
0.0
 11
51.41978460885832
 21
154.3078544428642
 31
0.0
  0
LINE
  5
1464
330
2
100
AcDbEntity
  8
0
100
AcDbLine
 10
97.41978460885832
 20
154.3078544428642
 30
0.0
 11
98.10114140683175
 21
115.2729496299895
 31
0.0
  0
LINE
  5
1465
330
2
100
AcDbEntity
  8
0
100
AcDbLine
 10
60.8073341719329
 20
119.220592410678
 30
0.0
 11
61.4197846088565
 21
154.3078544428642
 31
0.0
  0
LINE
  5
1466
330
2
100
AcDbEntity
  8
0
100
AcDbLine
 10
51.41978460885832
 20
114.3078544428641
 30
0.0
 11
96.93855913697655
 21
114.3078544428641
 31
0.0
  0
ARC
  5
1467
330
2
100
AcDbEntity
  8
0
100
AcDbCircle
 10
78.52322694218594
 20
120.2078811469052
 30
0.0
 40
3.0
100
AcDbArc
 50
90.0
 51
178.9999999999982
  0
LINE
  5
1468
330
2
100
AcDbEntity
  8
0
100
AcDbLine
 10
78.52322694218594
 20
123.2078811469052
 30
0.0
 11
65.8769325557106
 21
123.2078811469052
 31
0.0
  0
ARC
  5
1469
330
2
100
AcDbEntity
  8
0
100
AcDbCircle
 10
55.80809569615041
 20
119.3078544428642
 30
0.0
 40
5.0
100
AcDbArc
 50
270.0
 51
358.9999999999982
  0
ARC
  5
146A
330
2
100
AcDbEntity
  8
0
100
AcDbCircle
 10
73.45439008262577
 20
116.3078544428642
 30
0.0
 40
2.0
100
AcDbArc
 50
270.0
 51
358.9999999999982
  0
LINE
  5
146B
330
2
100
AcDbEntity
  8
0
100
AcDbLine
 10
75.5227895701147
 20
120.2090047210764
 30
0.0
 11
75.45408547293948
 21
116.2729496299895
 31
0.0
  0
LINE
  5
146C
330
2
100
AcDbEntity
  8
0
100
AcDbLine
 10
106.4197846088583
 20
113.3078544428641
 30
0.0
 11
100.1008367971454
 21
113.3078544428641
 31
0.0
  0
ARC
  5
146D
330
2
100
AcDbEntity
  8
0
100
AcDbCircle
 10
100.1008367971454
 20
193.3078544428651
 30
0.0
 40
2.0
100
AcDbArc
 50
90.0
 51
179.0000000001024
  0
LINE
  5
146E
330
2
100
AcDbEntity
  8
0
100
AcDbLine
 10
51.41978460885832
 20
194.3078544428642
 30
0.0
 11
96.93855913697655
 21
194.3078544428642
 31
0.0
  0
ARC
  5
146F
330
2
100
AcDbEntity
  8
0
100
AcDbCircle
 10
55.80809569615041
 20
189.3078544428641
 30
0.0
 40
5.0
100
AcDbArc
 50
1.000000000001775
 51
90.0
  0
LINE
  5
1470
330
2
100
AcDbEntity
  8
0
100
AcDbLine
 10
106.4197846088565
 20
195.3078544428642
 30
0.0
 11
100.1008367971454
 21
195.3078544428651
 31
0.0
  0
LINE
  5
1471
330
2
100
AcDbEntity
  8
0
100
AcDbLine
 10
51.41978460885832
 20
194.3078544428642
 30
0.0
 11
51.41978460885832
 21
114.3078544428641
 31
0.0
  0
ARC
  5
1472
330
2
100
AcDbEntity
  8
0
100
AcDbCircle
 10
96.93855913697655
 20
197.8078544428641
 30
0.0
 40
3.5
100
AcDbArc
 50
270.0
 51
305.0968012276141
  0
ARC
  5
1473
330
2
100
AcDbEntity
  8
0
100
AcDbCircle
 10
96.93855913697655
 20
110.8078544428642
 30
0.0
 40
3.5
100
AcDbArc
 50
54.90319877238537
 51
90.0
  0
LINE
  5
1474
330
2
100
AcDbEntity
  8
CENTER
  6
CENS
100
AcDbLine
 10
113.0246026086289
 20
188.9578544428647
 30
0.0
 11
86.02460260862892
 21
188.9578544428647
 31
0.0
  0
LINE
  5
1475
330
2
100
AcDbEntity
  8
0
100
AcDbLine
 10
91.3373272839973
 20
183.9578544428647
 30
0.0
 11
91.3373272839973
 21
193.9578544428647
 31
0.0
  0
LINE
  5
1476
330
2
100
AcDbEntity
  8
0
100
AcDbLine
 10
90.93732728399766
 20
193.2650341198374
 30
0.0
 11
90.93732728399766
 21
184.650674765892
 31
0.0
  0
LINE
  5
1477
330
2
100
AcDbEntity
  8
0
100
AcDbLine
 10
96.93732728399766
 20
183.9578544428647
 30
0.0
 11
96.93732728399766
 21
193.9578544428647
 31
0.0
  0
LINE
  5
1478
330
2
100
AcDbEntity
  8
0
100
AcDbLine
 10
96.93732728399766
 20
193.9578544428647
 30
0.0
 11
97.93732728399767
 21
193.9578544428647
 31
0.0
  0
LINE
  5
1479
330
2
100
AcDbEntity
  8
0
100
AcDbLine
 10
97.93732728399767
 20
193.9578544428647
 30
0.0
 11
97.93732728399767
 21
183.9578544428647
 31
0.0
  0
LINE
  5
147A
330
2
100
AcDbEntity
  8
0
100
AcDbLine
 10
97.93732728399767
 20
183.9578544428647
 30
0.0
 11
96.93732728399766
 21
183.9578544428647
 31
0.0
  0
LINE
  5
147B
330
2
100
AcDbEntity
  8
0
100
AcDbLine
 10
96.93732728399766
 20
183.9578544428647
 30
0.0
 11
96.93732728399766
 21
193.9578544428647
 31
0.0
  0
LINE
  5
147C
330
2
100
AcDbEntity
  8
0
100
AcDbLine
 10
91.3373272839973
 20
183.9578544428647
 30
0.0
 11
96.93732728399766
 21
183.9578544428647
 31
0.0
  0
LINE
  5
147D
330
2
100
AcDbEntity
  8
0
100
AcDbLine
 10
96.93732728399766
 20
193.9578544428647
 30
0.0
 11
91.3373272839973
 21
193.9578544428647
 31
0.0
  0
LINE
  5
147E
330
2
100
AcDbEntity
  8
0
100
AcDbLine
 10
91.3373272839973
 20
193.9578544428647
 30
0.0
 11
90.93732728399766
 21
193.2650341198374
 31
0.0
  0
LINE
  5
147F
330
2
100
AcDbEntity
  8
0
100
AcDbLine
 10
91.3373272839973
 20
183.9578544428647
 30
0.0
 11
90.93732728399766
 21
184.650674765892
 31
0.0
  0
LINE
  5
1480
330
2
100
AcDbEntity
  8
CENTER
  6
CENS
100
AcDbLine
 10
113.0246026086289
 20
119.6578544428645
 30
0.0
 11
86.02460260862892
 21
119.6578544428645
 31
0.0
  0
LINE
  5
1481
330
2
100
AcDbEntity
  8
0
100
AcDbLine
 10
91.3373272839973
 20
124.6578544428645
 30
0.0
 11
91.3373272839973
 21
114.6578544428645
 31
0.0
  0
LINE
  5
1482
330
2
100
AcDbEntity
  8
0
100
AcDbLine
 10
90.93732728399766
 20
115.3506747658918
 30
0.0
 11
90.93732728399766
 21
123.9650341198363
 31
0.0
  0
LINE
  5
1483
330
2
100
AcDbEntity
  8
0
100
AcDbLine
 10
96.93732728399766
 20
124.6578544428645
 30
0.0
 11
96.93732728399766
 21
114.6578544428645
 31
0.0
  0
LINE
  5
1484
330
2
100
AcDbEntity
  8
0
100
AcDbLine
 10
96.93732728399766
 20
114.6578544428645
 30
0.0
 11
97.93732728399767
 21
114.6578544428645
 31
0.0
  0
LINE
  5
1485
330
2
100
AcDbEntity
  8
0
100
AcDbLine
 10
97.93732728399767
 20
114.6578544428645
 30
0.0
 11
97.93732728399767
 21
124.6578544428645
 31
0.0
  0
LINE
  5
1486
330
2
100
AcDbEntity
  8
0
100
AcDbLine
 10
97.93732728399767
 20
124.6578544428645
 30
0.0
 11
96.93732728399766
 21
124.6578544428645
 31
0.0
  0
LINE
  5
1487
330
2
100
AcDbEntity
  8
0
100
AcDbLine
 10
96.93732728399766
 20
124.6578544428645
 30
0.0
 11
96.93732728399766
 21
114.6578544428645
 31
0.0
  0
LINE
  5
1488
330
2
100
AcDbEntity
  8
0
100
AcDbLine
 10
91.3373272839973
 20
124.6578544428645
 30
0.0
 11
96.93732728399766
 21
124.6578544428645
 31
0.0
  0
LINE
  5
1489
330
2
100
AcDbEntity
  8
0
100
AcDbLine
 10
96.93732728399766
 20
114.6578544428645
 30
0.0
 11
91.3373272839973
 21
114.6578544428645
 31
0.0
  0
LINE
  5
148A
330
2
100
AcDbEntity
  8
0
100
AcDbLine
 10
91.3373272839973
 20
114.6578544428645
 30
0.0
 11
90.93732728399766
 21
115.3506747658918
 31
0.0
  0
LINE
  5
148B
330
2
100
AcDbEntity
  8
0
100
AcDbLine
 10
91.3373272839973
 20
124.6578544428645
 30
0.0
 11
90.93732728399766
 21
123.9650341198363
 31
0.0
  0
LINE
  5
148C
330
2
100
AcDbEntity
  8
0
100
AcDbLine
 10
60.4197846088947
 20
198.3078544428641
 30
0.0
 11
70.4197846088947
 21
198.3078544428641
 31
0.0
  0
ARC
  5
148D
330
2
100
AcDbEntity
  8
0
100
AcDbCircle
 10
70.4197846088947
 20
194.3078544428642
 30
0.0
 40
4.0
100
AcDbArc
 50
0.0
 51
90.0
  0
ARC
  5
148E
330
2
100
AcDbEntity
  8
0
100
AcDbCircle
 10
60.4197846088947
 20
194.3078544428642
 30
0.0
 40
4.0
100
AcDbArc
 50
90.0
 51
180.0
  0
LINE
  5
148F
330
2
100
AcDbEntity
  8
CENTER
  6
CENS
100
AcDbLine
 10
65.4197846088947
 20
203.4315388655674
 30
0.0
 11
65.4197846088947
 21
180.0716128632027
 31
0.0
  0
ARC
  5
1490
330
2
100
AcDbEntity
  8
0
100
AcDbCircle
 10
987.3200192794229
 20
188.4078277388241
 30
0.0
 40
3.0
100
AcDbArc
 50
270.0
 51
358.9999999999982
  0
LINE
  5
1491
330
2
100
AcDbEntity
  8
0
100
AcDbLine
 10
987.3200192794229
 20
185.4078277388241
 30
0.0
 11
999.9663136658982
 21
185.4078277388232
 31
0.0
  0
ARC
  5
1492
330
2
100
AcDbEntity
  8
0
100
AcDbCircle
 10
992.388856138983
 20
192.3078544428651
 30
0.0
 40
2.0
100
AcDbArc
 50
90.0
 51
178.9999999999982
  0
LINE
  5
1493
330
2
100
AcDbEntity
  8
0
100
AcDbLine
 10
990.3204566514942
 20
188.4067041646519
 30
0.0
 11
990.3891607486693
 21
192.3427592557388
 31
0.0
  0
LINE
  5
1494
330
2
100
AcDbEntity
  8
0
100
AcDbLine
 10
1007.42346161275
 20
189.3078544428642
 30
0.0
 11
1007.42346161275
 21
154.3078544428642
 31
0.0
  0
LINE
  5
1495
330
2
100
AcDbEntity
  8
0
100
AcDbLine
 10
1007.42346161275
 20
174.0578544428642
 30
0.0
 11
1007.423461612752
 21
154.3078544428642
 31
0.0
  0
LINE
  5
1496
330
2
100
AcDbEntity
  8
0
100
AcDbLine
 10
1007.42346161275
 20
174.0578544428642
 30
0.0
 11
997.6856570422333
 21
174.0578544428642
 31
0.0
  0
LINE
  5
1497
330
2
100
AcDbEntity
  8
0
100
AcDbLine
 10
1005.42346161275
 20
163.8078544428642
 30
0.0
 11
994.4234616127506
 21
163.8078544428642
 31
0.0
  0
LINE
  5
1498
330
2
100
AcDbEntity
  8
0
100
AcDbLine
 10
975.9234616127505
 20
164.0578544428642
 30
0.0
 11
975.9234616127505
 21
154.3078544428642
 31
0.0
  0
LINE
  5
1499
330
2
100
AcDbEntity
  8
0
100
AcDbLine
 10
975.9234616127505
 20
164.0578544428642
 30
0.0
 11
969.9234616127505
 21
164.0578544428642
 31
0.0
  0
LINE
  5
149A
330
2
100
AcDbEntity
  8
0
100
AcDbLine
 10
969.9234616127505
 20
164.0578544428642
 30
0.0
 11
969.9234616127505
 21
154.3078544428642
 31
0.0
  0
LINE
  5
149B
330
2
100
AcDbEntity
  8
0
100
AcDbLine
 10
992.4234616127504
 20
168.5832646635597
 30
0.0
 11
992.4234616127504
 21
154.3078544428642
 31
0.0
  0
LINE
  5
149C
330
2
100
AcDbEntity
  8
0
100
AcDbLine
 10
994.4234616127506
 20
169.6369980039414
 30
0.0
 11
994.4234616127506
 21
154.3078544428642
 31
0.0
  0
LINE
  5
149D
330
2
100
AcDbEntity
  8
0
100
AcDbLine
 10
992.4234616127504
 20
163.8078544428642
 30
0.0
 11
975.9234616127505
 21
163.8078544428642
 31
0.0
  0
LINE
  5
149E
330
2
100
AcDbEntity
  8
0
100
AcDbLine
 10
1007.42346161275
 20
164.9625549812433
 30
0.0
 11
1005.42346161275
 21
163.8078544428642
 31
0.0
  0
LINE
  5
149F
330
2
100
AcDbEntity
  8
0
100
AcDbLine
 10
1005.42346161275
 20
163.8078544428642
 30
0.0
 11
1005.42346161275
 21
154.3078544428642
 31
0.0
  0
LINE
  5
14A0
330
2
100
AcDbEntity
  8
0
100
AcDbLine
 10
969.9234616127505
 20
163.3078544428642
 30
0.0
 11
964.7273091900443
 21
154.3078544428642
 31
0.0
  0
CIRCLE
  5
14A1
330
2
100
AcDbEntity
  8
0
100
AcDbCircle
 10
1284.964299538763
 20
154.307854442866
 30
0.0
 40
9.5
  0
ARC
  5
14A2
330
2
100
AcDbEntity
  8
0
100
AcDbCircle
 10
1284.964299538763
 20
154.307854442866
 30
0.0
 40
10.6547005383793
100
AcDbArc
 50
4.03647208275096
 51
175.963527917249
  0
ARC
  5
14A3
330
2
100
AcDbEntity
  8
0
100
AcDbCircle
 10
1284.964299538763
 20
154.307854442866
 30
0.0
 40
10.6547005383793
100
AcDbArc
 50
184.0364720827509
 51
355.963527917249
  0
CIRCLE
  5
14A4
330
2
100
AcDbEntity
  8
0
100
AcDbCircle
 10
1316.784299538762
 20
186.1278544428657
 30
0.0
 40
2.0
  0
CIRCLE
  5
14A5
330
2
100
AcDbEntity
  8
HOJO
100
AcDbCircle
 10
1316.784299538762
 20
186.1278544428657
 30
0.0
 40
2.5
  0
CIRCLE
  5
14A6
330
2
100
AcDbEntity
  8
0
100
AcDbCircle
 10
1253.144299538763
 20
186.1278544428657
 30
0.0
 40
2.0
  0
CIRCLE
  5
14A7
330
2
100
AcDbEntity
  8
HOJO
100
AcDbCircle
 10
1253.144299538763
 20
186.1278544428657
 30
0.0
 40
2.5
  0
CIRCLE
  5
14A8
330
2
100
AcDbEntity
  8
0
100
AcDbCircle
 10
1316.784299538762
 20
122.4878544428663
 30
0.0
 40
2.0
  0
CIRCLE
  5
14A9
330
2
100
AcDbEntity
  8
HOJO
100
AcDbCircle
 10
1316.784299538762
 20
122.4878544428663
 30
0.0
 40
2.5
  0
CIRCLE
  5
14AA
330
2
100
AcDbEntity
  8
0
100
AcDbCircle
 10
1253.144299538763
 20
122.4878544428663
 30
0.0
 40
2.0
  0
CIRCLE
  5
14AB
330
2
100
AcDbEntity
  8
HOJO
100
AcDbCircle
 10
1253.144299538763
 20
122.4878544428663
 30
0.0
 40
2.5
  0
CIRCLE
  5
14AC
330
2
100
AcDbEntity
  8
0
100
AcDbCircle
 10
1284.964299538763
 20
154.307854442866
 30
0.0
 40
29.0
  0
LINE
  5
14AD
330
2
100
AcDbEntity
  8
0
100
AcDbLine
 10
1007.42346161275
 20
183.3078544428642
 30
0.0
 11
1003.513808263973
 21
183.3078544428642
 31
0.0
  0
LINE
  5
14AF
330
2
100
AcDbEntity
  8
0
100
AcDbLine
 10
1278.702382328471
 20
195.7314895988257
 30
0.0
 11
1284.964299538763
 21
195.8078544428539
 31
0.0
  0
LINE
  5
14B0
330
2
100
AcDbEntity
  8
0
100
AcDbLine
 10
1261.857178934613
 20
196.8269418870147
 30
0.0
 11
1243.946846467765
 21
196.6706407834885
 31
0.0
  0
LINE
  5
230F
330
2
100
AcDbEntity
  8
CENTER
100
AcDbLine
 10
475.7004726401488
 20
79.58275077827159
 30
0.0
 11
475.7004726401488
 21
229.0329581074549
 31
0.0
  0
LINE
  5
2310
330
2
100
AcDbEntity
  8
CENTER
100
AcDbLine
 10
251.8297846088572
 20
229.3078544428623
 30
0.0
 11
251.8297846088572
 21
79.30785444286232
 31
0.0
  0
ARC
  5
2312
330
2
100
AcDbEntity
  8
0
100
AcDbCircle
 10
220.8297846088409
 20
185.3078544428623
 30
0.0
 40
15.0
100
AcDbArc
 50
90.0
 51
180.0
  0
ARC
  5
2313
330
2
100
AcDbEntity
  8
0
100
AcDbCircle
 10
221.4644670922299
 20
292.9078354107801
 30
0.0
 40
80.0
100
AcDbArc
 50
259.7661103968963
 51
275.2796032823969
  0
ARC
  5
2314
330
2
100
AcDbEntity
  8
0
100
AcDbCircle
 10
220.8297846088409
 20
185.3078544428623
 30
0.0
 40
17.0
100
AcDbArc
 50
90.0
 51
180.0
  0
ARC
  5
2315
330
2
100
AcDbEntity
  8
0
100
AcDbCircle
 10
220.82978460884
 20
123.3078544428623
 30
0.0
 40
15.0
100
AcDbArc
 50
180.0
 51
270.0
  0
ARC
  5
2316
330
2
100
AcDbEntity
  8
0
100
AcDbCircle
 10
221.4644670922299
 20
15.70787347494444
 30
0.0
 40
80.0
100
AcDbArc
 50
84.72039671760308
 51
100.2338896031036
  0
ARC
  5
2317
330
2
100
AcDbEntity
  8
0
100
AcDbCircle
 10
220.82978460884
 20
123.3078544428623
 30
0.0
 40
17.0
100
AcDbArc
 50
180.0
 51
270.0
  0
CIRCLE
  5
2318
330
2
100
AcDbEntity
  8
0
100
AcDbCircle
 10
251.8297846088409
 20
154.3078544428623
 30
0.0
 40
39.99999999999994
  0
CIRCLE
  5
2319
330
2
100
AcDbEntity
  8
0
100
AcDbCircle
 10
251.8297846088409
 20
154.3078544428623
 30
0.0
 40
39.49999999999994
  0
CIRCLE
  5
231A
330
2
100
AcDbEntity
  8
0
100
AcDbCircle
 10
251.8297846088409
 20
154.3078544428623
 30
0.0
 40
37.49999999999994
  0
CIRCLE
  5
231B
330
2
100
AcDbEntity
  8
0
100
AcDbCircle
 10
251.8297846088409
 20
154.3078544428623
 30
0.0
 40
36.92264999999999
  0
LINE
  5
231C
330
2
100
AcDbEntity
  8
0
100
AcDbLine
 10
191.8297846088282
 20
204.3078544428623
 30
0.0
 11
191.8297846088391
 21
104.3078544428623
 31
0.0
  0
LINE
  5
231D
330
2
100
AcDbEntity
  8
0
100
AcDbLine
 10
148.329784608839
 20
189.3078544428623
 30
0.0
 11
148.329784608839
 21
119.3078544428623
 31
0.0
  0
LINE
  5
231E
330
2
100
AcDbEntity
  8
0
100
AcDbLine
 10
148.3297846088573
 20
189.3078544428641
 30
0.0
 11
148.3297846088573
 21
119.3078544428641
 31
0.0
  0
LINE
  5
2320
330
2
100
AcDbEntity
  8
0
100
AcDbLine
 10
118.4197846088583
 20
114.8078544428641
 30
0.0
 11
118.4197846088583
 21
193.8078544428641
 31
0.0
  0
LINE
  5
2321
330
2
100
AcDbEntity
  8
0
100
AcDbLine
 10
129.8674127657333
 20
126.3078544428623
 30
0.0
 11
129.8674127658106
 21
182.3078544428623
 31
0.0
  0
LINE
  5
2322
330
2
100
AcDbEntity
  8
0
100
AcDbLine
 10
203.8297846088409
 20
185.3078544428623
 30
0.0
 11
203.82978460884
 21
123.3078544428623
 31
0.0
  0
LINE
  5
2323
330
2
100
AcDbEntity
  8
0
100
AcDbLine
 10
205.8297846088409
 20
185.3078544428623
 30
0.0
 11
205.82978460884
 21
123.3078544428623
 31
0.0
  0
LINE
  5
2324
330
2
100
AcDbEntity
  8
CENTER
100
AcDbLine
 10
167.0797846088409
 20
119.3078544428659
 30
0.0
 11
145.5797846088409
 21
119.3078544428659
 31
0.0
  0
ARC
  5
2325
330
2
100
AcDbEntity
  8
0
100
AcDbCircle
 10
143.3297846088591
 20
125.8078544428659
 30
0.0
 40
5.0
100
AcDbArc
 50
0.0
 51
90.0
  0
ARC
  5
2326
330
2
100
AcDbEntity
  8
0
100
AcDbCircle
 10
145.3297846088591
 20
122.8078544428659
 30
0.0
 40
3.0
100
AcDbArc
 50
0.0
 51
90.0
  0
LINE
  5
2327
330
2
100
AcDbEntity
  8
0
100
AcDbLine
 10
116.4197846088583
 20
113.3078544428641
 30
0.0
 11
106.4197846088583
 21
113.3078544428641
 31
0.0
  0
LINE
  5
2328
330
2
100
AcDbEntity
  8
0
100
AcDbLine
 10
116.4197846088583
 20
112.8078544428641
 30
0.0
 11
106.4197846088583
 21
112.8078544428641
 31
0.0
  0
LINE
  5
2329
330
2
100
AcDbEntity
  8
0
100
AcDbLine
 10
143.3297846088591
 20
130.8078544428659
 30
0.0
 11
134.8517724770692
 21
130.8078544428659
 31
0.0
  0
ARC
  5
232A
330
2
100
AcDbEntity
  8
0
100
AcDbCircle
 10
123.419784608922
 20
118.3078544428659
 30
0.0
 40
5.0
100
AcDbArc
 50
90.0
 51
180.0
  0
ARC
  5
232B
330
2
100
AcDbEntity
  8
0
100
AcDbCircle
 10
116.4197846088583
 20
115.3078544428641
 30
0.0
 40
2.0
100
AcDbArc
 50
270.0
 51
0.0
  0
ARC
  5
232C
330
2
100
AcDbEntity
  8
0
100
AcDbCircle
 10
116.4197846088583
 20
114.8078544428641
 30
0.0
 40
2.0
100
AcDbArc
 50
270.0
 51
0.0
  0
ARC
  5
232D
330
2
100
AcDbEntity
  8
0
100
AcDbCircle
 10
131.7408099381374
 20
122.8078544428659
 30
0.0
 40
3.0
100
AcDbArc
 50
90.0
 51
144.3146652872821
  0
ARC
  5
232E
330
2
100
AcDbEntity
  8
0
100
AcDbCircle
 10
126.8674127657333
 20
126.3078544428659
 30
0.0
 40
3.0
100
AcDbArc
 50
270.0
 51
356.4166783015281
  0
LINE
  5
232F
330
2
100
AcDbEntity
  8
0
100
AcDbLine
 10
126.8674127657333
 20
123.3078544428659
 30
0.0
 11
123.419784608922
 21
123.3078544428659
 31
0.0
  0
LINE
  5
2330
330
2
100
AcDbEntity
  8
0
100
AcDbLine
 10
145.3297846088591
 20
125.8078544428659
 30
0.0
 11
131.7408099381374
 21
125.8078544428659
 31
0.0
  0
ARC
  5
2331
330
2
100
AcDbEntity
  8
0
100
AcDbCircle
 10
134.8517724770692
 20
125.8078544428659
 30
0.0
 40
5.0
100
AcDbArc
 50
90.0
 51
176.4166783015281
  0
LINE
  5
2332
330
2
100
AcDbEntity
  8
0
100
AcDbLine
 10
156.3297846088391
 20
111.3078544428623
 30
0.0
 11
183.857583853228
 21
111.3078544428623
 31
0.0
  0
LINE
  5
2333
330
2
100
AcDbEntity
  8
CENTER
100
AcDbLine
 10
170.8297846088409
 20
108.8078544428659
 30
0.0
 11
170.8297846088409
 21
124.8078544428659
 31
0.0
  0
CIRCLE
  5
2334
330
2
100
AcDbEntity
  8
HOJO
100
AcDbCircle
 10
170.8297846088409
 20
116.8078544428623
 30
0.0
 40
2.5
  0
CIRCLE
  5
2335
330
2
100
AcDbEntity
  8
0
100
AcDbCircle
 10
170.8297846088409
 20
116.8078544428623
 30
0.0
 40
3.5
  0
CIRCLE
  5
2336
330
2
100
AcDbEntity
  8
0
100
AcDbCircle
 10
170.8297846088409
 20
116.8078544428623
 30
0.0
 40
2.0
  0
ARC
  5
2337
330
2
100
AcDbEntity
  8
0
100
AcDbCircle
 10
156.3297846088463
 20
119.3078544428623
 30
0.0
 40
8.5
100
AcDbArc
 50
0.0
 51
90.0
  0
LINE
  5
2338
330
2
100
AcDbEntity
  8
0
100
AcDbLine
 10
153.3297846088409
 20
121.0399052504341
 30
0.0
 11
156.3297846088409
 21
122.7719560580041
 31
0.0
  0
LINE
  5
2339
330
2
100
AcDbEntity
  8
0
100
AcDbLine
 10
156.3297846088409
 20
122.7719560580041
 30
0.0
 11
159.3297846088409
 21
121.0399052504341
 31
0.0
  0
LINE
  5
233A
330
2
100
AcDbEntity
  8
CENTER
100
AcDbLine
 10
156.3297846088391
 20
108.5578544428659
 30
0.0
 11
156.3297846088409
 21
130.0578544428659
 31
0.0
  0
CIRCLE
  5
233B
330
2
100
AcDbEntity
  8
0
100
AcDbCircle
 10
156.3297846088409
 20
119.3078544428659
 30
0.0
 40
5.63397459621558
  0
CIRCLE
  5
233C
330
2
100
AcDbEntity
  8
0
100
AcDbCircle
 10
156.3297846088409
 20
119.3078544428659
 30
0.0
 40
6.5
  0
ARC
  5
233D
330
2
100
AcDbEntity
  8
0
100
AcDbCircle
 10
166.82978460885
 20
113.3078544428623
 30
0.0
 40
2.0
100
AcDbArc
 50
180.0
 51
270.0
  0
LINE
  5
233E
330
2
100
AcDbEntity
  8
0
100
AcDbLine
 10
164.8297846088463
 20
119.3078544428677
 30
0.0
 11
164.82978460885
 21
113.3078544428623
 31
0.0
  0
LINE
  5
233F
330
2
100
AcDbEntity
  8
0
100
AcDbLine
 10
156.3297846088409
 20
115.8437528277278
 30
0.0
 11
159.3297846088409
 21
117.5758036352978
 31
0.0
  0
LINE
  5
2340
330
2
100
AcDbEntity
  8
0
100
AcDbLine
 10
153.3297846088409
 20
121.0399052504341
 30
0.0
 11
153.3297846088409
 21
117.5758036352959
 31
0.0
  0
LINE
  5
2341
330
2
100
AcDbEntity
  8
0
100
AcDbLine
 10
153.3297846088409
 20
117.5758036352959
 30
0.0
 11
156.3297846088409
 21
115.8437528277278
 31
0.0
  0
ARC
  5
2342
330
2
100
AcDbEntity
  8
0
100
AcDbCircle
 10
156.3297846088391
 20
119.3078544428623
 30
0.0
 40
8.0
100
AcDbArc
 50
180.0
 51
270.0
  0
LINE
  5
2343
330
2
100
AcDbEntity
  8
0
100
AcDbLine
 10
159.3297846088409
 20
117.5758036352978
 30
0.0
 11
159.3297846088409
 21
121.0399052504341
 31
0.0
  0
LINE
  5
2344
330
2
100
AcDbEntity
  8
0
100
AcDbLine
 10
156.3297846088409
 20
127.8078544428623
 30
0.0
 11
150.3297846088409
 21
127.8078544428605
 31
0.0
  0
ARC
  5
2345
330
2
100
AcDbEntity
  8
0
100
AcDbCircle
 10
150.3297846088391
 20
129.8078544428605
 30
0.0
 40
2.0
100
AcDbArc
 50
180.0
 51
270.0
  0
LINE
  5
2346
330
2
100
AcDbEntity
  8
CENTER
100
AcDbLine
 10
178.8297846088409
 20
116.8078544428659
 30
0.0
 11
162.8297846088409
 21
116.8078544428659
 31
0.0
  0
CIRCLE
  5
2347
330
2
100
AcDbEntity
  8
0
100
AcDbCircle
 10
170.8297846088409
 20
116.8078544428623
 30
0.0
 40
4.0
  0
ARC
  5
2348
330
2
100
AcDbEntity
  8
0
100
AcDbCircle
 10
205.8297846088427
 20
102.3078544428623
 30
0.0
 40
8.0
100
AcDbArc
 50
270.0
 51
280.2338896031037
  0
LINE
  5
2349
330
2
100
AcDbEntity
  8
0
100
AcDbLine
 10
210.2231828910418
 20
112.7012527250641
 30
0.0
 11
208.8089693286693
 21
111.2870391626908
 31
0.0
  0
ARC
  5
234A
330
2
100
AcDbEntity
  8
0
100
AcDbCircle
 10
183.857583853228
 20
103.3078544428623
 30
0.0
 40
8.0
100
AcDbArc
 50
3.184738536778422
 51
90.0
  0
ARC
  5
234B
330
2
100
AcDbEntity
  8
0
100
AcDbCircle
 10
201.829784608839
 20
104.3078544428641
 30
0.0
 40
10.0
100
AcDbArc
 50
180.0
 51
270.0
  0
LINE
  5
234C
330
2
100
AcDbEntity
  8
0
100
AcDbLine
 10
201.829784608839
 20
94.30785444286232
 30
0.0
 11
205.8297846088427
 21
94.30785444286232
 31
0.0
  0
ARC
  5
234D
330
2
100
AcDbEntity
  8
0
100
AcDbCircle
 10
145.3297846088554
 20
185.8078544428659
 30
0.0
 40
3.0
100
AcDbArc
 50
270.0
 51
0.0
  0
LINE
  5
234E
330
2
100
AcDbEntity
  8
CENTER
100
AcDbLine
 10
167.0797846088409
 20
189.3078544428641
 30
0.0
 11
145.5797846088409
 21
189.3078544428623
 31
0.0
  0
ARC
  5
234F
330
2
100
AcDbEntity
  8
0
100
AcDbCircle
 10
145.3297846088573
 20
148.8078544428659
 30
0.0
 40
3.0
100
AcDbArc
 50
0.0
 51
90.0
  0
ARC
  5
2350
330
2
100
AcDbEntity
  8
0
100
AcDbCircle
 10
145.3297846088573
 20
159.8078544428659
 30
0.0
 40
3.0
100
AcDbArc
 50
270.0
 51
0.0
  0
ARC
  5
2351
330
2
100
AcDbEntity
  8
0
100
AcDbCircle
 10
143.3297846088554
 20
182.8078544428659
 30
0.0
 40
5.0
100
AcDbArc
 50
270.0
 51
0.0
  0
ARC
  5
2352
330
2
100
AcDbEntity
  8
0
100
AcDbCircle
 10
134.8517724771465
 20
182.8078544428659
 30
0.0
 40
5.0
100
AcDbArc
 50
183.5833216984718
 51
270.0
  0
LINE
  5
2353
330
2
100
AcDbEntity
  8
0
100
AcDbLine
 10
145.3297846088573
 20
156.8078544428659
 30
0.0
 11
132.8674127657788
 21
156.8078544428659
 31
0.0
  0
LINE
  5
2354
330
2
100
AcDbEntity
  8
0
100
AcDbLine
 10
145.3297846088573
 20
151.8078544428659
 30
0.0
 11
132.8674127657633
 21
151.8078544428659
 31
0.0
  0
LINE
  5
2355
330
2
100
AcDbEntity
  8
0
100
AcDbLine
 10
143.3297846088554
 20
177.8078544428659
 30
0.0
 11
134.8517724771465
 21
177.8078544428659
 31
0.0
  0
ARC
  5
2356
330
2
100
AcDbEntity
  8
0
100
AcDbCircle
 10
132.8674127657633
 20
148.8078544428659
 30
0.0
 40
3.0
100
AcDbArc
 50
90.0
 51
179.9999999998957
  0
ARC
  5
2357
330
2
100
AcDbEntity
  8
0
100
AcDbCircle
 10
132.8674127657788
 20
159.8078544428659
 30
0.0
 40
3.0
100
AcDbArc
 50
179.9999999998957
 51
270.0
  0
LINE
  5
2358
330
2
100
AcDbEntity
  8
0
100
AcDbLine
 10
106.4197846088583
 20
195.3078544428641
 30
0.0
 11
116.4197846088583
 21
195.3078544428641
 31
0.0
  0
LINE
  5
2359
330
2
100
AcDbEntity
  8
0
100
AcDbLine
 10
106.4197846088583
 20
195.8078544428641
 30
0.0
 11
116.4197846088583
 21
195.8078544428641
 31
0.0
  0
ARC
  5
235A
330
2
100
AcDbEntity
  8
0
100
AcDbCircle
 10
131.7408099382156
 20
185.8078544428659
 30
0.0
 40
3.0
100
AcDbArc
 50
215.6853347127178
 51
270.0
  0
ARC
  5
235B
330
2
100
AcDbEntity
  8
0
100
AcDbCircle
 10
126.8674127658106
 20
182.3078544428659
 30
0.0
 40
3.0
100
AcDbArc
 50
359.9999999998958
 51
90.0
  0
ARC
  5
235C
330
2
100
AcDbEntity
  8
0
100
AcDbCircle
 10
123.419784608922
 20
190.3078544428659
 30
0.0
 40
5.0
100
AcDbArc
 50
180.0
 51
270.0
  0
ARC
  5
235D
330
2
100
AcDbEntity
  8
0
100
AcDbCircle
 10
116.4197846088583
 20
193.3078544428641
 30
0.0
 40
2.0
100
AcDbArc
 50
0.0
 51
90.0
  0
ARC
  5
235E
330
2
100
AcDbEntity
  8
0
100
AcDbCircle
 10
116.4197846088583
 20
193.8078544428641
 30
0.0
 40
2.0
100
AcDbArc
 50
0.0
 51
90.0
  0
LINE
  5
235F
330
2
100
AcDbEntity
  8
0
100
AcDbLine
 10
126.8674127658106
 20
185.3078544428659
 30
0.0
 11
123.419784608922
 21
185.3078544428659
 31
0.0
  0
LINE
  5
2360
330
2
100
AcDbEntity
  8
0
100
AcDbLine
 10
145.3297846088554
 20
182.8078544428659
 30
0.0
 11
131.7408099382156
 21
182.8078544428659
 31
0.0
  0
LINE
  5
2361
330
2
100
AcDbEntity
  8
0
100
AcDbLine
 10
156.3297846088391
 20
197.3078544428623
 30
0.0
 11
183.8575838532161
 21
197.3078544428623
 31
0.0
  0
LINE
  5
2362
330
2
100
AcDbEntity
  8
CENTER
100
AcDbLine
 10
170.8297846088409
 20
199.8078544428641
 30
0.0
 11
170.8297846088409
 21
183.8078544428641
 31
0.0
  0
CIRCLE
  5
2363
330
2
100
AcDbEntity
  8
HOJO
100
AcDbCircle
 10
170.8297846088409
 20
191.8078544428641
 30
0.0
 40
2.5
  0
CIRCLE
  5
2364
330
2
100
AcDbEntity
  8
0
100
AcDbCircle
 10
170.8297846088409
 20
191.8078544428623
 30
0.0
 40
3.5
  0
CIRCLE
  5
2365
330
2
100
AcDbEntity
  8
0
100
AcDbCircle
 10
170.8297846088409
 20
191.8078544428623
 30
0.0
 40
2.0
  0
LINE
  5
2366
330
2
100
AcDbEntity
  8
0
100
AcDbLine
 10
164.8297846088463
 20
189.3078544428586
 30
0.0
 11
164.82978460885
 21
195.3078544428641
 31
0.0
  0
ARC
  5
2367
330
2
100
AcDbEntity
  8
0
100
AcDbCircle
 10
166.82978460885
 20
195.3078544428623
 30
0.0
 40
2.0
100
AcDbArc
 50
90.0
 51
179.9999999998957
  0
LINE
  5
2368
330
2
100
AcDbEntity
  8
0
100
AcDbLine
 10
156.3297846088409
 20
185.843752827726
 30
0.0
 11
159.3297846088409
 21
187.5758036352941
 31
0.0
  0
LINE
  5
2369
330
2
100
AcDbEntity
  8
0
100
AcDbLine
 10
156.3297846088409
 20
192.7719560580004
 30
0.0
 11
159.3297846088409
 21
191.0399052504322
 31
0.0
  0
LINE
  5
236A
330
2
100
AcDbEntity
  8
CENTER
100
AcDbLine
 10
156.3297846088391
 20
200.0578544428623
 30
0.0
 11
156.3297846088409
 21
178.5578544428623
 31
0.0
  0
LINE
  5
236B
330
2
100
AcDbEntity
  8
0
100
AcDbLine
 10
156.3297846088409
 20
180.8078544428623
 30
0.0
 11
150.3297846088409
 21
180.8078544428659
 31
0.0
  0
LINE
  5
236C
330
2
100
AcDbEntity
  8
0
100
AcDbLine
 10
153.3297846088409
 20
191.0399052504322
 30
0.0
 11
153.3297846088409
 21
187.5758036352941
 31
0.0
  0
LINE
  5
236D
330
2
100
AcDbEntity
  8
0
100
AcDbLine
 10
153.3297846088409
 20
187.5758036352941
 30
0.0
 11
156.3297846088409
 21
185.8437528277241
 31
0.0
  0
LINE
  5
236E
330
2
100
AcDbEntity
  8
0
100
AcDbLine
 10
153.3297846088409
 20
191.0399052504322
 30
0.0
 11
156.3297846088409
 21
192.7719560580004
 31
0.0
  0
ARC
  5
236F
330
2
100
AcDbEntity
  8
0
100
AcDbCircle
 10
156.3297846088391
 20
189.3078544428623
 30
0.0
 40
8.0
100
AcDbArc
 50
90.0
 51
180.0
  0
ARC
  5
2370
330
2
100
AcDbEntity
  8
0
100
AcDbCircle
 10
150.3297846088391
 20
178.8078544428659
 30
0.0
 40
2.0
100
AcDbArc
 50
89.99999999994789
 51
180.0
  0
LINE
  5
2371
330
2
100
AcDbEntity
  8
0
100
AcDbLine
 10
159.3297846088409
 20
187.5758036352941
 30
0.0
 11
159.3297846088409
 21
191.0399052504322
 31
0.0
  0
ARC
  5
2372
330
2
100
AcDbEntity
  8
0
100
AcDbCircle
 10
156.3297846088463
 20
189.3078544428623
 30
0.0
 40
8.5
100
AcDbArc
 50
269.9999999999478
 51
359.9999999998958
  0
CIRCLE
  5
2373
330
2
100
AcDbEntity
  8
0
100
AcDbCircle
 10
156.3297846088409
 20
189.3078544428623
 30
0.0
 40
5.63397459621558
  0
CIRCLE
  5
2374
330
2
100
AcDbEntity
  8
0
100
AcDbCircle
 10
156.3297846088409
 20
189.3078544428623
 30
0.0
 40
6.5
  0
LINE
  5
2375
330
2
100
AcDbEntity
  8
CENTER
100
AcDbLine
 10
178.8297846088409
 20
191.8078544428641
 30
0.0
 11
162.8297846088409
 21
191.8078544428623
 31
0.0
  0
CIRCLE
  5
2376
330
2
100
AcDbEntity
  8
0
100
AcDbCircle
 10
170.8297846088409
 20
191.8078544428623
 30
0.0
 40
4.0
  0
LINE
  5
2377
330
2
100
AcDbEntity
  8
0
100
AcDbLine
 10
210.2231828910427
 20
195.9144561606605
 30
0.0
 11
208.8089693286693
 21
197.3286697230338
 31
0.0
  0
ARC
  5
2378
330
2
100
AcDbEntity
  8
0
100
AcDbCircle
 10
205.8297846088436
 20
206.3078544428623
 30
0.0
 40
8.0
100
AcDbArc
 50
79.76611039689631
 51
90.0
  0
ARC
  5
2379
330
2
100
AcDbEntity
  8
0
100
AcDbCircle
 10
201.8297846088282
 20
204.3078544428623
 30
0.0
 40
10.0
100
AcDbArc
 50
90.0
 51
180.0
  0
ARC
  5
237A
330
2
100
AcDbEntity
  8
0
100
AcDbCircle
 10
183.8575838532161
 20
205.3078544428623
 30
0.0
 40
8.0
100
AcDbArc
 50
270.0
 51
356.8152614632215
  0
LINE
  5
237B
330
2
100
AcDbEntity
  8
0
100
AcDbLine
 10
201.829784608839
 20
214.3078544428623
 30
0.0
 11
205.8297846088427
 21
214.3078544428623
 31
0.0
  0
LINE
  5
237C
330
2
100
AcDbEntity
  8
0
100
AcDbLine
 10
299.8297846088409
 20
185.3078544428623
 30
0.0
 11
299.8297846088399
 21
123.3078544428641
 31
0.0
  0
LINE
  5
237D
330
2
100
AcDbEntity
  8
0
100
AcDbLine
 10
297.8297846088409
 20
185.3078544428623
 30
0.0
 11
297.8297846088399
 21
123.3078544428641
 31
0.0
  0
ARC
  5
237E
330
2
100
AcDbEntity
  8
0
100
AcDbCircle
 10
61.82978460884092
 20
154.3078544428623
 30
0.0
 40
250.0
100
AcDbArc
 50
354.7203967175509
 51
5.279603282449114
  0
CIRCLE
  5
237F
330
2
100
AcDbEntity
  8
0
100
AcDbCircle
 10
251.82978460884
 20
154.3078544428623
 30
0.0
 40
32.5
  0
CIRCLE
  5
2380
330
2
100
AcDbEntity
  8
0
100
AcDbCircle
 10
251.8297846088409
 20
154.3078544428623
 30
0.0
 40
33.07735
  0
ARC
  5
2381
330
2
100
AcDbEntity
  8
0
100
AcDbCircle
 10
282.8297846088399
 20
123.3078544428641
 30
0.0
 40
17.0
100
AcDbArc
 50
270.0
 51
0.0
  0
ARC
  5
2382
330
2
100
AcDbEntity
  8
0
100
AcDbCircle
 10
282.8297846088399
 20
123.3078544428641
 30
0.0
 40
15.0
100
AcDbArc
 50
270.0
 51
0.0
  0
ARC
  5
2383
330
2
100
AcDbEntity
  8
0
100
AcDbCircle
 10
282.19510212545
 20
15.70787347494444
 30
0.0
 40
80.0
100
AcDbArc
 50
79.76611039689631
 51
95.27960328239691
  0
LINE
  5
2384
330
2
100
AcDbEntity
  8
0
100
AcDbLine
 10
282.8297846088409
 20
106.3078544428641
 30
0.0
 11
220.8297846088409
 21
106.3078544428623
 31
0.0
  0
LINE
  5
2385
330
2
100
AcDbEntity
  8
0
100
AcDbLine
 10
282.8297846088409
 20
108.3078544428641
 30
0.0
 11
220.8297846088409
 21
108.3078544428623
 31
0.0
  0
ARC
  5
2386
330
2
100
AcDbEntity
  8
0
100
AcDbCircle
 10
251.82978460884
 20
344.3078544428623
 30
0.0
 40
250.0
100
AcDbArc
 50
264.7203967176031
 51
275.2796032823969
  0
ARC
  5
2387
330
2
100
AcDbEntity
  8
0
100
AcDbCircle
 10
390.4297655767569
 20
123.9425369262513
 30
0.0
 40
80.0
100
AcDbArc
 50
174.7203967175508
 51
190.2338896031567
  0
ARC
  5
2388
330
2
100
AcDbEntity
  8
0
100
AcDbCircle
 10
308.940149207997
 20
114.8078544428623
 30
0.0
 40
2.0
100
AcDbArc
 50
270.0
 51
6.395943096303732
  0
ARC
  5
2389
330
2
100
AcDbEntity
  8
0
100
AcDbCircle
 10
303.829784608839
 20
108.3078544428659
 30
0.0
 40
8.0
100
AcDbArc
 50
0.0
 51
10.23388960315672
  0
LINE
  5
238A
330
2
100
AcDbEntity
  8
0
100
AcDbLine
 10
311.8297846088391
 20
104.3078544428623
 30
0.0
 11
311.8297846088391
 21
108.3078544428659
 31
0.0
  0
LINE
  5
238B
330
2
100
AcDbEntity
  8
CENTER
100
AcDbLine
 10
304.8297846088354
 20
111.6486970447091
 30
0.0
 11
304.8297846088354
 21
125.9670118410227
 31
0.0
  0
LINE
  5
238C
330
2
100
AcDbEntity
  8
0
100
AcDbLine
 10
304.8297846088372
 20
102.5758036352959
 30
0.0
 11
304.8297846088372
 21
106.0399052504341
 31
0.0
  0
CIRCLE
  5
238D
330
2
100
AcDbEntity
  8
0
100
AcDbCircle
 10
304.8297846088372
 20
118.8078544428641
 30
0.0
 40
2.0
  0
ARC
  5
238E
330
2
100
AcDbEntity
  8
0
100
AcDbCircle
 10
301.8297846088372
 20
104.3078544428623
 30
0.0
 40
8.5
100
AcDbArc
 50
90.0
 51
180.0
  0
ARC
  5
238F
330
2
100
AcDbEntity
  8
0
100
AcDbCircle
 10
297.8297846088372
 20
102.3078544428623
 30
0.0
 40
8.0
100
AcDbArc
 50
259.7661103968963
 51
270.0
  0
LINE
  5
2390
330
2
100
AcDbEntity
  8
0
100
AcDbLine
 10
293.3297846088372
 20
104.3078544428641
 30
0.0
 11
293.3297846088372
 21
97.19748984370529
 31
0.0
  0
ARC
  5
2391
330
2
100
AcDbEntity
  8
0
100
AcDbCircle
 10
291.3297846088372
 20
97.19748984370529
 30
0.0
 40
2.0
100
AcDbArc
 50
263.6040569036959
 51
0.0
  0
LINE
  5
2392
330
2
100
AcDbEntity
  8
0
100
AcDbLine
 10
294.8505998890114
 20
111.2870391626926
 30
0.0
 11
293.4363863266381
 21
112.7012527250659
 31
0.0
  0
LINE
  5
2393
330
2
100
AcDbEntity
  8
0
100
AcDbLine
 10
301.8297846088409
 20
94.30785444286232
 30
0.0
 11
297.8297846088372
 21
94.30785444286232
 31
0.0
  0
LINE
  5
2394
330
2
100
AcDbEntity
  8
CENTER
100
AcDbLine
 10
301.8297846088372
 20
115.0578544428641
 30
0.0
 11
301.829784608839
 21
93.55785444286414
 31
0.0
  0
LINE
  5
2395
330
2
100
AcDbEntity
  8
0
100
AcDbLine
 10
298.8297846088372
 20
106.0399052504341
 30
0.0
 11
298.8297846088372
 21
102.5758036352959
 31
0.0
  0
LINE
  5
2396
330
2
100
AcDbEntity
  8
0
100
AcDbLine
 10
298.8297846088372
 20
102.5758036352959
 30
0.0
 11
301.8297846088372
 21
100.8437528277278
 31
0.0
  0
LINE
  5
2397
330
2
100
AcDbEntity
  8
0
100
AcDbLine
 10
298.8297846088372
 20
106.0399052504341
 30
0.0
 11
301.8297846088372
 21
107.771956058004
 31
0.0
  0
CIRCLE
  5
2398
330
2
100
AcDbEntity
  8
0
100
AcDbCircle
 10
301.8297846088372
 20
104.3078544428659
 30
0.0
 40
5.63397459621558
  0
LINE
  5
2399
330
2
100
AcDbEntity
  8
0
100
AcDbLine
 10
301.8297846088372
 20
100.8437528277278
 30
0.0
 11
304.8297846088372
 21
102.5758036352959
 31
0.0
  0
LINE
  5
239A
330
2
100
AcDbEntity
  8
0
100
AcDbLine
 10
301.8297846088372
 20
107.771956058004
 30
0.0
 11
304.8297846088372
 21
106.0399052504341
 31
0.0
  0
CIRCLE
  5
239B
330
2
100
AcDbEntity
  8
HOJO
100
AcDbCircle
 10
304.8297846088372
 20
118.8078544428641
 30
0.0
 40
2.5
  0
CIRCLE
  5
239C
330
2
100
AcDbEntity
  8
0
100
AcDbCircle
 10
304.8297846088372
 20
118.8078544428641
 30
0.0
 40
4.0
  0
LINE
  5
239D
330
2
100
AcDbEntity
  8
CENTER
100
AcDbLine
 10
312.5797846088372
 20
104.3078544428641
 30
0.0
 11
291.0797846088372
 21
104.3078544428659
 31
0.0
  0
CIRCLE
  5
239E
330
2
100
AcDbEntity
  8
0
100
AcDbCircle
 10
301.8297846088372
 20
104.3078544428659
 30
0.0
 40
6.5
  0
LINE
  5
239F
330
2
100
AcDbEntity
  8
CENTER
100
AcDbLine
 10
297.6706272106786
 20
118.8078544428659
 30
0.0
 11
311.9889420069922
 21
118.8078544428659
 31
0.0
  0
ARC
  5
23A0
330
2
100
AcDbEntity
  8
0
100
AcDbCircle
 10
301.8297846088409
 20
104.3078544428623
 30
0.0
 40
10.0
100
AcDbArc
 50
270.0
 51
0.0
  0
LINE
  5
23A1
330
2
100
AcDbEntity
  8
0
100
AcDbLine
 10
301.8297846088372
 20
112.8078544428623
 30
0.0
 11
308.940149207997
 21
112.8078544428623
 31
0.0
  0
CIRCLE
  5
23A2
330
2
100
AcDbEntity
  8
0
100
AcDbCircle
 10
304.8297846088372
 20
118.8078544428641
 30
0.0
 40
3.5
  0
ARC
  5
23A3
330
2
100
AcDbEntity
  8
0
100
AcDbCircle
 10
282.8297846088409
 20
185.3078544428623
 30
0.0
 40
15.0
100
AcDbArc
 50
0.0
 51
90.0
  0
ARC
  5
23A4
330
2
100
AcDbEntity
  8
0
100
AcDbCircle
 10
282.8297846088409
 20
185.3078544428623
 30
0.0
 40
17.0
100
AcDbArc
 50
0.0
 51
90.0
  0
ARC
  5
23A5
330
2
100
AcDbEntity
  8
0
100
AcDbCircle
 10
282.19510212545
 20
292.9078354107801
 30
0.0
 40
80.0
100
AcDbArc
 50
264.7203967176031
 51
280.2338896031037
  0
ARC
  5
23A6
330
2
100
AcDbEntity
  8
0
100
AcDbCircle
 10
251.82978460884
 20
-35.69214555713768
 30
0.0
 40
250.0
100
AcDbArc
 50
84.72039671760308
 51
95.27960328239691
  0
LINE
  5
23A7
330
2
100
AcDbEntity
  8
0
100
AcDbLine
 10
282.8297846088409
 20
202.3078544428623
 30
0.0
 11
220.8297846088409
 21
202.3078544428623
 31
0.0
  0
LINE
  5
23A8
330
2
100
AcDbEntity
  8
0
100
AcDbLine
 10
282.8297846088409
 20
200.3078544428623
 30
0.0
 11
220.8297846088409
 21
200.3078544428623
 31
0.0
  0
ARC
  5
23A9
330
2
100
AcDbEntity
  8
0
100
AcDbCircle
 10
390.4297655767569
 20
184.6731719594714
 30
0.0
 40
80.0
100
AcDbArc
 50
169.7661103968432
 51
185.2796032824491
  0
ARC
  5
23AA
330
2
100
AcDbEntity
  8
0
100
AcDbCircle
 10
308.9401492079979
 20
193.8078544428641
 30
0.0
 40
2.0
100
AcDbArc
 50
353.6040569036963
 51
90.0
  0
LINE
  5
23AB
330
2
100
AcDbEntity
  8
0
100
AcDbLine
 10
311.8297846088391
 20
204.3078544428623
 30
0.0
 11
311.8297846088391
 21
200.3078544428587
 31
0.0
  0
ARC
  5
23AC
330
2
100
AcDbEntity
  8
0
100
AcDbCircle
 10
303.829784608839
 20
200.3078544428587
 30
0.0
 40
8.0
100
AcDbArc
 50
349.7661103968432
 51
0.0
  0
CIRCLE
  5
23AD
330
2
100
AcDbEntity
  8
0
100
AcDbCircle
 10
301.8297846088372
 20
204.3078544428623
 30
0.0
 40
5.63397459621558
  0
LINE
  5
23AE
330
2
100
AcDbEntity
  8
0
100
AcDbLine
 10
293.3297846088372
 20
204.3078544428623
 30
0.0
 11
293.3297846088372
 21
211.4182190420193
 31
0.0
  0
LINE
  5
23AF
330
2
100
AcDbEntity
  8
CENTER
100
AcDbLine
 10
301.8297846088372
 20
193.5578544428641
 30
0.0
 11
301.829784608839
 21
215.0578544428641
 31
0.0
  0
LINE
  5
23B0
330
2
100
AcDbEntity
  8
CENTER
100
AcDbLine
 10
304.8297846088345
 20
196.9670118410191
 30
0.0
 11
304.8297846088345
 21
182.6486970447055
 31
0.0
  0
CIRCLE
  5
23B1
330
2
100
AcDbEntity
  8
0
100
AcDbCircle
 10
304.8297846088372
 20
189.8078544428623
 30
0.0
 40
2.0
  0
LINE
  5
23B2
330
2
100
AcDbEntity
  8
0
100
AcDbLine
 10
304.8297846088372
 20
202.5758036352941
 30
0.0
 11
304.8297846088372
 21
206.0399052504322
 31
0.0
  0
ARC
  5
23B3
330
2
100
AcDbEntity
  8
0
100
AcDbCircle
 10
301.8297846088372
 20
204.3078544428641
 30
0.0
 40
8.5
100
AcDbArc
 50
180.0
 51
270.0
  0
LINE
  5
23B4
330
2
100
AcDbEntity
  8
0
100
AcDbLine
 10
294.8505998890114
 20
197.3286697230338
 30
0.0
 11
293.436386326639
 21
195.9144561606605
 31
0.0
  0
LINE
  5
23B5
330
2
100
AcDbEntity
  8
0
100
AcDbLine
 10
298.8297846088372
 20
206.0399052504322
 30
0.0
 11
301.8297846088372
 21
207.7719560580004
 31
0.0
  0
LINE
  5
23B6
330
2
100
AcDbEntity
  8
0
100
AcDbLine
 10
298.8297846088372
 20
202.5758036352941
 30
0.0
 11
301.8297846088372
 21
200.8437528277259
 31
0.0
  0
LINE
  5
23B7
330
2
100
AcDbEntity
  8
0
100
AcDbLine
 10
298.8297846088372
 20
206.0399052504322
 30
0.0
 11
298.8297846088372
 21
202.5758036352941
 31
0.0
  0
LINE
  5
23B8
330
2
100
AcDbEntity
  8
0
100
AcDbLine
 10
301.8297846088372
 20
207.7719560580004
 30
0.0
 11
304.8297846088372
 21
206.0399052504322
 31
0.0
  0
CIRCLE
  5
23B9
330
2
100
AcDbEntity
  8
HOJO
100
AcDbCircle
 10
304.8297846088372
 20
189.8078544428623
 30
0.0
 40
2.5
  0
LINE
  5
23BA
330
2
100
AcDbEntity
  8
0
100
AcDbLine
 10
301.8297846088372
 20
200.8437528277259
 30
0.0
 11
304.8297846088372
 21
202.5758036352941
 31
0.0
  0
ARC
  5
23BB
330
2
100
AcDbEntity
  8
0
100
AcDbCircle
 10
297.8297846088372
 20
206.3078544428623
 30
0.0
 40
8.0
100
AcDbArc
 50
90.0
 51
100.2338896031036
  0
ARC
  5
23BC
330
2
100
AcDbEntity
  8
0
100
AcDbCircle
 10
291.3297846088372
 20
211.4182190420193
 30
0.0
 40
2.0
100
AcDbArc
 50
0.0
 51
96.39594309630409
  0
LINE
  5
23BD
330
2
100
AcDbEntity
  8
0
100
AcDbLine
 10
301.8297846088409
 20
214.3078544428623
 30
0.0
 11
297.8297846088372
 21
214.3078544428623
 31
0.0
  0
CIRCLE
  5
23BE
330
2
100
AcDbEntity
  8
0
100
AcDbCircle
 10
301.8297846088372
 20
204.3078544428623
 30
0.0
 40
6.5
  0
ARC
  5
23BF
330
2
100
AcDbEntity
  8
0
100
AcDbCircle
 10
301.829784608839
 20
204.3078544428641
 30
0.0
 40
10.0
100
AcDbArc
 50
0.0
 51
90.0
  0
LINE
  5
23C0
330
2
100
AcDbEntity
  8
CENTER
100
AcDbLine
 10
312.5797846088372
 20
204.3078544428641
 30
0.0
 11
291.0797846088372
 21
204.3078544428623
 31
0.0
  0
LINE
  5
23C1
330
2
100
AcDbEntity
  8
CENTER
100
AcDbLine
 10
297.6706272106777
 20
189.8078544428623
 30
0.0
 11
311.9889420069913
 21
189.8078544428623
 31
0.0
  0
CIRCLE
  5
23C2
330
2
100
AcDbEntity
  8
0
100
AcDbCircle
 10
304.8297846088372
 20
189.8078544428623
 30
0.0
 40
4.0
  0
CIRCLE
  5
23C3
330
2
100
AcDbEntity
  8
0
100
AcDbCircle
 10
304.8297846088372
 20
189.8078544428623
 30
0.0
 40
3.5
  0
LINE
  5
23C4
330
2
100
AcDbEntity
  8
0
100
AcDbLine
 10
301.8297846088372
 20
195.8078544428641
 30
0.0
 11
308.9401492079979
 21
195.8078544428641
 31
0.0
  0
LINE
  5
23C5
330
2
100
AcDbEntity
  8
CENTER
100
AcDbLine
 10
402.2004726401483
 20
154.3078544428641
 30
0.0
 11
601.7004726401486
 21
154.307854442864
 31
0.0
  0
LINE
  5
23C6
330
2
100
AcDbEntity
  8
0
100
AcDbLine
 10
519.7004726401488
 20
204.3078544428641
 30
0.0
 11
444.2004726401566
 21
204.3078544428641
 31
0.0
  0
LINE
  5
23C7
330
2
100
AcDbEntity
  8
0
100
AcDbLine
 10
519.7004726401488
 20
200.3078544428605
 30
0.0
 11
444.2004726401566
 21
200.3078544428605
 31
0.0
  0
LINE
  5
23C8
330
2
100
AcDbEntity
  8
0
100
AcDbLine
 10
519.7004726401488
 20
177.3118828645343
 30
0.0
 11
444.2004726401547
 21
177.3118828645343
 31
0.0
  0
LINE
  5
23C9
330
2
100
AcDbEntity
  8
0
100
AcDbLine
 10
444.2004726401566
 20
214.3078544428641
 30
0.0
 11
520.700472640147
 21
213.6402490568704
 31
0.0
  0
LINE
  5
23CA
330
2
100
AcDbEntity
  8
0
100
AcDbLine
 10
444.2004726401511
 20
94.30785444286232
 30
0.0
 11
520.7004726401488
 21
94.97545982885606
 31
0.0
  0
LINE
  5
23CB
330
2
100
AcDbEntity
  8
0
100
AcDbLine
 10
519.7004726401488
 20
104.3078544428641
 30
0.0
 11
444.2004726401566
 21
104.3078544428641
 31
0.0
  0
LINE
  5
23CC
330
2
100
AcDbEntity
  8
0
100
AcDbLine
 10
519.7004726401488
 20
108.3078544428677
 30
0.0
 11
444.2004726401566
 21
108.3078544428677
 31
0.0
  0
LINE
  5
23CD
330
2
100
AcDbEntity
  8
0
100
AcDbLine
 10
519.7004726401488
 20
131.3038260211939
 30
0.0
 11
444.2004726401547
 21
131.3038260211939
 31
0.0
  0
LINE
  5
23CF
330
2
100
AcDbEntity
  8
0
100
AcDbLine
 10
427.7004726401484
 20
197.8078544428641
 30
0.0
 11
427.7004726401484
 21
110.8078544428641
 31
0.0
  0
LINE
  5
23D0
330
2
100
AcDbEntity
  8
0
100
AcDbLine
 10
444.2004726401511
 20
214.3078544428641
 30
0.0
 11
444.2004726401584
 21
94.30785444286414
 31
0.0
  0
LINE
  5
23D1
330
2
100
AcDbEntity
  8
0
100
AcDbLine
 10
425.7004726401484
 20
110.8078544428641
 30
0.0
 11
425.7004726401484
 21
197.8078544428641
 31
0.0
  0
LINE
  5
23D2
330
2
100
AcDbEntity
  8
0
100
AcDbLine
 10
417.2004726401484
 20
191.2305041736741
 30
0.0
 11
417.2004726401484
 21
117.3852047120541
 31
0.0
  0
LINE
  5
23D3
330
2
100
AcDbEntity
  8
0
100
AcDbLine
 10
425.2004726401484
 20
114.8078544428641
 30
0.0
 11
425.2004726401484
 21
193.8078544428641
 31
0.0
  0
LINE
  5
23D4
330
2
100
AcDbEntity
  8
0
100
AcDbLine
 10
419.7004726401484
 20
117.0078544428648
 30
0.0
 11
419.7004726401484
 21
191.6078544428652
 31
0.0
  0
LINE
  5
23D5
330
2
100
AcDbEntity
  8
0
100
AcDbLine
 10
421.7004726401484
 20
117.0078544428648
 30
0.0
 11
421.7004726401484
 21
191.6078544428652
 31
0.0
  0
LINE
  5
23D6
330
2
100
AcDbEntity
  8
0
100
AcDbLine
 10
418.2004726401483
 20
116.8078544428641
 30
0.0
 11
418.2004726401483
 21
191.8078544428641
 31
0.0
  0
LINE
  5
23D7
330
2
100
AcDbEntity
  8
0
100
AcDbLine
 10
421.9004726401482
 20
116.8078544428641
 30
0.0
 11
421.9004726401482
 21
191.8078544428641
 31
0.0
  0
LINE
  5
23D8
330
2
100
AcDbEntity
  8
CENTER
  6
CENS
100
AcDbLine
 10
450.9603549320023
 20
104.3078544428641
 30
0.0
 11
421.2004726400074
 21
104.3078544428641
 31
0.0
  0
LINE
  5
23D9
330
2
100
AcDbEntity
  8
0
100
AcDbLine
 10
419.9004726401482
 20
117.507854442863
 30
0.0
 11
421.5004726401477
 21
117.507854442863
 31
0.0
  0
LINE
  5
23DA
330
2
100
AcDbEntity
  8
0
100
AcDbLine
 10
434.2004726400074
 20
112.3121988375675
 30
0.0
 11
434.2004726400074
 21
95.3864343313686
 31
0.0
  0
ARC
  5
23DB
330
2
100
AcDbEntity
  8
0
100
AcDbCircle
 10
433.7004726400074
 20
112.3121988375675
 30
0.0
 40
0.5
100
AcDbArc
 50
0.0
 51
89.50000000003447
  0
ARC
  5
23DC
330
2
100
AcDbEntity
  8
0
100
AcDbCircle
 10
435.2004726400074
 20
95.3864343313686
 30
0.0
 40
1.0
100
AcDbArc
 50
180.0
 51
269.4999999999823
  0
LINE
  5
23DD
330
2
100
AcDbEntity
  8
0
100
AcDbLine
 10
432.2004726400074
 20
110.8078544428641
 30
0.0
 11
432.2004726400083
 21
97.80785444286415
 31
0.0
  0
LINE
  5
23DE
330
2
100
AcDbEntity
  8
0
100
AcDbLine
 10
434.2004726400074
 20
97.80785444286415
 30
0.0
 11
432.2004726400074
 21
97.80785444286415
 31
0.0
  0
LINE
  5
23DF
330
2
100
AcDbEntity
  8
0
100
AcDbLine
 10
434.2004726400074
 20
110.8078544428641
 30
0.0
 11
432.2004726400074
 21
110.8078544428641
 31
0.0
  0
LINE
  5
23E0
330
2
100
AcDbEntity
  8
HIDS
100
AcDbLine
 10
427.7004726401474
 20
110.8078544428641
 30
0.0
 11
427.7004726401484
 21
97.80785444286415
 31
0.0
  0
LINE
  5
23E1
330
2
100
AcDbEntity
  8
0
100
AcDbLine
 10
427.7004726401484
 20
97.80785444286415
 30
0.0
 11
427.7004726401484
 21
96.43447018260269
 31
0.0
  0
ARC
  5
23E2
330
2
100
AcDbEntity
  8
0
100
AcDbCircle
 10
429.7004726401484
 20
96.43447018260269
 30
0.0
 40
2.0
100
AcDbArc
 50
180.0
 51
269.5000000000344
  0
LINE
  5
23E3
330
2
100
AcDbEntity
  8
HIDS
100
AcDbLine
 10
425.7004726401484
 20
109.1362815676108
 30
0.0
 11
425.7004726401484
 21
110.8078544428641
 31
0.0
  0
LINE
  5
23E4
330
2
100
AcDbEntity
  8
HIDS
100
AcDbLine
 10
427.1146862025217
 20
106.8936408804908
 30
0.0
 11
426.286259077775
 21
107.7220680052374
 31
0.0
  0
LINE
  5
23E5
330
2
100
AcDbEntity
  8
0
100
AcDbLine
 10
421.9004726401482
 20
116.8078544428641
 30
0.0
 11
425.2004726401484
 21
116.8078544428641
 31
0.0
  0
LINE
  5
23E6
330
2
100
AcDbEntity
  8
0
100
AcDbLine
 10
425.7004726401484
 20
114.3078544428641
 30
0.0
 11
425.2004726401484
 21
114.8078544428641
 31
0.0
  0
LINE
  5
23E7
330
2
100
AcDbEntity
  8
0
100
AcDbLine
 10
418.2004726401483
 20
116.8078544428641
 30
0.0
 11
419.5004726401485
 21
116.8078544428641
 31
0.0
  0
LINE
  5
23E8
330
2
100
AcDbEntity
  8
0
100
AcDbLine
 10
421.7004726401484
 20
117.0078544428648
 30
0.0
 11
421.9004726401482
 21
116.8078544428641
 31
0.0
  0
LINE
  5
23E9
330
2
100
AcDbEntity
  8
0
100
AcDbLine
 10
418.2004726401483
 20
116.8078544428641
 30
0.0
 11
417.2004726401484
 21
117.3852047120541
 31
0.0
  0
ARC
  5
23EA
330
2
100
AcDbEntity
  8
HIDS
100
AcDbCircle
 10
427.7004726401484
 20
109.1362815676108
 30
0.0
 40
2.0
100
AcDbArc
 50
180.0
 51
224.9999999999908
  0
ARC
  5
23EB
330
2
100
AcDbEntity
  8
HIDS
100
AcDbCircle
 10
425.7004726401484
 20
105.4794273181174
 30
0.0
 40
2.0
100
AcDbArc
 50
0.0
 51
44.99999999999078
  0
ARC
  5
23EC
330
2
100
AcDbEntity
  8
0
100
AcDbCircle
 10
419.5004726401485
 20
117.0078544428648
 30
0.0
 40
0.2
100
AcDbArc
 50
270.0
 51
0.0
  0
ARC
  5
23ED
330
2
100
AcDbEntity
  8
0
100
AcDbCircle
 10
429.7004726401484
 20
114.8472015046951
 30
0.0
 40
2.0
100
AcDbArc
 50
180.0
 51
269.5000000000344
  0
LINE
  5
23EE
330
2
100
AcDbEntity
  8
0
100
AcDbLine
 10
424.2004726400073
 20
109.94182903908
 30
0.0
 11
424.2004726400073
 21
98.67387984665004
 31
0.0
  0
LINE
  5
23EF
330
2
100
AcDbEntity
  8
0
100
AcDbLine
 10
424.7004726400074
 20
97.80785444286415
 30
0.0
 11
424.2004726400073
 21
98.67387984665004
 31
0.0
  0
LINE
  5
23F0
330
2
100
AcDbEntity
  8
0
100
AcDbLine
 10
424.7004726400074
 20
110.8078544428641
 30
0.0
 11
424.7004726400074
 21
97.80785444286415
 31
0.0
  0
LINE
  5
23F1
330
2
100
AcDbEntity
  8
0
100
AcDbLine
 10
424.7004726400074
 20
110.8078544428641
 30
0.0
 11
424.2004726400073
 21
109.94182903908
 31
0.0
  0
LINE
  5
23F2
330
2
100
AcDbEntity
  8
0
100
AcDbLine
 10
433.7048359077572
 20
112.8121797991021
 30
0.0
 11
429.6830195691519
 21
112.8472776585673
 31
0.0
  0
LINE
  5
23F3
330
2
100
AcDbEntity
  8
0
100
AcDbLine
 10
432.2004726400074
 20
97.80785444286415
 30
0.0
 11
424.7004726400074
 21
97.80785444286415
 31
0.0
  0
LINE
  5
23F4
330
2
100
AcDbEntity
  8
0
100
AcDbLine
 10
432.2004726400074
 20
110.8078544428641
 30
0.0
 11
424.7004726400074
 21
110.8078544428641
 31
0.0
  0
ARC
  5
23F5
330
2
100
AcDbEntity
  8
0
100
AcDbCircle
 10
419.9004726401482
 20
117.3078544428641
 30
0.0
 40
0.2
100
AcDbArc
 50
90.0
 51
180.0
  0
ARC
  5
23F6
330
2
100
AcDbEntity
  8
0
100
AcDbCircle
 10
421.5004726401486
 20
117.3078544428641
 30
0.0
 40
0.2
100
AcDbArc
 50
0.0
 51
90.0
  0
LINE
  5
23F7
330
2
100
AcDbEntity
  8
0
100
AcDbLine
 10
435.1917461045096
 20
104.3078544428641
 30
0.0
 11
444.2004726401566
 21
104.3078544428641
 31
0.0
  0
LINE
  5
23F8
330
2
100
AcDbEntity
  8
0
100
AcDbLine
 10
435.1917461045096
 20
108.3078544428677
 30
0.0
 11
444.2004726401566
 21
108.3078544428677
 31
0.0
  0
LINE
  5
23F9
330
2
100
AcDbEntity
  8
0
100
AcDbLine
 10
444.2004726401584
 20
94.30785444286414
 30
0.0
 11
429.6830195691519
 21
94.4345463364749
 31
0.0
  0
LINE
  5
23FA
330
2
100
AcDbEntity
  8
0
100
AcDbLine
 10
429.6830195691519
 20
131.3038260211684
 30
0.0
 11
444.2004726401547
 21
131.3038260211684
 31
0.0
  0
LINE
  5
23FB
330
2
100
AcDbEntity
  8
0
100
AcDbLine
 10
429.6830195691519
 20
177.3118828645598
 30
0.0
 11
444.2004726401547
 21
177.3118828645598
 31
0.0
  0
LINE
  5
23FC
330
2
100
AcDbEntity
  8
CENTER
  6
CENS
100
AcDbLine
 10
450.9603549320023
 20
204.3078544428641
 30
0.0
 11
421.2004726400074
 21
204.3078544428641
 31
0.0
  0
LINE
  5
23FD
330
2
100
AcDbEntity
  8
HIDS
100
AcDbLine
 10
427.7004726401484
 20
210.8078544428641
 30
0.0
 11
427.7004726401484
 21
197.8078544428641
 31
0.0
  0
LINE
  5
23FE
330
2
100
AcDbEntity
  8
0
100
AcDbLine
 10
434.2004726400074
 20
196.3035100481626
 30
0.0
 11
434.2004726400074
 21
213.2292745543596
 31
0.0
  0
LINE
  5
23FF
330
2
100
AcDbEntity
  8
0
100
AcDbLine
 10
424.2004726400073
 20
198.6738798466482
 30
0.0
 11
424.2004726400073
 21
209.94182903908
 31
0.0
  0
LINE
  5
2400
330
2
100
AcDbEntity
  8
0
100
AcDbLine
 10
434.2004726400074
 20
197.8078544428641
 30
0.0
 11
434.2004726400074
 21
210.8078544428641
 31
0.0
  0
LINE
  5
2401
330
2
100
AcDbEntity
  8
0
100
AcDbLine
 10
432.2004726400074
 20
197.8078544428641
 30
0.0
 11
432.2004726400083
 21
210.8078544428641
 31
0.0
  0
LINE
  5
2402
330
2
100
AcDbEntity
  8
0
100
AcDbLine
 10
424.7004726400074
 20
197.8078544428641
 30
0.0
 11
424.7004726400074
 21
210.8078544428641
 31
0.0
  0
ARC
  5
2403
330
2
100
AcDbEntity
  8
0
100
AcDbCircle
 10
433.7004726400074
 20
196.3035100481626
 30
0.0
 40
0.5
100
AcDbArc
 50
270.4999999999655
 51
0.0
  0
LINE
  5
2404
330
2
100
AcDbEntity
  8
0
100
AcDbLine
 10
434.2004726400074
 20
197.8078544428641
 30
0.0
 11
432.2004726400074
 21
197.8078544428641
 31
0.0
  0
LINE
  5
2405
330
2
100
AcDbEntity
  8
0
100
AcDbLine
 10
421.9004726401482
 20
191.8078544428641
 30
0.0
 11
425.2004726401484
 21
191.8078544428641
 31
0.0
  0
LINE
  5
2406
330
2
100
AcDbEntity
  8
HIDS
100
AcDbLine
 10
425.7004726401484
 20
197.8078544428641
 30
0.0
 11
425.7004726401484
 21
199.4794273181192
 31
0.0
  0
LINE
  5
2407
330
2
100
AcDbEntity
  8
HIDS
100
AcDbLine
 10
427.1146862025217
 20
201.7220680052374
 30
0.0
 11
426.286259077775
 21
200.8936408804907
 31
0.0
  0
LINE
  5
2408
330
2
100
AcDbEntity
  8
0
100
AcDbLine
 10
425.7004726401484
 20
194.3078544428641
 30
0.0
 11
425.2004726401484
 21
193.8078544428641
 31
0.0
  0
LINE
  5
2409
330
2
100
AcDbEntity
  8
0
100
AcDbLine
 10
418.2004726401475
 20
191.8078544428641
 30
0.0
 11
419.5004726401476
 21
191.8078544428641
 31
0.0
  0
LINE
  5
240A
330
2
100
AcDbEntity
  8
0
100
AcDbLine
 10
421.7004726401475
 20
191.6078544428652
 30
0.0
 11
421.9004726401482
 21
191.8078544428641
 31
0.0
  0
LINE
  5
240B
330
2
100
AcDbEntity
  8
0
100
AcDbLine
 10
419.9004726401482
 20
191.1078544428652
 30
0.0
 11
421.5004726401477
 21
191.1078544428652
 31
0.0
  0
LINE
  5
240C
330
2
100
AcDbEntity
  8
0
100
AcDbLine
 10
418.2004726401483
 20
191.8078544428641
 30
0.0
 11
417.2004726401475
 21
191.2305041736741
 31
0.0
  0
ARC
  5
240D
330
2
100
AcDbEntity
  8
HIDS
100
AcDbCircle
 10
427.7004726401484
 20
199.4794273181192
 30
0.0
 40
2.0
100
AcDbArc
 50
135.0000000000092
 51
180.0
  0
ARC
  5
240E
330
2
100
AcDbEntity
  8
HIDS
100
AcDbCircle
 10
425.7004726401484
 20
203.1362815676108
 30
0.0
 40
2.0
100
AcDbArc
 50
315.0000000000092
 51
0.0
  0
ARC
  5
240F
330
2
100
AcDbEntity
  8
0
100
AcDbCircle
 10
419.5004726401476
 20
191.6078544428652
 30
0.0
 40
0.2
100
AcDbArc
 50
0.0
 51
90.0
  0
ARC
  5
2410
330
2
100
AcDbEntity
  8
0
100
AcDbCircle
 10
419.9004726401482
 20
191.3078544428641
 30
0.0
 40
0.2
100
AcDbArc
 50
180.0
 51
270.0
  0
ARC
  5
2411
330
2
100
AcDbEntity
  8
0
100
AcDbCircle
 10
421.5004726401477
 20
191.3078544428641
 30
0.0
 40
0.2
100
AcDbArc
 50
270.0
 51
0.0
  0
ARC
  5
2412
330
2
100
AcDbEntity
  8
0
100
AcDbCircle
 10
429.7004726401484
 20
193.7685073810331
 30
0.0
 40
2.0
100
AcDbArc
 50
90.49999999996552
 51
180.0
  0
LINE
  5
2413
330
2
100
AcDbEntity
  8
0
100
AcDbLine
 10
424.7004726400074
 20
197.8078544428641
 30
0.0
 11
424.2004726400073
 21
198.6738798466482
 31
0.0
  0
LINE
  5
2414
330
2
100
AcDbEntity
  8
0
100
AcDbLine
 10
433.7048359077572
 20
195.8035290866279
 30
0.0
 11
429.6830195691519
 21
195.7684312271609
 31
0.0
  0
LINE
  5
2415
330
2
100
AcDbEntity
  8
0
100
AcDbLine
 10
432.2004726400074
 20
197.8078544428641
 30
0.0
 11
424.7004726400074
 21
197.8078544428641
 31
0.0
  0
LINE
  5
2416
330
2
100
AcDbEntity
  8
0
100
AcDbLine
 10
435.1917461045096
 20
204.3078544428659
 30
0.0
 11
444.2004726401566
 21
204.3078544428659
 31
0.0
  0
LINE
  5
2417
330
2
100
AcDbEntity
  8
0
100
AcDbLine
 10
435.1917461045096
 20
200.3078544428623
 30
0.0
 11
444.2004726401566
 21
200.3078544428623
 31
0.0
  0
ARC
  5
2418
330
2
100
AcDbEntity
  8
0
100
AcDbCircle
 10
435.2004726400074
 20
213.2292745543596
 30
0.0
 40
1.0
100
AcDbArc
 50
90.50000000001762
 51
180.0
  0
LINE
  5
2419
330
2
100
AcDbEntity
  8
0
100
AcDbLine
 10
434.2004726400074
 20
210.8078544428641
 30
0.0
 11
432.2004726400074
 21
210.8078544428641
 31
0.0
  0
LINE
  5
241A
330
2
100
AcDbEntity
  8
0
100
AcDbLine
 10
427.7004726401484
 20
212.1812387031273
 30
0.0
 11
427.7004726401484
 21
210.8078544428641
 31
0.0
  0
ARC
  5
241B
330
2
100
AcDbEntity
  8
0
100
AcDbCircle
 10
429.7004726401484
 20
212.1812387031273
 30
0.0
 40
2.0
100
AcDbArc
 50
90.49999999996552
 51
180.0
  0
LINE
  5
241C
330
2
100
AcDbEntity
  8
0
100
AcDbLine
 10
424.7004726400074
 20
210.8078544428641
 30
0.0
 11
424.2004726400073
 21
209.94182903908
 31
0.0
  0
LINE
  5
241D
330
2
100
AcDbEntity
  8
0
100
AcDbLine
 10
432.2004726400074
 20
210.8078544428641
 30
0.0
 11
424.7004726400074
 21
210.8078544428641
 31
0.0
  0
LINE
  5
241E
330
2
100
AcDbEntity
  8
0
100
AcDbLine
 10
444.2004726401511
 20
214.3078544428641
 30
0.0
 11
429.6830195691519
 21
214.1811625492552
 31
0.0
  0
LINE
  5
241F
330
2
100
AcDbEntity
  8
0
100
AcDbLine
 10
539.7004726401489
 20
116.239231992478
 30
0.0
 11
539.7004726401489
 21
192.3764768932502
 31
0.0
  0
LINE
  5
2420
330
2
100
AcDbEntity
  8
0
100
AcDbLine
 10
520.7004726401488
 20
94.97545982885606
 30
0.0
 11
520.700472640147
 21
213.6402490568704
 31
0.0
  0
LINE
  5
2421
330
2
100
AcDbEntity
  8
0
100
AcDbLine
 10
525.7004726401488
 20
99.30785444286232
 30
0.0
 11
525.7004726401488
 21
209.3078544428623
 31
0.0
  0
LINE
  5
2422
330
2
100
AcDbEntity
  8
0
100
AcDbLine
 10
540.7004726401488
 20
175.5191793082693
 30
0.0
 11
540.7004726401488
 21
133.0965295774589
 31
0.0
  0
LINE
  5
2423
330
2
100
AcDbEntity
  8
0
100
AcDbLine
 10
525.7004726401488
 20
99.30785444286232
 30
0.0
 11
520.7004726401488
 21
99.30785444286232
 31
0.0
  0
ARC
  5
2424
330
2
100
AcDbEntity
  8
0
100
AcDbCircle
 10
537.7004726401488
 20
116.239231992478
 30
0.0
 40
2.0
100
AcDbArc
 50
272.0000000000037
 51
0.0
  0
ARC
  5
2425
330
2
100
AcDbEntity
  8
0
100
AcDbCircle
 10
527.7004726401488
 20
111.8875861203665
 30
0.0
 40
2.0
100
AcDbArc
 50
92.0000000000037
 51
180.0
  0
LINE
  5
2426
330
2
100
AcDbEntity
  8
0
100
AcDbLine
 10
527.6306736467437
 20
113.8863677744044
 30
0.0
 11
537.770271633554
 21
114.2404503384401
 31
0.0
  0
ARC
  5
2427
330
2
100
AcDbEntity
  8
0
100
AcDbCircle
 10
540.2004726401488
 20
133.0965295774589
 30
0.0
 40
0.5
100
AcDbArc
 50
300.0000000000005
 51
0.0
  0
ARC
  5
2428
330
2
100
AcDbEntity
  8
0
100
AcDbCircle
 10
539.2985488515029
 20
134.3078544428641
 30
0.0
 40
2.0
100
AcDbArc
 50
281.593213623511
 51
300.0000000000005
  0
LINE
  5
2429
330
2
100
AcDbEntity
  8
0
100
AcDbLine
 10
540.2985488515029
 20
132.5758036352953
 30
0.0
 11
540.4504726401488
 21
132.6635168755666
 31
0.0
  0
LINE
  5
242A
330
2
100
AcDbEntity
  8
0
100
AcDbLine
 10
586.2004726401488
 20
168.3078544428641
 30
0.0
 11
541.7004726401488
 21
168.3078544428641
 31
0.0
  0
LINE
  5
242B
330
2
100
AcDbEntity
  8
0
100
AcDbLine
 10
541.7004726401488
 20
140.3078544428641
 30
0.0
 11
586.2004726401488
 21
140.3078544428641
 31
0.0
  0
LINE
  5
242C
330
2
100
AcDbEntity
  8
0
100
AcDbLine
 10
541.7004726401488
 20
169.3078544428641
 30
0.0
 11
541.7004726401488
 21
139.3078544428641
 31
0.0
  0
LINE
  5
242D
330
2
100
AcDbEntity
  8
0
100
AcDbLine
 10
541.7004726401488
 20
139.3078544428641
 30
0.0
 11
540.7004726401488
 21
138.7305041736743
 31
0.0
  0
LINE
  5
242E
330
2
100
AcDbEntity
  8
0
100
AcDbLine
 10
541.7004726401488
 20
169.3078544428641
 30
0.0
 11
540.7004726401488
 21
169.8852047120539
 31
0.0
  0
ARC
  5
242F
330
2
100
AcDbEntity
  8
0
100
AcDbCircle
 10
540.2004726401488
 20
175.5191793082693
 30
0.0
 40
0.5
100
AcDbArc
 50
0.0
 51
59.99999999999946
  0
ARC
  5
2430
330
2
100
AcDbEntity
  8
0
100
AcDbCircle
 10
539.2985488515029
 20
174.3078544428641
 30
0.0
 40
2.0
100
AcDbArc
 50
59.99999999999946
 51
78.40678637648899
  0
LINE
  5
2431
330
2
100
AcDbEntity
  8
0
100
AcDbLine
 10
540.2985488515029
 20
176.0399052504329
 30
0.0
 11
540.4504726401488
 21
175.9521920101616
 31
0.0
  0
LINE
  5
2432
330
2
100
AcDbEntity
  8
0
100
AcDbLine
 10
525.7004726401488
 20
209.3078544428623
 30
0.0
 11
520.7004726401488
 21
209.3078544428623
 31
0.0
  0
ARC
  5
2433
330
2
100
AcDbEntity
  8
0
100
AcDbCircle
 10
537.7004726401488
 20
192.3764768932502
 30
0.0
 40
2.0
100
AcDbArc
 50
0.0
 51
87.99999999999627
  0
ARC
  5
2434
330
2
100
AcDbEntity
  8
0
100
AcDbCircle
 10
527.7004726401488
 20
196.7281227653635
 30
0.0
 40
2.0
100
AcDbArc
 50
180.0
 51
267.9999999999963
  0
LINE
  5
2435
330
2
100
AcDbEntity
  8
0
100
AcDbLine
 10
527.6306736467437
 20
194.7293411113256
 30
0.0
 11
537.770271633554
 21
194.3752585472881
 31
0.0
  0
LINE
  5
2436
330
2
100
AcDbEntity
  8
0
100
AcDbLine
 10
586.7004726401488
 20
140.8078544428641
 30
0.0
 11
586.7004726401488
 21
167.8078544428641
 31
0.0
  0
LINE
  5
2437
330
2
100
AcDbEntity
  8
0
100
AcDbLine
 10
586.2004726401488
 20
168.3078544428641
 30
0.0
 11
586.2004726401488
 21
140.3078544428641
 31
0.0
  0
LINE
  5
2438
330
2
100
AcDbEntity
  8
0
100
AcDbLine
 10
586.7004726401488
 20
140.8078544428641
 30
0.0
 11
586.2004726401488
 21
140.3078544428641
 31
0.0
  0
LINE
  5
2439
330
2
100
AcDbEntity
  8
0
100
AcDbLine
 10
586.2004726401488
 20
168.3078544428641
 30
0.0
 11
586.7004726401488
 21
167.8078544428641
 31
0.0
  0
LINE
  5
243B
330
2
100
AcDbEntity
  8
CENTER
100
AcDbLine
 10
814.0134616127516
 20
69.30785444286607
 30
0.0
 11
814.0134616127513
 21
239.307854442866
 31
0.0
  0
CIRCLE
  5
243C
330
2
100
AcDbEntity
  8
CENTER
100
AcDbCircle
 10
814.0134616127497
 20
154.307854442866
 30
0.0
 40
70.0
  0
ARC
  5
243E
330
2
100
AcDbEntity
  8
0
100
AcDbCircle
 10
942.4234616126859
 20
190.3078544428642
 30
0.0
 40
5.0
100
AcDbArc
 50
270.0
 51
0.0
  0
ARC
  5
243F
330
2
100
AcDbEntity
  8
0
100
AcDbCircle
 10
942.4234616126859
 20
118.3078544428642
 30
0.0
 40
5.0
100
AcDbArc
 50
0.0
 51
90.0
  0
LINE
  5
2440
330
2
100
AcDbEntity
  8
CENTER
100
AcDbLine
 10
878.1555972364817
 20
90.16571881913614
 30
0.0
 11
749.8713259890189
 21
218.449990066597
 31
0.0
  0
LINE
  5
2441
330
2
100
AcDbEntity
  8
CENTER
100
AcDbLine
 10
749.8713259890207
 20
90.1657188191333
 30
0.0
 11
878.1555972364836
 21
218.4499900665942
 31
0.0
  0
CIRCLE
  5
2442
330
2
100
AcDbEntity
  8
0
100
AcDbCircle
 10
814.0134616127516
 20
154.3078544428642
 30
0.0
 40
22.00000000000181
  0
CIRCLE
  5
2443
330
2
100
AcDbEntity
  8
0
100
AcDbCircle
 10
814.0134616127516
 20
154.3078544428642
 30
0.0
 40
15.57735026919158
  0
CIRCLE
  5
2444
330
2
100
AcDbEntity
  8
0
100
AcDbCircle
 10
814.0134616127516
 20
154.3078544428642
 30
0.0
 40
15.00000000000182
  0
CIRCLE
  5
2445
330
2
100
AcDbEntity
  8
0
100
AcDbCircle
 10
814.0134616127516
 20
154.3078544428642
 30
0.0
 40
14.00000000000181
  0
ARC
  5
2446
330
2
100
AcDbEntity
  8
0
100
AcDbCircle
 10
814.0134616127516
 20
-35.69214555713392
 30
0.0
 40
250.0
100
AcDbArc
 50
84.72039671760308
 51
95.27960328239691
  0
ARC
  5
2447
330
2
100
AcDbEntity
  8
0
100
AcDbCircle
 10
814.0134616127461
 20
344.307854442866
 30
0.0
 40
250.0
100
AcDbArc
 50
264.7203967176031
 51
275.2796032823969
  0
CIRCLE
  5
2449
330
2
100
AcDbEntity
  8
0
100
AcDbCircle
 10
814.0134616127497
 20
154.307854442866
 30
0.0
 40
55.0
  0
CIRCLE
  5
244A
330
2
100
AcDbEntity
  8
0
100
AcDbCircle
 10
814.0134616127497
 20
154.307854442866
 30
0.0
 40
32.5
  0
CIRCLE
  5
244B
330
2
100
AcDbEntity
  8
0
100
AcDbCircle
 10
814.0134616127497
 20
154.307854442866
 30
0.0
 40
40.0
  0
ARC
  5
244C
330
2
100
AcDbEntity
  8
0
100
AcDbCircle
 10
1004.013461612749
 20
154.307854442866
 30
0.0
 40
250.0
100
AcDbArc
 50
174.7203967175508
 51
185.2796032824491
  0
CIRCLE
  5
244D
330
2
100
AcDbEntity
  8
0
100
AcDbCircle
 10
764.5159869296922
 20
104.8103797598084
 30
0.0
 40
3.2
  0
CIRCLE
  5
244E
330
2
100
AcDbEntity
  8
HOJO
100
AcDbCircle
 10
764.5159869296922
 20
104.8103797598084
 30
0.0
 40
4.0
  0
LINE
  5
244F
330
2
100
AcDbEntity
  8
CENTER
100
AcDbLine
 10
755.5159869296922
 20
104.8103797598066
 30
0.0
 11
773.5159869296921
 21
104.8103797598066
 31
0.0
  0
LINE
  5
2450
330
2
100
AcDbEntity
  8
0
100
AcDbLine
 10
764.0134616127498
 20
94.30785444286607
 30
0.0
 11
768.0134616127552
 21
94.30785444286607
 31
0.0
  0
ARC
  5
2451
330
2
100
AcDbEntity
  8
0
100
AcDbCircle
 10
764.0134616127498
 20
104.307854442866
 30
0.0
 40
10.0
100
AcDbArc
 50
180.0
 51
270.0
  0
LINE
  5
2452
330
2
100
AcDbEntity
  8
0
100
AcDbLine
 10
754.0134616127497
 20
104.307854442866
 30
0.0
 11
754.0134616127497
 21
108.3078544428697
 31
0.0
  0
ARC
  5
2453
330
2
100
AcDbEntity
  8
0
100
AcDbCircle
 10
762.0134616127497
 20
108.3078544428697
 30
0.0
 40
8.0
100
AcDbArc
 50
169.7661103968432
 51
180.0
  0
LINE
  5
2454
330
2
100
AcDbEntity
  8
CENTER
100
AcDbLine
 10
764.5159869296922
 20
113.8103797598048
 30
0.0
 11
764.5159869296922
 21
95.81037975980484
 31
0.0
  0
ARC
  5
2455
330
2
100
AcDbEntity
  8
0
100
AcDbCircle
 10
675.4134806448319
 20
123.9425369262587
 30
0.0
 40
80.0
100
AcDbArc
 50
349.7661103968432
 51
5.279603282449114
  0
ARC
  5
2456
330
2
100
AcDbEntity
  8
0
100
AcDbCircle
 10
783.6481440961461
 20
15.7078734749482
 30
0.0
 40
80.0
100
AcDbArc
 50
84.72039671760308
 51
100.2338896031036
  0
ARC
  5
2457
330
2
100
AcDbEntity
  8
0
100
AcDbCircle
 10
768.0134616127552
 20
102.3078544428642
 30
0.0
 40
8.0
100
AcDbArc
 50
270.0
 51
280.2338896031037
  0
ARC
  5
2458
330
2
100
AcDbEntity
  8
0
100
AcDbCircle
 10
675.4134806448319
 20
184.6731719594752
 30
0.0
 40
80.0
100
AcDbArc
 50
354.7203967175509
 51
10.23388960315672
  0
LINE
  5
2459
330
2
100
AcDbEntity
  8
0
100
AcDbLine
 10
764.0134616127498
 20
214.307854442866
 30
0.0
 11
768.0134616127534
 21
214.307854442866
 31
0.0
  0
CIRCLE
  5
245A
330
2
100
AcDbEntity
  8
HOJO
100
AcDbCircle
 10
764.5159869296922
 20
203.8053291259255
 30
0.0
 40
4.0
  0
CIRCLE
  5
245B
330
2
100
AcDbEntity
  8
0
100
AcDbCircle
 10
764.5159869296922
 20
203.8053291259255
 30
0.0
 40
3.2
  0
LINE
  5
245C
330
2
100
AcDbEntity
  8
CENTER
100
AcDbLine
 10
755.5159869296922
 20
203.8053291259236
 30
0.0
 11
773.5159869296921
 21
203.8053291259236
 31
0.0
  0
ARC
  5
245D
330
2
100
AcDbEntity
  8
0
100
AcDbCircle
 10
762.0134616127497
 20
200.3078544428624
 30
0.0
 40
8.0
100
AcDbArc
 50
180.0
 51
190.2338896031567
  0
LINE
  5
245E
330
2
100
AcDbEntity
  8
0
100
AcDbLine
 10
754.0134616127497
 20
200.3078544428624
 30
0.0
 11
754.0134616127497
 21
204.307854442866
 31
0.0
  0
ARC
  5
245F
330
2
100
AcDbEntity
  8
0
100
AcDbCircle
 10
764.0134616127498
 20
204.307854442866
 30
0.0
 40
10.0
100
AcDbArc
 50
90.0
 51
180.0
  0
LINE
  5
2460
330
2
100
AcDbEntity
  8
CENTER
100
AcDbLine
 10
764.5159869296922
 20
194.8053291259236
 30
0.0
 11
764.5159869296922
 21
212.8053291259236
 31
0.0
  0
ARC
  5
2461
330
2
100
AcDbEntity
  8
0
100
AcDbCircle
 10
783.6481440961424
 20
292.9078354107821
 30
0.0
 40
80.0
100
AcDbArc
 50
259.7661103968963
 51
275.2796032823969
  0
ARC
  5
2462
330
2
100
AcDbEntity
  8
0
100
AcDbCircle
 10
768.0134616127534
 20
206.307854442866
 30
0.0
 40
8.0
100
AcDbArc
 50
79.76611039689631
 51
90.0
  0
LINE
  5
2463
330
2
100
AcDbEntity
  8
0
100
AcDbLine
 10
935.9758334558746
 20
182.3078544428678
 30
0.0
 11
935.9758334557964
 21
126.3078544428678
 31
0.0
  0
LINE
  5
2464
330
2
100
AcDbEntity
  8
0
100
AcDbLine
 10
874.0134616127498
 20
104.307854442866
 30
0.0
 11
874.0134616127498
 21
204.307854442866
 31
0.0
  0
LINE
  5
2465
330
2
100
AcDbEntity
  8
0
100
AcDbLine
 10
917.5134616127534
 20
119.307854442866
 30
0.0
 11
917.5134616127479
 21
189.307854442866
 31
0.0
  0
ARC
  5
2466
330
2
100
AcDbEntity
  8
0
100
AcDbCircle
 10
864.0134616127497
 20
104.307854442866
 30
0.0
 40
10.0
100
AcDbArc
 50
270.0
 51
0.0
  0
ARC
  5
2467
330
2
100
AcDbEntity
  8
0
100
AcDbCircle
 10
881.9856623683618
 20
103.3078544428624
 30
0.0
 40
8.0
100
AcDbArc
 50
90.0
 51
176.8152614633259
  0
ARC
  5
2468
330
2
100
AcDbEntity
  8
0
100
AcDbCircle
 10
844.3787791293516
 20
15.7078734749482
 30
0.0
 40
80.0
100
AcDbArc
 50
79.76611039689631
 51
95.27960328239691
  0
LINE
  5
2469
330
2
100
AcDbEntity
  8
0
100
AcDbLine
 10
818.2752311211853
 20
102.3078544428533
 30
0.0
 11
821.1552323625156
 21
102.3078544428533
 31
0.0
  0
LINE
  5
246A
330
2
100
AcDbEntity
  8
0
100
AcDbLine
 10
819.1681634826609
 20
105.4304816412457
 30
0.0
 11
821.1552323625156
 21
102.3078544428533
 31
0.0
  0
ARC
  5
246B
330
2
100
AcDbEntity
  8
0
100
AcDbCircle
 10
817.5116181030016
 20
107.5878544428612
 30
0.0
 40
2.720000000003957
100
AcDbArc
 50
307.5189678668038
 51
90.0
  0
LINE
  5
246C
330
2
100
AcDbEntity
  8
0
100
AcDbLine
 10
810.8716908629912
 20
110.3078544428642
 30
0.0
 11
817.5116181030016
 21
110.3078544428642
 31
0.0
  0
ARC
  5
246D
330
2
100
AcDbEntity
  8
0
100
AcDbCircle
 10
817.3416908630015
 20
107.4178544428612
 30
0.0
 40
0.1700000000002474
100
AcDbArc
 50
270.0
 51
90.0
  0
LINE
  5
246E
330
2
100
AcDbEntity
  8
0
100
AcDbLine
 10
815.1316908629969
 20
107.2478544428593
 30
0.0
 11
817.3416908630015
 21
107.2478544428593
 31
0.0
  0
LINE
  5
246F
330
2
100
AcDbEntity
  8
0
100
AcDbLine
 10
814.7916181029968
 20
107.5878544428612
 30
0.0
 11
817.3416908629997
 21
107.5878544428612
 31
0.0
  0
LINE
  5
2470
330
2
100
AcDbEntity
  8
0
100
AcDbLine
 10
814.7916181029968
 20
107.5878544428612
 30
0.0
 11
814.7916181029968
 21
102.3078544428533
 31
0.0
  0
LINE
  5
2471
330
2
100
AcDbEntity
  8
0
100
AcDbLine
 10
815.1316908629969
 20
107.2478544428593
 30
0.0
 11
818.2752311211853
 21
102.3078544428533
 31
0.0
  0
LINE
  5
2472
330
2
100
AcDbEntity
  8
0
100
AcDbLine
 10
812.3916908629935
 20
107.5878519602044
 30
0.0
 11
811.6316921043207
 21
106.0678544428572
 31
0.0
  0
LINE
  5
2473
330
2
100
AcDbEntity
  8
0
100
AcDbLine
 10
812.3916908629935
 20
107.5878519602044
 30
0.0
 11
812.3916908629935
 21
106.067854442859
 31
0.0
  0
LINE
  5
2474
330
2
100
AcDbEntity
  8
0
100
AcDbLine
 10
811.6316921043207
 20
106.0678544428572
 30
0.0
 11
812.3916908629935
 21
106.067854442859
 31
0.0
  0
LINE
  5
2475
330
2
100
AcDbEntity
  8
0
100
AcDbLine
 10
812.3916908629935
 20
103.507854442854
 30
0.0
 11
812.3916908629935
 21
102.3078544428533
 31
0.0
  0
LINE
  5
2476
330
2
100
AcDbEntity
  8
0
100
AcDbLine
 10
810.3516921043183
 20
103.5078544428558
 30
0.0
 11
812.3916908629935
 21
103.507854442854
 31
0.0
  0
LINE
  5
2477
330
2
100
AcDbEntity
  8
0
100
AcDbLine
 10
810.3516921043183
 20
103.5078544428558
 30
0.0
 11
809.751692104318
 21
102.3078544428533
 31
0.0
  0
LINE
  5
2478
330
2
100
AcDbEntity
  8
0
100
AcDbLine
 10
812.3916908629935
 20
102.3078544428533
 30
0.0
 11
814.7916181029968
 21
102.3078544428533
 31
0.0
  0
LINE
  5
2479
330
2
100
AcDbEntity
  8
0
100
AcDbLine
 10
810.8716908629912
 20
110.3078544428642
 30
0.0
 11
806.8716908629857
 21
102.3078544428533
 31
0.0
  0
LINE
  5
247A
330
2
100
AcDbEntity
  8
0
100
AcDbLine
 10
806.8716908629857
 20
102.3078544428533
 30
0.0
 11
809.751692104318
 21
102.3078544428533
 31
0.0
  0
LINE
  5
247B
330
2
100
AcDbEntity
  8
CENTER
100
AcDbLine
 10
872.5109362958091
 20
104.8103797598084
 30
0.0
 11
854.5109362958092
 21
104.8103797598084
 31
0.0
  0
LINE
  5
247C
330
2
100
AcDbEntity
  8
CENTER
100
AcDbLine
 10
863.5109362958091
 20
113.8103797598084
 30
0.0
 11
863.5109362958091
 21
95.81037975980848
 31
0.0
  0
ARC
  5
247D
330
2
100
AcDbEntity
  8
0
100
AcDbCircle
 10
860.013461612746
 20
102.3078544428642
 30
0.0
 40
8.0
100
AcDbArc
 50
259.7661103968963
 51
270.0
  0
CIRCLE
  5
247E
330
2
100
AcDbEntity
  8
0
100
AcDbCircle
 10
863.5109362958091
 20
104.8103797598084
 30
0.0
 40
3.2
  0
LINE
  5
247F
330
2
100
AcDbEntity
  8
0
100
AcDbLine
 10
860.013461612746
 20
94.30785444286607
 30
0.0
 11
864.0134616127497
 21
94.30785444286607
 31
0.0
  0
CIRCLE
  5
2480
330
2
100
AcDbEntity
  8
HOJO
100
AcDbCircle
 10
863.5109362958091
 20
104.8103797598084
 30
0.0
 40
4.0
  0
LINE
  5
2481
330
2
100
AcDbEntity
  8
0
100
AcDbLine
 10
909.5134616127534
 20
111.307854442866
 30
0.0
 11
881.950852727402
 21
111.307854442866
 31
0.0
  0
ARC
  5
2482
330
2
100
AcDbEntity
  8
0
100
AcDbCircle
 10
938.9758334557964
 20
126.3078544428642
 30
0.0
 40
3.0
100
AcDbArc
 50
179.9999999998957
 51
270.0
  0
ARC
  5
2483
330
2
100
AcDbEntity
  8
0
100
AcDbCircle
 10
934.1024362833914
 20
122.8078544428642
 30
0.0
 40
3.0
100
AcDbArc
 50
35.68533471271784
 51
90.0
  0
LINE
  5
2484
330
2
100
AcDbEntity
  8
0
100
AcDbLine
 10
922.5134616127533
 20
130.8078544428642
 30
0.0
 11
930.9914737444605
 21
130.8078544428642
 31
0.0
  0
ARC
  5
2485
330
2
100
AcDbEntity
  8
0
100
AcDbCircle
 10
920.5134616127534
 20
122.8078544428642
 30
0.0
 40
3.0
100
AcDbArc
 50
90.0
 51
180.0
  0
ARC
  5
2486
330
2
100
AcDbEntity
  8
0
100
AcDbCircle
 10
922.5134616127533
 20
125.8078544428642
 30
0.0
 40
5.0
100
AcDbArc
 50
90.0
 51
180.0
  0
LINE
  5
2487
330
2
100
AcDbEntity
  8
0
100
AcDbLine
 10
920.5134616127534
 20
125.8078544428642
 30
0.0
 11
934.1024362833914
 21
125.8078544428642
 31
0.0
  0
ARC
  5
2488
330
2
100
AcDbEntity
  8
0
100
AcDbCircle
 10
930.9914737444605
 20
125.8078544428642
 30
0.0
 40
5.0
100
AcDbArc
 50
3.583321698471883
 51
90.0
  0
LINE
  5
2489
330
2
100
AcDbEntity
  8
0
100
AcDbLine
 10
938.9758334557964
 20
123.3078544428642
 30
0.0
 11
942.4234616126859
 21
123.3078544428642
 31
0.0
  0
ARC
  5
248A
330
2
100
AcDbEntity
  8
0
100
AcDbCircle
 10
909.5134616127534
 20
119.307854442866
 30
0.0
 40
8.0
100
AcDbArc
 50
270.0
 51
0.0
  0
ARC
  5
248B
330
2
100
AcDbEntity
  8
0
100
AcDbCircle
 10
881.9856623683618
 20
205.307854442866
 30
0.0
 40
8.0
100
AcDbArc
 50
183.184738536674
 51
270.0
  0
ARC
  5
248C
330
2
100
AcDbEntity
  8
0
100
AcDbCircle
 10
864.0134616127497
 20
204.307854442866
 30
0.0
 40
10.0
100
AcDbArc
 50
0.0
 51
90.0
  0
ARC
  5
248D
330
2
100
AcDbEntity
  8
0
100
AcDbCircle
 10
844.3787791293589
 20
292.9078354107821
 30
0.0
 40
80.0
100
AcDbArc
 50
264.7203967176031
 51
280.2338896031037
  0
ARC
  5
248E
330
2
100
AcDbEntity
  8
0
100
AcDbCircle
 10
860.013461612748
 20
206.307854442866
 30
0.0
 40
8.0
100
AcDbArc
 50
90.0
 51
100.2338896031036
  0
LINE
  5
248F
330
2
100
AcDbEntity
  8
0
100
AcDbLine
 10
860.013461612748
 20
214.307854442866
 30
0.0
 11
864.0134616127497
 21
214.307854442866
 31
0.0
  0
LINE
  5
2490
330
2
100
AcDbEntity
  8
CENTER
100
AcDbLine
 10
872.5109362958109
 20
203.8053291259218
 30
0.0
 11
854.5109362958109
 21
203.8053291259218
 31
0.0
  0
CIRCLE
  5
2491
330
2
100
AcDbEntity
  8
HOJO
100
AcDbCircle
 10
863.5109362958091
 20
203.8053291259255
 30
0.0
 40
4.0
  0
CIRCLE
  5
2492
330
2
100
AcDbEntity
  8
0
100
AcDbCircle
 10
863.5109362958091
 20
203.8053291259255
 30
0.0
 40
3.2
  0
LINE
  5
2493
330
2
100
AcDbEntity
  8
CENTER
100
AcDbLine
 10
863.5109362958109
 20
194.8053291259236
 30
0.0
 11
863.5109362958109
 21
212.8053291259236
 31
0.0
  0
ARC
  5
2494
330
2
100
AcDbEntity
  8
0
100
AcDbCircle
 10
922.513461612748
 20
182.8078544428642
 30
0.0
 40
5.0
100
AcDbArc
 50
180.0
 51
270.0
  0
ARC
  5
2495
330
2
100
AcDbEntity
  8
0
100
AcDbCircle
 10
930.9914737445387
 20
182.8078544428642
 30
0.0
 40
5.0
100
AcDbArc
 50
270.0
 51
356.4166783015281
  0
LINE
  5
2496
330
2
100
AcDbEntity
  8
0
100
AcDbLine
 10
922.513461612748
 20
177.8078544428642
 30
0.0
 11
930.9914737445387
 21
177.8078544428642
 31
0.0
  0
ARC
  5
2497
330
2
100
AcDbEntity
  8
0
100
AcDbCircle
 10
932.9758334558292
 20
148.8078544428642
 30
0.0
 40
3.0
100
AcDbArc
 50
359.9999999998958
 51
90.0
  0
ARC
  5
2498
330
2
100
AcDbEntity
  8
0
100
AcDbCircle
 10
932.9758334558437
 20
159.8078544428642
 30
0.0
 40
3.0
100
AcDbArc
 50
270.0
 51
359.9999999998958
  0
ARC
  5
2499
330
2
100
AcDbEntity
  8
0
100
AcDbCircle
 10
920.5134616127498
 20
159.8078544428642
 30
0.0
 40
3.0
100
AcDbArc
 50
180.0
 51
270.0
  0
ARC
  5
249A
330
2
100
AcDbEntity
  8
0
100
AcDbCircle
 10
920.5134616127516
 20
148.8078544428642
 30
0.0
 40
3.0
100
AcDbArc
 50
90.0
 51
180.0
  0
LINE
  5
249B
330
2
100
AcDbEntity
  8
0
100
AcDbLine
 10
920.5134616127498
 20
156.8078544428642
 30
0.0
 11
932.9758334558437
 21
156.8078544428642
 31
0.0
  0
LINE
  5
249C
330
2
100
AcDbEntity
  8
0
100
AcDbLine
 10
920.5134616127516
 20
151.8078544428642
 30
0.0
 11
932.9758334558292
 21
151.8078544428642
 31
0.0
  0
LINE
  5
249D
330
2
100
AcDbEntity
  8
0
100
AcDbLine
 10
909.5134616127479
 20
197.307854442866
 30
0.0
 11
881.9856623683618
 21
197.307854442866
 31
0.0
  0
ARC
  5
249E
330
2
100
AcDbEntity
  8
0
100
AcDbCircle
 10
938.9758334558747
 20
182.3078544428642
 30
0.0
 40
3.0
100
AcDbArc
 50
90.0
 51
176.4166783015281
  0
ARC
  5
249F
330
2
100
AcDbEntity
  8
0
100
AcDbCircle
 10
934.1024362834696
 20
185.8078544428642
 30
0.0
 40
3.0
100
AcDbArc
 50
270.0
 51
324.3146652872821
  0
ARC
  5
24A0
330
2
100
AcDbEntity
  8
0
100
AcDbCircle
 10
920.5134616127478
 20
185.8078544428642
 30
0.0
 40
3.0
100
AcDbArc
 50
180.0
 51
270.0
  0
ARC
  5
24A1
330
2
100
AcDbEntity
  8
0
100
AcDbCircle
 10
909.5134616127479
 20
189.307854442866
 30
0.0
 40
8.0
100
AcDbArc
 50
0.0
 51
90.0
  0
LINE
  5
24A2
330
2
100
AcDbEntity
  8
0
100
AcDbLine
 10
920.5134616127478
 20
182.8078544428642
 30
0.0
 11
934.1024362834696
 21
182.8078544428642
 31
0.0
  0
LINE
  5
24A3
330
2
100
AcDbEntity
  8
0
100
AcDbLine
 10
938.9758334558747
 20
185.3078544428642
 30
0.0
 11
942.4234616126859
 21
185.3078544428642
 31
0.0
  0
LINE
  5
24A7
330
2
100
AcDbEntity
  8
0
100
AcDbLine
 10
1219.964299538763
 20
133.096529577461
 30
0.0
 11
1219.964299538763
 21
175.519179308271
 31
0.0
  0
LINE
  5
24A9
330
2
100
AcDbEntity
  8
0
100
AcDbLine
 10
947.4234616127514
 20
193.807854442866
 30
0.0
 11
947.4234616127514
 21
114.807854442866
 31
0.0
  0
ARC
  5
24AB
330
2
100
AcDbEntity
  8
0
100
AcDbCircle
 10
949.4234616127513
 20
114.807854442866
 30
0.0
 40
2.0
100
AcDbArc
 50
180.0
 51
270.0
  0
LINE
  5
24AC
330
2
100
AcDbEntity
  8
0
100
AcDbLine
 10
959.4234616127515
 20
112.807854442866
 30
0.0
 11
949.4234616127513
 21
112.807854442866
 31
0.0
  0
LINE
  5
24AD
330
2
100
AcDbEntity
  8
0
100
AcDbLine
 10
959.4234616127515
 20
113.307854442866
 30
0.0
 11
949.4234616127513
 21
113.307854442866
 31
0.0
  0
ARC
  5
24AE
330
2
100
AcDbEntity
  8
0
100
AcDbCircle
 10
949.4234616127513
 20
115.307854442866
 30
0.0
 40
2.0
100
AcDbArc
 50
180.0
 51
270.0
  0
LINE
  5
24AF
330
2
100
AcDbEntity
  8
0
100
AcDbLine
 10
1220.366223327409
 20
132.575803635297
 30
0.0
 11
1220.214299538763
 21
132.6635168755681
 31
0.0
  0
ARC
  5
24B0
330
2
100
AcDbEntity
  8
0
100
AcDbCircle
 10
1221.366223327409
 20
134.307854442866
 30
0.0
 40
2.0
100
AcDbArc
 50
239.9999999999994
 51
258.4067863765158
  0
ARC
  5
24B1
330
2
100
AcDbEntity
  8
0
100
AcDbCircle
 10
1220.464299538763
 20
133.096529577461
 30
0.0
 40
0.5
100
AcDbArc
 50
180.0
 51
239.9999999999994
  0
ARC
  5
24B3
330
2
100
AcDbEntity
  8
0
100
AcDbCircle
 10
949.4234616127513
 20
193.807854442866
 30
0.0
 40
2.0
100
AcDbArc
 50
90.0
 51
180.0
  0
LINE
  5
24B4
330
2
100
AcDbEntity
  8
0
100
AcDbLine
 10
949.4234616127513
 20
195.807854442866
 30
0.0
 11
959.4234616127515
 21
195.807854442866
 31
0.0
  0
LINE
  5
24B5
330
2
100
AcDbEntity
  8
0
100
AcDbLine
 10
949.4234616127513
 20
195.307854442866
 30
0.0
 11
959.4234616127515
 21
195.307854442866
 31
0.0
  0
ARC
  5
24B6
330
2
100
AcDbEntity
  8
0
100
AcDbCircle
 10
949.4234616127513
 20
193.307854442866
 30
0.0
 40
2.0
100
AcDbArc
 50
90.0
 51
180.0
  0
LINE
  5
24B7
330
2
100
AcDbEntity
  8
0
100
AcDbLine
 10
1218.964299538763
 20
168.307854442866
 30
0.0
 11
1174.464299538763
 21
168.307854442866
 31
0.0
  0
LINE
  5
24B8
330
2
100
AcDbEntity
  8
0
100
AcDbLine
 10
1174.464299538763
 20
140.307854442866
 30
0.0
 11
1218.964299538763
 21
140.307854442866
 31
0.0
  0
LINE
  5
24B9
330
2
100
AcDbEntity
  8
0
100
AcDbLine
 10
1173.964299538763
 20
167.807854442866
 30
0.0
 11
1174.464299538763
 21
168.307854442866
 31
0.0
  0
LINE
  5
24BA
330
2
100
AcDbEntity
  8
0
100
AcDbLine
 10
1174.464299538763
 20
140.307854442866
 30
0.0
 11
1173.964299538763
 21
140.807854442866
 31
0.0
  0
LINE
  5
24BB
330
2
100
AcDbEntity
  8
0
100
AcDbLine
 10
1174.464299538763
 20
140.307854442866
 30
0.0
 11
1174.464299538763
 21
168.307854442866
 31
0.0
  0
LINE
  5
24BC
330
2
100
AcDbEntity
  8
0
100
AcDbLine
 10
1173.964299538763
 20
167.807854442866
 30
0.0
 11
1173.964299538763
 21
140.807854442866
 31
0.0
  0
LINE
  5
24BD
330
2
100
AcDbEntity
  8
0
100
AcDbLine
 10
1220.366223327409
 20
176.0399052504351
 30
0.0
 11
1220.214299538763
 21
175.952192010164
 31
0.0
  0
LINE
  5
24BE
330
2
100
AcDbEntity
  8
0
100
AcDbLine
 10
1218.964299538763
 20
169.307854442866
 30
0.0
 11
1219.964299538763
 21
169.885204712056
 31
0.0
  0
ARC
  5
24BF
330
2
100
AcDbEntity
  8
0
100
AcDbCircle
 10
1221.366223327409
 20
174.307854442866
 30
0.0
 40
2.0
100
AcDbArc
 50
101.5932136234841
 51
120.0000000000005
  0
ARC
  5
24C0
330
2
100
AcDbEntity
  8
0
100
AcDbCircle
 10
1220.464299538763
 20
175.519179308271
 30
0.0
 40
0.5
100
AcDbArc
 50
120.0000000000005
 51
180.0
  0
LINE
  5
24C1
330
2
100
AcDbEntity
  8
0
100
AcDbLine
 10
1218.964299538763
 20
139.307854442866
 30
0.0
 11
1219.964299538763
 21
138.730504173676
 31
0.0
  0
LINE
  5
24C2
330
2
100
AcDbEntity
  8
0
100
AcDbLine
 10
1218.964299538763
 20
139.307854442866
 30
0.0
 11
1218.964299538763
 21
169.307854442866
 31
0.0
  0
ARC
  5
2549
330
2
100
AcDbEntity
  8
0
100
AcDbCircle
 10
942.290818042516
 20
567.6975102207781
 30
0.0
 40
5.0
100
AcDbArc
 50
270.0
 51
358.4999999999059
  0
ARC
  5
254A
330
2
100
AcDbEntity
  8
0
100
AcDbCircle
 10
942.2908180423815
 20
495.697510220778
 30
0.0
 40
5.0
100
AcDbArc
 50
1.499999999989714
 51
90.0
  0
LINE
  5
254B
330
2
100
AcDbEntity
  8
CENTER
100
AcDbLine
 10
814.0134616127518
 20
605.1975102261549
 30
0.0
 11
814.0134616127518
 21
405.6975102207781
 31
0.0
  0
LINE
  5
254C
330
2
100
AcDbEntity
  8
0
100
AcDbLine
 10
828.013461612752
 20
421.197510220778
 30
0.0
 11
828.013461612752
 21
465.697510220778
 31
0.0
  0
LINE
  5
254D
330
2
100
AcDbEntity
  8
0
100
AcDbLine
 10
800.0134616127521
 20
465.697510220778
 30
0.0
 11
800.0134616127521
 21
421.197510220778
 31
0.0
  0
LINE
  5
254E
330
2
100
AcDbEntity
  8
0
100
AcDbLine
 10
800.513461612752
 20
420.697510220778
 30
0.0
 11
827.513461612752
 21
420.697510220778
 31
0.0
  0
LINE
  5
254F
330
2
100
AcDbEntity
  8
0
100
AcDbLine
 10
828.013461612752
 20
421.197510220778
 30
0.0
 11
800.0134616127521
 21
421.197510220778
 31
0.0
  0
LINE
  5
2550
330
2
100
AcDbEntity
  8
0
100
AcDbLine
 10
800.513461612752
 20
420.697510220778
 30
0.0
 11
800.0134616127521
 21
421.197510220778
 31
0.0
  0
LINE
  5
2551
330
2
100
AcDbEntity
  8
0
100
AcDbLine
 10
828.013461612752
 20
421.197510220778
 30
0.0
 11
827.513461612752
 21
420.697510220778
 31
0.0
  0
LINE
  5
2552
330
2
100
AcDbEntity
  8
0
100
AcDbLine
 10
872.0308391915619
 20
579.697510226155
 30
0.0
 11
770.513461612772
 21
579.697510226155
 31
0.0
  0
LINE
  5
2553
330
2
100
AcDbEntity
  8
0
100
AcDbLine
 10
776.513461612752
 20
589.197510226155
 30
0.0
 11
851.513461612752
 21
589.197510226155
 31
0.0
  0
LINE
  5
2554
330
2
100
AcDbEntity
  8
0
100
AcDbLine
 10
776.513461612752
 20
585.4975102261561
 30
0.0
 11
851.513461612752
 21
585.4975102261561
 31
0.0
  0
LINE
  5
2555
330
2
100
AcDbEntity
  8
0
100
AcDbLine
 10
770.513461612772
 20
581.697510226155
 30
0.0
 11
859.1850344880072
 21
581.697510226155
 31
0.0
  0
LINE
  5
2556
330
2
100
AcDbEntity
  8
0
100
AcDbLine
 10
850.936111343562
 20
590.197510226155
 30
0.0
 11
777.090811881942
 21
590.197510226155
 31
0.0
  0
LINE
  5
2557
330
2
100
AcDbEntity
  8
0
100
AcDbLine
 10
774.513461612752
 20
582.197510226155
 30
0.0
 11
853.5134616127519
 21
582.197510226155
 31
0.0
  0
LINE
  5
2558
330
2
100
AcDbEntity
  8
0
100
AcDbLine
 10
776.7134616127528
 20
587.697510226155
 30
0.0
 11
851.3134616127532
 21
587.697510226155
 31
0.0
  0
LINE
  5
2559
330
2
100
AcDbEntity
  8
0
100
AcDbLine
 10
776.7134616127528
 20
585.697510226155
 30
0.0
 11
851.3134616127532
 21
585.697510226155
 31
0.0
  0
LINE
  5
255A
330
2
100
AcDbEntity
  8
0
100
AcDbLine
 10
829.013461612752
 20
465.697510220778
 30
0.0
 11
799.013461612752
 21
465.697510220778
 31
0.0
  0
LINE
  5
255B
330
2
100
AcDbEntity
  8
0
100
AcDbLine
 10
852.0820840631381
 20
467.6975102256111
 30
0.0
 11
775.9448391623659
 21
467.6975102256111
 31
0.0
  0
LINE
  5
255C
330
2
100
AcDbEntity
  8
0
100
AcDbLine
 10
835.2247864781579
 20
466.697510220778
 30
0.0
 11
792.8021367473479
 21
466.697510220778
 31
0.0
  0
LINE
  5
255D
330
2
100
AcDbEntity
  8
0
100
AcDbLine
 10
917.513461612752
 20
563.197510226155
 30
0.0
 11
754.013461612752
 21
563.1975102261459
 31
0.0
  0
LINE
  5
255E
330
2
100
AcDbEntity
  8
0
100
AcDbLine
 10
754.6810669987494
 20
486.6975102256093
 30
0.0
 11
873.3414927928675
 21
486.6975102256112
 31
0.0
  0
LINE
  5
255F
330
2
100
AcDbEntity
  8
0
100
AcDbLine
 10
759.013461612752
 20
481.6975102256093
 30
0.0
 11
869.0134616127521
 21
481.6975102256093
 31
0.0
  0
LINE
  5
2560
330
2
100
AcDbEntity
  8
0
100
AcDbLine
 10
764.0134616127502
 20
562.697510220778
 30
0.0
 11
764.0134616127502
 21
488.1975102207781
 31
0.0
  0
LINE
  5
2561
330
2
100
AcDbEntity
  8
0
100
AcDbLine
 10
768.013461612752
 20
562.697510220778
 30
0.0
 11
768.0134616127502
 21
488.1975102207781
 31
0.0
  0
LINE
  5
2562
330
2
100
AcDbEntity
  8
0
100
AcDbLine
 10
791.0094331910745
 20
562.697510220778
 30
0.0
 11
791.0094331910727
 21
488.1975102207781
 31
0.0
  0
LINE
  5
2563
330
2
100
AcDbEntity
  8
0
100
AcDbLine
 10
754.6810669987494
 20
486.6975102256093
 30
0.0
 11
754.013461612752
 21
563.1975102261532
 31
0.0
  0
LINE
  5
2564
330
2
100
AcDbEntity
  8
0
100
AcDbLine
 10
773.5919749442923
 20
479.7673092190144
 30
0.0
 11
773.946057508328
 21
469.6277112322042
 31
0.0
  0
LINE
  5
2565
330
2
100
AcDbEntity
  8
0
100
AcDbLine
 10
799.013461612752
 20
465.697510220778
 30
0.0
 11
798.436111343562
 21
466.697510220778
 31
0.0
  0
ARC
  5
2566
330
2
100
AcDbEntity
  8
0
100
AcDbCircle
 10
775.9448391623659
 20
469.6975102256093
 30
0.0
 40
2.0
100
AcDbArc
 50
182.0000000000036
 51
270.0
  0
ARC
  5
2567
330
2
100
AcDbEntity
  8
0
100
AcDbCircle
 10
792.8021367473479
 20
467.197510220778
 30
0.0
 40
0.5
100
AcDbArc
 50
209.9999999999932
 51
270.0
  0
ARC
  5
2568
330
2
100
AcDbEntity
  8
0
100
AcDbCircle
 10
794.0134616127521
 20
468.099434009424
 30
0.0
 40
2.0
100
AcDbArc
 50
191.5932136234848
 51
209.9999999999932
  0
LINE
  5
2569
330
2
100
AcDbEntity
  8
0
100
AcDbLine
 10
792.2814108051839
 20
467.099434009424
 30
0.0
 11
792.369124045455
 21
466.9475102207781
 31
0.0
  0
LINE
  5
256A
330
2
100
AcDbEntity
  8
0
100
AcDbLine
 10
759.013461612752
 20
481.6975102256093
 30
0.0
 11
759.013461612752
 21
486.6975102256093
 31
0.0
  0
ARC
  5
256B
330
2
100
AcDbEntity
  8
0
100
AcDbCircle
 10
771.5931932902544
 20
479.6975102256093
 30
0.0
 40
2.0
100
AcDbArc
 50
2.000000000003612
 51
90.0
  0
LINE
  5
256C
330
2
100
AcDbEntity
  8
CENTER
  6
CENS
100
AcDbLine
 10
764.0134616127721
 20
556.9235182363901
 30
0.0
 11
764.0134616127721
 21
586.1975102262968
 31
0.0
  0
LINE
  5
256D
330
2
100
AcDbEntity
  8
0
100
AcDbLine
 10
791.0094331910563
 20
577.7149632971523
 30
0.0
 11
791.0094331910563
 21
563.1975102261477
 31
0.0
  0
LINE
  5
256E
330
2
100
AcDbEntity
  8
0
100
AcDbLine
 10
764.013461612752
 20
572.2062367617946
 30
0.0
 11
764.013461612752
 21
563.1975102261459
 31
0.0
  0
LINE
  5
256F
330
2
100
AcDbEntity
  8
0
100
AcDbLine
 10
768.0134616127556
 20
572.2062367617946
 30
0.0
 11
768.0134616127556
 21
563.1975102261459
 31
0.0
  0
LINE
  5
2570
330
2
100
AcDbEntity
  8
0
100
AcDbLine
 10
754.013461612752
 20
563.1975102261459
 30
0.0
 11
754.1401535063628
 21
577.7149632971523
 31
0.0
  0
ARC
  5
2571
330
2
100
AcDbEntity
  8
HIDS
100
AcDbCircle
 10
768.8418887374987
 20
579.697510226155
 30
0.0
 40
2.0
100
AcDbArc
 50
90.0
 51
135.0000000000092
  0
LINE
  5
2572
330
2
100
AcDbEntity
  8
0
100
AcDbLine
 10
772.0178060074553
 20
573.1975102262969
 30
0.0
 11
755.0920415012565
 21
573.1975102262969
 31
0.0
  0
LINE
  5
2573
330
2
100
AcDbEntity
  8
0
100
AcDbLine
 10
758.3794870165561
 20
583.1975102262969
 30
0.0
 11
769.6474362089861
 21
583.1975102262969
 31
0.0
  0
LINE
  5
2574
330
2
100
AcDbEntity
  8
0
100
AcDbLine
 10
757.513461612772
 20
573.1975102262969
 30
0.0
 11
770.513461612772
 21
573.1975102262969
 31
0.0
  0
LINE
  5
2575
330
2
100
AcDbEntity
  8
0
100
AcDbLine
 10
757.513461612772
 20
575.1975102262969
 30
0.0
 11
770.513461612772
 21
575.197510226295
 31
0.0
  0
LINE
  5
2576
330
2
100
AcDbEntity
  8
0
100
AcDbLine
 10
757.513461612772
 20
582.6975102262969
 30
0.0
 11
770.513461612772
 21
582.6975102262969
 31
0.0
  0
LINE
  5
2577
330
2
100
AcDbEntity
  8
HIDS
100
AcDbLine
 10
770.513461612772
 20
579.697510226155
 30
0.0
 11
757.513461612772
 21
579.697510226155
 31
0.0
  0
LINE
  5
2578
330
2
100
AcDbEntity
  8
HIDS
100
AcDbLine
 10
766.5992480503787
 20
580.2832966637817
 30
0.0
 11
767.4276751751254
 21
581.1117237885283
 31
0.0
  0
ARC
  5
2579
330
2
100
AcDbEntity
  8
HIDS
100
AcDbCircle
 10
765.1850344880053
 20
581.697510226155
 30
0.0
 40
2.0
100
AcDbArc
 50
270.0
 51
315.0000000000092
  0
LINE
  5
257A
330
2
100
AcDbEntity
  8
0
100
AcDbLine
 10
757.513461612772
 20
579.697510226155
 30
0.0
 11
756.1400773524906
 21
579.697510226155
 31
0.0
  0
ARC
  5
257B
330
2
100
AcDbEntity
  8
0
100
AcDbCircle
 10
755.0920415012565
 20
572.1975102262969
 30
0.0
 40
1.0
100
AcDbArc
 50
90.0
 51
179.5000000000344
  0
ARC
  5
257C
330
2
100
AcDbEntity
  8
0
100
AcDbCircle
 10
756.1400773524906
 20
577.697510226155
 30
0.0
 40
2.0
100
AcDbArc
 50
90.0
 51
179.5000000000344
  0
LINE
  5
257D
330
2
100
AcDbEntity
  8
0
100
AcDbLine
 10
757.513461612772
 20
582.6975102262969
 30
0.0
 11
758.3794870165561
 21
583.1975102262969
 31
0.0
  0
LINE
  5
257E
330
2
100
AcDbEntity
  8
0
100
AcDbLine
 10
757.513461612772
 20
573.1975102262969
 30
0.0
 11
757.513461612772
 21
575.1975102262969
 31
0.0
  0
LINE
  5
257F
330
2
100
AcDbEntity
  8
0
100
AcDbLine
 10
757.513461612772
 20
575.1975102262969
 30
0.0
 11
757.513461612772
 21
582.6975102262969
 31
0.0
  0
ARC
  5
2580
330
2
100
AcDbEntity
  8
0
100
AcDbCircle
 10
776.7134616127528
 20
587.8975102261557
 30
0.0
 40
0.2
100
AcDbArc
 50
180.0
 51
270.0
  0
ARC
  5
2581
330
2
100
AcDbEntity
  8
0
100
AcDbCircle
 10
777.0134616127521
 20
587.4975102261561
 30
0.0
 40
0.2
100
AcDbArc
 50
0.0
 51
90.0
  0
ARC
  5
2582
330
2
100
AcDbEntity
  8
0
100
AcDbCircle
 10
777.0134616127521
 20
585.8975102261557
 30
0.0
 40
0.2
100
AcDbArc
 50
270.0
 51
0.0
  0
LINE
  5
2583
330
2
100
AcDbEntity
  8
0
100
AcDbLine
 10
772.51778696899
 20
573.6931469585471
 30
0.0
 11
772.5528848284552
 21
577.7149632971523
 31
0.0
  0
ARC
  5
2584
330
2
100
AcDbEntity
  8
0
100
AcDbCircle
 10
772.0178060074553
 20
573.6975102262968
 30
0.0
 40
0.5
100
AcDbArc
 50
270.0
 51
359.5000000000345
  0
ARC
  5
2585
330
2
100
AcDbEntity
  8
0
100
AcDbCircle
 10
774.552808674583
 20
577.697510226155
 30
0.0
 40
2.0
100
AcDbArc
 50
90.0
 51
179.5000000000344
  0
LINE
  5
2586
330
2
100
AcDbEntity
  8
0
100
AcDbLine
 10
770.513461612772
 20
582.6975102262969
 30
0.0
 11
769.6474362089861
 21
583.1975102262969
 31
0.0
  0
LINE
  5
2587
330
2
100
AcDbEntity
  8
0
100
AcDbLine
 10
770.513461612772
 20
573.1975102262969
 30
0.0
 11
770.513461612772
 21
575.1975102262969
 31
0.0
  0
LINE
  5
2588
330
2
100
AcDbEntity
  8
0
100
AcDbLine
 10
770.513461612772
 20
575.1975102262969
 30
0.0
 11
770.513461612772
 21
582.6975102262969
 31
0.0
  0
LINE
  5
2589
330
2
100
AcDbEntity
  8
HIDS
100
AcDbLine
 10
768.8418887374987
 20
581.697510226155
 30
0.0
 11
770.5134616127702
 21
581.697510226155
 31
0.0
  0
LINE
  5
258A
330
2
100
AcDbEntity
  8
0
100
AcDbLine
 10
776.513461612752
 20
585.4975102261561
 30
0.0
 11
776.513461612752
 21
582.197510226155
 31
0.0
  0
LINE
  5
258B
330
2
100
AcDbEntity
  8
0
100
AcDbLine
 10
774.013461612752
 20
581.697510226155
 30
0.0
 11
774.513461612752
 21
582.197510226155
 31
0.0
  0
LINE
  5
258C
330
2
100
AcDbEntity
  8
0
100
AcDbLine
 10
776.513461612752
 20
589.197510226155
 30
0.0
 11
776.513461612752
 21
587.8975102261557
 31
0.0
  0
LINE
  5
258D
330
2
100
AcDbEntity
  8
0
100
AcDbLine
 10
777.2134616127527
 20
587.4975102261561
 30
0.0
 11
777.2134616127527
 21
585.8975102261557
 31
0.0
  0
LINE
  5
258E
330
2
100
AcDbEntity
  8
0
100
AcDbLine
 10
776.7134616127528
 20
585.697510226155
 30
0.0
 11
776.513461612752
 21
585.4975102261561
 31
0.0
  0
LINE
  5
258F
330
2
100
AcDbEntity
  8
0
100
AcDbLine
 10
776.513461612752
 20
589.197510226155
 30
0.0
 11
777.090811881942
 21
590.197510226155
 31
0.0
  0
LINE
  5
2590
330
2
100
AcDbEntity
  8
0
100
AcDbLine
 10
935.8469602505916
 20
503.6189793758514
 30
0.0
 11
935.1116980440725
 21
531.6975102207781
 31
0.0
  0
LINE
  5
2591
330
2
100
AcDbEntity
  8
0
100
AcDbLine
 10
917.4304040580967
 20
490.6800571546135
 30
0.0
 11
917.7883579481417
 21
531.6975102256093
 31
0.0
  0
LINE
  5
2592
330
2
100
AcDbEntity
  8
0
100
AcDbLine
 10
860.0134616127538
 20
562.697510220778
 30
0.0
 11
860.0134616127538
 21
488.1975102207781
 31
0.0
  0
LINE
  5
2593
330
2
100
AcDbEntity
  8
0
100
AcDbLine
 10
837.0174900344313
 20
562.697510220778
 30
0.0
 11
837.0174900344313
 21
488.1975102207781
 31
0.0
  0
LINE
  5
2594
330
2
100
AcDbEntity
  8
0
100
AcDbLine
 10
864.0134616127538
 20
562.697510220778
 30
0.0
 11
864.0134616127538
 21
488.1975102207781
 31
0.0
  0
LINE
  5
2595
330
2
100
AcDbEntity
  8
0
100
AcDbLine
 10
874.0090981788648
 20
563.1975102261441
 30
0.0
 11
873.3414927928675
 21
486.6975102256112
 31
0.0
  0
LINE
  5
2596
330
2
100
AcDbEntity
  8
0
100
AcDbLine
 10
854.4349482812135
 20
479.7673092190144
 30
0.0
 11
854.080865717176
 21
469.6277112322042
 31
0.0
  0
ARC
  5
2597
330
2
100
AcDbEntity
  8
0
100
AcDbCircle
 10
835.2247864781579
 20
467.197510220778
 30
0.0
 40
0.5
100
AcDbArc
 50
270.0
 51
330.0000000000067
  0
ARC
  5
2598
330
2
100
AcDbEntity
  8
0
100
AcDbCircle
 10
834.0134616127521
 20
468.099434009424
 30
0.0
 40
2.0
100
AcDbArc
 50
330.0000000000067
 51
348.4067863765151
  0
LINE
  5
2599
330
2
100
AcDbEntity
  8
0
100
AcDbLine
 10
835.745512420322
 20
467.099434009424
 30
0.0
 11
835.6577991800509
 21
466.9475102207781
 31
0.0
  0
LINE
  5
259A
330
2
100
AcDbEntity
  8
0
100
AcDbLine
 10
829.013461612752
 20
465.697510220778
 30
0.0
 11
829.590811881942
 21
466.697510220778
 31
0.0
  0
ARC
  5
259B
330
2
100
AcDbEntity
  8
0
100
AcDbCircle
 10
852.0820840631381
 20
469.6975102256093
 30
0.0
 40
2.0
100
AcDbArc
 50
270.0
 51
357.9999999999964
  0
LINE
  5
259C
330
2
100
AcDbEntity
  8
0
100
AcDbLine
 10
869.0134616127521
 20
481.6975102256111
 30
0.0
 11
869.0134616127521
 21
486.6975102256112
 31
0.0
  0
ARC
  5
259D
330
2
100
AcDbEntity
  8
0
100
AcDbCircle
 10
856.4337299352514
 20
479.6975102256093
 30
0.0
 40
2.0
100
AcDbArc
 50
90.0
 51
177.9999999999963
  0
LINE
  5
259E
330
2
100
AcDbEntity
  8
0
100
AcDbLine
 10
874.8459133443407
 20
488.6975102256111
 30
0.0
 11
915.4304802119682
 21
488.6975102256093
 31
0.0
  0
ARC
  5
259F
330
2
100
AcDbEntity
  8
0
100
AcDbCircle
 10
874.8459133443407
 20
487.1975102256111
 30
0.0
 40
1.5
100
AcDbArc
 50
90.0
 51
179.5000000000344
  0
LINE
  5
25A0
330
2
100
AcDbEntity
  8
0
100
AcDbLine
 10
938.8459322255179
 20
500.6975102207781
 30
0.0
 11
942.2908180423815
 21
500.6975102207781
 31
0.0
  0
ARC
  5
25A1
330
2
100
AcDbEntity
  8
0
100
AcDbCircle
 10
930.8615725141821
 20
503.197510220778
 30
0.0
 40
5.0
100
AcDbArc
 50
3.583321698471883
 51
90.0
  0
LINE
  5
25A2
330
2
100
AcDbEntity
  8
0
100
AcDbLine
 10
933.972535053113
 20
503.197510220778
 30
0.0
 11
920.5135758479041
 21
503.197510220778
 31
0.0
  0
ARC
  5
25A4
330
2
100
AcDbEntity
  8
0
100
AcDbCircle
 10
920.5135758478622
 20
500.197510220778
 30
0.0
 40
3.0
100
AcDbArc
 50
90.0
 51
179.5000000000344
  0
ARC
  5
25A5
330
2
100
AcDbEntity
  8
0
100
AcDbCircle
 10
922.5398326080044
 20
503.197510220778
 30
0.0
 40
5.0
100
AcDbArc
 50
90.0
 51
179.5000000000344
  0
LINE
  5
25A6
330
2
100
AcDbEntity
  8
0
100
AcDbLine
 10
930.8615725141821
 20
508.197510220778
 30
0.0
 11
922.5398326080044
 21
508.197510220778
 31
0.0
  0
ARC
  5
25A7
330
2
100
AcDbEntity
  8
0
100
AcDbCircle
 10
933.972535053113
 20
500.197510220778
 30
0.0
 40
3.0
100
AcDbArc
 50
35.68533471271784
 51
90.0
  0
ARC
  5
25A8
330
2
100
AcDbEntity
  8
0
100
AcDbCircle
 10
938.8459322255179
 20
503.697510220778
 30
0.0
 40
3.0
100
AcDbArc
 50
181.5000000000939
 51
270.0
  0
ARC
  5
25A9
330
2
100
AcDbEntity
  8
0
100
AcDbCircle
 10
872.0308391915619
 20
577.697510226155
 30
0.0
 40
2.0
100
AcDbArc
 50
0.4999999999654926
 51
90.0
  0
LINE
  5
25AA
330
2
100
AcDbEntity
  8
0
100
AcDbLine
 10
860.0134616127503
 20
577.7149632971523
 30
0.0
 11
860.0134616127503
 21
563.1975102261459
 31
0.0
  0
LINE
  5
25AB
330
2
100
AcDbEntity
  8
0
100
AcDbLine
 10
837.0174900344476
 20
577.7149632971523
 30
0.0
 11
837.0174900344476
 21
563.1975102261477
 31
0.0
  0
LINE
  5
25AC
330
2
100
AcDbEntity
  8
0
100
AcDbLine
 10
864.0134616127538
 20
577.7149632971523
 30
0.0
 11
864.0134616127538
 21
563.1975102261459
 31
0.0
  0
ARC
  5
25AD
330
2
100
AcDbEntity
  8
0
100
AcDbCircle
 10
862.8418887374987
 20
581.697510226155
 30
0.0
 40
2.0
100
AcDbArc
 50
224.9999999999908
 51
270.0
  0
LINE
  5
25AE
330
2
100
AcDbEntity
  8
0
100
AcDbLine
 10
861.4276751751253
 20
580.2832966637817
 30
0.0
 11
860.5992480503786
 21
581.1117237885283
 31
0.0
  0
ARC
  5
25AF
330
2
100
AcDbEntity
  8
0
100
AcDbCircle
 10
859.1850344880072
 20
579.697510226155
 30
0.0
 40
2.0
100
AcDbArc
 50
44.99999999999078
 51
90.0
  0
ARC
  5
25B0
330
2
100
AcDbEntity
  8
0
100
AcDbCircle
 10
851.3134616127532
 20
587.8975102261557
 30
0.0
 40
0.2
100
AcDbArc
 50
270.0
 51
0.0
  0
ARC
  5
25B1
330
2
100
AcDbEntity
  8
0
100
AcDbCircle
 10
851.0134616127521
 20
587.4975102261561
 30
0.0
 40
0.2
100
AcDbArc
 50
90.0
 51
180.0
  0
ARC
  5
25B2
330
2
100
AcDbEntity
  8
0
100
AcDbCircle
 10
851.0134616127521
 20
585.8975102261557
 30
0.0
 40
0.2
100
AcDbArc
 50
180.0
 51
270.0
  0
LINE
  5
25B3
330
2
100
AcDbEntity
  8
0
100
AcDbLine
 10
851.513461612752
 20
585.4975102261561
 30
0.0
 11
851.513461612752
 21
582.197510226155
 31
0.0
  0
LINE
  5
25B4
330
2
100
AcDbEntity
  8
0
100
AcDbLine
 10
854.013461612752
 20
581.697510226155
 30
0.0
 11
853.5134616127519
 21
582.197510226155
 31
0.0
  0
LINE
  5
25B5
330
2
100
AcDbEntity
  8
0
100
AcDbLine
 10
851.513461612752
 20
589.1975102261568
 30
0.0
 11
851.513461612752
 21
587.8975102261557
 31
0.0
  0
LINE
  5
25B6
330
2
100
AcDbEntity
  8
0
100
AcDbLine
 10
851.3134616127532
 20
585.6975102261568
 30
0.0
 11
851.513461612752
 21
585.4975102261561
 31
0.0
  0
LINE
  5
25B7
330
2
100
AcDbEntity
  8
0
100
AcDbLine
 10
850.8134616127531
 20
587.4975102261561
 30
0.0
 11
850.8134616127531
 21
585.8975102261557
 31
0.0
  0
LINE
  5
25B8
330
2
100
AcDbEntity
  8
0
100
AcDbLine
 10
851.513461612752
 20
589.197510226155
 30
0.0
 11
850.936111343562
 21
590.1975102261568
 31
0.0
  0
LINE
  5
25B9
330
2
100
AcDbEntity
  8
CENTER
  6
CENS
100
AcDbLine
 10
909.5134616127703
 20
556.9235182363901
 30
0.0
 11
909.5134616127703
 21
586.1975102262968
 31
0.0
  0
LINE
  5
25BA
330
2
100
AcDbEntity
  8
0
100
AcDbLine
 10
917.5134616127484
 20
563.1975102266952
 30
0.0
 11
917.4129503225154
 21
574.7149632971524
 31
0.0
  0
LINE
  5
25BB
330
2
100
AcDbEntity
  8
0
100
AcDbLine
 10
874.0134616127519
 20
563.1975102261532
 30
0.0
 11
874.0134616127519
 21
577.960584996883
 31
0.0
  0
LINE
  5
25BC
330
2
100
AcDbEntity
  8
0
100
AcDbLine
 10
938.8459322255179
 20
562.697510220778
 30
0.0
 11
942.290818042516
 21
562.697510220778
 31
0.0
  0
ARC
  5
25BD
330
2
100
AcDbEntity
  8
0
100
AcDbCircle
 10
932.2415992745368
 20
537.197510220778
 30
0.0
 40
3.0
100
AcDbArc
 50
270.0
 51
358.5000000001145
  0
ARC
  5
25BE
330
2
100
AcDbEntity
  8
0
100
AcDbCircle
 10
930.8615725141821
 20
560.1975102207781
 30
0.0
 40
5.0
100
AcDbArc
 50
270.0
 51
356.4166783015281
  0
ARC
  5
25BF
330
2
100
AcDbEntity
  8
0
100
AcDbCircle
 10
932.2415992744513
 20
526.1975102207781
 30
0.0
 40
3.0
100
AcDbArc
 50
1.500000000093984
 51
90.0
  0
LINE
  5
25C0
330
2
100
AcDbEntity
  8
0
100
AcDbLine
 10
933.972535053113
 20
560.1975102207781
 30
0.0
 11
920.5135758479077
 21
560.1975102207781
 31
0.0
  0
ARC
  5
25C1
330
2
100
AcDbEntity
  8
0
100
AcDbCircle
 10
911.32556797399
 20
532.697510220778
 30
0.0
 40
1.0
100
AcDbArc
 50
181.5000000001981
 51
270.0
  0
LINE
  5
25C2
330
2
100
AcDbEntity
  8
0
100
AcDbLine
 10
911.32556797399
 20
531.6975102207781
 30
0.0
 11
917.513461612752
 21
531.6975102207781
 31
0.0
  0
ARC
  5
25C3
330
2
100
AcDbEntity
  8
0
100
AcDbCircle
 10
922.5398326081245
 20
560.1975102207781
 30
0.0
 40
5.0
100
AcDbArc
 50
180.5000000005908
 51
270.0
  0
ARC
  5
25C4
330
2
100
AcDbEntity
  8
0
100
AcDbCircle
 10
920.740474410762
 20
537.197510220778
 30
0.0
 40
3.0
100
AcDbArc
 50
180.5000000005908
 51
270.0
  0
ARC
  5
25C5
330
2
100
AcDbEntity
  8
0
100
AcDbCircle
 10
920.740474410411
 20
526.1975102207781
 30
0.0
 40
3.0
100
AcDbArc
 50
90.0
 51
179.5000000000344
  0
LINE
  5
25C6
330
2
100
AcDbEntity
  8
0
100
AcDbLine
 10
920.740474410411
 20
529.197510220778
 30
0.0
 11
932.2415992744513
 21
529.197510220778
 31
0.0
  0
LINE
  5
25C7
330
2
100
AcDbEntity
  8
0
100
AcDbLine
 10
920.740474410762
 20
534.1975102207781
 30
0.0
 11
932.2415992745368
 21
534.1975102207781
 31
0.0
  0
LINE
  5
25C8
330
2
100
AcDbEntity
  8
0
100
AcDbLine
 10
930.8615725141821
 20
555.1975102207781
 30
0.0
 11
922.5398326081245
 21
555.1975102207781
 31
0.0
  0
LINE
  5
25C9
330
2
100
AcDbEntity
  8
0
100
AcDbLine
 10
909.526554573396
 20
563.1975102261423
 30
0.0
 11
910.3259106490163
 21
532.6713332724668
 31
0.0
  0
LINE
  5
25CA
330
2
100
AcDbEntity
  8
0
100
AcDbLine
 10
917.513461612752
 20
563.1975102256093
 30
0.0
 11
917.7883579484637
 21
531.6975102256093
 31
0.0
  0
ARC
  5
25CB
330
2
100
AcDbEntity
  8
0
100
AcDbCircle
 10
920.5135758479514
 20
563.1975102207781
 30
0.0
 40
3.0
100
AcDbArc
 50
180.5000000005908
 51
270.0
  0
LINE
  5
25CC
330
2
100
AcDbEntity
  8
0
100
AcDbLine
 10
935.8469602505916
 20
559.776041065703
 30
0.0
 11
935.1116980441743
 21
531.6975102207781
 31
0.0
  0
ARC
  5
25CD
330
2
100
AcDbEntity
  8
0
100
AcDbCircle
 10
933.972535053113
 20
563.1975102207781
 30
0.0
 40
3.0
100
AcDbArc
 50
270.0
 51
324.3146652872821
  0
ARC
  5
25CE
330
2
100
AcDbEntity
  8
0
100
AcDbCircle
 10
938.8459322255179
 20
559.6975102207781
 30
0.0
 40
3.0
100
AcDbArc
 50
90.0
 51
178.5000000001145
  0
LINE
  5
25CF
330
2
100
AcDbEntity
  8
0
100
AcDbLine
 10
903.8794870165562
 20
583.1975102262969
 30
0.0
 11
915.1474362089862
 21
583.197510226295
 31
0.0
  0
LINE
  5
25D0
330
2
100
AcDbEntity
  8
0
100
AcDbLine
 10
903.0134616127702
 20
573.1975102262969
 30
0.0
 11
916.0134616127702
 21
573.1975102262969
 31
0.0
  0
LINE
  5
25D1
330
2
100
AcDbEntity
  8
0
100
AcDbLine
 10
903.0134616127702
 20
575.197510226295
 30
0.0
 11
916.0134616127702
 21
575.197510226295
 31
0.0
  0
LINE
  5
25D2
330
2
100
AcDbEntity
  8
0
100
AcDbLine
 10
903.0134616127702
 20
582.6975102262969
 30
0.0
 11
916.0134616127702
 21
582.6975102262951
 31
0.0
  0
LINE
  5
25D3
330
2
100
AcDbEntity
  8
HIDS
100
AcDbLine
 10
915.4130264763876
 20
576.697510226155
 30
0.0
 11
903.0134616127702
 21
576.697510226155
 31
0.0
  0
LINE
  5
25D4
330
2
100
AcDbEntity
  8
0
100
AcDbLine
 10
901.5921907730385
 20
573.1975102262969
 30
0.0
 11
916.4348817242494
 21
573.1975102262969
 31
0.0
  0
LINE
  5
25D5
330
2
100
AcDbEntity
  8
0
100
AcDbLine
 10
903.0134616127702
 20
582.6975102262969
 30
0.0
 11
903.8794870165544
 21
583.197510226295
 31
0.0
  0
LINE
  5
25D6
330
2
100
AcDbEntity
  8
0
100
AcDbLine
 10
903.0134616127702
 20
573.1975102262969
 30
0.0
 11
903.0134616127702
 21
575.1975102262969
 31
0.0
  0
LINE
  5
25D7
330
2
100
AcDbEntity
  8
0
100
AcDbLine
 10
903.0134616127702
 20
575.1975102262969
 30
0.0
 11
903.0134616127702
 21
582.6975102262969
 31
0.0
  0
ARC
  5
25D8
330
2
100
AcDbEntity
  8
0
100
AcDbCircle
 10
875.0309534267193
 20
577.697510226155
 30
0.0
 40
1.0
100
AcDbArc
 50
180.4999999999655
 51
270.0
  0
LINE
  5
25D9
330
2
100
AcDbEntity
  8
0
100
AcDbLine
 10
874.0307630376914
 20
577.7149632971523
 30
0.0
 11
874.0309915036554
 21
577.6887836906572
 31
0.0
  0
LINE
  5
25DA
330
2
100
AcDbEntity
  8
0
100
AcDbLine
 10
901.0923621105499
 20
573.684421752143
 30
0.0
 11
901.0644625201962
 21
574.7498641227759
 31
0.0
  0
ARC
  5
25DB
330
2
100
AcDbEntity
  8
0
100
AcDbCircle
 10
901.5921907730385
 20
573.6975102262968
 30
0.0
 40
0.5
100
AcDbArc
 50
181.4999999999897
 51
270.0
  0
ARC
  5
25DC
330
2
100
AcDbEntity
  8
0
100
AcDbCircle
 10
899.0651478702453
 20
574.6975102261605
 30
0.0
 40
2.0
100
AcDbArc
 50
1.499999999989714
 51
90.0
  0
LINE
  5
25DD
330
2
100
AcDbEntity
  8
0
100
AcDbLine
 10
903.0134616127702
 20
576.697510226155
 30
0.0
 11
875.0309534267193
 21
576.697510226155
 31
0.0
  0
LINE
  5
25DE
330
2
100
AcDbEntity
  8
0
100
AcDbLine
 10
916.0134616127702
 20
582.6975102262951
 30
0.0
 11
915.1474362089862
 21
583.197510226295
 31
0.0
  0
LINE
  5
25DF
330
2
100
AcDbEntity
  8
0
100
AcDbLine
 10
916.0134616127702
 20
573.1975102262951
 30
0.0
 11
916.0134616127702
 21
575.197510226295
 31
0.0
  0
LINE
  5
25E0
330
2
100
AcDbEntity
  8
0
100
AcDbLine
 10
916.0134616127702
 20
575.197510226295
 30
0.0
 11
916.0134616127702
 21
582.6975102262951
 31
0.0
  0
ARC
  5
25E1
330
2
100
AcDbEntity
  8
0
100
AcDbCircle
 10
915.4130264763876
 20
574.697510226155
 30
0.0
 40
2.0
100
AcDbArc
 50
0.4999999999654926
 51
72.52932876219034
  0
ARC
  5
25E2
330
2
100
AcDbEntity
  8
HIDS
100
AcDbCircle
 10
915.4130264763876
 20
574.697510226155
 30
0.0
 40
2.0
100
AcDbArc
 50
72.52932876219034
 51
90.0
  0
ARC
  5
25E3
330
2
100
AcDbEntity
  8
0
100
AcDbCircle
 10
916.4348817242494
 20
572.1975102262969
 30
0.0
 40
1.0
100
AcDbArc
 50
0.4999999999654926
 51
90.0
  0
LINE
  5
25E4
330
2
100
AcDbEntity
  8
0
100
AcDbLine
 10
946.3498388283346
 20
531.6975102207781
 30
0.0
 11
947.3724607045747
 21
492.6451563241626
 31
0.0
  0
LINE
  5
25E6
330
2
100
AcDbEntity
  8
0
100
AcDbLine
 10
959.4234616127536
 20
490.697510220778
 30
0.0
 11
949.3717753545256
 21
490.697510220778
 31
0.0
  0
ARC
  5
25E7
330
2
100
AcDbEntity
  8
0
100
AcDbCircle
 10
949.3717753545256
 20
492.6975102207781
 30
0.0
 40
2.0
100
AcDbArc
 50
181.4999999999897
 51
270.0
  0
LINE
  5
25E8
330
2
100
AcDbEntity
  8
0
100
AcDbLine
 10
947.3724607047147
 20
570.7498641173989
 30
0.0
 11
946.3498388283893
 21
531.6975102207781
 31
0.0
  0
LINE
  5
25E9
330
2
100
AcDbEntity
  8
0
100
AcDbLine
 10
946.3498388283619
 20
531.6975102197358
 30
0.0
 11
959.4234616127536
 21
531.6975102207781
 31
0.0
  0
LINE
  5
25EA
330
2
100
AcDbEntity
  8
0
100
AcDbLine
 10
949.3717753546658
 20
572.6975102207781
 30
0.0
 11
959.4234616127536
 21
572.6975102207781
 31
0.0
  0
ARC
  5
25EB
330
2
100
AcDbEntity
  8
0
100
AcDbCircle
 10
949.3717753546658
 20
570.697510220778
 30
0.0
 40
2.0
100
AcDbArc
 50
90.0
 51
178.499999999906
  0
LINE
  5
27F3
330
2
100
AcDbEntity
  8
0
100
AcDbLine
 10
424.2004726401479
 20
191.8078544428641
 30
0.0
 11
424.2004726401479
 21
194.9418290390782
 31
0.0
  0
LINE
  5
27F4
330
2
100
AcDbEntity
  8
0
100
AcDbLine
 10
424.7004726401479
 20
195.8078544428623
 30
0.0
 11
424.2004726401479
 21
194.9418290390782
 31
0.0
  0
LINE
  5
27F5
330
2
100
AcDbEntity
  8
0
100
AcDbLine
 10
425.7004726401484
 20
195.8078544428623
 30
0.0
 11
424.7004726401479
 21
195.8078544428623
 31
0.0
  0
LINE
  5
27F6
330
2
100
AcDbEntity
  8
0
100
AcDbLine
 10
424.7004726401479
 20
191.8078544428641
 30
0.0
 11
424.7004726401479
 21
195.8078544428623
 31
0.0
  0
LINE
  5
27F7
330
2
100
AcDbEntity
  8
0
100
AcDbLine
 10
424.2004726401479
 20
116.8078544428641
 30
0.0
 11
424.2004726401479
 21
113.67387984665
 31
0.0
  0
LINE
  5
27F8
330
2
100
AcDbEntity
  8
0
100
AcDbLine
 10
424.7004726401479
 20
112.8078544428659
 30
0.0
 11
424.2004726401479
 21
113.67387984665
 31
0.0
  0
LINE
  5
27F9
330
2
100
AcDbEntity
  8
0
100
AcDbLine
 10
425.7004726401484
 20
112.8078544428659
 30
0.0
 11
424.7004726401479
 21
112.8078544428659
 31
0.0
  0
LINE
  5
27FA
330
2
100
AcDbEntity
  8
0
100
AcDbLine
 10
424.7004726401479
 20
116.8078544428642
 30
0.0
 11
424.7004726401479
 21
112.8078544428659
 31
0.0
  0
CIRCLE
  5
2820
330
2
100
AcDbEntity
  8
0
100
AcDbCircle
 10
814.0134616127351
 20
154.3078544428625
 30
0.0
 40
33.07735
  0
ARC
  5
2825
330
2
100
AcDbEntity
  8
0
100
AcDbCircle
 10
915.4304802119684
 20
490.6975102256094
 30
0.0
 40
2.0
100
AcDbArc
 50
269.9999999999974
 51
359.500000000027
  0
ENDSEC
  0
SECTION
  2
OBJECTS
  0
DICTIONARY
  5
7
330
0
100
AcDbDictionary
  3
ACAD_COLOR
350
18F8
  3
ACAD_GROUP
350
75
  3
ACAD_LAYOUT
350
61
  3
ACAD_MATERIAL
350
18CE
  3
ACAD_MLEADERSTYLE
350
191D
  3
ACAD_MLINESTYLE
350
76
  3
ACAD_PLOTSETTINGS
350
77
  3
ACAD_PLOTSTYLENAME
350
6
  3
ACAD_SCALELIST
350
18FB
  3
ACAD_TABLESTYLE
350
18F9
  3
ACAD_VISUALSTYLE
350
18E7
  3
ACADDIM
350
480
  3
ACDB_RECOMPOSE_DATA
350
1937
  3
ACDBHEADERROUNDTRIPXREC
350
283F
  3
ACDBVARIABLEDICTIONARY
350
102
  3
DWGPROPS
350
27FC
  0
DICTIONARY
  5
1940
330
6E
100
AcDbDictionary
280
     1
  3
ACAD_XREC_ROUNDTRIP
360
2804
  0
DICTIONARY
  5
B0F
330
66
100
AcDbDictionary
280
     1
  3
ACAD_LAYERSTATES
360
B10
  0
DICTIONARY
  5
1923
330
5E
100
AcDbDictionary
280
     1
  3
ACAD_XREC_ROUNDTRIP
360
27FF
  3
ADSK_XREC_LAYER_RECONCILED
360
1924
  0
DICTIONARY
  5
1925
330
3E
100
AcDbDictionary
280
     1
  3
ACAD_XREC_ROUNDTRIP
360
27FE
  3
ADSK_XREC_LAYER_RECONCILED
360
1926
  0
DICTIONARY
  5
192B
330
2B5
100
AcDbDictionary
280
     1
  3
ACAD_XREC_ROUNDTRIP
360
280A
  3
ADSK_XREC_LAYER_RECONCILED
360
192C
  0
DICTIONARY
  5
192D
330
2BA
100
AcDbDictionary
280
     1
  3
ACAD_XREC_ROUNDTRIP
360
280B
  3
ADSK_XREC_LAYER_RECONCILED
360
192E
  0
DICTIONARY
  5
1931
330
3FA
100
AcDbDictionary
280
     1
  3
ACAD_XREC_ROUNDTRIP
360
280D
  3
ADSK_XREC_LAYER_RECONCILED
360
1932
  0
DICTIONARY
  5
2860
330
2
100
AcDbDictionary
280
     1
  3
ACAD_LAYOUTSELFREF
360
2861
  0
DICTIONARY
  5
2862
330
2839
100
AcDbDictionary
280
     1
  3
ACAD_LAYOUTSELFREF
360
2863
  0
DICTIONARY
  5
18F8
102
{ACAD_REACTORS
330
7
102
}
330
7
100
AcDbDictionary
  0
DICTIONARY
  5
75
102
{ACAD_REACTORS
330
7
102
}
330
7
100
AcDbDictionary
  0
DICTIONARY
  5
61
102
{ACAD_REACTORS
330
7
102
}
330
7
100
AcDbDictionary
  0
DICTIONARY
  5
18CE
102
{ACAD_REACTORS
330
7
102
}
330
7
100
AcDbDictionary
  3
BYBLOCK
350
18D7
  3
BYLAYER
350
18CF
  3
GLOBAL
350
18DF
  0
DICTIONARY
  5
191D
102
{ACAD_REACTORS
330
7
102
}
330
7
100
AcDbDictionary
  3
STANDARD
350
191E
  0
DICTIONARY
  5
76
102
{ACAD_REACTORS
330
7
102
}
330
7
100
AcDbDictionary
  3
STANDARD
350
78
  0
DICTIONARY
  5
77
102
{ACAD_REACTORS
330
7
102
}
330
7
100
AcDbDictionary
  0
ACDBDICTIONARYWDFLT
  5
6
102
{ACAD_REACTORS
330
7
102
}
330
7
100
AcDbDictionary
281
     1
  3
Normal
350
5
100
AcDbDictionaryWithDefault
340
5
  0
DICTIONARY
  5
18FB
102
{ACAD_REACTORS
330
7
102
}
330
7
100
AcDbDictionary
  3
A0
350
18FC
  3
A1
350
18FD
  3
A2
350
18FE
  3
A3
350
18FF
  3
A4
350
1900
  3
A5
350
1901
  3
A6
350
1902
  3
A7
350
1903
  3
A8
350
1904
  3
A9
350
1905
  3
B0
350
1906
  3
B1
350
1907
  3
B2
350
1908
  3
B3
350
1909
  3
B4
350
190A
  3
B5
350
190B
  3
B6
350
190C
  3
B7
350
190D
  3
B8
350
190E
  3
B9
350
190F
  3
C0
350
1910
  3
C1
350
1911
  3
C2
350
1912
  3
C3
350
1913
  3
C4
350
1914
  3
C5
350
1915
  3
C6
350
1916
  3
C7
350
1917
  3
C8
350
1918
  3
C9
350
1919
  3
D0
350
191A
  3
D1
350
191B
  3
D2
350
191C
  0
DICTIONARY
  5
18F9
102
{ACAD_REACTORS
330
7
102
}
330
7
100
AcDbDictionary
  3
STANDARD
350
18FA
  0
DICTIONARY
  5
18E7
102
{ACAD_REACTORS
330
7
102
}
330
7
100
AcDbDictionary
  3
2DWIREFRAME
350
18ED
  3
3D_HIDDEN
350
18EF
  3
3DWIREFRAME
350
18EE
  3
BASIC
350
18EC
  3
BRIGHTEN
350
18F3
  3
COLORCHANGE
350
18F7
  3
CONCEPTUAL
350
18F0
  3
DIM
350
18F2
  3
FACEPATTERN
350
18F6
  3
FLAT
350
18E8
  3
FLATWITHEDGES
350
18E9
  3
GOURAUD
350
18EA
  3
GOURAUDWITHEDGES
350
18EB
  3
LINEPATTERN
350
18F5
  3
REALISTIC
350
18F1
  3
THICKEN
350
18F4
  0
XRECORD
  5
480
102
{ACAD_REACTORS
330
7
102
}
330
7
100
AcDbXrecord
 90
   990106
  3

 60
     0
 61
     0
 62
     1
 63
     3
 64
     1
 65
     0
 66
     0
 67
     3
 68
     1
 69
     0
 70
     0
 71
     0
 72
     0
 40
0.0
170
     2
340
0
  0
XRECORD
  5
1937
102
{ACAD_REACTORS
330
7
102
}
330
7
100
AcDbXrecord
 90
        1
330
18FA
  0
DICTIONARY
  5
283F
102
{ACAD_REACTORS
330
7
102
}
330
7
100
AcDbDictionary
  3
CEPSNTYPE
350
2849
  3
DIMSTYLEDATA
350
284D
  3
FINGERPRINTGUID
350
284A
  3
HYPERLINKBASE
350
2842
  3
INSUNITS
350
2848
  3
LAYOUTDICT
350
2844
  3
LWETCUNION
350
2847
  3
PLOTSETDICT
350
2845
  3
PLOTSTYLNAMDICT
350
2846
  3
PSVPSCALE
350
284C
  3
PUCSBASE
350
2850
  3
PUCSORGBACK
350
2856
  3
PUCSORGBOTTOM
350
2852
  3
PUCSORGFRONT
350
2855
  3
PUCSORGLEFT
350
2853
  3
PUCSORGRIGHT
350
2854
  3
PUCSORGTOP
350
2851
  3
PUCSORTHOREF
350
284E
  3
PUCSORTHOVIEW
350
284F
  3
STYLESHEET
350
2843
  3
TSTACKALIGN
350
2840
  3
TSTACKSIZE
350
2841
  3
UCSBASE
350
2859
  3
UCSORGBACK
350
285F
  3
UCSORGBOTTOM
350
285B
  3
UCSORGFRONT
350
285E
  3
UCSORGLEFT
350
285C
  3
UCSORGRIGHT
350
285D
  3
UCSORGTOP
350
285A
  3
UCSORTHOREF
350
2857
  3
UCSORTHOVIEW
350
2858
  3
VERSIONGUID
350
284B
  0
DICTIONARY
  5
102
102
{ACAD_REACTORS
330
7
102
}
330
7
100
AcDbDictionary
  3
CANNOSCALE
350
1958
  3
CMLEADERSTYLE
350
1957
  3
CTABLESTYLE
350
1956
  3
DIMASSOC
350
103
  3
INDEXCTL
350
1959
  3
SORTENTS
350
549
  0
XRECORD
  5
27FC
102
{ACAD_REACTORS
330
7
102
}
330
7
100
AcDbXrecord
  1
DWGPROPS COOKIE
  2

  3

  4

  6

  7

  8
ymorima
  9

300
=
301
=
302
=
303
=
304
=
305
=
306
=
307
=
308
=
309
=
 40
0.0343334027777778
 41
2454413.391157766
 42
2454419.600577789
  1

 90
        0
  0
XRECORD
  5
2804
102
{ACAD_REACTORS
330
1940
102
}
330
1940
100
AcDbXrecord
102
VTR_0.000_0.000_1.000_1.000_VISUALSTYLE
340
18ED
102
VTR_0.000_0.000_1.000_1.000_GRIDDISPLAY
 70
     3
102
VTR_0.000_0.000_1.000_1.000_GRIDMAJOR
 70
     5
102
VTR_0.000_0.000_1.000_1.000_DEFAULTLIGHTING
280
     1
102
VTR_0.000_0.000_1.000_1.000_DEFAULTLIGHTINGTYPE
 70
     1
102
VTR_0.000_0.000_1.000_1.000_BRIGHTNESS
141
0.0
102
VTR_0.000_0.000_1.000_1.000_CONTRAST
142
0.0
  0
DICTIONARY
  5
B10
102
{ACAD_REACTORS
330
B0F
102
}
330
B0F
100
AcDbDictionary
  0
XRECORD
  5
27FF
102
{ACAD_REACTORS
330
1923
102
}
330
1923
100
AcDbXrecord
102
MATERIAL
340
18DF
  0
XRECORD
  5
1924
102
{ACAD_REACTORS
330
1923
102
}
330
1923
100
AcDbXrecord
290
     1
  0
XRECORD
  5
27FE
102
{ACAD_REACTORS
330
1925
102
}
330
1925
100
AcDbXrecord
102
MATERIAL
340
18DF
  0
XRECORD
  5
1926
102
{ACAD_REACTORS
330
1925
102
}
330
1925
100
AcDbXrecord
290
     1
  0
XRECORD
  5
280A
102
{ACAD_REACTORS
330
192B
102
}
330
192B
100
AcDbXrecord
102
MATERIAL
340
18DF
  0
XRECORD
  5
192C
102
{ACAD_REACTORS
330
192B
102
}
330
192B
100
AcDbXrecord
290
     1
  0
XRECORD
  5
280B
102
{ACAD_REACTORS
330
192D
102
}
330
192D
100
AcDbXrecord
102
MATERIAL
340
18DF
  0
XRECORD
  5
192E
102
{ACAD_REACTORS
330
192D
102
}
330
192D
100
AcDbXrecord
290
     1
  0
XRECORD
  5
280D
102
{ACAD_REACTORS
330
1931
102
}
330
1931
100
AcDbXrecord
102
MATERIAL
340
18DF
  0
XRECORD
  5
1932
102
{ACAD_REACTORS
330
1931
102
}
330
1931
100
AcDbXrecord
290
     1
  0
XRECORD
  5
2861
102
{ACAD_REACTORS
330
2860
102
}
330
2860
100
AcDbXrecord
340
2
  0
XRECORD
  5
2863
102
{ACAD_REACTORS
330
2862
102
}
330
2862
100
AcDbXrecord
340
2839
  0
ACAD_PROXY_OBJECT
  5
18D7
102
{ACAD_XDICTIONARY
360
18D8
102
}
102
{ACAD_REACTORS
330
18CE
102
}
330
18CE
100
AcDbProxyObject
 90
      499
 91
      510
 93
     1340
310
42109E509B1BD8DAC02004014080404555555555555953FAA155555555555654FEA9AA400014080404555555555555953FAA155555555555654FEA9AA400000000000000E03F4080404555555555555953FAA155555555555654FEA9AA4014080404555555555555953FAA155555555555654FEA9AA4010201011555555555
310
55654FEA8555555555555953FAA6A9005020101155555555555654FEA8555555555555953FAA6A9000
 94
        0
1001
ACAD
1000
AcadProxyRoundTripData
1071
      504
1071
   655383
1070
     0
  0
ACAD_PROXY_OBJECT
  5
18CF
102
{ACAD_XDICTIONARY
360
18D0
102
}
102
{ACAD_REACTORS
330
18CE
102
}
330
18CE
100
AcDbProxyObject
 90
      499
 91
      510
 93
     1340
310
42109E53185E595C802004014080404555555555555953FAA155555555555654FEA9AA400014080404555555555555953FAA155555555555654FEA9AA400000000000000E03F4080404555555555555953FAA155555555555654FEA9AA4014080404555555555555953FAA155555555555654FEA9AA4010201011555555555
310
55654FEA8555555555555953FAA6A9005020101155555555555654FEA8555555555555953FAA6A9000
 94
        0
1001
ACAD
1000
AcadProxyRoundTripData
1071
      504
1071
   655383
1070
     0
  0
ACAD_PROXY_OBJECT
  5
18DF
102
{ACAD_XDICTIONARY
360
18E0
102
}
102
{ACAD_REACTORS
330
18CE
102
}
330
18CE
100
AcDbProxyObject
 90
      499
 91
      510
 93
     1332
310
41D1DB1BD8985B002004014080404555555555555953FAA155555555555654FEA9AA400014080404555555555555953FAA155555555555654FEA9AA400000000000000E03F4080404555555555555953FAA155555555555654FEA9AA4014080404555555555555953FAA155555555555654FEA9AA401020101155555555555
310
654FEA8555555555555953FAA6A9005020101155555555555654FEA8555555555555953FAA6A9000
 94
        0
1001
ACAD
1000
AcadProxyRoundTripData
1071
      504
1071
   655383
1070
     0
  0
ACAD_PROXY_OBJECT
  5
191E
102
{ACAD_REACTORS
330
191D
102
}
330
191D
100
AcDbProxyObject
 90
      499
 91
      510
 93
      618
310
40901902A4063FBFFFFFE056BD1B81E855B9FC0AD7A3703D0AD73F4254DD185B99185C990000AD7A3703D0AC73F90141901A02B5E8DC0F42B1CFC02B5E8DC0F42B1CFE5764000000000000300FC6
340
6A
340
0
340
16
340
0
 94
        0
1001
ACAD_MLEADERVER
1070
     2
1001
ACAD
1000
AcadProxyRoundTripData
1071
      508
1071
   655383
1070
     0
  0
MLINESTYLE
  5
78
102
{ACAD_REACTORS
330
76
102
}
330
76
100
AcDbMlineStyle
  2
STANDARD
 70
     0
  3

 62
     0
 51
90.0
 52
90.0
 71
     2
 49
0.5
 62
   256
  6
BYLAYER
 49
-0.5
 62
   256
  6
BYLAYER
  0
ACDBPLACEHOLDER
  5
5
102
{ACAD_REACTORS
330
6
102
}
330
6
100
AcDbPlaceHolder
280
     0
  0
ACAD_PROXY_OBJECT
  5
18FC
102
{ACAD_REACTORS
330
18FB
102
}
330
18FB
100
AcDbProxyObject
 90
      499
 91
      510
 93
       49
310
904313A3100598
 94
        0
1001
ACAD
1000
AcadProxyRoundTripData
1071
      507
1071
   655383
1070
     0
  0
ACAD_PROXY_OBJECT
  5
18FD
102
{ACAD_REACTORS
330
18FB
102
}
330
18FB
100
AcDbProxyObject
 90
      499
 91
      510
 93
      113
310
904313A3200400000000000000406B
 94
        0
1001
ACAD
1000
AcadProxyRoundTripData
1071
      507
1071
   655383
1070
     0
  0
ACAD_PROXY_OBJECT
  5
18FE
102
{ACAD_REACTORS
330
18FB
102
}
330
18FB
100
AcDbProxyObject
 90
      499
 91
      510
 93
      113
310
904313A3400400000000000010406B
 94
        0
1001
ACAD
1000
AcadProxyRoundTripData
1071
      507
1071
   655383
1070
     0
  0
ACAD_PROXY_OBJECT
  5
18FF
102
{ACAD_REACTORS
330
18FB
102
}
330
18FB
100
AcDbProxyObject
 90
      499
 91
      510
 93
      113
310
904313A3500400000000000014406B
 94
        0
1001
ACAD
1000
AcadProxyRoundTripData
1071
      507
1071
   655383
1070
     0
  0
ACAD_PROXY_OBJECT
  5
1900
102
{ACAD_REACTORS
330
18FB
102
}
330
18FB
100
AcDbProxyObject
 90
      499
 91
      510
 93
      113
310
904313A3800400000000000020406B
 94
        0
1001
ACAD
1000
AcadProxyRoundTripData
1071
      507
1071
   655383
1070
     0
  0
ACAD_PROXY_OBJECT
  5
1901
102
{ACAD_REACTORS
330
18FB
102
}
330
18FB
100
AcDbProxyObject
 90
      499
 91
      510
 93
      121
310
905313A3130004000000000000244051
 94
        0
1001
ACAD
1000
AcadProxyRoundTripData
1071
      507
1071
   655383
1070
     0
  0
ACAD_PROXY_OBJECT
  5
1902
102
{ACAD_REACTORS
330
18FB
102
}
330
18FB
100
AcDbProxyObject
 90
      499
 91
      510
 93
      121
310
905313A3136004000000000000304051
 94
        0
1001
ACAD
1000
AcadProxyRoundTripData
1071
      507
1071
   655383
1070
     0
  0
ACAD_PROXY_OBJECT
  5
1903
102
{ACAD_REACTORS
330
18FB
102
}
330
18FB
100
AcDbProxyObject
 90
      499
 91
      510
 93
      121
310
905313A3230004000000000000344051
 94
        0
1001
ACAD
1000
AcadProxyRoundTripData
1071
      507
1071
   655383
1070
     0
  0
ACAD_PROXY_OBJECT
  5
1904
102
{ACAD_REACTORS
330
18FB
102
}
330
18FB
100
AcDbProxyObject
 90
      499
 91
      510
 93
      121
310
905313A33300040000000000003E4051
 94
        0
1001
ACAD
1000
AcadProxyRoundTripData
1071
      507
1071
   655383
1070
     0
  0
ACAD_PROXY_OBJECT
  5
1905
102
{ACAD_REACTORS
330
18FB
102
}
330
18FB
100
AcDbProxyObject
 90
      499
 91
      510
 93
      121
310
905313A3430004000000000000444051
 94
        0
1001
ACAD
1000
AcadProxyRoundTripData
1071
      507
1071
   655383
1070
     0
  0
ACAD_PROXY_OBJECT
  5
1906
102
{ACAD_REACTORS
330
18FB
102
}
330
18FB
100
AcDbProxyObject
 90
      499
 91
      510
 93
      121
310
905313A3530004000000000000494051
 94
        0
1001
ACAD
1000
AcadProxyRoundTripData
1071
      507
1071
   655383
1070
     0
  0
ACAD_PROXY_OBJECT
  5
1907
102
{ACAD_REACTORS
330
18FB
102
}
330
18FB
100
AcDbProxyObject
 90
      499
 91
      510
 93
      129
310
906313A313030004000000000000594038
 94
        0
1001
ACAD
1000
AcadProxyRoundTripData
1071
      507
1071
   655383
1070
     0
  0
ACAD_PROXY_OBJECT
  5
1908
102
{ACAD_REACTORS
330
18FB
102
}
330
18FB
100
AcDbProxyObject
 90
      499
 91
      510
 93
      113
310
904323A31000000000000000010159
 94
        0
1001
ACAD
1000
AcadProxyRoundTripData
1071
      507
1071
   655383
1070
     0
  0
ACAD_PROXY_OBJECT
  5
1909
102
{ACAD_REACTORS
330
18FB
102
}
330
18FB
100
AcDbProxyObject
 90
      499
 91
      510
 93
      113
310
904343A31000000000000000410159
 94
        0
1001
ACAD
1000
AcadProxyRoundTripData
1071
      507
1071
   655383
1070
     0
  0
ACAD_PROXY_OBJECT
  5
190A
102
{ACAD_REACTORS
330
18FB
102
}
330
18FB
100
AcDbProxyObject
 90
      499
 91
      510
 93
      113
310
904383A31000000000000000810159
 94
        0
1001
ACAD
1000
AcadProxyRoundTripData
1071
      507
1071
   655383
1070
     0
  0
ACAD_PROXY_OBJECT
  5
190B
102
{ACAD_REACTORS
330
18FB
102
}
330
18FB
100
AcDbProxyObject
 90
      499
 91
      510
 93
      121
310
90531303A31000000000000000910140
 94
        0
1001
ACAD
1000
AcadProxyRoundTripData
1071
      507
1071
   655383
1070
     0
  0
ACAD_PROXY_OBJECT
  5
190C
102
{ACAD_REACTORS
330
18FB
102
}
330
18FB
100
AcDbProxyObject
 90
      499
 91
      510
 93
      129
310
9063130303A31000000000000001650138
 94
        0
1001
ACAD
1000
AcadProxyRoundTripData
1071
      507
1071
   655383
1070
     0
  0
ACAD_PROXY_OBJECT
  5
190D
102
{ACAD_REACTORS
330
18FB
102
}
330
18FB
100
AcDbProxyObject
 90
      499
 91
      510
 93
      265
310
90F312F31323822203D2031272D302200000000000000200FC00000000000028402B
 94
        0
1001
ACAD
1000
AcadProxyRoundTripData
1071
      507
1071
   655383
1070
     0
  0
ACAD_PROXY_OBJECT
  5
190E
102
{ACAD_REACTORS
330
18FB
102
}
330
18FB
100
AcDbProxyObject
 90
      499
 91
      510
 93
      257
310
90E312F363422203D2031272D302200000000000000240FC000000000000284040
 94
        0
1001
ACAD
1000
AcadProxyRoundTripData
1071
      507
1071
   655383
1070
     0
  0
ACAD_PROXY_OBJECT
  5
190F
102
{ACAD_REACTORS
330
18FB
102
}
330
18FB
100
AcDbProxyObject
 90
      499
 91
      510
 93
      257
310
90E312F333222203D2031272D302200000000000000280FC000000000000284040
 94
        0
1001
ACAD
1000
AcadProxyRoundTripData
1071
      507
1071
   655383
1070
     0
  0
ACAD_PROXY_OBJECT
  5
1910
102
{ACAD_REACTORS
330
18FB
102
}
330
18FB
100
AcDbProxyObject
 90
      499
 91
      510
 93
      257
310
90E312F313622203D2031272D3022000000000000002C0FC000000000000284040
 94
        0
1001
ACAD
1000
AcadProxyRoundTripData
1071
      507
1071
   655383
1070
     0
  0
ACAD_PROXY_OBJECT
  5
1911
102
{ACAD_REACTORS
330
18FB
102
}
330
18FB
100
AcDbProxyObject
 90
      499
 91
      510
 93
      257
310
90E332F333222203D2031272D3022000000000000002E0FC000000000000284040
 94
        0
1001
ACAD
1000
AcadProxyRoundTripData
1071
      507
1071
   655383
1070
     0
  0
ACAD_PROXY_OBJECT
  5
1912
102
{ACAD_REACTORS
330
18FB
102
}
330
18FB
100
AcDbProxyObject
 90
      499
 91
      510
 93
      249
310
90D312F3822203D2031272D302200000000000000300FC000000000000284040
 94
        0
1001
ACAD
1000
AcadProxyRoundTripData
1071
      507
1071
   655383
1070
     0
  0
ACAD_PROXY_OBJECT
  5
1913
102
{ACAD_REACTORS
330
18FB
102
}
330
18FB
100
AcDbProxyObject
 90
      499
 91
      510
 93
      257
310
90E332F313622203D2031272D302200000000000000320FC000000000000284040
 94
        0
1001
ACAD
1000
AcadProxyRoundTripData
1071
      507
1071
   655383
1070
     0
  0
ACAD_PROXY_OBJECT
  5
1914
102
{ACAD_REACTORS
330
18FB
102
}
330
18FB
100
AcDbProxyObject
 90
      499
 91
      510
 93
      249
310
90D312F3422203D2031272D302200000000000000340FC000000000000284040
 94
        0
1001
ACAD
1000
AcadProxyRoundTripData
1071
      507
1071
   655383
1070
     0
  0
ACAD_PROXY_OBJECT
  5
1915
102
{ACAD_REACTORS
330
18FB
102
}
330
18FB
100
AcDbProxyObject
 90
      499
 91
      510
 93
      249
310
90D332F3822203D2031272D302200000000000000360FC000000000000284040
 94
        0
1001
ACAD
1000
AcadProxyRoundTripData
1071
      507
1071
   655383
1070
     0
  0
ACAD_PROXY_OBJECT
  5
1916
102
{ACAD_REACTORS
330
18FB
102
}
330
18FB
100
AcDbProxyObject
 90
      499
 91
      510
 93
      249
310
90D312F3222203D2031272D302200000000000000380FC000000000000284040
 94
        0
1001
ACAD
1000
AcadProxyRoundTripData
1071
      507
1071
   655383
1070
     0
  0
ACAD_PROXY_OBJECT
  5
1917
102
{ACAD_REACTORS
330
18FB
102
}
330
18FB
100
AcDbProxyObject
 90
      499
 91
      510
 93
      249
310
90D332F3422203D2031272D3022000000000000003A0FC000000000000284040
 94
        0
1001
ACAD
1000
AcadProxyRoundTripData
1071
      507
1071
   655383
1070
     0
  0
ACAD_PROXY_OBJECT
  5
1918
102
{ACAD_REACTORS
330
18FB
102
}
330
18FB
100
AcDbProxyObject
 90
      499
 91
      510
 93
      169
310
90B3122203D2031272D3022004000000000000284020
 94
        0
1001
ACAD
1000
AcadProxyRoundTripData
1071
      507
1071
   655383
1070
     0
  0
ACAD_PROXY_OBJECT
  5
1919
102
{ACAD_REACTORS
330
18FB
102
}
330
18FB
100
AcDbProxyObject
 90
      499
 91
      510
 93
      265
310
90F312D312F3222203D2031272D3022000000000000003E0FC00000000000028402B
 94
        0
1001
ACAD
1000
AcadProxyRoundTripData
1071
      507
1071
   655383
1070
     0
  0
ACAD_PROXY_OBJECT
  5
191A
102
{ACAD_REACTORS
330
18FB
102
}
330
18FB
100
AcDbProxyObject
 90
      499
 91
      510
 93
      233
310
90B3322203D2031272D30220000000000000002100000000000000284000
 94
        0
1001
ACAD
1000
AcadProxyRoundTripData
1071
      507
1071
   655383
1070
     0
  0
ACAD_PROXY_OBJECT
  5
191B
102
{ACAD_REACTORS
330
18FB
102
}
330
18FB
100
AcDbProxyObject
 90
      499
 91
      510
 93
      233
310
90B3622203D2031272D30220000000000000006100000000000000284000
 94
        0
1001
ACAD
1000
AcadProxyRoundTripData
1071
      507
1071
   655383
1070
     0
  0
ACAD_PROXY_OBJECT
  5
191C
102
{ACAD_REACTORS
330
18FB
102
}
330
18FB
100
AcDbProxyObject
 90
      499
 91
      510
 93
      257
310
90E31272D3022203D2031272D3022000000000000000A100000000000000284040
 94
        0
1001
ACAD
1000
AcadProxyRoundTripData
1071
      507
1071
   655383
1070
     0
  0
ACAD_PROXY_OBJECT
  5
18FA
102
{ACAD_XDICTIONARY
360
1935
102
}
102
{ACAD_REACTORS
330
18F9
102
}
330
18F9
100
AcDbProxyObject
 90
      499
 91
      510
 93
     1849
310
4254DD185B99185C990028B81E85EB51B8AE3F2E07A17AD46E2B8FC02B5E8DC0F42B1CFD028000000C1008070000C3001FDFF8000000C1003FBFF000000182007F7FE00000030400FEFFC00000060801FDFF8000000C1003FBFF00000018200000000000000681FA0B0000001820100E000186003FBFF000000182007F7FE0
310
0000030400FEFFC00000060801FDFF8000000C1003FBFF000000182007F7FE000000304000AD7A3703D0AC73F4160000003040201C00030C007F7FE00000030400FEFFC00000060801FDFF8000000C1003FBFF000000182007F7FE00000030400FEFFC000000608000
340
16
340
16
340
16
 94
        0
1001
ACAD
1000
AcadProxyRoundTripData
1071
      506
1071
   655383
1070
     0
  0
ACAD_PROXY_OBJECT
  5
18ED
102
{ACAD_REACTORS
330
18E7
102
}
330
18E7
100
AcDbProxyObject
 90
      499
 91
      510
 93
      444
310
430C9915DA5C99599C985B59401049028333333333333E3BF0000000000000FB0107901411070040501600405405064090741402480A0340
 94
        0
1001
ACAD
1000
AcDbSavedByObjectVersion
1070
     0
1000
AcadProxyRoundTripData
1071
      505
1071
   655383
1070
     0
  0
ACAD_PROXY_OBJECT
  5
18EF
102
{ACAD_REACTORS
330
18E7
102
}
330
18E7
100
AcDbProxyObject
 90
      499
 91
      510
 93
      508
310
428CD108121A5919195B8010640502408333333333333E3BF0000000000000FB01079024090700405020000000000001110200405405064090740C02480A0340
 94
        0
1001
ACAD
1000
AcDbSavedByObjectVersion
1070
     0
1000
AcadProxyRoundTripData
1071
      505
1071
   655383
1070
     0
  0
ACAD_PROXY_OBJECT
  5
18EE
102
{ACAD_REACTORS
330
18E7
102
}
330
18E7
100
AcDbProxyObject
 90
      499
 91
      510
 93
      444
310
430CD915DA5C99599C985B59401059028333333333333E3BF0000000000000FB0107901411070040501600405405064090741402480A0340
 94
        0
1001
ACAD
1000
AcDbSavedByObjectVersion
1070
     0
1000
AcadProxyRoundTripData
1071
      505
1071
   655383
1070
     0
  0
ACAD_PROXY_OBJECT
  5
18EC
102
{ACAD_REACTORS
330
18E7
102
}
330
18E7
100
AcDbProxyObject
 90
      499
 91
      510
 93
      396
310
4190985CDA58C0107406404333333333333E3BF0000000000000FB0107A41107004050150841D405064090741402480A0356
 94
        0
1001
ACAD
1000
AcDbSavedByObjectVersion
1070
     0
1000
AcadProxyRoundTripData
1071
      505
1071
   655383
1070
     0
  0
ACAD_PROXY_OBJECT
  5
18F3
102
{ACAD_REACTORS
330
18E7
102
}
330
18E7
100
AcDbProxyObject
 90
      499
 91
      510
 93
      436
310
42509C9A59DA1D195B8010C409028333333333333E3BF0000000000000FB010790141107004050150841D405064090741402480A029956
 94
        0
1001
ACAD
1000
AcDbSavedByObjectVersion
1070
     0
1000
AcadProxyRoundTripData
1071
      505
1071
   655383
1070
     0
  0
ACAD_PROXY_OBJECT
  5
18F7
102
{ACAD_REACTORS
330
18E7
102
}
330
18E7
100
AcDbProxyObject
 90
      499
 91
      510
 93
      460
310
4310DBDB1BDC90DA185B99D9401104090240C333333333333E3BF0000000000000FB0108901411070040501508421405064090741402480A0354
 94
        0
1001
ACAD
1000
AcDbSavedByObjectVersion
1070
     0
1000
AcadProxyRoundTripData
1071
      505
1071
   655383
1070
     0
  0
ACAD_PROXY_OBJECT
  5
18F0
102
{ACAD_REACTORS
330
18E7
102
}
330
18E7
100
AcDbProxyObject
 90
      499
 91
      510
 93
      508
310
42D0DBDB98D95C1D1D585B0010940D028333333333333E3BF0000000000000FB0107902409070040501000000000000111010841D405064090740C02480A0340
 94
        0
1001
ACAD
1000
AcDbSavedByObjectVersion
1070
     0
1000
AcadProxyRoundTripData
1071
      505
1071
   655383
1070
     0
  0
ACAD_PROXY_OBJECT
  5
18F2
102
{ACAD_REACTORS
330
18E7
102
}
330
18E7
100
AcDbProxyObject
 90
      499
 91
      510
 93
      420
310
41111A5B4010B409028333333333333E3BF0000000000000FB010790141107004050150841D405064090741402480A02677FFFFFDB
 94
        0
1001
ACAD
1000
AcDbSavedByObjectVersion
1070
     0
1000
AcadProxyRoundTripData
1071
      505
1071
   655383
1070
     0
  0
ACAD_PROXY_OBJECT
  5
18F6
102
{ACAD_REACTORS
330
18E7
102
}
330
18E7
100
AcDbProxyObject
 90
      499
 91
      510
 93
      452
310
43119858D95C185D1D195C9B8010F409028333333333333E3BF0000000000000FB010790141107004050150841D405064090741402480A0350
 94
        0
1001
ACAD
1000
AcDbSavedByObjectVersion
1070
     0
1000
AcadProxyRoundTripData
1071
      505
1071
   655383
1070
     0
  0
ACAD_PROXY_OBJECT
  5
18E8
102
{ACAD_REACTORS
330
18E7
102
}
330
18E7
100
AcDbProxyObject
 90
      499
 91
      510
 93
      396
310
41519B185D00240901404333333333333E3BF0000000000000F9010740A41107004050150841D405064090741402480A1B55
 94
        0
1001
ACAD
1000
AcDbSavedByObjectVersion
1070
     0
1000
AcadProxyRoundTripData
1071
      505
1071
   655383
1070
     0
  0
ACAD_PROXY_OBJECT
  5
18E9
102
{ACAD_REACTORS
330
18E7
102
}
330
18E7
100
AcDbProxyObject
 90
      499
 91
      510
 93
      484
310
43919B185D15DA5D1A115919D95CC010140901404333333333333E3BF0000000000000F9010740901411070040501600405405064090741402480A1B50
 94
        0
1001
ACAD
1000
AcDbSavedByObjectVersion
1070
     0
1000
AcadProxyRoundTripData
1071
      505
1071
   655383
1070
     0
  0
ACAD_PROXY_OBJECT
  5
18EA
102
{ACAD_REACTORS
330
18E7
102
}
330
18E7
100
AcDbProxyObject
 90
      499
 91
      510
 93
      420
310
4211DBDD5C985D590010240902404333333333333E3BF0000000000000F9010740A411070040501641D405064090741402480A1B50
 94
        0
1001
ACAD
1000
AcDbSavedByObjectVersion
1070
     0
1000
AcadProxyRoundTripData
1071
      505
1071
   655383
1070
     0
  0
ACAD_PROXY_OBJECT
  5
18EB
102
{ACAD_REACTORS
330
18E7
102
}
330
18E7
100
AcDbProxyObject
 90
      499
 91
      510
 93
      508
310
4451DBDD5C985D5915DA5D1A115919D95CC010340902404333333333333E3BF0000000000000F9010740901411070040501600405405064090741402480A1B50
 94
        0
1001
ACAD
1000
AcDbSavedByObjectVersion
1070
     0
1000
AcadProxyRoundTripData
1071
      505
1071
   655383
1070
     0
  0
ACAD_PROXY_OBJECT
  5
18F5
102
{ACAD_REACTORS
330
18E7
102
}
330
18E7
100
AcDbProxyObject
 90
      499
 91
      510
 93
      452
310
43131A5B995C185D1D195C9B8010E409028333333333333E3BF0000000000000FB010790141107004050750841D405064090741402483A0350
 94
        0
1001
ACAD
1000
AcDbSavedByObjectVersion
1070
     0
1000
AcadProxyRoundTripData
1071
      505
1071
   655383
1070
     0
  0
ACAD_PROXY_OBJECT
  5
18F1
102
{ACAD_REACTORS
330
18E7
102
}
330
18E7
100
AcDbProxyObject
 90
      499
 91
      510
 93
      428
310
429499585B1A5CDD1A58C0108409028333333333333E3BF0000000000000FB01079019070040501508421405064090741402480A1B45
 94
        0
1001
ACAD
1000
AcDbSavedByObjectVersion
1070
     0
1000
AcadProxyRoundTripData
1071
      505
1071
   655383
1070
     0
  0
ACAD_PROXY_OBJECT
  5
18F4
102
{ACAD_REACTORS
330
18E7
102
}
330
18E7
100
AcDbProxyObject
 90
      499
 91
      510
 93
      420
310
42151A1A58DAD95B8010D409028333333333333E3BF0000000000000FB010790141107004050150C41D405064090741402480A0352
 94
        0
1001
ACAD
1000
AcDbSavedByObjectVersion
1070
     0
1000
AcadProxyRoundTripData
1071
      505
1071
   655383
1070
     0
  0
XRECORD
  5
2849
102
{ACAD_REACTORS
330
283F
102
}
330
283F
100
AcDbXrecord
 90
        0
  0
XRECORD
  5
284D
102
{ACAD_REACTORS
330
283F
102
}
330
283F
100
AcDbXrecord
1000
DSTYLE
1002
{
1070
   179
 70
     2
1070
   277
 70
     6
1002
}
  0
XRECORD
  5
284A
102
{ACAD_REACTORS
330
283F
102
}
330
283F
100
AcDbXrecord
  1
{6385560B-F4B1-4644-A7C2-A3E32AC3D232}
  0
XRECORD
  5
2842
102
{ACAD_REACTORS
330
283F
102
}
330
283F
100
AcDbXrecord
  1

  0
XRECORD
  5
2848
102
{ACAD_REACTORS
330
283F
102
}
330
283F
100
AcDbXrecord
 90
        0
  0
XRECORD
  5
2844
102
{ACAD_REACTORS
330
283F
102
}
330
283F
100
AcDbXrecord
340
61
  0
XRECORD
  5
2847
102
{ACAD_REACTORS
330
283F
102
}
330
283F
100
AcDbXrecord
 90
    10781
  0
XRECORD
  5
2845
102
{ACAD_REACTORS
330
283F
102
}
330
283F
100
AcDbXrecord
340
77
  0
XRECORD
  5
2846
102
{ACAD_REACTORS
330
283F
102
}
330
283F
100
AcDbXrecord
340
6
  0
XRECORD
  5
284C
102
{ACAD_REACTORS
330
283F
102
}
330
283F
100
AcDbXrecord
 40
0.0
  0
XRECORD
  5
2850
102
{ACAD_REACTORS
330
283F
102
}
330
283F
100
AcDbXrecord
340
0
  0
XRECORD
  5
2856
102
{ACAD_REACTORS
330
283F
102
}
330
283F
100
AcDbXrecord
 10
0.0
 20
0.0
 30
0.0
  0
XRECORD
  5
2852
102
{ACAD_REACTORS
330
283F
102
}
330
283F
100
AcDbXrecord
 10
0.0
 20
0.0
 30
0.0
  0
XRECORD
  5
2855
102
{ACAD_REACTORS
330
283F
102
}
330
283F
100
AcDbXrecord
 10
0.0
 20
0.0
 30
0.0
  0
XRECORD
  5
2853
102
{ACAD_REACTORS
330
283F
102
}
330
283F
100
AcDbXrecord
 10
0.0
 20
0.0
 30
0.0
  0
XRECORD
  5
2854
102
{ACAD_REACTORS
330
283F
102
}
330
283F
100
AcDbXrecord
 10
0.0
 20
0.0
 30
0.0
  0
XRECORD
  5
2851
102
{ACAD_REACTORS
330
283F
102
}
330
283F
100
AcDbXrecord
 10
0.0
 20
0.0
 30
0.0
  0
XRECORD
  5
284E
102
{ACAD_REACTORS
330
283F
102
}
330
283F
100
AcDbXrecord
340
0
  0
XRECORD
  5
284F
102
{ACAD_REACTORS
330
283F
102
}
330
283F
100
AcDbXrecord
 70
     0
  0
XRECORD
  5
2843
102
{ACAD_REACTORS
330
283F
102
}
330
283F
100
AcDbXrecord
  1
Sekkei.ctb
  0
XRECORD
  5
2840
102
{ACAD_REACTORS
330
283F
102
}
330
283F
100
AcDbXrecord
 90
        1
  0
XRECORD
  5
2841
102
{ACAD_REACTORS
330
283F
102
}
330
283F
100
AcDbXrecord
 90
       70
  0
XRECORD
  5
2859
102
{ACAD_REACTORS
330
283F
102
}
330
283F
100
AcDbXrecord
340
0
  0
XRECORD
  5
285F
102
{ACAD_REACTORS
330
283F
102
}
330
283F
100
AcDbXrecord
 10
0.0
 20
0.0
 30
0.0
  0
XRECORD
  5
285B
102
{ACAD_REACTORS
330
283F
102
}
330
283F
100
AcDbXrecord
 10
0.0
 20
0.0
 30
0.0
  0
XRECORD
  5
285E
102
{ACAD_REACTORS
330
283F
102
}
330
283F
100
AcDbXrecord
 10
0.0
 20
0.0
 30
0.0
  0
XRECORD
  5
285C
102
{ACAD_REACTORS
330
283F
102
}
330
283F
100
AcDbXrecord
 10
0.0
 20
0.0
 30
0.0
  0
XRECORD
  5
285D
102
{ACAD_REACTORS
330
283F
102
}
330
283F
100
AcDbXrecord
 10
0.0
 20
0.0
 30
0.0
  0
XRECORD
  5
285A
102
{ACAD_REACTORS
330
283F
102
}
330
283F
100
AcDbXrecord
 10
0.0
 20
0.0
 30
0.0
  0
XRECORD
  5
2857
102
{ACAD_REACTORS
330
283F
102
}
330
283F
100
AcDbXrecord
340
0
  0
XRECORD
  5
2858
102
{ACAD_REACTORS
330
283F
102
}
330
283F
100
AcDbXrecord
 70
     0
  0
XRECORD
  5
284B
102
{ACAD_REACTORS
330
283F
102
}
330
283F
100
AcDbXrecord
  1
{FA911847-59B6-4D30-AC69-562C3D2F8424}
  0
DICTIONARYVAR
  5
1958
102
{ACAD_REACTORS
330
102
102
}
330
102
100
DictionaryVariables
280
     0
  1
1:1
  0
DICTIONARYVAR
  5
1957
102
{ACAD_REACTORS
330
102
102
}
330
102
100
DictionaryVariables
280
     0
  1
STANDARD
  0
DICTIONARYVAR
  5
1956
102
{ACAD_REACTORS
330
102
102
}
330
102
100
DictionaryVariables
280
     0
  1
STANDARD
  0
DICTIONARYVAR
  5
103
102
{ACAD_REACTORS
330
102
102
}
330
102
100
DictionaryVariables
280
     0
  1
1
  0
DICTIONARYVAR
  5
1959
102
{ACAD_REACTORS
330
102
102
}
330
102
100
DictionaryVariables
280
     0
  1
0
  0
DICTIONARYVAR
  5
549
102
{ACAD_REACTORS
330
102
102
}
330
102
100
DictionaryVariables
280
     0
  1
96
  0
DICTIONARY
  5
18D8
330
18D7
100
AcDbDictionary
280
     1
  3
ACAD_XREC_ROUNDTRIP
360
280F
  3
BUMPTILE
360
18DA
  3
DIFFUSETILE
360
18D9
  3
OPACITYTILE
360
18DD
  3
REFLECTIONTILE
360
18DC
  3
REFRACTIONTILE
360
18DE
  3
SPECULARTILE
360
18DB
  0
DICTIONARY
  5
18D0
330
18CF
100
AcDbDictionary
280
     1
  3
ACAD_XREC_ROUNDTRIP
360
280E
  3
BUMPTILE
360
18D2
  3
DIFFUSETILE
360
18D1
  3
OPACITYTILE
360
18D5
  3
REFLECTIONTILE
360
18D4
  3
REFRACTIONTILE
360
18D6
  3
SPECULARTILE
360
18D3
  0
DICTIONARY
  5
18E0
330
18DF
100
AcDbDictionary
280
     1
  3
ACAD_XREC_ROUNDTRIP
360
2810
  3
BUMPTILE
360
18E2
  3
DIFFUSETILE
360
18E1
  3
OPACITYTILE
360
18E5
  3
REFLECTIONTILE
360
18E4
  3
REFRACTIONTILE
360
18E6
  3
SPECULARTILE
360
18E3
  0
DICTIONARY
  5
1935
330
18FA
100
AcDbDictionary
280
     1
  3
ACAD_ROUNDTRIP_2008_TABLES
360
27FB
  3
ACAD_XREC_ROUNDTRIP
360
2811
  0
XRECORD
  5
280F
102
{ACAD_REACTORS
330
18D8
102
}
330
18D8
100
AcDbXrecord
102
MATERIAL
148
0.0
149
0.0
149
0.0
 93
        0
 94
      127
282
     0
 72
     0
 77
     0
171
     0
175
     0
179
     0
273
     0
  0
XRECORD
  5
18DA
102
{ACAD_REACTORS
330
18D8
102
}
330
18D8
100
AcDbXrecord
270
     1
271
     1
  0
XRECORD
  5
18D9
102
{ACAD_REACTORS
330
18D8
102
}
330
18D8
100
AcDbXrecord
270
     1
271
     1
  0
XRECORD
  5
18DD
102
{ACAD_REACTORS
330
18D8
102
}
330
18D8
100
AcDbXrecord
270
     1
271
     1
  0
XRECORD
  5
18DC
102
{ACAD_REACTORS
330
18D8
102
}
330
18D8
100
AcDbXrecord
270
     1
271
     1
  0
XRECORD
  5
18DE
102
{ACAD_REACTORS
330
18D8
102
}
330
18D8
100
AcDbXrecord
270
     1
271
     1
  0
XRECORD
  5
18DB
102
{ACAD_REACTORS
330
18D8
102
}
330
18D8
100
AcDbXrecord
270
     1
271
     1
  0
XRECORD
  5
280E
102
{ACAD_REACTORS
330
18D0
102
}
330
18D0
100
AcDbXrecord
102
MATERIAL
148
0.0
149
0.0
149
0.0
 93
        0
 94
      127
282
     0
 72
     0
 77
     0
171
     0
175
     0
179
     0
273
     0
  0
XRECORD
  5
18D2
102
{ACAD_REACTORS
330
18D0
102
}
330
18D0
100
AcDbXrecord
270
     1
271
     1
  0
XRECORD
  5
18D1
102
{ACAD_REACTORS
330
18D0
102
}
330
18D0
100
AcDbXrecord
270
     1
271
     1
  0
XRECORD
  5
18D5
102
{ACAD_REACTORS
330
18D0
102
}
330
18D0
100
AcDbXrecord
270
     1
271
     1
  0
XRECORD
  5
18D4
102
{ACAD_REACTORS
330
18D0
102
}
330
18D0
100
AcDbXrecord
270
     1
271
     1
  0
XRECORD
  5
18D6
102
{ACAD_REACTORS
330
18D0
102
}
330
18D0
100
AcDbXrecord
270
     1
271
     1
  0
XRECORD
  5
18D3
102
{ACAD_REACTORS
330
18D0
102
}
330
18D0
100
AcDbXrecord
270
     1
271
     1
  0
XRECORD
  5
2810
102
{ACAD_REACTORS
330
18E0
102
}
330
18E0
100
AcDbXrecord
102
MATERIAL
148
0.0
149
0.0
149
0.0
 93
        0
 94
      127
282
     0
 72
     0
 77
     0
171
     0
175
     0
179
     0
273
     0
  0
XRECORD
  5
18E2
102
{ACAD_REACTORS
330
18E0
102
}
330
18E0
100
AcDbXrecord
270
     1
271
     1
  0
XRECORD
  5
18E1
102
{ACAD_REACTORS
330
18E0
102
}
330
18E0
100
AcDbXrecord
270
     1
271
     1
  0
XRECORD
  5
18E5
102
{ACAD_REACTORS
330
18E0
102
}
330
18E0
100
AcDbXrecord
270
     1
271
     1
  0
XRECORD
  5
18E4
102
{ACAD_REACTORS
330
18E0
102
}
330
18E0
100
AcDbXrecord
270
     1
271
     1
  0
XRECORD
  5
18E6
102
{ACAD_REACTORS
330
18E0
102
}
330
18E0
100
AcDbXrecord
270
     1
271
     1
  0
XRECORD
  5
18E3
102
{ACAD_REACTORS
330
18E0
102
}
330
18E0
100
AcDbXrecord
270
     1
271
     1
  0
ACAD_PROXY_OBJECT
  5
27FB
102
{ACAD_REACTORS
330
1935
102
}
330
1935
100
AcDbProxyObject
 90
      499
 91
      510
 93
     5304
310
40D054060020000020000003200101A000080002A5058000000C100000000000000340FD012E07A17AD46E2B8FCB81E85EB51B8AE3F2E07A17AD46E2B8FCB81E85EB51B8AE3F02B5E8DC0F42B1CFC0AD7A3703D0AC73F419019018000000C1003FBFFFFFE02B5E8DC0F42A9CFD029018000000C1003FBFFFFFE02B5E8DC0F4
310
2A9CFD049018000000C1003FBFFFFFE02B5E8DC0F42A9CFD089018000000C1003FBFFFFFE02B5E8DC0F42A9CFD109018000000C1003FBFFFFFE02B5E8DC0F42A9CFD209018000000C1003FBFFFFFE02B5E8DC0F42A9CFD01405075F5449544C450041501A8000000C800406800020000A9416000000304000AD7A3703D0AC7
310
3F404B81E85EB51B8AE3F2E07A17AD46E2B8FCB81E85EB51B8AE3F2E07A17AD46E2B8FC0AD7A3703D0AC73F02B5E8DC0F42B1CFD0640640600000030400FEFFFFFF80AD7A3703D0AA73F40A40600000030400FEFFFFFF80AD7A3703D0AA73F41240600000030400FEFFFFFF80AD7A3703D0AA73F42240600000030400FEFFF
310
FFF80AD7A3703D0AA73F44240600000030400FEFFFFFF80AD7A3703D0AA73F48240600000030400FEFFFFFF80AD7A3703D0AA73F409014217D2115051115480105406A0000003200101A000080002A5028000000C10002B5E8DC0F42B1CFD012E07A17AD46E2B8FCB81E85EB51B8AE3F2E07A17AD46E2B8FCB81E85EB51B8A
310
E3F02B5E8DC0F42B1CFC0AD7A3703D0AC73F419019018000000C1003FBFFFFFE02B5E8DC0F42A9CFD029018000000C1003FBFFFFFE02B5E8DC0F42A9CFD049018000000C1003FBFFFFFE02B5E8DC0F42A9CFD089018000000C1003FBFFFFFE02B5E8DC0F42A9CFD109018000000C1003FBFFFFFE02B5E8DC0F42A9CFD20901
310
8000000C1003FBFFFFFE02B5E8DC0F42A9CFD03409065F444154410000
340
16
340
0
340
0
340
0
340
0
340
0
340
0
340
16
340
0
340
0
340
0
340
0
340
0
340
0
340
16
340
0
340
0
340
0
340
0
340
0
340
0
 94
        0
1001
ACAD
1000
AcadProxyRoundTripData
1071
      509
1071
   655383
1070
     0
  0
XRECORD
  5
2811
102
{ACAD_REACTORS
330
1935
102
}
330
1935
100
AcDbXrecord
102
ACAD_ROUNDTRIP_PRE2007_TABLESTYLE
 90
      512
 91
        0
  1

 92
      512
 93
        0
  2

 94
      512
 95
        0
  3

  0
ENDSEC
  0
EOF
