  0
SECTION
  2
HEADER
  9
$ACADVER
  1
AC1014
  9
$ACADMAINTVER
 70
     9
  9
$DWGCODEPAGE
  3
ANSI_932
  9
$INSBASE
 10
0.0
 20
0.0
 30
0.0
  9
$EXTMIN
 10
36.41978460885747
 20
69.30785444286607
 30
0.0
  9
$EXTMAX
 10
1358.464299538768
 20
605.1975102261547
 30
0.0
  9
$LIMMIN
 10
0.0
 20
0.0
  9
$LIMMAX
 10
297.0
 20
210.0
  9
$ORTHOMODE
 70
     1
  9
$REGENMODE
 70
     1
  9
$FILLMODE
 70
     1
  9
$QTEXTMODE
 70
     0
  9
$MIRRTEXT
 70
     0
  9
$DRAGMODE
 70
     2
  9
$LTSCALE
 40
4.0
  9
$OSMODE
 70
    37
  9
$ATTMODE
 70
     1
  9
$TEXTSIZE
 40
2.0
  9
$TRACEWID
 40
1.0
  9
$TEXTSTYLE
  7
STANDARD
  9
$CLAYER
  8
0
  9
$CELTYPE
  6
BYLAYER
  9
$CECOLOR
 62
   256
  9
$CELTSCALE
 40
1.0
  9
$DELOBJ
 70
     1
  9
$DISPSILH
 70
     0
  9
$DIMSCALE
 40
4.0
  9
$DIMASZ
 40
1.8
  9
$DIMEXO
 40
0.625
  9
$DIMDLI
 40
3.75
  9
$DIMRND
 40
0.0
  9
$DIMDLE
 40
0.0
  9
$DIMEXE
 40
0.8
  9
$DIMTP
 40
0.0
  9
$DIMTM
 40
0.0
  9
$DIMTXT
 40
1.8
  9
$DIMCEN
 40
2.5
  9
$DIMTSZ
 40
0.0
  9
$DIMTOL
 70
     0
  9
$DIMLIM
 70
     0
  9
$DIMTIH
 70
     0
  9
$DIMTOH
 70
     0
  9
$DIMSE1
 70
     0
  9
$DIMSE2
 70
     0
  9
$DIMTAD
 70
     1
  9
$DIMZIN
 70
     8
  9
$DIMBLK
  1

  9
$DIMASO
 70
     1
  9
$DIMSHO
 70
     1
  9
$DIMPOST
  1

  9
$DIMAPOST
  1

  9
$DIMALT
 70
     0
  9
$DIMALTD
 70
     4
  9
$DIMALTF
 40
0.0394
  9
$DIMLFAC
 40
1.0
  9
$DIMTOFL
 70
     1
  9
$DIMTVP
 40
0.0
  9
$DIMTIX
 70
     0
  9
$DIMSOXD
 70
     0
  9
$DIMSAH
 70
     0
  9
$DIMBLK1
  1

  9
$DIMBLK2
  1

  9
$DIMSTYLE
  2
STANDARD
  9
$DIMCLRD
 70
     0
  9
$DIMCLRE
 70
     0
  9
$DIMCLRT
 70
     0
  9
$DIMTFAC
 40
1.0
  9
$DIMGAP
 40
0.75
  9
$DIMJUST
 70
     0
  9
$DIMSD1
 70
     0
  9
$DIMSD2
 70
     0
  9
$DIMTOLJ
 70
     1
  9
$DIMTZIN
 70
     0
  9
$DIMALTZ
 70
     0
  9
$DIMALTTZ
 70
     0
  9
$DIMFIT
 70
     3
  9
$DIMUPT
 70
     0
  9
$DIMUNIT
 70
     8
  9
$DIMDEC
 70
     2
  9
$DIMTDEC
 70
     2
  9
$DIMALTU
 70
     8
  9
$DIMALTTD
 70
     4
  9
$DIMTXSTY
  7
STANDARD
  9
$DIMAUNIT
 70
     0
  9
$LUNITS
 70
     2
  9
$LUPREC
 70
     3
  9
$SKETCHINC
 40
1.0
  9
$FILLETRAD
 40
2.0
  9
$AUNITS
 70
     0
  9
$AUPREC
 70
     2
  9
$MENU
  1
.
  9
$ELEVATION
 40
0.0
  9
$PELEVATION
 40
0.0
  9
$THICKNESS
 40
0.0
  9
$LIMCHECK
 70
     0
  9
$BLIPMODE
 70
     0
  9
$CHAMFERA
 40
0.0
  9
$CHAMFERB
 40
0.0
  9
$CHAMFERC
 40
20.0
  9
$CHAMFERD
 40
0.0
  9
$SKPOLY
 70
     0
  9
$TDCREATE
 40
2454413.392847580
  9
$TDUPDATE
 40
2454424.573394270
  9
$TDINDWG
 40
0.0472827778
  9
$TDUSRTIMER
 40
0.0472827778
  9
$USRTIMER
 70
     1
  9
$ANGBASE
 50
0.0
  9
$ANGDIR
 70
     0
  9
$PDMODE
 70
     0
  9
$PDSIZE
 40
-10.0
  9
$PLINEWID
 40
0.0
  9
$COORDS
 70
     0
  9
$SPLFRAME
 70
     0
  9
$SPLINETYPE
 70
     6
  9
$SPLINESEGS
 70
     8
  9
$ATTDIA
 70
     0
  9
$ATTREQ
 70
     1
  9
$HANDLING
 70
-16383
  9
$HANDSEED
  5
2782
  9
$SURFTAB1
 70
     6
  9
$SURFTAB2
 70
     6
  9
$SURFTYPE
 70
     6
  9
$SURFU
 70
     6
  9
$SURFV
 70
     6
  9
$UCSNAME
  2

  9
$UCSORG
 10
0.0
 20
0.0
 30
0.0
  9
$UCSXDIR
 10
1.0
 20
0.0
 30
0.0
  9
$UCSYDIR
 10
0.0
 20
1.0
 30
0.0
  9
$PUCSNAME
  2

  9
$PUCSORG
 10
0.0
 20
0.0
 30
0.0
  9
$PUCSXDIR
 10
1.0
 20
0.0
 30
0.0
  9
$PUCSYDIR
 10
0.0
 20
1.0
 30
0.0
  9
$USERI1
 70
     0
  9
$USERI2
 70
     0
  9
$USERI3
 70
     0
  9
$USERI4
 70
     0
  9
$USERI5
 70
     0
  9
$USERR1
 40
0.0
  9
$USERR2
 40
0.0
  9
$USERR3
 40
0.0
  9
$USERR4
 40
0.0
  9
$USERR5
 40
0.0
  9
$WORLDVIEW
 70
     1
  9
$SHADEDGE
 70
     3
  9
$SHADEDIF
 70
    70
  9
$TILEMODE
 70
     1
  9
$MAXACTVP
 70
    48
  9
$PINSBASE
 10
0.0
 20
0.0
 30
0.0
  9
$PLIMCHECK
 70
     0
  9
$PEXTMIN
 10
0.0
 20
0.0
 30
0.0
  9
$PEXTMAX
 10
0.0
 20
0.0
 30
0.0
  9
$PLIMMIN
 10
0.0
 20
0.0
  9
$PLIMMAX
 10
12.0
 20
9.0
  9
$UNITMODE
 70
     0
  9
$VISRETAIN
 70
     1
  9
$PLINEGEN
 70
     0
  9
$PSLTSCALE
 70
     1
  9
$TREEDEPTH
 70
  3020
  9
$PICKSTYLE
 70
     1
  9
$CMLSTYLE
  2
STANDARD
  9
$CMLJUST
 70
     0
  9
$CMLSCALE
 40
1.0
  9
$PROXYGRAPHICS
 70
     1
  9
$MEASUREMENT
 70
     0
  0
ENDSEC
  0
SECTION
  2
CLASSES
  0
CLASS
  1
DICTIONARYVAR
  2
AcDbDictionaryVar
  3
AutoCAD 2000
 90
        0
280
     0
281
     0
  0
CLASS
  1
ACDBDICTIONARYWDFLT
  2
AcDbDictionaryWithDefault
  3
AutoCAD 2000
 90
        0
280
     0
281
     0
  0
CLASS
  1
ACDBPLACEHOLDER
  2
AcDbPlaceHolder
  3
AutoCAD 2000
 90
        0
280
     0
281
     0
  0
CLASS
  1
LAYOUT
  2
AcDbLayout
  3
AutoCAD 2000
 90
        0
280
     0
281
     0
  0
CLASS
  1
MATERIAL
  2
AcDbMaterial
  3
ObjectDBX Classes
 90
     1153
280
     0
281
     0
  0
CLASS
  1
VISUALSTYLE
  2
AcDbVisualStyle
  3
ObjectDBX Classes
 90
     4095
280
     0
281
     0
  0
CLASS
  1
TABLESTYLE
  2
AcDbTableStyle
  3
ObjectDBX Classes
 90
     4095
280
     0
281
     0
  0
CLASS
  1
SCALE
  2
AcDbScale
  3
ObjectDBX Classes
 90
     1153
280
     0
281
     0
  0
CLASS
  1
MLEADERSTYLE
  2
AcDbMLeaderStyle
  3
ACDB_MLEADERSTYLE_CLASS
 90
     4095
280
     0
281
     0
  0
CLASS
  1
CELLSTYLEMAP
  2
AcDbCellStyleMap
  3
ObjectDBX Classes
 90
     1152
280
     0
281
     0
  0
CLASS
  1
ACAD_PROXY_OBJECT_WRAPPER
  2
AcDbProxyObjectWrapper
  3
AutoCAD 2000
 90
        0
280
     0
281
     0
  0
CLASS
  1
LONG_TRANSACTION
  2
AcDbLongTransaction
  3
AutoCAD 2000
 90
        0
280
     0
281
     0
  0
CLASS
  1
LWPOLYLINE
  2
AcDbPolyline
  3
AutoCAD 2000
 90
        0
280
     0
281
     1
  0
CLASS
  1
HATCH
  2
AcDbHatch
  3
AutoCAD 2000
 90
        0
280
     0
281
     1
  0
CLASS
  1
XRECORD
  2
AcDbXrecord
  3
AutoCAD 2000
 90
        0
280
     0
281
     0
  0
ENDSEC
  0
SECTION
  2
TABLES
  0
TABLE
  2
VPORT
  5
6E
102
{ACAD_XDICTIONARY
360
1938
102
}
330
0
100
AcDbSymbolTable
 70
     2
  0
VPORT
  5
275C
330
6E
100
AcDbSymbolTableRecord
100
AcDbViewportTableRecord
  2
*ACTIVE
 70
     0
 10
0.0
 20
0.0
 11
1.0
 21
1.0
 12
792.2407879952636
 22
322.5420523810833
 13
0.0
 23
0.0
 14
10.0
 24
10.0
 15
10.0
 25
10.0
 16
0.0
 26
0.0
 36
1.0
 17
0.0
 27
0.0
 37
0.0
 40
865.9769313353935
 41
1.753504672897196
 42
50.0
 43
0.0
 44
0.0
 50
0.0
 51
0.0
 71
     0
 72
   100
 73
     1
 74
     3
 75
     0
 76
     0
 77
     0
 78
     0
  0
ENDTAB
  0
TABLE
  2
LTYPE
  5
69
330
0
100
AcDbSymbolTable
 70
     6
  0
LTYPE
  5
6A
330
69
100
AcDbSymbolTableRecord
100
AcDbLinetypeTableRecord
  2
BYBLOCK
 70
     0
  3

 72
    65
 73
     0
 40
0.0
  0
LTYPE
  5
6B
330
69
100
AcDbSymbolTableRecord
100
AcDbLinetypeTableRecord
  2
BYLAYER
 70
     0
  3

 72
    65
 73
     0
 40
0.0
  0
LTYPE
  5
8
330
69
100
AcDbSymbolTableRecord
100
AcDbLinetypeTableRecord
  2
CONTINUOUS
 70
     0
  3
Solid line
 72
    65
 73
     0
 40
0.0
  0
LTYPE
  5
27C
330
69
100
AcDbSymbolTableRecord
100
AcDbLinetypeTableRecord
  2
SEKKEI_A2_
 70
     0
  3
center(A2)  ____ _ ____ _ ____ _ ____ _ ____ _ 
 72
    65
 73
     4
 40
14.28749999999999
 49
9.525
 74
     0
 49
-1.587499999999999
 74
     0
 49
1.587499999999999
 74
     0
 49
-1.587499999999999
 74
     0
  0
LTYPE
  5
48F
330
69
100
AcDbSymbolTableRecord
100
AcDbLinetypeTableRecord
  2
SEKKEI_H
 70
     0
  3
Hidden-S _ _ _ _ _ _ _ _ _ _ _ _ _ _ _ _ _
 72
    65
 73
     2
 40
2.381249999999999
 49
1.587499999999999
 74
     0
 49
-0.79375
 74
     0
  0
LTYPE
  5
7F0
330
69
100
AcDbSymbolTableRecord
100
AcDbLinetypeTableRecord
  2
HIDDEN3
 70
     0
  3
Hidden (.3x) _ _ _ _ _ _ _ _ _ _ _ _ _ _ _ _ _
 72
    65
 73
     2
 40
2.857499999999999
 49
1.905
 74
     0
 49
-0.9525
 74
     0
  0
LTYPE
  5
B0E
330
69
100
AcDbSymbolTableRecord
100
AcDbLinetypeTableRecord
  2
CENS
 70
     0
  3
(一点鎖線１)---- - ---- - ---- - ---- - ---- - 
 72
    65
 73
     4
 40
7.0
 49
4.0
 74
     0
 49
-1.0
 74
     0
 49
1.0
 74
     0
 49
-1.0
 74
     0
  0
ENDTAB
  0
TABLE
  2
LAYER
  5
66
102
{ACAD_XDICTIONARY
360
B0F
102
}
330
0
100
AcDbSymbolTable
 70
     9
  0
LAYER
  5
5E
102
{ACAD_XDICTIONARY
360
191B
102
}
330
66
100
AcDbSymbolTableRecord
100
AcDbLayerTableRecord
  2
0
 70
     0
 62
     7
  6
CONTINUOUS
  0
LAYER
  5
3E
102
{ACAD_XDICTIONARY
360
191D
102
}
330
66
100
AcDbSymbolTableRecord
100
AcDbLayerTableRecord
  2
CENTER
 70
     0
 62
     3
  6
SEKKEI_A2_
  0
LAYER
  5
2B5
102
{ACAD_XDICTIONARY
360
1923
102
}
330
66
100
AcDbSymbolTableRecord
100
AcDbLayerTableRecord
  2
HIDS
 70
     0
 62
     1
  6
HIDDEN3
  0
LAYER
  5
2BA
102
{ACAD_XDICTIONARY
360
1925
102
}
330
66
100
AcDbSymbolTableRecord
100
AcDbLayerTableRecord
  2
HOJO
 70
     0
 62
     4
  6
CONTINUOUS
  0
LAYER
  5
3FA
102
{ACAD_XDICTIONARY
360
1929
102
}
330
66
100
AcDbSymbolTableRecord
100
AcDbLayerTableRecord
  2
TITLE
 70
     0
 62
     4
  6
CONTINUOUS
  0
ENDTAB
  0
TABLE
  2
STYLE
  5
67
330
0
100
AcDbSymbolTable
 70
     2
  0
STYLE
  5
16
330
67
100
AcDbSymbolTableRecord
100
AcDbTextStyleTableRecord
  2
STANDARD
 70
     0
 40
0.0
 41
1.0
 50
0.0
 71
     0
 42
2.0
  3
simplex.shx
  4
extfont.shx
  0
ENDTAB
  0
TABLE
  2
VIEW
  5
6C
330
0
100
AcDbSymbolTable
 70
     0
  0
ENDTAB
  0
TABLE
  2
UCS
  5
6D
330
0
100
AcDbSymbolTable
 70
     0
  0
ENDTAB
  0
TABLE
  2
APPID
  5
70
330
0
100
AcDbSymbolTable
 70
     3
  0
APPID
  5
71
330
70
100
AcDbSymbolTableRecord
100
AcDbRegAppTableRecord
  2
ACAD
 70
     0
  0
APPID
  5
1917
330
70
100
AcDbSymbolTableRecord
100
AcDbRegAppTableRecord
  2
ACAD_MLEADERVER
 70
     0
  0
APPID
  5
191A
330
70
100
AcDbSymbolTableRecord
100
AcDbRegAppTableRecord
  2
ACAD_DSTYLE_DIMRADIAL_EXTENSION
 70
     0
  0
ENDTAB
  0
TABLE
  2
DIMSTYLE
  5
72
330
0
100
AcDbSymbolTable
 70
     1
  0
DIMSTYLE
105
73
330
72
100
AcDbSymbolTableRecord
100
AcDbDimStyleTableRecord
  2
STANDARD
 70
     0
  3

  4

  5

  6

  7

 40
4.0
 41
1.8
 42
0.625
 43
3.75
 44
0.8
 45
0.0
 46
0.0
 47
0.0
 48
0.0
140
1.8
141
2.5
142
0.0
143
0.0394
144
1.0
145
0.0
146
1.0
147
0.75
 71
     0
 72
     0
 73
     0
 74
     0
 75
     0
 76
     0
 77
     1
 78
     8
170
     0
171
     4
172
     1
173
     0
174
     0
175
     0
176
     0
177
     0
178
     0
270
     8
271
     2
272
     2
273
     8
274
     4
340
16
275
     0
280
     0
281
     0
282
     0
283
     1
284
     0
285
     0
286
     0
287
     3
288
     0
  0
ENDTAB
  0
TABLE
  2
BLOCK_RECORD
  5
1
330
0
100
AcDbSymbolTable
 70
    42
  0
BLOCK_RECORD
  5
2
102
{ACAD_XDICTIONARY
360
277E
102
}
330
1
100
AcDbSymbolTableRecord
100
AcDbBlockTableRecord
  2
*MODEL_SPACE
  0
BLOCK_RECORD
  5
2757
102
{ACAD_XDICTIONARY
360
2780
102
}
330
1
100
AcDbSymbolTableRecord
100
AcDbBlockTableRecord
  2
*PAPER_SPACE
  0
ENDTAB
  0
ENDSEC
  0
SECTION
  2
BLOCKS
  0
BLOCK
  5
5D
330
2
100
AcDbEntity
  8
0
100
AcDbBlockBegin
  2
*MODEL_SPACE
 70
     0
 10
0.0
 20
0.0
 30
0.0
  3
*MODEL_SPACE
  1

  0
ENDBLK
  5
5F
330
2
100
AcDbEntity
  8
0
100
AcDbBlockEnd
  0
BLOCK
  5
2759
330
2757
100
AcDbEntity
 67
     1
  8
0
100
AcDbBlockBegin
  2
*PAPER_SPACE
 70
     0
 10
0.0
 20
0.0
 30
0.0
  3
*PAPER_SPACE
  1

  0
ENDBLK
  5
275A
330
2757
100
AcDbEntity
 67
     1
  8
0
100
AcDbBlockEnd
  0
ENDSEC
  0
SECTION
  2
ENTITIES
  0
TEXT
  5
FDF
330
2
100
AcDbEntity
  8
TITLE
100
AcDbText
 10
509.9234667694243
 20
533.4440685840455
 30
0.0
 40
10.0
  1
AFCZ28H-10~30M750S4
100
AcDbText
  0
TEXT
  5
FE0
330
2
100
AcDbEntity
  8
TITLE
100
AcDbText
 10
509.9234667694243
 20
518.1107352507122
 30
0.0
 40
10.0
  1
AFCZ28H-10~30L750S4
100
AcDbText
  0
LINE
  5
FE2
330
2
100
AcDbEntity
  8
CENTER
100
AcDbLine
 10
739.2883579482072
 20
531.6975102207781
 30
0.0
 11
1029.423461612752
 21
531.6975102207778
 31
0.0
  0
LINE
  5
FE8
330
2
100
AcDbEntity
  8
CENTER
100
AcDbLine
 10
729.0134616127497
 20
154.3078544428642
 30
0.0
 11
1029.423461612752
 21
154.3078544428642
 31
0.0
  0
LINE
  5
1007
330
2
100
AcDbEntity
  8
0
100
AcDbLine
 10
959.4234616127495
 20
195.807854442866
 30
0.0
 11
959.4234616127495
 21
112.807854442866
 31
0.0
  0
LINE
  5
101D
330
2
100
AcDbEntity
  8
CENTER
100
AcDbLine
 10
326.8297846088409
 20
154.3078544428642
 30
0.0
 11
36.41978460885747
 21
154.3078544428642
 31
0.0
  0
LINE
  5
101F
330
2
100
AcDbEntity
  8
0
100
AcDbLine
 10
106.4197846088574
 20
112.8078544428642
 30
0.0
 11
106.4197846088574
 21
195.8078544428641
 31
0.0
  0
LINE
  5
102A
330
2
100
AcDbEntity
  8
0
100
AcDbLine
 10
959.4234616127518
 20
572.6975102207781
 30
0.0
 11
959.4234616127536
 21
490.697510220778
 31
0.0
  0
LINE
  5
130E
330
2
100
AcDbEntity
  8
CENTER
100
AcDbLine
 10
1284.964299538763
 20
229.0329581074495
 30
0.0
 11
1284.964299538763
 21
79.58275077826721
 31
0.0
  0
LINE
  5
130F
330
2
100
AcDbEntity
  8
CENTER
100
AcDbLine
 10
1358.464299538768
 20
154.3078544428561
 30
0.0
 11
1158.964299538717
 21
154.3078544428561
 31
0.0
  0
LINE
  5
1310
330
2
100
AcDbEntity
  8
0
100
AcDbLine
 10
1316.464299538755
 20
94.30785444285794
 30
0.0
 11
1239.964299538763
 21
94.97545982885169
 31
0.0
  0
LINE
  5
1311
330
2
100
AcDbEntity
  8
0
100
AcDbLine
 10
1316.464299538763
 20
214.3078544428579
 30
0.0
 11
1239.964299538763
 21
213.640249056866
 31
0.0
  0
LINE
  5
1312
330
2
100
AcDbEntity
  8
0
100
AcDbLine
 10
1241.964299538763
 20
194.6707169373647
 30
0.0
 11
1241.964299538763
 21
113.9449919483548
 31
0.0
  0
LINE
  5
1313
330
2
100
AcDbEntity
  8
0
100
AcDbLine
 10
1239.964299538763
 20
213.640249056866
 30
0.0
 11
1239.964299538763
 21
94.97545982885169
 31
0.0
  0
LINE
  5
1314
330
2
100
AcDbEntity
  8
0
100
AcDbLine
 10
1234.964299538763
 20
209.3078544428579
 30
0.0
 11
1234.964299538763
 21
99.30785444285795
 31
0.0
  0
LINE
  5
1315
330
2
100
AcDbEntity
  8
0
100
AcDbLine
 10
1234.964299538763
 20
209.3078544428579
 30
0.0
 11
1239.964299538763
 21
209.3078544428579
 31
0.0
  0
LINE
  5
1316
330
2
100
AcDbEntity
  8
0
100
AcDbLine
 10
1234.964299538763
 20
99.30785444285795
 30
0.0
 11
1239.964299538763
 21
99.30785444285795
 31
0.0
  0
LINE
  5
1317
330
2
100
AcDbEntity
  8
0
100
AcDbLine
 10
1316.464299538763
 20
214.3078544428579
 30
0.0
 11
1316.464299538763
 21
195.4237081013969
 31
0.0
  0
LINE
  5
1318
330
2
100
AcDbEntity
  8
0
100
AcDbLine
 10
1316.464299538755
 20
113.1920007843171
 30
0.0
 11
1316.464299538755
 21
94.30785444285794
 31
0.0
  0
LINE
  5
1319
330
2
100
AcDbEntity
  8
0
100
AcDbLine
 10
1321.025271486999
 20
195.3680864922706
 30
0.0
 11
1284.964299538764
 21
195.8078544428724
 31
0.0
  0
LINE
  5
131A
330
2
100
AcDbEntity
  8
0
100
AcDbLine
 10
1248.903328462679
 20
195.3680865029044
 30
0.0
 11
1261.151575367927
 21
195.517455367603
 31
0.0
  0
LINE
  5
131B
330
2
100
AcDbEntity
  8
0
100
AcDbLine
 10
1321.025270614848
 20
113.247622382806
 30
0.0
 11
1284.964299538764
 21
112.8078544428561
 31
0.0
  0
LINE
  5
131C
330
2
100
AcDbEntity
  8
0
100
AcDbLine
 10
1248.903328462679
 20
113.2476223828078
 30
0.0
 11
1284.964299538764
 21
112.8078544428561
 31
0.0
  0
ARC
  5
131D
330
2
100
AcDbEntity
  8
0
100
AcDbCircle
 10
1320.964300410912
 20
190.3684582533031
 30
0.0
 40
5.0
100
AcDbArc
 50
44.50852684093883
 51
89.30130561700025
  0
ARC
  5
131E
330
2
100
AcDbEntity
  8
0
100
AcDbCircle
 10
1320.964300410912
 20
118.2472506324091
 30
0.0
 40
5.0
100
AcDbArc
 50
270.6986943829997
 51
315.4914731684999
  0
ARC
  5
131F
330
2
100
AcDbEntity
  8
0
100
AcDbCircle
 10
1248.964298666615
 20
190.3684582533031
 30
0.0
 40
5.0
100
AcDbArc
 50
90.69869438299972
 51
135.4914731586305
  0
ARC
  5
1320
330
2
100
AcDbEntity
  8
0
100
AcDbCircle
 10
1248.964298666615
 20
118.2472506324091
 30
0.0
 40
5.0
100
AcDbArc
 50
224.5085268323746
 51
269.3013056170002
  0
LINE
  5
1321
330
2
100
AcDbEntity
  8
0
100
AcDbLine
 10
1220.964299538763
 20
192.3764768932422
 30
0.0
 11
1220.964299538763
 21
116.23923199247
 31
0.0
  0
ARC
  5
1322
330
2
100
AcDbEntity
  8
0
100
AcDbCircle
 10
1222.964299538763
 20
116.23923199247
 30
0.0
 40
2.0
100
AcDbArc
 50
180.0
 51
267.9999999999963
  0
ARC
  5
1323
330
2
100
AcDbEntity
  8
0
100
AcDbCircle
 10
1222.964299538763
 20
192.3764768932422
 30
0.0
 40
2.0
100
AcDbArc
 50
92.00000000000365
 51
180.0
  0
LINE
  5
1324
330
2
100
AcDbEntity
  8
0
100
AcDbLine
 10
1233.034098532168
 20
194.7293411113158
 30
0.0
 11
1222.894500545358
 21
194.3752585472801
 31
0.0
  0
ARC
  5
1325
330
2
100
AcDbEntity
  8
0
100
AcDbCircle
 10
1232.964299538763
 20
196.7281227653536
 30
0.0
 40
2.0
100
AcDbArc
 50
272.0000000000036
 51
0.0
  0
LINE
  5
1326
330
2
100
AcDbEntity
  8
0
100
AcDbLine
 10
1233.034098532168
 20
113.8863677743964
 30
0.0
 11
1222.894500545358
 21
114.2404503384321
 31
0.0
  0
ARC
  5
1327
330
2
100
AcDbEntity
  8
0
100
AcDbCircle
 10
1232.964299538763
 20
111.8875861203585
 30
0.0
 40
2.0
100
AcDbArc
 50
0.0
 51
87.99999999999636
  0
LINE
  5
1328
330
2
100
AcDbEntity
  8
0
100
AcDbLine
 10
1316.464299538755
 20
111.3122178767542
 30
0.0
 11
1243.946846467767
 21
111.9450681022252
 31
0.0
  0
LINE
  5
1329
330
2
100
AcDbEntity
  8
0
100
AcDbLine
 10
1316.464299538763
 20
197.3034910089634
 30
0.0
 11
1277.952077601104
 21
196.9673999397863
 31
0.0
  0
LINE
  5
132A
330
2
100
AcDbEntity
  8
0
100
AcDbLine
 10
1316.464299538761
 20
196.7536983381494
 30
0.0
 11
1284.964299538763
 21
197.0285946735555
 31
0.0
  0
LINE
  5
132B
330
2
100
AcDbEntity
  8
0
100
AcDbLine
 10
1316.464299538761
 20
111.8620105475682
 30
0.0
 11
1284.964299538763
 21
111.5871142121603
 31
0.0
  0
ARC
  5
132C
330
2
100
AcDbEntity
  8
0
100
AcDbCircle
 10
1243.964299538763
 20
194.6707169373647
 30
0.0
 40
2.0
100
AcDbArc
 50
90.49999999996549
 51
180.0
  0
ARC
  5
132D
330
2
100
AcDbEntity
  8
0
100
AcDbCircle
 10
1243.964299538763
 20
113.9449919483548
 30
0.0
 40
2.0
100
AcDbArc
 50
180.0
 51
269.4999999999824
  0
LINE
  5
132E
330
2
100
AcDbEntity
  8
0
100
AcDbLine
 10
1332.964299538768
 20
212.1812387031194
 30
0.0
 11
1332.964299538768
 21
195.8078544428543
 31
0.0
  0
LINE
  5
132F
330
2
100
AcDbEntity
  8
0
100
AcDbLine
 10
1332.964299538768
 20
182.8078544428542
 30
0.0
 11
1332.964299538768
 21
125.8078544428579
 31
0.0
  0
LINE
  5
1330
330
2
100
AcDbEntity
  8
0
100
AcDbLine
 10
1332.964299538768
 20
112.8078544428579
 30
0.0
 11
1332.964299538768
 21
96.43447018259468
 31
0.0
  0
ARC
  5
1331
330
2
100
AcDbEntity
  8
0
100
AcDbCircle
 10
1330.964299538768
 20
96.43447018259468
 30
0.0
 40
2.0
100
AcDbArc
 50
270.4999999999654
 51
0.0
  0
LINE
  5
1332
330
2
100
AcDbEntity
  8
0
100
AcDbLine
 10
1316.464299538766
 20
214.3078544428561
 30
0.0
 11
1316.464299538764
 21
195.4237081013969
 31
0.0
  0
LINE
  5
1333
330
2
100
AcDbEntity
  8
0
100
AcDbLine
 10
1316.464299538761
 20
113.1920007843171
 30
0.0
 11
1316.464299538759
 21
94.30785444285612
 31
0.0
  0
LINE
  5
1334
330
2
100
AcDbEntity
  8
0
100
AcDbLine
 10
1326.464299538764
 20
195.2379633437565
 30
0.0
 11
1326.464299538764
 21
181.3078544428543
 31
0.0
  0
ARC
  5
1335
330
2
100
AcDbEntity
  8
0
100
AcDbCircle
 10
1324.464299538764
 20
195.2379633437565
 30
0.0
 40
2.0
100
AcDbArc
 50
0.0
 51
89.49999999998238
  0
LINE
  5
1336
330
2
100
AcDbEntity
  8
0
100
AcDbLine
 10
1329.964299538764
 20
182.8078544428542
 30
0.0
 11
1329.964299538761
 21
125.8078544428579
 31
0.0
  0
ARC
  5
1337
330
2
100
AcDbEntity
  8
0
100
AcDbCircle
 10
1327.964299538765
 20
195.2074193064898
 30
0.0
 40
2.0
100
AcDbArc
 50
17.4706712373165
 51
89.49999999998238
  0
LINE
  5
1338
330
2
100
AcDbEntity
  8
0
100
AcDbLine
 10
1338.764299538769
 20
191.8078544428561
 30
0.0
 11
1336.464299538764
 21
191.8078544428561
 31
0.0
  0
LINE
  5
1339
330
2
100
AcDbEntity
  8
0
100
AcDbLine
 10
1334.964299538768
 20
109.1362815676028
 30
0.0
 11
1334.964299538768
 21
112.8078544428579
 31
0.0
  0
LINE
  5
133A
330
2
100
AcDbEntity
  8
0
100
AcDbLine
 10
1334.964299538768
 20
125.8078544428579
 30
0.0
 11
1334.964299538768
 21
182.8078544428542
 31
0.0
  0
LINE
  5
133B
330
2
100
AcDbEntity
  8
0
100
AcDbLine
 10
1334.964299538768
 20
195.8078544428543
 30
0.0
 11
1334.964299538768
 21
199.4794273181112
 31
0.0
  0
LINE
  5
133C
330
2
100
AcDbEntity
  8
0
100
AcDbLine
 10
1333.550085976395
 20
201.7220680052294
 30
0.0
 11
1334.378513101142
 21
200.8936408804828
 31
0.0
  0
LINE
  5
133D
330
2
100
AcDbEntity
  8
0
100
AcDbLine
 10
1342.464299538768
 20
191.8078544428561
 30
0.0
 11
1341.164299538769
 21
191.8078544428561
 31
0.0
  0
LINE
  5
133E
330
2
100
AcDbEntity
  8
0
100
AcDbLine
 10
1338.964299538768
 20
191.6078544428572
 30
0.0
 11
1338.764299538769
 21
191.8078544428561
 31
0.0
  0
LINE
  5
133F
330
2
100
AcDbEntity
  8
0
100
AcDbLine
 10
1340.764299538769
 20
191.1078544428572
 30
0.0
 11
1339.164299538769
 21
191.1078544428572
 31
0.0
  0
LINE
  5
1340
330
2
100
AcDbEntity
  8
0
100
AcDbLine
 10
1342.464299538768
 20
191.8078544428561
 30
0.0
 11
1343.464299538768
 21
191.2305041736661
 31
0.0
  0
LINE
  5
1341
330
2
100
AcDbEntity
  8
0
100
AcDbLine
 10
1316.464299538759
 20
94.30785444285612
 30
0.0
 11
1330.981752609766
 21
94.43454633646689
 31
0.0
  0
LINE
  5
1342
330
2
100
AcDbEntity
  8
0
100
AcDbLine
 10
1333.550085976395
 20
106.8936408804827
 30
0.0
 11
1334.378513101142
 21
107.7220680052294
 31
0.0
  0
LINE
  5
1343
330
2
100
AcDbEntity
  8
0
100
AcDbLine
 10
1343.464299538768
 20
191.2305041736661
 30
0.0
 11
1343.464299538768
 21
117.3852047120461
 31
0.0
  0
LINE
  5
1344
330
2
100
AcDbEntity
  8
0
100
AcDbLine
 10
1338.764299538769
 20
116.8078544428561
 30
0.0
 11
1336.464299538764
 21
116.8078544428561
 31
0.0
  0
LINE
  5
1345
330
2
100
AcDbEntity
  8
0
100
AcDbLine
 10
1335.464299538768
 20
125.8078544428579
 30
0.0
 11
1335.464299538768
 21
182.8078544428542
 31
0.0
  0
LINE
  5
1346
330
2
100
AcDbEntity
  8
0
100
AcDbLine
 10
1342.464299538768
 20
116.8078544428561
 30
0.0
 11
1341.164299538769
 21
116.8078544428561
 31
0.0
  0
LINE
  5
1347
330
2
100
AcDbEntity
  8
0
100
AcDbLine
 10
1340.964299538768
 20
117.0078544428568
 30
0.0
 11
1340.964299538768
 21
191.6078544428572
 31
0.0
  0
LINE
  5
1348
330
2
100
AcDbEntity
  8
0
100
AcDbLine
 10
1338.964299538768
 20
117.0078544428568
 30
0.0
 11
1338.964299538768
 21
191.6078544428572
 31
0.0
  0
LINE
  5
1349
330
2
100
AcDbEntity
  8
0
100
AcDbLine
 10
1340.764299538769
 20
117.5078544428568
 30
0.0
 11
1339.164299538769
 21
117.5078544428568
 31
0.0
  0
LINE
  5
134A
330
2
100
AcDbEntity
  8
0
100
AcDbLine
 10
1338.964299538768
 20
117.0078544428568
 30
0.0
 11
1338.764299538769
 21
116.8078544428561
 31
0.0
  0
LINE
  5
134B
330
2
100
AcDbEntity
  8
0
100
AcDbLine
 10
1342.464299538768
 20
116.8078544428561
 30
0.0
 11
1343.464299538768
 21
117.3852047120461
 31
0.0
  0
ARC
  5
134C
330
2
100
AcDbEntity
  8
0
100
AcDbCircle
 10
1332.964299538768
 20
199.4794273181112
 30
0.0
 40
2.0
100
AcDbArc
 50
0.0
 51
45.00000000000029
  0
ARC
  5
134D
330
2
100
AcDbEntity
  8
0
100
AcDbCircle
 10
1334.964299538768
 20
203.1362815676028
 30
0.0
 40
2.0
100
AcDbArc
 50
180.0
 51
225.0000000000003
  0
ARC
  5
134E
330
2
100
AcDbEntity
  8
0
100
AcDbCircle
 10
1332.964299538768
 20
109.1362815676028
 30
0.0
 40
2.0
100
AcDbArc
 50
314.9999999999997
 51
0.0
  0
ARC
  5
134F
330
2
100
AcDbEntity
  8
0
100
AcDbCircle
 10
1334.964299538768
 20
105.4794273181094
 30
0.0
 40
2.0
100
AcDbArc
 50
134.9999999999997
 51
180.0
  0
ARC
  5
1350
330
2
100
AcDbEntity
  8
0
100
AcDbCircle
 10
1341.164299538769
 20
117.0078544428568
 30
0.0
 40
0.2
100
AcDbArc
 50
180.0
 51
270.0
  0
ARC
  5
1351
330
2
100
AcDbEntity
  8
0
100
AcDbCircle
 10
1340.764299538769
 20
117.3078544428561
 30
0.0
 40
0.2
100
AcDbArc
 50
0.0
 51
90.0
  0
ARC
  5
1352
330
2
100
AcDbEntity
  8
0
100
AcDbCircle
 10
1339.164299538769
 20
117.3078544428561
 30
0.0
 40
0.2
100
AcDbArc
 50
90.0
 51
180.0
  0
ARC
  5
1353
330
2
100
AcDbEntity
  8
0
100
AcDbCircle
 10
1341.164299538769
 20
191.6078544428572
 30
0.0
 40
0.2
100
AcDbArc
 50
90.0
 51
180.0
  0
ARC
  5
1354
330
2
100
AcDbEntity
  8
0
100
AcDbCircle
 10
1340.764299538769
 20
191.3078544428561
 30
0.0
 40
0.2
100
AcDbArc
 50
270.0
 51
0.0
  0
ARC
  5
1355
330
2
100
AcDbEntity
  8
0
100
AcDbCircle
 10
1339.164299538769
 20
191.3078544428561
 30
0.0
 40
0.2
100
AcDbArc
 50
180.0
 51
270.0
  0
LINE
  5
1356
330
2
100
AcDbEntity
  8
0
100
AcDbLine
 10
1342.464299538768
 20
116.8078544428561
 30
0.0
 11
1342.464299538768
 21
191.8078544428561
 31
0.0
  0
LINE
  5
1357
330
2
100
AcDbEntity
  8
0
100
AcDbLine
 10
1338.764299538769
 20
116.8078544428561
 30
0.0
 11
1338.764299538769
 21
191.8078544428561
 31
0.0
  0
ARC
  5
1358
330
2
100
AcDbEntity
  8
0
100
AcDbCircle
 10
1330.964299538768
 20
212.1812387031194
 30
0.0
 40
2.0
100
AcDbArc
 50
0.0
 51
89.5000000000345
  0
LINE
  5
1359
330
2
100
AcDbEntity
  8
0
100
AcDbLine
 10
1316.464299538766
 20
214.3078544428561
 30
0.0
 11
1330.981752609766
 21
214.1811625492471
 31
0.0
  0
LINE
  5
135A
330
2
100
AcDbEntity
  8
0
100
AcDbLine
 10
1316.464299538764
 20
197.3078544428543
 30
0.0
 11
1327.981752609762
 21
197.2073431526176
 31
0.0
  0
LINE
  5
135B
330
2
100
AcDbEntity
  8
0
100
AcDbLine
 10
1326.964299538764
 20
180.8078544428543
 30
0.0
 11
1327.964299538765
 21
180.8078544428543
 31
0.0
  0
ARC
  5
135C
330
2
100
AcDbEntity
  8
0
100
AcDbCircle
 10
1326.964299538763
 20
181.3078544428543
 30
0.0
 40
0.5
100
AcDbArc
 50
179.9999999998957
 51
270.0000000000521
  0
ARC
  5
135D
330
2
100
AcDbEntity
  8
0
100
AcDbCircle
 10
1327.964299538765
 20
178.8078544428543
 30
0.0
 40
2.0
100
AcDbArc
 50
0.0
 51
90.0
  0
LINE
  5
135E
330
2
100
AcDbEntity
  8
0
100
AcDbLine
 10
1326.464299538764
 20
113.3777455419556
 30
0.0
 11
1326.464299538764
 21
127.3078544428579
 31
0.0
  0
ARC
  5
135F
330
2
100
AcDbEntity
  8
0
100
AcDbCircle
 10
1324.464299538764
 20
113.3777455419556
 30
0.0
 40
2.0
100
AcDbArc
 50
270.5000000000175
 51
0.0
  0
LINE
  5
1360
330
2
100
AcDbEntity
  8
0
100
AcDbLine
 10
1326.964299538764
 20
127.8078544428579
 30
0.0
 11
1327.964299538765
 21
127.8078544428579
 31
0.0
  0
ARC
  5
1361
330
2
100
AcDbEntity
  8
0
100
AcDbCircle
 10
1326.964299538763
 20
127.3078544428579
 30
0.0
 40
0.5
100
AcDbArc
 50
89.99999999994789
 51
180.0000000001042
  0
ARC
  5
1362
330
2
100
AcDbEntity
  8
0
100
AcDbCircle
 10
1327.964299538765
 20
129.8078544428579
 30
0.0
 40
2.0
100
AcDbArc
 50
270.0
 51
0.0
  0
LINE
  5
1363
330
2
100
AcDbEntity
  8
0
100
AcDbLine
 10
1316.464299538764
 20
111.3078544428579
 30
0.0
 11
1327.981752609757
 21
111.4083657330946
 31
0.0
  0
ARC
  5
1364
330
2
100
AcDbEntity
  8
0
100
AcDbCircle
 10
1327.964299538761
 20
113.4082895792224
 30
0.0
 40
2.0
100
AcDbArc
 50
270.5000000000175
 51
342.5293287626834
  0
LINE
  5
1365
330
2
100
AcDbEntity
  8
CENTER
  6
CENS
100
AcDbLine
 10
1337.964299538768
 20
189.3078544428543
 30
0.0
 11
1311.464299538765
 21
189.3078544428543
 31
0.0
  0
LINE
  5
1366
330
2
100
AcDbEntity
  8
0
100
AcDbLine
 10
1336.464299538764
 20
183.6738798466402
 30
0.0
 11
1336.464299538764
 21
194.9418290390702
 31
0.0
  0
LINE
  5
1367
330
2
100
AcDbEntity
  8
0
100
AcDbLine
 10
1326.464299538764
 20
182.8078544428542
 30
0.0
 11
1326.464299538764
 21
195.8078544428543
 31
0.0
  0
LINE
  5
1368
330
2
100
AcDbEntity
  8
0
100
AcDbLine
 10
1328.464299538764
 20
182.8078544428542
 30
0.0
 11
1328.464299538762
 21
195.8078544428543
 31
0.0
  0
LINE
  5
1369
330
2
100
AcDbEntity
  8
0
100
AcDbLine
 10
1335.964299538765
 20
195.8078544428543
 30
0.0
 11
1336.464299538764
 21
194.9418290390702
 31
0.0
  0
LINE
  5
136A
330
2
100
AcDbEntity
  8
0
100
AcDbLine
 10
1326.464299538764
 20
195.8078544428543
 30
0.0
 11
1328.464299538764
 21
195.8078544428543
 31
0.0
  0
LINE
  5
136B
330
2
100
AcDbEntity
  8
0
100
AcDbLine
 10
1328.464299538764
 20
195.8078544428543
 30
0.0
 11
1335.964299538765
 21
195.8078544428543
 31
0.0
  0
LINE
  5
136C
330
2
100
AcDbEntity
  8
0
100
AcDbLine
 10
1335.964299538765
 20
182.8078544428542
 30
0.0
 11
1336.464299538764
 21
183.6738798466383
 31
0.0
  0
LINE
  5
136D
330
2
100
AcDbEntity
  8
0
100
AcDbLine
 10
1326.464299538764
 20
182.8078544428542
 30
0.0
 11
1328.464299538764
 21
182.8078544428542
 31
0.0
  0
LINE
  5
136E
330
2
100
AcDbEntity
  8
0
100
AcDbLine
 10
1328.464299538764
 20
182.8078544428542
 30
0.0
 11
1335.964299538765
 21
182.8078544428542
 31
0.0
  0
LINE
  5
136F
330
2
100
AcDbEntity
  8
0
100
AcDbLine
 10
1335.964299538765
 20
182.8078544428542
 30
0.0
 11
1335.964299538765
 21
195.8078544428543
 31
0.0
  0
LINE
  5
1370
330
2
100
AcDbEntity
  8
CENTER
  6
CENS
100
AcDbLine
 10
1337.964299538768
 20
119.3078544428579
 30
0.0
 11
1311.464299538765
 21
119.3078544428579
 31
0.0
  0
LINE
  5
1371
330
2
100
AcDbEntity
  8
0
100
AcDbLine
 10
1336.464299538764
 20
124.9418290390738
 30
0.0
 11
1336.464299538764
 21
113.673879846642
 31
0.0
  0
LINE
  5
1372
330
2
100
AcDbEntity
  8
0
100
AcDbLine
 10
1326.464299538764
 20
125.8078544428579
 30
0.0
 11
1326.464299538764
 21
112.8078544428579
 31
0.0
  0
LINE
  5
1373
330
2
100
AcDbEntity
  8
0
100
AcDbLine
 10
1328.464299538764
 20
125.8078544428579
 30
0.0
 11
1328.464299538762
 21
112.8078544428579
 31
0.0
  0
LINE
  5
1374
330
2
100
AcDbEntity
  8
0
100
AcDbLine
 10
1335.964299538765
 20
112.8078544428579
 30
0.0
 11
1336.464299538764
 21
113.673879846642
 31
0.0
  0
LINE
  5
1375
330
2
100
AcDbEntity
  8
0
100
AcDbLine
 10
1326.464299538764
 20
112.8078544428579
 30
0.0
 11
1328.464299538764
 21
112.8078544428579
 31
0.0
  0
LINE
  5
1376
330
2
100
AcDbEntity
  8
0
100
AcDbLine
 10
1328.464299538764
 20
112.8078544428579
 30
0.0
 11
1335.964299538765
 21
112.8078544428579
 31
0.0
  0
LINE
  5
1377
330
2
100
AcDbEntity
  8
0
100
AcDbLine
 10
1335.964299538765
 20
125.8078544428579
 30
0.0
 11
1336.464299538764
 21
124.9418290390738
 31
0.0
  0
LINE
  5
1378
330
2
100
AcDbEntity
  8
0
100
AcDbLine
 10
1328.464299538764
 20
125.8078544428579
 30
0.0
 11
1335.964299538765
 21
125.8078544428579
 31
0.0
  0
LINE
  5
1379
330
2
100
AcDbEntity
  8
0
100
AcDbLine
 10
1335.964299538765
 20
125.8078544428579
 30
0.0
 11
1335.964299538765
 21
112.8078544428579
 31
0.0
  0
LINE
  5
137A
330
2
100
AcDbEntity
  8
0
100
AcDbLine
 10
1328.464299538764
 20
125.8078544428579
 30
0.0
 11
1326.464299538764
 21
125.8078544428579
 31
0.0
  0
LINE
  5
1381
330
2
100
AcDbEntity
  8
0
100
AcDbLine
 10
1336.464299538905
 20
198.6738798466402
 30
0.0
 11
1336.464299538905
 21
209.941829039072
 31
0.0
  0
LINE
  5
1382
330
2
100
AcDbEntity
  8
0
100
AcDbLine
 10
1335.964299538905
 20
210.8078544428561
 30
0.0
 11
1336.464299538905
 21
209.941829039072
 31
0.0
  0
LINE
  5
1383
330
2
100
AcDbEntity
  8
0
100
AcDbLine
 10
1332.964299538768
 20
210.8078544428561
 30
0.0
 11
1335.964299538905
 21
210.8078544428561
 31
0.0
  0
LINE
  5
1384
330
2
100
AcDbEntity
  8
CENTER
  6
CENS
100
AcDbLine
 10
1309.704417246909
 20
204.3078544428561
 30
0.0
 11
1339.464299538905
 21
204.3078544428561
 31
0.0
  0
LINE
  5
1385
330
2
100
AcDbEntity
  8
0
100
AcDbLine
 10
1335.964299538905
 20
197.8078544428561
 30
0.0
 11
1336.464299538905
 21
198.6738798466402
 31
0.0
  0
LINE
  5
1386
330
2
100
AcDbEntity
  8
0
100
AcDbLine
 10
1334.964299538768
 20
197.8078544428561
 30
0.0
 11
1335.964299538905
 21
197.8078544428561
 31
0.0
  0
LINE
  5
1387
330
2
100
AcDbEntity
  8
0
100
AcDbLine
 10
1335.964299538905
 20
197.8078544428561
 30
0.0
 11
1335.964299538905
 21
210.8078544428561
 31
0.0
  0
LINE
  5
1388
330
2
100
AcDbEntity
  8
0
100
AcDbLine
 10
1336.464299538905
 20
109.941829039072
 30
0.0
 11
1336.464299538905
 21
98.67387984664203
 31
0.0
  0
LINE
  5
1389
330
2
100
AcDbEntity
  8
0
100
AcDbLine
 10
1335.964299538905
 20
97.80785444285612
 30
0.0
 11
1336.464299538905
 21
98.67387984664203
 31
0.0
  0
LINE
  5
138A
330
2
100
AcDbEntity
  8
0
100
AcDbLine
 10
1332.964299538766
 20
97.80785444285612
 30
0.0
 11
1335.964299538905
 21
97.80785444285612
 31
0.0
  0
LINE
  5
138B
330
2
100
AcDbEntity
  8
CENTER
  6
CENS
100
AcDbLine
 10
1309.704417246909
 20
104.3078544428561
 30
0.0
 11
1339.464299538905
 21
104.3078544428561
 31
0.0
  0
LINE
  5
138C
330
2
100
AcDbEntity
  8
0
100
AcDbLine
 10
1334.964299538768
 20
110.8078544428561
 30
0.0
 11
1335.964299538905
 21
110.8078544428561
 31
0.0
  0
LINE
  5
138D
330
2
100
AcDbEntity
  8
0
100
AcDbLine
 10
1335.964299538905
 20
110.8078544428561
 30
0.0
 11
1335.964299538905
 21
97.80785444285612
 31
0.0
  0
LINE
  5
138E
330
2
100
AcDbEntity
  8
0
100
AcDbLine
 10
1335.964299538905
 20
110.8078544428561
 30
0.0
 11
1336.464299538905
 21
109.941829039072
 31
0.0
  0
LINE
  5
139E
330
2
100
AcDbEntity
  8
0
100
AcDbLine
 10
968.4234616127538
 20
561.3475102207777
 30
0.0
 11
968.4234616127556
 21
502.0475102207775
 31
0.0
  0
LINE
  5
139F
330
2
100
AcDbEntity
  8
0
100
AcDbLine
 10
990.4234616127537
 20
528.697510220778
 30
0.0
 11
990.4234616127537
 21
509.6975102207781
 31
0.0
  0
LINE
  5
13A0
330
2
100
AcDbEntity
  8
0
100
AcDbLine
 10
993.4234616127538
 20
531.6975102207781
 30
0.0
 11
1001.423461612751
 21
531.6975102207781
 31
0.0
  0
LINE
  5
13A1
330
2
100
AcDbEntity
  8
0
100
AcDbLine
 10
970.0290128882183
 20
571.6975102207781
 30
0.0
 11
1014.423461612752
 21
571.6975102207781
 31
0.0
  0
LINE
  5
13A2
330
2
100
AcDbEntity
  8
0
100
AcDbLine
 10
1004.423461612752
 20
566.697510220778
 30
0.0
 11
1004.423461612752
 21
534.6975102207781
 31
0.0
  0
ARC
  5
13A3
330
2
100
AcDbEntity
  8
0
100
AcDbCircle
 10
1009.423461612751
 20
566.697510220778
 30
0.0
 40
5.0
100
AcDbArc
 50
90.0
 51
180.0
  0
ARC
  5
13A4
330
2
100
AcDbEntity
  8
0
100
AcDbCircle
 10
1001.423461612751
 20
534.6975102207781
 30
0.0
 40
3.0
100
AcDbArc
 50
270.0
 51
0.0
  0
LINE
  5
13A5
330
2
100
AcDbEntity
  8
0
100
AcDbLine
 10
959.4234616127536
 20
572.6975102207781
 30
0.0
 11
966.4234616127556
 21
572.6975102207781
 31
0.0
  0
ARC
  5
13A6
330
2
100
AcDbEntity
  8
0
100
AcDbCircle
 10
970.0290128882183
 20
576.6975102207781
 30
0.0
 40
5.0
100
AcDbArc
 50
238.9972808660663
 51
270.0
  0
ARC
  5
13A7
330
2
100
AcDbEntity
  8
0
100
AcDbCircle
 10
966.4234616127556
 20
570.697510220778
 30
0.0
 40
2.0
100
AcDbArc
 50
18.96557498887122
 51
90.0
  0
ARC
  5
13A8
330
2
100
AcDbEntity
  8
0
100
AcDbCircle
 10
993.4234616127538
 20
528.697510220778
 30
0.0
 40
3.0
100
AcDbArc
 50
90.0
 51
180.0
  0
LINE
  5
13A9
330
2
100
AcDbEntity
  8
0
100
AcDbLine
 10
970.0290128882183
 20
491.697510220778
 30
0.0
 11
1014.423461612752
 21
491.6975102207771
 31
0.0
  0
LINE
  5
13AA
330
2
100
AcDbEntity
  8
0
100
AcDbLine
 10
993.4234616127538
 20
506.6975102207781
 30
0.0
 11
1001.423461612751
 21
506.6975102207781
 31
0.0
  0
LINE
  5
13AB
330
2
100
AcDbEntity
  8
0
100
AcDbLine
 10
1004.423461612752
 20
503.697510220778
 30
0.0
 11
1004.423461612752
 21
496.6975102207771
 31
0.0
  0
ARC
  5
13AC
330
2
100
AcDbEntity
  8
0
100
AcDbCircle
 10
1001.423461612751
 20
503.697510220778
 30
0.0
 40
3.0
100
AcDbArc
 50
0.0
 51
90.0
  0
ARC
  5
13AD
330
2
100
AcDbEntity
  8
0
100
AcDbCircle
 10
1009.423461612751
 20
496.6975102207781
 30
0.0
 40
5.0
100
AcDbArc
 50
180.0
 51
270.0
  0
ARC
  5
13AE
330
2
100
AcDbEntity
  8
0
100
AcDbCircle
 10
993.4234616127538
 20
509.6975102207781
 30
0.0
 40
3.0
100
AcDbArc
 50
180.0
 51
270.0
  0
LINE
  5
13AF
330
2
100
AcDbEntity
  8
0
100
AcDbLine
 10
959.4234616127536
 20
490.6975102207772
 30
0.0
 11
966.4234616127556
 21
490.697510220778
 31
0.0
  0
ARC
  5
13B0
330
2
100
AcDbEntity
  8
0
100
AcDbCircle
 10
970.0290128882183
 20
486.697510220778
 30
0.0
 40
5.0
100
AcDbArc
 50
90.0
 51
121.0027191339336
  0
ARC
  5
13B1
330
2
100
AcDbEntity
  8
0
100
AcDbCircle
 10
966.4234616127556
 20
492.6975102207781
 30
0.0
 40
2.0
100
AcDbArc
 50
270.0
 51
341.0344250111287
  0
LINE
  5
13B2
330
2
100
AcDbEntity
  8
0
100
AcDbLine
 10
1014.423461612752
 20
571.6975102207781
 30
0.0
 11
1014.423461612752
 21
491.6975102207771
 31
0.0
  0
LINE
  5
13B3
330
2
100
AcDbEntity
  8
0
100
AcDbLine
 10
1248.903695717682
 20
195.3078544428651
 30
0.0
 11
1261.091316192555
 21
195.307854442866
 31
0.0
  0
LINE
  5
13B4
330
2
100
AcDbEntity
  8
0
100
AcDbLine
 10
1278.837282884969
 20
195.3078544428678
 30
0.0
 11
1321.024903359844
 21
195.3078544428705
 31
0.0
  0
CIRCLE
  5
13B5
330
2
100
AcDbEntity
  8
HIDS
100
AcDbCircle
 10
1284.964299538763
 20
154.307854442866
 30
0.0
 40
40.0
  0
CIRCLE
  5
13B6
330
2
100
AcDbEntity
  8
0
100
AcDbCircle
 10
1284.964299538763
 20
154.307854442866
 30
0.0
 40
34.99999999543831
  0
LINE
  5
13B7
330
2
100
AcDbEntity
  8
0
100
AcDbLine
 10
1252.964299538763
 20
194.307854442866
 30
0.0
 11
1316.964299538763
 21
194.307854442866
 31
0.0
  0
LINE
  5
13B8
330
2
100
AcDbEntity
  8
0
100
AcDbLine
 10
1252.964299538763
 20
114.307854442866
 30
0.0
 11
1316.871181240202
 21
114.307854442866
 31
0.0
  0
LINE
  5
13B9
330
2
100
AcDbEntity
  8
0
100
AcDbLine
 10
1243.904067478714
 20
118.2468833667805
 30
0.0
 11
1243.464299538772
 21
154.307854442866
 31
0.0
  0
LINE
  5
13BA
330
2
100
AcDbEntity
  8
0
100
AcDbLine
 10
1245.057451683652
 20
122.2845834282995
 30
0.0
 11
1244.964299538763
 21
154.307854442866
 31
0.0
  0
ARC
  5
13BB
330
2
100
AcDbEntity
  8
0
100
AcDbCircle
 10
1248.903695717682
 20
118.307854442866
 30
0.0
 40
5.0
100
AcDbArc
 50
180.6986943829997
 51
270.0
  0
ARC
  5
13BC
330
2
100
AcDbEntity
  8
0
100
AcDbCircle
 10
1253.057417837323
 20
122.307854442866
 30
0.0
 40
7.999999999999998
100
AcDbArc
 50
180.1666666000128
 51
270.0
  0
LINE
  5
13BD
330
2
100
AcDbEntity
  8
CENTER
100
AcDbLine
 10
1253.144299538763
 20
127.9878544428654
 30
0.0
 11
1253.144299538763
 21
116.9878544428653
 31
0.0
  0
LINE
  5
13BE
330
2
100
AcDbEntity
  8
CENTER
100
AcDbLine
 10
1247.644299538763
 20
122.4878544428654
 30
0.0
 11
1258.644299538763
 21
122.4878544428654
 31
0.0
  0
LINE
  5
13BF
330
2
100
AcDbEntity
  8
0
100
AcDbLine
 10
1243.904067478714
 20
190.3688255189505
 30
0.0
 11
1243.464299538772
 21
154.307854442866
 31
0.0
  0
LINE
  5
13C0
330
2
100
AcDbEntity
  8
HIDS
100
AcDbLine
 10
1264.214299538761
 20
194.307854442866
 30
0.0
 11
1264.552921175122
 21
174.9082338883096
 31
0.0
  0
LINE
  5
13C1
330
2
100
AcDbEntity
  8
HIDS
100
AcDbLine
 10
1275.714299538761
 20
194.307854442866
 30
0.0
 11
1275.494545255569
 21
181.7181399907383
 31
0.0
  0
LINE
  5
13C2
330
2
100
AcDbEntity
  8
0
100
AcDbLine
 10
1245.057451683652
 20
186.3311254574325
 30
0.0
 11
1244.964299538763
 21
154.307854442866
 31
0.0
  0
LINE
  5
13C3
330
2
100
AcDbEntity
  8
CENTER
100
AcDbLine
 10
1253.144299538763
 20
191.6278544428657
 30
0.0
 11
1253.144299538763
 21
180.6278544428657
 31
0.0
  0
ARC
  5
13C4
330
2
100
AcDbEntity
  8
HIDS
100
AcDbCircle
 10
1261.929694064994
 20
192.307854442866
 30
0.0
 40
2.0
100
AcDbArc
 50
90.0
 51
178.9999999999974
  0
ARC
  5
13C5
330
2
100
AcDbEntity
  8
0
100
AcDbCircle
 10
1248.903695717682
 20
190.3078544428651
 30
0.0
 40
5.0
100
AcDbArc
 50
90.0
 51
179.3013056170002
  0
ARC
  5
13C6
330
2
100
AcDbEntity
  8
0
100
AcDbCircle
 10
1253.057417837323
 20
186.307854442866
 30
0.0
 40
7.999999999999998
100
AcDbArc
 50
90.0
 51
179.8333333999871
  0
LINE
  5
13C7
330
2
100
AcDbEntity
  8
CENTER
100
AcDbLine
 10
1247.644299538763
 20
186.1278544428657
 30
0.0
 11
1258.644299538763
 21
186.1278544428657
 31
0.0
  0
LINE
  5
13C8
330
2
100
AcDbEntity
  8
HIDS
100
AcDbLine
 10
1259.929998674682
 20
192.3427592557397
 30
0.0
 11
1259.832847712422
 21
186.7769843554739
 31
0.0
  0
ARC
  5
13C9
330
2
100
AcDbEntity
  8
HIDS
100
AcDbCircle
 10
1256.833304626951
 20
186.8293415747854
 30
0.0
 40
3.0
100
AcDbArc
 50
310.8597132650885
 51
358.9999999999713
  0
LINE
  5
13CA
330
2
100
AcDbEntity
  8
0
100
AcDbLine
 10
1326.024531598811
 20
118.2468833667805
 30
0.0
 11
1326.464299538754
 21
154.3078544428341
 31
0.0
  0
LINE
  5
13CB
330
2
100
AcDbEntity
  8
0
100
AcDbLine
 10
1324.871147393873
 20
122.2845834282995
 30
0.0
 11
1324.964299538763
 21
154.307854442866
 31
0.0
  0
ARC
  5
13CC
330
2
100
AcDbEntity
  8
0
100
AcDbCircle
 10
1321.024903359844
 20
118.307854442866
 30
0.0
 40
5.0
100
AcDbArc
 50
270.0
 51
359.3013056170002
  0
ARC
  5
13CD
330
2
100
AcDbEntity
  8
0
100
AcDbCircle
 10
1316.871181240202
 20
122.307854442866
 30
0.0
 40
8.0
100
AcDbArc
 50
270.0
 51
359.8333334000132
  0
LINE
  5
13CE
330
2
100
AcDbEntity
  8
HIDS
100
AcDbLine
 10
1309.998600402844
 20
116.2729496299904
 30
0.0
 11
1310.095751365103
 21
121.8387245302571
 31
0.0
  0
LINE
  5
13CF
330
2
100
AcDbEntity
  8
CENTER
100
AcDbLine
 10
1316.784299538762
 20
127.9878544428654
 30
0.0
 11
1316.784299538762
 21
116.9878544428653
 31
0.0
  0
ARC
  5
13D0
330
2
100
AcDbEntity
  8
HIDS
100
AcDbCircle
 10
1307.99890501253
 20
116.307854442866
 30
0.0
 40
2.0
100
AcDbArc
 50
270.0
 51
358.9999999999713
  0
LINE
  5
13D1
330
2
100
AcDbEntity
  8
CENTER
100
AcDbLine
 10
1311.284299538762
 20
122.4878544428654
 30
0.0
 11
1322.284299538762
 21
122.4878544428654
 31
0.0
  0
ARC
  5
13D2
330
2
100
AcDbEntity
  8
HIDS
100
AcDbCircle
 10
1313.095294450572
 20
121.7863673109447
 30
0.0
 40
3.0
100
AcDbArc
 50
130.8597132650888
 51
178.9999999999974
  0
LINE
  5
13D3
330
2
100
AcDbEntity
  8
0
100
AcDbLine
 10
1326.024531598811
 20
190.3688255189505
 30
0.0
 11
1326.464299538754
 21
154.3078544428341
 31
0.0
  0
LINE
  5
13D4
330
2
100
AcDbEntity
  8
0
100
AcDbLine
 10
1324.871147393873
 20
186.3311254574325
 30
0.0
 11
1324.964299538763
 21
154.307854442866
 31
0.0
  0
LINE
  5
13D5
330
2
100
AcDbEntity
  8
CENTER
100
AcDbLine
 10
1316.784299538762
 20
191.6278544428657
 30
0.0
 11
1316.784299538762
 21
180.6278544428657
 31
0.0
  0
ARC
  5
13D6
330
2
100
AcDbEntity
  8
0
100
AcDbCircle
 10
1316.871181240202
 20
186.307854442866
 30
0.0
 40
8.0
100
AcDbArc
 50
0.1666666000128655
 51
90.0
  0
LINE
  5
13D7
330
2
100
AcDbEntity
  8
CENTER
100
AcDbLine
 10
1311.284299538762
 20
186.1278544428657
 30
0.0
 11
1322.284299538762
 21
186.1278544428657
 31
0.0
  0
ARC
  5
13D8
330
2
100
AcDbEntity
  8
0
100
AcDbCircle
 10
1321.024903359844
 20
190.307854442866
 30
0.0
 40
5.0
100
AcDbArc
 50
0.6986943829997446
 51
90.0
  0
LINE
  5
13D9
330
2
100
AcDbEntity
  8
0
100
AcDbLine
 10
968.2548608034231
 20
163.9669883368667
 30
0.0
 11
967.7421048147735
 21
193.3427592557343
 31
0.0
  0
LINE
  5
13DA
330
2
100
AcDbEntity
  8
0
100
AcDbLine
 10
1005.035912049674
 20
189.3951164750503
 30
0.0
 11
1004.973878346869
 21
185.841208021611
 31
0.0
  0
ARC
  5
13DB
330
2
100
AcDbEntity
  8
0
100
AcDbCircle
 10
965.7424094244616
 20
115.3078544428633
 30
0.0
 40
2.0
100
AcDbArc
 50
270.0
 51
358.9999999999974
  0
LINE
  5
13DC
330
2
100
AcDbEntity
  8
0
100
AcDbLine
 10
959.4234616127486
 20
154.3078544428642
 30
0.0
 11
961.8732925479717
 21
154.3078544428642
 31
0.0
  0
LINE
  5
13DD
330
2
100
AcDbEntity
  8
0
100
AcDbLine
 10
1007.423461612748
 20
183.3078544428642
 30
0.0
 11
1003.513808263971
 21
183.3078544428642
 31
0.0
  0
LINE
  5
13DE
330
2
100
AcDbEntity
  8
0
100
AcDbLine
 10
968.4234616127486
 20
154.3078544428642
 30
0.0
 11
967.7421048147753
 21
115.2729496299887
 31
0.0
  0
LINE
  5
13DF
330
2
100
AcDbEntity
  8
0
100
AcDbLine
 10
1005.035912049674
 20
119.2205924106772
 30
0.0
 11
1004.42346161275
 21
154.3078544428642
 31
0.0
  0
LINE
  5
13E0
330
2
100
AcDbEntity
  8
0
100
AcDbLine
 10
1014.423461612748
 20
114.3078544428642
 30
0.0
 11
968.9046870846304
 21
114.3078544428633
 31
0.0
  0
ARC
  5
13E1
330
2
100
AcDbEntity
  8
0
100
AcDbCircle
 10
1010.035150525456
 20
119.3078544428633
 30
0.0
 40
5.0
100
AcDbArc
 50
181.0000000000025
 51
270.0
  0
LINE
  5
13E2
330
2
100
AcDbEntity
  8
0
100
AcDbLine
 10
959.4234616127486
 20
113.3078544428633
 30
0.0
 11
965.7424094244616
 21
113.3078544428633
 31
0.0
  0
ARC
  5
13E3
330
2
100
AcDbEntity
  8
0
100
AcDbCircle
 10
965.7424094244616
 20
193.3078544428642
 30
0.0
 40
2.0
100
AcDbArc
 50
0.9999999998967215
 51
90.0
  0
LINE
  5
13E4
330
2
100
AcDbEntity
  8
0
100
AcDbLine
 10
1014.423461612748
 20
194.3078544428633
 30
0.0
 11
968.9046870846304
 21
194.3078544428642
 31
0.0
  0
ARC
  5
13E5
330
2
100
AcDbEntity
  8
0
100
AcDbCircle
 10
1010.035150525456
 20
189.3078544428633
 30
0.0
 40
5.0
100
AcDbArc
 50
90.0
 51
178.9999999999974
  0
LINE
  5
13E6
330
2
100
AcDbEntity
  8
0
100
AcDbLine
 10
959.4234616127506
 20
195.3078544428642
 30
0.0
 11
965.7424094244616
 21
195.3078544428642
 31
0.0
  0
LINE
  5
13E7
330
2
100
AcDbEntity
  8
0
100
AcDbLine
 10
1014.423461612748
 20
194.3078544428633
 30
0.0
 11
1014.423461612748
 21
114.3078544428642
 31
0.0
  0
ARC
  5
13E8
330
2
100
AcDbEntity
  8
0
100
AcDbCircle
 10
968.9046870846304
 20
197.8078544428642
 30
0.0
 40
3.5
100
AcDbArc
 50
234.9031987723859
 51
270.0
  0
ARC
  5
13E9
330
2
100
AcDbEntity
  8
0
100
AcDbCircle
 10
968.9046870846304
 20
110.8078544428633
 30
0.0
 40
3.5
100
AcDbArc
 50
90.0
 51
125.0968012276146
  0
ARC
  5
13EA
330
2
100
AcDbEntity
  8
0
100
AcDbCircle
 10
1307.560342978949
 20
234.0886457548283
 30
0.0
 40
40.0
100
AcDbArc
 50
263.8230035951091
 51
263.9988421367181
  0
ARC
  5
13EB
330
2
100
AcDbEntity
  8
0
100
AcDbCircle
 10
1262.368256098577
 20
74.52706313090283
 30
0.0
 40
40.0
100
AcDbArc
 50
83.82300359510905
 51
83.99884213682296
  0
LINE
  5
13EC
330
2
100
AcDbEntity
  8
0
100
AcDbLine
 10
1248.903695717682
 20
113.307854442866
 30
0.0
 11
1321.024903359844
 21
113.307854442866
 31
0.0
  0
ARC
  5
13ED
330
2
100
AcDbEntity
  8
0
100
AcDbCircle
 10
1307.560342978949
 20
74.52706313090283
 30
0.0
 40
40.0
100
AcDbArc
 50
96.00115786317706
 51
96.17699640489092
  0
LINE
  5
13EE
330
2
100
AcDbEntity
  8
CENTER
  6
CENS
100
AcDbLine
 10
952.8186436129781
 20
188.9578544428639
 30
0.0
 11
979.818643612978
 21
188.9578544428639
 31
0.0
  0
LINE
  5
13EF
330
2
100
AcDbEntity
  8
0
100
AcDbLine
 10
974.5059189376098
 20
183.9578544428638
 30
0.0
 11
974.5059189376098
 21
193.9578544428638
 31
0.0
  0
LINE
  5
13F0
330
2
100
AcDbEntity
  8
0
100
AcDbLine
 10
974.9059189376094
 20
193.2650341198366
 30
0.0
 11
974.9059189376094
 21
184.6506747658911
 31
0.0
  0
LINE
  5
13F1
330
2
100
AcDbEntity
  8
0
100
AcDbLine
 10
968.9059189376093
 20
183.9578544428638
 30
0.0
 11
968.9059189376093
 21
193.9578544428638
 31
0.0
  0
LINE
  5
13F2
330
2
100
AcDbEntity
  8
0
100
AcDbLine
 10
968.9059189376093
 20
193.9578544428638
 30
0.0
 11
967.9059189376093
 21
193.9578544428638
 31
0.0
  0
LINE
  5
13F3
330
2
100
AcDbEntity
  8
0
100
AcDbLine
 10
967.9059189376093
 20
193.9578544428638
 30
0.0
 11
967.9059189376093
 21
183.9578544428638
 31
0.0
  0
LINE
  5
13F4
330
2
100
AcDbEntity
  8
0
100
AcDbLine
 10
967.9059189376093
 20
183.9578544428638
 30
0.0
 11
968.9059189376093
 21
183.9578544428638
 31
0.0
  0
LINE
  5
13F5
330
2
100
AcDbEntity
  8
0
100
AcDbLine
 10
968.9059189376093
 20
183.9578544428638
 30
0.0
 11
968.9059189376093
 21
193.9578544428638
 31
0.0
  0
LINE
  5
13F6
330
2
100
AcDbEntity
  8
0
100
AcDbLine
 10
974.5059189376098
 20
183.9578544428638
 30
0.0
 11
968.9059189376093
 21
183.9578544428638
 31
0.0
  0
LINE
  5
13F7
330
2
100
AcDbEntity
  8
0
100
AcDbLine
 10
968.9059189376093
 20
193.9578544428638
 30
0.0
 11
974.5059189376098
 21
193.9578544428638
 31
0.0
  0
LINE
  5
13F8
330
2
100
AcDbEntity
  8
0
100
AcDbLine
 10
974.5059189376098
 20
193.9578544428638
 30
0.0
 11
974.9059189376094
 21
193.2650341198366
 31
0.0
  0
LINE
  5
13F9
330
2
100
AcDbEntity
  8
0
100
AcDbLine
 10
974.5059189376098
 20
183.9578544428638
 30
0.0
 11
974.9059189376094
 21
184.6506747658911
 31
0.0
  0
LINE
  5
13FA
330
2
100
AcDbEntity
  8
CENTER
  6
CENS
100
AcDbLine
 10
952.8186436129781
 20
119.6578544428637
 30
0.0
 11
979.818643612978
 21
119.6578544428637
 31
0.0
  0
LINE
  5
13FB
330
2
100
AcDbEntity
  8
0
100
AcDbLine
 10
974.5059189376098
 20
124.6578544428637
 30
0.0
 11
974.5059189376098
 21
114.6578544428637
 31
0.0
  0
LINE
  5
13FC
330
2
100
AcDbEntity
  8
0
100
AcDbLine
 10
974.9059189376094
 20
115.3506747658909
 30
0.0
 11
974.9059189376094
 21
123.9650341198355
 31
0.0
  0
LINE
  5
13FD
330
2
100
AcDbEntity
  8
0
100
AcDbLine
 10
968.9059189376093
 20
124.6578544428637
 30
0.0
 11
968.9059189376093
 21
114.6578544428637
 31
0.0
  0
LINE
  5
13FE
330
2
100
AcDbEntity
  8
0
100
AcDbLine
 10
968.9059189376093
 20
114.6578544428637
 30
0.0
 11
967.9059189376093
 21
114.6578544428637
 31
0.0
  0
LINE
  5
13FF
330
2
100
AcDbEntity
  8
0
100
AcDbLine
 10
967.9059189376093
 20
114.6578544428637
 30
0.0
 11
967.9059189376093
 21
124.6578544428637
 31
0.0
  0
LINE
  5
1400
330
2
100
AcDbEntity
  8
0
100
AcDbLine
 10
967.9059189376093
 20
124.6578544428637
 30
0.0
 11
968.9059189376093
 21
124.6578544428637
 31
0.0
  0
LINE
  5
1401
330
2
100
AcDbEntity
  8
0
100
AcDbLine
 10
968.9059189376093
 20
124.6578544428637
 30
0.0
 11
968.9059189376093
 21
114.6578544428637
 31
0.0
  0
LINE
  5
1402
330
2
100
AcDbEntity
  8
0
100
AcDbLine
 10
974.5059189376098
 20
124.6578544428637
 30
0.0
 11
968.9059189376093
 21
124.6578544428637
 31
0.0
  0
LINE
  5
1403
330
2
100
AcDbEntity
  8
0
100
AcDbLine
 10
968.9059189376093
 20
114.6578544428637
 30
0.0
 11
974.5059189376098
 21
114.6578544428637
 31
0.0
  0
LINE
  5
1404
330
2
100
AcDbEntity
  8
0
100
AcDbLine
 10
974.5059189376098
 20
114.6578544428637
 30
0.0
 11
974.9059189376094
 21
115.3506747658909
 31
0.0
  0
LINE
  5
1405
330
2
100
AcDbEntity
  8
0
100
AcDbLine
 10
974.5059189376098
 20
124.6578544428637
 30
0.0
 11
974.9059189376094
 21
123.9650341198364
 31
0.0
  0
LINE
  5
1406
330
2
100
AcDbEntity
  8
CENTER
  6
CENS
100
AcDbLine
 10
952.8186436129812
 20
497.0475102207775
 30
0.0
 11
979.8186436129812
 21
497.0475102207775
 31
0.0
  0
LINE
  5
1407
330
2
100
AcDbEntity
  8
0
100
AcDbLine
 10
974.505918937613
 20
502.0475102207775
 30
0.0
 11
974.505918937613
 21
492.0475102207775
 31
0.0
  0
LINE
  5
1408
330
2
100
AcDbEntity
  8
0
100
AcDbLine
 10
974.9059189376126
 20
492.7403305438048
 30
0.0
 11
974.9059189376126
 21
501.3546898977502
 31
0.0
  0
LINE
  5
1409
330
2
100
AcDbEntity
  8
0
100
AcDbLine
 10
968.9059189376125
 20
502.0475102207775
 30
0.0
 11
968.9059189376125
 21
492.0475102207775
 31
0.0
  0
LINE
  5
140A
330
2
100
AcDbEntity
  8
0
100
AcDbLine
 10
968.9059189376125
 20
492.0475102207775
 30
0.0
 11
967.9059189376125
 21
492.0475102207775
 31
0.0
  0
LINE
  5
140B
330
2
100
AcDbEntity
  8
0
100
AcDbLine
 10
967.9059189376125
 20
492.0475102207775
 30
0.0
 11
967.9059189376125
 21
502.0475102207775
 31
0.0
  0
LINE
  5
140C
330
2
100
AcDbEntity
  8
0
100
AcDbLine
 10
967.9059189376125
 20
502.0475102207775
 30
0.0
 11
968.9059189376125
 21
502.0475102207775
 31
0.0
  0
LINE
  5
140D
330
2
100
AcDbEntity
  8
0
100
AcDbLine
 10
968.9059189376125
 20
502.0475102207775
 30
0.0
 11
968.9059189376125
 21
492.0475102207775
 31
0.0
  0
LINE
  5
140E
330
2
100
AcDbEntity
  8
0
100
AcDbLine
 10
974.505918937613
 20
502.0475102207775
 30
0.0
 11
968.9059189376125
 21
502.0475102207775
 31
0.0
  0
LINE
  5
140F
330
2
100
AcDbEntity
  8
0
100
AcDbLine
 10
968.9059189376125
 20
492.0475102207775
 30
0.0
 11
974.505918937613
 21
492.0475102207775
 31
0.0
  0
LINE
  5
1410
330
2
100
AcDbEntity
  8
0
100
AcDbLine
 10
974.505918937613
 20
492.0475102207775
 30
0.0
 11
974.9059189376126
 21
492.7403305438048
 31
0.0
  0
LINE
  5
1411
330
2
100
AcDbEntity
  8
0
100
AcDbLine
 10
974.505918937613
 20
502.0475102207775
 30
0.0
 11
974.9059189376126
 21
501.3546898977502
 31
0.0
  0
LINE
  5
1412
330
2
100
AcDbEntity
  8
CENTER
  6
CENS
100
AcDbLine
 10
952.8186436129812
 20
566.3475102207777
 30
0.0
 11
979.8186436129812
 21
566.3475102207777
 31
0.0
  0
LINE
  5
1413
330
2
100
AcDbEntity
  8
0
100
AcDbLine
 10
974.505918937613
 20
561.3475102207777
 30
0.0
 11
974.505918937613
 21
571.3475102207777
 31
0.0
  0
LINE
  5
1414
330
2
100
AcDbEntity
  8
0
100
AcDbLine
 10
974.9059189376126
 20
570.6546898977505
 30
0.0
 11
974.9059189376126
 21
562.0403305438059
 31
0.0
  0
LINE
  5
1415
330
2
100
AcDbEntity
  8
0
100
AcDbLine
 10
968.9059189376125
 20
561.3475102207777
 30
0.0
 11
968.9059189376125
 21
571.3475102207777
 31
0.0
  0
LINE
  5
1416
330
2
100
AcDbEntity
  8
0
100
AcDbLine
 10
968.9059189376125
 20
571.3475102207777
 30
0.0
 11
967.9059189376125
 21
571.3475102207777
 31
0.0
  0
LINE
  5
1417
330
2
100
AcDbEntity
  8
0
100
AcDbLine
 10
967.9059189376125
 20
571.3475102207777
 30
0.0
 11
967.9059189376125
 21
561.3475102207777
 31
0.0
  0
LINE
  5
1418
330
2
100
AcDbEntity
  8
0
100
AcDbLine
 10
967.9059189376125
 20
561.3475102207777
 30
0.0
 11
968.9059189376125
 21
561.3475102207777
 31
0.0
  0
LINE
  5
1419
330
2
100
AcDbEntity
  8
0
100
AcDbLine
 10
968.9059189376125
 20
561.3475102207777
 30
0.0
 11
968.9059189376125
 21
571.3475102207777
 31
0.0
  0
LINE
  5
141A
330
2
100
AcDbEntity
  8
0
100
AcDbLine
 10
974.505918937613
 20
561.3475102207777
 30
0.0
 11
968.9059189376125
 21
561.3475102207777
 31
0.0
  0
LINE
  5
141B
330
2
100
AcDbEntity
  8
0
100
AcDbLine
 10
968.9059189376125
 20
571.3475102207777
 30
0.0
 11
974.505918937613
 21
571.3475102207777
 31
0.0
  0
LINE
  5
141C
330
2
100
AcDbEntity
  8
0
100
AcDbLine
 10
974.505918937613
 20
571.3475102207777
 30
0.0
 11
974.9059189376126
 21
570.6546898977505
 31
0.0
  0
LINE
  5
141D
330
2
100
AcDbEntity
  8
0
100
AcDbLine
 10
974.505918937613
 20
561.3475102207777
 30
0.0
 11
974.9059189376126
 21
562.0403305438059
 31
0.0
  0
LINE
  5
141E
330
2
100
AcDbEntity
  8
0
100
AcDbLine
 10
1014.423461612748
 20
189.3078544428642
 30
0.0
 11
1007.423461612748
 21
189.3078544428642
 31
0.0
  0
LINE
  5
141F
330
2
100
AcDbEntity
  8
0
100
AcDbLine
 10
1007.423461612748
 20
189.3078544428642
 30
0.0
 11
1007.423461612748
 21
154.3078544428642
 31
0.0
  0
LINE
  5
1421
330
2
100
AcDbEntity
  8
0
100
AcDbLine
 10
1007.423461612748
 20
174.0578544428642
 30
0.0
 11
1007.42346161275
 21
154.3078544428642
 31
0.0
  0
LINE
  5
1422
330
2
100
AcDbEntity
  8
0
100
AcDbLine
 10
1007.423461612748
 20
174.0578544428642
 30
0.0
 11
997.6856570422315
 21
174.0578544428642
 31
0.0
  0
LINE
  5
1423
330
2
100
AcDbEntity
  8
0
100
AcDbLine
 10
1005.423461612748
 20
162.3078544428642
 30
0.0
 11
994.4234616127486
 21
162.3078544428642
 31
0.0
  0
LINE
  5
1424
330
2
100
AcDbEntity
  8
0
100
AcDbLine
 10
975.9234616127487
 20
162.5578544428642
 30
0.0
 11
975.9234616127487
 21
154.3078544428642
 31
0.0
  0
LINE
  5
1425
330
2
100
AcDbEntity
  8
0
100
AcDbLine
 10
975.9234616127487
 20
162.5578544428642
 30
0.0
 11
969.9234616127487
 21
162.5578544428642
 31
0.0
  0
LINE
  5
1426
330
2
100
AcDbEntity
  8
0
100
AcDbLine
 10
969.9234616127487
 20
162.5578544428642
 30
0.0
 11
969.9234616127487
 21
154.3078544428642
 31
0.0
  0
LINE
  5
1427
330
2
100
AcDbEntity
  8
0
100
AcDbLine
 10
992.4234616127487
 20
168.5832646635588
 30
0.0
 11
992.4234616127487
 21
154.3078544428642
 31
0.0
  0
LINE
  5
1428
330
2
100
AcDbEntity
  8
0
100
AcDbLine
 10
994.4234616127486
 20
169.6369980039405
 30
0.0
 11
994.4234616127486
 21
154.3078544428642
 31
0.0
  0
LINE
  5
1429
330
2
100
AcDbEntity
  8
0
100
AcDbLine
 10
992.4234616127487
 20
162.3078544428642
 30
0.0
 11
975.9234616127487
 21
162.3078544428642
 31
0.0
  0
LINE
  5
142A
330
2
100
AcDbEntity
  8
0
100
AcDbLine
 10
1007.423461612748
 20
163.4625549812433
 30
0.0
 11
1005.423461612748
 21
162.3078544428642
 31
0.0
  0
LINE
  5
142B
330
2
100
AcDbEntity
  8
0
100
AcDbLine
 10
1005.423461612748
 20
162.3078544428642
 30
0.0
 11
1005.423461612748
 21
154.3078544428642
 31
0.0
  0
LINE
  5
142C
330
2
100
AcDbEntity
  8
0
100
AcDbLine
 10
969.9234616127487
 20
161.8078544428642
 30
0.0
 11
965.5933345938265
 21
154.3078544428642
 31
0.0
  0
SPLINE
  5
142D
330
2
100
AcDbEntity
  8
HOJO
100
AcDbSpline
210
0.0
220
0.0
230
1.0
 70
     8
 71
     3
 72
    20
 73
    16
 74
     0
 42
0.0000000001
 43
0.0000000001
 40
1.102548511336045
 40
1.102548511336045
 40
1.102548511336045
 40
1.102548511336045
 40
5.647385924430076
 40
9.759277458584113
 40
14.59638394258456
 40
18.6386056126129
 40
22.25598020257161
 40
26.57819511411361
 40
31.00332353479096
 40
40.39337194914635
 40
45.49899296170218
 40
52.02718752358933
 40
57.17041693382338
 40
65.63449353306062
 40
69.3611614947018
 40
69.3611614947018
 40
69.3611614947018
 40
69.3611614947018
 10
1010.834213535057
 20
194.3078544428633
 30
0.0
 10
1009.425426014664
 20
193.5794269931754
 30
0.0
 10
1006.912740052905
 20
192.0487143710176
 30
0.0
 10
1005.591813806777
 20
187.4841917136634
 30
0.0
 10
1004.441904481229
 20
184.0926222191444
 30
0.0
 10
1000.95414806924
 20
180.4188570079002
 30
0.0
 10
999.2823128928776
 20
176.893496877921
 30
0.0
 10
997.3050663324229
 20
173.3427801804261
 30
0.0
 10
993.9172850198593
 20
167.7537355919719
 30
0.0
 10
986.392925975544
 20
167.929312039563
 30
0.0
 10
979.6645866188955
 20
166.7829415060657
 30
0.0
 10
974.3213200734881
 20
165.0643294015851
 30
0.0
 10
967.3225395591016
 20
164.7281581168615
 30
0.0
 10
963.6078067598774
 20
159.2421637849063
 30
0.0
 10
962.2859653210817
 20
155.4722572917305
 30
0.0
 10
961.8732925479726
 20
154.3078544428642
 30
0.0
  0
LINE
  5
142E
330
2
100
AcDbEntity
  8
HIDS
  6
SEKKEI_H
100
AcDbLine
 10
1274.964299538763
 20
171.3390757731164
 30
0.0
 11
1274.964299538763
 21
159.307854442866
 31
0.0
  0
LINE
  5
142F
330
2
100
AcDbEntity
  8
CENTER
  6
CENS
100
AcDbLine
 10
1269.964299538763
 20
203.4315388655683
 30
0.0
 11
1269.964299538763
 21
138.4601892853358
 31
0.0
  0
LINE
  5
1430
330
2
100
AcDbEntity
  8
0
100
AcDbLine
 10
1265.228545182773
 20
153.557854442866
 30
0.0
 11
1276.999533377725
 21
153.557854442866
 31
0.0
  0
LINE
  5
1431
330
2
100
AcDbEntity
  8
0
100
AcDbLine
 10
1265.228545182773
 20
155.057854442866
 30
0.0
 11
1276.999533377725
 21
155.057854442866
 31
0.0
  0
CIRCLE
  5
1432
330
2
100
AcDbEntity
  8
0
100
AcDbCircle
 10
1284.964299538763
 20
154.307854442866
 30
0.0
 40
8.0
  0
LINE
  5
1433
330
2
100
AcDbEntity
  8
0
100
AcDbLine
 10
1302.164299538762
 20
153.557854442866
 30
0.0
 11
1302.164299538762
 21
155.057854442866
 31
0.0
  0
LINE
  5
1434
330
2
100
AcDbEntity
  8
0
100
AcDbLine
 10
1292.929065699801
 20
153.557854442866
 30
0.0
 11
1302.164299538762
 21
153.557854442866
 31
0.0
  0
LINE
  5
1435
330
2
100
AcDbEntity
  8
0
100
AcDbLine
 10
1292.929065699801
 20
155.057854442866
 30
0.0
 11
1302.164299538762
 21
155.057854442866
 31
0.0
  0
LINE
  5
1436
330
2
100
AcDbEntity
  8
HIDS
  6
SEKKEI_H
100
AcDbLine
 10
1272.464299538763
 20
153.557854442866
 30
0.0
 11
1272.464299538763
 21
139.0169257594922
 31
0.0
  0
LINE
  5
1437
330
2
100
AcDbEntity
  8
HIDS
  6
SEKKEI_H
100
AcDbLine
 10
1272.047632872097
 20
153.557854442866
 30
0.0
 11
1272.047632872097
 21
139.3672312221894
 31
0.0
  0
LINE
  5
1438
330
2
100
AcDbEntity
  8
HIDS
  6
SEKKEI_H
100
AcDbLine
 10
1267.880966205429
 20
153.557854442866
 30
0.0
 11
1267.880966205429
 21
144.3971419446531
 31
0.0
  0
LINE
  5
1439
330
2
100
AcDbEntity
  8
HIDS
  6
SEKKEI_H
100
AcDbLine
 10
1267.464299538763
 20
153.557854442866
 30
0.0
 11
1267.464299538763
 21
145.152937731065
 31
0.0
  0
LINE
  5
143A
330
2
100
AcDbEntity
  8
HIDS
  6
SEKKEI_H
100
AcDbLine
 10
1272.964299538763
 20
159.307854442866
 30
0.0
 11
1272.964299538763
 21
155.057854442866
 31
0.0
  0
LINE
  5
143B
330
2
100
AcDbEntity
  8
HIDS
  6
SEKKEI_H
100
AcDbLine
 10
1266.964299538763
 20
159.307854442866
 30
0.0
 11
1266.964299538763
 21
155.057854442866
 31
0.0
  0
LINE
  5
143C
330
2
100
AcDbEntity
  8
HIDS
  6
SEKKEI_H
100
AcDbLine
 10
1265.857690734478
 20
159.307854442866
 30
0.0
 11
1274.964299538763
 21
159.307854442866
 31
0.0
  0
LINE
  5
143D
330
2
100
AcDbEntity
  8
HIDS
  6
SEKKEI_H
100
AcDbLine
 10
1274.214299538763
 20
159.307854442866
 30
0.0
 11
1274.214299538763
 21
164.0078544428658
 31
0.0
  0
LINE
  5
143E
330
2
100
AcDbEntity
  8
0
100
AcDbLine
 10
1265.714299538763
 20
164.0078544428658
 30
0.0
 11
1265.714299538763
 21
159.307854442866
 31
0.0
  0
LINE
  5
143F
330
2
100
AcDbEntity
  8
HIDS
  6
SEKKEI_H
100
AcDbLine
 10
1272.464299538763
 20
145.307854442866
 30
0.0
 11
1271.464299538763
 21
144.307854442866
 31
0.0
  0
LINE
  5
1440
330
2
100
AcDbEntity
  8
HIDS
  6
SEKKEI_H
100
AcDbLine
 10
1267.464299538763
 20
145.307854442866
 30
0.0
 11
1268.464299538763
 21
144.307854442866
 31
0.0
  0
LINE
  5
1441
330
2
100
AcDbEntity
  8
HIDS
  6
SEKKEI_H
100
AcDbLine
 10
1271.464299538763
 20
144.307854442866
 30
0.0
 11
1269.964299538763
 21
144.307854442866
 31
0.0
  0
LINE
  5
1442
330
2
100
AcDbEntity
  8
HIDS
  6
SEKKEI_H
100
AcDbLine
 10
1268.464299538763
 20
144.307854442866
 30
0.0
 11
1269.964299538763
 21
144.307854442866
 31
0.0
  0
LINE
  5
1443
330
2
100
AcDbEntity
  8
HIDS
  6
SEKKEI_H
100
AcDbLine
 10
1272.464299538763
 20
159.307854442866
 30
0.0
 11
1272.464299538763
 21
155.057854442866
 31
0.0
  0
LINE
  5
1444
330
2
100
AcDbEntity
  8
HIDS
  6
SEKKEI_H
100
AcDbLine
 10
1272.047632872097
 20
157.224521109532
 30
0.0
 11
1272.047632872097
 21
155.057854442866
 31
0.0
  0
LINE
  5
1445
330
2
100
AcDbEntity
  8
HIDS
  6
SEKKEI_H
100
AcDbLine
 10
1267.880966205429
 20
157.224521109532
 30
0.0
 11
1267.880966205429
 21
155.057854442866
 31
0.0
  0
LINE
  5
1446
330
2
100
AcDbEntity
  8
HIDS
  6
SEKKEI_H
100
AcDbLine
 10
1267.464299538763
 20
159.307854442866
 30
0.0
 11
1267.464299538763
 21
155.057854442866
 31
0.0
  0
LINE
  5
1447
330
2
100
AcDbEntity
  8
HIDS
  6
SEKKEI_H
100
AcDbLine
 10
1272.464299538763
 20
145.307854442866
 30
0.0
 11
1269.964299538763
 21
145.307854442866
 31
0.0
  0
LINE
  5
1448
330
2
100
AcDbEntity
  8
HIDS
  6
SEKKEI_H
100
AcDbLine
 10
1267.464299538763
 20
145.307854442866
 30
0.0
 11
1269.964299538763
 21
145.307854442866
 31
0.0
  0
LINE
  5
1449
330
2
100
AcDbEntity
  8
HIDS
  6
SEKKEI_H
100
AcDbLine
 10
1272.464299538763
 20
157.224521109532
 30
0.0
 11
1267.464299538763
 21
157.224521109532
 31
0.0
  0
LINE
  5
144A
330
2
100
AcDbEntity
  8
0
100
AcDbLine
 10
1265.714299538763
 20
159.307854442866
 30
0.0
 11
1265.857690734478
 21
159.307854442866
 31
0.0
  0
LINE
  5
144B
330
2
100
AcDbEntity
  8
HIDS
  6
SEKKEI_H
100
AcDbLine
 10
1267.464299538763
 20
159.307854442866
 30
0.0
 11
1267.880966205429
 21
157.224521109532
 31
0.0
  0
LINE
  5
144C
330
2
100
AcDbEntity
  8
HIDS
  6
SEKKEI_H
100
AcDbLine
 10
1272.464299538763
 20
159.307854442866
 30
0.0
 11
1272.047632872097
 21
157.224521109532
 31
0.0
  0
LINE
  5
144D
330
2
100
AcDbEntity
  8
0
100
AcDbLine
 10
1265.714299538763
 20
164.0078544428658
 30
0.0
 11
1267.760448225758
 21
164.0078544428649
 31
0.0
  0
LINE
  5
144E
330
2
100
AcDbEntity
  8
HIDS
  6
SEKKEI_H
100
AcDbLine
 10
1273.694684296492
 20
164.307854442866
 30
0.0
 11
1267.933078208511
 21
164.307854442866
 31
0.0
  0
LINE
  5
144F
330
2
100
AcDbEntity
  8
0
100
AcDbLine
 10
1265.714299538763
 20
164.0078544428658
 30
0.0
 11
1266.233914781033
 21
164.307854442866
 31
0.0
  0
LINE
  5
1450
330
2
100
AcDbEntity
  8
HIDS
  6
SEKKEI_H
100
AcDbLine
 10
1273.694684296492
 20
164.307854442866
 30
0.0
 11
1274.214299538763
 21
164.0078544428658
 31
0.0
  0
LINE
  5
1451
330
2
100
AcDbEntity
  8
HIDS
  6
SEKKEI_H
100
AcDbLine
 10
1265.857690734478
 20
159.307854442866
 30
0.0
 11
1274.214299538763
 21
159.307854442866
 31
0.0
  0
LINE
  5
1452
330
2
100
AcDbEntity
  8
0
100
AcDbLine
 10
1267.933078208511
 20
164.307854442866
 30
0.0
 11
1266.233914781033
 21
164.307854442866
 31
0.0
  0
LINE
  5
1453
330
2
100
AcDbEntity
  8
HIDS
  6
SEKKEI_H
100
AcDbLine
 10
1267.760448225758
 20
164.0078544428658
 30
0.0
 11
1274.214299538763
 21
164.0078544428658
 31
0.0
  0
LINE
  5
1454
330
2
100
AcDbEntity
  8
0
100
AcDbLine
 10
1272.464299538763
 20
155.057854442866
 30
0.0
 11
1272.464299538763
 21
153.557854442866
 31
0.0
  0
LINE
  5
1455
330
2
100
AcDbEntity
  8
HOJO
100
AcDbLine
 10
1272.047632872097
 20
155.057854442866
 30
0.0
 11
1272.047632872097
 21
153.557854442866
 31
0.0
  0
LINE
  5
1456
330
2
100
AcDbEntity
  8
HOJO
100
AcDbLine
 10
1267.880966205429
 20
155.057854442866
 30
0.0
 11
1267.880966205429
 21
153.557854442866
 31
0.0
  0
LINE
  5
1457
330
2
100
AcDbEntity
  8
0
100
AcDbLine
 10
1267.464299538763
 20
155.057854442866
 30
0.0
 11
1267.464299538763
 21
153.557854442866
 31
0.0
  0
LINE
  5
1458
330
2
100
AcDbEntity
  8
HIDS
  6
SEKKEI_H
100
AcDbLine
 10
1267.464299538763
 20
153.557854442866
 30
0.0
 11
1267.464299538763
 21
145.307854442866
 31
0.0
  0
LINE
  5
1459
330
2
100
AcDbEntity
  8
HIDS
  6
SEKKEI_H
100
AcDbLine
 10
1267.880966205429
 20
153.557854442866
 30
0.0
 11
1267.880966205429
 21
144.891187776199
 31
0.0
  0
CIRCLE
  5
145A
330
2
100
AcDbEntity
  8
0
100
AcDbCircle
 10
1284.964299538763
 20
154.307854442866
 30
0.0
 40
19.75
  0
ARC
  5
145B
330
2
100
AcDbEntity
  8
0
100
AcDbCircle
 10
1284.964299538763
 20
154.307854442866
 30
0.0
 40
9.154700538379415
100
AcDbArc
 50
4.699230675930761
 51
175.3007693240692
  0
ARC
  5
145C
330
2
100
AcDbEntity
  8
0
100
AcDbCircle
 10
1284.964299538763
 20
154.307854442866
 30
0.0
 40
9.154700538379415
100
AcDbArc
 50
184.6992306759307
 51
355.3007693240692
  0
LINE
  5
145D
330
2
100
AcDbEntity
  8
0
100
AcDbLine
 10
1264.964299538763
 20
198.3078544428651
 30
0.0
 11
1274.964299538763
 21
198.3078544428651
 31
0.0
  0
ARC
  5
145E
330
2
100
AcDbEntity
  8
0
100
AcDbCircle
 10
1274.964299538763
 20
194.3078544428651
 30
0.0
 40
4.0
100
AcDbArc
 50
0.0
 51
90.0
  0
ARC
  5
145F
330
2
100
AcDbEntity
  8
0
100
AcDbCircle
 10
1264.964299538763
 20
194.3078544428651
 30
0.0
 40
4.0
100
AcDbArc
 50
90.0
 51
180.0
  0
LINE
  5
1460
330
2
100
AcDbEntity
  8
0
100
AcDbLine
 10
1005.423461612712
 20
198.3078544428633
 30
0.0
 11
995.4234616127124
 21
198.3078544428633
 31
0.0
  0
ARC
  5
1461
330
2
100
AcDbEntity
  8
0
100
AcDbCircle
 10
995.4234616127124
 20
194.3078544428633
 30
0.0
 40
4.0
100
AcDbArc
 50
90.0
 51
180.0
  0
ARC
  5
1462
330
2
100
AcDbEntity
  8
0
100
AcDbCircle
 10
1005.423461612712
 20
194.3078544428633
 30
0.0
 40
4.0
100
AcDbArc
 50
0.0
 51
90.0
  0
LINE
  5
1463
330
2
100
AcDbEntity
  8
CENTER
  6
CENS
100
AcDbLine
 10
1000.423461612712
 20
203.4315388655666
 30
0.0
 11
1000.423461612712
 21
180.0716128632018
 31
0.0
  0
CIRCLE
  5
1464
330
2
100
AcDbEntity
  8
0
100
AcDbCircle
 10
1000.423461612753
 20
516.697510220778
 30
0.0
 40
9.0
  0
LINE
  5
1465
330
2
100
AcDbEntity
  8
CENTER
  6
CENS
100
AcDbLine
 10
1000.423461612753
 20
502.7629430330882
 30
0.0
 11
1000.423461612753
 21
530.6320774084662
 31
0.0
  0
LINE
  5
1466
330
2
100
AcDbEntity
  8
CENTER
  6
CENS
100
AcDbLine
 10
1014.358028800442
 20
516.6975102207771
 30
0.0
 11
986.4888944250647
 21
516.6975102207771
 31
0.0
  0
CIRCLE
  5
1467
330
2
100
AcDbEntity
  8
CENTER
100
AcDbCircle
 10
1284.964299538763
 20
154.307854442866
 30
0.0
 40
45.0002755547118
  0
LINE
  5
1468
330
2
100
AcDbEntity
  8
0
100
AcDbLine
 10
1244.964299538655
 20
154.307854442866
 30
0.0
 11
1243.464299538772
 21
154.307854442866
 31
0.0
  0
LINE
  5
1469
330
2
100
AcDbEntity
  8
0
100
AcDbLine
 10
1324.964299538763
 20
154.3078544426795
 30
0.0
 11
1326.464299538754
 21
154.3078544428665
 31
0.0
  0
LINE
  5
146A
330
2
100
AcDbEntity
  8
0
100
AcDbLine
 10
97.419784608932
 20
154.3078544428642
 30
0.0
 11
98.10114140683266
 21
193.3427592557342
 31
0.0
  0
LINE
  5
146B
330
2
100
AcDbEntity
  8
0
100
AcDbLine
 10
60.80733417193198
 20
189.3951164750503
 30
0.0
 11
61.41978460886924
 21
154.3078544428642
 31
0.0
  0
ARC
  5
146C
330
2
100
AcDbEntity
  8
0
100
AcDbCircle
 10
100.1008367971445
 20
115.3078544428632
 30
0.0
 40
2.0
100
AcDbArc
 50
181.0000000000025
 51
270.0
  0
LINE
  5
146D
330
2
100
AcDbEntity
  8
0
100
AcDbLine
 10
106.4197846088574
 20
154.3078544428642
 30
0.0
 11
51.41978460885741
 21
154.3078544428642
 31
0.0
  0
LINE
  5
146E
330
2
100
AcDbEntity
  8
0
100
AcDbLine
 10
97.41978460885741
 20
154.3078544428642
 30
0.0
 11
98.10114140683083
 21
115.2729496299886
 31
0.0
  0
LINE
  5
146F
330
2
100
AcDbEntity
  8
0
100
AcDbLine
 10
60.80733417193198
 20
119.2205924106771
 30
0.0
 11
61.41978460885559
 21
154.3078544428642
 31
0.0
  0
LINE
  5
1470
330
2
100
AcDbEntity
  8
0
100
AcDbLine
 10
51.41978460885741
 20
114.3078544428641
 30
0.0
 11
96.93855913697564
 21
114.3078544428632
 31
0.0
  0
ARC
  5
1471
330
2
100
AcDbEntity
  8
0
100
AcDbCircle
 10
78.52322694218504
 20
120.2078811469043
 30
0.0
 40
3.0
100
AcDbArc
 50
90.0
 51
178.9999999999974
  0
LINE
  5
1472
330
2
100
AcDbEntity
  8
0
100
AcDbLine
 10
78.52322694218504
 20
123.2078811469043
 30
0.0
 11
65.87693255570968
 21
123.2078811469052
 31
0.0
  0
ARC
  5
1473
330
2
100
AcDbEntity
  8
0
100
AcDbCircle
 10
55.80809569614951
 20
119.3078544428632
 30
0.0
 40
5.0
100
AcDbArc
 50
270.0
 51
358.9999999999974
  0
ARC
  5
1474
330
2
100
AcDbEntity
  8
0
100
AcDbCircle
 10
73.45439008262485
 20
116.3078544428632
 30
0.0
 40
2.0
100
AcDbArc
 50
270.0
 51
358.9999999999974
  0
LINE
  5
1475
330
2
100
AcDbEntity
  8
0
100
AcDbLine
 10
75.52278957011378
 20
120.2090047210764
 30
0.0
 11
75.45408547293857
 21
116.2729496299886
 31
0.0
  0
LINE
  5
1476
330
2
100
AcDbEntity
  8
0
100
AcDbLine
 10
106.4197846088574
 20
113.3078544428632
 30
0.0
 11
100.1008367971445
 21
113.3078544428632
 31
0.0
  0
ARC
  5
1477
330
2
100
AcDbEntity
  8
0
100
AcDbCircle
 10
100.1008367971445
 20
193.3078544428641
 30
0.0
 40
2.0
100
AcDbArc
 50
90.0
 51
179.0000000001032
  0
LINE
  5
1478
330
2
100
AcDbEntity
  8
0
100
AcDbLine
 10
51.41978460885741
 20
194.3078544428632
 30
0.0
 11
96.93855913697564
 21
194.3078544428642
 31
0.0
  0
ARC
  5
1479
330
2
100
AcDbEntity
  8
0
100
AcDbCircle
 10
55.80809569614951
 20
189.3078544428632
 30
0.0
 40
5.0
100
AcDbArc
 50
1.000000000002589
 51
90.0
  0
LINE
  5
147A
330
2
100
AcDbEntity
  8
0
100
AcDbLine
 10
106.4197846088555
 20
195.3078544428642
 30
0.0
 11
100.1008367971445
 21
195.3078544428642
 31
0.0
  0
LINE
  5
147B
330
2
100
AcDbEntity
  8
0
100
AcDbLine
 10
51.41978460885741
 20
194.3078544428632
 30
0.0
 11
51.41978460885741
 21
114.3078544428641
 31
0.0
  0
ARC
  5
147C
330
2
100
AcDbEntity
  8
0
100
AcDbCircle
 10
96.93855913697564
 20
197.8078544428641
 30
0.0
 40
3.5
100
AcDbArc
 50
270.0
 51
305.0968012276141
  0
ARC
  5
147D
330
2
100
AcDbEntity
  8
0
100
AcDbCircle
 10
96.93855913697564
 20
110.8078544428632
 30
0.0
 40
3.5
100
AcDbArc
 50
54.90319877238537
 51
90.0
  0
LINE
  5
147E
330
2
100
AcDbEntity
  8
CENTER
  6
CENS
100
AcDbLine
 10
113.024602608628
 20
188.9578544428638
 30
0.0
 11
86.02460260862802
 21
188.9578544428638
 31
0.0
  0
LINE
  5
147F
330
2
100
AcDbEntity
  8
0
100
AcDbLine
 10
91.33732728399639
 20
183.9578544428638
 30
0.0
 11
91.33732728399639
 21
193.9578544428638
 31
0.0
  0
LINE
  5
1480
330
2
100
AcDbEntity
  8
0
100
AcDbLine
 10
90.93732728399675
 20
193.2650341198365
 30
0.0
 11
90.93732728399675
 21
184.650674765891
 31
0.0
  0
LINE
  5
1481
330
2
100
AcDbEntity
  8
0
100
AcDbLine
 10
96.93732728399675
 20
183.9578544428638
 30
0.0
 11
96.93732728399675
 21
193.9578544428638
 31
0.0
  0
LINE
  5
1482
330
2
100
AcDbEntity
  8
0
100
AcDbLine
 10
96.93732728399675
 20
193.9578544428638
 30
0.0
 11
97.93732728399675
 21
193.9578544428638
 31
0.0
  0
LINE
  5
1483
330
2
100
AcDbEntity
  8
0
100
AcDbLine
 10
97.93732728399675
 20
193.9578544428638
 30
0.0
 11
97.93732728399675
 21
183.9578544428638
 31
0.0
  0
LINE
  5
1484
330
2
100
AcDbEntity
  8
0
100
AcDbLine
 10
97.93732728399675
 20
183.9578544428638
 30
0.0
 11
96.93732728399675
 21
183.9578544428638
 31
0.0
  0
LINE
  5
1485
330
2
100
AcDbEntity
  8
0
100
AcDbLine
 10
96.93732728399675
 20
183.9578544428638
 30
0.0
 11
96.93732728399675
 21
193.9578544428638
 31
0.0
  0
LINE
  5
1486
330
2
100
AcDbEntity
  8
0
100
AcDbLine
 10
91.33732728399639
 20
183.9578544428638
 30
0.0
 11
96.93732728399675
 21
183.9578544428638
 31
0.0
  0
LINE
  5
1487
330
2
100
AcDbEntity
  8
0
100
AcDbLine
 10
96.93732728399675
 20
193.9578544428638
 30
0.0
 11
91.33732728399639
 21
193.9578544428638
 31
0.0
  0
LINE
  5
1488
330
2
100
AcDbEntity
  8
0
100
AcDbLine
 10
91.33732728399639
 20
193.9578544428638
 30
0.0
 11
90.93732728399675
 21
193.2650341198365
 31
0.0
  0
LINE
  5
1489
330
2
100
AcDbEntity
  8
0
100
AcDbLine
 10
91.33732728399639
 20
183.9578544428638
 30
0.0
 11
90.93732728399675
 21
184.650674765891
 31
0.0
  0
LINE
  5
148A
330
2
100
AcDbEntity
  8
CENTER
  6
CENS
100
AcDbLine
 10
113.024602608628
 20
119.6578544428636
 30
0.0
 11
86.02460260862802
 21
119.6578544428636
 31
0.0
  0
LINE
  5
148B
330
2
100
AcDbEntity
  8
0
100
AcDbLine
 10
91.33732728399639
 20
124.6578544428636
 30
0.0
 11
91.33732728399639
 21
114.6578544428636
 31
0.0
  0
LINE
  5
148C
330
2
100
AcDbEntity
  8
0
100
AcDbLine
 10
90.93732728399675
 20
115.3506747658909
 30
0.0
 11
90.93732728399675
 21
123.9650341198354
 31
0.0
  0
LINE
  5
148D
330
2
100
AcDbEntity
  8
0
100
AcDbLine
 10
96.93732728399675
 20
124.6578544428636
 30
0.0
 11
96.93732728399675
 21
114.6578544428636
 31
0.0
  0
LINE
  5
148E
330
2
100
AcDbEntity
  8
0
100
AcDbLine
 10
96.93732728399675
 20
114.6578544428636
 30
0.0
 11
97.93732728399675
 21
114.6578544428636
 31
0.0
  0
LINE
  5
148F
330
2
100
AcDbEntity
  8
0
100
AcDbLine
 10
97.93732728399675
 20
114.6578544428636
 30
0.0
 11
97.93732728399675
 21
124.6578544428636
 31
0.0
  0
LINE
  5
1490
330
2
100
AcDbEntity
  8
0
100
AcDbLine
 10
97.93732728399675
 20
124.6578544428636
 30
0.0
 11
96.93732728399675
 21
124.6578544428636
 31
0.0
  0
LINE
  5
1491
330
2
100
AcDbEntity
  8
0
100
AcDbLine
 10
96.93732728399675
 20
124.6578544428636
 30
0.0
 11
96.93732728399675
 21
114.6578544428636
 31
0.0
  0
LINE
  5
1492
330
2
100
AcDbEntity
  8
0
100
AcDbLine
 10
91.33732728399639
 20
124.6578544428636
 30
0.0
 11
96.93732728399675
 21
124.6578544428636
 31
0.0
  0
LINE
  5
1493
330
2
100
AcDbEntity
  8
0
100
AcDbLine
 10
96.93732728399675
 20
114.6578544428636
 30
0.0
 11
91.33732728399639
 21
114.6578544428636
 31
0.0
  0
LINE
  5
1494
330
2
100
AcDbEntity
  8
0
100
AcDbLine
 10
91.33732728399639
 20
114.6578544428636
 30
0.0
 11
90.93732728399675
 21
115.3506747658909
 31
0.0
  0
LINE
  5
1495
330
2
100
AcDbEntity
  8
0
100
AcDbLine
 10
91.33732728399639
 20
124.6578544428636
 30
0.0
 11
90.93732728399675
 21
123.9650341198363
 31
0.0
  0
LINE
  5
1496
330
2
100
AcDbEntity
  8
0
100
AcDbLine
 10
60.41978460889379
 20
198.3078544428632
 30
0.0
 11
70.41978460889379
 21
198.3078544428632
 31
0.0
  0
ARC
  5
1497
330
2
100
AcDbEntity
  8
0
100
AcDbCircle
 10
70.41978460889379
 20
194.3078544428632
 30
0.0
 40
4.0
100
AcDbArc
 50
0.0
 51
90.0
  0
ARC
  5
1498
330
2
100
AcDbEntity
  8
0
100
AcDbCircle
 10
60.41978460889379
 20
194.3078544428632
 30
0.0
 40
4.0
100
AcDbArc
 50
90.0
 51
180.0
  0
LINE
  5
1499
330
2
100
AcDbEntity
  8
CENTER
  6
CENS
100
AcDbLine
 10
65.41978460889379
 20
203.4315388655665
 30
0.0
 11
65.41978460889379
 21
180.0716128632017
 31
0.0
  0
ARC
  5
149A
330
2
100
AcDbEntity
  8
0
100
AcDbCircle
 10
987.3200192794211
 20
188.4078277388232
 30
0.0
 40
3.0
100
AcDbArc
 50
270.0
 51
358.9999999999974
  0
LINE
  5
149B
330
2
100
AcDbEntity
  8
0
100
AcDbLine
 10
987.3200192794211
 20
185.4078277388232
 30
0.0
 11
999.9663136658965
 21
185.4078277388232
 31
0.0
  0
ARC
  5
149C
330
2
100
AcDbEntity
  8
0
100
AcDbCircle
 10
992.3888561389812
 20
192.3078544428642
 30
0.0
 40
2.0
100
AcDbArc
 50
90.0
 51
178.9999999999974
  0
LINE
  5
149D
330
2
100
AcDbEntity
  8
0
100
AcDbLine
 10
990.3204566514924
 20
188.4067041646519
 30
0.0
 11
990.3891607486675
 21
192.3427592557388
 31
0.0
  0
CIRCLE
  5
149E
330
2
100
AcDbEntity
  8
0
100
AcDbCircle
 10
1316.784299538762
 20
186.1278544428657
 30
0.0
 40
2.0
  0
CIRCLE
  5
149F
330
2
100
AcDbEntity
  8
HOJO
100
AcDbCircle
 10
1316.784299538762
 20
186.1278544428657
 30
0.0
 40
2.5
  0
CIRCLE
  5
14A0
330
2
100
AcDbEntity
  8
0
100
AcDbCircle
 10
1253.144299538763
 20
186.1278544428657
 30
0.0
 40
2.0
  0
CIRCLE
  5
14A1
330
2
100
AcDbEntity
  8
HOJO
100
AcDbCircle
 10
1253.144299538763
 20
186.1278544428657
 30
0.0
 40
2.5
  0
CIRCLE
  5
14A2
330
2
100
AcDbEntity
  8
0
100
AcDbCircle
 10
1316.784299538762
 20
122.4878544428663
 30
0.0
 40
2.0
  0
CIRCLE
  5
14A3
330
2
100
AcDbEntity
  8
HOJO
100
AcDbCircle
 10
1316.784299538762
 20
122.4878544428663
 30
0.0
 40
2.5
  0
CIRCLE
  5
14A4
330
2
100
AcDbEntity
  8
0
100
AcDbCircle
 10
1253.144299538763
 20
122.4878544428663
 30
0.0
 40
2.0
  0
CIRCLE
  5
14A5
330
2
100
AcDbEntity
  8
HOJO
100
AcDbCircle
 10
1253.144299538763
 20
122.4878544428663
 30
0.0
 40
2.5
  0
CIRCLE
  5
14A6
330
2
100
AcDbEntity
  8
0
100
AcDbCircle
 10
1284.964299538763
 20
154.307854442866
 30
0.0
 40
29.0
  0
LINE
  5
14A7
330
2
100
AcDbEntity
  8
0
100
AcDbLine
 10
1261.857178934617
 20
196.8269418870187
 30
0.0
 11
1243.946846467767
 21
196.6706407834925
 31
0.0
  0
LINE
  5
14A8
330
2
100
AcDbEntity
  8
0
100
AcDbLine
 10
1278.702382328469
 20
195.7314895988297
 30
0.0
 11
1284.964299538764
 21
195.8078544428579
 31
0.0
  0
LINE
  5
2241
330
2
100
AcDbEntity
  8
CENTER
100
AcDbLine
 10
475.7004726401488
 20
79.58275077827159
 30
0.0
 11
475.7004726401488
 21
229.0329581074549
 31
0.0
  0
LINE
  5
2242
330
2
100
AcDbEntity
  8
CENTER
100
AcDbLine
 10
251.8297846088563
 20
229.3078544428624
 30
0.0
 11
251.8297846088563
 21
79.30785444286243
 31
0.0
  0
ARC
  5
2244
330
2
100
AcDbEntity
  8
0
100
AcDbCircle
 10
220.8297846088399
 20
185.3078544428624
 30
0.0
 40
15.0
100
AcDbArc
 50
90.0
 51
180.0
  0
ARC
  5
2245
330
2
100
AcDbEntity
  8
0
100
AcDbCircle
 10
221.464467092229
 20
292.9078354107803
 30
0.0
 40
80.0
100
AcDbArc
 50
259.7661103968963
 51
275.2796032823969
  0
ARC
  5
2246
330
2
100
AcDbEntity
  8
0
100
AcDbCircle
 10
220.8297846088399
 20
185.3078544428624
 30
0.0
 40
17.0
100
AcDbArc
 50
90.0
 51
180.0
  0
ARC
  5
2247
330
2
100
AcDbEntity
  8
0
100
AcDbCircle
 10
220.829784608839
 20
123.3078544428624
 30
0.0
 40
15.0
100
AcDbArc
 50
180.0
 51
270.0
  0
ARC
  5
2248
330
2
100
AcDbEntity
  8
0
100
AcDbCircle
 10
221.464467092229
 20
15.70787347494456
 30
0.0
 40
80.0
100
AcDbArc
 50
84.72039671760308
 51
100.2338896031036
  0
ARC
  5
2249
330
2
100
AcDbEntity
  8
0
100
AcDbCircle
 10
220.829784608839
 20
123.3078544428624
 30
0.0
 40
17.0
100
AcDbArc
 50
180.0
 51
270.0
  0
CIRCLE
  5
224B
330
2
100
AcDbEntity
  8
0
100
AcDbCircle
 10
251.8297846088399
 20
154.3078544428624
 30
0.0
 40
39.99999999999994
  0
CIRCLE
  5
224C
330
2
100
AcDbEntity
  8
0
100
AcDbCircle
 10
251.8297846088399
 20
154.3078544428624
 30
0.0
 40
39.49999999999994
  0
CIRCLE
  5
224D
330
2
100
AcDbEntity
  8
0
100
AcDbCircle
 10
251.8297846088399
 20
154.3078544428624
 30
0.0
 40
37.49999999999994
  0
CIRCLE
  5
224E
330
2
100
AcDbEntity
  8
0
100
AcDbCircle
 10
251.8297846088399
 20
154.3078544428624
 30
0.0
 40
36.92264999999999
  0
LINE
  5
224F
330
2
100
AcDbEntity
  8
0
100
AcDbLine
 10
191.8297846088272
 20
204.3078544428624
 30
0.0
 11
191.8297846088381
 21
104.3078544428624
 31
0.0
  0
LINE
  5
2250
330
2
100
AcDbEntity
  8
0
100
AcDbLine
 10
148.3297846088381
 20
189.3078544428624
 30
0.0
 11
148.3297846088381
 21
119.3078544428624
 31
0.0
  0
LINE
  5
2251
330
2
100
AcDbEntity
  8
0
100
AcDbLine
 10
148.3297846088563
 20
189.3078544428642
 30
0.0
 11
148.3297846088563
 21
119.3078544428642
 31
0.0
  0
LINE
  5
2253
330
2
100
AcDbEntity
  8
0
100
AcDbLine
 10
118.4197846088574
 20
114.8078544428642
 30
0.0
 11
118.4197846088574
 21
193.8078544428642
 31
0.0
  0
LINE
  5
2254
330
2
100
AcDbEntity
  8
0
100
AcDbLine
 10
129.8674127657324
 20
126.3078544428624
 30
0.0
 11
129.8674127658097
 21
182.3078544428624
 31
0.0
  0
LINE
  5
2255
330
2
100
AcDbEntity
  8
0
100
AcDbLine
 10
203.8297846088399
 20
185.3078544428624
 30
0.0
 11
203.829784608839
 21
123.3078544428624
 31
0.0
  0
LINE
  5
2256
330
2
100
AcDbEntity
  8
0
100
AcDbLine
 10
205.8297846088399
 20
185.3078544428624
 30
0.0
 11
205.829784608839
 21
123.3078544428624
 31
0.0
  0
LINE
  5
2257
330
2
100
AcDbEntity
  8
CENTER
100
AcDbLine
 10
167.0797846088399
 20
119.307854442866
 30
0.0
 11
145.5797846088399
 21
119.307854442866
 31
0.0
  0
ARC
  5
2258
330
2
100
AcDbEntity
  8
0
100
AcDbCircle
 10
143.3297846088581
 20
125.807854442866
 30
0.0
 40
5.0
100
AcDbArc
 50
0.0
 51
90.0
  0
ARC
  5
2259
330
2
100
AcDbEntity
  8
0
100
AcDbCircle
 10
145.3297846088581
 20
122.807854442866
 30
0.0
 40
3.0
100
AcDbArc
 50
0.0
 51
90.0
  0
LINE
  5
225A
330
2
100
AcDbEntity
  8
0
100
AcDbLine
 10
116.4197846088574
 20
113.3078544428642
 30
0.0
 11
106.4197846088574
 21
113.3078544428642
 31
0.0
  0
LINE
  5
225B
330
2
100
AcDbEntity
  8
0
100
AcDbLine
 10
116.4197846088574
 20
112.8078544428642
 30
0.0
 11
106.4197846088574
 21
112.8078544428642
 31
0.0
  0
LINE
  5
225C
330
2
100
AcDbEntity
  8
0
100
AcDbLine
 10
143.3297846088581
 20
130.807854442866
 30
0.0
 11
134.8517724770682
 21
130.807854442866
 31
0.0
  0
ARC
  5
225D
330
2
100
AcDbEntity
  8
0
100
AcDbCircle
 10
123.419784608921
 20
118.307854442866
 30
0.0
 40
5.0
100
AcDbArc
 50
90.0
 51
180.0
  0
ARC
  5
225E
330
2
100
AcDbEntity
  8
0
100
AcDbCircle
 10
116.4197846088574
 20
115.3078544428642
 30
0.0
 40
2.0
100
AcDbArc
 50
270.0
 51
0.0
  0
ARC
  5
225F
330
2
100
AcDbEntity
  8
0
100
AcDbCircle
 10
116.4197846088574
 20
114.8078544428642
 30
0.0
 40
2.0
100
AcDbArc
 50
270.0
 51
0.0
  0
ARC
  5
2260
330
2
100
AcDbEntity
  8
0
100
AcDbCircle
 10
131.7408099381365
 20
122.807854442866
 30
0.0
 40
3.0
100
AcDbArc
 50
90.0
 51
144.3146652872821
  0
ARC
  5
2261
330
2
100
AcDbEntity
  8
0
100
AcDbCircle
 10
126.8674127657324
 20
126.307854442866
 30
0.0
 40
3.0
100
AcDbArc
 50
270.0
 51
356.4166783015281
  0
LINE
  5
2262
330
2
100
AcDbEntity
  8
0
100
AcDbLine
 10
126.8674127657324
 20
123.307854442866
 30
0.0
 11
123.419784608921
 21
123.307854442866
 31
0.0
  0
LINE
  5
2263
330
2
100
AcDbEntity
  8
0
100
AcDbLine
 10
145.3297846088581
 20
125.807854442866
 30
0.0
 11
131.7408099381365
 21
125.807854442866
 31
0.0
  0
ARC
  5
2264
330
2
100
AcDbEntity
  8
0
100
AcDbCircle
 10
134.8517724770682
 20
125.807854442866
 30
0.0
 40
5.0
100
AcDbArc
 50
90.0
 51
176.4166783015281
  0
LINE
  5
2265
330
2
100
AcDbEntity
  8
0
100
AcDbLine
 10
156.3297846088381
 20
111.3078544428624
 30
0.0
 11
183.857583853227
 21
111.3078544428624
 31
0.0
  0
LINE
  5
2266
330
2
100
AcDbEntity
  8
CENTER
100
AcDbLine
 10
170.82978460884
 20
108.807854442866
 30
0.0
 11
170.82978460884
 21
124.807854442866
 31
0.0
  0
CIRCLE
  5
2267
330
2
100
AcDbEntity
  8
HOJO
100
AcDbCircle
 10
170.82978460884
 20
116.8078544428624
 30
0.0
 40
2.5
  0
CIRCLE
  5
2268
330
2
100
AcDbEntity
  8
0
100
AcDbCircle
 10
170.82978460884
 20
116.8078544428624
 30
0.0
 40
3.5
  0
CIRCLE
  5
2269
330
2
100
AcDbEntity
  8
0
100
AcDbCircle
 10
170.82978460884
 20
116.8078544428624
 30
0.0
 40
2.0
  0
ARC
  5
226A
330
2
100
AcDbEntity
  8
0
100
AcDbCircle
 10
156.3297846088454
 20
119.3078544428624
 30
0.0
 40
8.5
100
AcDbArc
 50
0.0
 51
90.0
  0
LINE
  5
226B
330
2
100
AcDbEntity
  8
0
100
AcDbLine
 10
153.3297846088399
 20
121.0399052504342
 30
0.0
 11
156.3297846088399
 21
122.7719560580042
 31
0.0
  0
LINE
  5
226C
330
2
100
AcDbEntity
  8
0
100
AcDbLine
 10
156.3297846088399
 20
122.7719560580042
 30
0.0
 11
159.3297846088399
 21
121.0399052504342
 31
0.0
  0
LINE
  5
226D
330
2
100
AcDbEntity
  8
CENTER
100
AcDbLine
 10
156.3297846088381
 20
108.557854442866
 30
0.0
 11
156.3297846088399
 21
130.057854442866
 31
0.0
  0
CIRCLE
  5
226E
330
2
100
AcDbEntity
  8
0
100
AcDbCircle
 10
156.3297846088399
 20
119.307854442866
 30
0.0
 40
5.63397459621558
  0
CIRCLE
  5
226F
330
2
100
AcDbEntity
  8
0
100
AcDbCircle
 10
156.3297846088399
 20
119.307854442866
 30
0.0
 40
6.5
  0
ARC
  5
2270
330
2
100
AcDbEntity
  8
0
100
AcDbCircle
 10
166.829784608849
 20
113.3078544428624
 30
0.0
 40
2.0
100
AcDbArc
 50
180.0
 51
270.0
  0
LINE
  5
2271
330
2
100
AcDbEntity
  8
0
100
AcDbLine
 10
164.8297846088454
 20
119.3078544428678
 30
0.0
 11
164.829784608849
 21
113.3078544428624
 31
0.0
  0
LINE
  5
2272
330
2
100
AcDbEntity
  8
0
100
AcDbLine
 10
156.3297846088399
 20
115.8437528277279
 30
0.0
 11
159.3297846088399
 21
117.5758036352979
 31
0.0
  0
LINE
  5
2273
330
2
100
AcDbEntity
  8
0
100
AcDbLine
 10
153.3297846088399
 20
121.0399052504342
 30
0.0
 11
153.3297846088399
 21
117.575803635296
 31
0.0
  0
LINE
  5
2274
330
2
100
AcDbEntity
  8
0
100
AcDbLine
 10
153.3297846088399
 20
117.575803635296
 30
0.0
 11
156.3297846088399
 21
115.8437528277279
 31
0.0
  0
ARC
  5
2275
330
2
100
AcDbEntity
  8
0
100
AcDbCircle
 10
156.3297846088381
 20
119.3078544428624
 30
0.0
 40
8.0
100
AcDbArc
 50
180.0
 51
270.0
  0
LINE
  5
2276
330
2
100
AcDbEntity
  8
0
100
AcDbLine
 10
159.3297846088399
 20
117.5758036352979
 30
0.0
 11
159.3297846088399
 21
121.0399052504342
 31
0.0
  0
LINE
  5
2277
330
2
100
AcDbEntity
  8
0
100
AcDbLine
 10
156.3297846088399
 20
127.8078544428624
 30
0.0
 11
150.3297846088399
 21
127.8078544428606
 31
0.0
  0
ARC
  5
2278
330
2
100
AcDbEntity
  8
0
100
AcDbCircle
 10
150.3297846088381
 20
129.8078544428606
 30
0.0
 40
2.0
100
AcDbArc
 50
180.0
 51
270.0
  0
LINE
  5
2279
330
2
100
AcDbEntity
  8
CENTER
100
AcDbLine
 10
178.8297846088399
 20
116.807854442866
 30
0.0
 11
162.8297846088399
 21
116.807854442866
 31
0.0
  0
CIRCLE
  5
227A
330
2
100
AcDbEntity
  8
0
100
AcDbCircle
 10
170.82978460884
 20
116.8078544428624
 30
0.0
 40
4.0
  0
ARC
  5
227B
330
2
100
AcDbEntity
  8
0
100
AcDbCircle
 10
205.8297846088418
 20
102.3078544428624
 30
0.0
 40
8.0
100
AcDbArc
 50
270.0
 51
280.2338896031037
  0
LINE
  5
227C
330
2
100
AcDbEntity
  8
0
100
AcDbLine
 10
210.2231828910408
 20
112.7012527250642
 30
0.0
 11
208.8089693286684
 21
111.2870391626909
 31
0.0
  0
ARC
  5
227D
330
2
100
AcDbEntity
  8
0
100
AcDbCircle
 10
183.857583853227
 20
103.3078544428624
 30
0.0
 40
8.0
100
AcDbArc
 50
3.184738536778422
 51
90.0
  0
ARC
  5
227E
330
2
100
AcDbEntity
  8
0
100
AcDbCircle
 10
201.8297846088381
 20
104.3078544428642
 30
0.0
 40
10.0
100
AcDbArc
 50
180.0
 51
270.0
  0
LINE
  5
227F
330
2
100
AcDbEntity
  8
0
100
AcDbLine
 10
201.8297846088381
 20
94.30785444286243
 30
0.0
 11
205.8297846088418
 21
94.30785444286243
 31
0.0
  0
ARC
  5
2280
330
2
100
AcDbEntity
  8
0
100
AcDbCircle
 10
145.3297846088545
 20
185.807854442866
 30
0.0
 40
3.0
100
AcDbArc
 50
270.0
 51
0.0
  0
LINE
  5
2281
330
2
100
AcDbEntity
  8
CENTER
100
AcDbLine
 10
167.0797846088399
 20
189.3078544428642
 30
0.0
 11
145.5797846088399
 21
189.3078544428624
 31
0.0
  0
ARC
  5
2282
330
2
100
AcDbEntity
  8
0
100
AcDbCircle
 10
145.3297846088563
 20
148.807854442866
 30
0.0
 40
3.0
100
AcDbArc
 50
0.0
 51
90.0
  0
ARC
  5
2283
330
2
100
AcDbEntity
  8
0
100
AcDbCircle
 10
145.3297846088563
 20
159.807854442866
 30
0.0
 40
3.0
100
AcDbArc
 50
270.0
 51
0.0
  0
ARC
  5
2284
330
2
100
AcDbEntity
  8
0
100
AcDbCircle
 10
143.3297846088545
 20
182.807854442866
 30
0.0
 40
5.0
100
AcDbArc
 50
270.0
 51
0.0
  0
ARC
  5
2285
330
2
100
AcDbEntity
  8
0
100
AcDbCircle
 10
134.8517724771455
 20
182.807854442866
 30
0.0
 40
5.0
100
AcDbArc
 50
183.5833216984718
 51
270.0
  0
LINE
  5
2286
330
2
100
AcDbEntity
  8
0
100
AcDbLine
 10
145.3297846088563
 20
156.807854442866
 30
0.0
 11
132.8674127657778
 21
156.807854442866
 31
0.0
  0
LINE
  5
2287
330
2
100
AcDbEntity
  8
0
100
AcDbLine
 10
145.3297846088563
 20
151.807854442866
 30
0.0
 11
132.8674127657624
 21
151.807854442866
 31
0.0
  0
LINE
  5
2288
330
2
100
AcDbEntity
  8
0
100
AcDbLine
 10
143.3297846088545
 20
177.807854442866
 30
0.0
 11
134.8517724771455
 21
177.807854442866
 31
0.0
  0
ARC
  5
2289
330
2
100
AcDbEntity
  8
0
100
AcDbCircle
 10
132.8674127657624
 20
148.807854442866
 30
0.0
 40
3.0
100
AcDbArc
 50
90.0
 51
179.9999999998957
  0
ARC
  5
228A
330
2
100
AcDbEntity
  8
0
100
AcDbCircle
 10
132.8674127657778
 20
159.807854442866
 30
0.0
 40
3.0
100
AcDbArc
 50
179.9999999998957
 51
270.0
  0
LINE
  5
228B
330
2
100
AcDbEntity
  8
0
100
AcDbLine
 10
106.4197846088574
 20
195.3078544428642
 30
0.0
 11
116.4197846088574
 21
195.3078544428642
 31
0.0
  0
LINE
  5
228C
330
2
100
AcDbEntity
  8
0
100
AcDbLine
 10
106.4197846088574
 20
195.8078544428642
 30
0.0
 11
116.4197846088574
 21
195.8078544428642
 31
0.0
  0
ARC
  5
228D
330
2
100
AcDbEntity
  8
0
100
AcDbCircle
 10
131.7408099382147
 20
185.807854442866
 30
0.0
 40
3.0
100
AcDbArc
 50
215.6853347127178
 51
270.0
  0
ARC
  5
228E
330
2
100
AcDbEntity
  8
0
100
AcDbCircle
 10
126.8674127658097
 20
182.307854442866
 30
0.0
 40
3.0
100
AcDbArc
 50
359.9999999998958
 51
90.0
  0
ARC
  5
228F
330
2
100
AcDbEntity
  8
0
100
AcDbCircle
 10
123.419784608921
 20
190.307854442866
 30
0.0
 40
5.0
100
AcDbArc
 50
180.0
 51
270.0
  0
ARC
  5
2290
330
2
100
AcDbEntity
  8
0
100
AcDbCircle
 10
116.4197846088574
 20
193.3078544428642
 30
0.0
 40
2.0
100
AcDbArc
 50
0.0
 51
90.0
  0
ARC
  5
2291
330
2
100
AcDbEntity
  8
0
100
AcDbCircle
 10
116.4197846088574
 20
193.8078544428642
 30
0.0
 40
2.0
100
AcDbArc
 50
0.0
 51
90.0
  0
LINE
  5
2292
330
2
100
AcDbEntity
  8
0
100
AcDbLine
 10
126.8674127658097
 20
185.307854442866
 30
0.0
 11
123.419784608921
 21
185.307854442866
 31
0.0
  0
LINE
  5
2293
330
2
100
AcDbEntity
  8
0
100
AcDbLine
 10
145.3297846088545
 20
182.807854442866
 30
0.0
 11
131.7408099382147
 21
182.807854442866
 31
0.0
  0
LINE
  5
2294
330
2
100
AcDbEntity
  8
0
100
AcDbLine
 10
156.3297846088381
 20
197.3078544428624
 30
0.0
 11
183.8575838532152
 21
197.3078544428624
 31
0.0
  0
LINE
  5
2295
330
2
100
AcDbEntity
  8
CENTER
100
AcDbLine
 10
170.82978460884
 20
199.8078544428642
 30
0.0
 11
170.82978460884
 21
183.8078544428642
 31
0.0
  0
CIRCLE
  5
2296
330
2
100
AcDbEntity
  8
HOJO
100
AcDbCircle
 10
170.82978460884
 20
191.8078544428642
 30
0.0
 40
2.5
  0
CIRCLE
  5
2297
330
2
100
AcDbEntity
  8
0
100
AcDbCircle
 10
170.82978460884
 20
191.8078544428624
 30
0.0
 40
3.5
  0
CIRCLE
  5
2298
330
2
100
AcDbEntity
  8
0
100
AcDbCircle
 10
170.82978460884
 20
191.8078544428624
 30
0.0
 40
2.0
  0
LINE
  5
2299
330
2
100
AcDbEntity
  8
0
100
AcDbLine
 10
164.8297846088454
 20
189.3078544428588
 30
0.0
 11
164.829784608849
 21
195.3078544428642
 31
0.0
  0
ARC
  5
229A
330
2
100
AcDbEntity
  8
0
100
AcDbCircle
 10
166.829784608849
 20
195.3078544428624
 30
0.0
 40
2.0
100
AcDbArc
 50
90.0
 51
179.9999999998957
  0
LINE
  5
229B
330
2
100
AcDbEntity
  8
0
100
AcDbLine
 10
156.3297846088399
 20
185.8437528277261
 30
0.0
 11
159.3297846088399
 21
187.5758036352942
 31
0.0
  0
LINE
  5
229C
330
2
100
AcDbEntity
  8
0
100
AcDbLine
 10
156.3297846088399
 20
192.7719560580005
 30
0.0
 11
159.3297846088399
 21
191.0399052504324
 31
0.0
  0
LINE
  5
229D
330
2
100
AcDbEntity
  8
CENTER
100
AcDbLine
 10
156.3297846088381
 20
200.0578544428624
 30
0.0
 11
156.3297846088399
 21
178.5578544428624
 31
0.0
  0
LINE
  5
229E
330
2
100
AcDbEntity
  8
0
100
AcDbLine
 10
156.3297846088399
 20
180.8078544428624
 30
0.0
 11
150.3297846088399
 21
180.807854442866
 31
0.0
  0
LINE
  5
229F
330
2
100
AcDbEntity
  8
0
100
AcDbLine
 10
153.3297846088399
 20
191.0399052504324
 30
0.0
 11
153.3297846088399
 21
187.5758036352942
 31
0.0
  0
LINE
  5
22A0
330
2
100
AcDbEntity
  8
0
100
AcDbLine
 10
153.3297846088399
 20
187.5758036352942
 30
0.0
 11
156.3297846088399
 21
185.8437528277242
 31
0.0
  0
LINE
  5
22A1
330
2
100
AcDbEntity
  8
0
100
AcDbLine
 10
153.3297846088399
 20
191.0399052504324
 30
0.0
 11
156.3297846088399
 21
192.7719560580005
 31
0.0
  0
ARC
  5
22A2
330
2
100
AcDbEntity
  8
0
100
AcDbCircle
 10
156.3297846088381
 20
189.3078544428624
 30
0.0
 40
8.0
100
AcDbArc
 50
90.0
 51
180.0
  0
ARC
  5
22A3
330
2
100
AcDbEntity
  8
0
100
AcDbCircle
 10
150.3297846088381
 20
178.807854442866
 30
0.0
 40
2.0
100
AcDbArc
 50
89.99999999994789
 51
180.0
  0
LINE
  5
22A4
330
2
100
AcDbEntity
  8
0
100
AcDbLine
 10
159.3297846088399
 20
187.5758036352942
 30
0.0
 11
159.3297846088399
 21
191.0399052504324
 31
0.0
  0
ARC
  5
22A5
330
2
100
AcDbEntity
  8
0
100
AcDbCircle
 10
156.3297846088454
 20
189.3078544428624
 30
0.0
 40
8.5
100
AcDbArc
 50
269.9999999999478
 51
359.9999999998958
  0
CIRCLE
  5
22A6
330
2
100
AcDbEntity
  8
0
100
AcDbCircle
 10
156.3297846088399
 20
189.3078544428624
 30
0.0
 40
5.63397459621558
  0
CIRCLE
  5
22A7
330
2
100
AcDbEntity
  8
0
100
AcDbCircle
 10
156.3297846088399
 20
189.3078544428624
 30
0.0
 40
6.5
  0
LINE
  5
22A8
330
2
100
AcDbEntity
  8
CENTER
100
AcDbLine
 10
178.8297846088399
 20
191.8078544428642
 30
0.0
 11
162.8297846088399
 21
191.8078544428624
 31
0.0
  0
CIRCLE
  5
22A9
330
2
100
AcDbEntity
  8
0
100
AcDbCircle
 10
170.82978460884
 20
191.8078544428624
 30
0.0
 40
4.0
  0
LINE
  5
22AA
330
2
100
AcDbEntity
  8
0
100
AcDbLine
 10
210.2231828910418
 20
195.9144561606606
 30
0.0
 11
208.8089693286684
 21
197.3286697230339
 31
0.0
  0
ARC
  5
22AB
330
2
100
AcDbEntity
  8
0
100
AcDbCircle
 10
205.8297846088427
 20
206.3078544428624
 30
0.0
 40
8.0
100
AcDbArc
 50
79.76611039689631
 51
90.0
  0
ARC
  5
22AC
330
2
100
AcDbEntity
  8
0
100
AcDbCircle
 10
201.8297846088272
 20
204.3078544428624
 30
0.0
 40
10.0
100
AcDbArc
 50
90.0
 51
180.0
  0
ARC
  5
22AD
330
2
100
AcDbEntity
  8
0
100
AcDbCircle
 10
183.8575838532152
 20
205.3078544428624
 30
0.0
 40
8.0
100
AcDbArc
 50
270.0
 51
356.8152614632215
  0
LINE
  5
22AE
330
2
100
AcDbEntity
  8
0
100
AcDbLine
 10
201.8297846088381
 20
214.3078544428624
 30
0.0
 11
205.8297846088418
 21
214.3078544428624
 31
0.0
  0
LINE
  5
22AF
330
2
100
AcDbEntity
  8
0
100
AcDbLine
 10
299.8297846088399
 20
185.3078544428624
 30
0.0
 11
299.829784608839
 21
123.3078544428642
 31
0.0
  0
LINE
  5
22B0
330
2
100
AcDbEntity
  8
0
100
AcDbLine
 10
297.8297846088399
 20
185.3078544428624
 30
0.0
 11
297.829784608839
 21
123.3078544428642
 31
0.0
  0
ARC
  5
22B1
330
2
100
AcDbEntity
  8
0
100
AcDbCircle
 10
61.82978460883998
 20
154.3078544428624
 30
0.0
 40
250.0
100
AcDbArc
 50
354.7203967175509
 51
5.279603282449114
  0
CIRCLE
  5
22B2
330
2
100
AcDbEntity
  8
0
100
AcDbCircle
 10
251.829784608839
 20
154.3078544428624
 30
0.0
 40
32.5
  0
CIRCLE
  5
22B3
330
2
100
AcDbEntity
  8
0
100
AcDbCircle
 10
251.8297846088399
 20
154.3078544428624
 30
0.0
 40
33.07735
  0
ARC
  5
22B4
330
2
100
AcDbEntity
  8
0
100
AcDbCircle
 10
282.8297846088391
 20
123.3078544428642
 30
0.0
 40
17.0
100
AcDbArc
 50
270.0
 51
0.0
  0
ARC
  5
22B5
330
2
100
AcDbEntity
  8
0
100
AcDbCircle
 10
282.8297846088391
 20
123.3078544428642
 30
0.0
 40
15.0
100
AcDbArc
 50
270.0
 51
0.0
  0
ARC
  5
22B6
330
2
100
AcDbEntity
  8
0
100
AcDbCircle
 10
282.1951021254491
 20
15.70787347494456
 30
0.0
 40
80.0
100
AcDbArc
 50
79.76611039689631
 51
95.27960328239691
  0
LINE
  5
22B7
330
2
100
AcDbEntity
  8
0
100
AcDbLine
 10
282.8297846088399
 20
106.3078544428642
 30
0.0
 11
220.8297846088399
 21
106.3078544428624
 31
0.0
  0
LINE
  5
22B8
330
2
100
AcDbEntity
  8
0
100
AcDbLine
 10
282.8297846088399
 20
108.3078544428642
 30
0.0
 11
220.8297846088399
 21
108.3078544428624
 31
0.0
  0
ARC
  5
22B9
330
2
100
AcDbEntity
  8
0
100
AcDbCircle
 10
251.829784608839
 20
344.3078544428624
 30
0.0
 40
250.0
100
AcDbArc
 50
264.7203967176031
 51
275.2796032823969
  0
ARC
  5
22BA
330
2
100
AcDbEntity
  8
0
100
AcDbCircle
 10
390.429765576756
 20
123.9425369262514
 30
0.0
 40
80.0
100
AcDbArc
 50
174.7203967175508
 51
190.2338896031567
  0
ARC
  5
22BB
330
2
100
AcDbEntity
  8
0
100
AcDbCircle
 10
308.9401492079961
 20
114.8078544428624
 30
0.0
 40
2.0
100
AcDbArc
 50
270.0
 51
6.395943096303732
  0
ARC
  5
22BC
330
2
100
AcDbEntity
  8
0
100
AcDbCircle
 10
303.8297846088381
 20
108.307854442866
 30
0.0
 40
8.0
100
AcDbArc
 50
0.0
 51
10.23388960315672
  0
LINE
  5
22BD
330
2
100
AcDbEntity
  8
0
100
AcDbLine
 10
311.8297846088381
 20
104.3078544428624
 30
0.0
 11
311.8297846088381
 21
108.307854442866
 31
0.0
  0
LINE
  5
22BE
330
2
100
AcDbEntity
  8
CENTER
100
AcDbLine
 10
304.8297846088345
 20
111.6486970447092
 30
0.0
 11
304.8297846088345
 21
125.9670118410229
 31
0.0
  0
LINE
  5
22BF
330
2
100
AcDbEntity
  8
0
100
AcDbLine
 10
304.8297846088363
 20
102.5758036352961
 30
0.0
 11
304.8297846088363
 21
106.0399052504342
 31
0.0
  0
CIRCLE
  5
22C0
330
2
100
AcDbEntity
  8
0
100
AcDbCircle
 10
304.8297846088363
 20
118.8078544428642
 30
0.0
 40
2.0
  0
ARC
  5
22C1
330
2
100
AcDbEntity
  8
0
100
AcDbCircle
 10
301.8297846088363
 20
104.3078544428624
 30
0.0
 40
8.5
100
AcDbArc
 50
90.0
 51
180.0
  0
ARC
  5
22C2
330
2
100
AcDbEntity
  8
0
100
AcDbCircle
 10
297.8297846088363
 20
102.3078544428624
 30
0.0
 40
8.0
100
AcDbArc
 50
259.7661103968963
 51
270.0
  0
LINE
  5
22C3
330
2
100
AcDbEntity
  8
0
100
AcDbLine
 10
293.3297846088363
 20
104.3078544428642
 30
0.0
 11
293.3297846088363
 21
97.19748984370539
 31
0.0
  0
ARC
  5
22C4
330
2
100
AcDbEntity
  8
0
100
AcDbCircle
 10
291.3297846088363
 20
97.19748984370539
 30
0.0
 40
2.0
100
AcDbArc
 50
263.6040569036959
 51
0.0
  0
LINE
  5
22C5
330
2
100
AcDbEntity
  8
0
100
AcDbLine
 10
294.8505998890106
 20
111.2870391626927
 30
0.0
 11
293.4363863266372
 21
112.701252725066
 31
0.0
  0
LINE
  5
22C6
330
2
100
AcDbEntity
  8
0
100
AcDbLine
 10
301.8297846088399
 20
94.30785444286243
 30
0.0
 11
297.8297846088363
 21
94.30785444286243
 31
0.0
  0
LINE
  5
22C7
330
2
100
AcDbEntity
  8
CENTER
100
AcDbLine
 10
301.8297846088363
 20
115.0578544428642
 30
0.0
 11
301.8297846088381
 21
93.55785444286425
 31
0.0
  0
LINE
  5
22C8
330
2
100
AcDbEntity
  8
0
100
AcDbLine
 10
298.8297846088363
 20
106.0399052504342
 30
0.0
 11
298.8297846088363
 21
102.5758036352961
 31
0.0
  0
LINE
  5
22C9
330
2
100
AcDbEntity
  8
0
100
AcDbLine
 10
298.8297846088363
 20
102.5758036352961
 30
0.0
 11
301.8297846088363
 21
100.8437528277279
 31
0.0
  0
LINE
  5
22CA
330
2
100
AcDbEntity
  8
0
100
AcDbLine
 10
298.8297846088363
 20
106.0399052504342
 30
0.0
 11
301.8297846088363
 21
107.7719560580042
 31
0.0
  0
CIRCLE
  5
22CB
330
2
100
AcDbEntity
  8
0
100
AcDbCircle
 10
301.8297846088363
 20
104.307854442866
 30
0.0
 40
5.63397459621558
  0
LINE
  5
22CC
330
2
100
AcDbEntity
  8
0
100
AcDbLine
 10
301.8297846088363
 20
100.8437528277279
 30
0.0
 11
304.8297846088363
 21
102.5758036352961
 31
0.0
  0
LINE
  5
22CD
330
2
100
AcDbEntity
  8
0
100
AcDbLine
 10
301.8297846088363
 20
107.7719560580042
 30
0.0
 11
304.8297846088363
 21
106.0399052504342
 31
0.0
  0
CIRCLE
  5
22CE
330
2
100
AcDbEntity
  8
HOJO
100
AcDbCircle
 10
304.8297846088363
 20
118.8078544428642
 30
0.0
 40
2.5
  0
CIRCLE
  5
22CF
330
2
100
AcDbEntity
  8
0
100
AcDbCircle
 10
304.8297846088363
 20
118.8078544428642
 30
0.0
 40
4.0
  0
LINE
  5
22D0
330
2
100
AcDbEntity
  8
CENTER
100
AcDbLine
 10
312.5797846088363
 20
104.3078544428642
 30
0.0
 11
291.0797846088363
 21
104.307854442866
 31
0.0
  0
CIRCLE
  5
22D1
330
2
100
AcDbEntity
  8
0
100
AcDbCircle
 10
301.8297846088363
 20
104.307854442866
 30
0.0
 40
6.5
  0
LINE
  5
22D2
330
2
100
AcDbEntity
  8
CENTER
100
AcDbLine
 10
297.6706272106777
 20
118.807854442866
 30
0.0
 11
311.9889420069913
 21
118.807854442866
 31
0.0
  0
ARC
  5
22D3
330
2
100
AcDbEntity
  8
0
100
AcDbCircle
 10
301.8297846088399
 20
104.3078544428624
 30
0.0
 40
10.0
100
AcDbArc
 50
270.0
 51
0.0
  0
LINE
  5
22D4
330
2
100
AcDbEntity
  8
0
100
AcDbLine
 10
301.8297846088363
 20
112.8078544428624
 30
0.0
 11
308.9401492079961
 21
112.8078544428624
 31
0.0
  0
CIRCLE
  5
22D5
330
2
100
AcDbEntity
  8
0
100
AcDbCircle
 10
304.8297846088363
 20
118.8078544428642
 30
0.0
 40
3.5
  0
ARC
  5
22D6
330
2
100
AcDbEntity
  8
0
100
AcDbCircle
 10
282.8297846088399
 20
185.3078544428624
 30
0.0
 40
15.0
100
AcDbArc
 50
0.0
 51
90.0
  0
ARC
  5
22D7
330
2
100
AcDbEntity
  8
0
100
AcDbCircle
 10
282.8297846088399
 20
185.3078544428624
 30
0.0
 40
17.0
100
AcDbArc
 50
0.0
 51
90.0
  0
ARC
  5
22D8
330
2
100
AcDbEntity
  8
0
100
AcDbCircle
 10
282.1951021254491
 20
292.9078354107803
 30
0.0
 40
80.0
100
AcDbArc
 50
264.7203967176031
 51
280.2338896031037
  0
ARC
  5
22D9
330
2
100
AcDbEntity
  8
0
100
AcDbCircle
 10
251.829784608839
 20
-35.69214555713756
 30
0.0
 40
250.0
100
AcDbArc
 50
84.72039671760308
 51
95.27960328239691
  0
LINE
  5
22DA
330
2
100
AcDbEntity
  8
0
100
AcDbLine
 10
282.8297846088399
 20
202.3078544428624
 30
0.0
 11
220.8297846088399
 21
202.3078544428624
 31
0.0
  0
LINE
  5
22DB
330
2
100
AcDbEntity
  8
0
100
AcDbLine
 10
282.8297846088399
 20
200.3078544428624
 30
0.0
 11
220.8297846088399
 21
200.3078544428624
 31
0.0
  0
ARC
  5
22DC
330
2
100
AcDbEntity
  8
0
100
AcDbCircle
 10
390.429765576756
 20
184.6731719594715
 30
0.0
 40
80.0
100
AcDbArc
 50
169.7661103968432
 51
185.2796032824491
  0
ARC
  5
22DD
330
2
100
AcDbEntity
  8
0
100
AcDbCircle
 10
308.940149207997
 20
193.8078544428642
 30
0.0
 40
2.0
100
AcDbArc
 50
353.6040569036963
 51
90.0
  0
LINE
  5
22DE
330
2
100
AcDbEntity
  8
0
100
AcDbLine
 10
311.8297846088381
 20
204.3078544428624
 30
0.0
 11
311.8297846088381
 21
200.3078544428587
 31
0.0
  0
ARC
  5
22DF
330
2
100
AcDbEntity
  8
0
100
AcDbCircle
 10
303.8297846088381
 20
200.3078544428587
 30
0.0
 40
8.0
100
AcDbArc
 50
349.7661103968432
 51
0.0
  0
CIRCLE
  5
22E0
330
2
100
AcDbEntity
  8
0
100
AcDbCircle
 10
301.8297846088363
 20
204.3078544428624
 30
0.0
 40
5.63397459621558
  0
LINE
  5
22E1
330
2
100
AcDbEntity
  8
0
100
AcDbLine
 10
293.3297846088363
 20
204.3078544428624
 30
0.0
 11
293.3297846088363
 21
211.4182190420194
 31
0.0
  0
LINE
  5
22E2
330
2
100
AcDbEntity
  8
CENTER
100
AcDbLine
 10
301.8297846088363
 20
193.5578544428642
 30
0.0
 11
301.8297846088381
 21
215.0578544428642
 31
0.0
  0
LINE
  5
22E3
330
2
100
AcDbEntity
  8
CENTER
100
AcDbLine
 10
304.8297846088336
 20
196.9670118410192
 30
0.0
 11
304.8297846088336
 21
182.6486970447056
 31
0.0
  0
CIRCLE
  5
22E4
330
2
100
AcDbEntity
  8
0
100
AcDbCircle
 10
304.8297846088363
 20
189.8078544428624
 30
0.0
 40
2.0
  0
LINE
  5
22E5
330
2
100
AcDbEntity
  8
0
100
AcDbLine
 10
304.8297846088363
 20
202.5758036352942
 30
0.0
 11
304.8297846088363
 21
206.0399052504324
 31
0.0
  0
ARC
  5
22E6
330
2
100
AcDbEntity
  8
0
100
AcDbCircle
 10
301.8297846088363
 20
204.3078544428642
 30
0.0
 40
8.5
100
AcDbArc
 50
180.0
 51
270.0
  0
LINE
  5
22E7
330
2
100
AcDbEntity
  8
0
100
AcDbLine
 10
294.8505998890106
 20
197.3286697230339
 30
0.0
 11
293.4363863266381
 21
195.9144561606606
 31
0.0
  0
LINE
  5
22E8
330
2
100
AcDbEntity
  8
0
100
AcDbLine
 10
298.8297846088363
 20
206.0399052504324
 30
0.0
 11
301.8297846088363
 21
207.7719560580005
 31
0.0
  0
LINE
  5
22E9
330
2
100
AcDbEntity
  8
0
100
AcDbLine
 10
298.8297846088363
 20
202.5758036352942
 30
0.0
 11
301.8297846088363
 21
200.8437528277261
 31
0.0
  0
LINE
  5
22EA
330
2
100
AcDbEntity
  8
0
100
AcDbLine
 10
298.8297846088363
 20
206.0399052504324
 30
0.0
 11
298.8297846088363
 21
202.5758036352942
 31
0.0
  0
LINE
  5
22EB
330
2
100
AcDbEntity
  8
0
100
AcDbLine
 10
301.8297846088363
 20
207.7719560580005
 30
0.0
 11
304.8297846088363
 21
206.0399052504324
 31
0.0
  0
CIRCLE
  5
22EC
330
2
100
AcDbEntity
  8
HOJO
100
AcDbCircle
 10
304.8297846088363
 20
189.8078544428624
 30
0.0
 40
2.5
  0
LINE
  5
22ED
330
2
100
AcDbEntity
  8
0
100
AcDbLine
 10
301.8297846088363
 20
200.8437528277261
 30
0.0
 11
304.8297846088363
 21
202.5758036352942
 31
0.0
  0
ARC
  5
22EE
330
2
100
AcDbEntity
  8
0
100
AcDbCircle
 10
297.8297846088363
 20
206.3078544428624
 30
0.0
 40
8.0
100
AcDbArc
 50
90.0
 51
100.2338896031036
  0
ARC
  5
22EF
330
2
100
AcDbEntity
  8
0
100
AcDbCircle
 10
291.3297846088363
 20
211.4182190420194
 30
0.0
 40
2.0
100
AcDbArc
 50
0.0
 51
96.39594309630409
  0
LINE
  5
22F0
330
2
100
AcDbEntity
  8
0
100
AcDbLine
 10
301.8297846088399
 20
214.3078544428624
 30
0.0
 11
297.8297846088363
 21
214.3078544428624
 31
0.0
  0
CIRCLE
  5
22F1
330
2
100
AcDbEntity
  8
0
100
AcDbCircle
 10
301.8297846088363
 20
204.3078544428624
 30
0.0
 40
6.5
  0
ARC
  5
22F2
330
2
100
AcDbEntity
  8
0
100
AcDbCircle
 10
301.8297846088381
 20
204.3078544428642
 30
0.0
 40
10.0
100
AcDbArc
 50
0.0
 51
90.0
  0
LINE
  5
22F3
330
2
100
AcDbEntity
  8
CENTER
100
AcDbLine
 10
312.5797846088363
 20
204.3078544428642
 30
0.0
 11
291.0797846088363
 21
204.3078544428624
 31
0.0
  0
LINE
  5
22F4
330
2
100
AcDbEntity
  8
CENTER
100
AcDbLine
 10
297.6706272106767
 20
189.8078544428624
 30
0.0
 11
311.9889420069904
 21
189.8078544428624
 31
0.0
  0
CIRCLE
  5
22F5
330
2
100
AcDbEntity
  8
0
100
AcDbCircle
 10
304.8297846088363
 20
189.8078544428624
 30
0.0
 40
4.0
  0
CIRCLE
  5
22F6
330
2
100
AcDbEntity
  8
0
100
AcDbCircle
 10
304.8297846088363
 20
189.8078544428624
 30
0.0
 40
3.5
  0
LINE
  5
22F7
330
2
100
AcDbEntity
  8
0
100
AcDbLine
 10
301.8297846088363
 20
195.8078544428642
 30
0.0
 11
308.940149207997
 21
195.8078544428642
 31
0.0
  0
LINE
  5
22F8
330
2
100
AcDbEntity
  8
CENTER
100
AcDbLine
 10
402.2004726401483
 20
154.3078544428641
 30
0.0
 11
601.7004726401486
 21
154.3078544428641
 31
0.0
  0
LINE
  5
22F9
330
2
100
AcDbEntity
  8
0
100
AcDbLine
 10
519.7004726401488
 20
204.3078544428641
 30
0.0
 11
444.2004726401566
 21
204.3078544428641
 31
0.0
  0
LINE
  5
22FA
330
2
100
AcDbEntity
  8
0
100
AcDbLine
 10
519.7004726401488
 20
200.3078544428605
 30
0.0
 11
444.2004726401566
 21
200.3078544428605
 31
0.0
  0
LINE
  5
22FB
330
2
100
AcDbEntity
  8
0
100
AcDbLine
 10
519.7004726401488
 20
177.3118828645343
 30
0.0
 11
444.2004726401547
 21
177.3118828645343
 31
0.0
  0
LINE
  5
22FC
330
2
100
AcDbEntity
  8
0
100
AcDbLine
 10
444.2004726401566
 20
214.3078544428641
 30
0.0
 11
520.700472640147
 21
213.6402490568704
 31
0.0
  0
LINE
  5
22FD
330
2
100
AcDbEntity
  8
0
100
AcDbLine
 10
444.2004726401511
 20
94.30785444286232
 30
0.0
 11
520.7004726401488
 21
94.97545982885606
 31
0.0
  0
LINE
  5
22FE
330
2
100
AcDbEntity
  8
0
100
AcDbLine
 10
519.7004726401488
 20
104.3078544428641
 30
0.0
 11
444.2004726401566
 21
104.3078544428641
 31
0.0
  0
LINE
  5
22FF
330
2
100
AcDbEntity
  8
0
100
AcDbLine
 10
519.7004726401488
 20
108.3078544428677
 30
0.0
 11
444.2004726401566
 21
108.3078544428677
 31
0.0
  0
LINE
  5
2300
330
2
100
AcDbEntity
  8
0
100
AcDbLine
 10
519.7004726401488
 20
131.3038260211939
 30
0.0
 11
444.2004726401547
 21
131.3038260211939
 31
0.0
  0
LINE
  5
2302
330
2
100
AcDbEntity
  8
0
100
AcDbLine
 10
427.7004726401484
 20
197.8078544428641
 30
0.0
 11
427.7004726401484
 21
110.8078544428641
 31
0.0
  0
LINE
  5
2303
330
2
100
AcDbEntity
  8
0
100
AcDbLine
 10
444.2004726401511
 20
214.3078544428641
 30
0.0
 11
444.2004726401584
 21
94.30785444286414
 31
0.0
  0
LINE
  5
2304
330
2
100
AcDbEntity
  8
0
100
AcDbLine
 10
425.7004726401484
 20
110.8078544428641
 30
0.0
 11
425.7004726401484
 21
197.8078544428641
 31
0.0
  0
LINE
  5
2305
330
2
100
AcDbEntity
  8
0
100
AcDbLine
 10
417.2004726401484
 20
191.2305041736741
 30
0.0
 11
417.2004726401484
 21
117.3852047120541
 31
0.0
  0
LINE
  5
2306
330
2
100
AcDbEntity
  8
0
100
AcDbLine
 10
425.2004726401484
 20
114.8078544428641
 30
0.0
 11
425.2004726401484
 21
193.8078544428641
 31
0.0
  0
LINE
  5
2307
330
2
100
AcDbEntity
  8
0
100
AcDbLine
 10
419.7004726401484
 20
117.0078544428648
 30
0.0
 11
419.7004726401484
 21
191.6078544428652
 31
0.0
  0
LINE
  5
2308
330
2
100
AcDbEntity
  8
0
100
AcDbLine
 10
421.7004726401484
 20
117.0078544428648
 30
0.0
 11
421.7004726401484
 21
191.6078544428652
 31
0.0
  0
LINE
  5
2309
330
2
100
AcDbEntity
  8
0
100
AcDbLine
 10
418.2004726401483
 20
116.8078544428641
 30
0.0
 11
418.2004726401483
 21
191.8078544428641
 31
0.0
  0
LINE
  5
230A
330
2
100
AcDbEntity
  8
0
100
AcDbLine
 10
421.9004726401482
 20
116.8078544428641
 30
0.0
 11
421.9004726401482
 21
191.8078544428641
 31
0.0
  0
LINE
  5
230B
330
2
100
AcDbEntity
  8
CENTER
  6
CENS
100
AcDbLine
 10
450.9603549320023
 20
104.3078544428641
 30
0.0
 11
421.2004726400074
 21
104.3078544428641
 31
0.0
  0
LINE
  5
230C
330
2
100
AcDbEntity
  8
0
100
AcDbLine
 10
419.9004726401482
 20
117.507854442863
 30
0.0
 11
421.5004726401477
 21
117.507854442863
 31
0.0
  0
LINE
  5
230D
330
2
100
AcDbEntity
  8
0
100
AcDbLine
 10
434.2004726400074
 20
112.3121988375675
 30
0.0
 11
434.2004726400074
 21
95.3864343313686
 31
0.0
  0
ARC
  5
230E
330
2
100
AcDbEntity
  8
0
100
AcDbCircle
 10
433.7004726400074
 20
112.3121988375675
 30
0.0
 40
0.5
100
AcDbArc
 50
0.0
 51
89.50000000003447
  0
ARC
  5
230F
330
2
100
AcDbEntity
  8
0
100
AcDbCircle
 10
435.2004726400074
 20
95.3864343313686
 30
0.0
 40
1.0
100
AcDbArc
 50
180.0
 51
269.4999999999823
  0
LINE
  5
2310
330
2
100
AcDbEntity
  8
0
100
AcDbLine
 10
432.2004726400074
 20
110.8078544428641
 30
0.0
 11
432.2004726400083
 21
97.80785444286415
 31
0.0
  0
LINE
  5
2311
330
2
100
AcDbEntity
  8
0
100
AcDbLine
 10
434.2004726400074
 20
97.80785444286415
 30
0.0
 11
432.2004726400074
 21
97.80785444286415
 31
0.0
  0
LINE
  5
2312
330
2
100
AcDbEntity
  8
0
100
AcDbLine
 10
434.2004726400074
 20
110.8078544428641
 30
0.0
 11
432.2004726400074
 21
110.8078544428641
 31
0.0
  0
LINE
  5
2313
330
2
100
AcDbEntity
  8
HIDS
100
AcDbLine
 10
427.7004726401474
 20
110.8078544428641
 30
0.0
 11
427.7004726401484
 21
97.80785444286415
 31
0.0
  0
LINE
  5
2314
330
2
100
AcDbEntity
  8
0
100
AcDbLine
 10
427.7004726401484
 20
97.80785444286415
 30
0.0
 11
427.7004726401484
 21
96.43447018260269
 31
0.0
  0
ARC
  5
2315
330
2
100
AcDbEntity
  8
0
100
AcDbCircle
 10
429.7004726401484
 20
96.43447018260269
 30
0.0
 40
2.0
100
AcDbArc
 50
180.0
 51
269.5000000000344
  0
LINE
  5
2316
330
2
100
AcDbEntity
  8
HIDS
100
AcDbLine
 10
425.7004726401484
 20
109.1362815676108
 30
0.0
 11
425.7004726401484
 21
110.8078544428641
 31
0.0
  0
LINE
  5
2317
330
2
100
AcDbEntity
  8
HIDS
100
AcDbLine
 10
427.1146862025217
 20
106.8936408804908
 30
0.0
 11
426.286259077775
 21
107.7220680052374
 31
0.0
  0
LINE
  5
2318
330
2
100
AcDbEntity
  8
0
100
AcDbLine
 10
421.9004726401482
 20
116.8078544428641
 30
0.0
 11
425.2004726401484
 21
116.8078544428641
 31
0.0
  0
LINE
  5
2319
330
2
100
AcDbEntity
  8
0
100
AcDbLine
 10
425.7004726401484
 20
114.3078544428641
 30
0.0
 11
425.2004726401484
 21
114.8078544428641
 31
0.0
  0
LINE
  5
231A
330
2
100
AcDbEntity
  8
0
100
AcDbLine
 10
418.2004726401483
 20
116.8078544428641
 30
0.0
 11
419.5004726401485
 21
116.8078544428641
 31
0.0
  0
LINE
  5
231B
330
2
100
AcDbEntity
  8
0
100
AcDbLine
 10
421.7004726401484
 20
117.0078544428648
 30
0.0
 11
421.9004726401482
 21
116.8078544428641
 31
0.0
  0
LINE
  5
231C
330
2
100
AcDbEntity
  8
0
100
AcDbLine
 10
418.2004726401483
 20
116.8078544428641
 30
0.0
 11
417.2004726401484
 21
117.3852047120541
 31
0.0
  0
ARC
  5
231D
330
2
100
AcDbEntity
  8
HIDS
100
AcDbCircle
 10
427.7004726401484
 20
109.1362815676108
 30
0.0
 40
2.0
100
AcDbArc
 50
180.0
 51
224.9999999999908
  0
ARC
  5
231E
330
2
100
AcDbEntity
  8
HIDS
100
AcDbCircle
 10
425.7004726401484
 20
105.4794273181174
 30
0.0
 40
2.0
100
AcDbArc
 50
0.0
 51
44.99999999999078
  0
ARC
  5
231F
330
2
100
AcDbEntity
  8
0
100
AcDbCircle
 10
419.5004726401485
 20
117.0078544428648
 30
0.0
 40
0.2
100
AcDbArc
 50
270.0
 51
0.0
  0
ARC
  5
2320
330
2
100
AcDbEntity
  8
0
100
AcDbCircle
 10
429.7004726401484
 20
114.8472015046951
 30
0.0
 40
2.0
100
AcDbArc
 50
180.0
 51
269.5000000000344
  0
LINE
  5
2321
330
2
100
AcDbEntity
  8
0
100
AcDbLine
 10
424.2004726400073
 20
109.94182903908
 30
0.0
 11
424.2004726400073
 21
98.67387984665004
 31
0.0
  0
LINE
  5
2322
330
2
100
AcDbEntity
  8
0
100
AcDbLine
 10
424.7004726400074
 20
97.80785444286415
 30
0.0
 11
424.2004726400073
 21
98.67387984665004
 31
0.0
  0
LINE
  5
2323
330
2
100
AcDbEntity
  8
0
100
AcDbLine
 10
424.7004726400074
 20
110.8078544428641
 30
0.0
 11
424.7004726400074
 21
97.80785444286415
 31
0.0
  0
LINE
  5
2324
330
2
100
AcDbEntity
  8
0
100
AcDbLine
 10
424.7004726400074
 20
110.8078544428641
 30
0.0
 11
424.2004726400073
 21
109.94182903908
 31
0.0
  0
LINE
  5
2325
330
2
100
AcDbEntity
  8
0
100
AcDbLine
 10
433.7048359077572
 20
112.8121797991021
 30
0.0
 11
429.6830195691519
 21
112.8472776585673
 31
0.0
  0
LINE
  5
2326
330
2
100
AcDbEntity
  8
0
100
AcDbLine
 10
432.2004726400074
 20
97.80785444286415
 30
0.0
 11
424.7004726400074
 21
97.80785444286415
 31
0.0
  0
LINE
  5
2327
330
2
100
AcDbEntity
  8
0
100
AcDbLine
 10
432.2004726400074
 20
110.8078544428641
 30
0.0
 11
424.7004726400074
 21
110.8078544428641
 31
0.0
  0
ARC
  5
2328
330
2
100
AcDbEntity
  8
0
100
AcDbCircle
 10
419.9004726401482
 20
117.3078544428641
 30
0.0
 40
0.2
100
AcDbArc
 50
90.0
 51
180.0
  0
ARC
  5
2329
330
2
100
AcDbEntity
  8
0
100
AcDbCircle
 10
421.5004726401486
 20
117.3078544428641
 30
0.0
 40
0.2
100
AcDbArc
 50
0.0
 51
90.0
  0
LINE
  5
232A
330
2
100
AcDbEntity
  8
0
100
AcDbLine
 10
435.1917461045096
 20
104.3078544428641
 30
0.0
 11
444.2004726401566
 21
104.3078544428641
 31
0.0
  0
LINE
  5
232B
330
2
100
AcDbEntity
  8
0
100
AcDbLine
 10
435.1917461045096
 20
108.3078544428677
 30
0.0
 11
444.2004726401566
 21
108.3078544428677
 31
0.0
  0
LINE
  5
232C
330
2
100
AcDbEntity
  8
0
100
AcDbLine
 10
444.2004726401584
 20
94.30785444286414
 30
0.0
 11
429.6830195691519
 21
94.4345463364749
 31
0.0
  0
LINE
  5
232D
330
2
100
AcDbEntity
  8
0
100
AcDbLine
 10
429.6830195691519
 20
131.3038260211684
 30
0.0
 11
444.2004726401547
 21
131.3038260211684
 31
0.0
  0
LINE
  5
232E
330
2
100
AcDbEntity
  8
0
100
AcDbLine
 10
429.6830195691519
 20
177.3118828645598
 30
0.0
 11
444.2004726401547
 21
177.3118828645598
 31
0.0
  0
LINE
  5
232F
330
2
100
AcDbEntity
  8
CENTER
  6
CENS
100
AcDbLine
 10
450.9603549320023
 20
204.3078544428641
 30
0.0
 11
421.2004726400074
 21
204.3078544428641
 31
0.0
  0
LINE
  5
2330
330
2
100
AcDbEntity
  8
HIDS
100
AcDbLine
 10
427.7004726401484
 20
210.8078544428641
 30
0.0
 11
427.7004726401484
 21
197.8078544428641
 31
0.0
  0
LINE
  5
2331
330
2
100
AcDbEntity
  8
0
100
AcDbLine
 10
434.2004726400074
 20
196.3035100481626
 30
0.0
 11
434.2004726400074
 21
213.2292745543596
 31
0.0
  0
LINE
  5
2332
330
2
100
AcDbEntity
  8
0
100
AcDbLine
 10
424.2004726400073
 20
198.6738798466482
 30
0.0
 11
424.2004726400073
 21
209.94182903908
 31
0.0
  0
LINE
  5
2333
330
2
100
AcDbEntity
  8
0
100
AcDbLine
 10
434.2004726400074
 20
197.8078544428641
 30
0.0
 11
434.2004726400074
 21
210.8078544428641
 31
0.0
  0
LINE
  5
2334
330
2
100
AcDbEntity
  8
0
100
AcDbLine
 10
432.2004726400074
 20
197.8078544428641
 30
0.0
 11
432.2004726400083
 21
210.8078544428641
 31
0.0
  0
LINE
  5
2335
330
2
100
AcDbEntity
  8
0
100
AcDbLine
 10
424.7004726400074
 20
197.8078544428641
 30
0.0
 11
424.7004726400074
 21
210.8078544428641
 31
0.0
  0
ARC
  5
2336
330
2
100
AcDbEntity
  8
0
100
AcDbCircle
 10
433.7004726400074
 20
196.3035100481626
 30
0.0
 40
0.5
100
AcDbArc
 50
270.4999999999655
 51
0.0
  0
LINE
  5
2337
330
2
100
AcDbEntity
  8
0
100
AcDbLine
 10
434.2004726400074
 20
197.8078544428641
 30
0.0
 11
432.2004726400074
 21
197.8078544428641
 31
0.0
  0
LINE
  5
2338
330
2
100
AcDbEntity
  8
0
100
AcDbLine
 10
421.9004726401482
 20
191.8078544428641
 30
0.0
 11
425.2004726401484
 21
191.8078544428641
 31
0.0
  0
LINE
  5
2339
330
2
100
AcDbEntity
  8
HIDS
100
AcDbLine
 10
425.7004726401484
 20
197.8078544428641
 30
0.0
 11
425.7004726401484
 21
199.4794273181192
 31
0.0
  0
LINE
  5
233A
330
2
100
AcDbEntity
  8
HIDS
100
AcDbLine
 10
427.1146862025217
 20
201.7220680052374
 30
0.0
 11
426.286259077775
 21
200.8936408804907
 31
0.0
  0
LINE
  5
233B
330
2
100
AcDbEntity
  8
0
100
AcDbLine
 10
425.7004726401484
 20
194.3078544428641
 30
0.0
 11
425.2004726401484
 21
193.8078544428641
 31
0.0
  0
LINE
  5
233C
330
2
100
AcDbEntity
  8
0
100
AcDbLine
 10
418.2004726401475
 20
191.8078544428641
 30
0.0
 11
419.5004726401476
 21
191.8078544428641
 31
0.0
  0
LINE
  5
233D
330
2
100
AcDbEntity
  8
0
100
AcDbLine
 10
421.7004726401475
 20
191.6078544428652
 30
0.0
 11
421.9004726401482
 21
191.8078544428641
 31
0.0
  0
LINE
  5
233E
330
2
100
AcDbEntity
  8
0
100
AcDbLine
 10
419.9004726401482
 20
191.1078544428652
 30
0.0
 11
421.5004726401477
 21
191.1078544428652
 31
0.0
  0
LINE
  5
233F
330
2
100
AcDbEntity
  8
0
100
AcDbLine
 10
418.2004726401483
 20
191.8078544428641
 30
0.0
 11
417.2004726401475
 21
191.2305041736741
 31
0.0
  0
ARC
  5
2340
330
2
100
AcDbEntity
  8
HIDS
100
AcDbCircle
 10
427.7004726401484
 20
199.4794273181192
 30
0.0
 40
2.0
100
AcDbArc
 50
135.0000000000092
 51
180.0
  0
ARC
  5
2341
330
2
100
AcDbEntity
  8
HIDS
100
AcDbCircle
 10
425.7004726401484
 20
203.1362815676108
 30
0.0
 40
2.0
100
AcDbArc
 50
315.0000000000092
 51
0.0
  0
ARC
  5
2342
330
2
100
AcDbEntity
  8
0
100
AcDbCircle
 10
419.5004726401476
 20
191.6078544428652
 30
0.0
 40
0.2
100
AcDbArc
 50
0.0
 51
90.0
  0
ARC
  5
2343
330
2
100
AcDbEntity
  8
0
100
AcDbCircle
 10
419.9004726401482
 20
191.3078544428641
 30
0.0
 40
0.2
100
AcDbArc
 50
180.0
 51
270.0
  0
ARC
  5
2344
330
2
100
AcDbEntity
  8
0
100
AcDbCircle
 10
421.5004726401477
 20
191.3078544428641
 30
0.0
 40
0.2
100
AcDbArc
 50
270.0
 51
0.0
  0
ARC
  5
2345
330
2
100
AcDbEntity
  8
0
100
AcDbCircle
 10
429.7004726401484
 20
193.7685073810331
 30
0.0
 40
2.0
100
AcDbArc
 50
90.49999999996552
 51
180.0
  0
LINE
  5
2346
330
2
100
AcDbEntity
  8
0
100
AcDbLine
 10
424.7004726400074
 20
197.8078544428641
 30
0.0
 11
424.2004726400073
 21
198.6738798466482
 31
0.0
  0
LINE
  5
2347
330
2
100
AcDbEntity
  8
0
100
AcDbLine
 10
433.7048359077572
 20
195.8035290866279
 30
0.0
 11
429.6830195691519
 21
195.7684312271609
 31
0.0
  0
LINE
  5
2348
330
2
100
AcDbEntity
  8
0
100
AcDbLine
 10
432.2004726400074
 20
197.8078544428641
 30
0.0
 11
424.7004726400074
 21
197.8078544428641
 31
0.0
  0
LINE
  5
2349
330
2
100
AcDbEntity
  8
0
100
AcDbLine
 10
435.1917461045096
 20
204.3078544428659
 30
0.0
 11
444.2004726401566
 21
204.3078544428659
 31
0.0
  0
LINE
  5
234A
330
2
100
AcDbEntity
  8
0
100
AcDbLine
 10
435.1917461045096
 20
200.3078544428623
 30
0.0
 11
444.2004726401566
 21
200.3078544428623
 31
0.0
  0
ARC
  5
234B
330
2
100
AcDbEntity
  8
0
100
AcDbCircle
 10
435.2004726400074
 20
213.2292745543596
 30
0.0
 40
1.0
100
AcDbArc
 50
90.50000000001762
 51
180.0
  0
LINE
  5
234C
330
2
100
AcDbEntity
  8
0
100
AcDbLine
 10
434.2004726400074
 20
210.8078544428641
 30
0.0
 11
432.2004726400074
 21
210.8078544428641
 31
0.0
  0
LINE
  5
234D
330
2
100
AcDbEntity
  8
0
100
AcDbLine
 10
427.7004726401484
 20
212.1812387031273
 30
0.0
 11
427.7004726401484
 21
210.8078544428641
 31
0.0
  0
ARC
  5
234E
330
2
100
AcDbEntity
  8
0
100
AcDbCircle
 10
429.7004726401484
 20
212.1812387031273
 30
0.0
 40
2.0
100
AcDbArc
 50
90.49999999996552
 51
180.0
  0
LINE
  5
234F
330
2
100
AcDbEntity
  8
0
100
AcDbLine
 10
424.7004726400074
 20
210.8078544428641
 30
0.0
 11
424.2004726400073
 21
209.94182903908
 31
0.0
  0
LINE
  5
2350
330
2
100
AcDbEntity
  8
0
100
AcDbLine
 10
432.2004726400074
 20
210.8078544428641
 30
0.0
 11
424.7004726400074
 21
210.8078544428641
 31
0.0
  0
LINE
  5
2351
330
2
100
AcDbEntity
  8
0
100
AcDbLine
 10
444.2004726401511
 20
214.3078544428641
 30
0.0
 11
429.6830195691519
 21
214.1811625492552
 31
0.0
  0
LINE
  5
2352
330
2
100
AcDbEntity
  8
0
100
AcDbLine
 10
539.7004726401489
 20
116.239231992478
 30
0.0
 11
539.7004726401489
 21
192.3764768932502
 31
0.0
  0
LINE
  5
2353
330
2
100
AcDbEntity
  8
0
100
AcDbLine
 10
520.7004726401488
 20
94.97545982885606
 30
0.0
 11
520.700472640147
 21
213.6402490568704
 31
0.0
  0
LINE
  5
2354
330
2
100
AcDbEntity
  8
0
100
AcDbLine
 10
525.7004726401488
 20
99.30785444286232
 30
0.0
 11
525.7004726401488
 21
209.3078544428623
 31
0.0
  0
LINE
  5
2355
330
2
100
AcDbEntity
  8
0
100
AcDbLine
 10
540.7004726401488
 20
175.5191793082693
 30
0.0
 11
540.7004726401488
 21
133.0965295774589
 31
0.0
  0
LINE
  5
2356
330
2
100
AcDbEntity
  8
0
100
AcDbLine
 10
525.7004726401488
 20
99.30785444286232
 30
0.0
 11
520.7004726401488
 21
99.30785444286232
 31
0.0
  0
ARC
  5
2357
330
2
100
AcDbEntity
  8
0
100
AcDbCircle
 10
537.7004726401488
 20
116.239231992478
 30
0.0
 40
2.0
100
AcDbArc
 50
272.0000000000037
 51
0.0
  0
ARC
  5
2358
330
2
100
AcDbEntity
  8
0
100
AcDbCircle
 10
527.7004726401488
 20
111.8875861203665
 30
0.0
 40
2.0
100
AcDbArc
 50
92.0000000000037
 51
180.0
  0
LINE
  5
2359
330
2
100
AcDbEntity
  8
0
100
AcDbLine
 10
527.6306736467437
 20
113.8863677744044
 30
0.0
 11
537.770271633554
 21
114.2404503384401
 31
0.0
  0
ARC
  5
235A
330
2
100
AcDbEntity
  8
0
100
AcDbCircle
 10
540.2004726401488
 20
133.0965295774589
 30
0.0
 40
0.5
100
AcDbArc
 50
300.0000000000005
 51
0.0
  0
ARC
  5
235B
330
2
100
AcDbEntity
  8
0
100
AcDbCircle
 10
539.2985488515029
 20
134.3078544428641
 30
0.0
 40
2.0
100
AcDbArc
 50
281.593213623511
 51
300.0000000000005
  0
LINE
  5
235C
330
2
100
AcDbEntity
  8
0
100
AcDbLine
 10
540.2985488515029
 20
132.5758036352953
 30
0.0
 11
540.4504726401488
 21
132.6635168755666
 31
0.0
  0
LINE
  5
235D
330
2
100
AcDbEntity
  8
0
100
AcDbLine
 10
586.2004726401488
 20
168.3078544428641
 30
0.0
 11
541.7004726401488
 21
168.3078544428641
 31
0.0
  0
LINE
  5
235E
330
2
100
AcDbEntity
  8
0
100
AcDbLine
 10
541.7004726401488
 20
140.3078544428641
 30
0.0
 11
586.2004726401488
 21
140.3078544428641
 31
0.0
  0
LINE
  5
235F
330
2
100
AcDbEntity
  8
0
100
AcDbLine
 10
541.7004726401488
 20
169.3078544428641
 30
0.0
 11
541.7004726401488
 21
139.3078544428641
 31
0.0
  0
LINE
  5
2360
330
2
100
AcDbEntity
  8
0
100
AcDbLine
 10
541.7004726401488
 20
139.3078544428641
 30
0.0
 11
540.7004726401488
 21
138.7305041736743
 31
0.0
  0
LINE
  5
2361
330
2
100
AcDbEntity
  8
0
100
AcDbLine
 10
541.7004726401488
 20
169.3078544428641
 30
0.0
 11
540.7004726401488
 21
169.8852047120539
 31
0.0
  0
ARC
  5
2362
330
2
100
AcDbEntity
  8
0
100
AcDbCircle
 10
540.2004726401488
 20
175.5191793082693
 30
0.0
 40
0.5
100
AcDbArc
 50
0.0
 51
59.99999999999946
  0
ARC
  5
2363
330
2
100
AcDbEntity
  8
0
100
AcDbCircle
 10
539.2985488515029
 20
174.3078544428641
 30
0.0
 40
2.0
100
AcDbArc
 50
59.99999999999946
 51
78.40678637648899
  0
LINE
  5
2364
330
2
100
AcDbEntity
  8
0
100
AcDbLine
 10
540.2985488515029
 20
176.0399052504329
 30
0.0
 11
540.4504726401488
 21
175.9521920101616
 31
0.0
  0
LINE
  5
2365
330
2
100
AcDbEntity
  8
0
100
AcDbLine
 10
525.7004726401488
 20
209.3078544428623
 30
0.0
 11
520.7004726401488
 21
209.3078544428623
 31
0.0
  0
ARC
  5
2366
330
2
100
AcDbEntity
  8
0
100
AcDbCircle
 10
537.7004726401488
 20
192.3764768932502
 30
0.0
 40
2.0
100
AcDbArc
 50
0.0
 51
87.99999999999627
  0
ARC
  5
2367
330
2
100
AcDbEntity
  8
0
100
AcDbCircle
 10
527.7004726401488
 20
196.7281227653635
 30
0.0
 40
2.0
100
AcDbArc
 50
180.0
 51
267.9999999999963
  0
LINE
  5
2368
330
2
100
AcDbEntity
  8
0
100
AcDbLine
 10
527.6306736467437
 20
194.7293411113256
 30
0.0
 11
537.770271633554
 21
194.3752585472881
 31
0.0
  0
LINE
  5
2369
330
2
100
AcDbEntity
  8
0
100
AcDbLine
 10
586.7004726401488
 20
140.8078544428641
 30
0.0
 11
586.7004726401488
 21
167.8078544428641
 31
0.0
  0
LINE
  5
236A
330
2
100
AcDbEntity
  8
0
100
AcDbLine
 10
586.2004726401488
 20
168.3078544428641
 30
0.0
 11
586.2004726401488
 21
140.3078544428641
 31
0.0
  0
LINE
  5
236B
330
2
100
AcDbEntity
  8
0
100
AcDbLine
 10
586.7004726401488
 20
140.8078544428641
 30
0.0
 11
586.2004726401488
 21
140.3078544428641
 31
0.0
  0
LINE
  5
236C
330
2
100
AcDbEntity
  8
0
100
AcDbLine
 10
586.2004726401488
 20
168.3078544428641
 30
0.0
 11
586.7004726401488
 21
167.8078544428641
 31
0.0
  0
LINE
  5
236E
330
2
100
AcDbEntity
  8
CENTER
100
AcDbLine
 10
814.0134616127488
 20
69.30785444286607
 30
0.0
 11
814.0134616127486
 21
239.307854442866
 31
0.0
  0
CIRCLE
  5
236F
330
2
100
AcDbEntity
  8
CENTER
100
AcDbCircle
 10
814.013461612747
 20
154.307854442866
 30
0.0
 40
70.0
  0
ARC
  5
2371
330
2
100
AcDbEntity
  8
0
100
AcDbCircle
 10
942.4234616126833
 20
190.3078544428642
 30
0.0
 40
5.0
100
AcDbArc
 50
270.0
 51
0.0
  0
ARC
  5
2372
330
2
100
AcDbEntity
  8
0
100
AcDbCircle
 10
942.4234616126833
 20
118.3078544428642
 30
0.0
 40
5.0
100
AcDbArc
 50
0.0
 51
90.0
  0
LINE
  5
2373
330
2
100
AcDbEntity
  8
CENTER
100
AcDbLine
 10
878.155597236479
 20
90.16571881913614
 30
0.0
 11
749.8713259890162
 21
218.449990066597
 31
0.0
  0
LINE
  5
2374
330
2
100
AcDbEntity
  8
CENTER
100
AcDbLine
 10
749.871325989018
 20
90.1657188191333
 30
0.0
 11
878.1555972364808
 21
218.4499900665942
 31
0.0
  0
CIRCLE
  5
2375
330
2
100
AcDbEntity
  8
0
100
AcDbCircle
 10
814.0134616127488
 20
154.3078544428642
 30
0.0
 40
22.00000000000181
  0
CIRCLE
  5
2376
330
2
100
AcDbEntity
  8
0
100
AcDbCircle
 10
814.0134616127488
 20
154.3078544428642
 30
0.0
 40
15.57735026919158
  0
CIRCLE
  5
2377
330
2
100
AcDbEntity
  8
0
100
AcDbCircle
 10
814.0134616127488
 20
154.3078544428642
 30
0.0
 40
15.00000000000182
  0
CIRCLE
  5
2378
330
2
100
AcDbEntity
  8
0
100
AcDbCircle
 10
814.0134616127488
 20
154.3078544428642
 30
0.0
 40
14.00000000000181
  0
ARC
  5
2379
330
2
100
AcDbEntity
  8
0
100
AcDbCircle
 10
814.0134616127488
 20
-35.69214555713392
 30
0.0
 40
250.0
100
AcDbArc
 50
84.72039671760308
 51
95.27960328239691
  0
ARC
  5
237A
330
2
100
AcDbEntity
  8
0
100
AcDbCircle
 10
814.0134616127435
 20
344.307854442866
 30
0.0
 40
250.0
100
AcDbArc
 50
264.7203967176031
 51
275.2796032823969
  0
CIRCLE
  5
237C
330
2
100
AcDbEntity
  8
0
100
AcDbCircle
 10
814.013461612747
 20
154.307854442866
 30
0.0
 40
55.0
  0
CIRCLE
  5
237D
330
2
100
AcDbEntity
  8
0
100
AcDbCircle
 10
814.013461612747
 20
154.307854442866
 30
0.0
 40
32.5
  0
CIRCLE
  5
237E
330
2
100
AcDbEntity
  8
0
100
AcDbCircle
 10
814.013461612747
 20
154.307854442866
 30
0.0
 40
40.0
  0
ARC
  5
237F
330
2
100
AcDbEntity
  8
0
100
AcDbCircle
 10
1004.013461612747
 20
154.307854442866
 30
0.0
 40
250.0
100
AcDbArc
 50
174.7203967175508
 51
185.2796032824491
  0
CIRCLE
  5
2380
330
2
100
AcDbEntity
  8
0
100
AcDbCircle
 10
764.5159869296894
 20
104.8103797598084
 30
0.0
 40
3.2
  0
CIRCLE
  5
2381
330
2
100
AcDbEntity
  8
HOJO
100
AcDbCircle
 10
764.5159869296894
 20
104.8103797598084
 30
0.0
 40
4.0
  0
LINE
  5
2382
330
2
100
AcDbEntity
  8
CENTER
100
AcDbLine
 10
755.5159869296894
 20
104.8103797598066
 30
0.0
 11
773.5159869296894
 21
104.8103797598066
 31
0.0
  0
LINE
  5
2383
330
2
100
AcDbEntity
  8
0
100
AcDbLine
 10
764.013461612747
 20
94.30785444286607
 30
0.0
 11
768.0134616127525
 21
94.30785444286607
 31
0.0
  0
ARC
  5
2384
330
2
100
AcDbEntity
  8
0
100
AcDbCircle
 10
764.013461612747
 20
104.307854442866
 30
0.0
 40
10.0
100
AcDbArc
 50
180.0
 51
270.0
  0
LINE
  5
2385
330
2
100
AcDbEntity
  8
0
100
AcDbLine
 10
754.013461612747
 20
104.307854442866
 30
0.0
 11
754.013461612747
 21
108.3078544428697
 31
0.0
  0
ARC
  5
2386
330
2
100
AcDbEntity
  8
0
100
AcDbCircle
 10
762.0134616127471
 20
108.3078544428697
 30
0.0
 40
8.0
100
AcDbArc
 50
169.7661103968432
 51
180.0
  0
LINE
  5
2387
330
2
100
AcDbEntity
  8
CENTER
100
AcDbLine
 10
764.5159869296894
 20
113.8103797598048
 30
0.0
 11
764.5159869296894
 21
95.81037975980484
 31
0.0
  0
ARC
  5
2388
330
2
100
AcDbEntity
  8
0
100
AcDbCircle
 10
675.4134806448291
 20
123.9425369262587
 30
0.0
 40
80.0
100
AcDbArc
 50
349.7661103968432
 51
5.279603282449114
  0
ARC
  5
2389
330
2
100
AcDbEntity
  8
0
100
AcDbCircle
 10
783.6481440961433
 20
15.7078734749482
 30
0.0
 40
80.0
100
AcDbArc
 50
84.72039671760308
 51
100.2338896031036
  0
ARC
  5
238A
330
2
100
AcDbEntity
  8
0
100
AcDbCircle
 10
768.0134616127525
 20
102.3078544428642
 30
0.0
 40
8.0
100
AcDbArc
 50
270.0
 51
280.2338896031037
  0
ARC
  5
238B
330
2
100
AcDbEntity
  8
0
100
AcDbCircle
 10
675.4134806448291
 20
184.6731719594752
 30
0.0
 40
80.0
100
AcDbArc
 50
354.7203967175509
 51
10.23388960315672
  0
LINE
  5
238C
330
2
100
AcDbEntity
  8
0
100
AcDbLine
 10
764.013461612747
 20
214.307854442866
 30
0.0
 11
768.0134616127507
 21
214.307854442866
 31
0.0
  0
CIRCLE
  5
238D
330
2
100
AcDbEntity
  8
HOJO
100
AcDbCircle
 10
764.5159869296894
 20
203.8053291259255
 30
0.0
 40
4.0
  0
CIRCLE
  5
238E
330
2
100
AcDbEntity
  8
0
100
AcDbCircle
 10
764.5159869296894
 20
203.8053291259255
 30
0.0
 40
3.2
  0
LINE
  5
238F
330
2
100
AcDbEntity
  8
CENTER
100
AcDbLine
 10
755.5159869296894
 20
203.8053291259236
 30
0.0
 11
773.5159869296894
 21
203.8053291259236
 31
0.0
  0
ARC
  5
2390
330
2
100
AcDbEntity
  8
0
100
AcDbCircle
 10
762.0134616127471
 20
200.3078544428624
 30
0.0
 40
8.0
100
AcDbArc
 50
180.0
 51
190.2338896031567
  0
LINE
  5
2391
330
2
100
AcDbEntity
  8
0
100
AcDbLine
 10
754.013461612747
 20
200.3078544428624
 30
0.0
 11
754.013461612747
 21
204.307854442866
 31
0.0
  0
ARC
  5
2392
330
2
100
AcDbEntity
  8
0
100
AcDbCircle
 10
764.013461612747
 20
204.307854442866
 30
0.0
 40
10.0
100
AcDbArc
 50
90.0
 51
180.0
  0
LINE
  5
2393
330
2
100
AcDbEntity
  8
CENTER
100
AcDbLine
 10
764.5159869296894
 20
194.8053291259236
 30
0.0
 11
764.5159869296894
 21
212.8053291259236
 31
0.0
  0
ARC
  5
2394
330
2
100
AcDbEntity
  8
0
100
AcDbCircle
 10
783.6481440961397
 20
292.9078354107821
 30
0.0
 40
80.0
100
AcDbArc
 50
259.7661103968963
 51
275.2796032823969
  0
ARC
  5
2395
330
2
100
AcDbEntity
  8
0
100
AcDbCircle
 10
768.0134616127507
 20
206.307854442866
 30
0.0
 40
8.0
100
AcDbArc
 50
79.76611039689631
 51
90.0
  0
LINE
  5
2396
330
2
100
AcDbEntity
  8
0
100
AcDbLine
 10
935.9758334558719
 20
182.3078544428678
 30
0.0
 11
935.9758334557936
 21
126.3078544428678
 31
0.0
  0
LINE
  5
2397
330
2
100
AcDbEntity
  8
0
100
AcDbLine
 10
874.013461612747
 20
104.307854442866
 30
0.0
 11
874.013461612747
 21
204.307854442866
 31
0.0
  0
LINE
  5
2398
330
2
100
AcDbEntity
  8
0
100
AcDbLine
 10
917.5134616127506
 20
119.307854442866
 30
0.0
 11
917.5134616127452
 21
189.307854442866
 31
0.0
  0
ARC
  5
2399
330
2
100
AcDbEntity
  8
0
100
AcDbCircle
 10
864.013461612747
 20
104.307854442866
 30
0.0
 40
10.0
100
AcDbArc
 50
270.0
 51
0.0
  0
ARC
  5
239A
330
2
100
AcDbEntity
  8
0
100
AcDbCircle
 10
881.9856623683589
 20
103.3078544428624
 30
0.0
 40
8.0
100
AcDbArc
 50
90.0
 51
176.8152614633259
  0
ARC
  5
239B
330
2
100
AcDbEntity
  8
0
100
AcDbCircle
 10
844.3787791293489
 20
15.7078734749482
 30
0.0
 40
80.0
100
AcDbArc
 50
79.76611039689631
 51
95.27960328239691
  0
LINE
  5
239C
330
2
100
AcDbEntity
  8
0
100
AcDbLine
 10
818.2752311211825
 20
102.3078544428533
 30
0.0
 11
821.1552323625127
 21
102.3078544428533
 31
0.0
  0
LINE
  5
239D
330
2
100
AcDbEntity
  8
0
100
AcDbLine
 10
819.1681634826581
 20
105.4304816412457
 30
0.0
 11
821.1552323625127
 21
102.3078544428533
 31
0.0
  0
ARC
  5
239E
330
2
100
AcDbEntity
  8
0
100
AcDbCircle
 10
817.5116181029988
 20
107.5878544428612
 30
0.0
 40
2.720000000003957
100
AcDbArc
 50
307.5189678668038
 51
90.0
  0
LINE
  5
239F
330
2
100
AcDbEntity
  8
0
100
AcDbLine
 10
810.8716908629885
 20
110.3078544428642
 30
0.0
 11
817.5116181029988
 21
110.3078544428642
 31
0.0
  0
ARC
  5
23A0
330
2
100
AcDbEntity
  8
0
100
AcDbCircle
 10
817.3416908629988
 20
107.4178544428612
 30
0.0
 40
0.1700000000002474
100
AcDbArc
 50
270.0
 51
90.0
  0
LINE
  5
23A1
330
2
100
AcDbEntity
  8
0
100
AcDbLine
 10
815.1316908629942
 20
107.2478544428593
 30
0.0
 11
817.3416908629988
 21
107.2478544428593
 31
0.0
  0
LINE
  5
23A2
330
2
100
AcDbEntity
  8
0
100
AcDbLine
 10
814.7916181029941
 20
107.5878544428612
 30
0.0
 11
817.341690862997
 21
107.5878544428612
 31
0.0
  0
LINE
  5
23A3
330
2
100
AcDbEntity
  8
0
100
AcDbLine
 10
814.7916181029941
 20
107.5878544428612
 30
0.0
 11
814.7916181029941
 21
102.3078544428533
 31
0.0
  0
LINE
  5
23A4
330
2
100
AcDbEntity
  8
0
100
AcDbLine
 10
815.1316908629942
 20
107.2478544428593
 30
0.0
 11
818.2752311211825
 21
102.3078544428533
 31
0.0
  0
LINE
  5
23A5
330
2
100
AcDbEntity
  8
0
100
AcDbLine
 10
812.3916908629908
 20
107.5878519602044
 30
0.0
 11
811.631692104318
 21
106.0678544428572
 31
0.0
  0
LINE
  5
23A6
330
2
100
AcDbEntity
  8
0
100
AcDbLine
 10
812.3916908629908
 20
107.5878519602044
 30
0.0
 11
812.3916908629908
 21
106.067854442859
 31
0.0
  0
LINE
  5
23A7
330
2
100
AcDbEntity
  8
0
100
AcDbLine
 10
811.631692104318
 20
106.0678544428572
 30
0.0
 11
812.3916908629908
 21
106.067854442859
 31
0.0
  0
LINE
  5
23A8
330
2
100
AcDbEntity
  8
0
100
AcDbLine
 10
812.3916908629908
 20
103.507854442854
 30
0.0
 11
812.3916908629908
 21
102.3078544428533
 31
0.0
  0
LINE
  5
23A9
330
2
100
AcDbEntity
  8
0
100
AcDbLine
 10
810.3516921043155
 20
103.5078544428558
 30
0.0
 11
812.3916908629908
 21
103.507854442854
 31
0.0
  0
LINE
  5
23AA
330
2
100
AcDbEntity
  8
0
100
AcDbLine
 10
810.3516921043155
 20
103.5078544428558
 30
0.0
 11
809.7516921043151
 21
102.3078544428533
 31
0.0
  0
LINE
  5
23AB
330
2
100
AcDbEntity
  8
0
100
AcDbLine
 10
812.3916908629908
 20
102.3078544428533
 30
0.0
 11
814.7916181029941
 21
102.3078544428533
 31
0.0
  0
LINE
  5
23AC
330
2
100
AcDbEntity
  8
0
100
AcDbLine
 10
810.8716908629885
 20
110.3078544428642
 30
0.0
 11
806.8716908629831
 21
102.3078544428533
 31
0.0
  0
LINE
  5
23AD
330
2
100
AcDbEntity
  8
0
100
AcDbLine
 10
806.8716908629831
 20
102.3078544428533
 30
0.0
 11
809.7516921043151
 21
102.3078544428533
 31
0.0
  0
LINE
  5
23AE
330
2
100
AcDbEntity
  8
CENTER
100
AcDbLine
 10
872.5109362958065
 20
104.8103797598084
 30
0.0
 11
854.5109362958065
 21
104.8103797598084
 31
0.0
  0
LINE
  5
23AF
330
2
100
AcDbEntity
  8
CENTER
100
AcDbLine
 10
863.5109362958065
 20
113.8103797598084
 30
0.0
 11
863.5109362958065
 21
95.81037975980848
 31
0.0
  0
ARC
  5
23B0
330
2
100
AcDbEntity
  8
0
100
AcDbCircle
 10
860.0134616127434
 20
102.3078544428642
 30
0.0
 40
8.0
100
AcDbArc
 50
259.7661103968963
 51
270.0
  0
CIRCLE
  5
23B1
330
2
100
AcDbEntity
  8
0
100
AcDbCircle
 10
863.5109362958065
 20
104.8103797598084
 30
0.0
 40
3.2
  0
LINE
  5
23B2
330
2
100
AcDbEntity
  8
0
100
AcDbLine
 10
860.0134616127434
 20
94.30785444286607
 30
0.0
 11
864.013461612747
 21
94.30785444286607
 31
0.0
  0
CIRCLE
  5
23B3
330
2
100
AcDbEntity
  8
HOJO
100
AcDbCircle
 10
863.5109362958065
 20
104.8103797598084
 30
0.0
 40
4.0
  0
LINE
  5
23B4
330
2
100
AcDbEntity
  8
0
100
AcDbLine
 10
909.5134616127507
 20
111.307854442866
 30
0.0
 11
881.9508527273992
 21
111.307854442866
 31
0.0
  0
ARC
  5
23B5
330
2
100
AcDbEntity
  8
0
100
AcDbCircle
 10
938.9758334557937
 20
126.3078544428642
 30
0.0
 40
3.0
100
AcDbArc
 50
179.9999999998957
 51
270.0
  0
ARC
  5
23B6
330
2
100
AcDbEntity
  8
0
100
AcDbCircle
 10
934.1024362833886
 20
122.8078544428642
 30
0.0
 40
3.0
100
AcDbArc
 50
35.68533471271784
 51
90.0
  0
LINE
  5
23B7
330
2
100
AcDbEntity
  8
0
100
AcDbLine
 10
922.5134616127506
 20
130.8078544428642
 30
0.0
 11
930.9914737444579
 21
130.8078544428642
 31
0.0
  0
ARC
  5
23B8
330
2
100
AcDbEntity
  8
0
100
AcDbCircle
 10
920.5134616127507
 20
122.8078544428642
 30
0.0
 40
3.0
100
AcDbArc
 50
90.0
 51
180.0
  0
ARC
  5
23B9
330
2
100
AcDbEntity
  8
0
100
AcDbCircle
 10
922.5134616127506
 20
125.8078544428642
 30
0.0
 40
5.0
100
AcDbArc
 50
90.0
 51
180.0
  0
LINE
  5
23BA
330
2
100
AcDbEntity
  8
0
100
AcDbLine
 10
920.5134616127507
 20
125.8078544428642
 30
0.0
 11
934.1024362833886
 21
125.8078544428642
 31
0.0
  0
ARC
  5
23BB
330
2
100
AcDbEntity
  8
0
100
AcDbCircle
 10
930.9914737444579
 20
125.8078544428642
 30
0.0
 40
5.0
100
AcDbArc
 50
3.583321698471883
 51
90.0
  0
LINE
  5
23BC
330
2
100
AcDbEntity
  8
0
100
AcDbLine
 10
938.9758334557937
 20
123.3078544428642
 30
0.0
 11
942.4234616126833
 21
123.3078544428642
 31
0.0
  0
ARC
  5
23BD
330
2
100
AcDbEntity
  8
0
100
AcDbCircle
 10
909.5134616127507
 20
119.307854442866
 30
0.0
 40
8.0
100
AcDbArc
 50
270.0
 51
0.0
  0
ARC
  5
23BE
330
2
100
AcDbEntity
  8
0
100
AcDbCircle
 10
881.9856623683589
 20
205.307854442866
 30
0.0
 40
8.0
100
AcDbArc
 50
183.184738536674
 51
270.0
  0
ARC
  5
23BF
330
2
100
AcDbEntity
  8
0
100
AcDbCircle
 10
864.013461612747
 20
204.307854442866
 30
0.0
 40
10.0
100
AcDbArc
 50
0.0
 51
90.0
  0
ARC
  5
23C0
330
2
100
AcDbEntity
  8
0
100
AcDbCircle
 10
844.3787791293562
 20
292.9078354107821
 30
0.0
 40
80.0
100
AcDbArc
 50
264.7203967176031
 51
280.2338896031037
  0
ARC
  5
23C1
330
2
100
AcDbEntity
  8
0
100
AcDbCircle
 10
860.0134616127451
 20
206.307854442866
 30
0.0
 40
8.0
100
AcDbArc
 50
90.0
 51
100.2338896031036
  0
LINE
  5
23C2
330
2
100
AcDbEntity
  8
0
100
AcDbLine
 10
860.0134616127451
 20
214.307854442866
 30
0.0
 11
864.013461612747
 21
214.307854442866
 31
0.0
  0
LINE
  5
23C3
330
2
100
AcDbEntity
  8
CENTER
100
AcDbLine
 10
872.5109362958082
 20
203.8053291259218
 30
0.0
 11
854.5109362958083
 21
203.8053291259218
 31
0.0
  0
CIRCLE
  5
23C4
330
2
100
AcDbEntity
  8
HOJO
100
AcDbCircle
 10
863.5109362958065
 20
203.8053291259255
 30
0.0
 40
4.0
  0
CIRCLE
  5
23C5
330
2
100
AcDbEntity
  8
0
100
AcDbCircle
 10
863.5109362958065
 20
203.8053291259255
 30
0.0
 40
3.2
  0
LINE
  5
23C6
330
2
100
AcDbEntity
  8
CENTER
100
AcDbLine
 10
863.5109362958083
 20
194.8053291259236
 30
0.0
 11
863.5109362958083
 21
212.8053291259236
 31
0.0
  0
ARC
  5
23C7
330
2
100
AcDbEntity
  8
0
100
AcDbCircle
 10
922.5134616127451
 20
182.8078544428642
 30
0.0
 40
5.0
100
AcDbArc
 50
180.0
 51
270.0
  0
ARC
  5
23C8
330
2
100
AcDbEntity
  8
0
100
AcDbCircle
 10
930.991473744536
 20
182.8078544428642
 30
0.0
 40
5.0
100
AcDbArc
 50
270.0
 51
356.4166783015281
  0
LINE
  5
23C9
330
2
100
AcDbEntity
  8
0
100
AcDbLine
 10
922.5134616127451
 20
177.8078544428642
 30
0.0
 11
930.991473744536
 21
177.8078544428642
 31
0.0
  0
ARC
  5
23CA
330
2
100
AcDbEntity
  8
0
100
AcDbCircle
 10
932.9758334558263
 20
148.8078544428642
 30
0.0
 40
3.0
100
AcDbArc
 50
359.9999999998958
 51
90.0
  0
ARC
  5
23CB
330
2
100
AcDbEntity
  8
0
100
AcDbCircle
 10
932.9758334558409
 20
159.8078544428642
 30
0.0
 40
3.0
100
AcDbArc
 50
270.0
 51
359.9999999998958
  0
ARC
  5
23CC
330
2
100
AcDbEntity
  8
0
100
AcDbCircle
 10
920.513461612747
 20
159.8078544428642
 30
0.0
 40
3.0
100
AcDbArc
 50
180.0
 51
270.0
  0
ARC
  5
23CD
330
2
100
AcDbEntity
  8
0
100
AcDbCircle
 10
920.5134616127489
 20
148.8078544428642
 30
0.0
 40
3.0
100
AcDbArc
 50
90.0
 51
180.0
  0
LINE
  5
23CE
330
2
100
AcDbEntity
  8
0
100
AcDbLine
 10
920.513461612747
 20
156.8078544428642
 30
0.0
 11
932.9758334558409
 21
156.8078544428642
 31
0.0
  0
LINE
  5
23CF
330
2
100
AcDbEntity
  8
0
100
AcDbLine
 10
920.5134616127489
 20
151.8078544428642
 30
0.0
 11
932.9758334558263
 21
151.8078544428642
 31
0.0
  0
LINE
  5
23D0
330
2
100
AcDbEntity
  8
0
100
AcDbLine
 10
909.5134616127452
 20
197.307854442866
 30
0.0
 11
881.9856623683589
 21
197.307854442866
 31
0.0
  0
ARC
  5
23D1
330
2
100
AcDbEntity
  8
0
100
AcDbCircle
 10
938.9758334558718
 20
182.3078544428642
 30
0.0
 40
3.0
100
AcDbArc
 50
90.0
 51
176.4166783015281
  0
ARC
  5
23D2
330
2
100
AcDbEntity
  8
0
100
AcDbCircle
 10
934.1024362834669
 20
185.8078544428642
 30
0.0
 40
3.0
100
AcDbArc
 50
270.0
 51
324.3146652872821
  0
ARC
  5
23D3
330
2
100
AcDbEntity
  8
0
100
AcDbCircle
 10
920.5134616127452
 20
185.8078544428642
 30
0.0
 40
3.0
100
AcDbArc
 50
180.0
 51
270.0
  0
ARC
  5
23D4
330
2
100
AcDbEntity
  8
0
100
AcDbCircle
 10
909.5134616127452
 20
189.307854442866
 30
0.0
 40
8.0
100
AcDbArc
 50
0.0
 51
90.0
  0
LINE
  5
23D5
330
2
100
AcDbEntity
  8
0
100
AcDbLine
 10
920.5134616127452
 20
182.8078544428642
 30
0.0
 11
934.1024362834669
 21
182.8078544428642
 31
0.0
  0
LINE
  5
23D6
330
2
100
AcDbEntity
  8
0
100
AcDbLine
 10
938.9758334558718
 20
185.3078544428642
 30
0.0
 11
942.4234616126833
 21
185.3078544428642
 31
0.0
  0
LINE
  5
23DA
330
2
100
AcDbEntity
  8
0
100
AcDbLine
 10
1219.964299538717
 20
133.096529577451
 30
0.0
 11
1219.964299538717
 21
175.519179308261
 31
0.0
  0
LINE
  5
23DC
330
2
100
AcDbEntity
  8
0
100
AcDbLine
 10
947.4234616127487
 20
193.807854442866
 30
0.0
 11
947.4234616127487
 21
114.807854442866
 31
0.0
  0
ARC
  5
23DE
330
2
100
AcDbEntity
  8
0
100
AcDbCircle
 10
949.4234616127487
 20
114.807854442866
 30
0.0
 40
2.0
100
AcDbArc
 50
180.0
 51
270.0
  0
LINE
  5
23DF
330
2
100
AcDbEntity
  8
0
100
AcDbLine
 10
959.4234616127486
 20
112.807854442866
 30
0.0
 11
949.4234616127487
 21
112.807854442866
 31
0.0
  0
LINE
  5
23E0
330
2
100
AcDbEntity
  8
0
100
AcDbLine
 10
959.4234616127486
 20
113.307854442866
 30
0.0
 11
949.4234616127487
 21
113.307854442866
 31
0.0
  0
ARC
  5
23E1
330
2
100
AcDbEntity
  8
0
100
AcDbCircle
 10
949.4234616127487
 20
115.307854442866
 30
0.0
 40
2.0
100
AcDbArc
 50
180.0
 51
270.0
  0
LINE
  5
23E2
330
2
100
AcDbEntity
  8
0
100
AcDbLine
 10
1220.366223327363
 20
132.575803635287
 30
0.0
 11
1220.214299538717
 21
132.6635168755581
 31
0.0
  0
ARC
  5
23E3
330
2
100
AcDbEntity
  8
0
100
AcDbCircle
 10
1221.366223327363
 20
134.307854442856
 30
0.0
 40
2.0
100
AcDbArc
 50
239.9999999999994
 51
258.4067863765158
  0
ARC
  5
23E4
330
2
100
AcDbEntity
  8
0
100
AcDbCircle
 10
1220.464299538717
 20
133.096529577451
 30
0.0
 40
0.5
100
AcDbArc
 50
180.0
 51
239.9999999999994
  0
ARC
  5
23E6
330
2
100
AcDbEntity
  8
0
100
AcDbCircle
 10
949.4234616127487
 20
193.807854442866
 30
0.0
 40
2.0
100
AcDbArc
 50
90.0
 51
180.0
  0
LINE
  5
23E7
330
2
100
AcDbEntity
  8
0
100
AcDbLine
 10
949.4234616127487
 20
195.807854442866
 30
0.0
 11
959.4234616127486
 21
195.807854442866
 31
0.0
  0
LINE
  5
23E8
330
2
100
AcDbEntity
  8
0
100
AcDbLine
 10
949.4234616127487
 20
195.307854442866
 30
0.0
 11
959.4234616127486
 21
195.307854442866
 31
0.0
  0
ARC
  5
23E9
330
2
100
AcDbEntity
  8
0
100
AcDbCircle
 10
949.4234616127487
 20
193.307854442866
 30
0.0
 40
2.0
100
AcDbArc
 50
90.0
 51
180.0
  0
LINE
  5
23EA
330
2
100
AcDbEntity
  8
0
100
AcDbLine
 10
1218.964299538717
 20
168.307854442856
 30
0.0
 11
1174.464299538717
 21
168.307854442856
 31
0.0
  0
LINE
  5
23EB
330
2
100
AcDbEntity
  8
0
100
AcDbLine
 10
1174.464299538717
 20
140.307854442856
 30
0.0
 11
1218.964299538717
 21
140.307854442856
 31
0.0
  0
LINE
  5
23EC
330
2
100
AcDbEntity
  8
0
100
AcDbLine
 10
1173.964299538717
 20
167.807854442856
 30
0.0
 11
1174.464299538717
 21
168.307854442856
 31
0.0
  0
LINE
  5
23ED
330
2
100
AcDbEntity
  8
0
100
AcDbLine
 10
1174.464299538717
 20
140.307854442856
 30
0.0
 11
1173.964299538717
 21
140.807854442856
 31
0.0
  0
LINE
  5
23EE
330
2
100
AcDbEntity
  8
0
100
AcDbLine
 10
1174.464299538717
 20
140.307854442856
 30
0.0
 11
1174.464299538717
 21
168.307854442856
 31
0.0
  0
LINE
  5
23EF
330
2
100
AcDbEntity
  8
0
100
AcDbLine
 10
1173.964299538717
 20
167.807854442856
 30
0.0
 11
1173.964299538717
 21
140.807854442856
 31
0.0
  0
LINE
  5
23F0
330
2
100
AcDbEntity
  8
0
100
AcDbLine
 10
1220.366223327363
 20
176.0399052504251
 30
0.0
 11
1220.214299538717
 21
175.952192010154
 31
0.0
  0
LINE
  5
23F1
330
2
100
AcDbEntity
  8
0
100
AcDbLine
 10
1218.964299538717
 20
169.307854442856
 30
0.0
 11
1219.964299538717
 21
169.885204712046
 31
0.0
  0
ARC
  5
23F2
330
2
100
AcDbEntity
  8
0
100
AcDbCircle
 10
1221.366223327363
 20
174.307854442856
 30
0.0
 40
2.0
100
AcDbArc
 50
101.5932136234841
 51
120.0000000000005
  0
ARC
  5
23F3
330
2
100
AcDbEntity
  8
0
100
AcDbCircle
 10
1220.464299538717
 20
175.519179308261
 30
0.0
 40
0.5
100
AcDbArc
 50
120.0000000000005
 51
180.0
  0
LINE
  5
23F4
330
2
100
AcDbEntity
  8
0
100
AcDbLine
 10
1218.964299538717
 20
139.307854442856
 30
0.0
 11
1219.964299538717
 21
138.730504173666
 31
0.0
  0
LINE
  5
23F5
330
2
100
AcDbEntity
  8
0
100
AcDbLine
 10
1218.964299538717
 20
139.307854442856
 30
0.0
 11
1218.964299538717
 21
169.307854442856
 31
0.0
  0
ARC
  5
247C
330
2
100
AcDbEntity
  8
0
100
AcDbCircle
 10
942.2908180425151
 20
567.6975102207778
 30
0.0
 40
5.0
100
AcDbArc
 50
270.0
 51
358.4999999999059
  0
ARC
  5
247D
330
2
100
AcDbEntity
  8
0
100
AcDbCircle
 10
942.2908180423805
 20
495.6975102207779
 30
0.0
 40
5.0
100
AcDbArc
 50
1.499999999989714
 51
90.0
  0
LINE
  5
247E
330
2
100
AcDbEntity
  8
CENTER
100
AcDbLine
 10
814.0134616127509
 20
605.1975102261547
 30
0.0
 11
814.0134616127509
 21
405.6975102207778
 31
0.0
  0
LINE
  5
247F
330
2
100
AcDbEntity
  8
0
100
AcDbLine
 10
828.0134616127512
 20
421.1975102207778
 30
0.0
 11
828.0134616127512
 21
465.6975102207779
 31
0.0
  0
LINE
  5
2480
330
2
100
AcDbEntity
  8
0
100
AcDbLine
 10
800.013461612751
 20
465.6975102207779
 30
0.0
 11
800.013461612751
 21
421.1975102207778
 31
0.0
  0
LINE
  5
2481
330
2
100
AcDbEntity
  8
0
100
AcDbLine
 10
800.5134616127511
 20
420.6975102207779
 30
0.0
 11
827.5134616127511
 21
420.6975102207779
 31
0.0
  0
LINE
  5
2482
330
2
100
AcDbEntity
  8
0
100
AcDbLine
 10
828.0134616127512
 20
421.1975102207778
 30
0.0
 11
800.013461612751
 21
421.1975102207778
 31
0.0
  0
LINE
  5
2483
330
2
100
AcDbEntity
  8
0
100
AcDbLine
 10
800.5134616127511
 20
420.6975102207779
 30
0.0
 11
800.013461612751
 21
421.1975102207778
 31
0.0
  0
LINE
  5
2484
330
2
100
AcDbEntity
  8
0
100
AcDbLine
 10
828.0134616127512
 20
421.1975102207778
 30
0.0
 11
827.5134616127511
 21
420.6975102207779
 31
0.0
  0
LINE
  5
2485
330
2
100
AcDbEntity
  8
0
100
AcDbLine
 10
872.030839191561
 20
579.6975102261548
 30
0.0
 11
770.5134616127711
 21
579.6975102261548
 31
0.0
  0
LINE
  5
2486
330
2
100
AcDbEntity
  8
0
100
AcDbLine
 10
776.5134616127511
 20
589.1975102261548
 30
0.0
 11
851.5134616127511
 21
589.1975102261548
 31
0.0
  0
LINE
  5
2487
330
2
100
AcDbEntity
  8
0
100
AcDbLine
 10
776.5134616127511
 20
585.4975102261558
 30
0.0
 11
851.5134616127511
 21
585.4975102261558
 31
0.0
  0
LINE
  5
2488
330
2
100
AcDbEntity
  8
0
100
AcDbLine
 10
770.5134616127711
 20
581.6975102261547
 30
0.0
 11
859.1850344880063
 21
581.6975102261547
 31
0.0
  0
LINE
  5
2489
330
2
100
AcDbEntity
  8
0
100
AcDbLine
 10
850.9361113435611
 20
590.1975102261547
 30
0.0
 11
777.0908118819411
 21
590.1975102261547
 31
0.0
  0
LINE
  5
248A
330
2
100
AcDbEntity
  8
0
100
AcDbLine
 10
774.5134616127511
 20
582.1975102261547
 30
0.0
 11
853.5134616127511
 21
582.1975102261547
 31
0.0
  0
LINE
  5
248B
330
2
100
AcDbEntity
  8
0
100
AcDbLine
 10
776.7134616127519
 20
587.6975102261548
 30
0.0
 11
851.3134616127523
 21
587.6975102261548
 31
0.0
  0
LINE
  5
248C
330
2
100
AcDbEntity
  8
0
100
AcDbLine
 10
776.7134616127519
 20
585.6975102261547
 30
0.0
 11
851.3134616127523
 21
585.6975102261547
 31
0.0
  0
LINE
  5
248D
330
2
100
AcDbEntity
  8
0
100
AcDbLine
 10
829.0134616127511
 20
465.6975102207779
 30
0.0
 11
799.0134616127511
 21
465.6975102207779
 31
0.0
  0
LINE
  5
248E
330
2
100
AcDbEntity
  8
0
100
AcDbLine
 10
852.0820840631373
 20
467.6975102256109
 30
0.0
 11
775.944839162365
 21
467.6975102256109
 31
0.0
  0
LINE
  5
248F
330
2
100
AcDbEntity
  8
0
100
AcDbLine
 10
835.224786478157
 20
466.6975102207779
 30
0.0
 11
792.802136747347
 21
466.6975102207779
 31
0.0
  0
LINE
  5
2490
330
2
100
AcDbEntity
  8
0
100
AcDbLine
 10
917.5134616127511
 20
563.1975102261548
 30
0.0
 11
754.0134616127511
 21
563.1975102261456
 31
0.0
  0
LINE
  5
2491
330
2
100
AcDbEntity
  8
0
100
AcDbLine
 10
754.6810669987485
 20
486.697510225609
 30
0.0
 11
873.3414927928665
 21
486.6975102256109
 31
0.0
  0
LINE
  5
2492
330
2
100
AcDbEntity
  8
0
100
AcDbLine
 10
759.0134616127511
 20
481.697510225609
 30
0.0
 11
869.0134616127512
 21
481.697510225609
 31
0.0
  0
LINE
  5
2493
330
2
100
AcDbEntity
  8
0
100
AcDbLine
 10
764.0134616127493
 20
562.6975102207778
 30
0.0
 11
764.0134616127493
 21
488.1975102207778
 31
0.0
  0
LINE
  5
2494
330
2
100
AcDbEntity
  8
0
100
AcDbLine
 10
768.0134616127511
 20
562.6975102207778
 30
0.0
 11
768.0134616127493
 21
488.1975102207778
 31
0.0
  0
LINE
  5
2495
330
2
100
AcDbEntity
  8
0
100
AcDbLine
 10
791.0094331910736
 20
562.6975102207778
 30
0.0
 11
791.0094331910718
 21
488.1975102207778
 31
0.0
  0
LINE
  5
2496
330
2
100
AcDbEntity
  8
0
100
AcDbLine
 10
754.6810669987485
 20
486.697510225609
 30
0.0
 11
754.0134616127511
 21
563.1975102261529
 31
0.0
  0
LINE
  5
2497
330
2
100
AcDbEntity
  8
0
100
AcDbLine
 10
773.5919749442914
 20
479.7673092190142
 30
0.0
 11
773.9460575083271
 21
469.6277112322039
 31
0.0
  0
LINE
  5
2498
330
2
100
AcDbEntity
  8
0
100
AcDbLine
 10
799.0134616127511
 20
465.6975102207779
 30
0.0
 11
798.4361113435611
 21
466.6975102207779
 31
0.0
  0
ARC
  5
2499
330
2
100
AcDbEntity
  8
0
100
AcDbCircle
 10
775.944839162365
 20
469.697510225609
 30
0.0
 40
2.0
100
AcDbArc
 50
182.0000000000036
 51
270.0
  0
ARC
  5
249A
330
2
100
AcDbEntity
  8
0
100
AcDbCircle
 10
792.802136747347
 20
467.1975102207778
 30
0.0
 40
0.5
100
AcDbArc
 50
209.9999999999932
 51
270.0
  0
ARC
  5
249B
330
2
100
AcDbEntity
  8
0
100
AcDbCircle
 10
794.0134616127511
 20
468.0994340094238
 30
0.0
 40
2.0
100
AcDbArc
 50
191.5932136234848
 51
209.9999999999932
  0
LINE
  5
249C
330
2
100
AcDbEntity
  8
0
100
AcDbLine
 10
792.281410805183
 20
467.0994340094238
 30
0.0
 11
792.3691240454541
 21
466.9475102207778
 31
0.0
  0
LINE
  5
249D
330
2
100
AcDbEntity
  8
0
100
AcDbLine
 10
759.0134616127511
 20
481.697510225609
 30
0.0
 11
759.0134616127511
 21
486.697510225609
 31
0.0
  0
ARC
  5
249E
330
2
100
AcDbEntity
  8
0
100
AcDbCircle
 10
771.5931932902535
 20
479.6975102256091
 30
0.0
 40
2.0
100
AcDbArc
 50
2.000000000003612
 51
90.0
  0
LINE
  5
249F
330
2
100
AcDbEntity
  8
CENTER
  6
CENS
100
AcDbLine
 10
764.0134616127711
 20
556.9235182363899
 30
0.0
 11
764.0134616127711
 21
586.1975102262967
 31
0.0
  0
LINE
  5
24A0
330
2
100
AcDbEntity
  8
0
100
AcDbLine
 10
791.0094331910554
 20
577.7149632971521
 30
0.0
 11
791.0094331910554
 21
563.1975102261475
 31
0.0
  0
LINE
  5
24A1
330
2
100
AcDbEntity
  8
0
100
AcDbLine
 10
764.0134616127511
 20
572.2062367617944
 30
0.0
 11
764.0134616127511
 21
563.1975102261456
 31
0.0
  0
LINE
  5
24A2
330
2
100
AcDbEntity
  8
0
100
AcDbLine
 10
768.0134616127547
 20
572.2062367617944
 30
0.0
 11
768.0134616127547
 21
563.1975102261456
 31
0.0
  0
LINE
  5
24A3
330
2
100
AcDbEntity
  8
0
100
AcDbLine
 10
754.0134616127511
 20
563.1975102261456
 30
0.0
 11
754.1401535063619
 21
577.7149632971521
 31
0.0
  0
ARC
  5
24A4
330
2
100
AcDbEntity
  8
HIDS
100
AcDbCircle
 10
768.8418887374978
 20
579.6975102261548
 30
0.0
 40
2.0
100
AcDbArc
 50
90.0
 51
135.0000000000092
  0
LINE
  5
24A5
330
2
100
AcDbEntity
  8
0
100
AcDbLine
 10
772.0178060074545
 20
573.1975102262967
 30
0.0
 11
755.0920415012556
 21
573.1975102262967
 31
0.0
  0
LINE
  5
24A6
330
2
100
AcDbEntity
  8
0
100
AcDbLine
 10
758.3794870165552
 20
583.1975102262966
 30
0.0
 11
769.6474362089852
 21
583.1975102262966
 31
0.0
  0
LINE
  5
24A7
330
2
100
AcDbEntity
  8
0
100
AcDbLine
 10
757.5134616127711
 20
573.1975102262967
 30
0.0
 11
770.5134616127711
 21
573.1975102262967
 31
0.0
  0
LINE
  5
24A8
330
2
100
AcDbEntity
  8
0
100
AcDbLine
 10
757.5134616127711
 20
575.1975102262966
 30
0.0
 11
770.5134616127711
 21
575.1975102262949
 31
0.0
  0
LINE
  5
24A9
330
2
100
AcDbEntity
  8
0
100
AcDbLine
 10
757.5134616127711
 20
582.6975102262966
 30
0.0
 11
770.5134616127711
 21
582.6975102262966
 31
0.0
  0
LINE
  5
24AA
330
2
100
AcDbEntity
  8
HIDS
100
AcDbLine
 10
770.5134616127711
 20
579.6975102261548
 30
0.0
 11
757.5134616127711
 21
579.6975102261548
 31
0.0
  0
LINE
  5
24AB
330
2
100
AcDbEntity
  8
HIDS
100
AcDbLine
 10
766.5992480503778
 20
580.2832966637814
 30
0.0
 11
767.4276751751245
 21
581.1117237885281
 31
0.0
  0
ARC
  5
24AC
330
2
100
AcDbEntity
  8
HIDS
100
AcDbCircle
 10
765.1850344880045
 20
581.6975102261547
 30
0.0
 40
2.0
100
AcDbArc
 50
270.0
 51
315.0000000000092
  0
LINE
  5
24AD
330
2
100
AcDbEntity
  8
0
100
AcDbLine
 10
757.5134616127711
 20
579.6975102261548
 30
0.0
 11
756.1400773524897
 21
579.6975102261548
 31
0.0
  0
ARC
  5
24AE
330
2
100
AcDbEntity
  8
0
100
AcDbCircle
 10
755.0920415012556
 20
572.1975102262966
 30
0.0
 40
1.0
100
AcDbArc
 50
90.0
 51
179.5000000000344
  0
ARC
  5
24AF
330
2
100
AcDbEntity
  8
0
100
AcDbCircle
 10
756.1400773524897
 20
577.6975102261547
 30
0.0
 40
2.0
100
AcDbArc
 50
90.0
 51
179.5000000000344
  0
LINE
  5
24B0
330
2
100
AcDbEntity
  8
0
100
AcDbLine
 10
757.5134616127711
 20
582.6975102262966
 30
0.0
 11
758.3794870165552
 21
583.1975102262966
 31
0.0
  0
LINE
  5
24B1
330
2
100
AcDbEntity
  8
0
100
AcDbLine
 10
757.5134616127711
 20
573.1975102262967
 30
0.0
 11
757.5134616127711
 21
575.1975102262966
 31
0.0
  0
LINE
  5
24B2
330
2
100
AcDbEntity
  8
0
100
AcDbLine
 10
757.5134616127711
 20
575.1975102262966
 30
0.0
 11
757.5134616127711
 21
582.6975102262966
 31
0.0
  0
ARC
  5
24B3
330
2
100
AcDbEntity
  8
0
100
AcDbCircle
 10
776.7134616127519
 20
587.8975102261555
 30
0.0
 40
0.2
100
AcDbArc
 50
180.0
 51
270.0
  0
ARC
  5
24B4
330
2
100
AcDbEntity
  8
0
100
AcDbCircle
 10
777.0134616127511
 20
587.4975102261559
 30
0.0
 40
0.2
100
AcDbArc
 50
0.0
 51
90.0
  0
ARC
  5
24B5
330
2
100
AcDbEntity
  8
0
100
AcDbCircle
 10
777.0134616127511
 20
585.8975102261555
 30
0.0
 40
0.2
100
AcDbArc
 50
270.0
 51
0.0
  0
LINE
  5
24B6
330
2
100
AcDbEntity
  8
0
100
AcDbLine
 10
772.5177869689892
 20
573.6931469585469
 30
0.0
 11
772.5528848284543
 21
577.7149632971521
 31
0.0
  0
ARC
  5
24B7
330
2
100
AcDbEntity
  8
0
100
AcDbCircle
 10
772.0178060074545
 20
573.6975102262967
 30
0.0
 40
0.5
100
AcDbArc
 50
270.0
 51
359.5000000000345
  0
ARC
  5
24B8
330
2
100
AcDbEntity
  8
0
100
AcDbCircle
 10
774.5528086745821
 20
577.6975102261547
 30
0.0
 40
2.0
100
AcDbArc
 50
90.0
 51
179.5000000000344
  0
LINE
  5
24B9
330
2
100
AcDbEntity
  8
0
100
AcDbLine
 10
770.5134616127711
 20
582.6975102262966
 30
0.0
 11
769.6474362089852
 21
583.1975102262966
 31
0.0
  0
LINE
  5
24BA
330
2
100
AcDbEntity
  8
0
100
AcDbLine
 10
770.5134616127711
 20
573.1975102262967
 30
0.0
 11
770.5134616127711
 21
575.1975102262966
 31
0.0
  0
LINE
  5
24BB
330
2
100
AcDbEntity
  8
0
100
AcDbLine
 10
770.5134616127711
 20
575.1975102262966
 30
0.0
 11
770.5134616127711
 21
582.6975102262966
 31
0.0
  0
LINE
  5
24BC
330
2
100
AcDbEntity
  8
HIDS
100
AcDbLine
 10
768.8418887374978
 20
581.6975102261547
 30
0.0
 11
770.5134616127693
 21
581.6975102261547
 31
0.0
  0
LINE
  5
24BD
330
2
100
AcDbEntity
  8
0
100
AcDbLine
 10
776.5134616127511
 20
585.4975102261558
 30
0.0
 11
776.5134616127511
 21
582.1975102261547
 31
0.0
  0
LINE
  5
24BE
330
2
100
AcDbEntity
  8
0
100
AcDbLine
 10
774.0134616127511
 20
581.6975102261547
 30
0.0
 11
774.5134616127511
 21
582.1975102261547
 31
0.0
  0
LINE
  5
24BF
330
2
100
AcDbEntity
  8
0
100
AcDbLine
 10
776.5134616127511
 20
589.1975102261548
 30
0.0
 11
776.5134616127511
 21
587.8975102261555
 31
0.0
  0
LINE
  5
24C0
330
2
100
AcDbEntity
  8
0
100
AcDbLine
 10
777.2134616127519
 20
587.4975102261559
 30
0.0
 11
777.2134616127519
 21
585.8975102261555
 31
0.0
  0
LINE
  5
24C1
330
2
100
AcDbEntity
  8
0
100
AcDbLine
 10
776.7134616127519
 20
585.6975102261547
 30
0.0
 11
776.5134616127511
 21
585.4975102261558
 31
0.0
  0
LINE
  5
24C2
330
2
100
AcDbEntity
  8
0
100
AcDbLine
 10
776.5134616127511
 20
589.1975102261548
 30
0.0
 11
777.0908118819411
 21
590.1975102261547
 31
0.0
  0
LINE
  5
24C3
330
2
100
AcDbEntity
  8
0
100
AcDbLine
 10
935.8469602505905
 20
503.6189793758511
 30
0.0
 11
935.1116980440716
 21
531.6975102207778
 31
0.0
  0
LINE
  5
24C4
330
2
100
AcDbEntity
  8
0
100
AcDbLine
 10
917.430404058096
 20
490.6800571546132
 30
0.0
 11
917.7883579481408
 21
531.697510225609
 31
0.0
  0
LINE
  5
24C5
330
2
100
AcDbEntity
  8
0
100
AcDbLine
 10
860.013461612753
 20
562.6975102207778
 30
0.0
 11
860.013461612753
 21
488.1975102207778
 31
0.0
  0
LINE
  5
24C6
330
2
100
AcDbEntity
  8
0
100
AcDbLine
 10
837.0174900344304
 20
562.6975102207778
 30
0.0
 11
837.0174900344304
 21
488.1975102207778
 31
0.0
  0
LINE
  5
24C7
330
2
100
AcDbEntity
  8
0
100
AcDbLine
 10
864.0134616127529
 20
562.6975102207778
 30
0.0
 11
864.0134616127529
 21
488.1975102207778
 31
0.0
  0
LINE
  5
24C8
330
2
100
AcDbEntity
  8
0
100
AcDbLine
 10
874.009098178864
 20
563.1975102261439
 30
0.0
 11
873.3414927928665
 21
486.6975102256109
 31
0.0
  0
LINE
  5
24C9
330
2
100
AcDbEntity
  8
0
100
AcDbLine
 10
854.4349482812126
 20
479.7673092190142
 30
0.0
 11
854.0808657171751
 21
469.6277112322039
 31
0.0
  0
ARC
  5
24CA
330
2
100
AcDbEntity
  8
0
100
AcDbCircle
 10
835.224786478157
 20
467.1975102207778
 30
0.0
 40
0.5
100
AcDbArc
 50
270.0
 51
330.0000000000067
  0
ARC
  5
24CB
330
2
100
AcDbEntity
  8
0
100
AcDbCircle
 10
834.013461612751
 20
468.0994340094238
 30
0.0
 40
2.0
100
AcDbArc
 50
330.0000000000067
 51
348.4067863765151
  0
LINE
  5
24CC
330
2
100
AcDbEntity
  8
0
100
AcDbLine
 10
835.7455124203211
 20
467.0994340094238
 30
0.0
 11
835.65779918005
 21
466.9475102207778
 31
0.0
  0
LINE
  5
24CD
330
2
100
AcDbEntity
  8
0
100
AcDbLine
 10
829.0134616127511
 20
465.6975102207779
 30
0.0
 11
829.5908118819411
 21
466.6975102207779
 31
0.0
  0
ARC
  5
24CE
330
2
100
AcDbEntity
  8
0
100
AcDbCircle
 10
852.0820840631373
 20
469.697510225609
 30
0.0
 40
2.0
100
AcDbArc
 50
270.0
 51
357.9999999999964
  0
LINE
  5
24CF
330
2
100
AcDbEntity
  8
0
100
AcDbLine
 10
869.0134616127512
 20
481.6975102256109
 30
0.0
 11
869.0134616127512
 21
486.6975102256109
 31
0.0
  0
ARC
  5
24D0
330
2
100
AcDbEntity
  8
0
100
AcDbCircle
 10
856.4337299352505
 20
479.6975102256091
 30
0.0
 40
2.0
100
AcDbArc
 50
90.0
 51
177.9999999999963
  0
LINE
  5
24D1
330
2
100
AcDbEntity
  8
0
100
AcDbLine
 10
874.8459133443398
 20
488.6975102256108
 30
0.0
 11
915.4304802119675
 21
488.6975102256091
 31
0.0
  0
ARC
  5
24D2
330
2
100
AcDbEntity
  8
0
100
AcDbCircle
 10
874.8459133443398
 20
487.1975102256109
 30
0.0
 40
1.5
100
AcDbArc
 50
90.0
 51
179.5000000000344
  0
LINE
  5
24D3
330
2
100
AcDbEntity
  8
0
100
AcDbLine
 10
938.8459322255171
 20
500.6975102207778
 30
0.0
 11
942.2908180423805
 21
500.6975102207778
 31
0.0
  0
ARC
  5
24D4
330
2
100
AcDbEntity
  8
0
100
AcDbCircle
 10
930.8615725141812
 20
503.1975102207779
 30
0.0
 40
5.0
100
AcDbArc
 50
3.583321698471883
 51
90.0
  0
LINE
  5
24D5
330
2
100
AcDbEntity
  8
0
100
AcDbLine
 10
933.9725350531121
 20
503.1975102207779
 30
0.0
 11
920.5135758479032
 21
503.1975102207779
 31
0.0
  0
ARC
  5
24D7
330
2
100
AcDbEntity
  8
0
100
AcDbCircle
 10
920.5135758478613
 20
500.1975102207778
 30
0.0
 40
3.0
100
AcDbArc
 50
90.0
 51
179.5000000000344
  0
ARC
  5
24D8
330
2
100
AcDbEntity
  8
0
100
AcDbCircle
 10
922.5398326080036
 20
503.1975102207779
 30
0.0
 40
5.0
100
AcDbArc
 50
90.0
 51
179.5000000000344
  0
LINE
  5
24D9
330
2
100
AcDbEntity
  8
0
100
AcDbLine
 10
930.8615725141812
 20
508.1975102207779
 30
0.0
 11
922.5398326080036
 21
508.1975102207779
 31
0.0
  0
ARC
  5
24DA
330
2
100
AcDbEntity
  8
0
100
AcDbCircle
 10
933.9725350531121
 20
500.1975102207778
 30
0.0
 40
3.0
100
AcDbArc
 50
35.68533471271784
 51
90.0
  0
ARC
  5
24DB
330
2
100
AcDbEntity
  8
0
100
AcDbCircle
 10
938.8459322255171
 20
503.6975102207779
 30
0.0
 40
3.0
100
AcDbArc
 50
181.5000000000939
 51
270.0
  0
ARC
  5
24DC
330
2
100
AcDbEntity
  8
0
100
AcDbCircle
 10
872.030839191561
 20
577.6975102261547
 30
0.0
 40
2.0
100
AcDbArc
 50
0.4999999999654926
 51
90.0
  0
LINE
  5
24DD
330
2
100
AcDbEntity
  8
0
100
AcDbLine
 10
860.0134616127492
 20
577.7149632971521
 30
0.0
 11
860.0134616127492
 21
563.1975102261456
 31
0.0
  0
LINE
  5
24DE
330
2
100
AcDbEntity
  8
0
100
AcDbLine
 10
837.0174900344467
 20
577.7149632971521
 30
0.0
 11
837.0174900344467
 21
563.1975102261475
 31
0.0
  0
LINE
  5
24DF
330
2
100
AcDbEntity
  8
0
100
AcDbLine
 10
864.0134616127529
 20
577.7149632971521
 30
0.0
 11
864.0134616127529
 21
563.1975102261456
 31
0.0
  0
ARC
  5
24E0
330
2
100
AcDbEntity
  8
0
100
AcDbCircle
 10
862.8418887374978
 20
581.6975102261547
 30
0.0
 40
2.0
100
AcDbArc
 50
224.9999999999908
 51
270.0
  0
LINE
  5
24E1
330
2
100
AcDbEntity
  8
0
100
AcDbLine
 10
861.4276751751244
 20
580.2832966637814
 30
0.0
 11
860.5992480503777
 21
581.1117237885281
 31
0.0
  0
ARC
  5
24E2
330
2
100
AcDbEntity
  8
0
100
AcDbCircle
 10
859.1850344880063
 20
579.6975102261548
 30
0.0
 40
2.0
100
AcDbArc
 50
44.99999999999078
 51
90.0
  0
ARC
  5
24E3
330
2
100
AcDbEntity
  8
0
100
AcDbCircle
 10
851.3134616127523
 20
587.8975102261555
 30
0.0
 40
0.2
100
AcDbArc
 50
270.0
 51
0.0
  0
ARC
  5
24E4
330
2
100
AcDbEntity
  8
0
100
AcDbCircle
 10
851.0134616127512
 20
587.4975102261559
 30
0.0
 40
0.2
100
AcDbArc
 50
90.0
 51
180.0
  0
ARC
  5
24E5
330
2
100
AcDbEntity
  8
0
100
AcDbCircle
 10
851.0134616127512
 20
585.8975102261555
 30
0.0
 40
0.2
100
AcDbArc
 50
180.0
 51
270.0
  0
LINE
  5
24E6
330
2
100
AcDbEntity
  8
0
100
AcDbLine
 10
851.5134616127511
 20
585.4975102261558
 30
0.0
 11
851.5134616127511
 21
582.1975102261547
 31
0.0
  0
LINE
  5
24E7
330
2
100
AcDbEntity
  8
0
100
AcDbLine
 10
854.0134616127511
 20
581.6975102261547
 30
0.0
 11
853.5134616127511
 21
582.1975102261547
 31
0.0
  0
LINE
  5
24E8
330
2
100
AcDbEntity
  8
0
100
AcDbLine
 10
851.5134616127511
 20
589.1975102261566
 30
0.0
 11
851.5134616127511
 21
587.8975102261555
 31
0.0
  0
LINE
  5
24E9
330
2
100
AcDbEntity
  8
0
100
AcDbLine
 10
851.3134616127523
 20
585.6975102261566
 30
0.0
 11
851.5134616127511
 21
585.4975102261558
 31
0.0
  0
LINE
  5
24EA
330
2
100
AcDbEntity
  8
0
100
AcDbLine
 10
850.8134616127522
 20
587.4975102261559
 30
0.0
 11
850.8134616127522
 21
585.8975102261555
 31
0.0
  0
LINE
  5
24EB
330
2
100
AcDbEntity
  8
0
100
AcDbLine
 10
851.5134616127511
 20
589.1975102261548
 30
0.0
 11
850.9361113435611
 21
590.1975102261566
 31
0.0
  0
LINE
  5
24EC
330
2
100
AcDbEntity
  8
CENTER
  6
CENS
100
AcDbLine
 10
909.5134616127692
 20
556.9235182363899
 30
0.0
 11
909.5134616127692
 21
586.1975102262967
 31
0.0
  0
LINE
  5
24ED
330
2
100
AcDbEntity
  8
0
100
AcDbLine
 10
917.5134616127476
 20
563.197510226695
 30
0.0
 11
917.4129503225143
 21
574.7149632971521
 31
0.0
  0
LINE
  5
24EE
330
2
100
AcDbEntity
  8
0
100
AcDbLine
 10
874.0134616127511
 20
563.1975102261529
 30
0.0
 11
874.0134616127511
 21
577.9605849968828
 31
0.0
  0
LINE
  5
24EF
330
2
100
AcDbEntity
  8
0
100
AcDbLine
 10
938.8459322255171
 20
562.6975102207778
 30
0.0
 11
942.2908180425151
 21
562.6975102207778
 31
0.0
  0
ARC
  5
24F0
330
2
100
AcDbEntity
  8
0
100
AcDbCircle
 10
932.2415992745359
 20
537.1975102207779
 30
0.0
 40
3.0
100
AcDbArc
 50
270.0
 51
358.5000000001145
  0
ARC
  5
24F1
330
2
100
AcDbEntity
  8
0
100
AcDbCircle
 10
930.8615725141812
 20
560.1975102207778
 30
0.0
 40
5.0
100
AcDbArc
 50
270.0
 51
356.4166783015281
  0
ARC
  5
24F2
330
2
100
AcDbEntity
  8
0
100
AcDbCircle
 10
932.2415992744504
 20
526.1975102207778
 30
0.0
 40
3.0
100
AcDbArc
 50
1.500000000093984
 51
90.0
  0
LINE
  5
24F3
330
2
100
AcDbEntity
  8
0
100
AcDbLine
 10
933.9725350531121
 20
560.1975102207778
 30
0.0
 11
920.5135758479068
 21
560.1975102207778
 31
0.0
  0
ARC
  5
24F4
330
2
100
AcDbEntity
  8
0
100
AcDbCircle
 10
911.3255679739891
 20
532.6975102207779
 30
0.0
 40
1.0
100
AcDbArc
 50
181.5000000001981
 51
270.0
  0
LINE
  5
24F5
330
2
100
AcDbEntity
  8
0
100
AcDbLine
 10
911.3255679739891
 20
531.6975102207778
 30
0.0
 11
917.5134616127511
 21
531.6975102207778
 31
0.0
  0
ARC
  5
24F6
330
2
100
AcDbEntity
  8
0
100
AcDbCircle
 10
922.5398326081235
 20
560.1975102207778
 30
0.0
 40
5.0
100
AcDbArc
 50
180.5000000005908
 51
270.0
  0
ARC
  5
24F7
330
2
100
AcDbEntity
  8
0
100
AcDbCircle
 10
920.7404744107611
 20
537.1975102207779
 30
0.0
 40
3.0
100
AcDbArc
 50
180.5000000005908
 51
270.0
  0
ARC
  5
24F8
330
2
100
AcDbEntity
  8
0
100
AcDbCircle
 10
920.7404744104101
 20
526.1975102207778
 30
0.0
 40
3.0
100
AcDbArc
 50
90.0
 51
179.5000000000344
  0
LINE
  5
24F9
330
2
100
AcDbEntity
  8
0
100
AcDbLine
 10
920.7404744104101
 20
529.1975102207779
 30
0.0
 11
932.2415992744504
 21
529.1975102207779
 31
0.0
  0
LINE
  5
24FA
330
2
100
AcDbEntity
  8
0
100
AcDbLine
 10
920.7404744107611
 20
534.1975102207778
 30
0.0
 11
932.2415992745359
 21
534.1975102207778
 31
0.0
  0
LINE
  5
24FB
330
2
100
AcDbEntity
  8
0
100
AcDbLine
 10
930.8615725141812
 20
555.1975102207778
 30
0.0
 11
922.5398326081235
 21
555.1975102207778
 31
0.0
  0
LINE
  5
24FC
330
2
100
AcDbEntity
  8
0
100
AcDbLine
 10
909.5265545733949
 20
563.197510226142
 30
0.0
 11
910.3259106490154
 21
532.6713332724665
 31
0.0
  0
LINE
  5
24FD
330
2
100
AcDbEntity
  8
0
100
AcDbLine
 10
917.5134616127511
 20
563.1975102256091
 30
0.0
 11
917.7883579484628
 21
531.697510225609
 31
0.0
  0
ARC
  5
24FE
330
2
100
AcDbEntity
  8
0
100
AcDbCircle
 10
920.5135758479505
 20
563.1975102207778
 30
0.0
 40
3.0
100
AcDbArc
 50
180.5000000005908
 51
270.0
  0
LINE
  5
24FF
330
2
100
AcDbEntity
  8
0
100
AcDbLine
 10
935.8469602505905
 20
559.7760410657027
 30
0.0
 11
935.1116980441734
 21
531.6975102207778
 31
0.0
  0
ARC
  5
2500
330
2
100
AcDbEntity
  8
0
100
AcDbCircle
 10
933.9725350531121
 20
563.1975102207778
 30
0.0
 40
3.0
100
AcDbArc
 50
270.0
 51
324.3146652872821
  0
ARC
  5
2501
330
2
100
AcDbEntity
  8
0
100
AcDbCircle
 10
938.8459322255171
 20
559.6975102207778
 30
0.0
 40
3.0
100
AcDbArc
 50
90.0
 51
178.5000000001145
  0
LINE
  5
2502
330
2
100
AcDbEntity
  8
0
100
AcDbLine
 10
903.8794870165553
 20
583.1975102262966
 30
0.0
 11
915.1474362089853
 21
583.1975102262949
 31
0.0
  0
LINE
  5
2503
330
2
100
AcDbEntity
  8
0
100
AcDbLine
 10
903.0134616127693
 20
573.1975102262967
 30
0.0
 11
916.0134616127693
 21
573.1975102262967
 31
0.0
  0
LINE
  5
2504
330
2
100
AcDbEntity
  8
0
100
AcDbLine
 10
903.0134616127693
 20
575.1975102262949
 30
0.0
 11
916.0134616127693
 21
575.1975102262949
 31
0.0
  0
LINE
  5
2505
330
2
100
AcDbEntity
  8
0
100
AcDbLine
 10
903.0134616127693
 20
582.6975102262966
 30
0.0
 11
916.0134616127693
 21
582.6975102262948
 31
0.0
  0
LINE
  5
2506
330
2
100
AcDbEntity
  8
HIDS
100
AcDbLine
 10
915.4130264763866
 20
576.6975102261548
 30
0.0
 11
903.0134616127693
 21
576.6975102261548
 31
0.0
  0
LINE
  5
2507
330
2
100
AcDbEntity
  8
0
100
AcDbLine
 10
901.5921907730376
 20
573.1975102262967
 30
0.0
 11
916.4348817242485
 21
573.1975102262967
 31
0.0
  0
LINE
  5
2508
330
2
100
AcDbEntity
  8
0
100
AcDbLine
 10
903.0134616127693
 20
582.6975102262966
 30
0.0
 11
903.8794870165533
 21
583.1975102262949
 31
0.0
  0
LINE
  5
2509
330
2
100
AcDbEntity
  8
0
100
AcDbLine
 10
903.0134616127693
 20
573.1975102262967
 30
0.0
 11
903.0134616127693
 21
575.1975102262966
 31
0.0
  0
LINE
  5
250A
330
2
100
AcDbEntity
  8
0
100
AcDbLine
 10
903.0134616127693
 20
575.1975102262966
 30
0.0
 11
903.0134616127693
 21
582.6975102262966
 31
0.0
  0
ARC
  5
250B
330
2
100
AcDbEntity
  8
0
100
AcDbCircle
 10
875.0309534267184
 20
577.6975102261547
 30
0.0
 40
1.0
100
AcDbArc
 50
180.4999999999655
 51
270.0
  0
LINE
  5
250C
330
2
100
AcDbEntity
  8
0
100
AcDbLine
 10
874.0307630376905
 20
577.7149632971521
 30
0.0
 11
874.0309915036545
 21
577.688783690657
 31
0.0
  0
LINE
  5
250D
330
2
100
AcDbEntity
  8
0
100
AcDbLine
 10
901.0923621105488
 20
573.6844217521428
 30
0.0
 11
901.0644625201953
 21
574.7498641227756
 31
0.0
  0
ARC
  5
250E
330
2
100
AcDbEntity
  8
0
100
AcDbCircle
 10
901.5921907730376
 20
573.6975102262967
 30
0.0
 40
0.5
100
AcDbArc
 50
181.4999999999897
 51
270.0
  0
ARC
  5
250F
330
2
100
AcDbEntity
  8
0
100
AcDbCircle
 10
899.0651478702444
 20
574.6975102261602
 30
0.0
 40
2.0
100
AcDbArc
 50
1.499999999989714
 51
90.0
  0
LINE
  5
2510
330
2
100
AcDbEntity
  8
0
100
AcDbLine
 10
903.0134616127693
 20
576.6975102261548
 30
0.0
 11
875.0309534267184
 21
576.6975102261548
 31
0.0
  0
LINE
  5
2511
330
2
100
AcDbEntity
  8
0
100
AcDbLine
 10
916.0134616127693
 20
582.6975102262948
 30
0.0
 11
915.1474362089853
 21
583.1975102262949
 31
0.0
  0
LINE
  5
2512
330
2
100
AcDbEntity
  8
0
100
AcDbLine
 10
916.0134616127693
 20
573.1975102262948
 30
0.0
 11
916.0134616127693
 21
575.1975102262949
 31
0.0
  0
LINE
  5
2513
330
2
100
AcDbEntity
  8
0
100
AcDbLine
 10
916.0134616127693
 20
575.1975102262949
 30
0.0
 11
916.0134616127693
 21
582.6975102262948
 31
0.0
  0
ARC
  5
2514
330
2
100
AcDbEntity
  8
0
100
AcDbCircle
 10
915.4130264763866
 20
574.6975102261548
 30
0.0
 40
2.0
100
AcDbArc
 50
0.4999999999654926
 51
72.52932876219034
  0
ARC
  5
2515
330
2
100
AcDbEntity
  8
HIDS
100
AcDbCircle
 10
915.4130264763866
 20
574.6975102261548
 30
0.0
 40
2.0
100
AcDbArc
 50
72.52932876219034
 51
90.0
  0
ARC
  5
2516
330
2
100
AcDbEntity
  8
0
100
AcDbCircle
 10
916.4348817242485
 20
572.1975102262966
 30
0.0
 40
1.0
100
AcDbArc
 50
0.4999999999654926
 51
90.0
  0
LINE
  5
2517
330
2
100
AcDbEntity
  8
0
100
AcDbLine
 10
946.3498388283337
 20
531.6975102207778
 30
0.0
 11
947.3724607045737
 21
492.6451563241625
 31
0.0
  0
LINE
  5
2519
330
2
100
AcDbEntity
  8
0
100
AcDbLine
 10
959.4234616127527
 20
490.6975102207779
 30
0.0
 11
949.3717753545247
 21
490.6975102207779
 31
0.0
  0
ARC
  5
251A
330
2
100
AcDbEntity
  8
0
100
AcDbCircle
 10
949.3717753545247
 20
492.6975102207778
 30
0.0
 40
2.0
100
AcDbArc
 50
181.4999999999897
 51
270.0
  0
LINE
  5
251B
330
2
100
AcDbEntity
  8
0
100
AcDbLine
 10
947.3724607047138
 20
570.7498641173986
 30
0.0
 11
946.3498388283882
 21
531.6975102207778
 31
0.0
  0
LINE
  5
251C
330
2
100
AcDbEntity
  8
0
100
AcDbLine
 10
946.3498388283611
 20
531.6975102197355
 30
0.0
 11
959.4234616127527
 21
531.6975102207778
 31
0.0
  0
LINE
  5
251D
330
2
100
AcDbEntity
  8
0
100
AcDbLine
 10
949.3717753546647
 20
572.6975102207778
 30
0.0
 11
959.4234616127527
 21
572.6975102207778
 31
0.0
  0
ARC
  5
251E
330
2
100
AcDbEntity
  8
0
100
AcDbCircle
 10
949.3717753546647
 20
570.6975102207779
 30
0.0
 40
2.0
100
AcDbArc
 50
90.0
 51
178.499999999906
  0
LINE
  5
2711
330
2
100
AcDbEntity
  8
0
100
AcDbLine
 10
424.2004726401479
 20
191.8078544428641
 30
0.0
 11
424.2004726401479
 21
194.9418290390782
 31
0.0
  0
LINE
  5
2712
330
2
100
AcDbEntity
  8
0
100
AcDbLine
 10
424.7004726401479
 20
195.8078544428623
 30
0.0
 11
424.2004726401479
 21
194.9418290390782
 31
0.0
  0
LINE
  5
2713
330
2
100
AcDbEntity
  8
0
100
AcDbLine
 10
425.7004726401484
 20
195.8078544428623
 30
0.0
 11
424.7004726401479
 21
195.8078544428623
 31
0.0
  0
LINE
  5
2714
330
2
100
AcDbEntity
  8
0
100
AcDbLine
 10
424.7004726401479
 20
191.8078544428641
 30
0.0
 11
424.7004726401479
 21
195.8078544428623
 31
0.0
  0
LINE
  5
2715
330
2
100
AcDbEntity
  8
0
100
AcDbLine
 10
424.2004726401479
 20
116.8078544428641
 30
0.0
 11
424.2004726401479
 21
113.67387984665
 31
0.0
  0
LINE
  5
2716
330
2
100
AcDbEntity
  8
0
100
AcDbLine
 10
424.7004726401479
 20
112.8078544428659
 30
0.0
 11
424.2004726401479
 21
113.67387984665
 31
0.0
  0
LINE
  5
2717
330
2
100
AcDbEntity
  8
0
100
AcDbLine
 10
425.7004726401484
 20
112.8078544428659
 30
0.0
 11
424.7004726401479
 21
112.8078544428659
 31
0.0
  0
LINE
  5
2718
330
2
100
AcDbEntity
  8
0
100
AcDbLine
 10
424.7004726401479
 20
116.8078544428642
 30
0.0
 11
424.7004726401479
 21
112.8078544428659
 31
0.0
  0
CIRCLE
  5
273E
330
2
100
AcDbEntity
  8
0
100
AcDbCircle
 10
814.0134616127324
 20
154.3078544428625
 30
0.0
 40
33.07735
  0
ARC
  5
2743
330
2
100
AcDbEntity
  8
0
100
AcDbCircle
 10
915.4304802119677
 20
490.697510225609
 30
0.0
 40
2.0
100
AcDbArc
 50
269.9999999999974
 51
359.500000000027
  0
ENDSEC
  0
SECTION
  2
OBJECTS
  0
DICTIONARY
  5
7
330
0
100
AcDbDictionary
  3
ACAD_COLOR
350
18F0
  3
ACAD_GROUP
350
75
  3
ACAD_LAYOUT
350
61
  3
ACAD_MATERIAL
350
18C6
  3
ACAD_MLEADERSTYLE
350
1915
  3
ACAD_MLINESTYLE
350
76
  3
ACAD_PLOTSETTINGS
350
77
  3
ACAD_PLOTSTYLENAME
350
6
  3
ACAD_SCALELIST
350
18F3
  3
ACAD_TABLESTYLE
350
18F1
  3
ACAD_VISUALSTYLE
350
18DF
  3
ACADDIM
350
480
  3
ACDB_RECOMPOSE_DATA
350
192F
  3
ACDBHEADERROUNDTRIPXREC
350
275D
  3
ACDBVARIABLEDICTIONARY
350
102
  3
DWGPROPS
350
271A
  0
DICTIONARY
  5
1938
330
6E
100
AcDbDictionary
280
     1
  3
ACAD_XREC_ROUNDTRIP
360
2722
  0
DICTIONARY
  5
B0F
330
66
100
AcDbDictionary
280
     1
  3
ACAD_LAYERSTATES
360
B10
  0
DICTIONARY
  5
191B
330
5E
100
AcDbDictionary
280
     1
  3
ACAD_XREC_ROUNDTRIP
360
271D
  3
ADSK_XREC_LAYER_RECONCILED
360
191C
  0
DICTIONARY
  5
191D
330
3E
100
AcDbDictionary
280
     1
  3
ACAD_XREC_ROUNDTRIP
360
271C
  3
ADSK_XREC_LAYER_RECONCILED
360
191E
  0
DICTIONARY
  5
1923
330
2B5
100
AcDbDictionary
280
     1
  3
ACAD_XREC_ROUNDTRIP
360
2728
  3
ADSK_XREC_LAYER_RECONCILED
360
1924
  0
DICTIONARY
  5
1925
330
2BA
100
AcDbDictionary
280
     1
  3
ACAD_XREC_ROUNDTRIP
360
2729
  3
ADSK_XREC_LAYER_RECONCILED
360
1926
  0
DICTIONARY
  5
1929
330
3FA
100
AcDbDictionary
280
     1
  3
ACAD_XREC_ROUNDTRIP
360
272B
  3
ADSK_XREC_LAYER_RECONCILED
360
192A
  0
DICTIONARY
  5
277E
330
2
100
AcDbDictionary
280
     1
  3
ACAD_LAYOUTSELFREF
360
277F
  0
DICTIONARY
  5
2780
330
2757
100
AcDbDictionary
280
     1
  3
ACAD_LAYOUTSELFREF
360
2781
  0
DICTIONARY
  5
18F0
102
{ACAD_REACTORS
330
7
102
}
330
7
100
AcDbDictionary
  0
DICTIONARY
  5
75
102
{ACAD_REACTORS
330
7
102
}
330
7
100
AcDbDictionary
  0
DICTIONARY
  5
61
102
{ACAD_REACTORS
330
7
102
}
330
7
100
AcDbDictionary
  0
DICTIONARY
  5
18C6
102
{ACAD_REACTORS
330
7
102
}
330
7
100
AcDbDictionary
  3
BYBLOCK
350
18CF
  3
BYLAYER
350
18C7
  3
GLOBAL
350
18D7
  0
DICTIONARY
  5
1915
102
{ACAD_REACTORS
330
7
102
}
330
7
100
AcDbDictionary
  3
STANDARD
350
1916
  0
DICTIONARY
  5
76
102
{ACAD_REACTORS
330
7
102
}
330
7
100
AcDbDictionary
  3
STANDARD
350
78
  0
DICTIONARY
  5
77
102
{ACAD_REACTORS
330
7
102
}
330
7
100
AcDbDictionary
  0
ACDBDICTIONARYWDFLT
  5
6
102
{ACAD_REACTORS
330
7
102
}
330
7
100
AcDbDictionary
281
     1
  3
Normal
350
5
100
AcDbDictionaryWithDefault
340
5
  0
DICTIONARY
  5
18F3
102
{ACAD_REACTORS
330
7
102
}
330
7
100
AcDbDictionary
  3
A0
350
18F4
  3
A1
350
18F5
  3
A2
350
18F6
  3
A3
350
18F7
  3
A4
350
18F8
  3
A5
350
18F9
  3
A6
350
18FA
  3
A7
350
18FB
  3
A8
350
18FC
  3
A9
350
18FD
  3
B0
350
18FE
  3
B1
350
18FF
  3
B2
350
1900
  3
B3
350
1901
  3
B4
350
1902
  3
B5
350
1903
  3
B6
350
1904
  3
B7
350
1905
  3
B8
350
1906
  3
B9
350
1907
  3
C0
350
1908
  3
C1
350
1909
  3
C2
350
190A
  3
C3
350
190B
  3
C4
350
190C
  3
C5
350
190D
  3
C6
350
190E
  3
C7
350
190F
  3
C8
350
1910
  3
C9
350
1911
  3
D0
350
1912
  3
D1
350
1913
  3
D2
350
1914
  0
DICTIONARY
  5
18F1
102
{ACAD_REACTORS
330
7
102
}
330
7
100
AcDbDictionary
  3
STANDARD
350
18F2
  0
DICTIONARY
  5
18DF
102
{ACAD_REACTORS
330
7
102
}
330
7
100
AcDbDictionary
  3
2DWIREFRAME
350
18E5
  3
3D_HIDDEN
350
18E7
  3
3DWIREFRAME
350
18E6
  3
BASIC
350
18E4
  3
BRIGHTEN
350
18EB
  3
COLORCHANGE
350
18EF
  3
CONCEPTUAL
350
18E8
  3
DIM
350
18EA
  3
FACEPATTERN
350
18EE
  3
FLAT
350
18E0
  3
FLATWITHEDGES
350
18E1
  3
GOURAUD
350
18E2
  3
GOURAUDWITHEDGES
350
18E3
  3
LINEPATTERN
350
18ED
  3
REALISTIC
350
18E9
  3
THICKEN
350
18EC
  0
XRECORD
  5
480
102
{ACAD_REACTORS
330
7
102
}
330
7
100
AcDbXrecord
 90
   990106
  3

 60
     0
 61
     0
 62
     1
 63
     3
 64
     1
 65
     0
 66
     0
 67
     3
 68
     1
 69
     0
 70
     0
 71
     0
 72
     0
 40
0.0
170
     2
340
0
  0
XRECORD
  5
192F
102
{ACAD_REACTORS
330
7
102
}
330
7
100
AcDbXrecord
 90
        1
330
18F2
  0
DICTIONARY
  5
275D
102
{ACAD_REACTORS
330
7
102
}
330
7
100
AcDbDictionary
  3
CEPSNTYPE
350
2767
  3
DIMSTYLEDATA
350
276B
  3
FINGERPRINTGUID
350
2768
  3
HYPERLINKBASE
350
2760
  3
INSUNITS
350
2766
  3
LAYOUTDICT
350
2762
  3
LWETCUNION
350
2765
  3
PLOTSETDICT
350
2763
  3
PLOTSTYLNAMDICT
350
2764
  3
PSVPSCALE
350
276A
  3
PUCSBASE
350
276E
  3
PUCSORGBACK
350
2774
  3
PUCSORGBOTTOM
350
2770
  3
PUCSORGFRONT
350
2773
  3
PUCSORGLEFT
350
2771
  3
PUCSORGRIGHT
350
2772
  3
PUCSORGTOP
350
276F
  3
PUCSORTHOREF
350
276C
  3
PUCSORTHOVIEW
350
276D
  3
STYLESHEET
350
2761
  3
TSTACKALIGN
350
275E
  3
TSTACKSIZE
350
275F
  3
UCSBASE
350
2777
  3
UCSORGBACK
350
277D
  3
UCSORGBOTTOM
350
2779
  3
UCSORGFRONT
350
277C
  3
UCSORGLEFT
350
277A
  3
UCSORGRIGHT
350
277B
  3
UCSORGTOP
350
2778
  3
UCSORTHOREF
350
2775
  3
UCSORTHOVIEW
350
2776
  3
VERSIONGUID
350
2769
  0
DICTIONARY
  5
102
102
{ACAD_REACTORS
330
7
102
}
330
7
100
AcDbDictionary
  3
CANNOSCALE
350
1950
  3
CMLEADERSTYLE
350
194F
  3
CTABLESTYLE
350
194E
  3
DIMASSOC
350
103
  3
INDEXCTL
350
1951
  3
SORTENTS
350
549
  0
XRECORD
  5
271A
102
{ACAD_REACTORS
330
7
102
}
330
7
100
AcDbXrecord
  1
DWGPROPS COOKIE
  2

  3

  4

  6

  7

  8
ymorima
  9

300
=
301
=
302
=
303
=
304
=
305
=
306
=
307
=
308
=
309
=
 40
0.0443883564814815
 41
2454413.39284758
 42
2454419.600719942
  1

 90
        0
  0
XRECORD
  5
2722
102
{ACAD_REACTORS
330
1938
102
}
330
1938
100
AcDbXrecord
102
VTR_0.000_0.000_1.000_1.000_VISUALSTYLE
340
18E5
102
VTR_0.000_0.000_1.000_1.000_GRIDDISPLAY
 70
     3
102
VTR_0.000_0.000_1.000_1.000_GRIDMAJOR
 70
     5
102
VTR_0.000_0.000_1.000_1.000_DEFAULTLIGHTING
280
     1
102
VTR_0.000_0.000_1.000_1.000_DEFAULTLIGHTINGTYPE
 70
     1
102
VTR_0.000_0.000_1.000_1.000_BRIGHTNESS
141
0.0
102
VTR_0.000_0.000_1.000_1.000_CONTRAST
142
0.0
  0
DICTIONARY
  5
B10
102
{ACAD_REACTORS
330
B0F
102
}
330
B0F
100
AcDbDictionary
  0
XRECORD
  5
271D
102
{ACAD_REACTORS
330
191B
102
}
330
191B
100
AcDbXrecord
102
MATERIAL
340
18D7
  0
XRECORD
  5
191C
102
{ACAD_REACTORS
330
191B
102
}
330
191B
100
AcDbXrecord
290
     1
  0
XRECORD
  5
271C
102
{ACAD_REACTORS
330
191D
102
}
330
191D
100
AcDbXrecord
102
MATERIAL
340
18D7
  0
XRECORD
  5
191E
102
{ACAD_REACTORS
330
191D
102
}
330
191D
100
AcDbXrecord
290
     1
  0
XRECORD
  5
2728
102
{ACAD_REACTORS
330
1923
102
}
330
1923
100
AcDbXrecord
102
MATERIAL
340
18D7
  0
XRECORD
  5
1924
102
{ACAD_REACTORS
330
1923
102
}
330
1923
100
AcDbXrecord
290
     1
  0
XRECORD
  5
2729
102
{ACAD_REACTORS
330
1925
102
}
330
1925
100
AcDbXrecord
102
MATERIAL
340
18D7
  0
XRECORD
  5
1926
102
{ACAD_REACTORS
330
1925
102
}
330
1925
100
AcDbXrecord
290
     1
  0
XRECORD
  5
272B
102
{ACAD_REACTORS
330
1929
102
}
330
1929
100
AcDbXrecord
102
MATERIAL
340
18D7
  0
XRECORD
  5
192A
102
{ACAD_REACTORS
330
1929
102
}
330
1929
100
AcDbXrecord
290
     1
  0
XRECORD
  5
277F
102
{ACAD_REACTORS
330
277E
102
}
330
277E
100
AcDbXrecord
340
2
  0
XRECORD
  5
2781
102
{ACAD_REACTORS
330
2780
102
}
330
2780
100
AcDbXrecord
340
2757
  0
ACAD_PROXY_OBJECT
  5
18CF
102
{ACAD_XDICTIONARY
360
18D0
102
}
102
{ACAD_REACTORS
330
18C6
102
}
330
18C6
100
AcDbProxyObject
 90
      499
 91
      510
 93
     1340
310
42109E509B1BD8DAC02004014080404555555555555953FAA155555555555654FEA9AA400014080404555555555555953FAA155555555555654FEA9AA400000000000000E03F4080404555555555555953FAA155555555555654FEA9AA4014080404555555555555953FAA155555555555654FEA9AA4010201011555555555
310
55654FEA8555555555555953FAA6A9005020101155555555555654FEA8555555555555953FAA6A900D
 94
        0
1001
ACAD
1000
AcadProxyRoundTripData
1071
      504
1071
   655383
1070
     0
  0
ACAD_PROXY_OBJECT
  5
18C7
102
{ACAD_XDICTIONARY
360
18C8
102
}
102
{ACAD_REACTORS
330
18C6
102
}
330
18C6
100
AcDbProxyObject
 90
      499
 91
      510
 93
     1340
310
42109E53185E595C802004014080404555555555555953FAA155555555555654FEA9AA400014080404555555555555953FAA155555555555654FEA9AA400000000000000E03F4080404555555555555953FAA155555555555654FEA9AA4014080404555555555555953FAA155555555555654FEA9AA4010201011555555555
310
55654FEA8555555555555953FAA6A9005020101155555555555654FEA8555555555555953FAA6A900D
 94
        0
1001
ACAD
1000
AcadProxyRoundTripData
1071
      504
1071
   655383
1070
     0
  0
ACAD_PROXY_OBJECT
  5
18D7
102
{ACAD_XDICTIONARY
360
18D8
102
}
102
{ACAD_REACTORS
330
18C6
102
}
330
18C6
100
AcDbProxyObject
 90
      499
 91
      510
 93
     1332
310
41D1DB1BD8985B002004014080404555555555555953FAA155555555555654FEA9AA400014080404555555555555953FAA155555555555654FEA9AA400000000000000E03F4080404555555555555953FAA155555555555654FEA9AA4014080404555555555555953FAA155555555555654FEA9AA401020101155555555555
310
654FEA8555555555555953FAA6A9005020101155555555555654FEA8555555555555953FAA6A9000
 94
        0
1001
ACAD
1000
AcadProxyRoundTripData
1071
      504
1071
   655383
1070
     0
  0
ACAD_PROXY_OBJECT
  5
1916
102
{ACAD_REACTORS
330
1915
102
}
330
1915
100
AcDbProxyObject
 90
      499
 91
      510
 93
      618
310
40901902A4063FBFFFFFE056BD1B81E855B9FC0AD7A3703D0AD73F4254DD185B99185C990000AD7A3703D0AC73F90141901A02B5E8DC0F42B1CFC02B5E8DC0F42B1CFE5764000000000000300FC6
340
6A
340
0
340
16
340
0
 94
        0
1001
ACAD_MLEADERVER
1070
     2
1001
ACAD
1000
AcadProxyRoundTripData
1071
      508
1071
   655383
1070
     0
  0
MLINESTYLE
  5
78
102
{ACAD_REACTORS
330
76
102
}
330
76
100
AcDbMlineStyle
  2
STANDARD
 70
     0
  3

 62
     0
 51
90.0
 52
90.0
 71
     2
 49
0.5
 62
   256
  6
BYLAYER
 49
-0.5
 62
   256
  6
BYLAYER
  0
ACDBPLACEHOLDER
  5
5
102
{ACAD_REACTORS
330
6
102
}
330
6
100
AcDbPlaceHolder
280
     0
  0
ACAD_PROXY_OBJECT
  5
18F4
102
{ACAD_REACTORS
330
18F3
102
}
330
18F3
100
AcDbProxyObject
 90
      499
 91
      510
 93
       49
310
904313A3100598
 94
        0
1001
ACAD
1000
AcadProxyRoundTripData
1071
      507
1071
   655383
1070
     0
  0
ACAD_PROXY_OBJECT
  5
18F5
102
{ACAD_REACTORS
330
18F3
102
}
330
18F3
100
AcDbProxyObject
 90
      499
 91
      510
 93
      113
310
904313A3200400000000000000406B
 94
        0
1001
ACAD
1000
AcadProxyRoundTripData
1071
      507
1071
   655383
1070
     0
  0
ACAD_PROXY_OBJECT
  5
18F6
102
{ACAD_REACTORS
330
18F3
102
}
330
18F3
100
AcDbProxyObject
 90
      499
 91
      510
 93
      113
310
904313A3400400000000000010406B
 94
        0
1001
ACAD
1000
AcadProxyRoundTripData
1071
      507
1071
   655383
1070
     0
  0
ACAD_PROXY_OBJECT
  5
18F7
102
{ACAD_REACTORS
330
18F3
102
}
330
18F3
100
AcDbProxyObject
 90
      499
 91
      510
 93
      113
310
904313A3500400000000000014406B
 94
        0
1001
ACAD
1000
AcadProxyRoundTripData
1071
      507
1071
   655383
1070
     0
  0
ACAD_PROXY_OBJECT
  5
18F8
102
{ACAD_REACTORS
330
18F3
102
}
330
18F3
100
AcDbProxyObject
 90
      499
 91
      510
 93
      113
310
904313A3800400000000000020406B
 94
        0
1001
ACAD
1000
AcadProxyRoundTripData
1071
      507
1071
   655383
1070
     0
  0
ACAD_PROXY_OBJECT
  5
18F9
102
{ACAD_REACTORS
330
18F3
102
}
330
18F3
100
AcDbProxyObject
 90
      499
 91
      510
 93
      121
310
905313A3130004000000000000244051
 94
        0
1001
ACAD
1000
AcadProxyRoundTripData
1071
      507
1071
   655383
1070
     0
  0
ACAD_PROXY_OBJECT
  5
18FA
102
{ACAD_REACTORS
330
18F3
102
}
330
18F3
100
AcDbProxyObject
 90
      499
 91
      510
 93
      121
310
905313A3136004000000000000304051
 94
        0
1001
ACAD
1000
AcadProxyRoundTripData
1071
      507
1071
   655383
1070
     0
  0
ACAD_PROXY_OBJECT
  5
18FB
102
{ACAD_REACTORS
330
18F3
102
}
330
18F3
100
AcDbProxyObject
 90
      499
 91
      510
 93
      121
310
905313A3230004000000000000344051
 94
        0
1001
ACAD
1000
AcadProxyRoundTripData
1071
      507
1071
   655383
1070
     0
  0
ACAD_PROXY_OBJECT
  5
18FC
102
{ACAD_REACTORS
330
18F3
102
}
330
18F3
100
AcDbProxyObject
 90
      499
 91
      510
 93
      121
310
905313A33300040000000000003E4051
 94
        0
1001
ACAD
1000
AcadProxyRoundTripData
1071
      507
1071
   655383
1070
     0
  0
ACAD_PROXY_OBJECT
  5
18FD
102
{ACAD_REACTORS
330
18F3
102
}
330
18F3
100
AcDbProxyObject
 90
      499
 91
      510
 93
      121
310
905313A3430004000000000000444051
 94
        0
1001
ACAD
1000
AcadProxyRoundTripData
1071
      507
1071
   655383
1070
     0
  0
ACAD_PROXY_OBJECT
  5
18FE
102
{ACAD_REACTORS
330
18F3
102
}
330
18F3
100
AcDbProxyObject
 90
      499
 91
      510
 93
      121
310
905313A3530004000000000000494051
 94
        0
1001
ACAD
1000
AcadProxyRoundTripData
1071
      507
1071
   655383
1070
     0
  0
ACAD_PROXY_OBJECT
  5
18FF
102
{ACAD_REACTORS
330
18F3
102
}
330
18F3
100
AcDbProxyObject
 90
      499
 91
      510
 93
      129
310
906313A313030004000000000000594038
 94
        0
1001
ACAD
1000
AcadProxyRoundTripData
1071
      507
1071
   655383
1070
     0
  0
ACAD_PROXY_OBJECT
  5
1900
102
{ACAD_REACTORS
330
18F3
102
}
330
18F3
100
AcDbProxyObject
 90
      499
 91
      510
 93
      113
310
904323A31000000000000000010159
 94
        0
1001
ACAD
1000
AcadProxyRoundTripData
1071
      507
1071
   655383
1070
     0
  0
ACAD_PROXY_OBJECT
  5
1901
102
{ACAD_REACTORS
330
18F3
102
}
330
18F3
100
AcDbProxyObject
 90
      499
 91
      510
 93
      113
310
904343A31000000000000000410159
 94
        0
1001
ACAD
1000
AcadProxyRoundTripData
1071
      507
1071
   655383
1070
     0
  0
ACAD_PROXY_OBJECT
  5
1902
102
{ACAD_REACTORS
330
18F3
102
}
330
18F3
100
AcDbProxyObject
 90
      499
 91
      510
 93
      113
310
904383A31000000000000000810159
 94
        0
1001
ACAD
1000
AcadProxyRoundTripData
1071
      507
1071
   655383
1070
     0
  0
ACAD_PROXY_OBJECT
  5
1903
102
{ACAD_REACTORS
330
18F3
102
}
330
18F3
100
AcDbProxyObject
 90
      499
 91
      510
 93
      121
310
90531303A31000000000000000910140
 94
        0
1001
ACAD
1000
AcadProxyRoundTripData
1071
      507
1071
   655383
1070
     0
  0
ACAD_PROXY_OBJECT
  5
1904
102
{ACAD_REACTORS
330
18F3
102
}
330
18F3
100
AcDbProxyObject
 90
      499
 91
      510
 93
      129
310
9063130303A31000000000000001650138
 94
        0
1001
ACAD
1000
AcadProxyRoundTripData
1071
      507
1071
   655383
1070
     0
  0
ACAD_PROXY_OBJECT
  5
1905
102
{ACAD_REACTORS
330
18F3
102
}
330
18F3
100
AcDbProxyObject
 90
      499
 91
      510
 93
      265
310
90F312F31323822203D2031272D302200000000000000200FC00000000000028402B
 94
        0
1001
ACAD
1000
AcadProxyRoundTripData
1071
      507
1071
   655383
1070
     0
  0
ACAD_PROXY_OBJECT
  5
1906
102
{ACAD_REACTORS
330
18F3
102
}
330
18F3
100
AcDbProxyObject
 90
      499
 91
      510
 93
      257
310
90E312F363422203D2031272D302200000000000000240FC000000000000284040
 94
        0
1001
ACAD
1000
AcadProxyRoundTripData
1071
      507
1071
   655383
1070
     0
  0
ACAD_PROXY_OBJECT
  5
1907
102
{ACAD_REACTORS
330
18F3
102
}
330
18F3
100
AcDbProxyObject
 90
      499
 91
      510
 93
      257
310
90E312F333222203D2031272D302200000000000000280FC000000000000284040
 94
        0
1001
ACAD
1000
AcadProxyRoundTripData
1071
      507
1071
   655383
1070
     0
  0
ACAD_PROXY_OBJECT
  5
1908
102
{ACAD_REACTORS
330
18F3
102
}
330
18F3
100
AcDbProxyObject
 90
      499
 91
      510
 93
      257
310
90E312F313622203D2031272D3022000000000000002C0FC000000000000284040
 94
        0
1001
ACAD
1000
AcadProxyRoundTripData
1071
      507
1071
   655383
1070
     0
  0
ACAD_PROXY_OBJECT
  5
1909
102
{ACAD_REACTORS
330
18F3
102
}
330
18F3
100
AcDbProxyObject
 90
      499
 91
      510
 93
      257
310
90E332F333222203D2031272D3022000000000000002E0FC000000000000284040
 94
        0
1001
ACAD
1000
AcadProxyRoundTripData
1071
      507
1071
   655383
1070
     0
  0
ACAD_PROXY_OBJECT
  5
190A
102
{ACAD_REACTORS
330
18F3
102
}
330
18F3
100
AcDbProxyObject
 90
      499
 91
      510
 93
      249
310
90D312F3822203D2031272D302200000000000000300FC000000000000284040
 94
        0
1001
ACAD
1000
AcadProxyRoundTripData
1071
      507
1071
   655383
1070
     0
  0
ACAD_PROXY_OBJECT
  5
190B
102
{ACAD_REACTORS
330
18F3
102
}
330
18F3
100
AcDbProxyObject
 90
      499
 91
      510
 93
      257
310
90E332F313622203D2031272D302200000000000000320FC000000000000284040
 94
        0
1001
ACAD
1000
AcadProxyRoundTripData
1071
      507
1071
   655383
1070
     0
  0
ACAD_PROXY_OBJECT
  5
190C
102
{ACAD_REACTORS
330
18F3
102
}
330
18F3
100
AcDbProxyObject
 90
      499
 91
      510
 93
      249
310
90D312F3422203D2031272D302200000000000000340FC000000000000284040
 94
        0
1001
ACAD
1000
AcadProxyRoundTripData
1071
      507
1071
   655383
1070
     0
  0
ACAD_PROXY_OBJECT
  5
190D
102
{ACAD_REACTORS
330
18F3
102
}
330
18F3
100
AcDbProxyObject
 90
      499
 91
      510
 93
      249
310
90D332F3822203D2031272D302200000000000000360FC000000000000284040
 94
        0
1001
ACAD
1000
AcadProxyRoundTripData
1071
      507
1071
   655383
1070
     0
  0
ACAD_PROXY_OBJECT
  5
190E
102
{ACAD_REACTORS
330
18F3
102
}
330
18F3
100
AcDbProxyObject
 90
      499
 91
      510
 93
      249
310
90D312F3222203D2031272D302200000000000000380FC000000000000284040
 94
        0
1001
ACAD
1000
AcadProxyRoundTripData
1071
      507
1071
   655383
1070
     0
  0
ACAD_PROXY_OBJECT
  5
190F
102
{ACAD_REACTORS
330
18F3
102
}
330
18F3
100
AcDbProxyObject
 90
      499
 91
      510
 93
      249
310
90D332F3422203D2031272D3022000000000000003A0FC000000000000284040
 94
        0
1001
ACAD
1000
AcadProxyRoundTripData
1071
      507
1071
   655383
1070
     0
  0
ACAD_PROXY_OBJECT
  5
1910
102
{ACAD_REACTORS
330
18F3
102
}
330
18F3
100
AcDbProxyObject
 90
      499
 91
      510
 93
      169
310
90B3122203D2031272D3022004000000000000284020
 94
        0
1001
ACAD
1000
AcadProxyRoundTripData
1071
      507
1071
   655383
1070
     0
  0
ACAD_PROXY_OBJECT
  5
1911
102
{ACAD_REACTORS
330
18F3
102
}
330
18F3
100
AcDbProxyObject
 90
      499
 91
      510
 93
      265
310
90F312D312F3222203D2031272D3022000000000000003E0FC00000000000028402B
 94
        0
1001
ACAD
1000
AcadProxyRoundTripData
1071
      507
1071
   655383
1070
     0
  0
ACAD_PROXY_OBJECT
  5
1912
102
{ACAD_REACTORS
330
18F3
102
}
330
18F3
100
AcDbProxyObject
 90
      499
 91
      510
 93
      233
310
90B3322203D2031272D30220000000000000002100000000000000284000
 94
        0
1001
ACAD
1000
AcadProxyRoundTripData
1071
      507
1071
   655383
1070
     0
  0
ACAD_PROXY_OBJECT
  5
1913
102
{ACAD_REACTORS
330
18F3
102
}
330
18F3
100
AcDbProxyObject
 90
      499
 91
      510
 93
      233
310
90B3622203D2031272D30220000000000000006100000000000000284000
 94
        0
1001
ACAD
1000
AcadProxyRoundTripData
1071
      507
1071
   655383
1070
     0
  0
ACAD_PROXY_OBJECT
  5
1914
102
{ACAD_REACTORS
330
18F3
102
}
330
18F3
100
AcDbProxyObject
 90
      499
 91
      510
 93
      257
310
90E31272D3022203D2031272D3022000000000000000A100000000000000284040
 94
        0
1001
ACAD
1000
AcadProxyRoundTripData
1071
      507
1071
   655383
1070
     0
  0
ACAD_PROXY_OBJECT
  5
18F2
102
{ACAD_XDICTIONARY
360
192D
102
}
102
{ACAD_REACTORS
330
18F1
102
}
330
18F1
100
AcDbProxyObject
 90
      499
 91
      510
 93
     1849
310
4254DD185B99185C990028B81E85EB51B8AE3F2E07A17AD46E2B8FC02B5E8DC0F42B1CFD028000000C1008070000C3001FDFF8000000C1003FBFF000000182007F7FE00000030400FEFFC00000060801FDFF8000000C1003FBFF00000018200000000000000681FA0B0000001820100E000186003FBFF000000182007F7FE0
310
0000030400FEFFC00000060801FDFF8000000C1003FBFF000000182007F7FE000000304000AD7A3703D0AC73F4160000003040201C00030C007F7FE00000030400FEFFC00000060801FDFF8000000C1003FBFF000000182007F7FE00000030400FEFFC00000060804D
340
16
340
16
340
16
 94
        0
1001
ACAD
1000
AcadProxyRoundTripData
1071
      506
1071
   655383
1070
     0
  0
ACAD_PROXY_OBJECT
  5
18E5
102
{ACAD_REACTORS
330
18DF
102
}
330
18DF
100
AcDbProxyObject
 90
      499
 91
      510
 93
      444
310
430C9915DA5C99599C985B59401049028333333333333E3BF0000000000000FB0107901411070040501600405405064090741402480A0340
 94
        0
1001
ACAD
1000
AcDbSavedByObjectVersion
1070
     0
1000
AcadProxyRoundTripData
1071
      505
1071
   655383
1070
     0
  0
ACAD_PROXY_OBJECT
  5
18E7
102
{ACAD_REACTORS
330
18DF
102
}
330
18DF
100
AcDbProxyObject
 90
      499
 91
      510
 93
      508
310
428CD108121A5919195B8010640502408333333333333E3BF0000000000000FB01079024090700405020000000000001110200405405064090740C02480A0340
 94
        0
1001
ACAD
1000
AcDbSavedByObjectVersion
1070
     0
1000
AcadProxyRoundTripData
1071
      505
1071
   655383
1070
     0
  0
ACAD_PROXY_OBJECT
  5
18E6
102
{ACAD_REACTORS
330
18DF
102
}
330
18DF
100
AcDbProxyObject
 90
      499
 91
      510
 93
      444
310
430CD915DA5C99599C985B59401059028333333333333E3BF0000000000000FB0107901411070040501600405405064090741402480A0340
 94
        0
1001
ACAD
1000
AcDbSavedByObjectVersion
1070
     0
1000
AcadProxyRoundTripData
1071
      505
1071
   655383
1070
     0
  0
ACAD_PROXY_OBJECT
  5
18E4
102
{ACAD_REACTORS
330
18DF
102
}
330
18DF
100
AcDbProxyObject
 90
      499
 91
      510
 93
      396
310
4190985CDA58C0107406404333333333333E3BF0000000000000FB0107A41107004050150841D405064090741402480A0356
 94
        0
1001
ACAD
1000
AcDbSavedByObjectVersion
1070
     0
1000
AcadProxyRoundTripData
1071
      505
1071
   655383
1070
     0
  0
ACAD_PROXY_OBJECT
  5
18EB
102
{ACAD_REACTORS
330
18DF
102
}
330
18DF
100
AcDbProxyObject
 90
      499
 91
      510
 93
      436
310
42509C9A59DA1D195B8010C409028333333333333E3BF0000000000000FB010790141107004050150841D405064090741402480A029956
 94
        0
1001
ACAD
1000
AcDbSavedByObjectVersion
1070
     0
1000
AcadProxyRoundTripData
1071
      505
1071
   655383
1070
     0
  0
ACAD_PROXY_OBJECT
  5
18EF
102
{ACAD_REACTORS
330
18DF
102
}
330
18DF
100
AcDbProxyObject
 90
      499
 91
      510
 93
      460
310
4310DBDB1BDC90DA185B99D9401104090240C333333333333E3BF0000000000000FB0108901411070040501508421405064090741402480A0354
 94
        0
1001
ACAD
1000
AcDbSavedByObjectVersion
1070
     0
1000
AcadProxyRoundTripData
1071
      505
1071
   655383
1070
     0
  0
ACAD_PROXY_OBJECT
  5
18E8
102
{ACAD_REACTORS
330
18DF
102
}
330
18DF
100
AcDbProxyObject
 90
      499
 91
      510
 93
      508
310
42D0DBDB98D95C1D1D585B0010940D028333333333333E3BF0000000000000FB0107902409070040501000000000000111010841D405064090740C02480A0340
 94
        0
1001
ACAD
1000
AcDbSavedByObjectVersion
1070
     0
1000
AcadProxyRoundTripData
1071
      505
1071
   655383
1070
     0
  0
ACAD_PROXY_OBJECT
  5
18EA
102
{ACAD_REACTORS
330
18DF
102
}
330
18DF
100
AcDbProxyObject
 90
      499
 91
      510
 93
      420
310
41111A5B4010B409028333333333333E3BF0000000000000FB010790141107004050150841D405064090741402480A02677FFFFFDB
 94
        0
1001
ACAD
1000
AcDbSavedByObjectVersion
1070
     0
1000
AcadProxyRoundTripData
1071
      505
1071
   655383
1070
     0
  0
ACAD_PROXY_OBJECT
  5
18EE
102
{ACAD_REACTORS
330
18DF
102
}
330
18DF
100
AcDbProxyObject
 90
      499
 91
      510
 93
      452
310
43119858D95C185D1D195C9B8010F409028333333333333E3BF0000000000000FB010790141107004050150841D405064090741402480A0350
 94
        0
1001
ACAD
1000
AcDbSavedByObjectVersion
1070
     0
1000
AcadProxyRoundTripData
1071
      505
1071
   655383
1070
     0
  0
ACAD_PROXY_OBJECT
  5
18E0
102
{ACAD_REACTORS
330
18DF
102
}
330
18DF
100
AcDbProxyObject
 90
      499
 91
      510
 93
      396
310
41519B185D00240901404333333333333E3BF0000000000000F9010740A41107004050150841D405064090741402480A1B55
 94
        0
1001
ACAD
1000
AcDbSavedByObjectVersion
1070
     0
1000
AcadProxyRoundTripData
1071
      505
1071
   655383
1070
     0
  0
ACAD_PROXY_OBJECT
  5
18E1
102
{ACAD_REACTORS
330
18DF
102
}
330
18DF
100
AcDbProxyObject
 90
      499
 91
      510
 93
      484
310
43919B185D15DA5D1A115919D95CC010140901404333333333333E3BF0000000000000F9010740901411070040501600405405064090741402480A1B50
 94
        0
1001
ACAD
1000
AcDbSavedByObjectVersion
1070
     0
1000
AcadProxyRoundTripData
1071
      505
1071
   655383
1070
     0
  0
ACAD_PROXY_OBJECT
  5
18E2
102
{ACAD_REACTORS
330
18DF
102
}
330
18DF
100
AcDbProxyObject
 90
      499
 91
      510
 93
      420
310
4211DBDD5C985D590010240902404333333333333E3BF0000000000000F9010740A411070040501641D405064090741402480A1B50
 94
        0
1001
ACAD
1000
AcDbSavedByObjectVersion
1070
     0
1000
AcadProxyRoundTripData
1071
      505
1071
   655383
1070
     0
  0
ACAD_PROXY_OBJECT
  5
18E3
102
{ACAD_REACTORS
330
18DF
102
}
330
18DF
100
AcDbProxyObject
 90
      499
 91
      510
 93
      508
310
4451DBDD5C985D5915DA5D1A115919D95CC010340902404333333333333E3BF0000000000000F9010740901411070040501600405405064090741402480A1B50
 94
        0
1001
ACAD
1000
AcDbSavedByObjectVersion
1070
     0
1000
AcadProxyRoundTripData
1071
      505
1071
   655383
1070
     0
  0
ACAD_PROXY_OBJECT
  5
18ED
102
{ACAD_REACTORS
330
18DF
102
}
330
18DF
100
AcDbProxyObject
 90
      499
 91
      510
 93
      452
310
43131A5B995C185D1D195C9B8010E409028333333333333E3BF0000000000000FB010790141107004050750841D405064090741402483A0350
 94
        0
1001
ACAD
1000
AcDbSavedByObjectVersion
1070
     0
1000
AcadProxyRoundTripData
1071
      505
1071
   655383
1070
     0
  0
ACAD_PROXY_OBJECT
  5
18E9
102
{ACAD_REACTORS
330
18DF
102
}
330
18DF
100
AcDbProxyObject
 90
      499
 91
      510
 93
      428
310
429499585B1A5CDD1A58C0108409028333333333333E3BF0000000000000FB01079019070040501508421405064090741402480A1B45
 94
        0
1001
ACAD
1000
AcDbSavedByObjectVersion
1070
     0
1000
AcadProxyRoundTripData
1071
      505
1071
   655383
1070
     0
  0
ACAD_PROXY_OBJECT
  5
18EC
102
{ACAD_REACTORS
330
18DF
102
}
330
18DF
100
AcDbProxyObject
 90
      499
 91
      510
 93
      420
310
42151A1A58DAD95B8010D409028333333333333E3BF0000000000000FB010790141107004050150C41D405064090741402480A0352
 94
        0
1001
ACAD
1000
AcDbSavedByObjectVersion
1070
     0
1000
AcadProxyRoundTripData
1071
      505
1071
   655383
1070
     0
  0
XRECORD
  5
2767
102
{ACAD_REACTORS
330
275D
102
}
330
275D
100
AcDbXrecord
 90
        0
  0
XRECORD
  5
276B
102
{ACAD_REACTORS
330
275D
102
}
330
275D
100
AcDbXrecord
1000
DSTYLE
1002
{
1070
   179
 70
     2
1070
   277
 70
     6
1002
}
  0
XRECORD
  5
2768
102
{ACAD_REACTORS
330
275D
102
}
330
275D
100
AcDbXrecord
  1
{6385560B-F4B1-4644-A7C2-A3E32AC3D232}
  0
XRECORD
  5
2760
102
{ACAD_REACTORS
330
275D
102
}
330
275D
100
AcDbXrecord
  1

  0
XRECORD
  5
2766
102
{ACAD_REACTORS
330
275D
102
}
330
275D
100
AcDbXrecord
 90
        0
  0
XRECORD
  5
2762
102
{ACAD_REACTORS
330
275D
102
}
330
275D
100
AcDbXrecord
340
61
  0
XRECORD
  5
2765
102
{ACAD_REACTORS
330
275D
102
}
330
275D
100
AcDbXrecord
 90
    10781
  0
XRECORD
  5
2763
102
{ACAD_REACTORS
330
275D
102
}
330
275D
100
AcDbXrecord
340
77
  0
XRECORD
  5
2764
102
{ACAD_REACTORS
330
275D
102
}
330
275D
100
AcDbXrecord
340
6
  0
XRECORD
  5
276A
102
{ACAD_REACTORS
330
275D
102
}
330
275D
100
AcDbXrecord
 40
0.0
  0
XRECORD
  5
276E
102
{ACAD_REACTORS
330
275D
102
}
330
275D
100
AcDbXrecord
340
0
  0
XRECORD
  5
2774
102
{ACAD_REACTORS
330
275D
102
}
330
275D
100
AcDbXrecord
 10
0.0
 20
0.0
 30
0.0
  0
XRECORD
  5
2770
102
{ACAD_REACTORS
330
275D
102
}
330
275D
100
AcDbXrecord
 10
0.0
 20
0.0
 30
0.0
  0
XRECORD
  5
2773
102
{ACAD_REACTORS
330
275D
102
}
330
275D
100
AcDbXrecord
 10
0.0
 20
0.0
 30
0.0
  0
XRECORD
  5
2771
102
{ACAD_REACTORS
330
275D
102
}
330
275D
100
AcDbXrecord
 10
0.0
 20
0.0
 30
0.0
  0
XRECORD
  5
2772
102
{ACAD_REACTORS
330
275D
102
}
330
275D
100
AcDbXrecord
 10
0.0
 20
0.0
 30
0.0
  0
XRECORD
  5
276F
102
{ACAD_REACTORS
330
275D
102
}
330
275D
100
AcDbXrecord
 10
0.0
 20
0.0
 30
0.0
  0
XRECORD
  5
276C
102
{ACAD_REACTORS
330
275D
102
}
330
275D
100
AcDbXrecord
340
0
  0
XRECORD
  5
276D
102
{ACAD_REACTORS
330
275D
102
}
330
275D
100
AcDbXrecord
 70
     0
  0
XRECORD
  5
2761
102
{ACAD_REACTORS
330
275D
102
}
330
275D
100
AcDbXrecord
  1
Sekkei.ctb
  0
XRECORD
  5
275E
102
{ACAD_REACTORS
330
275D
102
}
330
275D
100
AcDbXrecord
 90
        1
  0
XRECORD
  5
275F
102
{ACAD_REACTORS
330
275D
102
}
330
275D
100
AcDbXrecord
 90
       70
  0
XRECORD
  5
2777
102
{ACAD_REACTORS
330
275D
102
}
330
275D
100
AcDbXrecord
340
0
  0
XRECORD
  5
277D
102
{ACAD_REACTORS
330
275D
102
}
330
275D
100
AcDbXrecord
 10
0.0
 20
0.0
 30
0.0
  0
XRECORD
  5
2779
102
{ACAD_REACTORS
330
275D
102
}
330
275D
100
AcDbXrecord
 10
0.0
 20
0.0
 30
0.0
  0
XRECORD
  5
277C
102
{ACAD_REACTORS
330
275D
102
}
330
275D
100
AcDbXrecord
 10
0.0
 20
0.0
 30
0.0
  0
XRECORD
  5
277A
102
{ACAD_REACTORS
330
275D
102
}
330
275D
100
AcDbXrecord
 10
0.0
 20
0.0
 30
0.0
  0
XRECORD
  5
277B
102
{ACAD_REACTORS
330
275D
102
}
330
275D
100
AcDbXrecord
 10
0.0
 20
0.0
 30
0.0
  0
XRECORD
  5
2778
102
{ACAD_REACTORS
330
275D
102
}
330
275D
100
AcDbXrecord
 10
0.0
 20
0.0
 30
0.0
  0
XRECORD
  5
2775
102
{ACAD_REACTORS
330
275D
102
}
330
275D
100
AcDbXrecord
340
0
  0
XRECORD
  5
2776
102
{ACAD_REACTORS
330
275D
102
}
330
275D
100
AcDbXrecord
 70
     0
  0
XRECORD
  5
2769
102
{ACAD_REACTORS
330
275D
102
}
330
275D
100
AcDbXrecord
  1
{3FB94464-5AEE-47CC-8CC0-9B8995DDC797}
  0
DICTIONARYVAR
  5
1950
102
{ACAD_REACTORS
330
102
102
}
330
102
100
DictionaryVariables
280
     0
  1
1:1
  0
DICTIONARYVAR
  5
194F
102
{ACAD_REACTORS
330
102
102
}
330
102
100
DictionaryVariables
280
     0
  1
STANDARD
  0
DICTIONARYVAR
  5
194E
102
{ACAD_REACTORS
330
102
102
}
330
102
100
DictionaryVariables
280
     0
  1
STANDARD
  0
DICTIONARYVAR
  5
103
102
{ACAD_REACTORS
330
102
102
}
330
102
100
DictionaryVariables
280
     0
  1
1
  0
DICTIONARYVAR
  5
1951
102
{ACAD_REACTORS
330
102
102
}
330
102
100
DictionaryVariables
280
     0
  1
0
  0
DICTIONARYVAR
  5
549
102
{ACAD_REACTORS
330
102
102
}
330
102
100
DictionaryVariables
280
     0
  1
96
  0
DICTIONARY
  5
18D0
330
18CF
100
AcDbDictionary
280
     1
  3
ACAD_XREC_ROUNDTRIP
360
272D
  3
BUMPTILE
360
18D2
  3
DIFFUSETILE
360
18D1
  3
OPACITYTILE
360
18D5
  3
REFLECTIONTILE
360
18D4
  3
REFRACTIONTILE
360
18D6
  3
SPECULARTILE
360
18D3
  0
DICTIONARY
  5
18C8
330
18C7
100
AcDbDictionary
280
     1
  3
ACAD_XREC_ROUNDTRIP
360
272C
  3
BUMPTILE
360
18CA
  3
DIFFUSETILE
360
18C9
  3
OPACITYTILE
360
18CD
  3
REFLECTIONTILE
360
18CC
  3
REFRACTIONTILE
360
18CE
  3
SPECULARTILE
360
18CB
  0
DICTIONARY
  5
18D8
330
18D7
100
AcDbDictionary
280
     1
  3
ACAD_XREC_ROUNDTRIP
360
272E
  3
BUMPTILE
360
18DA
  3
DIFFUSETILE
360
18D9
  3
OPACITYTILE
360
18DD
  3
REFLECTIONTILE
360
18DC
  3
REFRACTIONTILE
360
18DE
  3
SPECULARTILE
360
18DB
  0
DICTIONARY
  5
192D
330
18F2
100
AcDbDictionary
280
     1
  3
ACAD_ROUNDTRIP_2008_TABLES
360
2719
  3
ACAD_XREC_ROUNDTRIP
360
272F
  0
XRECORD
  5
272D
102
{ACAD_REACTORS
330
18D0
102
}
330
18D0
100
AcDbXrecord
102
MATERIAL
148
0.0
149
0.0
149
0.0
 93
        0
 94
      127
282
     0
 72
     0
 77
     0
171
     0
175
     0
179
     0
273
     0
  0
XRECORD
  5
18D2
102
{ACAD_REACTORS
330
18D0
102
}
330
18D0
100
AcDbXrecord
270
     1
271
     1
  0
XRECORD
  5
18D1
102
{ACAD_REACTORS
330
18D0
102
}
330
18D0
100
AcDbXrecord
270
     1
271
     1
  0
XRECORD
  5
18D5
102
{ACAD_REACTORS
330
18D0
102
}
330
18D0
100
AcDbXrecord
270
     1
271
     1
  0
XRECORD
  5
18D4
102
{ACAD_REACTORS
330
18D0
102
}
330
18D0
100
AcDbXrecord
270
     1
271
     1
  0
XRECORD
  5
18D6
102
{ACAD_REACTORS
330
18D0
102
}
330
18D0
100
AcDbXrecord
270
     1
271
     1
  0
XRECORD
  5
18D3
102
{ACAD_REACTORS
330
18D0
102
}
330
18D0
100
AcDbXrecord
270
     1
271
     1
  0
XRECORD
  5
272C
102
{ACAD_REACTORS
330
18C8
102
}
330
18C8
100
AcDbXrecord
102
MATERIAL
148
0.0
149
0.0
149
0.0
 93
        0
 94
      127
282
     0
 72
     0
 77
     0
171
     0
175
     0
179
     0
273
     0
  0
XRECORD
  5
18CA
102
{ACAD_REACTORS
330
18C8
102
}
330
18C8
100
AcDbXrecord
270
     1
271
     1
  0
XRECORD
  5
18C9
102
{ACAD_REACTORS
330
18C8
102
}
330
18C8
100
AcDbXrecord
270
     1
271
     1
  0
XRECORD
  5
18CD
102
{ACAD_REACTORS
330
18C8
102
}
330
18C8
100
AcDbXrecord
270
     1
271
     1
  0
XRECORD
  5
18CC
102
{ACAD_REACTORS
330
18C8
102
}
330
18C8
100
AcDbXrecord
270
     1
271
     1
  0
XRECORD
  5
18CE
102
{ACAD_REACTORS
330
18C8
102
}
330
18C8
100
AcDbXrecord
270
     1
271
     1
  0
XRECORD
  5
18CB
102
{ACAD_REACTORS
330
18C8
102
}
330
18C8
100
AcDbXrecord
270
     1
271
     1
  0
XRECORD
  5
272E
102
{ACAD_REACTORS
330
18D8
102
}
330
18D8
100
AcDbXrecord
102
MATERIAL
148
0.0
149
0.0
149
0.0
 93
        0
 94
      127
282
     0
 72
     0
 77
     0
171
     0
175
     0
179
     0
273
     0
  0
XRECORD
  5
18DA
102
{ACAD_REACTORS
330
18D8
102
}
330
18D8
100
AcDbXrecord
270
     1
271
     1
  0
XRECORD
  5
18D9
102
{ACAD_REACTORS
330
18D8
102
}
330
18D8
100
AcDbXrecord
270
     1
271
     1
  0
XRECORD
  5
18DD
102
{ACAD_REACTORS
330
18D8
102
}
330
18D8
100
AcDbXrecord
270
     1
271
     1
  0
XRECORD
  5
18DC
102
{ACAD_REACTORS
330
18D8
102
}
330
18D8
100
AcDbXrecord
270
     1
271
     1
  0
XRECORD
  5
18DE
102
{ACAD_REACTORS
330
18D8
102
}
330
18D8
100
AcDbXrecord
270
     1
271
     1
  0
XRECORD
  5
18DB
102
{ACAD_REACTORS
330
18D8
102
}
330
18D8
100
AcDbXrecord
270
     1
271
     1
  0
ACAD_PROXY_OBJECT
  5
2719
102
{ACAD_REACTORS
330
192D
102
}
330
192D
100
AcDbProxyObject
 90
      499
 91
      510
 93
     5304
310
40D054060020000020000003200101A000080002A5058000000C100000000000000340FD012E07A17AD46E2B8FCB81E85EB51B8AE3F2E07A17AD46E2B8FCB81E85EB51B8AE3F02B5E8DC0F42B1CFC0AD7A3703D0AC73F419019018000000C1003FBFFFFFE02B5E8DC0F42A9CFD029018000000C1003FBFFFFFE02B5E8DC0F4
310
2A9CFD049018000000C1003FBFFFFFE02B5E8DC0F42A9CFD089018000000C1003FBFFFFFE02B5E8DC0F42A9CFD109018000000C1003FBFFFFFE02B5E8DC0F42A9CFD209018000000C1003FBFFFFFE02B5E8DC0F42A9CFD01405075F5449544C450041501A8000000C800406800020000A9416000000304000AD7A3703D0AC7
310
3F404B81E85EB51B8AE3F2E07A17AD46E2B8FCB81E85EB51B8AE3F2E07A17AD46E2B8FC0AD7A3703D0AC73F02B5E8DC0F42B1CFD0640640600000030400FEFFFFFF80AD7A3703D0AA73F40A40600000030400FEFFFFFF80AD7A3703D0AA73F41240600000030400FEFFFFFF80AD7A3703D0AA73F42240600000030400FEFFF
310
FFF80AD7A3703D0AA73F44240600000030400FEFFFFFF80AD7A3703D0AA73F48240600000030400FEFFFFFF80AD7A3703D0AA73F409014217D2115051115480105406A0000003200101A000080002A5028000000C10002B5E8DC0F42B1CFD012E07A17AD46E2B8FCB81E85EB51B8AE3F2E07A17AD46E2B8FCB81E85EB51B8A
310
E3F02B5E8DC0F42B1CFC0AD7A3703D0AC73F419019018000000C1003FBFFFFFE02B5E8DC0F42A9CFD029018000000C1003FBFFFFFE02B5E8DC0F42A9CFD049018000000C1003FBFFFFFE02B5E8DC0F42A9CFD089018000000C1003FBFFFFFE02B5E8DC0F42A9CFD109018000000C1003FBFFFFFE02B5E8DC0F42A9CFD20901
310
8000000C1003FBFFFFFE02B5E8DC0F42A9CFD03409065F444154410000
340
16
340
0
340
0
340
0
340
0
340
0
340
0
340
16
340
0
340
0
340
0
340
0
340
0
340
0
340
16
340
0
340
0
340
0
340
0
340
0
340
0
 94
        0
1001
ACAD
1000
AcadProxyRoundTripData
1071
      509
1071
   655383
1070
     0
  0
XRECORD
  5
272F
102
{ACAD_REACTORS
330
192D
102
}
330
192D
100
AcDbXrecord
102
ACAD_ROUNDTRIP_PRE2007_TABLESTYLE
 90
      512
 91
        0
  1

 92
      512
 93
        0
  2

 94
      512
 95
        0
  3

  0
ENDSEC
  0
EOF
