  0
SECTION
  2
HEADER
  9
$ACADVER
  1
AC1014
  9
$ACADMAINTVER
 70
     9
  9
$DWGCODEPAGE
  3
ANSI_932
  9
$INSBASE
 10
0.0
 20
0.0
 30
0.0
  9
$EXTMIN
 10
171.1428630597038
 20
334.2456345049863
 30
0.0
  9
$EXTMAX
 10
1508.110440846935
 20
848.4328728292879
 30
0.0
  9
$LIMMIN
 10
0.0
 20
0.0
  9
$LIMMAX
 10
297.0
 20
210.0
  9
$ORTHOMODE
 70
     0
  9
$REGENMODE
 70
     1
  9
$FILLMODE
 70
     1
  9
$QTEXTMODE
 70
     0
  9
$MIRRTEXT
 70
     0
  9
$DRAGMODE
 70
     2
  9
$LTSCALE
 40
4.0
  9
$OSMODE
 70
    37
  9
$ATTMODE
 70
     1
  9
$TEXTSIZE
 40
2.0
  9
$TRACEWID
 40
1.0
  9
$TEXTSTYLE
  7
STANDARD
  9
$CLAYER
  8
0
  9
$CELTYPE
  6
BYLAYER
  9
$CECOLOR
 62
   256
  9
$CELTSCALE
 40
1.0
  9
$DELOBJ
 70
     1
  9
$DISPSILH
 70
     0
  9
$DIMSCALE
 40
4.0
  9
$DIMASZ
 40
1.8
  9
$DIMEXO
 40
0.625
  9
$DIMDLI
 40
3.75
  9
$DIMRND
 40
0.0
  9
$DIMDLE
 40
0.0
  9
$DIMEXE
 40
0.8
  9
$DIMTP
 40
0.0
  9
$DIMTM
 40
0.0
  9
$DIMTXT
 40
1.8
  9
$DIMCEN
 40
2.5
  9
$DIMTSZ
 40
0.0
  9
$DIMTOL
 70
     0
  9
$DIMLIM
 70
     0
  9
$DIMTIH
 70
     0
  9
$DIMTOH
 70
     0
  9
$DIMSE1
 70
     0
  9
$DIMSE2
 70
     0
  9
$DIMTAD
 70
     1
  9
$DIMZIN
 70
     8
  9
$DIMBLK
  1

  9
$DIMASO
 70
     1
  9
$DIMSHO
 70
     1
  9
$DIMPOST
  1

  9
$DIMAPOST
  1

  9
$DIMALT
 70
     0
  9
$DIMALTD
 70
     4
  9
$DIMALTF
 40
0.0394
  9
$DIMLFAC
 40
1.0
  9
$DIMTOFL
 70
     1
  9
$DIMTVP
 40
0.0
  9
$DIMTIX
 70
     0
  9
$DIMSOXD
 70
     0
  9
$DIMSAH
 70
     0
  9
$DIMBLK1
  1

  9
$DIMBLK2
  1

  9
$DIMSTYLE
  2
STANDARD
  9
$DIMCLRD
 70
     0
  9
$DIMCLRE
 70
     0
  9
$DIMCLRT
 70
     0
  9
$DIMTFAC
 40
1.0
  9
$DIMGAP
 40
0.75
  9
$DIMJUST
 70
     0
  9
$DIMSD1
 70
     0
  9
$DIMSD2
 70
     0
  9
$DIMTOLJ
 70
     1
  9
$DIMTZIN
 70
     0
  9
$DIMALTZ
 70
     0
  9
$DIMALTTZ
 70
     0
  9
$DIMFIT
 70
     3
  9
$DIMUPT
 70
     0
  9
$DIMUNIT
 70
     8
  9
$DIMDEC
 70
     2
  9
$DIMTDEC
 70
     2
  9
$DIMALTU
 70
     8
  9
$DIMALTTD
 70
     4
  9
$DIMTXSTY
  7
STANDARD
  9
$DIMAUNIT
 70
     0
  9
$LUNITS
 70
     2
  9
$LUPREC
 70
     3
  9
$SKETCHINC
 40
1.0
  9
$FILLETRAD
 40
10.0
  9
$AUNITS
 70
     0
  9
$AUPREC
 70
     2
  9
$MENU
  1
.
  9
$ELEVATION
 40
0.0
  9
$PELEVATION
 40
0.0
  9
$THICKNESS
 40
0.0
  9
$LIMCHECK
 70
     0
  9
$BLIPMODE
 70
     0
  9
$CHAMFERA
 40
0.0
  9
$CHAMFERB
 40
0.0
  9
$CHAMFERC
 40
20.0
  9
$CHAMFERD
 40
0.0
  9
$SKPOLY
 70
     0
  9
$TDCREATE
 40
2454889.364024514
  9
$TDUPDATE
 40
2454909.822335995
  9
$TDINDWG
 40
0.1061257870
  9
$TDUSRTIMER
 40
0.1061257870
  9
$USRTIMER
 70
     1
  9
$ANGBASE
 50
0.0
  9
$ANGDIR
 70
     0
  9
$PDMODE
 70
     0
  9
$PDSIZE
 40
-10.0
  9
$PLINEWID
 40
0.0
  9
$COORDS
 70
     1
  9
$SPLFRAME
 70
     0
  9
$SPLINETYPE
 70
     6
  9
$SPLINESEGS
 70
     8
  9
$ATTDIA
 70
     0
  9
$ATTREQ
 70
     1
  9
$HANDLING
 70
 22529
  9
$HANDSEED
  5
2A8E
  9
$SURFTAB1
 70
     6
  9
$SURFTAB2
 70
     6
  9
$SURFTYPE
 70
     6
  9
$SURFU
 70
     6
  9
$SURFV
 70
     6
  9
$UCSNAME
  2

  9
$UCSORG
 10
0.0
 20
0.0
 30
0.0
  9
$UCSXDIR
 10
1.0
 20
0.0
 30
0.0
  9
$UCSYDIR
 10
0.0
 20
1.0
 30
0.0
  9
$PUCSNAME
  2

  9
$PUCSORG
 10
0.0
 20
0.0
 30
0.0
  9
$PUCSXDIR
 10
1.0
 20
0.0
 30
0.0
  9
$PUCSYDIR
 10
0.0
 20
1.0
 30
0.0
  9
$USERI1
 70
     0
  9
$USERI2
 70
     0
  9
$USERI3
 70
     0
  9
$USERI4
 70
     0
  9
$USERI5
 70
     0
  9
$USERR1
 40
0.0
  9
$USERR2
 40
0.0
  9
$USERR3
 40
0.0
  9
$USERR4
 40
0.0
  9
$USERR5
 40
0.0
  9
$WORLDVIEW
 70
     1
  9
$SHADEDGE
 70
     3
  9
$SHADEDIF
 70
    70
  9
$TILEMODE
 70
     1
  9
$MAXACTVP
 70
    48
  9
$PINSBASE
 10
0.0
 20
0.0
 30
0.0
  9
$PLIMCHECK
 70
     0
  9
$PEXTMIN
 10
0.0
 20
0.0
 30
0.0
  9
$PEXTMAX
 10
0.0
 20
0.0
 30
0.0
  9
$PLIMMIN
 10
0.0
 20
0.0
  9
$PLIMMAX
 10
12.0
 20
9.0
  9
$UNITMODE
 70
     0
  9
$VISRETAIN
 70
     1
  9
$PLINEGEN
 70
     0
  9
$PSLTSCALE
 70
     1
  9
$TREEDEPTH
 70
  3020
  9
$PICKSTYLE
 70
     1
  9
$CMLSTYLE
  2
STANDARD
  9
$CMLJUST
 70
     0
  9
$CMLSCALE
 40
1.0
  9
$PROXYGRAPHICS
 70
     1
  9
$MEASUREMENT
 70
     0
  0
ENDSEC
  0
SECTION
  2
CLASSES
  0
CLASS
  1
DICTIONARYVAR
  2
AcDbDictionaryVar
  3
AutoCAD 2000
 90
        0
280
     0
281
     0
  0
CLASS
  1
ACDBDICTIONARYWDFLT
  2
AcDbDictionaryWithDefault
  3
AutoCAD 2000
 90
        0
280
     0
281
     0
  0
CLASS
  1
ACDBPLACEHOLDER
  2
AcDbPlaceHolder
  3
AutoCAD 2000
 90
        0
280
     0
281
     0
  0
CLASS
  1
LAYOUT
  2
AcDbLayout
  3
AutoCAD 2000
 90
        0
280
     0
281
     0
  0
CLASS
  1
MATERIAL
  2
AcDbMaterial
  3
ObjectDBX Classes
 90
     1153
280
     0
281
     0
  0
CLASS
  1
VISUALSTYLE
  2
AcDbVisualStyle
  3
ObjectDBX Classes
 90
     4095
280
     0
281
     0
  0
CLASS
  1
TABLESTYLE
  2
AcDbTableStyle
  3
ObjectDBX Classes
 90
     4095
280
     0
281
     0
  0
CLASS
  1
SCALE
  2
AcDbScale
  3
ObjectDBX Classes
 90
     1153
280
     0
281
     0
  0
CLASS
  1
MLEADERSTYLE
  2
AcDbMLeaderStyle
  3
ACDB_MLEADERSTYLE_CLASS
 90
     4095
280
     0
281
     0
  0
CLASS
  1
PLOTSETTINGS
  2
AcDbPlotSettings
  3
AutoCAD 2000
 90
        0
280
     0
281
     0
  0
CLASS
  1
CELLSTYLEMAP
  2
AcDbCellStyleMap
  3
ObjectDBX Classes
 90
     1152
280
     0
281
     0
  0
CLASS
  1
SORTENTSTABLE
  2
AcDbSortentsTable
  3
AutoCAD 2000
 90
        0
280
     0
281
     0
  0
CLASS
  1
ACAD_PROXY_OBJECT_WRAPPER
  2
AcDbProxyObjectWrapper
  3
AutoCAD 2000
 90
        0
280
     0
281
     0
  0
CLASS
  1
LONG_TRANSACTION
  2
AcDbLongTransaction
  3
AutoCAD 2000
 90
        0
280
     0
281
     0
  0
CLASS
  1
LWPOLYLINE
  2
AcDbPolyline
  3
AutoCAD 2000
 90
        0
280
     0
281
     1
  0
CLASS
  1
HATCH
  2
AcDbHatch
  3
AutoCAD 2000
 90
        0
280
     0
281
     1
  0
CLASS
  1
XRECORD
  2
AcDbXrecord
  3
AutoCAD 2000
 90
        0
280
     0
281
     0
  0
ENDSEC
  0
SECTION
  2
TABLES
  0
TABLE
  2
VPORT
  5
6E
102
{ACAD_XDICTIONARY
360
1E6F
102
}
330
0
100
AcDbSymbolTable
 70
     2
  0
VPORT
  5
2A69
330
6E
100
AcDbSymbolTableRecord
100
AcDbViewportTableRecord
  2
*ACTIVE
 70
     0
 10
0.0
 20
0.0
 11
1.0
 21
1.0
 12
897.899520733566
 22
574.3583490054823
 13
0.0
 23
0.0
 14
10.0
 24
10.0
 15
10.0
 25
10.0
 16
0.0
 26
0.0
 36
1.0
 17
0.0
 27
0.0
 37
0.0
 40
915.8335541135004
 41
1.593429158110883
 42
50.0
 43
0.0
 44
0.0
 50
0.0
 51
0.0
 71
     0
 72
   100
 73
     1
 74
     3
 75
     0
 76
     0
 77
     0
 78
     0
  0
ENDTAB
  0
TABLE
  2
LTYPE
  5
69
330
0
100
AcDbSymbolTable
 70
     7
  0
LTYPE
  5
6A
330
69
100
AcDbSymbolTableRecord
100
AcDbLinetypeTableRecord
  2
BYBLOCK
 70
     0
  3

 72
    65
 73
     0
 40
0.0
  0
LTYPE
  5
6B
330
69
100
AcDbSymbolTableRecord
100
AcDbLinetypeTableRecord
  2
BYLAYER
 70
     0
  3

 72
    65
 73
     0
 40
0.0
  0
LTYPE
  5
8
330
69
100
AcDbSymbolTableRecord
100
AcDbLinetypeTableRecord
  2
CONTINUOUS
 70
     0
  3
Solid line
 72
    65
 73
     0
 40
0.0
  0
LTYPE
  5
27C
330
69
100
AcDbSymbolTableRecord
100
AcDbLinetypeTableRecord
  2
SEKKEI_A2_
 70
     0
  3
center(A2)  ____ _ ____ _ ____ _ ____ _ ____ _ 
 72
    65
 73
     4
 40
14.28749999999999
 49
9.525
 74
     0
 49
-1.587499999999999
 74
     0
 49
1.587499999999999
 74
     0
 49
-1.587499999999999
 74
     0
  0
LTYPE
  5
2B4
330
69
100
AcDbSymbolTableRecord
100
AcDbLinetypeTableRecord
  2
HIDDEN2
 70
     0
  3
Hidden (.5x) _ _ _ _ _ _ _ _ _ _ _ _ _ _ _ _ _
 72
    65
 73
     2
 40
4.762499999999999
 49
3.174999999999999
 74
     0
 49
-1.587499999999999
 74
     0
  0
LTYPE
  5
48F
330
69
100
AcDbSymbolTableRecord
100
AcDbLinetypeTableRecord
  2
SEKKEI_H
 70
     0
  3
Hidden-S _ _ _ _ _ _ _ _ _ _ _ _ _ _ _ _ _
 72
    65
 73
     2
 40
2.381249999999999
 49
1.587499999999999
 74
     0
 49
-0.79375
 74
     0
  0
LTYPE
  5
54A
330
69
100
AcDbSymbolTableRecord
100
AcDbLinetypeTableRecord
  2
CENTERX2
 70
     0
  3
Center (2x) ________  __  ________  __  _____
 72
    65
 73
     4
 40
4.0
 49
2.5
 74
     0
 49
-0.5
 74
     0
 49
0.5
 74
     0
 49
-0.5
 74
     0
  0
ENDTAB
  0
TABLE
  2
LAYER
  5
66
102
{ACAD_XDICTIONARY
360
86B
102
}
330
0
100
AcDbSymbolTable
 70
    10
  0
LAYER
  5
5E
102
{ACAD_XDICTIONARY
360
158C
102
}
330
66
100
AcDbSymbolTableRecord
100
AcDbLayerTableRecord
  2
0
 70
     0
 62
     7
  6
CONTINUOUS
  0
LAYER
  5
3E
102
{ACAD_XDICTIONARY
360
158E
102
}
330
66
100
AcDbSymbolTableRecord
100
AcDbLayerTableRecord
  2
CENTER
 70
     0
 62
     3
  6
SEKKEI_A2_
  0
LAYER
  5
2B5
102
{ACAD_XDICTIONARY
360
1594
102
}
330
66
100
AcDbSymbolTableRecord
100
AcDbLayerTableRecord
  2
HIDS
 70
     0
 62
     1
  6
HIDDEN2
  0
LAYER
  5
2BA
102
{ACAD_XDICTIONARY
360
1596
102
}
330
66
100
AcDbSymbolTableRecord
100
AcDbLayerTableRecord
  2
HOJO
 70
     0
 62
     4
  6
CONTINUOUS
  0
LAYER
  5
3FA
102
{ACAD_XDICTIONARY
360
159A
102
}
330
66
100
AcDbSymbolTableRecord
100
AcDbLayerTableRecord
  2
TITLE
 70
     0
 62
     4
  6
CONTINUOUS
  0
ENDTAB
  0
TABLE
  2
STYLE
  5
67
330
0
100
AcDbSymbolTable
 70
     3
  0
STYLE
  5
16
330
67
100
AcDbSymbolTableRecord
100
AcDbTextStyleTableRecord
  2
STANDARD
 70
     0
 40
0.0
 41
1.0
 50
0.0
 71
     0
 42
2.0
  3
simplex.shx
  4
extfont.shx
  0
ENDTAB
  0
TABLE
  2
VIEW
  5
6C
330
0
100
AcDbSymbolTable
 70
     0
  0
ENDTAB
  0
TABLE
  2
UCS
  5
6D
330
0
100
AcDbSymbolTable
 70
     0
  0
ENDTAB
  0
TABLE
  2
APPID
  5
70
330
0
100
AcDbSymbolTable
 70
     7
  0
APPID
  5
71
330
70
100
AcDbSymbolTableRecord
100
AcDbRegAppTableRecord
  2
ACAD
 70
     0
  0
APPID
  5
859
330
70
100
AcDbSymbolTableRecord
100
AcDbRegAppTableRecord
  2
ACAD_MLEADERVER
 70
     0
  0
APPID
  5
866
330
70
100
AcDbSymbolTableRecord
100
AcDbRegAppTableRecord
  2
ACAD_PSEXT
 70
     0
  0
APPID
  5
15AD
330
70
100
AcDbSymbolTableRecord
100
AcDbRegAppTableRecord
  2
ACAD_EXEMPT_FROM_CAD_STANDARDS
 70
     0
  0
APPID
  5
15D5
330
70
100
AcDbSymbolTableRecord
100
AcDbRegAppTableRecord
  2
ACAD_DSTYLE_DIMJAG
 70
     0
  0
APPID
  5
15D6
330
70
100
AcDbSymbolTableRecord
100
AcDbRegAppTableRecord
  2
ACAD_DSTYLE_DIMTALN
 70
     0
  0
APPID
  5
16FC
330
70
100
AcDbSymbolTableRecord
100
AcDbRegAppTableRecord
  2
ACAD_DSTYLE_DIMRADIAL_EXTENSION
 70
     0
  0
ENDTAB
  0
TABLE
  2
DIMSTYLE
  5
72
330
0
100
AcDbSymbolTable
 70
     1
  0
DIMSTYLE
105
73
102
{ACAD_REACTORS
330
1743
330
18FD
102
}
330
72
100
AcDbSymbolTableRecord
100
AcDbDimStyleTableRecord
  2
STANDARD
 70
     0
  3

  4

  5

  6

  7

 40
4.0
 41
1.8
 42
0.625
 43
3.75
 44
0.8
 45
0.0
 46
0.0
 47
0.0
 48
0.0
140
1.8
141
2.5
142
0.0
143
0.0394
144
1.0
145
0.0
146
1.0
147
0.75
 71
     0
 72
     0
 73
     0
 74
     0
 75
     0
 76
     0
 77
     1
 78
     8
170
     0
171
     4
172
     1
173
     0
174
     0
175
     0
176
     0
177
     0
178
     0
270
     8
271
     2
272
     2
273
     8
274
     4
340
16
275
     0
280
     0
281
     0
282
     0
283
     1
284
     0
285
     0
286
     0
287
     3
288
     0
1001
ACAD_DSTYLE_DIMJAG
1070
   388
1040
1.5
1001
ACAD_DSTYLE_DIMTALN
1070
   392
1070
     0
  0
ENDTAB
  0
TABLE
  2
BLOCK_RECORD
  5
1
330
0
100
AcDbSymbolTable
 70
    49
  0
BLOCK_RECORD
  5
2
102
{ACAD_XDICTIONARY
360
215D
102
}
330
1
100
AcDbSymbolTableRecord
100
AcDbBlockTableRecord
  2
*MODEL_SPACE
  0
BLOCK_RECORD
  5
2A64
102
{ACAD_XDICTIONARY
360
2A8C
102
}
330
1
100
AcDbSymbolTableRecord
100
AcDbBlockTableRecord
  2
*PAPER_SPACE
  0
ENDTAB
  0
ENDSEC
  0
SECTION
  2
BLOCKS
  0
BLOCK
  5
5D
330
2
100
AcDbEntity
  8
0
100
AcDbBlockBegin
  2
*MODEL_SPACE
 70
     0
 10
0.0
 20
0.0
 30
0.0
  3
*MODEL_SPACE
  1

  0
ENDBLK
  5
5F
330
2
100
AcDbEntity
  8
0
100
AcDbBlockEnd
  0
BLOCK
  5
2A66
330
2A64
100
AcDbEntity
 67
     1
  8
0
100
AcDbBlockBegin
  2
*PAPER_SPACE
 70
     0
 10
0.0
 20
0.0
 30
0.0
  3
*PAPER_SPACE
  1

  0
ENDBLK
  5
2A67
330
2A64
100
AcDbEntity
 67
     1
  8
0
100
AcDbBlockEnd
  0
ENDSEC
  0
SECTION
  2
ENTITIES
  0
LINE
  5
A65
330
2
100
AcDbEntity
  8
0
100
AcDbLine
 10
1053.559171748526
 20
469.2456345049879
 30
0.0
 11
1053.559171748526
 21
349.2456345049861
 31
0.0
  0
LINE
  5
A66
330
2
100
AcDbEntity
  8
0
100
AcDbLine
 10
1053.559171748526
 20
469.245634504987
 30
0.0
 11
1065.596473326598
 21
469.2456345049889
 31
0.0
  0
LINE
  5
A67
330
2
100
AcDbEntity
  8
0
100
AcDbLine
 10
1053.559171748526
 20
349.2456345049861
 30
0.0
 11
1065.596473326598
 21
349.2456345049843
 31
0.0
  0
LINE
  5
A68
330
2
100
AcDbEntity
  8
0
100
AcDbLine
 10
1103.887598873277
 20
459.2456345049761
 30
0.0
 11
1138.059171748524
 21
459.2456345049845
 31
0.0
  0
LINE
  5
A69
330
2
100
AcDbEntity
  8
0
 48
0.5
100
AcDbLine
 10
1103.887598873276
 20
359.2456345049852
 30
0.0
 11
1138.059171748525
 21
359.2456345049861
 31
0.0
  0
ARC
  5
A6A
330
2
100
AcDbEntity
  8
0
 48
0.5
100
AcDbCircle
 10
1125.024319521168
 20
361.2456345049861
 30
0.0
 40
2.0
100
AcDbArc
 50
181.0000000000017
 51
270.0
  0
LINE
  5
A6B
330
2
100
AcDbEntity
  8
0
100
AcDbLine
 10
1138.059171748525
 20
359.2456345049861
 30
0.0
 11
1138.059171748524
 21
459.2456345049845
 31
0.0
  0
LINE
  5
A6C
330
2
100
AcDbEntity
  8
0
100
AcDbLine
 10
1067.59316871691
 20
351.2107296921096
 30
0.0
 11
1068.606171748526
 21
409.2456345049852
 31
0.0
  0
ARC
  5
A6D
330
2
100
AcDbEntity
  8
0
100
AcDbCircle
 10
1065.593473326598
 20
351.2456345049843
 30
0.0
 40
2.0
100
AcDbArc
 50
270.0
 51
358.9999999999982
  0
ARC
  5
A6E
330
2
100
AcDbEntity
  8
0
100
AcDbCircle
 10
1075.278931692117
 20
348.7456345049852
 30
0.0
 40
8.0
100
AcDbArc
 50
127.3910168722869
 51
165.5224878140705
  0
LINE
  5
A6F
330
2
100
AcDbEntity
  8
0
100
AcDbLine
 10
1122.767662716314
 20
375.9320392716793
 30
0.0
 11
1123.024624130855
 21
361.2107296921115
 31
0.0
  0
ARC
  5
A70
330
2
100
AcDbEntity
  8
0
100
AcDbCircle
 10
1119.773459439488
 20
375.7456345049861
 30
0.0
 40
3.0
100
AcDbArc
 50
1.000000000001761
 51
90.0
  0
LINE
  5
A71
330
2
100
AcDbEntity
  8
CENTER
100
AcDbLine
 10
1119.559171748524
 20
452.8973602083522
 30
0.0
 11
1119.559171748524
 21
467.4687196296024
 31
0.0
  0
LINE
  5
A73
330
2
100
AcDbEntity
  8
0
 48
0.5
100
AcDbLine
 10
1075.278931692116
 20
356.7456345049852
 30
0.0
 11
1099.730744623782
 21
356.745634504987
 31
0.0
  0
LINE
  5
A74
330
2
100
AcDbEntity
  8
0
 48
0.5
100
AcDbLine
 10
1075.278931692116
 20
461.7456345049861
 30
0.0
 11
1099.730744623782
 21
461.7456345049833
 31
0.0
  0
LINE
  5
A75
330
2
100
AcDbEntity
  8
0
100
AcDbLine
 10
1102.473385310906
 20
459.8314209426046
 30
0.0
 11
1101.144958186153
 21
461.1598480673567
 31
0.0
  0
ARC
  5
A76
330
2
100
AcDbEntity
  8
0
100
AcDbCircle
 10
1099.730744623782
 20
459.7456345049843
 30
0.0
 40
2.0
100
AcDbArc
 50
44.99999999991709
 51
90.0
  0
ARC
  5
A77
330
2
100
AcDbEntity
  8
0
100
AcDbCircle
 10
1103.887598873276
 20
461.2456345049752
 30
0.0
 40
2.0
100
AcDbArc
 50
224.999999999917
 51
270.0000000000521
  0
LINE
  5
A78
330
2
100
AcDbEntity
  8
0
100
AcDbLine
 10
1102.473385310906
 20
358.6598480673676
 30
0.0
 11
1101.144958186153
 21
357.3314209426155
 31
0.0
  0
ARC
  5
A79
330
2
100
AcDbEntity
  8
0
100
AcDbCircle
 10
1099.730744623782
 20
358.7456345049879
 30
0.0
 40
2.0
100
AcDbArc
 50
270.0
 51
315.0000000000829
  0
ARC
  5
A7A
330
2
100
AcDbEntity
  8
0
100
AcDbCircle
 10
1103.887598873276
 20
357.245634504997
 30
0.0
 40
2.0
100
AcDbArc
 50
89.99999999994789
 51
135.0000000000828
  0
LINE
  5
A7B
330
2
100
AcDbEntity
  8
0
100
AcDbLine
 10
1067.59316871691
 20
467.2805393178621
 30
0.0
 11
1068.251997895628
 21
429.5362409480187
 31
0.0
  0
ARC
  5
A7C
330
2
100
AcDbEntity
  8
0
100
AcDbCircle
 10
1065.593473326598
 20
467.2456345049875
 30
0.0
 40
2.0
100
AcDbArc
 50
1.000000000027812
 51
90.0
  0
ARC
  5
A7D
330
2
100
AcDbEntity
  8
0
100
AcDbCircle
 10
1075.278931692117
 20
469.7456345049865
 30
0.0
 40
8.0
100
AcDbArc
 50
194.4775121859294
 51
232.6089832434083
  0
ARC
  5
A7E
330
2
100
AcDbEntity
  8
0
 48
0.5
100
AcDbCircle
 10
1125.024319521168
 20
457.2456345049861
 30
0.0
 40
2.0
100
AcDbArc
 50
90.0
 51
178.9999999999721
  0
LINE
  5
A7F
330
2
100
AcDbEntity
  8
0
100
AcDbLine
 10
1122.95990899601
 20
453.5730117256784
 30
0.0
 11
1123.024624130855
 21
457.2805393178607
 31
0.0
  0
ARC
  5
A81
330
2
100
AcDbEntity
  8
0
 48
0.5
100
AcDbCircle
 10
1105.024566274757
 20
361.2456345049847
 30
0.0
 40
2.0
100
AcDbArc
 50
181.0000000000017
 51
270.0
  0
LINE
  5
A82
330
2
100
AcDbEntity
  8
0
100
AcDbLine
 10
1103.024870884444
 20
361.2107296921105
 30
0.0
 11
1102.982149054967
 21
363.6582616636649
 31
0.0
  0
LINE
  5
A83
330
2
100
AcDbEntity
  8
0
100
AcDbLine
 10
1099.982605969498
 20
366.6059044443516
 30
0.0
 11
1119.933451005255
 21
366.6059044443516
 31
0.0
  0
ARC
  5
A84
330
2
100
AcDbEntity
  8
0
100
AcDbCircle
 10
1099.982605969498
 20
363.6059044443529
 30
0.0
 40
3.0
100
AcDbArc
 50
0.9999999999757104
 51
90.0
  0
ARC
  5
A85
330
2
100
AcDbEntity
  8
0
 48
0.5
100
AcDbCircle
 10
1105.024566274757
 20
457.2456345049874
 30
0.0
 40
2.0
100
AcDbArc
 50
90.0
 51
179.0000000000242
  0
LINE
  5
A86
330
2
100
AcDbEntity
  8
0
100
AcDbLine
 10
1103.024870884444
 20
457.2805393178616
 30
0.0
 11
1102.982149054967
 21
454.8330073463073
 31
0.0
  0
LINE
  5
A87
330
2
100
AcDbEntity
  8
0
100
AcDbLine
 10
1099.982605969498
 20
451.8853645656206
 30
0.0
 11
1119.933451005255
 21
451.8853645656206
 31
0.0
  0
ARC
  5
A88
330
2
100
AcDbEntity
  8
0
100
AcDbCircle
 10
1099.982605969498
 20
454.8853645656192
 30
0.0
 40
3.0
100
AcDbArc
 50
270.0
 51
359.0000000000242
  0
LINE
  5
A89
330
2
100
AcDbEntity
  8
0
100
AcDbLine
 10
1105.274979308644
 20
378.7456345049861
 30
0.0
 11
1119.773459439488
 21
378.7456345049861
 31
0.0
  0
LINE
  5
A8A
330
2
100
AcDbEntity
  8
0
100
AcDbLine
 10
1105.274979308644
 20
439.7456345049866
 30
0.0
 11
1117.514032676481
 21
439.7456345049861
 31
0.0
  0
LINE
  5
A8B
330
2
100
AcDbEntity
  8
0
100
AcDbLine
 10
1103.059171748525
 20
393.0917876082283
 30
0.0
 11
1103.341138194948
 21
409.245634504986
 31
0.0
  0
LINE
  5
A8C
330
2
100
AcDbEntity
  8
0
100
AcDbLine
 10
1103.275283918331
 20
380.7107296921115
 30
0.0
 11
1103.059171748526
 21
393.0917876082283
 31
0.0
  0
ARC
  5
A8D
330
2
100
AcDbEntity
  8
0
100
AcDbCircle
 10
1105.274979308644
 20
380.7456345049861
 30
0.0
 40
2.0
100
AcDbArc
 50
181.0000000000017
 51
270.0
  0
LINE
  5
A8E
330
2
100
AcDbEntity
  8
0
100
AcDbLine
 10
1103.275283918331
 20
437.7805393178607
 30
0.0
 11
1103.127168429042
 21
429.2950086195444
 31
0.0
  0
ARC
  5
A8F
330
2
100
AcDbEntity
  8
0
100
AcDbCircle
 10
1105.274979308644
 20
437.7456345049861
 30
0.0
 40
2.0
100
AcDbArc
 50
90.0
 51
178.9999999999982
  0
LINE
  5
A91
330
2
100
AcDbEntity
  8
0
100
AcDbLine
 10
1053.559171748526
 20
717.9328728292814
 30
0.0
 11
1053.559171748526
 21
838.9328728292824
 31
0.0
  0
LINE
  5
A92
330
2
100
AcDbEntity
  8
0
 48
0.5
100
AcDbLine
 10
1075.241630114041
 20
830.9328728292815
 30
0.0
 11
1101.05917174853
 21
830.9328728292806
 31
0.0
  0
LINE
  5
A93
330
2
100
AcDbEntity
  8
0
 48
0.5
100
AcDbLine
 10
1075.357130719654
 20
725.9328728292814
 30
0.0
 11
1101.05917174853
 21
725.9328728292833
 31
0.0
  0
LINE
  5
A94
330
2
100
AcDbEntity
  8
0
100
AcDbLine
 10
1053.559171748526
 20
718.4328728292805
 30
0.0
 11
1065.559171748522
 21
718.4328728292783
 31
0.0
  0
LINE
  5
A95
330
2
100
AcDbEntity
  8
0
100
AcDbLine
 10
1053.559171748526
 20
838.4328728292814
 30
0.0
 11
1065.559171748522
 21
838.4328728292828
 31
0.0
  0
ARC
  5
A96
330
2
100
AcDbEntity
  8
0
100
AcDbCircle
 10
1065.559171748522
 20
836.4328728292829
 30
0.0
 40
2.0
100
AcDbArc
 50
0.0
 51
90.0
  0
ARC
  5
A97
330
2
100
AcDbEntity
  8
0
100
AcDbCircle
 10
1075.241630114041
 20
838.9328728292818
 30
0.0
 40
8.0
100
AcDbArc
 50
194.477512185929
 51
232.6089831569974
  0
ARC
  5
A98
330
2
100
AcDbEntity
  8
0
100
AcDbCircle
 10
1075.241630114041
 20
838.9328728292818
 30
0.0
 40
8.0
100
AcDbArc
 50
268.6931248980347
 51
270.0
  0
LINE
  5
A99
330
2
100
AcDbEntity
  8
0
100
AcDbLine
 10
1053.559171748526
 20
838.9328728292815
 30
0.0
 11
1065.559171748522
 21
838.9328728292818
 31
0.0
  0
ARC
  5
A9A
330
2
100
AcDbEntity
  8
0
100
AcDbCircle
 10
1065.559171748522
 20
836.9328728292824
 30
0.0
 40
2.0
100
AcDbArc
 50
11.53695903279986
 51
90.0
  0
ARC
  5
A9B
330
2
100
AcDbEntity
  8
0
100
AcDbCircle
 10
1075.357130719655
 20
838.9328728292815
 30
0.0
 40
8.0
100
AcDbArc
 50
191.5369590328239
 51
232.6089831569974
  0
ARC
  5
A9C
330
2
100
AcDbEntity
  8
0
100
AcDbCircle
 10
1075.357130719655
 20
838.9328728292815
 30
0.0
 40
8.0
100
AcDbArc
 50
267.8655323847083
 51
270.0
  0
LINE
  5
A9D
330
2
100
AcDbEntity
  8
0
100
AcDbLine
 10
1104.767270992077
 20
728.4328728292873
 30
0.0
 11
1138.059171748524
 21
728.4328728292826
 31
0.0
  0
ARC
  5
A9E
330
2
100
AcDbEntity
  8
0
100
AcDbCircle
 10
1125.059171748524
 20
730.4328728292841
 30
0.0
 40
2.0
100
AcDbArc
 50
180.0
 51
270.0
  0
LINE
  5
A9F
330
2
100
AcDbEntity
  8
0
 48
0.5
100
AcDbLine
 10
1104.767270992076
 20
828.4328728292823
 30
0.0
 11
1138.059171748525
 21
828.4328728292816
 31
0.0
  0
ARC
  5
AA0
330
2
100
AcDbEntity
  8
0
 48
0.5
100
AcDbCircle
 10
1125.059171748524
 20
826.4328728292815
 30
0.0
 40
2.0
100
AcDbArc
 50
90.0
 51
180.0
  0
LINE
  5
AA1
330
2
100
AcDbEntity
  8
0
100
AcDbLine
 10
1138.059171748525
 20
828.4328728292814
 30
0.0
 11
1138.059171748524
 21
728.4328728292823
 31
0.0
  0
LINE
  5
AA2
330
2
100
AcDbEntity
  8
0
100
AcDbLine
 10
1067.559171748522
 20
836.4328728292829
 30
0.0
 11
1067.559171748523
 21
720.4328728292787
 31
0.0
  0
LINE
  5
AA3
330
2
100
AcDbEntity
  8
CENTER
 48
0.5
100
AcDbLine
 10
1108.809171748526
 20
758.4328728292814
 30
0.0
 11
1130.309171748525
 21
758.4328728292814
 31
0.0
  0
LINE
  5
AA4
330
2
100
AcDbEntity
  8
0
100
AcDbLine
 10
1123.059171748524
 20
744.932872829281
 30
0.0
 11
1123.059171748524
 21
730.4328728292814
 31
0.0
  0
ARC
  5
AA5
330
2
100
AcDbEntity
  8
0
100
AcDbCircle
 10
1120.059171748524
 20
744.932872829281
 30
0.0
 40
3.0
100
AcDbArc
 50
0.0
 51
90.0
  0
LINE
  5
AA6
330
2
100
AcDbEntity
  8
CENTER
 48
0.5
100
AcDbLine
 10
1119.559171748526
 20
769.1828728292814
 30
0.0
 11
1119.559171748526
 21
747.6828728292814
 31
0.0
  0
LINE
  5
AA7
330
2
100
AcDbEntity
  8
0
100
AcDbLine
 10
1123.059171748526
 20
811.9328728292813
 30
0.0
 11
1123.059171748524
 21
826.4328728292815
 31
0.0
  0
LINE
  5
AA8
330
2
100
AcDbEntity
  8
0
100
AcDbLine
 10
1105.059171748529
 20
747.9328728292814
 30
0.0
 11
1120.059171748524
 21
747.9328728292809
 31
0.0
  0
ARC
  5
AA9
330
2
100
AcDbEntity
  8
0
100
AcDbCircle
 10
1105.059171748529
 20
749.9328728292814
 30
0.0
 40
2.0
100
AcDbArc
 50
180.0
 51
270.0
  0
LINE
  5
AAA
330
2
100
AcDbEntity
  8
0
100
AcDbLine
 10
1103.05917174853
 20
806.9328728292815
 30
0.0
 11
1103.05917174853
 21
749.9328728292814
 31
0.0
  0
LINE
  5
AAB
330
2
100
AcDbEntity
  8
0
100
AcDbLine
 10
1053.559171748526
 20
717.9328728292823
 30
0.0
 11
1065.559171748522
 21
717.9328728292814
 31
0.0
  0
LINE
  5
AAC
330
2
100
AcDbEntity
  8
0
100
AcDbLine
 10
1105.059171748529
 20
808.9328728292814
 30
0.0
 11
1120.059171748526
 21
808.9328728292814
 31
0.0
  0
ARC
  5
AAD
330
2
100
AcDbEntity
  8
0
100
AcDbCircle
 10
1120.059171748526
 20
811.9328728292813
 30
0.0
 40
3.0
100
AcDbArc
 50
270.0
 51
0.0
  0
ARC
  5
AAE
330
2
100
AcDbEntity
  8
0
100
AcDbCircle
 10
1105.059171748529
 20
806.9328728292815
 30
0.0
 40
2.0
100
AcDbArc
 50
90.0
 51
180.0
  0
ARC
  5
AAF
330
2
100
AcDbEntity
  8
0
100
AcDbCircle
 10
1065.559171748522
 20
720.43287282928
 30
0.0
 40
2.0
100
AcDbArc
 50
270.0
 51
0.0
  0
ARC
  5
AB0
330
2
100
AcDbEntity
  8
0
100
AcDbCircle
 10
1075.241630114041
 20
717.9328728292809
 30
0.0
 40
8.0
100
AcDbArc
 50
90.0
 51
91.30687510196517
  0
ARC
  5
AB1
330
2
100
AcDbEntity
  8
0
100
AcDbCircle
 10
1075.241630114041
 20
717.9328728292809
 30
0.0
 40
8.0
100
AcDbArc
 50
127.3910168430025
 51
165.5224878140709
  0
ARC
  5
AB2
330
2
100
AcDbEntity
  8
0
100
AcDbCircle
 10
1065.559171748522
 20
719.9328728292805
 30
0.0
 40
2.0
100
AcDbArc
 50
270.0
 51
348.4630409672001
  0
ARC
  5
AB3
330
2
100
AcDbEntity
  8
0
100
AcDbCircle
 10
1075.357130719655
 20
717.9328728292814
 30
0.0
 40
8.0
100
AcDbArc
 50
90.0
 51
92.13446761529166
  0
ARC
  5
AB4
330
2
100
AcDbEntity
  8
0
100
AcDbCircle
 10
1075.357130719655
 20
717.9328728292814
 30
0.0
 40
8.0
100
AcDbArc
 50
127.3910168430025
 51
168.4630409672001
  0
LINE
  5
AB5
330
2
100
AcDbEntity
  8
0
100
AcDbLine
 10
1100.059171748527
 20
735.6128728292885
 30
0.0
 11
1120.059171748523
 21
735.6128728292849
 31
0.0
  0
ARC
  5
AB6
330
2
100
AcDbEntity
  8
0
100
AcDbCircle
 10
1100.059171748526
 20
732.6128728292886
 30
0.0
 40
3.0
100
AcDbArc
 50
0.0000000000130276
 51
90.0
  0
LINE
  5
AB7
330
2
100
AcDbEntity
  8
0
100
AcDbLine
 10
1103.059171748525
 20
732.612872829289
 30
0.0
 11
1103.059171748525
 21
730.4328728292878
 31
0.0
  0
ARC
  5
AB8
330
2
100
AcDbEntity
  8
0
100
AcDbCircle
 10
1105.059171748525
 20
730.4328728292878
 30
0.0
 40
2.0
100
AcDbArc
 50
180.0
 51
270.0
  0
ARC
  5
AB9
330
2
100
AcDbEntity
  8
0
100
AcDbCircle
 10
1101.05917174853
 20
727.9328728292819
 30
0.0
 40
2.0
100
AcDbArc
 50
270.0
 51
337.9756871629358
  0
ARC
  5
ABA
330
2
100
AcDbEntity
  8
0
100
AcDbCircle
 10
1104.767270992076
 20
726.4328728292801
 30
0.0
 40
2.0
100
AcDbArc
 50
90.0
 51
157.9756871629358
  0
ARC
  5
ABB
330
2
100
AcDbEntity
  8
0
 48
0.5
100
AcDbCircle
 10
1105.059171748524
 20
826.4328728292824
 30
0.0
 40
2.0
100
AcDbArc
 50
90.0
 51
180.0
  0
LINE
  5
ABC
330
2
100
AcDbEntity
  8
0
 48
0.5
100
AcDbLine
 10
1100.059171748524
 20
821.2528728292825
 30
0.0
 11
1120.059171748524
 21
821.2528728292825
 31
0.0
  0
ARC
  5
ABD
330
2
100
AcDbEntity
  8
0
 48
0.5
100
AcDbCircle
 10
1100.059171748524
 20
824.2528728292821
 30
0.0
 40
3.0
100
AcDbArc
 50
270.0
 51
0.0
  0
LINE
  5
ABE
330
2
100
AcDbEntity
  8
0
100
AcDbLine
 10
1103.059171748524
 20
826.4328728292824
 30
0.0
 11
1103.059171748524
 21
824.2528728292821
 31
0.0
  0
ARC
  5
ABF
330
2
100
AcDbEntity
  8
0
100
AcDbCircle
 10
1101.05917174853
 20
828.932872829281
 30
0.0
 40
2.0
100
AcDbArc
 50
22.02431283706412
 51
90.0
  0
ARC
  5
AC0
330
2
100
AcDbEntity
  8
0
100
AcDbCircle
 10
1104.767270992076
 20
830.4328728292828
 30
0.0
 40
2.0
100
AcDbArc
 50
202.0243128370641
 51
270.0
  0
LINE
  5
AC2
330
2
100
AcDbEntity
  8
0
100
AcDbLine
 10
1487.610790824464
 20
409.2456345049859
 30
0.0
 11
1487.488549739353
 21
451.2689055361852
 31
0.0
  0
LINE
  5
AC4
330
2
100
AcDbEntity
  8
0
100
AcDbLine
 10
1479.488583585709
 20
459.2456345123101
 30
0.0
 11
1395.732998063217
 21
459.2456345123101
 31
0.0
  0
ARC
  5
AC5
330
2
100
AcDbEntity
  8
0
100
AcDbCircle
 10
1479.488583585709
 20
451.2456345123101
 30
0.0
 40
8.0
100
AcDbArc
 50
0.1666666666621401
 51
90.0
  0
ARC
  5
AC6
330
2
100
AcDbEntity
  8
HIDS
  6
SEKKEI_H
100
AcDbCircle
 10
1409.076185350415
 20
457.24563451231
 30
0.0
 40
2.0
100
AcDbArc
 50
90.0
 51
178.9999999999721
  0
LINE
  5
AC7
330
2
100
AcDbEntity
  8
0
100
AcDbLine
 10
1479.488583585751
 20
359.24563451231
 30
0.0
 11
1395.732998063174
 21
359.24563451231
 31
0.0
  0
ARC
  5
AC8
330
2
100
AcDbEntity
  8
0
100
AcDbCircle
 10
1437.610790824458
 20
409.2456345285645
 30
0.0
 40
52.5
100
AcDbArc
 50
162.0797860355235
 51
197.920213963979
  0
LINE
  5
AC9
330
2
100
AcDbEntity
  8
CENTER
100
AcDbLine
 10
1486.754712118171
 20
370.3517132210872
 30
0.0
 11
1486.754712118171
 21
349.8517132210872
 31
0.0
  0
LINE
  5
ACA
330
2
100
AcDbEntity
  8
CENTER
100
AcDbLine
 10
1476.504712118172
 20
360.1017132210872
 30
0.0
 11
1497.004712118172
 21
360.1017132210872
 31
0.0
  0
ARC
  5
ACB
330
2
100
AcDbEntity
  8
0
100
AcDbCircle
 10
1437.610790824463
 20
409.2456345285645
 30
0.0
 40
52.5
100
AcDbArc
 50
342.0797860360301
 51
17.92021396446399
  0
ARC
  5
ACC
330
2
100
AcDbEntity
  8
HIDS
  6
SEKKEI_H
100
AcDbCircle
 10
1437.610790817144
 20
409.245634504984
 30
0.0
 40
52.5
100
AcDbArc
 50
17.92021393802704
 51
72.24720986428149
  0
ARC
  5
ACD
330
2
100
AcDbEntity
  8
0
 48
0.5
100
AcDbCircle
 10
1437.610790817144
 20
409.245634504984
 30
0.0
 40
52.5
100
AcDbArc
 50
72.24720986428149
 51
102.3325369910477
  0
ARC
  5
ACE
330
2
100
AcDbEntity
  8
HIDS
  6
SEKKEI_H
100
AcDbCircle
 10
1437.610790817144
 20
409.245634504984
 30
0.0
 40
52.5
100
AcDbArc
 50
102.3325369910477
 51
162.0797860095962
  0
ARC
  5
ACF
330
2
100
AcDbEntity
  8
HIDS
  6
SEKKEI_H
100
AcDbCircle
 10
1404.008601230695
 20
453.4173772258273
 30
0.0
 40
3.0
100
AcDbArc
 50
307.2608602757739
 51
358.9999999999461
  0
CIRCLE
  5
AD0
330
2
100
AcDbEntity
  8
HOJO
100
AcDbCircle
 10
1478.269430740406
 20
368.5869945911008
 30
0.0
 40
3.0
  0
CIRCLE
  5
AD1
330
2
100
AcDbEntity
  8
0
100
AcDbCircle
 10
1478.269430740406
 20
368.5869945911008
 30
0.0
 40
2.5
  0
LINE
  5
AD2
330
2
100
AcDbEntity
  8
CENTER
100
AcDbLine
 10
1469.019430740406
 20
368.5869945911008
 30
0.0
 11
1487.519430740406
 21
368.5869945911008
 31
0.0
  0
LINE
  5
AD3
330
2
100
AcDbEntity
  8
CENTER
100
AcDbLine
 10
1478.269430740406
 20
359.3369945911008
 30
0.0
 11
1478.269430740406
 21
377.8369945911008
 31
0.0
  0
LINE
  5
AD4
330
2
100
AcDbEntity
  8
CENTER
100
AcDbLine
 10
1406.202150908518
 20
449.9042744497773
 30
0.0
 11
1387.702150908518
 21
449.9042744497773
 31
0.0
  0
LINE
  5
AD5
330
2
100
AcDbEntity
  8
CENTER
100
AcDbLine
 10
1396.952150908518
 20
459.1542744497774
 30
0.0
 11
1396.952150908518
 21
440.6542744497774
 31
0.0
  0
LINE
  5
AD6
330
2
100
AcDbEntity
  8
CENTER
100
AcDbLine
 10
1396.952150903254
 20
377.8369945963686
 30
0.0
 11
1396.952150903254
 21
359.3369945963686
 31
0.0
  0
LINE
  5
AD7
330
2
100
AcDbEntity
  8
CENTER
100
AcDbLine
 10
1387.702150903253
 20
368.5869945963686
 30
0.0
 11
1406.202150903253
 21
368.5869945963686
 31
0.0
  0
ARC
  5
AD8
330
2
100
AcDbEntity
  8
HIDS
  6
SEKKEI_H
100
AcDbCircle
 10
1437.610790824463
 20
409.2456345285691
 30
0.0
 40
52.5
100
AcDbArc
 50
197.9202139639698
 51
252.2472098962363
  0
ARC
  5
AD9
330
2
100
AcDbEntity
  8
0
 48
0.5
100
AcDbCircle
 10
1437.610790824463
 20
409.2456345285691
 30
0.0
 40
52.5
100
AcDbArc
 50
252.2472098962363
 51
287.7527901037637
  0
ARC
  5
ADA
330
2
100
AcDbEntity
  8
HIDS
  6
SEKKEI_H
100
AcDbCircle
 10
1437.610790824463
 20
409.2456345285691
 30
0.0
 40
52.5
100
AcDbArc
 50
287.7527901037637
 51
342.0797860360301
  0
LINE
  5
ADB
330
2
100
AcDbEntity
  8
CENTER
100
AcDbLine
 10
1469.019430740409
 20
449.9042744497773
 30
0.0
 11
1487.51943074041
 21
449.9042744497773
 31
0.0
  0
LINE
  5
ADC
330
2
100
AcDbEntity
  8
CENTER
100
AcDbLine
 10
1478.26943074041
 20
459.1542744497774
 30
0.0
 11
1478.26943074041
 21
440.6542744497774
 31
0.0
  0
CIRCLE
  5
ADD
330
2
100
AcDbEntity
  8
HOJO
100
AcDbCircle
 10
1478.269430738349
 20
449.9042744209282
 30
0.0
 40
3.0
  0
CIRCLE
  5
ADE
330
2
100
AcDbEntity
  8
0
100
AcDbCircle
 10
1478.269430738349
 20
449.9042744209282
 30
0.0
 40
2.5
  0
CIRCLE
  5
ADF
330
2
100
AcDbEntity
  8
HOJO
100
AcDbCircle
 10
1396.952150908521
 20
449.9042744188709
 30
0.0
 40
3.0
  0
CIRCLE
  5
AE0
330
2
100
AcDbEntity
  8
0
100
AcDbCircle
 10
1396.952150908521
 20
449.9042744188709
 30
0.0
 40
2.5
  0
CIRCLE
  5
AE1
330
2
100
AcDbEntity
  8
HOJO
100
AcDbCircle
 10
1396.952150910578
 20
368.5869945890435
 30
0.0
 40
3.0
  0
CIRCLE
  5
AE2
330
2
100
AcDbEntity
  8
0
100
AcDbCircle
 10
1396.952150910578
 20
368.5869945890435
 30
0.0
 40
2.5
  0
LINE
  5
AE3
330
2
100
AcDbEntity
  8
HIDS
  6
SEKKEI_H
100
AcDbLine
 10
1407.076489960103
 20
457.2805393251865
 30
0.0
 11
1407.008144316165
 21
453.3650200065125
 31
0.0
  0
LINE
  5
AE4
330
2
100
AcDbEntity
  8
0
100
AcDbLine
 10
1487.692113268348
 20
469.2456345049931
 30
0.0
 11
1387.529468380579
 21
469.245634504995
 31
0.0
  0
LINE
  5
AE5
330
2
100
AcDbEntity
  8
0
100
AcDbLine
 10
1377.529818358111
 20
459.3292970901575
 30
0.0
 11
1377.11079082446
 21
409.2456345049859
 31
0.0
  0
ARC
  5
AE6
330
2
100
AcDbEntity
  8
0
100
AcDbCircle
 10
1387.529468380579
 20
459.2456345049949
 30
0.0
 40
10.0
100
AcDbArc
 50
90.0
 51
179.5206431045574
  0
LINE
  5
AE7
330
2
100
AcDbEntity
  8
0
100
AcDbLine
 10
1387.529468380579
 20
349.2456345049877
 30
0.0
 11
1487.692113268348
 21
349.2456345049868
 31
0.0
  0
LINE
  5
AE8
330
2
100
AcDbEntity
  8
0
100
AcDbLine
 10
1377.529818358111
 20
359.1619719198151
 30
0.0
 11
1377.11079082446
 21
409.2456345049868
 31
0.0
  0
ARC
  5
AE9
330
2
100
AcDbEntity
  8
0
100
AcDbCircle
 10
1387.529468380579
 20
359.2456345049786
 30
0.0
 40
10.0
100
AcDbArc
 50
180.4793568954686
 51
270.0
  0
LINE
  5
AEA
330
2
100
AcDbEntity
  8
0
100
AcDbLine
 10
1497.691763290817
 20
459.3292970901575
 30
0.0
 11
1498.110790824467
 21
409.2456345049859
 31
0.0
  0
ARC
  5
AEB
330
2
100
AcDbEntity
  8
0
100
AcDbCircle
 10
1487.692113268348
 20
459.2456345049949
 30
0.0
 40
10.0
100
AcDbArc
 50
0.4793568954425757
 51
90.0
  0
LINE
  5
AEC
330
2
100
AcDbEntity
  8
0
100
AcDbLine
 10
1497.691763290817
 20
359.1619719198161
 30
0.0
 11
1498.110790824467
 21
409.2456345049868
 31
0.0
  0
ARC
  5
AED
330
2
100
AcDbEntity
  8
0
100
AcDbCircle
 10
1487.692113268348
 20
359.2456345049786
 30
0.0
 40
10.0
100
AcDbArc
 50
270.0
 51
359.5206431045313
  0
LINE
  5
AEE
330
2
100
AcDbEntity
  8
0
100
AcDbLine
 10
1387.610790824463
 20
409.2456345049859
 30
0.0
 11
1387.733031909573
 21
451.2689055361847
 31
0.0
  0
ARC
  5
AEF
330
2
100
AcDbEntity
  8
0
100
AcDbCircle
 10
1395.732998063217
 20
451.2456345123101
 30
0.0
 40
8.0
100
AcDbArc
 50
90.0
 51
179.8333333333378
  0
LINE
  5
AF0
330
2
100
AcDbEntity
  8
0
100
AcDbLine
 10
1487.610790824464
 20
409.2456345049859
 30
0.0
 11
1487.488549739396
 21
367.2223634884348
 31
0.0
  0
ARC
  5
AF1
330
2
100
AcDbEntity
  8
0
100
AcDbCircle
 10
1479.488583585751
 20
367.24563451231
 30
0.0
 40
8.0
100
AcDbArc
 50
270.0
 51
359.8333333333378
  0
LINE
  5
AF2
330
2
100
AcDbEntity
  8
0
100
AcDbLine
 10
1387.610790824463
 20
409.2456345049859
 30
0.0
 11
1387.733031909531
 21
367.2223634884353
 31
0.0
  0
ARC
  5
AF3
330
2
100
AcDbEntity
  8
0
100
AcDbCircle
 10
1395.732998063174
 20
367.24563451231
 30
0.0
 40
8.0
100
AcDbArc
 50
180.1666666666621
 51
270.0
  0
LINE
  5
AF4
330
2
100
AcDbEntity
  8
0
100
AcDbLine
 10
1487.610790824464
 20
409.2456345049859
 30
0.0
 11
1498.110790824467
 21
409.2456345049868
 31
0.0
  0
LINE
  5
AF5
330
2
100
AcDbEntity
  8
0
100
AcDbLine
 10
1387.610790824463
 20
409.2456345049859
 30
0.0
 11
1377.11079082446
 21
409.2456345049868
 31
0.0
  0
LINE
  5
AF6
330
2
100
AcDbEntity
  8
CENTER
100
AcDbLine
 10
1476.504712108361
 20
458.3895557986934
 30
0.0
 11
1497.004712108361
 21
458.3895557986934
 31
0.0
  0
LINE
  5
AF7
330
2
100
AcDbEntity
  8
CENTER
100
AcDbLine
 10
1486.754712108361
 20
448.1395557986943
 30
0.0
 11
1486.754712108361
 21
468.6395557986943
 31
0.0
  0
LINE
  5
AF8
330
2
100
AcDbEntity
  8
CENTER
100
AcDbLine
 10
1388.466869530755
 20
448.1395557888849
 30
0.0
 11
1388.466869530755
 21
468.6395557888849
 31
0.0
  0
LINE
  5
AF9
330
2
100
AcDbEntity
  8
CENTER
100
AcDbLine
 10
1398.716869530754
 20
458.3895557888849
 30
0.0
 11
1378.216869530754
 21
458.3895557888849
 31
0.0
  0
LINE
  5
AFA
330
2
100
AcDbEntity
  8
CENTER
100
AcDbLine
 10
1398.716869540565
 20
360.1017132112783
 30
0.0
 11
1378.216869540565
 21
360.1017132112783
 31
0.0
  0
LINE
  5
AFB
330
2
100
AcDbEntity
  8
CENTER
100
AcDbLine
 10
1388.466869540565
 20
370.3517132112774
 30
0.0
 11
1388.466869540565
 21
349.8517132112774
 31
0.0
  0
LINE
  5
AFC
330
2
100
AcDbEntity
  8
0
100
AcDbLine
 10
1487.610790831788
 20
409.2456345049859
 30
0.0
 11
1489.110790831787
 21
409.2456345054134
 31
0.0
  0
LINE
  5
AFD
330
2
100
AcDbEntity
  8
0
100
AcDbLine
 10
1386.110790824832
 20
409.2456345049845
 30
0.0
 11
1387.610790824832
 21
409.2456345049836
 31
0.0
  0
LINE
  5
AFE
330
2
100
AcDbEntity
  8
0
100
AcDbLine
 10
1487.610790824833
 20
409.2456345045571
 30
0.0
 11
1489.110790824832
 21
409.2456345049845
 31
0.0
  0
CIRCLE
  5
AFF
330
2
100
AcDbEntity
  8
CENTER
100
AcDbCircle
 10
1437.610790824465
 20
409.2456345049845
 30
0.0
 40
57.49999999531469
  0
CIRCLE
  5
B00
330
2
100
AcDbEntity
  8
0
100
AcDbCircle
 10
1437.610790817144
 20
409.245634504984
 30
0.0
 40
40.49999999999863
  0
CIRCLE
  5
B01
330
2
100
AcDbEntity
  8
0
100
AcDbCircle
 10
1437.610790824465
 20
409.2456345049859
 30
0.0
 40
40.99999999999863
  0
CIRCLE
  5
B02
330
2
100
AcDbEntity
  8
0
100
AcDbCircle
 10
1437.610790824463
 20
409.2456345049859
 30
0.0
 40
45.50000000000363
  0
CIRCLE
  5
B03
330
2
100
AcDbEntity
  8
0
100
AcDbCircle
 10
1437.610790824463
 20
409.2456345049859
 30
0.0
 40
46.49999999999929
  0
CIRCLE
  5
B04
330
2
100
AcDbEntity
  8
0
100
AcDbCircle
 10
1437.610790824465
 20
409.2456345049859
 30
0.0
 40
47.50000000000182
  0
ARC
  5
B05
330
2
100
AcDbEntity
  8
HIDS
  6
SEKKEI_H
100
AcDbCircle
 10
1466.145396295586
 20
457.245634505347
 30
0.0
 40
2.0
100
AcDbArc
 50
0.9999999860472849
 51
89.9999999860084
  0
ARC
  5
B06
330
2
100
AcDbEntity
  8
HIDS
  6
SEKKEI_H
100
AcDbCircle
 10
1471.212980414372
 20
453.4173772176277
 30
0.0
 40
3.0
100
AcDbArc
 50
180.9999999860603
 51
232.7391397102462
  0
LINE
  5
B07
330
2
100
AcDbEntity
  8
HIDS
  6
SEKKEI_H
100
AcDbLine
 10
1468.145091685906
 20
457.2805393177354
 30
0.0
 11
1468.213437328889
 21
453.3650199990452
 31
0.0
  0
ARC
  5
B08
330
2
100
AcDbEntity
  8
HIDS
  6
SEKKEI_H
100
AcDbCircle
 10
1409.076185350415
 20
361.2456344976617
 30
0.0
 40
2.0
100
AcDbArc
 50
181.0000000000278
 51
270.0
  0
ARC
  5
B09
330
2
100
AcDbEntity
  8
HIDS
  6
SEKKEI_H
100
AcDbCircle
 10
1404.008601230695
 20
365.0738917841445
 30
0.0
 40
3.0
100
AcDbArc
 50
1.00000000005386
 51
52.73913972425674
  0
LINE
  5
B0A
330
2
100
AcDbEntity
  8
HIDS
  6
SEKKEI_H
100
AcDbLine
 10
1407.076489960103
 20
361.2107296847852
 30
0.0
 11
1407.008144316165
 21
365.1262490034592
 31
0.0
  0
ARC
  5
B0B
330
2
100
AcDbEntity
  8
HIDS
  6
SEKKEI_H
100
AcDbCircle
 10
1466.145396295586
 20
361.2456345046248
 30
0.0
 40
2.0
100
AcDbArc
 50
270.0000000139655
 51
359.0000000139527
  0
ARC
  5
B0C
330
2
100
AcDbEntity
  8
HIDS
  6
SEKKEI_H
100
AcDbCircle
 10
1471.212980414372
 20
365.073891792344
 30
0.0
 40
3.0
100
AcDbArc
 50
127.2608602897536
 51
179.0000000139266
  0
LINE
  5
B0D
330
2
100
AcDbEntity
  8
HIDS
  6
SEKKEI_H
100
AcDbLine
 10
1468.145091685906
 20
361.2107296922363
 30
0.0
 11
1468.213437328889
 21
365.126249010927
 31
0.0
  0
LINE
  5
B0E
330
2
100
AcDbEntity
  8
HIDS
  6
SEKKEI_H
100
AcDbLine
 10
1423.157144020609
 20
447.0787165137353
 30
0.0
 11
1423.369518364249
 21
459.2456345123098
 31
0.0
  0
LINE
  5
B0F
330
2
100
AcDbEntity
  8
HIDS
  6
SEKKEI_H
100
AcDbLine
 10
1412.174703493396
 20
440.7615901728445
 30
0.0
 11
1411.852063299319
 21
459.2456345123101
 31
0.0
  0
ARC
  5
B26
330
2
100
AcDbEntity
  8
0
100
AcDbCircle
 10
524.5233818118272
 20
459.2456345049961
 30
0.0
 40
10.0
100
AcDbArc
 50
134.6637861656771
 51
179.5225462226761
  0
LINE
  5
B27
330
2
100
AcDbEntity
  8
0
100
AcDbLine
 10
514.5237290159662
 20
459.3289649449618
 30
0.0
 11
514.1063679289621
 21
409.245634504986
 31
0.0
  0
ARC
  5
B2A
330
2
100
AcDbEntity
  8
0
100
AcDbCircle
 10
524.5233818118272
 20
359.2456345049765
 30
0.0
 40
10.0
100
AcDbArc
 50
180.4774537773239
 51
225.3362138342448
  0
LINE
  5
B2B
330
2
100
AcDbEntity
  8
0
100
AcDbLine
 10
514.5237290159662
 20
359.1623040650103
 30
0.0
 11
514.106367928962
 21
409.245634504986
 31
0.0
  0
LINE
  5
B2D
330
2
100
AcDbEntity
  8
0
100
AcDbLine
 10
265.6428630597024
 20
469.245634504988
 30
0.0
 11
265.6428630597024
 21
349.2456345049861
 31
0.0
  0
LINE
  5
B2E
330
2
100
AcDbEntity
  8
0
100
AcDbLine
 10
265.6428630597024
 20
469.2456345049871
 30
0.0
 11
253.6055614816309
 21
469.2456345049889
 31
0.0
  0
LINE
  5
B2F
330
2
100
AcDbEntity
  8
0
100
AcDbLine
 10
265.6428630597024
 20
349.2456345049861
 30
0.0
 11
253.6055614816309
 21
349.2456345049843
 31
0.0
  0
LINE
  5
B30
330
2
100
AcDbEntity
  8
0
100
AcDbLine
 10
215.3144359349521
 20
459.2456345049761
 30
0.0
 11
181.1428630597042
 21
459.2456345049837
 31
0.0
  0
LINE
  5
B31
330
2
100
AcDbEntity
  8
0
 48
0.5
100
AcDbLine
 10
215.314435934953
 20
359.2456345049853
 30
0.0
 11
181.1428630597033
 21
359.2456345049859
 31
0.0
  0
ARC
  5
B32
330
2
100
AcDbEntity
  8
0
 48
0.5
100
AcDbCircle
 10
194.1777152870608
 20
361.2456345049861
 30
0.0
 40
2.0
100
AcDbArc
 50
270.0
 51
358.9999999999982
  0
LINE
  5
B33
330
2
100
AcDbEntity
  8
0
100
AcDbLine
 10
181.1428630597033
 20
359.2456345049859
 30
0.0
 11
181.1428630597042
 21
459.2456345049834
 31
0.0
  0
LINE
  5
B34
330
2
100
AcDbEntity
  8
0
100
AcDbLine
 10
251.6088660913183
 20
351.2107296921097
 30
0.0
 11
250.5958630597033
 21
409.2456345049853
 31
0.0
  0
ARC
  5
B35
330
2
100
AcDbEntity
  8
0
100
AcDbCircle
 10
253.6085614816311
 20
351.2456345049843
 30
0.0
 40
2.0
100
AcDbArc
 50
181.0000000000017
 51
270.0
  0
ARC
  5
B36
330
2
100
AcDbEntity
  8
0
100
AcDbCircle
 10
243.923103116112
 20
348.7456345049853
 30
0.0
 40
8.0
100
AcDbArc
 50
14.47751218592943
 51
52.60898312771317
  0
LINE
  5
B37
330
2
100
AcDbEntity
  8
0
100
AcDbLine
 10
196.434372091915
 20
375.9320392716793
 30
0.0
 11
196.1774106773737
 21
361.2107296921115
 31
0.0
  0
ARC
  5
B38
330
2
100
AcDbEntity
  8
0
100
AcDbCircle
 10
199.4285753687409
 20
375.7456345049861
 30
0.0
 40
3.0
100
AcDbArc
 50
90.0
 51
178.9999999999982
  0
LINE
  5
B39
330
2
100
AcDbEntity
  8
CENTER
100
AcDbLine
 10
199.6428630597051
 20
452.8973602083523
 30
0.0
 11
199.6428630597051
 21
467.4687196296025
 31
0.0
  0
LINE
  5
B3A
330
2
100
AcDbEntity
  8
0
100
AcDbLine
 10
265.6428630597024
 20
409.2456345049861
 30
0.0
 11
181.1428630597038
 21
409.2456345049859
 31
0.0
  0
LINE
  5
B3B
330
2
100
AcDbEntity
  8
0
 48
0.5
100
AcDbLine
 10
243.923103116113
 20
356.7456345049852
 30
0.0
 11
219.4712901844472
 21
356.745634504987
 31
0.0
  0
LINE
  5
B3C
330
2
100
AcDbEntity
  8
0
 48
0.5
100
AcDbLine
 10
243.923103116113
 20
461.7456345049862
 30
0.0
 11
219.4712901844472
 21
461.7456345049834
 31
0.0
  0
LINE
  5
B3D
330
2
100
AcDbEntity
  8
0
100
AcDbLine
 10
216.7286494973227
 20
459.8314209426046
 30
0.0
 11
218.0570766220757
 21
461.1598480673568
 31
0.0
  0
ARC
  5
B3E
330
2
100
AcDbEntity
  8
0
100
AcDbCircle
 10
219.4712901844472
 20
459.7456345049844
 30
0.0
 40
2.0
100
AcDbArc
 50
90.0
 51
135.0000000000833
  0
ARC
  5
B3F
330
2
100
AcDbEntity
  8
0
100
AcDbCircle
 10
215.314435934953
 20
461.2456345049753
 30
0.0
 40
2.0
100
AcDbArc
 50
269.9999999999478
 51
315.0000000000833
  0
LINE
  5
B40
330
2
100
AcDbEntity
  8
0
100
AcDbLine
 10
216.7286494973227
 20
358.6598480673677
 30
0.0
 11
218.0570766220757
 21
357.3314209426155
 31
0.0
  0
ARC
  5
B41
330
2
100
AcDbEntity
  8
0
100
AcDbCircle
 10
219.4712901844472
 20
358.745634504988
 30
0.0
 40
2.0
100
AcDbArc
 50
224.9999999999166
 51
270.0
  0
ARC
  5
B42
330
2
100
AcDbEntity
  8
0
100
AcDbCircle
 10
215.314435934953
 20
357.2456345049971
 30
0.0
 40
2.0
100
AcDbArc
 50
44.99999999991664
 51
90.00000000005213
  0
LINE
  5
B43
330
2
100
AcDbEntity
  8
0
100
AcDbLine
 10
251.6088660913183
 20
467.2805393178621
 30
0.0
 11
250.5958630597033
 21
409.2456345049866
 31
0.0
  0
ARC
  5
B44
330
2
100
AcDbEntity
  8
0
100
AcDbCircle
 10
253.6085614816311
 20
467.2456345049875
 30
0.0
 40
2.0
100
AcDbArc
 50
90.0
 51
178.9999999999721
  0
ARC
  5
B45
330
2
100
AcDbEntity
  8
0
100
AcDbCircle
 10
243.923103116112
 20
469.7456345049866
 30
0.0
 40
8.0
100
AcDbArc
 50
307.3910167566215
 51
345.5224878140704
  0
ARC
  5
B46
330
2
100
AcDbEntity
  8
0
 48
0.5
100
AcDbCircle
 10
194.1777152870608
 20
457.2456345049862
 30
0.0
 40
2.0
100
AcDbArc
 50
1.000000000027823
 51
90.0
  0
LINE
  5
B47
330
2
100
AcDbEntity
  8
0
100
AcDbLine
 10
196.4343720919141
 20
442.5592297382952
 30
0.0
 11
196.1774106773737
 21
457.2805393178608
 31
0.0
  0
ARC
  5
B48
330
2
100
AcDbEntity
  8
0
100
AcDbCircle
 10
199.4285753687399
 20
442.7456345049861
 30
0.0
 40
3.0
100
AcDbArc
 50
181.0000000000017
 51
270.0
  0
ARC
  5
B49
330
2
100
AcDbEntity
  8
0
 48
0.5
100
AcDbCircle
 10
214.1774685334712
 20
361.2456345049848
 30
0.0
 40
2.0
100
AcDbArc
 50
270.0
 51
358.9999999999982
  0
LINE
  5
B4A
330
2
100
AcDbEntity
  8
0
100
AcDbLine
 10
216.1771639237849
 20
361.2107296921106
 30
0.0
 11
216.2198857532621
 21
363.6582616636649
 31
0.0
  0
LINE
  5
B4B
330
2
100
AcDbEntity
  8
0
100
AcDbLine
 10
219.2194288387308
 20
366.6059044443516
 30
0.0
 11
199.2685838029738
 21
366.6059044443516
 31
0.0
  0
ARC
  5
B4C
330
2
100
AcDbEntity
  8
0
100
AcDbCircle
 10
219.2194288387308
 20
363.605904444353
 30
0.0
 40
3.0
100
AcDbArc
 50
90.0
 51
179.0000000000242
  0
ARC
  5
B4D
330
2
100
AcDbEntity
  8
0
 48
0.5
100
AcDbCircle
 10
214.1774685334712
 20
457.2456345049875
 30
0.0
 40
2.0
100
AcDbArc
 50
0.9999999999757051
 51
90.0
  0
LINE
  5
B4E
330
2
100
AcDbEntity
  8
0
100
AcDbLine
 10
216.1771639237849
 20
457.2805393178617
 30
0.0
 11
216.2198857532621
 21
454.8330073463073
 31
0.0
  0
LINE
  5
B4F
330
2
100
AcDbEntity
  8
0
100
AcDbLine
 10
219.2194288387308
 20
451.8853645656206
 30
0.0
 11
199.2685838029738
 21
451.8853645656206
 31
0.0
  0
ARC
  5
B50
330
2
100
AcDbEntity
  8
0
100
AcDbCircle
 10
219.2194288387308
 20
454.8853645656193
 30
0.0
 40
3.0
100
AcDbArc
 50
180.9999999999757
 51
270.0
  0
LINE
  5
B51
330
2
100
AcDbEntity
  8
0
100
AcDbLine
 10
213.9270554995846
 20
378.7456345049861
 30
0.0
 11
199.4285753687409
 21
378.7456345049861
 31
0.0
  0
LINE
  5
B52
330
2
100
AcDbEntity
  8
0
100
AcDbLine
 10
213.9270554995846
 20
439.7456345049866
 30
0.0
 11
199.4285753687399
 21
439.7456345049861
 31
0.0
  0
LINE
  5
B53
330
2
100
AcDbEntity
  8
0
100
AcDbLine
 10
216.1428630597038
 20
393.0917876082283
 30
0.0
 11
215.8608966132806
 21
409.2456345049861
 31
0.0
  0
LINE
  5
B54
330
2
100
AcDbEntity
  8
0
100
AcDbLine
 10
215.9267508898974
 20
380.7107296921115
 30
0.0
 11
216.1428630597029
 21
393.0917876082283
 31
0.0
  0
ARC
  5
B55
330
2
100
AcDbEntity
  8
0
100
AcDbCircle
 10
213.9270554995846
 20
380.7456345049861
 30
0.0
 40
2.0
100
AcDbArc
 50
270.0
 51
358.9999999999982
  0
LINE
  5
B56
330
2
100
AcDbEntity
  8
0
100
AcDbLine
 10
216.1428630597038
 20
425.399481401744
 30
0.0
 11
215.8608966132806
 21
409.2456345049861
 31
0.0
  0
LINE
  5
B57
330
2
100
AcDbEntity
  8
0
100
AcDbLine
 10
215.9267508898974
 20
437.7805393178608
 30
0.0
 11
216.1428630597029
 21
425.399481401744
 31
0.0
  0
ARC
  5
B58
330
2
100
AcDbEntity
  8
0
100
AcDbCircle
 10
213.9270554995846
 20
437.7456345049862
 30
0.0
 40
2.0
100
AcDbArc
 50
1.000000000001767
 51
90.0
  0
LINE
  5
B5A
330
2
100
AcDbEntity
  8
0
100
AcDbLine
 10
1124.559171748524
 20
463.2456345049802
 30
0.0
 11
1114.559171748524
 21
463.2456345049802
 31
0.0
  0
ARC
  5
B5B
330
2
100
AcDbEntity
  8
0
100
AcDbCircle
 10
1114.559171748524
 20
459.2456345049802
 30
0.0
 40
4.0
100
AcDbArc
 50
90.0
 51
180.0
  0
ARC
  5
B5C
330
2
100
AcDbEntity
  8
0
100
AcDbCircle
 10
1124.559171748524
 20
459.2456345049802
 30
0.0
 40
4.0
100
AcDbArc
 50
0.0
 51
90.0
  0
LINE
  5
B5D
330
2
100
AcDbEntity
  8
0
100
AcDbLine
 10
204.6428630597051
 20
463.2456345049802
 30
0.0
 11
194.6428630597051
 21
463.2456345049802
 31
0.0
  0
ARC
  5
B5E
330
2
100
AcDbEntity
  8
0
100
AcDbCircle
 10
194.6428630597051
 20
459.2456345049803
 30
0.0
 40
4.0
100
AcDbArc
 50
90.0
 51
180.0
  0
ARC
  5
B5F
330
2
100
AcDbEntity
  8
0
100
AcDbCircle
 10
204.6428630597051
 20
459.2456345049803
 30
0.0
 40
4.0
100
AcDbArc
 50
0.0
 51
90.0
  0
LINE
  5
B60
330
2
100
AcDbEntity
  8
0
100
AcDbLine
 10
1422.610790831784
 20
463.2456345123101
 30
0.0
 11
1412.610790831784
 21
463.2456345123101
 31
0.0
  0
ARC
  5
B61
330
2
100
AcDbEntity
  8
0
100
AcDbCircle
 10
1412.610790831784
 20
459.2456345123101
 30
0.0
 40
4.0
100
AcDbArc
 50
90.0
 51
180.0
  0
ARC
  5
B62
330
2
100
AcDbEntity
  8
0
100
AcDbCircle
 10
1422.610790831784
 20
459.2456345123101
 30
0.0
 40
4.0
100
AcDbArc
 50
0.0
 51
90.0
  0
CIRCLE
  5
B63
330
2
100
AcDbEntity
  8
0
100
AcDbCircle
 10
1119.559171748526
 20
758.4328728292814
 30
0.0
 40
9.0
  0
LINE
  5
B64
330
2
100
AcDbEntity
  8
0
100
AcDbLine
 10
1067.559171748522
 20
821.8267941205052
 30
0.0
 11
1069.059171748522
 21
821.8267941205052
 31
0.0
  0
LINE
  5
B65
330
2
100
AcDbEntity
  8
0
100
AcDbLine
 10
1067.559171748522
 20
833.326794120505
 30
0.0
 11
1069.059171748523
 21
833.326794120505
 31
0.0
  0
LINE
  5
B66
330
2
100
AcDbEntity
  8
0
100
AcDbLine
 10
1074.659171748522
 20
822.5767941205051
 30
0.0
 11
1075.059171748522
 21
823.2696144435324
 31
0.0
  0
LINE
  5
B67
330
2
100
AcDbEntity
  8
0
100
AcDbLine
 10
1069.059171748522
 20
821.8267941205052
 30
0.0
 11
1069.059171748523
 21
833.326794120505
 31
0.0
  0
LINE
  5
B68
330
2
100
AcDbEntity
  8
0
100
AcDbLine
 10
1074.659171748522
 20
822.5767941205051
 30
0.0
 11
1074.659171748522
 21
832.5767941205052
 31
0.0
  0
LINE
  5
B69
330
2
100
AcDbEntity
  8
0
100
AcDbLine
 10
1069.059171748522
 20
822.5767941205051
 30
0.0
 11
1074.659171748522
 21
822.5767941205051
 31
0.0
  0
LINE
  5
B6A
330
2
100
AcDbEntity
  8
0
100
AcDbLine
 10
1069.059171748523
 20
832.5767941205052
 30
0.0
 11
1074.659171748522
 21
832.5767941205052
 31
0.0
  0
LINE
  5
B6B
330
2
100
AcDbEntity
  8
0
100
AcDbLine
 10
1074.659171748522
 20
832.5767941205052
 30
0.0
 11
1075.059171748522
 21
831.8839737974778
 31
0.0
  0
LINE
  5
B6C
330
2
100
AcDbEntity
  8
0
100
AcDbLine
 10
1075.059171748522
 20
823.2696144435324
 30
0.0
 11
1075.059171748522
 21
831.8839737974778
 31
0.0
  0
LINE
  5
B6D
330
2
100
AcDbEntity
  8
0
 48
12.0
100
AcDbLine
 10
1067.559171748522
 20
833.326794120505
 30
0.0
 11
1067.559171748522
 21
821.8267941205052
 31
0.0
  0
LINE
  5
B6E
330
2
100
AcDbEntity
  8
0
100
AcDbLine
 10
1067.848728035023
 20
452.6395557888852
 30
0.0
 11
1069.348728035023
 21
452.6395557888852
 31
0.0
  0
LINE
  5
B6F
330
2
100
AcDbEntity
  8
0
100
AcDbLine
 10
1067.848728035023
 20
464.1395557888852
 30
0.0
 11
1069.348728035023
 21
464.1395557888852
 31
0.0
  0
LINE
  5
B70
330
2
100
AcDbEntity
  8
0
100
AcDbLine
 10
1074.948728035023
 20
453.3895557888852
 30
0.0
 11
1075.348728035023
 21
454.0823761119124
 31
0.0
  0
LINE
  5
B71
330
2
100
AcDbEntity
  8
0
100
AcDbLine
 10
1069.348728035023
 20
452.6395557888852
 30
0.0
 11
1069.348728035023
 21
464.1395557888852
 31
0.0
  0
LINE
  5
B72
330
2
100
AcDbEntity
  8
0
100
AcDbLine
 10
1074.948728035023
 20
453.3895557888852
 30
0.0
 11
1074.948728035023
 21
463.3895557888852
 31
0.0
  0
LINE
  5
B73
330
2
100
AcDbEntity
  8
0
100
AcDbLine
 10
1069.348728035023
 20
453.3895557888852
 30
0.0
 11
1074.948728035023
 21
453.3895557888852
 31
0.0
  0
LINE
  5
B74
330
2
100
AcDbEntity
  8
0
100
AcDbLine
 10
1069.348728035023
 20
463.3895557888852
 30
0.0
 11
1074.948728035023
 21
463.3895557888852
 31
0.0
  0
LINE
  5
B75
330
2
100
AcDbEntity
  8
0
100
AcDbLine
 10
1074.948728035023
 20
463.3895557888852
 30
0.0
 11
1075.348728035023
 21
462.6967354658579
 31
0.0
  0
LINE
  5
B76
330
2
100
AcDbEntity
  8
0
100
AcDbLine
 10
1075.348728035023
 20
454.0823761119124
 30
0.0
 11
1075.348728035023
 21
462.6967354658579
 31
0.0
  0
LINE
  5
B77
330
2
100
AcDbEntity
  8
0
 48
12.0
100
AcDbLine
 10
1067.848728035023
 20
464.1395557888852
 30
0.0
 11
1067.848728035023
 21
452.6395557888852
 31
0.0
  0
LINE
  5
B78
330
2
100
AcDbEntity
  8
0
100
AcDbLine
 10
1067.848728034851
 20
354.3517132112786
 30
0.0
 11
1069.348728034852
 21
354.3517132112786
 31
0.0
  0
LINE
  5
B79
330
2
100
AcDbEntity
  8
0
100
AcDbLine
 10
1067.848728034851
 20
365.8517132112785
 30
0.0
 11
1069.348728034852
 21
365.8517132112785
 31
0.0
  0
LINE
  5
B7A
330
2
100
AcDbEntity
  8
0
100
AcDbLine
 10
1074.948728034852
 20
355.1017132112785
 30
0.0
 11
1075.348728034851
 21
355.7945335343058
 31
0.0
  0
LINE
  5
B7B
330
2
100
AcDbEntity
  8
0
100
AcDbLine
 10
1069.348728034852
 20
354.3517132112786
 30
0.0
 11
1069.348728034852
 21
365.8517132112785
 31
0.0
  0
LINE
  5
B7C
330
2
100
AcDbEntity
  8
0
100
AcDbLine
 10
1074.948728034852
 20
355.1017132112785
 30
0.0
 11
1074.948728034852
 21
365.1017132112786
 31
0.0
  0
LINE
  5
B7D
330
2
100
AcDbEntity
  8
0
100
AcDbLine
 10
1069.348728034852
 20
355.1017132112785
 30
0.0
 11
1074.948728034852
 21
355.1017132112785
 31
0.0
  0
LINE
  5
B7E
330
2
100
AcDbEntity
  8
0
100
AcDbLine
 10
1069.348728034852
 20
365.1017132112786
 30
0.0
 11
1074.948728034852
 21
365.1017132112786
 31
0.0
  0
LINE
  5
B7F
330
2
100
AcDbEntity
  8
0
100
AcDbLine
 10
1074.948728034852
 20
365.1017132112786
 30
0.0
 11
1075.348728034851
 21
364.4088928882513
 31
0.0
  0
LINE
  5
B80
330
2
100
AcDbEntity
  8
0
100
AcDbLine
 10
1075.348728034851
 20
355.7945335343058
 30
0.0
 11
1075.348728034851
 21
364.4088928882513
 31
0.0
  0
LINE
  5
B81
330
2
100
AcDbEntity
  8
0
 48
12.0
100
AcDbLine
 10
1067.848728034851
 20
365.8517132112785
 30
0.0
 11
1067.848728034851
 21
354.3517132112786
 31
0.0
  0
LINE
  5
B82
330
2
100
AcDbEntity
  8
0
100
AcDbLine
 10
251.3533067733774
 20
365.8517132112786
 30
0.0
 11
249.8533067733769
 21
365.8517132112786
 31
0.0
  0
LINE
  5
B83
330
2
100
AcDbEntity
  8
0
100
AcDbLine
 10
251.3533067733774
 20
354.3517132112786
 30
0.0
 11
249.8533067733765
 21
354.3517132112786
 31
0.0
  0
LINE
  5
B84
330
2
100
AcDbEntity
  8
0
100
AcDbLine
 10
244.253306773377
 20
365.1017132112786
 30
0.0
 11
243.8533067733774
 21
364.4088928882514
 31
0.0
  0
LINE
  5
B85
330
2
100
AcDbEntity
  8
0
100
AcDbLine
 10
249.8533067733769
 20
365.8517132112786
 30
0.0
 11
249.8533067733765
 21
354.3517132112786
 31
0.0
  0
LINE
  5
B86
330
2
100
AcDbEntity
  8
0
100
AcDbLine
 10
244.253306773377
 20
365.1017132112786
 30
0.0
 11
244.253306773377
 21
355.1017132112786
 31
0.0
  0
LINE
  5
B87
330
2
100
AcDbEntity
  8
0
100
AcDbLine
 10
249.8533067733769
 20
365.1017132112786
 30
0.0
 11
244.253306773377
 21
365.1017132112786
 31
0.0
  0
LINE
  5
B88
330
2
100
AcDbEntity
  8
0
100
AcDbLine
 10
249.8533067733765
 20
355.1017132112786
 30
0.0
 11
244.253306773377
 21
355.1017132112786
 31
0.0
  0
LINE
  5
B89
330
2
100
AcDbEntity
  8
0
100
AcDbLine
 10
244.253306773377
 20
355.1017132112786
 30
0.0
 11
243.8533067733774
 21
355.7945335343059
 31
0.0
  0
LINE
  5
B8A
330
2
100
AcDbEntity
  8
0
100
AcDbLine
 10
243.8533067733774
 20
364.4088928882514
 30
0.0
 11
243.8533067733774
 21
355.7945335343059
 31
0.0
  0
LINE
  5
B8B
330
2
100
AcDbEntity
  8
0
 48
12.0
100
AcDbLine
 10
251.3533067733774
 20
354.3517132112786
 30
0.0
 11
251.3533067733774
 21
365.8517132112786
 31
0.0
  0
LINE
  5
B8C
330
2
100
AcDbEntity
  8
0
100
AcDbLine
 10
251.3533067732064
 20
464.1395557888852
 30
0.0
 11
249.853306773206
 21
464.1395557888852
 31
0.0
  0
LINE
  5
B8D
330
2
100
AcDbEntity
  8
0
100
AcDbLine
 10
251.3533067732059
 20
452.6395557888853
 30
0.0
 11
249.8533067732055
 21
452.6395557888853
 31
0.0
  0
LINE
  5
B8E
330
2
100
AcDbEntity
  8
0
100
AcDbLine
 10
244.253306773206
 20
463.3895557888853
 30
0.0
 11
243.8533067732064
 21
462.696735465858
 31
0.0
  0
LINE
  5
B8F
330
2
100
AcDbEntity
  8
0
100
AcDbLine
 10
249.853306773206
 20
464.1395557888852
 30
0.0
 11
249.8533067732055
 21
452.6395557888853
 31
0.0
  0
LINE
  5
B90
330
2
100
AcDbEntity
  8
0
100
AcDbLine
 10
244.253306773206
 20
463.3895557888853
 30
0.0
 11
244.2533067732056
 21
453.3895557888852
 31
0.0
  0
LINE
  5
B91
330
2
100
AcDbEntity
  8
0
100
AcDbLine
 10
249.853306773206
 20
463.3895557888853
 30
0.0
 11
244.253306773206
 21
463.3895557888853
 31
0.0
  0
LINE
  5
B92
330
2
100
AcDbEntity
  8
0
100
AcDbLine
 10
249.8533067732055
 20
453.3895557888852
 30
0.0
 11
244.2533067732056
 21
453.3895557888852
 31
0.0
  0
LINE
  5
B93
330
2
100
AcDbEntity
  8
0
100
AcDbLine
 10
244.2533067732056
 20
453.3895557888852
 30
0.0
 11
243.853306773206
 21
454.0823761119125
 31
0.0
  0
LINE
  5
B94
330
2
100
AcDbEntity
  8
0
100
AcDbLine
 10
243.8533067732064
 20
462.696735465858
 30
0.0
 11
243.853306773206
 21
454.0823761119125
 31
0.0
  0
LINE
  5
B95
330
2
100
AcDbEntity
  8
0
 48
12.0
100
AcDbLine
 10
251.3533067732059
 20
452.6395557888853
 30
0.0
 11
251.3533067732064
 21
464.1395557888852
 31
0.0
  0
ARC
  5
B96
330
2
100
AcDbEntity
  8
0
100
AcDbCircle
 10
1486.754712108357
 20
458.3895557986934
 30
0.0
 40
5.000000000000113
100
AcDbArc
 50
275.0016630384152
 51
174.0265442060207
  0
ARC
  5
B97
330
2
100
AcDbEntity
  8
0
100
AcDbCircle
 10
1486.754712108357
 20
458.3895557986934
 30
0.0
 40
4.307179676972509
100
AcDbArc
 50
272.8219851704368
 51
176.2062220740109
  0
LINE
  5
B98
330
2
100
AcDbEntity
  8
0
100
AcDbLine
 10
1489.254712108357
 20
459.8329314716675
 30
0.0
 11
1489.254712108357
 21
456.9461801257193
 31
0.0
  0
LINE
  5
B99
330
2
100
AcDbEntity
  8
0
100
AcDbLine
 10
1486.754712108357
 20
455.5028044527452
 30
0.0
 11
1489.254712108357
 21
456.9461801257193
 31
0.0
  0
LINE
  5
B9A
330
2
100
AcDbEntity
  8
0
100
AcDbLine
 10
1489.254712108357
 20
459.8329314716675
 30
0.0
 11
1486.754712108357
 21
461.2763071446416
 31
0.0
  0
LINE
  5
B9B
330
2
100
AcDbEntity
  8
0
100
AcDbLine
 10
1484.254712108357
 20
459.8329314716675
 30
0.0
 11
1484.254712108357
 21
457.6708986240491
 31
0.0
  0
LINE
  5
B9C
330
2
100
AcDbEntity
  8
0
100
AcDbLine
 10
1486.754712108357
 20
455.5028044527452
 30
0.0
 11
1485.94396714166
 21
455.9708882775116
 31
0.0
  0
LINE
  5
B9D
330
2
100
AcDbEntity
  8
0
100
AcDbLine
 10
1484.254712108357
 20
459.8329314716675
 30
0.0
 11
1486.754712108357
 21
461.2763071446416
 31
0.0
  0
ARC
  5
B9E
330
2
100
AcDbEntity
  8
0
 48
12.0
100
AcDbCircle
 10
1486.754712108361
 20
458.3895557986934
 30
0.0
 40
5.749999999999829
100
AcDbArc
 50
276.0473863444506
 51
172.9808208999609
  0
ARC
  5
B9F
330
2
100
AcDbEntity
  8
0
100
AcDbCircle
 10
1388.466869530751
 20
458.3895557888849
 30
0.0
 40
5.000000000000113
100
AcDbArc
 50
5.973455870735777
 51
264.9983370408858
  0
ARC
  5
BA0
330
2
100
AcDbEntity
  8
0
100
AcDbCircle
 10
1388.466869530751
 20
458.3895557888849
 30
0.0
 40
4.307179676972509
100
AcDbArc
 50
3.79377800243267
 51
267.1780149091799
  0
LINE
  5
BA1
330
2
100
AcDbEntity
  8
0
100
AcDbLine
 10
1390.966869530751
 20
459.832931461859
 30
0.0
 11
1390.966869530751
 21
457.6708986167659
 31
0.0
  0
LINE
  5
BA2
330
2
100
AcDbEntity
  8
0
100
AcDbLine
 10
1388.466869530751
 20
455.5028044429368
 30
0.0
 11
1389.277614502018
 21
455.9708882703416
 31
0.0
  0
LINE
  5
BA3
330
2
100
AcDbEntity
  8
0
100
AcDbLine
 10
1390.966869530751
 20
459.832931461859
 30
0.0
 11
1388.466869530751
 21
461.2763071348331
 31
0.0
  0
LINE
  5
BA4
330
2
100
AcDbEntity
  8
0
100
AcDbLine
 10
1385.966869530751
 20
459.832931461859
 30
0.0
 11
1385.966869530751
 21
456.9461801159109
 31
0.0
  0
LINE
  5
BA5
330
2
100
AcDbEntity
  8
0
100
AcDbLine
 10
1388.466869530751
 20
455.5028044429368
 30
0.0
 11
1385.966869530751
 21
456.9461801159109
 31
0.0
  0
LINE
  5
BA6
330
2
100
AcDbEntity
  8
0
100
AcDbLine
 10
1385.966869530751
 20
459.832931461859
 30
0.0
 11
1388.466869530751
 21
461.2763071348331
 31
0.0
  0
ARC
  5
BA7
330
2
100
AcDbEntity
  8
0
 48
12.0
100
AcDbCircle
 10
1388.466869530755
 20
458.3895557888849
 30
0.0
 40
5.749999999999829
100
AcDbArc
 50
7.019179177061215
 51
263.9526137345189
  0
ARC
  5
BA8
330
2
100
AcDbEntity
  8
0
100
AcDbCircle
 10
1388.466869540561
 20
360.1017132112783
 30
0.0
 40
5.000000000000113
100
AcDbArc
 50
95.00166299261826
 51
354.02654436956
  0
ARC
  5
BA9
330
2
100
AcDbEntity
  8
0
100
AcDbCircle
 10
1388.466869540561
 20
360.1017132112783
 30
0.0
 40
4.307179676972509
100
AcDbArc
 50
92.82198509809822
 51
356.2062222640701
  0
LINE
  5
BAA
330
2
100
AcDbEntity
  8
0
100
AcDbLine
 10
1390.966869540561
 20
360.8203704005459
 30
0.0
 11
1390.966869540561
 21
358.6583375383042
 31
0.0
  0
LINE
  5
BAB
330
2
100
AcDbEntity
  8
0
100
AcDbLine
 10
1388.466869540561
 20
357.2149618653302
 30
0.0
 11
1390.966869540561
 21
358.6583375383042
 31
0.0
  0
LINE
  5
BAC
330
2
100
AcDbEntity
  8
0
100
AcDbLine
 10
1389.277614525769
 20
362.5203807217726
 30
0.0
 11
1388.466869540561
 21
362.9884645572265
 31
0.0
  0
LINE
  5
BAD
330
2
100
AcDbEntity
  8
0
100
AcDbLine
 10
1385.966869540561
 20
361.5450888842524
 30
0.0
 11
1385.966869540561
 21
358.6583375383042
 31
0.0
  0
LINE
  5
BAE
330
2
100
AcDbEntity
  8
0
100
AcDbLine
 10
1388.466869540561
 20
357.2149618653302
 30
0.0
 11
1385.966869540561
 21
358.6583375383042
 31
0.0
  0
LINE
  5
BAF
330
2
100
AcDbEntity
  8
0
100
AcDbLine
 10
1385.966869540561
 20
361.5450888842524
 30
0.0
 11
1388.466869540561
 21
362.9884645572265
 31
0.0
  0
ARC
  5
BB0
330
2
100
AcDbEntity
  8
0
 48
12.0
100
AcDbCircle
 10
1388.466869540565
 20
360.1017132112783
 30
0.0
 40
5.749999999999829
100
AcDbArc
 50
96.04738631879996
 51
352.9808210434277
  0
ARC
  5
BB1
330
2
100
AcDbEntity
  8
0
100
AcDbCircle
 10
1486.754712118167
 20
360.1017132210872
 30
0.0
 40
5.000000000000113
100
AcDbArc
 50
185.9734557072512
 51
84.99833708649967
  0
ARC
  5
BB2
330
2
100
AcDbEntity
  8
0
100
AcDbCircle
 10
1486.754712118167
 20
360.1017132210872
 30
0.0
 40
4.307179676972509
100
AcDbArc
 50
183.7937778124514
 51
87.17801498130979
  0
LINE
  5
BB3
330
2
100
AcDbEntity
  8
0
100
AcDbLine
 10
1489.254712118167
 20
361.5450888940613
 30
0.0
 11
1489.254712118167
 21
358.6583375481132
 31
0.0
  0
LINE
  5
BB4
330
2
100
AcDbEntity
  8
0
100
AcDbLine
 10
1486.754712118167
 20
357.2149618751391
 30
0.0
 11
1489.254712118167
 21
358.6583375481132
 31
0.0
  0
LINE
  5
BB5
330
2
100
AcDbEntity
  8
0
100
AcDbLine
 10
1489.254712118167
 20
361.5450888940613
 30
0.0
 11
1486.754712118167
 21
362.9884645670354
 31
0.0
  0
LINE
  5
BB6
330
2
100
AcDbEntity
  8
0
100
AcDbLine
 10
1484.254712118167
 20
360.8203704078168
 30
0.0
 11
1484.254712118167
 21
358.6583375481132
 31
0.0
  0
LINE
  5
BB7
330
2
100
AcDbEntity
  8
0
100
AcDbLine
 10
1486.754712118167
 20
357.2149618751391
 30
0.0
 11
1484.254712118167
 21
358.6583375481132
 31
0.0
  0
LINE
  5
BB8
330
2
100
AcDbEntity
  8
0
100
AcDbLine
 10
1485.943967128418
 20
362.5203807289594
 30
0.0
 11
1486.754712118167
 21
362.9884645670354
 31
0.0
  0
ARC
  5
BB9
330
2
100
AcDbEntity
  8
0
 48
12.0
100
AcDbCircle
 10
1486.754712118171
 20
360.1017132210872
 30
0.0
 40
5.749999999999829
100
AcDbArc
 50
187.0191790335944
 51
83.95261376019579
  0
LINE
  5
BBA
330
2
100
AcDbEntity
  8
0
100
AcDbLine
 10
1108.059171748525
 20
430.7365319869976
 30
0.0
 11
1108.059171748525
 21
409.245634504986
 31
0.0
  0
LINE
  5
BBB
330
2
100
AcDbEntity
  8
0
100
AcDbLine
 10
1130.059171748525
 20
409.245634504986
 30
0.0
 11
1130.059171748524
 21
436.2456345049884
 31
0.0
  0
LINE
  5
BBC
330
2
100
AcDbEntity
  8
0
100
AcDbLine
 10
1128.059171748525
 20
409.245634504986
 30
0.0
 11
1128.059171748524
 21
421.2456345049888
 31
0.0
  0
LINE
  5
BBD
330
2
100
AcDbEntity
  8
0
100
AcDbLine
 10
1110.059171748525
 20
431.8559339806957
 30
0.0
 11
1110.059171748525
 21
409.245634504986
 31
0.0
  0
LINE
  5
BBE
330
2
100
AcDbEntity
  8
0
100
AcDbLine
 10
1066.559171748525
 20
409.2456345049856
 30
0.0
 11
1066.559171748525
 21
421.745634504987
 31
0.0
  0
LINE
  5
BBF
330
2
100
AcDbEntity
  8
0
 48
0.3
100
AcDbLine
 10
1086.559171748525
 20
421.7456345049875
 30
0.0
 11
1066.559171748525
 21
421.745634504987
 31
0.0
  0
LINE
  5
BC0
330
2
100
AcDbEntity
  8
0
 48
0.3
100
AcDbLine
 10
1086.559171748525
 20
421.2456345049875
 30
0.0
 11
1108.059171748525
 21
421.2456345049879
 31
0.0
  0
LINE
  5
BC1
330
2
100
AcDbEntity
  8
0
100
AcDbLine
 10
1086.559171748525
 20
409.2456345049856
 30
0.0
 11
1086.559171748525
 21
421.7456345049875
 31
0.0
  0
LINE
  5
BC2
330
2
100
AcDbEntity
  8
0
100
AcDbLine
 10
1116.572969675361
 20
436.2456345049884
 30
0.0
 11
1130.059171748524
 21
436.2456345049884
 31
0.0
  0
LINE
  5
BC3
330
2
100
AcDbEntity
  8
0
 48
0.3
100
AcDbLine
 10
1110.059171748525
 20
421.2456345049884
 30
0.0
 11
1128.059171748524
 21
421.2456345049888
 31
0.0
  0
LINE
  5
BC4
330
2
100
AcDbEntity
  8
0
 48
0.3
100
AcDbLine
 10
1059.919643652844
 20
409.245634504987
 30
0.0
 11
1066.559171748525
 21
420.745634504987
 31
0.0
  0
LINE
  5
BC5
330
2
100
AcDbEntity
  8
0
100
AcDbLine
 10
1128.059171748525
 20
421.2456345049843
 30
0.0
 11
1130.059171748525
 21
422.4003350433638
 31
0.0
  0
LINE
  5
BC7
330
2
100
AcDbEntity
  8
0
100
AcDbLine
 10
1131.059171748525
 20
456.7456345049852
 30
0.0
 11
1138.059171748524
 21
456.7456345049852
 31
0.0
  0
LINE
  5
BC8
330
2
100
AcDbEntity
  8
0
100
AcDbLine
 10
1130.059171748531
 20
454.7456345049888
 30
0.0
 11
1131.059171748529
 21
455.7456345049875
 31
0.0
  0
LINE
  5
BC9
330
2
100
AcDbEntity
  8
0
100
AcDbLine
 10
1121.204557845709
 20
450.4663605403528
 30
0.0
 11
1129.567897951745
 21
450.6123431849207
 31
0.0
  0
ARC
  5
BCA
330
2
100
AcDbEntity
  8
0
100
AcDbCircle
 10
1129.559171748527
 20
451.1122670324986
 30
0.0
 40
0.5
100
AcDbArc
 50
270.9999999999757
 51
0.0
  0
LINE
  5
BCB
330
2
100
AcDbEntity
  8
0
100
AcDbLine
 10
1131.059171748525
 20
456.7456345049852
 30
0.0
 11
1131.059171748525
 21
409.245634504986
 31
0.0
  0
LINE
  5
BCC
330
2
100
AcDbEntity
  8
0
100
AcDbLine
 10
1130.059171748531
 20
454.7456345049888
 30
0.0
 11
1130.059171748531
 21
409.245634504986
 31
0.0
  0
LINE
  5
BCD
330
2
100
AcDbEntity
  8
CENTER
100
AcDbLine
 10
1417.61079082448
 20
386.3710484168136
 30
0.0
 11
1417.61079082448
 21
467.4687196296022
 31
0.0
  0
LINE
  5
BCE
330
2
100
AcDbEntity
  8
HIDS
  6
SEKKEI_H
100
AcDbLine
 10
1412.530918416505
 20
419.2456345050008
 30
0.0
 11
1425.360790824473
 21
419.2456345050004
 31
0.0
  0
LINE
  5
BCF
330
2
100
AcDbEntity
  8
HIDS
  6
SEKKEI_H
100
AcDbLine
 10
1422.110790824473
 20
409.9956345049977
 30
0.0
 11
1422.110790824473
 21
419.2456345050004
 31
0.0
  0
LINE
  5
BD0
330
2
100
AcDbEntity
  8
HIDS
  6
SEKKEI_H
100
AcDbLine
 10
1413.110790824473
 20
409.9956345049977
 30
0.0
 11
1413.110790824473
 21
419.2456345050008
 31
0.0
  0
LINE
  5
BD1
330
2
100
AcDbEntity
  8
HIDS
  6
SEKKEI_H
100
AcDbLine
 10
1414.210790824473
 20
395.7756679126114
 30
0.0
 11
1414.210790824473
 21
408.4956345049977
 31
0.0
  0
LINE
  5
BD2
330
2
100
AcDbEntity
  8
HIDS
  6
SEKKEI_H
100
AcDbLine
 10
1413.610790824473
 20
396.2456345050009
 30
0.0
 11
1413.610790824473
 21
408.4956345049981
 31
0.0
  0
LINE
  5
BD3
330
2
100
AcDbEntity
  8
HIDS
  6
SEKKEI_H
100
AcDbLine
 10
1421.610790824473
 20
387.4970713340658
 30
0.0
 11
1421.610790824473
 21
408.4956345049981
 31
0.0
  0
LINE
  5
BD4
330
2
100
AcDbEntity
  8
HIDS
  6
SEKKEI_H
100
AcDbLine
 10
1421.010790824473
 20
387.9515038582676
 30
0.0
 11
1421.010790824473
 21
408.4956345049981
 31
0.0
  0
LINE
  5
BD5
330
2
100
AcDbEntity
  8
0
100
AcDbLine
 10
1410.621209501303
 20
408.4956345049977
 30
0.0
 11
1425.634251257469
 21
408.4956345049977
 31
0.0
  0
LINE
  5
BD6
330
2
100
AcDbEntity
  8
0
100
AcDbLine
 10
1449.587330391477
 20
408.4956345049977
 30
0.0
 11
1463.619510870521
 21
408.4956345049981
 31
0.0
  0
LINE
  5
BD7
330
2
100
AcDbEntity
  8
0
100
AcDbLine
 10
1410.621209501303
 20
409.9956345049977
 30
0.0
 11
1425.634251257469
 21
409.9956345049977
 31
0.0
  0
LINE
  5
BD8
330
2
100
AcDbEntity
  8
0
100
AcDbLine
 10
1449.587330391477
 20
409.9956345049982
 30
0.0
 11
1463.619510870521
 21
409.9956345049977
 31
0.0
  0
LINE
  5
BD9
330
2
100
AcDbEntity
  8
0
100
AcDbLine
 10
1463.619510870521
 20
409.9956345049977
 30
0.0
 11
1463.619510870521
 21
408.4956345049981
 31
0.0
  0
LINE
  5
BDA
330
2
100
AcDbEntity
  8
HIDS
  6
SEKKEI_H
100
AcDbLine
 10
1424.11079082448
 20
428.7456345050009
 30
0.0
 11
1418.935941427493
 21
428.7456345050009
 31
0.0
  0
LINE
  5
BDB
330
2
100
AcDbEntity
  8
HIDS
  6
SEKKEI_H
100
AcDbLine
 10
1423.244765420694
 20
429.2456345050009
 30
0.0
 11
1419.472433677259
 21
429.2456345050009
 31
0.0
  0
LINE
  5
BDC
330
2
100
AcDbEntity
  8
HIDS
  6
SEKKEI_H
100
AcDbLine
 10
1424.86079082448
 20
421.2456345050009
 30
0.0
 11
1413.424017579579
 21
421.2456345050009
 31
0.0
  0
LINE
  5
BDD
330
2
100
AcDbEntity
  8
HIDS
  6
SEKKEI_H
100
AcDbLine
 10
1420.410790824487
 20
396.2456345050009
 30
0.0
 11
1414.810790824473
 21
396.2456345050009
 31
0.0
  0
LINE
  5
BDE
330
2
100
AcDbEntity
  8
HIDS
  6
SEKKEI_H
100
AcDbLine
 10
1421.610790824473
 20
397.4456345050007
 30
0.0
 11
1413.610790824473
 21
397.4456345050007
 31
0.0
  0
LINE
  5
BDF
330
2
100
AcDbEntity
  8
0
 48
0.3
100
AcDbLine
 10
1410.36079082448
 20
421.2456345050004
 30
0.0
 11
1410.36079082448
 21
419.2456345050004
 31
0.0
  0
LINE
  5
BE0
330
2
100
AcDbEntity
  8
0
 48
0.3
100
AcDbLine
 10
1411.11079082448
 20
428.7456345050004
 30
0.0
 11
1411.976816228264
 21
429.2456345050005
 31
0.0
  0
LINE
  5
BE1
330
2
100
AcDbEntity
  8
0
 48
0.3
100
AcDbLine
 10
1411.11079082448
 20
428.7456345050004
 30
0.0
 11
1411.11079082448
 21
421.2456345050004
 31
0.0
  0
LINE
  5
BE2
330
2
100
AcDbEntity
  8
HIDS
  6
SEKKEI_H
100
AcDbLine
 10
1424.86079082448
 20
421.2456345050009
 30
0.0
 11
1424.86079082448
 21
419.2456345050008
 31
0.0
  0
LINE
  5
BE3
330
2
100
AcDbEntity
  8
HIDS
  6
SEKKEI_H
100
AcDbLine
 10
1424.11079082448
 20
428.7456345049999
 30
0.0
 11
1423.244765420695
 21
429.2456345050005
 31
0.0
  0
LINE
  5
BE4
330
2
100
AcDbEntity
  8
HIDS
  6
SEKKEI_H
100
AcDbLine
 10
1424.11079082448
 20
428.7456345049999
 30
0.0
 11
1424.11079082448
 21
421.2456345050009
 31
0.0
  0
LINE
  5
BE5
330
2
100
AcDbEntity
  8
HIDS
  6
SEKKEI_H
100
AcDbLine
 10
1425.31079082448
 20
419.2456345050008
 30
0.0
 11
1412.530918416505
 21
419.2456345050004
 31
0.0
  0
LINE
  5
BE6
330
2
100
AcDbEntity
  8
HOJO
100
AcDbLine
 10
1414.210790824473
 20
408.4956345049977
 30
0.0
 11
1414.210790824473
 21
409.9956345049977
 31
0.0
  0
LINE
  5
BE7
330
2
100
AcDbEntity
  8
0
100
AcDbLine
 10
1413.610790824473
 20
408.4956345049981
 30
0.0
 11
1413.610790824473
 21
409.9956345049977
 31
0.0
  0
LINE
  5
BE8
330
2
100
AcDbEntity
  8
HOJO
100
AcDbLine
 10
1421.010790824473
 20
408.4956345049981
 30
0.0
 11
1421.010790824473
 21
409.9956345049977
 31
0.0
  0
LINE
  5
BE9
330
2
100
AcDbEntity
  8
0
100
AcDbLine
 10
1421.610790824473
 20
408.4956345049981
 30
0.0
 11
1421.610790824473
 21
409.9956345049977
 31
0.0
  0
LINE
  5
BEA
330
2
100
AcDbEntity
  8
HIDS
  6
SEKKEI_H
100
AcDbLine
 10
1421.610790824473
 20
409.9956345049977
 30
0.0
 11
1421.610790824473
 21
419.2456345050004
 31
0.0
  0
LINE
  5
BEB
330
2
100
AcDbEntity
  8
HIDS
  6
SEKKEI_H
100
AcDbLine
 10
1421.010790824473
 20
409.9956345049977
 30
0.0
 11
1421.010790824473
 21
419.2456345050004
 31
0.0
  0
LINE
  5
BEC
330
2
100
AcDbEntity
  8
HIDS
  6
SEKKEI_H
100
AcDbLine
 10
1414.210790824473
 20
409.9956345049977
 30
0.0
 11
1414.210790824473
 21
419.2456345050008
 31
0.0
  0
LINE
  5
BED
330
2
100
AcDbEntity
  8
HIDS
  6
SEKKEI_H
100
AcDbLine
 10
1413.610790824473
 20
409.9956345049977
 30
0.0
 11
1413.610790824473
 21
419.2456345050008
 31
0.0
  0
LINE
  5
BEE
330
2
100
AcDbEntity
  8
0
100
AcDbLine
 10
1419.472433677259
 20
429.2456345050009
 30
0.0
 11
1411.976816228264
 21
429.2456345050005
 31
0.0
  0
LINE
  5
BEF
330
2
100
AcDbEntity
  8
0
100
AcDbLine
 10
1418.935941427493
 20
428.7456345050009
 30
0.0
 11
1411.11079082448
 21
428.7456345050004
 31
0.0
  0
LINE
  5
BF0
330
2
100
AcDbEntity
  8
0
100
AcDbLine
 10
1413.424017579579
 20
421.2456345050009
 30
0.0
 11
1410.36079082448
 21
421.2456345050004
 31
0.0
  0
LINE
  5
BF1
330
2
100
AcDbEntity
  8
0
100
AcDbLine
 10
1412.530918416505
 20
419.2456345050004
 30
0.0
 11
1410.36079082448
 21
419.2456345050004
 31
0.0
  0
LINE
  5
BF2
330
2
100
AcDbEntity
  8
HIDS
  6
SEKKEI_H
100
AcDbLine
 10
1413.610790824473
 20
397.4456345050007
 30
0.0
 11
1414.810790824473
 21
396.2456345050009
 31
0.0
  0
LINE
  5
BF3
330
2
100
AcDbEntity
  8
HIDS
  6
SEKKEI_H
100
AcDbLine
 10
1421.610790824487
 20
397.4456345050007
 30
0.0
 11
1420.410790824487
 21
396.2456345050009
 31
0.0
  0
ARC
  5
BF4
330
2
100
AcDbEntity
  8
0
100
AcDbCircle
 10
1437.610790824465
 20
409.2456345049859
 30
0.0
 40
13.15470053837729
100
AcDbArc
 50
183.2684247869235
 51
356.7315752130764
  0
ARC
  5
BF5
330
2
100
AcDbEntity
  8
0
100
AcDbCircle
 10
1437.610790824465
 20
409.2456345049859
 30
0.0
 40
13.15470053837729
100
AcDbArc
 50
3.268424787027603
 51
176.7315752129724
  0
CIRCLE
  5
BF6
330
2
100
AcDbEntity
  8
0
100
AcDbCircle
 10
1437.610790824465
 20
409.2456345049859
 30
0.0
 40
12.00000000001165
  0
CIRCLE
  5
BF7
330
2
100
AcDbEntity
  8
0
100
AcDbCircle
 10
1437.610790824465
 20
409.2456345049859
 30
0.0
 40
26.99999999999249
  0
LINE
  5
BF9
330
2
100
AcDbEntity
  8
HIDS
  6
SEKKEI_H
100
AcDbLine
 10
1425.360790824473
 20
419.2456345050004
 30
0.0
 11
1425.360790824473
 21
433.3067545953008
 31
0.0
  0
LINE
  5
BFA
330
2
100
AcDbEntity
  8
0
100
AcDbLine
 10
1067.559171748522
 20
735.0389515380577
 30
0.0
 11
1069.059171748522
 21
735.0389515380577
 31
0.0
  0
LINE
  5
BFB
330
2
100
AcDbEntity
  8
0
100
AcDbLine
 10
1067.559171748522
 20
723.5389515380577
 30
0.0
 11
1069.059171748523
 21
723.5389515380577
 31
0.0
  0
LINE
  5
BFC
330
2
100
AcDbEntity
  8
0
100
AcDbLine
 10
1074.659171748522
 20
734.2889515380577
 30
0.0
 11
1075.059171748522
 21
733.5961312150304
 31
0.0
  0
LINE
  5
BFD
330
2
100
AcDbEntity
  8
0
100
AcDbLine
 10
1069.059171748522
 20
735.0389515380577
 30
0.0
 11
1069.059171748523
 21
723.5389515380577
 31
0.0
  0
LINE
  5
BFE
330
2
100
AcDbEntity
  8
0
100
AcDbLine
 10
1074.659171748522
 20
734.2889515380577
 30
0.0
 11
1074.659171748522
 21
724.2889515380577
 31
0.0
  0
LINE
  5
BFF
330
2
100
AcDbEntity
  8
0
100
AcDbLine
 10
1069.059171748522
 20
734.2889515380577
 30
0.0
 11
1074.659171748522
 21
734.2889515380577
 31
0.0
  0
LINE
  5
C00
330
2
100
AcDbEntity
  8
0
100
AcDbLine
 10
1069.059171748523
 20
724.2889515380577
 30
0.0
 11
1074.659171748522
 21
724.2889515380577
 31
0.0
  0
LINE
  5
C01
330
2
100
AcDbEntity
  8
0
100
AcDbLine
 10
1074.659171748522
 20
724.2889515380577
 30
0.0
 11
1075.059171748522
 21
724.981771861085
 31
0.0
  0
LINE
  5
C02
330
2
100
AcDbEntity
  8
0
100
AcDbLine
 10
1075.059171748522
 20
733.5961312150304
 30
0.0
 11
1075.059171748522
 21
724.981771861085
 31
0.0
  0
LINE
  5
C03
330
2
100
AcDbEntity
  8
0
 48
12.0
100
AcDbLine
 10
1067.559171748522
 20
723.5389515380577
 30
0.0
 11
1067.559171748522
 21
735.0389515380577
 31
0.0
  0
LINE
  5
C04
330
2
100
AcDbEntity
  8
CENTER
  6
CENTERX2
100
AcDbLine
 10
1064.559171748522
 20
827.5767941205057
 30
0.0
 11
1078.059171748523
 21
827.5767941205051
 31
0.0
  0
LINE
  5
C05
330
2
100
AcDbEntity
  8
CENTER
  6
CENTERX2
100
AcDbLine
 10
1064.559171748522
 20
729.2889515380582
 30
0.0
 11
1078.059171748523
 21
729.2889515380577
 31
0.0
  0
LINE
  5
C06
330
2
100
AcDbEntity
  8
CENTER
  6
CENTERX2
100
AcDbLine
 10
1064.848728035023
 20
458.3895557888856
 30
0.0
 11
1078.348728035024
 21
458.3895557888852
 31
0.0
  0
LINE
  5
C07
330
2
100
AcDbEntity
  8
CENTER
  6
CENTERX2
100
AcDbLine
 10
1064.848728034851
 20
360.101713211279
 30
0.0
 11
1078.348728034852
 21
360.1017132112786
 31
0.0
  0
LINE
  5
C08
330
2
100
AcDbEntity
  8
CENTER
  6
CENTERX2
100
AcDbLine
 10
254.3533067732064
 20
458.3895557888855
 30
0.0
 11
240.8471975004804
 21
458.3895557888852
 31
0.0
  0
LINE
  5
C09
330
2
100
AcDbEntity
  8
CENTER
  6
CENTERX2
100
AcDbLine
 10
254.3533067733774
 20
360.1017132112788
 30
0.0
 11
240.8471975006514
 21
360.1017132112786
 31
0.0
  0
CIRCLE
  5
C0A
330
2
100
AcDbEntity
  8
0
100
AcDbCircle
 10
1437.610790824465
 20
409.2456345049859
 30
0.0
 40
41.37528389595729
  0
LINE
  5
C0B
330
2
100
AcDbEntity
  8
HIDS
  6
SEKKEI_H
100
AcDbLine
 10
1485.527878989535
 20
378.7456345049836
 30
0.0
 11
1481.860084586283
 21
378.745634504984
 31
0.0
  0
LINE
  5
C0C
330
2
100
AcDbEntity
  8
HIDS
  6
SEKKEI_H
100
AcDbLine
 10
1393.361497062641
 20
378.7456345049845
 30
0.0
 11
1389.693702659386
 21
378.7456345049854
 31
0.0
  0
ARC
  5
C0D
330
2
100
AcDbEntity
  8
HIDS
  6
SEKKEI_H
100
AcDbCircle
 10
1481.860084596815
 20
442.745634504985
 30
0.0
 40
3.0
100
AcDbArc
 50
217.1284250626476
 51
270.0
  0
ARC
  5
C0E
330
2
100
AcDbEntity
  8
HIDS
  6
SEKKEI_H
100
AcDbCircle
 10
1393.361497037467
 20
442.745634504984
 30
0.0
 40
3.0
100
AcDbArc
 50
270.0
 51
322.8715749373655
  0
ARC
  5
C0F
330
2
100
AcDbEntity
  8
HIDS
  6
SEKKEI_H
100
AcDbCircle
 10
1393.36149706264
 20
375.7456345049849
 30
0.0
 40
3.0
100
AcDbArc
 50
37.12842509316087
 51
90.0
  0
ARC
  5
C10
330
2
100
AcDbEntity
  8
HIDS
  6
SEKKEI_H
100
AcDbCircle
 10
1481.860084586282
 20
375.7456345049841
 30
0.0
 40
3.0
100
AcDbArc
 50
90.0
 51
142.8715749068391
  0
ARC
  5
C11
330
2
100
AcDbEntity
  8
HIDS
  6
SEKKEI_H
100
AcDbCircle
 10
1485.527878989535
 20
380.7456345049845
 30
0.0
 40
2.0
100
AcDbArc
 50
270.0
 51
359.8333333333247
  0
ARC
  5
C12
330
2
100
AcDbEntity
  8
HIDS
  6
SEKKEI_H
100
AcDbCircle
 10
1389.693702659386
 20
380.745634504985
 30
0.0
 40
2.0
100
AcDbArc
 50
180.1666666666751
 51
270.0
  0
LINE
  5
C13
330
2
100
AcDbEntity
  8
HIDS
  6
SEKKEI_H
100
AcDbLine
 10
1485.527878989535
 20
439.745634504985
 30
0.0
 11
1481.860084596815
 21
439.7456345049845
 31
0.0
  0
LINE
  5
C14
330
2
100
AcDbEntity
  8
HIDS
  6
SEKKEI_H
100
AcDbLine
 10
1393.361497037468
 20
439.7456345049845
 30
0.0
 11
1389.693702659386
 21
439.7456345049836
 31
0.0
  0
ARC
  5
C15
330
2
100
AcDbEntity
  8
HIDS
  6
SEKKEI_H
100
AcDbCircle
 10
1485.527878989535
 20
437.7456345049845
 30
0.0
 40
2.0
100
AcDbArc
 50
0.1666666666881958
 51
90.0
  0
ARC
  5
C16
330
2
100
AcDbEntity
  8
HIDS
  6
SEKKEI_H
100
AcDbCircle
 10
1389.693702659386
 20
437.745634504984
 30
0.0
 40
2.0
100
AcDbArc
 50
90.0
 51
179.8333333333117
  0
ARC
  5
F42
330
2
100
AcDbEntity
  8
0
100
AcDbCircle
 10
951.5573282387778
 20
362.525634504982
 30
0.0
 40
2.720000000003957
100
AcDbArc
 50
307.5189678668038
 51
90.0
  0
LINE
  5
F43
330
2
100
AcDbEntity
  8
0
100
AcDbLine
 10
944.9174009987675
 20
365.2456345049863
 30
0.0
 11
951.5573282387778
 21
365.2456345049863
 31
0.0
  0
LINE
  5
F44
330
2
100
AcDbEntity
  8
0
100
AcDbLine
 10
946.4374009987698
 20
357.2456345049745
 30
0.0
 11
948.8373282387732
 21
357.245634504974
 31
0.0
  0
LINE
  5
F45
330
2
100
AcDbEntity
  8
0
100
AcDbLine
 10
946.4374009987698
 20
358.4456345049761
 30
0.0
 11
946.4374009987698
 21
357.2456345049745
 31
0.0
  0
LINE
  5
F46
330
2
100
AcDbEntity
  8
0
100
AcDbLine
 10
944.3974022400945
 20
358.4456345049766
 30
0.0
 11
946.4374009987698
 21
358.4456345049761
 31
0.0
  0
LINE
  5
F47
330
2
100
AcDbEntity
  8
0
100
AcDbLine
 10
944.3974022400945
 20
358.4456345049766
 30
0.0
 11
943.7974022400942
 21
357.2456345049745
 31
0.0
  0
LINE
  5
F48
330
2
100
AcDbEntity
  8
0
100
AcDbLine
 10
940.9174009987621
 20
357.2456345049749
 30
0.0
 11
943.7974022400942
 21
357.2456345049745
 31
0.0
  0
LINE
  5
F49
330
2
100
AcDbEntity
  8
0
100
AcDbLine
 10
945.6774022400971
 20
361.0056345049792
 30
0.0
 11
946.4374009987698
 21
361.0056345049797
 31
0.0
  0
LINE
  5
F4A
330
2
100
AcDbEntity
  8
0
100
AcDbLine
 10
944.9174009987675
 20
365.2456345049863
 30
0.0
 11
940.9174009987621
 21
357.2456345049749
 31
0.0
  0
LINE
  5
F4B
330
2
100
AcDbEntity
  8
0
100
AcDbLine
 10
946.4374009987698
 20
362.5256320223257
 30
0.0
 11
945.6774022400971
 21
361.0056345049792
 31
0.0
  0
LINE
  5
F4C
330
2
100
AcDbEntity
  8
0
100
AcDbLine
 10
946.4374009987698
 20
362.5256320223257
 30
0.0
 11
946.4374009987698
 21
361.0056345049797
 31
0.0
  0
ARC
  5
F4D
330
2
100
AcDbEntity
  8
0
100
AcDbCircle
 10
951.3874009987778
 20
362.3556345049819
 30
0.0
 40
0.1700000000002474
100
AcDbArc
 50
270.0
 51
90.0
  0
LINE
  5
F4E
330
2
100
AcDbEntity
  8
0
100
AcDbLine
 10
949.1774009987732
 20
362.1856345049814
 30
0.0
 11
951.3874009987778
 21
362.1856345049814
 31
0.0
  0
LINE
  5
F4F
330
2
100
AcDbEntity
  8
0
100
AcDbLine
 10
948.8373282387732
 20
362.5256345049824
 30
0.0
 11
951.3874009987759
 21
362.5256345049824
 31
0.0
  0
LINE
  5
F50
330
2
100
AcDbEntity
  8
0
100
AcDbLine
 10
953.2138736184371
 20
360.3682617033669
 30
0.0
 11
955.2009424982918
 21
357.2456345049749
 31
0.0
  0
LINE
  5
F51
330
2
100
AcDbEntity
  8
0
100
AcDbLine
 10
952.3209412569606
 20
357.2456345049745
 30
0.0
 11
955.2009424982918
 21
357.2456345049749
 31
0.0
  0
LINE
  5
F52
330
2
100
AcDbEntity
  8
0
100
AcDbLine
 10
948.8373282387732
 20
362.5256345049824
 30
0.0
 11
948.8373282387732
 21
357.245634504974
 31
0.0
  0
LINE
  5
F53
330
2
100
AcDbEntity
  8
0
100
AcDbLine
 10
949.1774009987732
 20
362.1856345049814
 30
0.0
 11
952.3209412569606
 21
357.2456345049745
 31
0.0
  0
LINE
  5
F55
330
2
100
AcDbEntity
  8
0
100
AcDbLine
 10
1039.559171748527
 20
349.2456345049861
 30
0.0
 11
1053.559171748527
 21
349.2456345049861
 31
0.0
  0
LINE
  5
F56
330
2
100
AcDbEntity
  8
0
100
AcDbLine
 10
1037.559171748527
 20
350.7456345049865
 30
0.0
 11
1037.559171748527
 21
467.7456345049857
 31
0.0
  0
LINE
  5
F57
330
2
100
AcDbEntity
  8
0
100
AcDbLine
 10
1024.059171748527
 20
378.2456345049829
 30
0.0
 11
1024.059171748527
 21
403.2456345049858
 31
0.0
  0
LINE
  5
F58
330
2
100
AcDbEntity
  8
0
100
AcDbLine
 10
1024.059171748527
 20
415.2456345049863
 30
0.0
 11
1024.059171748527
 21
440.2456345049893
 31
0.0
  0
ARC
  5
F59
330
2
100
AcDbEntity
  8
0
100
AcDbCircle
 10
1021.059171748527
 20
403.2456345049858
 30
0.0
 40
3.0
100
AcDbArc
 50
0.0
 51
90.0
  0
ARC
  5
F5A
330
2
100
AcDbEntity
  8
0
100
AcDbCircle
 10
1021.059171748527
 20
415.2456345049863
 30
0.0
 40
3.0
100
AcDbArc
 50
270.0
 51
0.0
  0
ARC
  5
F5B
330
2
100
AcDbEntity
  8
0
100
AcDbCircle
 10
1029.559171748527
 20
451.24563450499
 30
0.0
 40
8.0
100
AcDbArc
 50
270.0
 51
0.0
  0
ARC
  5
F5C
330
2
100
AcDbEntity
  8
0
100
AcDbCircle
 10
1034.559171748526
 20
403.2456345049858
 30
0.0
 40
3.0
100
AcDbArc
 50
0.0
 51
90.0
  0
ARC
  5
F5D
330
2
100
AcDbEntity
  8
0
100
AcDbCircle
 10
1034.559171748527
 20
358.1703737272034
 30
0.0
 40
3.0
100
AcDbArc
 50
0.0
 51
100.0000000000051
  0
ARC
  5
F5E
330
2
100
AcDbEntity
  8
0
100
AcDbCircle
 10
1034.559171748527
 20
460.3208952827688
 30
0.0
 40
3.0
100
AcDbArc
 50
259.9999999999948
 51
0.0
  0
ARC
  5
F5F
330
2
100
AcDbEntity
  8
0
100
AcDbCircle
 10
1039.559171748527
 20
351.2456345049861
 30
0.0
 40
2.0
100
AcDbArc
 50
180.0
 51
270.0
  0
ARC
  5
F60
330
2
100
AcDbEntity
  8
0
100
AcDbCircle
 10
1039.559171748527
 20
467.2456345049861
 30
0.0
 40
2.0
100
AcDbArc
 50
90.0
 51
180.0
  0
LINE
  5
F61
330
2
100
AcDbEntity
  8
0
100
AcDbLine
 10
1039.559171748527
 20
469.2456345049861
 30
0.0
 11
1053.559171748527
 21
469.2456345049861
 31
0.0
  0
LINE
  5
F62
330
2
100
AcDbEntity
  8
CENTER
100
AcDbLine
 10
890.2616970654719
 20
359.7481598219278
 30
0.0
 11
906.8616970654714
 21
359.7481598219278
 31
0.0
  0
LINE
  5
F63
330
2
100
AcDbEntity
  8
CENTER
100
AcDbLine
 10
898.5616970654715
 20
368.0481598219278
 30
0.0
 11
898.5616970654715
 21
351.4481598219278
 31
0.0
  0
LINE
  5
F64
330
2
100
AcDbEntity
  8
0
100
AcDbLine
 10
1034.038227215526
 20
457.366472023732
 30
0.0
 11
1009.350637091434
 21
461.7195602512809
 31
0.0
  0
LINE
  5
F65
330
2
100
AcDbEntity
  8
0
100
AcDbLine
 10
1034.038227215526
 20
361.1247969862402
 30
0.0
 11
1009.350637091434
 21
356.7717087586913
 31
0.0
  0
LINE
  5
F66
330
2
100
AcDbEntity
  8
0
100
AcDbLine
 10
1011.05917174853
 20
412.2456345049861
 30
0.0
 11
1034.559171748526
 21
412.2456345049863
 31
0.0
  0
ARC
  5
F67
330
2
100
AcDbEntity
  8
0
100
AcDbCircle
 10
1034.559171748526
 20
415.2456345049863
 30
0.0
 40
3.0
100
AcDbArc
 50
270.0
 51
0.0
  0
LINE
  5
F68
330
2
100
AcDbEntity
  8
0
100
AcDbLine
 10
1011.05917174853
 20
406.2456345049858
 30
0.0
 11
1034.559171748526
 21
406.2456345049858
 31
0.0
  0
LINE
  5
F69
330
2
100
AcDbEntity
  8
CENTER
100
AcDbLine
 10
989.2566464315885
 20
359.7481598219278
 30
0.0
 11
1005.856646431588
 21
359.7481598219278
 31
0.0
  0
LINE
  5
F6A
330
2
100
AcDbEntity
  8
CENTER
100
AcDbLine
 10
997.5566464315882
 20
368.0481598219278
 30
0.0
 11
997.5566464315882
 21
351.4481598219278
 31
0.0
  0
LINE
  5
F6B
330
2
100
AcDbEntity
  8
CENTER
100
AcDbLine
 10
989.2566464315885
 20
458.7431091880445
 30
0.0
 11
1005.856646431588
 21
458.7431091880445
 31
0.0
  0
LINE
  5
F6C
330
2
100
AcDbEntity
  8
CENTER
100
AcDbLine
 10
997.5566464315882
 20
467.0431091880446
 30
0.0
 11
997.5566464315882
 21
450.4431091880446
 31
0.0
  0
LINE
  5
F6D
330
2
100
AcDbEntity
  8
CENTER
100
AcDbLine
 10
890.2616970654719
 20
458.7431091880445
 30
0.0
 11
906.8616970654714
 21
458.7431091880445
 31
0.0
  0
LINE
  5
F6E
330
2
100
AcDbEntity
  8
CENTER
100
AcDbLine
 10
898.5616970654715
 20
467.0431091880446
 30
0.0
 11
898.5616970654715
 21
450.4431091880446
 31
0.0
  0
LINE
  5
F6F
330
2
100
AcDbEntity
  8
0
100
AcDbLine
 10
1053.559171748527
 20
348.7456345049865
 30
0.0
 11
1053.559171748527
 21
469.7456345049857
 31
0.0
  0
LINE
  5
F70
330
2
100
AcDbEntity
  8
0
100
AcDbLine
 10
1029.559171748529
 20
443.2456345049899
 30
0.0
 11
1027.059171748528
 21
443.2456345049892
 31
0.0
  0
LINE
  5
F71
330
2
100
AcDbEntity
  8
0
100
AcDbLine
 10
1021.059171748528
 20
437.2456345049893
 30
0.0
 11
1011.059171748531
 21
437.2456345049893
 31
0.0
  0
ARC
  5
F72
330
2
100
AcDbEntity
  8
0
100
AcDbCircle
 10
1011.059171748531
 20
440.2456345049893
 30
0.0
 40
3.0
100
AcDbArc
 50
180.0
 51
270.0
  0
ARC
  5
F73
330
2
100
AcDbEntity
  8
0
100
AcDbCircle
 10
1021.059171748528
 20
440.2456345049893
 30
0.0
 40
3.0
100
AcDbArc
 50
270.0
 51
0.0
  0
LINE
  5
F74
330
2
100
AcDbEntity
  8
0
100
AcDbLine
 10
1024.059171748528
 20
440.2456345049893
 30
0.0
 11
1024.059171748528
 21
440.2456345049893
 31
0.0
  0
ARC
  5
F75
330
2
100
AcDbEntity
  8
0
100
AcDbCircle
 10
1027.059171748528
 20
440.2456345049893
 30
0.0
 40
3.0
100
AcDbArc
 50
90.0
 51
180.0
  0
LINE
  5
F76
330
2
100
AcDbEntity
  8
0
100
AcDbLine
 10
1029.559171748529
 20
375.2456345049822
 30
0.0
 11
1027.059171748528
 21
375.2456345049829
 31
0.0
  0
LINE
  5
F77
330
2
100
AcDbEntity
  8
0
100
AcDbLine
 10
1021.059171748528
 20
381.2456345049829
 30
0.0
 11
1011.05917174853
 21
381.2456345049831
 31
0.0
  0
ARC
  5
F78
330
2
100
AcDbEntity
  8
0
100
AcDbCircle
 10
1021.059171748528
 20
378.2456345049829
 30
0.0
 40
3.0
100
AcDbArc
 50
0.0
 51
90.0
  0
LINE
  5
F79
330
2
100
AcDbEntity
  8
0
100
AcDbLine
 10
1024.059171748528
 20
378.2456345049829
 30
0.0
 11
1024.059171748528
 21
378.2456345049829
 31
0.0
  0
ARC
  5
F7A
330
2
100
AcDbEntity
  8
0
100
AcDbCircle
 10
1027.059171748528
 20
378.2456345049829
 30
0.0
 40
3.0
100
AcDbArc
 50
180.0
 51
269.9999999999739
  0
ARC
  5
F7B
330
2
100
AcDbEntity
  8
0
100
AcDbCircle
 10
1029.559171748527
 20
367.2456345049822
 30
0.0
 40
8.0
100
AcDbArc
 50
0.0
 51
89.99999999997395
  0
ARC
  5
F7C
330
2
100
AcDbEntity
  8
0
100
AcDbCircle
 10
948.0591717485287
 20
219.2456345049872
 30
0.0
 40
250.0
100
AcDbArc
 50
85.41175424079522
 51
94.58824575920479
  0
ARC
  5
F7D
330
2
100
AcDbEntity
  8
0
 48
0.5
100
AcDbCircle
 10
898.0591717485278
 20
459.2456345049875
 30
0.0
 40
10.0
100
AcDbArc
 50
90.0
 51
180.0
  0
LINE
  5
F7E
330
2
100
AcDbEntity
  8
0
 48
0.5
100
AcDbLine
 10
898.0591717485278
 20
469.2456345049874
 30
0.0
 11
908.0591717485324
 21
469.2456345049873
 31
0.0
  0
ARC
  5
F7F
330
2
100
AcDbEntity
  8
0
100
AcDbCircle
 10
908.0591717485324
 20
461.245634504987
 30
0.0
 40
8.0
100
AcDbArc
 50
81.10835431979607
 51
90.0
  0
ARC
  5
F80
330
2
100
AcDbEntity
  8
0
 48
0.5
100
AcDbCircle
 10
998.0591717485316
 20
459.2456345049875
 30
0.0
 40
10.0
100
AcDbArc
 50
0.0
 51
90.0
  0
ARC
  5
F81
330
2
100
AcDbEntity
  8
0
100
AcDbCircle
 10
1009.871581624435
 20
464.6739835103174
 30
0.0
 40
3.0
100
AcDbArc
 50
204.6809703631084
 51
259.9999999999948
  0
ARC
  5
F82
330
2
100
AcDbEntity
  8
0
100
AcDbCircle
 10
921.6610087748771
 20
548.1880869060364
 30
0.0
 40
80.0
100
AcDbArc
 50
261.1083543197961
 51
274.5882457592047
  0
LINE
  5
F83
330
2
100
AcDbEntity
  8
0
 48
0.5
100
AcDbLine
 10
888.0591717485279
 20
459.2456345049875
 30
0.0
 11
888.0591717485284
 21
449.2456345049833
 31
0.0
  0
ARC
  5
F84
330
2
100
AcDbEntity
  8
0
100
AcDbCircle
 10
896.0591717485288
 20
449.2456345049833
 30
0.0
 40
8.0
100
AcDbArc
 50
180.0
 51
188.8916456802039
  0
ARC
  5
F85
330
2
100
AcDbEntity
  8
0
100
AcDbCircle
 10
809.1167193474792
 20
435.6437974786379
 30
0.0
 40
80.0
100
AcDbArc
 50
355.4117542407789
 51
8.89164568020392
  0
LINE
  5
F86
330
2
100
AcDbEntity
  8
0
 48
0.5
100
AcDbLine
 10
998.0591717485316
 20
469.2456345049874
 30
0.0
 11
988.0591717485279
 21
469.2456345049873
 31
0.0
  0
ARC
  5
F87
330
2
100
AcDbEntity
  8
0
100
AcDbCircle
 10
988.0591717485279
 20
461.245634504987
 30
0.0
 40
8.0
100
AcDbArc
 50
90.0
 51
98.89164568020392
  0
ARC
  5
F88
330
2
100
AcDbEntity
  8
0
100
AcDbCircle
 10
974.4573347221823
 20
548.1880869060364
 30
0.0
 40
80.0
100
AcDbArc
 50
265.4117542407952
 51
278.8916456802039
  0
LINE
  5
F89
330
2
100
AcDbEntity
  8
0
 48
0.5
100
AcDbLine
 10
1008.059171748532
 20
459.2456345049872
 30
0.0
 11
1008.059171748529
 21
359.2456345049843
 31
0.0
  0
ARC
  5
F8A
330
2
100
AcDbEntity
  8
0
100
AcDbCircle
 10
1011.05917174853
 20
378.2456345049831
 30
0.0
 40
3.0
100
AcDbArc
 50
90.0
 51
180.0
  0
ARC
  5
F8B
330
2
100
AcDbEntity
  8
0
100
AcDbCircle
 10
1011.05917174853
 20
403.2456345049858
 30
0.0
 40
3.0
100
AcDbArc
 50
90.0
 51
180.0
  0
ARC
  5
F8C
330
2
100
AcDbEntity
  8
0
100
AcDbCircle
 10
1011.05917174853
 20
415.2456345049861
 30
0.0
 40
3.0
100
AcDbArc
 50
180.0
 51
270.0
  0
ARC
  5
F8D
330
2
100
AcDbEntity
  8
0
 48
0.5
100
AcDbCircle
 10
898.0591717485278
 20
359.2456345049843
 30
0.0
 40
10.0
100
AcDbArc
 50
180.0
 51
270.0
  0
LINE
  5
F8E
330
2
100
AcDbEntity
  8
0
 48
0.5
100
AcDbLine
 10
898.0591717485278
 20
349.2456345049843
 30
0.0
 11
908.0591717485324
 21
349.2456345049845
 31
0.0
  0
ARC
  5
F8F
330
2
100
AcDbEntity
  8
0
100
AcDbCircle
 10
908.0591717485324
 20
357.2456345049847
 30
0.0
 40
8.0
100
AcDbArc
 50
270.0
 51
278.8916456802039
  0
ARC
  5
F90
330
2
100
AcDbEntity
  8
0
 48
0.5
100
AcDbCircle
 10
998.0591717485316
 20
359.2456345049843
 30
0.0
 40
10.0
100
AcDbArc
 50
270.0
 51
0.0
  0
ARC
  5
F91
330
2
100
AcDbEntity
  8
0
100
AcDbCircle
 10
1009.871581624435
 20
353.8172854996546
 30
0.0
 40
3.0
100
AcDbArc
 50
100.0000000000051
 51
155.3190296368915
  0
ARC
  5
F92
330
2
100
AcDbEntity
  8
0
100
AcDbCircle
 10
921.6610087748771
 20
270.3031821039353
 30
0.0
 40
80.0
100
AcDbArc
 50
85.41175424079522
 51
98.89164568020392
  0
LINE
  5
F93
330
2
100
AcDbEntity
  8
0
 48
0.5
100
AcDbLine
 10
888.0591717485279
 20
359.2456345049843
 30
0.0
 11
888.0591717485284
 21
369.2456345049884
 31
0.0
  0
ARC
  5
F94
330
2
100
AcDbEntity
  8
0
100
AcDbCircle
 10
896.0591717485288
 20
369.2456345049884
 30
0.0
 40
8.0
100
AcDbArc
 50
171.108354319796
 51
180.0
  0
ARC
  5
F95
330
2
100
AcDbEntity
  8
0
100
AcDbCircle
 10
809.1167193474792
 20
382.8474715313339
 30
0.0
 40
80.0
100
AcDbArc
 50
351.1083543197961
 51
4.588245759202406
  0
LINE
  5
F96
330
2
100
AcDbEntity
  8
0
 48
0.5
100
AcDbLine
 10
998.0591717485316
 20
349.2456345049843
 30
0.0
 11
988.0591717485279
 21
349.2456345049845
 31
0.0
  0
ARC
  5
F97
330
2
100
AcDbEntity
  8
0
100
AcDbCircle
 10
988.0591717485279
 20
357.2456345049847
 30
0.0
 40
8.0
100
AcDbArc
 50
261.1083543197961
 51
270.0
  0
ARC
  5
F98
330
2
100
AcDbEntity
  8
0
100
AcDbCircle
 10
974.4573347221823
 20
270.3031821039353
 30
0.0
 40
80.0
100
AcDbArc
 50
81.10835431979607
 51
94.58824575920479
  0
ARC
  5
F99
330
2
100
AcDbEntity
  8
0
100
AcDbCircle
 10
1138.059171748528
 20
409.2456345049847
 30
0.0
 40
250.0
100
AcDbArc
 50
175.4117542407789
 51
184.5882457592202
  0
ARC
  5
F9A
330
2
100
AcDbEntity
  8
0
100
AcDbCircle
 10
948.0591717485287
 20
599.2456345049845
 30
0.0
 40
250.0
100
AcDbArc
 50
265.4117542407952
 51
274.5882457592047
  0
CIRCLE
  5
F9B
330
2
100
AcDbEntity
  8
HOJO
100
AcDbCircle
 10
898.5616970654712
 20
458.7431091880445
 30
0.0
 40
4.0
  0
CIRCLE
  5
F9C
330
2
100
AcDbEntity
  8
0
100
AcDbCircle
 10
898.5616970654712
 20
458.7431091880445
 30
0.0
 40
3.399999999999999
  0
CIRCLE
  5
F9D
330
2
100
AcDbEntity
  8
HOJO
100
AcDbCircle
 10
997.5566464315882
 20
458.7431091880445
 30
0.0
 40
4.0
  0
CIRCLE
  5
F9E
330
2
100
AcDbEntity
  8
0
100
AcDbCircle
 10
997.5566464315882
 20
458.7431091880445
 30
0.0
 40
3.399999999999999
  0
CIRCLE
  5
F9F
330
2
100
AcDbEntity
  8
HOJO
100
AcDbCircle
 10
997.5566464315882
 20
359.748159821928
 30
0.0
 40
4.0
  0
CIRCLE
  5
FA0
330
2
100
AcDbEntity
  8
0
100
AcDbCircle
 10
997.5566464315882
 20
359.748159821928
 30
0.0
 40
3.399999999999999
  0
CIRCLE
  5
FA1
330
2
100
AcDbEntity
  8
HOJO
100
AcDbCircle
 10
898.5616970654712
 20
359.748159821928
 30
0.0
 40
4.0
  0
CIRCLE
  5
FA2
330
2
100
AcDbEntity
  8
0
100
AcDbCircle
 10
898.5616970654712
 20
359.748159821928
 30
0.0
 40
3.399999999999999
  0
CIRCLE
  5
FA3
330
2
100
AcDbEntity
  8
CENTER
100
AcDbCircle
 10
948.0591717485296
 20
409.245634504986
 30
0.0
 40
70.00000000000039
  0
CIRCLE
  5
FA4
330
2
100
AcDbEntity
  8
0
100
AcDbCircle
 10
948.0591717485296
 20
409.245634504986
 30
0.0
 40
55.00000000000046
  0
CIRCLE
  5
FA5
330
2
100
AcDbEntity
  8
0
100
AcDbCircle
 10
948.0591717485296
 20
409.245634504986
 30
0.0
 40
39.99999999999932
  0
CIRCLE
  5
FA6
330
2
100
AcDbEntity
  8
0
100
AcDbCircle
 10
948.0591717485296
 20
409.245634504986
 30
0.0
 40
33.07735026919044
  0
CIRCLE
  5
FA7
330
2
100
AcDbEntity
  8
0
100
AcDbCircle
 10
948.0591717485296
 20
409.245634504986
 30
0.0
 40
32.50000000000023
  0
LINE
  5
FA8
330
2
100
AcDbEntity
  8
CENTER
100
AcDbLine
 10
948.0591717485291
 20
635.4328728292772
 30
0.0
 11
948.05917174853
 21
848.4328728292879
 31
0.0
  0
LINE
  5
FA9
330
2
100
AcDbEntity
  8
0
100
AcDbLine
 10
888.9667659987688
 20
711.432872829278
 30
0.0
 11
888.0635351824254
 21
814.9328728292815
 31
0.0
  0
LINE
  5
FAA
330
2
100
AcDbEntity
  8
0
100
AcDbLine
 10
893.0591717485297
 20
706.4328728292716
 30
0.0
 11
1003.059171748529
 21
706.4328728292779
 31
0.0
  0
LINE
  5
FAB
330
2
100
AcDbEntity
  8
0
100
AcDbLine
 10
1039.507485490373
 20
838.4328728292778
 30
0.0
 11
1053.559171748527
 21
838.4328728292777
 31
0.0
  0
ARC
  5
FAC
330
2
100
AcDbEntity
  8
0
100
AcDbCircle
 10
1039.507485490373
 20
836.4328728292777
 30
0.0
 40
2.0
100
AcDbArc
 50
90.0
 51
178.4999999999972
  0
LINE
  5
FAD
330
2
100
AcDbEntity
  8
0
100
AcDbLine
 10
1037.508170840422
 20
836.4852267258932
 30
0.0
 11
1035.98801645439
 21
778.4328728292778
 31
0.0
  0
ARC
  5
FAE
330
2
100
AcDbEntity
  8
0
100
AcDbCircle
 10
1033.144103606332
 20
784.4328728292798
 30
0.0
 40
3.0
100
AcDbArc
 50
270.0
 51
358.5000000000103
  0
LINE
  5
FAF
330
2
100
AcDbEntity
  8
0
100
AcDbLine
 10
1007.417746965909
 20
814.9328728292781
 30
0.0
 11
888.0635351824254
 21
814.9328728292815
 31
0.0
  0
LINE
  5
FB0
330
2
100
AcDbEntity
  8
0
100
AcDbLine
 10
986.1277941989149
 20
692.4328728292776
 30
0.0
 11
909.9905492981445
 21
692.4328728292769
 31
0.0
  0
ARC
  5
FB1
330
2
100
AcDbEntity
  8
0
100
AcDbCircle
 10
909.9905492981445
 20
694.4328728292768
 30
0.0
 40
2.0
100
AcDbArc
 50
181.9999999999914
 51
270.0
  0
ARC
  5
FB2
330
2
100
AcDbEntity
  8
0
100
AcDbCircle
 10
986.1277941989149
 20
694.4328728292774
 30
0.0
 40
2.0
100
AcDbArc
 50
270.0
 51
357.9999999999955
  0
LINE
  5
FB3
330
2
100
AcDbEntity
  8
CENTER
100
AcDbLine
 10
878.381685072931
 20
778.4328728292814
 30
0.0
 11
1148.059171748525
 21
778.4328728292814
 31
0.0
  0
LINE
  5
FB4
330
2
100
AcDbEntity
  8
0
100
AcDbLine
 10
1007.15157749829
 20
711.4328728292779
 30
0.0
 11
1007.73627764027
 21
778.4328728292805
 31
0.0
  0
ARC
  5
FB5
330
2
100
AcDbEntity
  8
0
100
AcDbCircle
 10
1010.684030668684
 20
772.4328728292792
 30
0.0
 40
3.0
100
AcDbArc
 50
90.0
 51
179.4999999999954
  0
LINE
  5
FB6
330
2
100
AcDbEntity
  8
0
100
AcDbLine
 10
988.1265758529533
 20
694.3630738358725
 30
0.0
 11
988.2784461037173
 21
698.7120688028975
 31
0.0
  0
LINE
  5
FB7
330
2
100
AcDbEntity
  8
0
100
AcDbLine
 10
907.9917676441061
 20
694.363073835872
 30
0.0
 11
907.8398973933419
 21
698.7120688028913
 31
0.0
  0
LINE
  5
FB8
330
2
100
AcDbEntity
  8
0
100
AcDbLine
 10
1007.417746965909
 20
814.9328728292781
 30
0.0
 11
1007.736277640273
 21
778.4328728292803
 31
0.0
  0
LINE
  5
FB9
330
2
100
AcDbEntity
  8
0
100
AcDbLine
 10
1039.507485490373
 20
718.432872829285
 30
0.0
 11
1053.559171748527
 21
718.432872829285
 31
0.0
  0
ARC
  5
FBA
330
2
100
AcDbEntity
  8
0
100
AcDbCircle
 10
1039.507485490373
 20
720.4328728292851
 30
0.0
 40
2.0
100
AcDbArc
 50
181.4999999999896
 51
270.0
  0
LINE
  5
FBB
330
2
100
AcDbEntity
  8
0
100
AcDbLine
 10
1037.508170840422
 20
720.3805189326699
 30
0.0
 11
1035.988016454391
 21
778.4328728292778
 31
0.0
  0
ARC
  5
FBC
330
2
100
AcDbEntity
  8
0
100
AcDbCircle
 10
1033.144103606332
 20
772.4328728292792
 30
0.0
 40
3.0
100
AcDbArc
 50
1.499999999989688
 51
90.0
  0
LINE
  5
FBD
330
2
100
AcDbEntity
  8
0
100
AcDbLine
 10
898.0591717485307
 20
814.9328728292799
 30
0.0
 11
898.0591717485296
 21
712.9328728292725
 31
0.0
  0
LINE
  5
FBE
330
2
100
AcDbEntity
  8
0
100
AcDbLine
 10
988.0722647093119
 20
814.9328728292786
 30
0.0
 11
989.0025503925333
 21
779.4066958809737
 31
0.0
  0
LINE
  5
FBF
330
2
100
AcDbEntity
  8
0
100
AcDbLine
 10
1010.684030668683
 20
781.4328728292796
 30
0.0
 11
1033.144103606332
 21
781.4328728292796
 31
0.0
  0
ARC
  5
FC0
330
2
100
AcDbEntity
  8
0
100
AcDbCircle
 10
1010.684030668683
 20
784.4328728292796
 30
0.0
 40
3.0
100
AcDbArc
 50
180.4999999999915
 51
270.0
  0
LINE
  5
FC1
330
2
100
AcDbEntity
  8
0
100
AcDbLine
 10
1010.684030668684
 20
775.4328728292791
 30
0.0
 11
1033.144103606332
 21
775.4328728292791
 31
0.0
  0
LINE
  5
FC2
330
2
100
AcDbEntity
  8
0
100
AcDbLine
 10
990.0022077175087
 20
778.4328728292819
 30
0.0
 11
1053.559171748527
 21
778.4328728292762
 31
0.0
  0
ARC
  5
FC3
330
2
100
AcDbEntity
  8
0
100
AcDbCircle
 10
990.0022077175087
 20
779.4328728292814
 30
0.0
 40
1.0
100
AcDbArc
 50
181.5000000000027
 51
269.9999999999739
  0
LINE
  5
FC4
330
2
100
AcDbEntity
  8
0
100
AcDbLine
 10
908.0591717485319
 20
712.9328728292728
 30
0.0
 11
908.0591717485324
 21
814.9328728292799
 31
0.0
  0
LINE
  5
FC5
330
2
100
AcDbEntity
  8
0
100
AcDbLine
 10
928.0605634351134
 20
712.9328728292725
 30
0.0
 11
928.0605634351134
 21
814.9328728292797
 31
0.0
  0
LINE
  5
FC6
330
2
100
AcDbEntity
  8
0
100
AcDbLine
 10
968.0577800619433
 20
712.9328728292725
 30
0.0
 11
968.0577800619433
 21
814.9328728292797
 31
0.0
  0
LINE
  5
FC7
330
2
100
AcDbEntity
  8
0
100
AcDbLine
 10
988.0591717485273
 20
712.9328728292728
 30
0.0
 11
988.0591717485273
 21
778.4328728292814
 31
0.0
  0
LINE
  5
FC8
330
2
100
AcDbEntity
  8
0
100
AcDbLine
 10
998.0591717485316
 20
712.9328728292725
 30
0.0
 11
998.0591717485319
 21
814.9328728292799
 31
0.0
  0
LINE
  5
FC9
330
2
100
AcDbEntity
  8
0
100
AcDbLine
 10
1053.559171748527
 20
718.432872829285
 30
0.0
 11
1053.559171748527
 21
838.4328728292775
 31
0.0
  0
LINE
  5
FCA
330
2
100
AcDbEntity
  8
0
100
AcDbLine
 10
893.0591717485297
 20
706.4328728292716
 30
0.0
 11
893.0591717485297
 21
711.432872829278
 31
0.0
  0
LINE
  5
FCB
330
2
100
AcDbEntity
  8
0
 48
0.5
100
AcDbLine
 10
888.9667659987688
 20
711.4328728292779
 30
0.0
 11
1007.15157749829
 21
711.432872829278
 31
0.0
  0
LINE
  5
FCC
330
2
100
AcDbEntity
  8
0
100
AcDbLine
 10
1003.059171748529
 20
706.4328728292779
 30
0.0
 11
1003.059171748529
 21
711.432872829278
 31
0.0
  0
LINE
  5
FCD
330
2
100
AcDbEntity
  8
0
100
AcDbLine
 10
1033.084642467661
 20
729.0051046038897
 30
0.0
 11
1008.91510416014
 21
717.7346637970222
 31
0.0
  0
ARC
  5
FCE
330
2
100
AcDbEntity
  8
0
100
AcDbCircle
 10
1010.182958945362
 20
715.0157404359122
 30
0.0
 40
3.0
100
AcDbArc
 50
114.9999999999782
 51
179.5000000000019
  0
ARC
  5
FCF
330
2
100
AcDbEntity
  8
0
100
AcDbCircle
 10
1034.352497252883
 20
726.2861812427797
 30
0.0
 40
3.0
100
AcDbArc
 50
1.499999999989688
 51
115.0000000000071
  0
LINE
  5
FD0
330
2
100
AcDbEntity
  8
0
100
AcDbLine
 10
1011.926691591296
 20
811.3229341213401
 30
0.0
 11
1035.776855140292
 21
825.0928324665702
 31
0.0
  0
ARC
  5
FD1
330
2
100
AcDbEntity
  8
0
100
AcDbCircle
 10
1034.276855140292
 20
827.6909086779232
 30
0.0
 40
3.0
100
AcDbArc
 50
300.0000000000001
 51
358.5000000000103
  0
ARC
  5
FD2
330
2
100
AcDbEntity
  8
0
100
AcDbCircle
 10
1010.426691591296
 20
813.9210103326934
 30
0.0
 40
3.0
100
AcDbArc
 50
180.499999999998
 51
300.0000000000001
  0
ARC
  5
FD3
330
2
100
AcDbEntity
  8
0
100
AcDbCircle
 10
996.2735727198699
 20
698.4328728292776
 30
0.0
 40
8.0
100
AcDbArc
 50
90.0
 51
178.000000000002
  0
ARC
  5
FD4
330
2
100
AcDbEntity
  8
0
100
AcDbCircle
 10
899.8447707771894
 20
698.4328728292719
 30
0.0
 40
8.0
100
AcDbArc
 50
1.999999999997947
 51
90.0
  0
LINE
  5
FD5
330
2
100
AcDbEntity
  8
CENTER
100
AcDbLine
 10
171.1428630597038
 20
409.2456345049861
 30
0.0
 11
441.1428630596994
 21
409.245634504986
 31
0.0
  0
LINE
  5
FD6
330
2
100
AcDbEntity
  8
0
100
AcDbLine
 10
279.6428630597022
 20
469.2456345049861
 30
0.0
 11
265.6428630597026
 21
469.2456345049861
 31
0.0
  0
LINE
  5
FD7
330
2
100
AcDbEntity
  8
0
100
AcDbLine
 10
265.6428630597026
 20
469.7456345049857
 30
0.0
 11
265.6428630597022
 21
348.7456345049866
 31
0.0
  0
LINE
  5
FD8
330
2
100
AcDbEntity
  8
0
100
AcDbLine
 10
281.6428630597026
 20
467.7456345049858
 30
0.0
 11
281.6428630597022
 21
350.7456345049865
 31
0.0
  0
ARC
  5
FD9
330
2
100
AcDbEntity
  8
0
100
AcDbCircle
 10
289.6428630597022
 20
367.2456345049822
 30
0.0
 40
8.0
100
AcDbArc
 50
90.0
 51
180.0
  0
ARC
  5
FDA
330
2
100
AcDbEntity
  8
0
100
AcDbCircle
 10
284.6428630597022
 20
460.3208952827688
 30
0.0
 40
3.0
100
AcDbArc
 50
180.0
 51
280.0000000000051
  0
ARC
  5
FDB
330
2
100
AcDbEntity
  8
0
100
AcDbCircle
 10
284.6428630597022
 20
358.1703737272034
 30
0.0
 40
3.0
100
AcDbArc
 50
79.99999999999484
 51
180.0
  0
ARC
  5
FDC
330
2
100
AcDbEntity
  8
0
100
AcDbCircle
 10
279.6428630597022
 20
467.2456345049861
 30
0.0
 40
2.0
100
AcDbArc
 50
0.0
 51
90.0
  0
ARC
  5
FDD
330
2
100
AcDbEntity
  8
0
100
AcDbCircle
 10
279.6428630597022
 20
351.2456345049861
 30
0.0
 40
2.0
100
AcDbArc
 50
270.0
 51
0.0
  0
LINE
  5
FDE
330
2
100
AcDbEntity
  8
0
100
AcDbLine
 10
279.6428630597022
 20
349.2456345049861
 30
0.0
 11
265.6428630597022
 21
349.245634504986
 31
0.0
  0
LINE
  5
FDF
330
2
100
AcDbEntity
  8
0
100
AcDbLine
 10
285.1638075927028
 20
361.1247969862402
 30
0.0
 11
310.2029780269174
 21
356.7097156641309
 31
0.0
  0
LINE
  5
FE0
330
2
100
AcDbEntity
  8
0
100
AcDbLine
 10
285.1638075927033
 20
457.366472023732
 30
0.0
 11
310.2029780269178
 21
461.7815533458412
 31
0.0
  0
LINE
  5
FE1
330
2
100
AcDbEntity
  8
CENTER
100
AcDbLine
 10
371.1428630596994
 20
479.2456345049865
 30
0.0
 11
371.1428630596994
 21
339.2456345049854
 31
0.0
  0
LINE
  5
FE2
330
2
100
AcDbEntity
  8
0
100
AcDbLine
 10
295.1428630597022
 20
440.2456345049893
 30
0.0
 11
295.1428630597022
 21
415.2456345049861
 31
0.0
  0
LINE
  5
FE3
330
2
100
AcDbEntity
  8
0
100
AcDbLine
 10
295.1428630597022
 20
403.2456345049854
 30
0.0
 11
295.1428630597022
 21
378.2456345049829
 31
0.0
  0
ARC
  5
FE4
330
2
100
AcDbEntity
  8
0
100
AcDbCircle
 10
298.1428630597022
 20
415.2456345049861
 30
0.0
 40
3.0
100
AcDbArc
 50
180.0
 51
270.0
  0
LINE
  5
FE5
330
2
100
AcDbEntity
  8
0
100
AcDbLine
 10
289.6428630597004
 20
375.2456345049822
 30
0.0
 11
292.1428630597017
 21
375.2456345049829
 31
0.0
  0
LINE
  5
FE6
330
2
100
AcDbEntity
  8
0
100
AcDbLine
 10
298.1428630597008
 20
381.2456345049829
 30
0.0
 11
308.4657571679588
 21
381.2456345049831
 31
0.0
  0
ARC
  5
FE7
330
2
100
AcDbEntity
  8
0
100
AcDbCircle
 10
308.4657571679588
 20
378.2456345049831
 30
0.0
 40
3.0
100
AcDbArc
 50
0.0
 51
90.0
  0
ARC
  5
FE8
330
2
100
AcDbEntity
  8
0
100
AcDbCircle
 10
298.1428630597008
 20
378.2456345049829
 30
0.0
 40
3.0
100
AcDbArc
 50
90.0
 51
180.0
  0
LINE
  5
FE9
330
2
100
AcDbEntity
  8
0
100
AcDbLine
 10
295.1428630597008
 20
378.2456345049829
 30
0.0
 11
295.1428630597008
 21
378.2456345049829
 31
0.0
  0
ARC
  5
FEA
330
2
100
AcDbEntity
  8
0
100
AcDbCircle
 10
292.1428630597008
 20
378.2456345049829
 30
0.0
 40
3.0
100
AcDbArc
 50
270.0
 51
0.0
  0
LINE
  5
FEB
330
2
100
AcDbEntity
  8
0
100
AcDbLine
 10
289.6428630597004
 20
443.2456345049899
 30
0.0
 11
292.1428630597022
 21
443.2456345049892
 31
0.0
  0
LINE
  5
FEC
330
2
100
AcDbEntity
  8
0
100
AcDbLine
 10
298.1428630597013
 20
437.2456345049893
 30
0.0
 11
308.4657571679583
 21
437.245634504989
 31
0.0
  0
ARC
  5
FED
330
2
100
AcDbEntity
  8
0
100
AcDbCircle
 10
308.4657571679583
 20
440.245634504989
 30
0.0
 40
3.0
100
AcDbArc
 50
270.0
 51
0.0
  0
ARC
  5
FEE
330
2
100
AcDbEntity
  8
0
100
AcDbCircle
 10
298.1428630597013
 20
440.2456345049893
 30
0.0
 40
3.0
100
AcDbArc
 50
180.0
 51
270.0
  0
LINE
  5
FEF
330
2
100
AcDbEntity
  8
0
100
AcDbLine
 10
295.1428630597013
 20
440.2456345049893
 30
0.0
 11
295.1428630597013
 21
440.2456345049893
 31
0.0
  0
ARC
  5
FF0
330
2
100
AcDbEntity
  8
0
100
AcDbCircle
 10
292.1428630597013
 20
440.2456345049893
 30
0.0
 40
3.0
100
AcDbArc
 50
0.0
 51
89.99999999997395
  0
ARC
  5
FF1
330
2
100
AcDbEntity
  8
0
100
AcDbCircle
 10
289.6428630597026
 20
451.24563450499
 30
0.0
 40
8.0
100
AcDbArc
 50
180.0
 51
269.9999999999739
  0
LINE
  5
FF2
330
2
100
AcDbEntity
  8
0
100
AcDbLine
 10
321.4657571679588
 20
349.2456345049847
 30
0.0
 11
321.7828630596538
 21
349.2456345049847
 31
0.0
  0
LINE
  5
FF3
330
2
100
AcDbEntity
  8
0
100
AcDbLine
 10
321.4657571679592
 20
469.2456345049879
 30
0.0
 11
321.7828630597462
 21
469.2456345049879
 31
0.0
  0
LINE
  5
FF4
330
2
100
AcDbEntity
  8
0
100
AcDbLine
 10
311.4657571679583
 20
459.2456345049879
 30
0.0
 11
311.4657571679583
 21
359.2456345049847
 31
0.0
  0
ARC
  5
FF5
330
2
100
AcDbEntity
  8
0
100
AcDbCircle
 10
321.4657571679588
 20
359.2456345049847
 30
0.0
 40
10.0
100
AcDbArc
 50
180.0
 51
270.0
  0
ARC
  5
FF6
330
2
100
AcDbEntity
  8
0
100
AcDbCircle
 10
309.6820334939168
 20
353.7552924050944
 30
0.0
 40
3.0
100
AcDbArc
 50
24.98203108537669
 51
79.99999999999484
  0
ARC
  5
FF7
330
2
100
AcDbEntity
  8
0
100
AcDbCircle
 10
321.4657571679588
 20
459.2456345049879
 30
0.0
 40
10.0
100
AcDbArc
 50
90.0
 51
180.0
  0
ARC
  5
FF8
330
2
100
AcDbEntity
  8
0
100
AcDbCircle
 10
309.6820334939168
 20
464.7359766048777
 30
0.0
 40
3.0
100
AcDbArc
 50
280.0000000000051
 51
335.017968914623
  0
ARC
  5
FF9
330
2
100
AcDbEntity
  8
0
100
AcDbCircle
 10
284.6428630597026
 20
415.2456345049862
 30
0.0
 40
3.0
100
AcDbArc
 50
180.0
 51
270.0
  0
ARC
  5
FFA
330
2
100
AcDbEntity
  8
0
100
AcDbCircle
 10
284.6428630597026
 20
403.2456345049845
 30
0.0
 40
3.0
100
AcDbArc
 50
90.0
 51
180.0
  0
LINE
  5
FFB
330
2
100
AcDbEntity
  8
0
100
AcDbLine
 10
308.4657571679583
 20
406.2456345049861
 30
0.0
 11
284.6428630597022
 21
406.2456345049845
 31
0.0
  0
ARC
  5
FFC
330
2
100
AcDbEntity
  8
0
100
AcDbCircle
 10
298.1428630597022
 20
403.2456345049854
 30
0.0
 40
3.0
100
AcDbArc
 50
90.0
 51
180.0
  0
ARC
  5
FFD
330
2
100
AcDbEntity
  8
0
100
AcDbCircle
 10
308.4657571679583
 20
403.2456345049861
 30
0.0
 40
3.0
100
AcDbArc
 50
0.0
 51
90.0
  0
LINE
  5
FFE
330
2
100
AcDbEntity
  8
0
100
AcDbLine
 10
308.4657571679583
 20
412.245634504986
 30
0.0
 11
284.6428630597026
 21
412.2456345049862
 31
0.0
  0
ARC
  5
FFF
330
2
100
AcDbEntity
  8
0
100
AcDbCircle
 10
308.4657571679583
 20
415.245634504986
 30
0.0
 40
3.0
100
AcDbArc
 50
270.0
 51
0.0
  0
LINE
  5
1000
330
2
100
AcDbEntity
  8
CENTER
100
AcDbLine
 10
1437.610790824465
 20
479.7696273562848
 30
0.0
 11
1437.610790824465
 21
338.7216416536868
 31
0.0
  0
LINE
  5
1001
330
2
100
AcDbEntity
  8
CENTER
100
AcDbLine
 10
1508.110440846935
 20
409.2456345049857
 30
0.0
 11
1294.610790824461
 21
409.245634504986
 31
0.0
  0
LINE
  5
1002
330
2
100
AcDbEntity
  8
0
100
AcDbLine
 10
1437.610790824465
 20
469.7456345049857
 30
0.0
 11
1487.694121264428
 21
469.3282734179827
 31
0.0
  0
ARC
  5
1004
330
2
100
AcDbEntity
  8
0
100
AcDbCircle
 10
1487.610790824461
 20
459.3286206221215
 30
0.0
 40
10.0
100
AcDbArc
 50
44.08702223930832
 51
89.52254622268922
  0
LINE
  5
100A
330
2
100
AcDbEntity
  8
0
100
AcDbLine
 10
1370.610790824462
 20
468.3380402547466
 30
0.0
 11
1383.513380356271
 21
468.4506394477489
 31
0.0
  0
ARC
  5
100B
330
2
100
AcDbEntity
  8
0
100
AcDbCircle
 10
1353.610790824461
 20
447.3142569553713
 30
0.0
 40
2.0
100
AcDbArc
 50
92.00000000000365
 51
180.0
  0
LINE
  5
100C
330
2
100
AcDbEntity
  8
0
100
AcDbLine
 10
1353.540991831056
 20
449.3130386094096
 30
0.0
 11
1360.785288307974
 21
449.5660150168096
 31
0.0
  0
ARC
  5
100D
330
2
100
AcDbEntity
  8
0
100
AcDbCircle
 10
1360.610790824462
 20
454.5629691519049
 30
0.0
 40
5.0
100
AcDbArc
 50
271.9999999999775
 51
0.0
  0
LINE
  5
100E
330
2
100
AcDbEntity
  8
0
100
AcDbLine
 10
1370.610790824462
 20
350.1532287552254
 30
0.0
 11
1383.513380356271
 21
350.0406295622224
 31
0.0
  0
LINE
  5
100F
330
2
100
AcDbEntity
  8
0
100
AcDbLine
 10
1365.610790824461
 20
354.2456345049857
 30
0.0
 11
1365.610790824463
 21
464.2456345049863
 31
0.0
  0
ARC
  5
1010
330
2
100
AcDbEntity
  8
0
100
AcDbCircle
 10
1353.610790824461
 20
371.1770120546006
 30
0.0
 40
1.999999999999999
100
AcDbArc
 50
180.0
 51
267.9999999999963
  0
LINE
  5
1011
330
2
100
AcDbEntity
  8
0
100
AcDbLine
 10
1353.540991831056
 20
369.1782304005623
 30
0.0
 11
1360.785288307974
 21
368.9252539931624
 31
0.0
  0
ARC
  5
1012
330
2
100
AcDbEntity
  8
0
100
AcDbCircle
 10
1360.610790824462
 20
363.928299858067
 30
0.0
 40
4.999999999999999
100
AcDbArc
 50
0.0
 51
87.99999999999636
  0
LINE
  5
1013
330
2
100
AcDbEntity
  8
0
100
AcDbLine
 10
1351.610790824461
 20
447.3142569553713
 30
0.0
 11
1351.610790824461
 21
371.1770120546004
 31
0.0
  0
LINE
  5
1014
330
2
100
AcDbEntity
  8
0
100
AcDbLine
 10
1437.610790824465
 20
469.7456345049857
 30
0.0
 11
1387.527460384503
 21
469.3282734179827
 31
0.0
  0
ARC
  5
1016
330
2
100
AcDbEntity
  8
0
100
AcDbCircle
 10
1387.610790824469
 20
459.3286206221214
 30
0.0
 40
10.0
100
AcDbArc
 50
90.47745377731077
 51
135.9129777596969
  0
LINE
  5
1018
330
2
100
AcDbEntity
  8
0
100
AcDbLine
 10
1437.610790824465
 20
348.7456345049857
 30
0.0
 11
1487.694121264427
 21
349.1629955919887
 31
0.0
  0
ARC
  5
101A
330
2
100
AcDbEntity
  8
0
100
AcDbCircle
 10
1487.610790824461
 20
359.16264838785
 30
0.0
 40
10.0
100
AcDbArc
 50
270.4774537773107
 51
315.9129777614027
  0
LINE
  5
101C
330
2
100
AcDbEntity
  8
0
100
AcDbLine
 10
1437.610790824465
 20
348.7456345049857
 30
0.0
 11
1387.527460384503
 21
349.1629955919888
 31
0.0
  0
ARC
  5
101E
330
2
100
AcDbEntity
  8
0
100
AcDbCircle
 10
1387.610790824468
 20
359.1626483878501
 30
0.0
 40
10.0
100
AcDbArc
 50
224.0870222394325
 51
269.5225462226892
  0
LINE
  5
1028
330
2
100
AcDbEntity
  8
0
100
AcDbLine
 10
1365.610790824463
 20
464.2456345049863
 30
0.0
 11
1370.610790824462
 21
464.2456345049861
 31
0.0
  0
LINE
  5
1029
330
2
100
AcDbEntity
  8
0
 48
0.5
100
AcDbLine
 10
1370.610790824462
 20
468.3380402547465
 30
0.0
 11
1370.610790824462
 21
350.1532287552254
 31
0.0
  0
LINE
  5
102A
330
2
100
AcDbEntity
  8
0
100
AcDbLine
 10
1365.610790824461
 20
354.2456345049857
 30
0.0
 11
1370.610790824461
 21
354.2456345049858
 31
0.0
  0
LINE
  5
1033
330
2
100
AcDbEntity
  8
CENTER
100
AcDbLine
 10
717.6063679289704
 20
409.245634504986
 30
0.0
 11
504.6063679289706
 21
409.245634504986
 31
0.0
  0
LINE
  5
1034
330
2
100
AcDbEntity
  8
0
100
AcDbLine
 10
646.6063679289766
 20
354.2456345049856
 30
0.0
 11
646.6063679289702
 21
464.2456345049855
 31
0.0
  0
LINE
  5
1035
330
2
100
AcDbEntity
  8
0
100
AcDbLine
 10
538.1063679289702
 20
469.2456345049858
 30
0.0
 11
538.1063679289666
 21
349.2456345049861
 31
0.0
  0
LINE
  5
1036
330
2
100
AcDbEntity
  8
0
100
AcDbLine
 10
660.6063679289706
 20
447.3142569553713
 30
0.0
 11
660.6063679289711
 21
371.1770120546004
 31
0.0
  0
ARC
  5
1037
330
2
100
AcDbEntity
  8
0
100
AcDbCircle
 10
658.6063679289711
 20
371.1770120546004
 30
0.0
 40
2.0
100
AcDbArc
 50
271.9999999999775
 51
0.0
  0
ARC
  5
1038
330
2
100
AcDbEntity
  8
0
100
AcDbCircle
 10
658.6063679289707
 20
447.3142569553713
 30
0.0
 40
2.0
100
AcDbArc
 50
0.0
 51
87.99999999999636
  0
LINE
  5
1039
330
2
100
AcDbEntity
  8
CENTER
100
AcDbLine
 10
574.6063679289666
 20
338.7452872887919
 30
0.0
 11
574.6063679289666
 21
479.7459817211805
 31
0.0
  0
LINE
  5
103A
330
2
100
AcDbEntity
  8
0
100
AcDbLine
 10
658.6761669223758
 20
449.3130386094094
 30
0.0
 11
654.3271719553506
 21
449.4649088601736
 31
0.0
  0
LINE
  5
103B
330
2
100
AcDbEntity
  8
0
100
AcDbLine
 10
658.6761669223758
 20
369.1782304005623
 30
0.0
 11
654.3271719553565
 21
369.0263601497985
 31
0.0
  0
LINE
  5
103C
330
2
100
AcDbEntity
  8
0
100
AcDbLine
 10
538.106367928967
 20
359.2456345049868
 30
0.0
 11
640.1063679289753
 21
359.2456345049859
 31
0.0
  0
LINE
  5
103D
330
2
100
AcDbEntity
  8
0
100
AcDbLine
 10
640.1063679289753
 20
369.2456345049881
 30
0.0
 11
538.106367928967
 21
369.2456345049881
 31
0.0
  0
LINE
  5
103E
330
2
100
AcDbEntity
  8
0
100
AcDbLine
 10
640.1063679289753
 20
389.2470261915698
 30
0.0
 11
538.1063679289679
 21
389.2470261915698
 31
0.0
  0
LINE
  5
103F
330
2
100
AcDbEntity
  8
0
100
AcDbLine
 10
640.1063679289753
 20
429.2442428183997
 30
0.0
 11
538.1063679289688
 21
429.2442428183997
 31
0.0
  0
LINE
  5
1040
330
2
100
AcDbEntity
  8
0
100
AcDbLine
 10
640.1063679289753
 20
449.2456345049836
 30
0.0
 11
538.1063679289693
 21
449.2456345049836
 31
0.0
  0
LINE
  5
1041
330
2
100
AcDbEntity
  8
0
100
AcDbLine
 10
640.1063679289753
 20
459.2456345049876
 30
0.0
 11
538.1063679289698
 21
459.2456345049876
 31
0.0
  0
LINE
  5
1042
330
2
100
AcDbEntity
  8
0
100
AcDbLine
 10
646.6063679289766
 20
354.2456345049856
 30
0.0
 11
641.6063679289698
 21
354.2456345049858
 31
0.0
  0
LINE
  5
1043
330
2
100
AcDbEntity
  8
0
 48
0.5
100
AcDbLine
 10
641.6063679289698
 20
350.1532287552251
 30
0.0
 11
641.6063679289698
 21
468.3380402547469
 31
0.0
  0
LINE
  5
1044
330
2
100
AcDbEntity
  8
0
100
AcDbLine
 10
646.6063679289702
 20
464.2456345049854
 30
0.0
 11
641.6063679289698
 21
464.2456345049854
 31
0.0
  0
ARC
  5
1045
330
2
100
AcDbEntity
  8
0
100
AcDbCircle
 10
654.6063679289707
 20
457.4600354763263
 30
0.0
 40
8.0
100
AcDbArc
 50
180.0
 51
267.9999999999963
  0
ARC
  5
1046
330
2
100
AcDbEntity
  8
0
100
AcDbCircle
 10
654.6063679289761
 20
361.031233533646
 30
0.0
 40
8.0
100
AcDbArc
 50
92.00000000000365
 51
180.0
  0
LINE
  5
1047
330
2
100
AcDbEntity
  8
CENTER
100
AcDbLine
 10
371.1428630596353
 20
339.2456345049188
 30
0.0
 11
371.1428630597613
 21
476.1486799437851
 31
0.0
  0
LINE
  5
1048
330
2
100
AcDbEntity
  8
0
100
AcDbLine
 10
311.7828630596534
 20
359.2456345049735
 30
0.0
 11
311.7828630597457
 21
459.2456345049765
 31
0.0
  0
ARC
  5
1049
330
2
100
AcDbEntity
  8
0
100
AcDbCircle
 10
321.7828630597457
 20
459.2456345049673
 30
0.0
 40
10.0
100
AcDbArc
 50
89.99999999994789
 51
179.9999999999479
  0
LINE
  5
104A
330
2
100
AcDbEntity
  8
0
100
AcDbLine
 10
318.1428630596753
 20
382.7775970734651
 30
0.0
 11
318.142863059724
 21
435.7136719365705
 31
0.0
  0
ARC
  5
104B
330
2
100
AcDbEntity
  8
0
100
AcDbCircle
 10
331.142863059724
 20
435.7136719365585
 30
0.0
 40
13.0
100
AcDbArc
 50
134.9999999999359
 51
179.9999999999479
  0
LINE
  5
104C
330
2
100
AcDbEntity
  8
0
100
AcDbLine
 10
323.1428630596754
 20
382.7775970734606
 30
0.0
 11
323.142863059724
 21
435.7136719365659
 31
0.0
  0
ARC
  5
104D
330
2
100
AcDbEntity
  8
0
100
AcDbCircle
 10
331.1428630596754
 20
382.7775970734531
 30
0.0
 40
8.0
100
AcDbArc
 50
179.9999999999479
 51
224.9999999999534
  0
CIRCLE
  5
104E
330
2
100
AcDbEntity
  8
0
100
AcDbCircle
 10
371.1428630596994
 20
409.2456345049217
 30
0.0
 40
32.50000000000008
  0
CIRCLE
  5
104F
330
2
100
AcDbEntity
  8
0
100
AcDbCircle
 10
371.1428630596994
 20
409.2456345049218
 30
0.0
 40
33.07735026918965
  0
CIRCLE
  5
1050
330
2
100
AcDbEntity
  8
0
100
AcDbCircle
 10
371.1428630596994
 20
409.2456345049217
 30
0.0
 40
36.92264973081032
  0
CIRCLE
  5
1051
330
2
100
AcDbEntity
  8
0
100
AcDbCircle
 10
371.1428630596994
 20
409.2456345049217
 30
0.0
 40
37.50000000000008
  0
CIRCLE
  5
1052
330
2
100
AcDbEntity
  8
0
100
AcDbCircle
 10
371.1428630596994
 20
409.2456345049217
 30
0.0
 40
39.50000000000031
  0
CIRCLE
  5
1053
330
2
100
AcDbEntity
  8
0
100
AcDbCircle
 10
371.1428630596994
 20
409.2456345049218
 30
0.0
 40
40.00000000000034
  0
LINE
  5
1054
330
2
100
AcDbEntity
  8
CENTER
100
AcDbLine
 10
311.1633640743328
 20
459.2456345049774
 30
0.0
 11
331.1223620451721
 21
459.2456345049589
 31
0.0
  0
LINE
  5
1055
330
2
100
AcDbEntity
  8
CENTER
100
AcDbLine
 10
321.1428630597367
 20
449.2661355195484
 30
0.0
 11
321.1428630597549
 21
469.2251334903879
 31
0.0
  0
LINE
  5
1056
330
2
100
AcDbEntity
  8
0
100
AcDbLine
 10
397.6109004911261
 20
361.2456345048967
 30
0.0
 11
344.67482562816
 21
361.2456345049455
 31
0.0
  0
ARC
  5
1057
330
2
100
AcDbEntity
  8
0
100
AcDbCircle
 10
397.6109004911334
 20
369.2456345048967
 30
0.0
 40
8.0
100
AcDbArc
 50
269.9999999999478
 51
314.9999999999359
  0
LINE
  5
1058
330
2
100
AcDbEntity
  8
0
100
AcDbLine
 10
397.6109004911206
 20
356.245634504896
 30
0.0
 11
344.6748256281559
 21
356.2456345049449
 31
0.0
  0
ARC
  5
1059
330
2
100
AcDbEntity
  8
0
100
AcDbCircle
 10
344.6748256281678
 20
369.2456345049449
 30
0.0
 40
13.0
100
AcDbArc
 50
224.9999999999534
 51
269.9999999999478
  0
LINE
  5
105A
330
2
100
AcDbEntity
  8
0
100
AcDbLine
 10
397.6109004913094
 20
457.2456345048975
 30
0.0
 11
344.6748256281441
 21
457.2456345049462
 31
0.0
  0
ARC
  5
105B
330
2
100
AcDbEntity
  8
0
100
AcDbCircle
 10
344.6748256281368
 20
449.2456345049462
 30
0.0
 40
8.0
100
AcDbArc
 50
89.99999999994789
 51
134.9999999999359
  0
LINE
  5
105C
330
2
100
AcDbEntity
  8
0
100
AcDbLine
 10
397.6109004913139
 20
462.2456345048973
 30
0.0
 11
344.6748256281487
 21
462.2456345049461
 31
0.0
  0
ARC
  5
105D
330
2
100
AcDbEntity
  8
0
100
AcDbCircle
 10
397.6109004913021
 20
449.2456345048973
 30
0.0
 40
13.0
100
AcDbArc
 50
44.99999999995348
 51
89.99999999994789
  0
LINE
  5
105E
330
2
100
AcDbEntity
  8
0
100
AcDbLine
 10
424.1428630596754
 20
382.7775970734017
 30
0.0
 11
424.142863059724
 21
435.7136719364475
 31
0.0
  0
ARC
  5
105F
330
2
100
AcDbEntity
  8
0
100
AcDbCircle
 10
411.1428630596753
 20
382.7775970734137
 30
0.0
 40
13.0
100
AcDbArc
 50
314.9999999999359
 51
359.9999999999478
  0
LINE
  5
1060
330
2
100
AcDbEntity
  8
0
100
AcDbLine
 10
419.1428630596753
 20
382.7775970734063
 30
0.0
 11
419.142863059724
 21
435.7136719364521
 31
0.0
  0
ARC
  5
1061
330
2
100
AcDbEntity
  8
0
100
AcDbCircle
 10
411.142863059724
 20
435.7136719364595
 30
0.0
 40
8.0
100
AcDbArc
 50
359.9999999999478
 51
44.99999999995348
  0
LINE
  5
1062
330
2
100
AcDbEntity
  8
CENTER
100
AcDbLine
 10
433.4137751174532
 20
471.5165465626245
 30
0.0
 11
308.8719510019166
 21
346.9747224473179
 31
0.0
  0
LINE
  5
1063
330
2
100
AcDbEntity
  8
0
100
AcDbLine
 10
339.0179713786499
 20
454.9024887544438
 30
0.0
 11
325.4860088102371
 21
441.3705261860561
 31
0.0
  0
LINE
  5
1064
330
2
100
AcDbEntity
  8
0
100
AcDbLine
 10
335.4824374727202
 20
458.4380226603797
 30
0.0
 11
321.9504749043073
 21
444.9060600919921
 31
0.0
  0
ARC
  5
1065
330
2
100
AcDbEntity
  8
0
100
AcDbCircle
 10
344.6748256281368
 20
449.245634504946
 30
0.0
 40
13.0
100
AcDbArc
 50
89.99999999994789
 51
134.9999999999359
  0
ARC
  5
1066
330
2
100
AcDbEntity
  8
0
100
AcDbCircle
 10
331.142863059724
 20
435.7136719365585
 30
0.0
 40
8.0
100
AcDbArc
 50
134.9999999999359
 51
179.9999999999479
  0
LINE
  5
1067
330
2
100
AcDbEntity
  8
0
100
AcDbLine
 10
416.7997173091623
 20
377.1207428239161
 30
0.0
 11
403.2677547406203
 21
363.5887802553992
 31
0.0
  0
LINE
  5
1068
330
2
100
AcDbEntity
  8
0
100
AcDbLine
 10
420.335251215092
 20
373.5852089179801
 30
0.0
 11
406.8032886465491
 21
360.0532463494624
 31
0.0
  0
ARC
  5
1069
330
2
100
AcDbEntity
  8
0
100
AcDbCircle
 10
397.6109004911325
 20
369.245634504896
 30
0.0
 40
13.0
100
AcDbArc
 50
269.9999999999478
 51
314.9999999999359
  0
ARC
  5
106A
330
2
100
AcDbEntity
  8
0
100
AcDbCircle
 10
411.1428630596753
 20
382.7775970734137
 30
0.0
 40
8.0
100
AcDbArc
 50
314.9999999999359
 51
359.9999999999478
  0
LINE
  5
106B
330
2
100
AcDbEntity
  8
CENTER
100
AcDbLine
 10
308.8719510019952
 20
471.5165465627331
 30
0.0
 11
433.4137751173446
 21
346.974722447239
 31
0.0
  0
LINE
  5
106C
330
2
100
AcDbEntity
  8
0
100
AcDbLine
 10
403.2677547407977
 20
454.9024887543865
 30
0.0
 11
416.7997173092196
 21
441.3705261859486
 31
0.0
  0
LINE
  5
106D
330
2
100
AcDbEntity
  8
0
100
AcDbLine
 10
406.8032886467324
 20
458.4380226603171
 30
0.0
 11
420.3352512151544
 21
444.9060600918793
 31
0.0
  0
ARC
  5
106E
330
2
100
AcDbEntity
  8
0
100
AcDbCircle
 10
411.142863059724
 20
435.7136719364595
 30
0.0
 40
13.0
100
AcDbArc
 50
359.9999999999478
 51
44.99999999995348
  0
ARC
  5
106F
330
2
100
AcDbEntity
  8
0
100
AcDbCircle
 10
397.6109004913021
 20
449.2456345048974
 30
0.0
 40
8.0
100
AcDbArc
 50
44.99999999995348
 51
89.99999999994789
  0
LINE
  5
1070
330
2
100
AcDbEntity
  8
0
100
AcDbLine
 10
325.4860088101797
 20
377.1207428239641
 30
0.0
 11
339.0179713786717
 21
363.5887802554564
 31
0.0
  0
LINE
  5
1071
330
2
100
AcDbEntity
  8
0
100
AcDbLine
 10
321.950474904245
 20
373.5852089180333
 30
0.0
 11
335.4824374727375
 21
360.0532463495251
 31
0.0
  0
ARC
  5
1072
330
2
100
AcDbEntity
  8
0
100
AcDbCircle
 10
331.1428630596754
 20
382.7775970734531
 30
0.0
 40
13.0
100
AcDbArc
 50
179.9999999999479
 51
224.9999999999534
  0
ARC
  5
1073
330
2
100
AcDbEntity
  8
0
100
AcDbCircle
 10
344.6748256281673
 20
369.2456345049455
 30
0.0
 40
8.0
100
AcDbArc
 50
224.9999999999534
 51
269.9999999999478
  0
LINE
  5
1074
330
2
100
AcDbEntity
  8
0
100
AcDbLine
 10
402.5857851118677
 20
357.2352005822447
 30
0.0
 11
400.6723679500471
 21
361.8545982448036
 31
0.0
  0
LINE
  5
1075
330
2
100
AcDbEntity
  8
0
100
AcDbLine
 10
423.1532969823176
 20
377.8027124526565
 30
0.0
 11
418.5338993197627
 21
379.7161296144862
 31
0.0
  0
CIRCLE
  5
1076
330
2
100
AcDbEntity
  8
HOJO
100
AcDbCircle
 10
423.6428630596885
 20
370.7456345049619
 30
0.0
 40
2.5
  0
CIRCLE
  5
1077
330
2
100
AcDbEntity
  8
0
100
AcDbCircle
 10
423.6428630596885
 20
370.7456345049619
 30
0.0
 40
2.0
  0
CIRCLE
  5
1078
330
2
100
AcDbEntity
  8
HOJO
100
AcDbCircle
 10
318.6428630597613
 20
447.7456345050611
 30
0.0
 40
2.5
  0
CIRCLE
  5
1079
330
2
100
AcDbEntity
  8
0
100
AcDbCircle
 10
318.6428630597613
 20
447.7456345050611
 30
0.0
 40
2.0
  0
LINE
  5
107A
330
2
100
AcDbEntity
  8
CENTER
100
AcDbLine
 10
318.6428630597563
 20
442.083841703871
 30
0.0
 11
318.6428630597668
 21
453.4074273062511
 31
0.0
  0
LINE
  5
107B
330
2
100
AcDbEntity
  8
CENTER
100
AcDbLine
 10
324.3046558609514
 20
447.7456345050558
 30
0.0
 11
312.9810702585712
 21
447.7456345050662
 31
0.0
  0
LINE
  5
107C
330
2
100
AcDbEntity
  8
0
100
AcDbLine
 10
423.1532969823121
 20
440.6885565571542
 30
0.0
 11
418.5338993197535
 21
438.7751393953337
 31
0.0
  0
LINE
  5
107D
330
2
100
AcDbEntity
  8
0
100
AcDbLine
 10
402.5857851119005
 20
461.2560684276039
 30
0.0
 11
400.6723679500708
 21
456.6366707650492
 31
0.0
  0
LINE
  5
107E
330
2
100
AcDbEntity
  8
0
100
AcDbLine
 10
339.6999410074029
 20
461.2560684275988
 30
0.0
 11
341.6133581692236
 21
456.6366707650399
 31
0.0
  0
LINE
  5
107F
330
2
100
AcDbEntity
  8
0
100
AcDbLine
 10
319.132429136953
 20
440.6885565571871
 30
0.0
 11
323.751826799508
 21
438.7751393953573
 31
0.0
  0
LINE
  5
1080
330
2
100
AcDbEntity
  8
0
100
AcDbLine
 10
319.132429136958
 20
377.8027124526894
 30
0.0
 11
323.7518267995171
 21
379.7161296145099
 31
0.0
  0
LINE
  5
1081
330
2
100
AcDbEntity
  8
0
100
AcDbLine
 10
339.6999410073701
 20
357.2352005822396
 30
0.0
 11
341.6133581691994
 21
361.8545982447944
 31
0.0
  0
ARC
  5
1082
330
2
100
AcDbEntity
  8
0
100
AcDbCircle
 10
371.1428630598136
 20
599.2456345049188
 30
0.0
 40
250.0
100
AcDbArc
 50
265.4117542407429
 51
274.5882457591524
  0
ARC
  5
1083
330
2
100
AcDbEntity
  8
0
 48
0.5
100
AcDbCircle
 10
421.142863059593
 20
359.2456345048725
 30
0.0
 40
10.0
100
AcDbArc
 50
269.9999999999478
 51
359.9999999999478
  0
LINE
  5
1084
330
2
100
AcDbEntity
  8
0
 48
0.5
100
AcDbLine
 10
421.142863059584
 20
349.2456345048724
 30
0.0
 11
411.1428630595794
 21
349.2456345048818
 31
0.0
  0
ARC
  5
1085
330
2
100
AcDbEntity
  8
0
100
AcDbCircle
 10
411.1428630595871
 20
357.2456345048822
 30
0.0
 40
8.0
100
AcDbArc
 50
261.1083543197433
 51
269.9999999999478
  0
ARC
  5
1086
330
2
100
AcDbEntity
  8
0
100
AcDbCircle
 10
397.5410260331616
 20
270.3031821038452
 30
0.0
 40
80.0
100
AcDbArc
 50
81.10835431974335
 51
94.58824575915246
  0
LINE
  5
1087
330
2
100
AcDbEntity
  8
0
 48
0.5
100
AcDbLine
 10
431.1428630595931
 20
359.2456345048633
 30
0.0
 11
431.1428630596021
 21
369.2456345048674
 31
0.0
  0
ARC
  5
1088
330
2
100
AcDbEntity
  8
0
100
AcDbCircle
 10
423.1428630596017
 20
369.2456345048747
 30
0.0
 40
8.0
100
AcDbArc
 50
359.9999999999478
 51
8.891645680153569
  0
ARC
  5
1089
330
2
100
AcDbEntity
  8
0
100
AcDbCircle
 10
510.0853154606636
 20
382.8474715311399
 30
0.0
 40
80.0
100
AcDbArc
 50
175.4117542407341
 51
188.8916456801534
  0
LINE
  5
108A
330
2
100
AcDbEntity
  8
0
 48
0.5
100
AcDbLine
 10
321.7828630596443
 20
349.2456345049642
 30
0.0
 11
331.1428630595839
 21
349.2456345049556
 31
0.0
  0
ARC
  5
108B
330
2
100
AcDbEntity
  8
0
 48
0.5
100
AcDbCircle
 10
321.7828630596534
 20
359.2456345049642
 30
0.0
 40
10.0
100
AcDbArc
 50
179.9999999999479
 51
269.9999999999478
  0
ARC
  5
108C
330
2
100
AcDbEntity
  8
0
100
AcDbCircle
 10
331.1428630595917
 20
357.2456345049559
 30
0.0
 40
8.0
100
AcDbArc
 50
269.9999999999478
 51
278.8916456801511
  0
ARC
  5
108D
330
2
100
AcDbEntity
  8
0
100
AcDbCircle
 10
344.7447000858562
 20
270.303182103894
 30
0.0
 40
80.0
100
AcDbArc
 50
85.41175424074296
 51
98.89164568015118
  0
ARC
  5
108E
330
2
100
AcDbEntity
  8
0
 48
0.5
100
AcDbCircle
 10
421.1428630596854
 20
459.2456345048756
 30
0.0
 40
10.0
100
AcDbArc
 50
359.9999999999478
 51
89.99999999994789
  0
LINE
  5
108F
330
2
100
AcDbEntity
  8
0
 48
0.5
100
AcDbLine
 10
421.1428630596945
 20
469.2456345048756
 30
0.0
 11
411.1428630596903
 21
469.2456345048847
 31
0.0
  0
ARC
  5
1090
330
2
100
AcDbEntity
  8
0
100
AcDbCircle
 10
411.1428630596831
 20
461.2456345048843
 30
0.0
 40
8.0
100
AcDbArc
 50
89.99999999994789
 51
98.89164568015118
  0
ARC
  5
1091
330
2
100
AcDbEntity
  8
0
100
AcDbCircle
 10
397.5410260334181
 20
548.1880869059464
 30
0.0
 40
80.0
100
AcDbArc
 50
265.4117542407429
 51
278.8916456801511
  0
LINE
  5
1092
330
2
100
AcDbEntity
  8
0
 48
0.5
100
AcDbLine
 10
431.1428630596854
 20
459.2456345048662
 30
0.0
 11
431.1428630596758
 21
449.2456345048622
 31
0.0
  0
ARC
  5
1093
330
2
100
AcDbEntity
  8
0
100
AcDbCircle
 10
423.1428630596753
 20
449.2456345048696
 30
0.0
 40
8.0
100
AcDbArc
 50
351.1083543197522
 51
359.9999999999478
  0
ARC
  5
1094
330
2
100
AcDbEntity
  8
0
100
AcDbCircle
 10
510.0853154607123
 20
435.643797478444
 30
0.0
 40
80.0
100
AcDbArc
 50
171.10835431974
 51
184.5882457591504
  0
LINE
  5
1095
330
2
100
AcDbEntity
  8
0
 48
0.5
100
AcDbLine
 10
321.7828630597553
 20
469.2456345049673
 30
0.0
 11
331.1428630596949
 21
469.2456345049585
 31
0.0
  0
ARC
  5
1096
330
2
100
AcDbEntity
  8
0
100
AcDbCircle
 10
331.1428630596876
 20
461.2456345049582
 30
0.0
 40
8.0
100
AcDbArc
 50
81.10835431974335
 51
89.99999999994789
  0
ARC
  5
1097
330
2
100
AcDbEntity
  8
0
100
AcDbCircle
 10
344.7447000861127
 20
548.188086905995
 30
0.0
 40
80.0
100
AcDbArc
 50
261.1083543197433
 51
274.5882457591524
  0
ARC
  5
1098
330
2
100
AcDbEntity
  8
0
100
AcDbCircle
 10
181.1428630596385
 20
409.2456345050967
 30
0.0
 40
250.0
100
AcDbArc
 50
355.411754240734
 51
4.588245759156909
  0
ARC
  5
1099
330
2
100
AcDbEntity
  8
0
100
AcDbCircle
 10
371.142863059463
 20
219.2456345049216
 30
0.0
 40
250.0
100
AcDbArc
 50
85.41175424074296
 51
94.58824575915246
  0
LINE
  5
109A
330
2
100
AcDbEntity
  8
0
100
AcDbLine
 10
514.6063679289684
 20
446.1682842357964
 30
0.0
 11
514.6063679289684
 21
409.245634504986
 31
0.0
  0
LINE
  5
109B
330
2
100
AcDbEntity
  8
0
 48
0.5
100
AcDbLine
 10
523.1063679289684
 20
449.2456345049861
 30
0.0
 11
522.6063679289684
 21
448.7456345049863
 31
0.0
  0
LINE
  5
109C
330
2
100
AcDbEntity
  8
0
100
AcDbLine
 10
523.1063679289698
 20
365.7456345049861
 30
0.0
 11
523.1063679289684
 21
452.7456345049861
 31
0.0
  0
ARC
  5
109D
330
2
100
AcDbEntity
  8
0
100
AcDbCircle
 10
517.4063679289677
 20
446.3456345049857
 30
0.0
 40
0.3
100
AcDbArc
 50
180.0
 51
270.0
  0
ARC
  5
109E
330
2
100
AcDbEntity
  8
0
100
AcDbCircle
 10
518.8063679289678
 20
446.3456345049857
 30
0.0
 40
0.3
100
AcDbArc
 50
270.0
 51
0.0
  0
LINE
  5
109F
330
2
100
AcDbEntity
  8
0
 48
0.5
100
AcDbLine
 10
519.106367928968
 20
446.5456345049858
 30
0.0
 11
519.3063679289678
 21
446.7456345049859
 31
0.0
  0
LINE
  5
10A0
330
2
100
AcDbEntity
  8
0
 48
0.5
100
AcDbLine
 10
517.4063679289677
 20
446.0456345049858
 30
0.0
 11
518.8063679289678
 21
446.0456345049858
 31
0.0
  0
LINE
  5
10A1
330
2
100
AcDbEntity
  8
0
100
AcDbLine
 10
515.606367928968
 20
446.7456345049859
 30
0.0
 11
514.606367928968
 21
446.1682842357961
 31
0.0
  0
LINE
  5
10A2
330
2
100
AcDbEntity
  8
0
100
AcDbLine
 10
517.1063679289679
 20
446.4456345049857
 30
0.0
 11
517.1063679289679
 21
372.0456345049865
 31
0.0
  0
ARC
  5
10A3
330
2
100
AcDbEntity
  8
0
 48
0.5
100
AcDbCircle
 10
516.8063679289677
 20
446.4456345049857
 30
0.0
 40
0.3
100
AcDbArc
 50
0.0
 51
90.0
  0
LINE
  5
10A4
330
2
100
AcDbEntity
  8
0
 48
0.5
100
AcDbLine
 10
515.6063679289675
 20
446.7456345049859
 30
0.0
 11
516.8063679289677
 21
446.7456345049859
 31
0.0
  0
LINE
  5
10A5
330
2
100
AcDbEntity
  8
0
 48
0.5
100
AcDbLine
 10
519.3063679289678
 20
446.7456345049859
 30
0.0
 11
522.6063679289679
 21
446.7456345049859
 31
0.0
  0
LINE
  5
10A6
330
2
100
AcDbEntity
  8
HIDS
  6
SEKKEI_H
 48
0.5
100
AcDbLine
 10
527.5205814913422
 20
461.6598480673598
 30
0.0
 11
523.6921543665969
 21
457.8314209426134
 31
0.0
  0
ARC
  5
10A7
330
2
100
AcDbEntity
  8
HIDS
  6
SEKKEI_H
100
AcDbCircle
 10
525.1063679289698
 20
456.4172073802403
 30
0.0
 40
2.0
100
AcDbArc
 50
135.0000000000094
 51
180.0
  0
ARC
  5
10A8
330
2
100
AcDbEntity
  8
HIDS
  6
SEKKEI_H
 48
0.5
100
AcDbCircle
 10
526.1063679289684
 20
463.0740616297331
 30
0.0
 40
2.0
100
AcDbArc
 50
314.9999999999728
 51
0.0
  0
ARC
  5
10A9
330
2
100
AcDbEntity
  8
0
 48
0.3
100
AcDbCircle
 10
530.1063679289684
 20
467.1757434058876
 30
0.0
 40
2.0
100
AcDbArc
 50
90.49999999999155
 51
180.0
  0
LINE
  5
10AA
330
2
100
AcDbEntity
  8
0
100
AcDbLine
 10
530.0889148579715
 20
469.175667252016
 30
0.0
 11
538.1063679289684
 21
469.2456345049858
 31
0.0
  0
LINE
  5
10AB
330
2
100
AcDbEntity
  8
0
100
AcDbLine
 10
514.6063679289684
 20
372.3229847741758
 30
0.0
 11
514.6063679289684
 21
409.245634504986
 31
0.0
  0
LINE
  5
10AC
330
2
100
AcDbEntity
  8
0
 48
0.5
100
AcDbLine
 10
523.1063679289684
 20
369.2456345049861
 30
0.0
 11
522.6063679289684
 21
369.7456345049859
 31
0.0
  0
ARC
  5
10AD
330
2
100
AcDbEntity
  8
0
100
AcDbCircle
 10
517.4063679289677
 20
372.1456345049864
 30
0.0
 40
0.3
100
AcDbArc
 50
90.0
 51
180.0
  0
ARC
  5
10AE
330
2
100
AcDbEntity
  8
0
100
AcDbCircle
 10
518.8063679289678
 20
372.1456345049864
 30
0.0
 40
0.3
100
AcDbArc
 50
0.0
 51
90.0
  0
LINE
  5
10AF
330
2
100
AcDbEntity
  8
0
100
AcDbLine
 10
519.106367928968
 20
371.9456345049863
 30
0.0
 11
519.106367928968
 21
446.5456345049858
 31
0.0
  0
LINE
  5
10B0
330
2
100
AcDbEntity
  8
0
 48
0.5
100
AcDbLine
 10
519.106367928968
 20
371.9456345049863
 30
0.0
 11
519.3063679289678
 21
371.7456345049863
 31
0.0
  0
LINE
  5
10B1
330
2
100
AcDbEntity
  8
0
 48
0.5
100
AcDbLine
 10
517.4063679289677
 20
372.4456345049864
 30
0.0
 11
518.8063679289678
 21
372.4456345049864
 31
0.0
  0
LINE
  5
10B2
330
2
100
AcDbEntity
  8
0
100
AcDbLine
 10
515.606367928968
 20
371.7456345049863
 30
0.0
 11
514.606367928968
 21
372.3229847741761
 31
0.0
  0
ARC
  5
10B3
330
2
100
AcDbEntity
  8
0
 48
0.5
100
AcDbCircle
 10
516.8063679289677
 20
372.0456345049865
 30
0.0
 40
0.3
100
AcDbArc
 50
270.0
 51
0.0
  0
LINE
  5
10B4
330
2
100
AcDbEntity
  8
0
 48
0.5
100
AcDbLine
 10
515.6063679289675
 20
371.7456345049863
 30
0.0
 11
516.8063679289677
 21
371.7456345049863
 31
0.0
  0
LINE
  5
10B5
330
2
100
AcDbEntity
  8
0
 48
0.5
100
AcDbLine
 10
519.3063679289678
 20
371.7456345049863
 30
0.0
 11
522.6063679289679
 21
371.7456345049863
 31
0.0
  0
LINE
  5
10B6
330
2
100
AcDbEntity
  8
0
100
AcDbLine
 10
538.1063679289684
 20
349.2456345049863
 30
0.0
 11
538.1063679289684
 21
469.2456345049858
 31
0.0
  0
LINE
  5
10B7
330
2
100
AcDbEntity
  8
HIDS
  6
SEKKEI_H
 48
0.5
100
AcDbLine
 10
527.5205814913422
 20
356.8314209426123
 30
0.0
 11
523.6921543665969
 21
360.6598480673588
 31
0.0
  0
ARC
  5
10B8
330
2
100
AcDbEntity
  8
HIDS
  6
SEKKEI_H
100
AcDbCircle
 10
525.1063679289698
 20
362.0740616297319
 30
0.0
 40
2.0
100
AcDbArc
 50
180.0
 51
224.9999999999904
  0
ARC
  5
10B9
330
2
100
AcDbEntity
  8
HIDS
  6
SEKKEI_H
 48
0.5
100
AcDbCircle
 10
526.1063679289684
 20
355.417207380239
 30
0.0
 40
2.0
100
AcDbArc
 50
0.0
 51
45.00000000002716
  0
ARC
  5
10BA
330
2
100
AcDbEntity
  8
0
 48
0.3
100
AcDbCircle
 10
530.1063679289684
 20
351.3155256040846
 30
0.0
 40
2.0
100
AcDbArc
 50
180.0
 51
269.5000000000084
  0
LINE
  5
10BB
330
2
100
AcDbEntity
  8
0
100
AcDbLine
 10
530.0889148579715
 20
349.3156017579562
 30
0.0
 11
538.1063679289684
 21
349.2456345049863
 31
0.0
  0
LINE
  5
10BC
330
2
100
AcDbEntity
  8
0
100
AcDbLine
 10
515.6063679289675
 20
446.7456345049859
 30
0.0
 11
515.606367928968
 21
371.7456345049863
 31
0.0
  0
LINE
  5
10BD
330
2
100
AcDbEntity
  8
0
100
AcDbLine
 10
519.3063679289678
 20
446.7456345049859
 30
0.0
 11
519.3063679289678
 21
371.7456345049863
 31
0.0
  0
LINE
  5
10BE
330
2
100
AcDbEntity
  8
0
100
AcDbLine
 10
522.6063679289684
 20
448.7456345049863
 30
0.0
 11
522.6063679289684
 21
369.7456345049861
 31
0.0
  0
LINE
  5
10BF
330
2
100
AcDbEntity
  8
0
100
AcDbLine
 10
574.6063679289671
 20
348.7456345049862
 30
0.0
 11
524.5230374890045
 21
349.1629955919892
 31
0.0
  0
ARC
  5
10C0
330
2
100
AcDbEntity
  8
0
100
AcDbCircle
 10
524.6063679289707
 20
359.1626483878505
 30
0.0
 40
10.0
100
AcDbArc
 50
180.0
 51
269.5225462226892
  0
LINE
  5
10C1
330
2
100
AcDbEntity
  8
0
100
AcDbLine
 10
514.6063679289706
 20
359.1626483878505
 30
0.0
 11
514.6063679289706
 21
459.328620622122
 31
0.0
  0
LINE
  5
10C2
330
2
100
AcDbEntity
  8
0
100
AcDbLine
 10
574.6063679289671
 20
348.7456345049862
 30
0.0
 11
624.6896983689291
 21
349.1629955919894
 31
0.0
  0
ARC
  5
10C3
330
2
100
AcDbEntity
  8
0
100
AcDbCircle
 10
624.6063679289634
 20
359.1626483878507
 30
0.0
 40
10.0
100
AcDbArc
 50
270.4774537773107
 51
294.1885688072112
  0
LINE
  5
10C4
330
2
100
AcDbEntity
  8
0
100
AcDbLine
 10
574.6063679289671
 20
469.7456345049862
 30
0.0
 11
524.5230374890045
 21
469.3282734179832
 31
0.0
  0
ARC
  5
10C5
330
2
100
AcDbEntity
  8
0
100
AcDbCircle
 10
524.6063679289707
 20
459.328620622122
 30
0.0
 40
10.0
100
AcDbArc
 50
90.47745377731077
 51
180.0
  0
LINE
  5
10C6
330
2
100
AcDbEntity
  8
0
100
AcDbLine
 10
574.6063679289671
 20
469.7456345049862
 30
0.0
 11
624.6896983689291
 21
469.3282734179832
 31
0.0
  0
ARC
  5
10C7
330
2
100
AcDbEntity
  8
0
100
AcDbCircle
 10
624.6063679289634
 20
459.328620622122
 30
0.0
 40
10.0
100
AcDbArc
 50
65.81143119278873
 51
89.52254622268922
  0
LINE
  5
10C8
330
2
100
AcDbEntity
  8
0
100
AcDbLine
 10
1007.419171748529
 20
814.9328728292797
 30
0.0
 11
1007.34920449556
 21
822.9503259002763
 31
0.0
  0
ARC
  5
10C9
330
2
100
AcDbEntity
  8
0
100
AcDbCircle
 10
1005.349280649432
 20
822.9328728292795
 30
0.0
 40
2.0
100
AcDbArc
 50
0.499999999998063
 51
90.0
  0
LINE
  5
10CA
330
2
100
AcDbEntity
  8
0
100
AcDbLine
 10
984.9818214793401
 20
838.4328728292798
 30
0.0
 11
948.0591717485296
 21
838.4328728292798
 31
0.0
  0
LINE
  5
10CB
330
2
100
AcDbEntity
  8
0
 48
0.5
100
AcDbLine
 10
988.0591717485296
 20
829.9328728292799
 30
0.0
 11
987.5591717485301
 21
830.4328728292798
 31
0.0
  0
LINE
  5
10CC
330
2
100
AcDbEntity
  8
0
100
AcDbLine
 10
904.5591717485297
 20
829.9328728292783
 30
0.0
 11
991.5591717485296
 21
829.9328728292795
 31
0.0
  0
ARC
  5
10CD
330
2
100
AcDbEntity
  8
0
100
AcDbCircle
 10
985.1591717485296
 20
835.6328728292803
 30
0.0
 40
0.3
100
AcDbArc
 50
90.0
 51
180.0
  0
ARC
  5
10CE
330
2
100
AcDbEntity
  8
0
100
AcDbCircle
 10
985.1591717485296
 20
834.2328728292804
 30
0.0
 40
0.3
100
AcDbArc
 50
180.0
 51
270.0
  0
LINE
  5
10CF
330
2
100
AcDbEntity
  8
0
 48
0.5
100
AcDbLine
 10
985.3591717485299
 20
833.9328728292803
 30
0.0
 11
985.5591717485296
 21
833.7328728292803
 31
0.0
  0
LINE
  5
10D0
330
2
100
AcDbEntity
  8
0
 48
0.5
100
AcDbLine
 10
984.8591717485298
 20
835.6328728292803
 30
0.0
 11
984.8591717485298
 21
834.2328728292804
 31
0.0
  0
LINE
  5
10D1
330
2
100
AcDbEntity
  8
0
100
AcDbLine
 10
985.5591717485296
 20
837.4328728292804
 30
0.0
 11
984.9818214793398
 21
838.4328728292803
 31
0.0
  0
LINE
  5
10D2
330
2
100
AcDbEntity
  8
0
100
AcDbLine
 10
985.2591717485294
 20
835.9328728292803
 30
0.0
 11
910.8591717485303
 21
835.9328728292805
 31
0.0
  0
ARC
  5
10D3
330
2
100
AcDbEntity
  8
0
 48
0.5
100
AcDbCircle
 10
985.2591717485294
 20
836.2328728292803
 30
0.0
 40
0.3
100
AcDbArc
 50
270.0
 51
0.0
  0
LINE
  5
10D4
330
2
100
AcDbEntity
  8
0
 48
0.5
100
AcDbLine
 10
985.5591717485296
 20
837.4328728292804
 30
0.0
 11
985.5591717485296
 21
836.2328728292803
 31
0.0
  0
LINE
  5
10D5
330
2
100
AcDbEntity
  8
0
 48
0.5
100
AcDbLine
 10
985.5591717485296
 20
833.7328728292803
 30
0.0
 11
985.5591717485296
 21
830.4328728292803
 31
0.0
  0
LINE
  5
10D6
330
2
100
AcDbEntity
  8
HIDS
  6
SEKKEI_H
 48
0.5
100
AcDbLine
 10
1000.473385310904
 20
825.5186592669058
 30
0.0
 11
996.6449581861573
 21
829.3470863916514
 31
0.0
  0
ARC
  5
10D7
330
2
100
AcDbEntity
  8
HIDS
  6
SEKKEI_H
100
AcDbCircle
 10
995.2307446237838
 20
827.9328728292782
 30
0.0
 40
2.0
100
AcDbArc
 50
44.99999999999098
 51
90.0
  0
ARC
  5
10D8
330
2
100
AcDbEntity
  8
HIDS
  6
SEKKEI_H
 48
0.5
100
AcDbCircle
 10
1001.887598873277
 20
826.9328728292796
 30
0.0
 40
2.0
100
AcDbArc
 50
224.9999999999898
 51
270.0
  0
LINE
  5
10D9
330
2
100
AcDbEntity
  8
0
100
AcDbLine
 10
911.1365220177196
 20
838.4328728292798
 30
0.0
 11
948.0591717485296
 21
838.4328728292798
 31
0.0
  0
LINE
  5
10DA
330
2
100
AcDbEntity
  8
0
 48
0.5
100
AcDbLine
 10
908.0591717485297
 20
829.9328728292799
 30
0.0
 11
908.5591717485296
 21
830.4328728292798
 31
0.0
  0
ARC
  5
10DB
330
2
100
AcDbEntity
  8
0
100
AcDbCircle
 10
910.9591717485303
 20
835.6328728292803
 30
0.0
 40
0.3
100
AcDbArc
 50
0.0
 51
90.0
  0
ARC
  5
10DC
330
2
100
AcDbEntity
  8
0
100
AcDbCircle
 10
910.9591717485303
 20
834.2328728292804
 30
0.0
 40
0.3
100
AcDbArc
 50
270.0
 51
0.0
  0
LINE
  5
10DD
330
2
100
AcDbEntity
  8
0
100
AcDbLine
 10
910.7591717485304
 20
833.9328728292803
 30
0.0
 11
985.3591717485299
 21
833.9328728292803
 31
0.0
  0
LINE
  5
10DE
330
2
100
AcDbEntity
  8
0
 48
0.5
100
AcDbLine
 10
910.7591717485304
 20
833.9328728292803
 30
0.0
 11
910.5591717485301
 21
833.7328728292803
 31
0.0
  0
LINE
  5
10DF
330
2
100
AcDbEntity
  8
0
 48
0.5
100
AcDbLine
 10
911.2591717485305
 20
835.6328728292803
 30
0.0
 11
911.2591717485305
 21
834.2328728292804
 31
0.0
  0
LINE
  5
10E0
330
2
100
AcDbEntity
  8
0
100
AcDbLine
 10
910.5591717485301
 20
837.4328728292804
 30
0.0
 11
911.1365220177196
 21
838.4328728292803
 31
0.0
  0
ARC
  5
10E1
330
2
100
AcDbEntity
  8
0
 48
0.5
100
AcDbCircle
 10
910.8591717485303
 20
836.2328728292803
 30
0.0
 40
0.3
100
AcDbArc
 50
180.0
 51
270.0
  0
LINE
  5
10E2
330
2
100
AcDbEntity
  8
0
 48
0.5
100
AcDbLine
 10
910.5591717485301
 20
837.4328728292804
 30
0.0
 11
910.5591717485301
 21
836.2328728292803
 31
0.0
  0
LINE
  5
10E3
330
2
100
AcDbEntity
  8
0
 48
0.5
100
AcDbLine
 10
910.5591717485301
 20
833.7328728292803
 30
0.0
 11
910.5591717485301
 21
830.4328728292803
 31
0.0
  0
LINE
  5
10E4
330
2
100
AcDbEntity
  8
0
 48
0.3
100
AcDbLine
 10
890.0591717485307
 20
824.9328728292796
 30
0.0
 11
1005.349280649432
 21
824.9328728292796
 31
0.0
  0
LINE
  5
10E5
330
2
100
AcDbEntity
  8
0
100
AcDbLine
 10
888.0591717485302
 20
814.9328728292797
 30
0.0
 11
1007.419171748529
 21
814.9328728292797
 31
0.0
  0
LINE
  5
10E6
330
2
100
AcDbEntity
  8
HIDS
  6
SEKKEI_H
 48
0.5
100
AcDbLine
 10
895.6449581861564
 20
825.5186592669058
 30
0.0
 11
899.4733853109025
 21
829.3470863916514
 31
0.0
  0
ARC
  5
10E7
330
2
100
AcDbEntity
  8
HIDS
  6
SEKKEI_H
100
AcDbCircle
 10
900.8875988732754
 20
827.9328728292782
 30
0.0
 40
2.0
100
AcDbArc
 50
90.0
 51
135.000000000009
  0
ARC
  5
10E8
330
2
100
AcDbEntity
  8
HIDS
  6
SEKKEI_H
 48
0.5
100
AcDbCircle
 10
894.230744623783
 20
826.9328728292796
 30
0.0
 40
2.0
100
AcDbArc
 50
270.0
 51
315.0000000000101
  0
ARC
  5
10E9
330
2
100
AcDbEntity
  8
0
 48
0.3
100
AcDbCircle
 10
890.1290628476283
 20
822.9328728292795
 30
0.0
 40
2.0
100
AcDbArc
 50
90.0
 51
179.4999999999954
  0
LINE
  5
10EA
330
2
100
AcDbEntity
  8
0
100
AcDbLine
 10
888.1291390015
 20
822.9503259002765
 30
0.0
 11
888.0591717485302
 21
814.9328728292797
 31
0.0
  0
LINE
  5
10EB
330
2
100
AcDbEntity
  8
0
100
AcDbLine
 10
985.5591717485296
 20
837.4328728292804
 30
0.0
 11
910.5591717485301
 21
837.4328728292804
 31
0.0
  0
LINE
  5
10EC
330
2
100
AcDbEntity
  8
0
100
AcDbLine
 10
985.5591717485296
 20
833.7328728292803
 30
0.0
 11
910.5591717485301
 21
833.7328728292803
 31
0.0
  0
LINE
  5
10ED
330
2
100
AcDbEntity
  8
0
100
AcDbLine
 10
987.5591717485301
 20
830.4328728292798
 30
0.0
 11
908.5591717485296
 21
830.4328728292798
 31
0.0
  0
LINE
  5
10EE
330
2
100
AcDbEntity
  8
0
100
AcDbLine
 10
529.6063679289684
 20
459.2456345049876
 30
0.0
 11
538.1063679289684
 21
459.2456345049876
 31
0.0
  0
LINE
  5
10EF
330
2
100
AcDbEntity
  8
0
100
AcDbLine
 10
529.6063679289684
 20
449.2456345049836
 30
0.0
 11
538.1063679289693
 21
449.2456345049836
 31
0.0
  0
LINE
  5
10F0
330
2
100
AcDbEntity
  8
0
100
AcDbLine
 10
529.6063679289684
 20
429.2442428183997
 30
0.0
 11
538.1063679289688
 21
429.2442428183997
 31
0.0
  0
LINE
  5
10F1
330
2
100
AcDbEntity
  8
0
100
AcDbLine
 10
529.6063679289684
 20
389.2470261915698
 30
0.0
 11
538.1063679289679
 21
389.2470261915698
 31
0.0
  0
LINE
  5
10F2
330
2
100
AcDbEntity
  8
0
100
AcDbLine
 10
529.6063679289684
 20
369.2456345049881
 30
0.0
 11
538.106367928967
 21
369.2456345049882
 31
0.0
  0
LINE
  5
10F3
330
2
100
AcDbEntity
  8
0
100
AcDbLine
 10
529.6063679289684
 20
359.2456345049868
 30
0.0
 11
538.106367928967
 21
359.2456345049868
 31
0.0
  0
LINE
  5
10F4
330
2
100
AcDbEntity
  8
0
100
AcDbLine
 10
898.0591717485307
 20
823.4328728292796
 30
0.0
 11
898.0591717485307
 21
814.9328728292809
 31
0.0
  0
LINE
  5
10F5
330
2
100
AcDbEntity
  8
0
100
AcDbLine
 10
908.0591717485319
 20
823.4328728292796
 30
0.0
 11
908.0591717485319
 21
814.9328728292807
 31
0.0
  0
LINE
  5
10F6
330
2
100
AcDbEntity
  8
0
100
AcDbLine
 10
928.0605634351134
 20
823.4328728292796
 30
0.0
 11
928.0605634351134
 21
814.9328728292802
 31
0.0
  0
LINE
  5
10F7
330
2
100
AcDbEntity
  8
0
100
AcDbLine
 10
968.0577800619433
 20
823.4328728292796
 30
0.0
 11
968.0577800619433
 21
814.932872829279
 31
0.0
  0
LINE
  5
10F8
330
2
100
AcDbEntity
  8
0
100
AcDbLine
 10
988.0591717485273
 20
823.4328728292796
 30
0.0
 11
988.0591717485273
 21
814.9328728292784
 31
0.0
  0
LINE
  5
10F9
330
2
100
AcDbEntity
  8
0
100
AcDbLine
 10
998.0591717485316
 20
823.4328728292796
 30
0.0
 11
998.0591717485316
 21
814.9328728292783
 31
0.0
  0
LINE
  5
10FA
330
2
100
AcDbEntity
  8
0
 48
0.3
100
AcDbLine
 10
904.5591717485297
 20
834.4328728292795
 30
0.0
 11
891.5591717485296
 21
834.4328728292795
 31
0.0
  0
LINE
  5
10FB
330
2
100
AcDbEntity
  8
0
 48
0.3
100
AcDbLine
 10
903.6931463447437
 20
834.9328728292796
 30
0.0
 11
892.4251971523146
 21
834.9328728292796
 31
0.0
  0
LINE
  5
10FC
330
2
100
AcDbEntity
  8
0
 48
0.3
100
AcDbLine
 10
891.5591717485296
 20
834.4328728292795
 30
0.0
 11
892.4251971523146
 21
834.9328728292796
 31
0.0
  0
LINE
  5
10FD
330
2
100
AcDbEntity
  8
0
 48
0.3
100
AcDbLine
 10
891.5591717485296
 20
834.4328728292795
 30
0.0
 11
891.5591717485296
 21
826.9328728292796
 31
0.0
  0
LINE
  5
10FE
330
2
100
AcDbEntity
  8
0
 48
0.3
100
AcDbLine
 10
904.5591717485297
 20
834.432872829279
 30
0.0
 11
903.6931463447452
 21
834.9328728292791
 31
0.0
  0
LINE
  5
10FF
330
2
100
AcDbEntity
  8
0
 48
0.3
100
AcDbLine
 10
904.5591717485297
 20
834.4328728292786
 30
0.0
 11
904.5591717485297
 21
826.9328728292796
 31
0.0
  0
LINE
  5
1100
330
2
100
AcDbEntity
  8
0
 48
0.3
100
AcDbLine
 10
1004.559171748529
 20
834.4328728292795
 30
0.0
 11
991.5591717485296
 21
834.4328728292795
 31
0.0
  0
LINE
  5
1101
330
2
100
AcDbEntity
  8
0
 48
0.3
100
AcDbLine
 10
1003.693146344743
 20
834.9328728292796
 30
0.0
 11
992.4251971523146
 21
834.9328728292796
 31
0.0
  0
LINE
  5
1102
330
2
100
AcDbEntity
  8
0
 48
0.3
100
AcDbLine
 10
991.5591717485296
 20
834.4328728292795
 30
0.0
 11
992.4251971523146
 21
834.9328728292796
 31
0.0
  0
LINE
  5
1103
330
2
100
AcDbEntity
  8
0
 48
0.3
100
AcDbLine
 10
991.5591717485296
 20
834.4328728292795
 30
0.0
 11
991.5591717485296
 21
826.9328728292796
 31
0.0
  0
LINE
  5
1104
330
2
100
AcDbEntity
  8
0
 48
0.3
100
AcDbLine
 10
1004.559171748529
 20
834.432872829279
 30
0.0
 11
1003.693146344745
 21
834.9328728292791
 31
0.0
  0
LINE
  5
1105
330
2
100
AcDbEntity
  8
0
 48
0.3
100
AcDbLine
 10
1004.559171748529
 20
834.4328728292786
 30
0.0
 11
1004.559171748529
 21
826.9328728292796
 31
0.0
  0
LINE
  5
1106
330
2
100
AcDbEntity
  8
CENTER
 48
0.5
100
AcDbLine
 10
898.0591717485296
 20
837.9328728292795
 30
0.0
 11
898.0591717485296
 21
818.9328728292796
 31
0.0
  0
LINE
  5
1107
330
2
100
AcDbEntity
  8
CENTER
 48
0.5
100
AcDbLine
 10
998.0591717485296
 20
837.9328728292795
 30
0.0
 11
998.0591717485296
 21
818.9328728292796
 31
0.0
  0
LINE
  5
1108
330
2
100
AcDbEntity
  8
0
 48
0.3
100
AcDbLine
 10
518.6063679289684
 20
465.7456345049861
 30
0.0
 11
518.6063679289684
 21
452.7456345049861
 31
0.0
  0
LINE
  5
1109
330
2
100
AcDbEntity
  8
0
 48
0.3
100
AcDbLine
 10
518.1063679289684
 20
464.8796091012002
 30
0.0
 11
518.1063679289684
 21
453.6116599087706
 31
0.0
  0
LINE
  5
110A
330
2
100
AcDbEntity
  8
CENTER
 48
0.5
100
AcDbLine
 10
515.1063679289684
 20
459.245634504986
 30
0.0
 11
534.1063679289684
 21
459.245634504986
 31
0.0
  0
LINE
  5
110B
330
2
100
AcDbEntity
  8
0
 48
0.3
100
AcDbLine
 10
518.6063679289684
 20
452.7456345049861
 30
0.0
 11
518.1063679289684
 21
453.6116599087706
 31
0.0
  0
LINE
  5
110C
330
2
100
AcDbEntity
  8
0
 48
0.3
100
AcDbLine
 10
518.6063679289684
 20
452.7456345049861
 30
0.0
 11
526.1063679289684
 21
452.7456345049861
 31
0.0
  0
LINE
  5
110D
330
2
100
AcDbEntity
  8
0
 48
0.3
100
AcDbLine
 10
518.6063679289689
 20
465.7456345049856
 30
0.0
 11
518.1063679289689
 21
464.8796091012013
 31
0.0
  0
LINE
  5
110E
330
2
100
AcDbEntity
  8
0
 48
0.3
100
AcDbLine
 10
518.6063679289693
 20
465.7456345049861
 30
0.0
 11
526.1063679289684
 21
465.7456345049861
 31
0.0
  0
LINE
  5
110F
330
2
100
AcDbEntity
  8
0
 48
0.3
100
AcDbLine
 10
518.6063679289684
 20
365.7456345049861
 30
0.0
 11
518.6063679289684
 21
352.7456345049861
 31
0.0
  0
LINE
  5
1110
330
2
100
AcDbEntity
  8
0
 48
0.3
100
AcDbLine
 10
518.1063679289684
 20
364.8796091012002
 30
0.0
 11
518.1063679289684
 21
353.6116599087706
 31
0.0
  0
LINE
  5
1111
330
2
100
AcDbEntity
  8
CENTER
 48
0.5
100
AcDbLine
 10
515.1063679289684
 20
359.2456345049861
 30
0.0
 11
534.1063679289684
 21
359.2456345049861
 31
0.0
  0
LINE
  5
1112
330
2
100
AcDbEntity
  8
0
 48
0.3
100
AcDbLine
 10
518.6063679289684
 20
352.7456345049861
 30
0.0
 11
518.1063679289684
 21
353.6116599087706
 31
0.0
  0
LINE
  5
1113
330
2
100
AcDbEntity
  8
0
 48
0.3
100
AcDbLine
 10
518.6063679289684
 20
352.7456345049861
 30
0.0
 11
526.1063679289684
 21
352.7456345049861
 31
0.0
  0
LINE
  5
1114
330
2
100
AcDbEntity
  8
0
 48
0.3
100
AcDbLine
 10
518.6063679289689
 20
365.7456345049856
 30
0.0
 11
518.1063679289689
 21
364.8796091012013
 31
0.0
  0
LINE
  5
1115
330
2
100
AcDbEntity
  8
0
 48
0.3
100
AcDbLine
 10
518.6063679289693
 20
365.7456345049861
 30
0.0
 11
526.1063679289684
 21
365.7456345049861
 31
0.0
  0
LINE
  5
1116
330
2
100
AcDbEntity
  8
CENTER
100
AcDbLine
 10
1011.767238850136
 20
345.5375674033807
 30
0.0
 11
884.3511046469242
 21
472.9537016065914
 31
0.0
  0
LINE
  5
1117
330
2
100
AcDbEntity
  8
CENTER
100
AcDbLine
 10
884.3511046469251
 20
345.5375674033802
 30
0.0
 11
1011.767238850135
 21
472.953701606592
 31
0.0
  0
LINE
  5
1118
330
2
100
AcDbEntity
  8
HIDS
  6
SEKKEI_H
100
AcDbLine
 10
523.1063679289698
 20
456.4172073802403
 30
0.0
 11
523.1063679289684
 21
452.7456345049861
 31
0.0
  0
LINE
  5
1119
330
2
100
AcDbEntity
  8
HIDS
  6
SEKKEI_H
100
AcDbLine
 10
523.1063679289698
 20
365.7456345049861
 30
0.0
 11
523.1063679289698
 21
362.0740616297319
 31
0.0
  0
LINE
  5
111A
330
2
100
AcDbEntity
  8
HIDS
  6
SEKKEI_H
100
AcDbLine
 10
900.8875988732754
 20
829.9328728292783
 30
0.0
 11
904.5591717485297
 21
829.9328728292783
 31
0.0
  0
LINE
  5
111B
330
2
100
AcDbEntity
  8
HIDS
  6
SEKKEI_H
100
AcDbLine
 10
991.5591717485296
 20
829.9328728292795
 30
0.0
 11
995.2307446237838
 21
829.9328728292783
 31
0.0
  0
LINE
  5
1120
330
2
100
AcDbEntity
  8
0
100
AcDbLine
 10
421.1428630597458
 20
455.7815328897379
 30
0.0
 11
424.1428630597458
 21
457.5135836973068
 31
0.0
  0
LINE
  5
1121
330
2
100
AcDbEntity
  8
0
100
AcDbLine
 10
418.1428630597459
 20
460.9776853124444
 30
0.0
 11
421.1428630597458
 21
462.7097361200133
 31
0.0
  0
CIRCLE
  5
1122
330
2
100
AcDbEntity
  8
0
100
AcDbCircle
 10
421.1428630597458
 20
459.2456345048756
 30
0.0
 40
6.5
  0
LINE
  5
1123
330
2
100
AcDbEntity
  8
0
100
AcDbLine
 10
424.1428630597458
 20
460.9776853124444
 30
0.0
 11
421.1428630597458
 21
462.7097361200132
 31
0.0
  0
LINE
  5
1124
330
2
100
AcDbEntity
  8
0
100
AcDbLine
 10
421.1428630597458
 20
455.781532889738
 30
0.0
 11
418.1428630597459
 21
457.5135836973067
 31
0.0
  0
LINE
  5
1125
330
2
100
AcDbEntity
  8
0
100
AcDbLine
 10
424.1428630597458
 20
457.5135836973069
 30
0.0
 11
424.1428630597458
 21
460.9776853124444
 31
0.0
  0
LINE
  5
1126
330
2
100
AcDbEntity
  8
0
100
AcDbLine
 10
418.1428630597459
 20
457.5135836973066
 30
0.0
 11
418.1428630597459
 21
460.9776853124444
 31
0.0
  0
CIRCLE
  5
1127
330
2
100
AcDbEntity
  8
0
100
AcDbCircle
 10
421.1428630597458
 20
459.2456345048756
 30
0.0
 40
5.633974596215466
  0
CIRCLE
  5
1128
330
2
100
AcDbEntity
  8
0
100
AcDbCircle
 10
421.1428630597458
 20
459.2456345048756
 30
0.0
 40
7.25
  0
LINE
  5
1129
330
2
100
AcDbEntity
  8
0
100
AcDbLine
 10
321.1428630597458
 20
455.7815328898305
 30
0.0
 11
324.1428630597458
 21
457.5135836973995
 31
0.0
  0
LINE
  5
112A
330
2
100
AcDbEntity
  8
0
100
AcDbLine
 10
318.1428630597459
 20
460.977685312537
 30
0.0
 11
321.1428630597458
 21
462.709736120106
 31
0.0
  0
CIRCLE
  5
112B
330
2
100
AcDbEntity
  8
0
100
AcDbCircle
 10
321.1428630597458
 20
459.2456345049682
 30
0.0
 40
6.5
  0
LINE
  5
112C
330
2
100
AcDbEntity
  8
0
100
AcDbLine
 10
324.1428630597458
 20
460.977685312537
 30
0.0
 11
321.1428630597458
 21
462.7097361201059
 31
0.0
  0
LINE
  5
112D
330
2
100
AcDbEntity
  8
0
100
AcDbLine
 10
321.1428630597458
 20
455.7815328898306
 30
0.0
 11
318.1428630597459
 21
457.5135836973993
 31
0.0
  0
LINE
  5
112E
330
2
100
AcDbEntity
  8
0
100
AcDbLine
 10
324.1428630597458
 20
457.5135836973996
 30
0.0
 11
324.1428630597458
 21
460.9776853125372
 31
0.0
  0
LINE
  5
112F
330
2
100
AcDbEntity
  8
0
100
AcDbLine
 10
318.1428630597459
 20
457.5135836973992
 30
0.0
 11
318.1428630597459
 21
460.977685312537
 31
0.0
  0
CIRCLE
  5
1130
330
2
100
AcDbEntity
  8
0
100
AcDbCircle
 10
321.1428630597458
 20
459.2456345049682
 30
0.0
 40
5.633974596215466
  0
CIRCLE
  5
1131
330
2
100
AcDbEntity
  8
0
100
AcDbCircle
 10
321.1428630597458
 20
459.2456345049682
 30
0.0
 40
7.25
  0
LINE
  5
1132
330
2
100
AcDbEntity
  8
0
100
AcDbLine
 10
321.1428630596535
 20
355.7815328898943
 30
0.0
 11
324.142863059653
 21
357.5135836974633
 31
0.0
  0
LINE
  5
1133
330
2
100
AcDbEntity
  8
0
100
AcDbLine
 10
318.1428630596535
 20
360.9776853126009
 30
0.0
 11
321.1428630596535
 21
362.7097361201698
 31
0.0
  0
CIRCLE
  5
1134
330
2
100
AcDbEntity
  8
0
100
AcDbCircle
 10
321.1428630596535
 20
359.245634505032
 30
0.0
 40
6.5
  0
LINE
  5
1135
330
2
100
AcDbEntity
  8
0
100
AcDbLine
 10
324.142863059653
 20
360.9776853126009
 30
0.0
 11
321.1428630596535
 21
362.7097361201697
 31
0.0
  0
LINE
  5
1136
330
2
100
AcDbEntity
  8
0
100
AcDbLine
 10
321.1428630596535
 20
355.7815328898945
 30
0.0
 11
318.1428630596535
 21
357.5135836974632
 31
0.0
  0
LINE
  5
1137
330
2
100
AcDbEntity
  8
0
100
AcDbLine
 10
324.142863059653
 20
357.5135836974634
 30
0.0
 11
324.142863059653
 21
360.977685312601
 31
0.0
  0
LINE
  5
1138
330
2
100
AcDbEntity
  8
0
100
AcDbLine
 10
318.1428630596535
 20
357.5135836974631
 30
0.0
 11
318.1428630596535
 21
360.9776853126009
 31
0.0
  0
CIRCLE
  5
1139
330
2
100
AcDbEntity
  8
0
100
AcDbCircle
 10
321.1428630596535
 20
359.245634505032
 30
0.0
 40
5.633974596215466
  0
CIRCLE
  5
113A
330
2
100
AcDbEntity
  8
0
100
AcDbCircle
 10
321.1428630596535
 20
359.245634505032
 30
0.0
 40
7.25
  0
LINE
  5
113B
330
2
100
AcDbEntity
  8
0
100
AcDbLine
 10
421.1428630597226
 20
355.7815328897377
 30
0.0
 11
424.1428630597222
 21
357.5135836973067
 31
0.0
  0
LINE
  5
113C
330
2
100
AcDbEntity
  8
0
100
AcDbLine
 10
418.1428630597227
 20
360.9776853124443
 30
0.0
 11
421.1428630597226
 21
362.7097361200132
 31
0.0
  0
CIRCLE
  5
113D
330
2
100
AcDbEntity
  8
0
100
AcDbCircle
 10
421.1428630597226
 20
359.2456345048754
 30
0.0
 40
6.5
  0
LINE
  5
113E
330
2
100
AcDbEntity
  8
0
100
AcDbLine
 10
424.1428630597222
 20
360.9776853124443
 30
0.0
 11
421.1428630597226
 21
362.7097361200131
 31
0.0
  0
LINE
  5
113F
330
2
100
AcDbEntity
  8
0
100
AcDbLine
 10
421.1428630597226
 20
355.7815328897378
 30
0.0
 11
418.1428630597227
 21
357.5135836973066
 31
0.0
  0
LINE
  5
1140
330
2
100
AcDbEntity
  8
0
100
AcDbLine
 10
424.1428630597222
 20
357.5135836973068
 30
0.0
 11
424.1428630597222
 21
360.9776853124444
 31
0.0
  0
LINE
  5
1141
330
2
100
AcDbEntity
  8
0
100
AcDbLine
 10
418.1428630597227
 20
357.5135836973065
 30
0.0
 11
418.1428630597227
 21
360.9776853124443
 31
0.0
  0
CIRCLE
  5
1142
330
2
100
AcDbEntity
  8
0
100
AcDbCircle
 10
421.1428630597226
 20
359.2456345048754
 30
0.0
 40
5.633974596215466
  0
CIRCLE
  5
1143
330
2
100
AcDbEntity
  8
0
100
AcDbCircle
 10
421.1428630597226
 20
359.2456345048754
 30
0.0
 40
7.25
  0
LINE
  5
1144
330
2
100
AcDbEntity
  8
0
 48
0.3
100
AcDbLine
 10
528.1063679289684
 20
451.9956345049861
 30
0.0
 11
528.1063679289684
 21
466.4956345049861
 31
0.0
  0
LINE
  5
1145
330
2
100
AcDbEntity
  8
0
 48
0.3
100
AcDbLine
 10
528.1063679289684
 20
466.4956345049861
 30
0.0
 11
526.1063679289684
 21
466.4956345049861
 31
0.0
  0
LINE
  5
1146
330
2
100
AcDbEntity
  8
0
 48
0.3
100
AcDbLine
 10
528.1063679289684
 20
451.9956345049861
 30
0.0
 11
526.1063679289684
 21
451.9956345049861
 31
0.0
  0
LINE
  5
1147
330
2
100
AcDbEntity
  8
0
100
AcDbLine
 10
526.1063679289684
 20
451.9956345049861
 30
0.0
 11
526.1063679289684
 21
466.4956345049861
 31
0.0
  0
LINE
  5
1148
330
2
100
AcDbEntity
  8
0
 48
0.3
100
AcDbLine
 10
528.1063679289684
 20
351.9956345049861
 30
0.0
 11
528.1063679289684
 21
366.4956345049861
 31
0.0
  0
LINE
  5
1149
330
2
100
AcDbEntity
  8
0
 48
0.3
100
AcDbLine
 10
528.1063679289684
 20
366.4956345049861
 30
0.0
 11
526.1063679289684
 21
366.4956345049861
 31
0.0
  0
LINE
  5
114A
330
2
100
AcDbEntity
  8
0
 48
0.3
100
AcDbLine
 10
528.1063679289684
 20
351.9956345049861
 30
0.0
 11
526.1063679289684
 21
351.9956345049861
 31
0.0
  0
LINE
  5
114B
330
2
100
AcDbEntity
  8
0
100
AcDbLine
 10
526.1063679289684
 20
351.9956345049861
 30
0.0
 11
526.1063679289684
 21
366.4956345049861
 31
0.0
  0
LINE
  5
114C
330
2
100
AcDbEntity
  8
0
 48
0.3
100
AcDbLine
 10
905.3091717485298
 20
826.9328728292798
 30
0.0
 11
890.8091717485296
 21
826.9328728292796
 31
0.0
  0
LINE
  5
114D
330
2
100
AcDbEntity
  8
0
 48
0.3
100
AcDbLine
 10
890.8091717485296
 20
826.9328728292796
 30
0.0
 11
890.8091717485296
 21
824.9328728292796
 31
0.0
  0
LINE
  5
114E
330
2
100
AcDbEntity
  8
0
 48
0.3
100
AcDbLine
 10
905.3091717485298
 20
826.9328728292798
 30
0.0
 11
905.3091717485298
 21
824.9328728292796
 31
0.0
  0
LINE
  5
114F
330
2
100
AcDbEntity
  8
0
100
AcDbLine
 10
905.3091717485298
 20
824.9328728292796
 30
0.0
 11
890.8091717485296
 21
824.9328728292796
 31
0.0
  0
LINE
  5
1150
330
2
100
AcDbEntity
  8
0
 48
0.3
100
AcDbLine
 10
1005.309171748529
 20
826.9328728292798
 30
0.0
 11
990.8091717485296
 21
826.9328728292796
 31
0.0
  0
LINE
  5
1151
330
2
100
AcDbEntity
  8
0
 48
0.3
100
AcDbLine
 10
990.8091717485296
 20
826.9328728292796
 30
0.0
 11
990.8091717485296
 21
824.9328728292796
 31
0.0
  0
LINE
  5
1152
330
2
100
AcDbEntity
  8
0
 48
0.3
100
AcDbLine
 10
1005.309171748529
 20
826.9328728292798
 30
0.0
 11
1005.309171748529
 21
824.9328728292796
 31
0.0
  0
LINE
  5
1153
330
2
100
AcDbEntity
  8
0
100
AcDbLine
 10
1005.309171748529
 20
824.9328728292796
 30
0.0
 11
990.8091717485296
 21
824.9328728292796
 31
0.0
  0
LINE
  5
1154
330
2
100
AcDbEntity
  8
0
 48
0.3
100
AcDbLine
 10
528.1063679289684
 20
351.3155256040846
 30
0.0
 11
528.1063679289707
 21
467.1757434058876
 31
0.0
  0
LINE
  5
1155
330
2
100
AcDbEntity
  8
0
100
AcDbLine
 10
641.6063679289698
 20
350.1532287552251
 30
0.0
 11
538.1063679289666
 21
349.2499979388817
 31
0.0
  0
LINE
  5
1156
330
2
100
AcDbEntity
  8
0
100
AcDbLine
 10
641.6063679289698
 20
468.3380402547469
 30
0.0
 11
538.1063679289666
 21
469.2412710710905
 31
0.0
  0
LINE
  5
1157
330
2
100
AcDbEntity
  8
CENTER
100
AcDbLine
 10
411.1633640743332
 20
459.2456345048847
 30
0.0
 11
431.1223620451726
 21
459.2456345048661
 31
0.0
  0
LINE
  5
1158
330
2
100
AcDbEntity
  8
CENTER
100
AcDbLine
 10
421.1428630597367
 20
449.2661355194557
 30
0.0
 11
421.1428630597554
 21
469.2251334902953
 31
0.0
  0
LINE
  5
1159
330
2
100
AcDbEntity
  8
CENTER
100
AcDbLine
 10
411.1633640743096
 20
359.2456345048846
 30
0.0
 11
431.122362045149
 21
359.245634504866
 31
0.0
  0
LINE
  5
115A
330
2
100
AcDbEntity
  8
CENTER
100
AcDbLine
 10
421.1428630597131
 20
349.2661355194556
 30
0.0
 11
421.1428630597318
 21
369.2251334902951
 31
0.0
  0
LINE
  5
115B
330
2
100
AcDbEntity
  8
CENTER
100
AcDbLine
 10
311.1633640742404
 20
359.2456345050412
 30
0.0
 11
331.1223620450798
 21
359.2456345050226
 31
0.0
  0
LINE
  5
115C
330
2
100
AcDbEntity
  8
CENTER
100
AcDbLine
 10
321.142863059644
 20
349.2661355196122
 30
0.0
 11
321.1428630596626
 21
369.2251334904517
 31
0.0
  0
LINE
  5
115D
330
2
100
AcDbEntity
  8
CENTER
100
AcDbLine
 10
423.6428630596836
 20
365.0838417037718
 30
0.0
 11
423.642863059694
 21
376.407427306152
 31
0.0
  0
LINE
  5
115E
330
2
100
AcDbEntity
  8
CENTER
100
AcDbLine
 10
429.3046558608787
 20
370.7456345049567
 30
0.0
 11
417.9810702584984
 21
370.7456345049671
 31
0.0
  0
LINE
  5
115F
330
2
100
AcDbEntity
  8
0
100
AcDbLine
 10
265.6428630597026
 20
469.7456345049857
 30
0.0
 11
279.6428630597026
 21
469.7456345049857
 31
0.0
  0
ARC
  5
1160
330
2
100
AcDbEntity
  8
0
100
AcDbCircle
 10
279.6428630597026
 20
467.7456345049858
 30
0.0
 40
2.0
100
AcDbArc
 50
0.0
 51
90.0
  0
LINE
  5
1161
330
2
100
AcDbEntity
  8
0
100
AcDbLine
 10
265.6428630597026
 20
348.7456345049865
 30
0.0
 11
279.6428630597026
 21
348.7456345049865
 31
0.0
  0
ARC
  5
1162
330
2
100
AcDbEntity
  8
0
100
AcDbCircle
 10
279.6428630597026
 20
350.7456345049865
 30
0.0
 40
2.0
100
AcDbArc
 50
270.0
 51
0.0
  0
LINE
  5
1163
330
2
100
AcDbEntity
  8
0
100
AcDbLine
 10
1039.559171748527
 20
469.7456345049856
 30
0.0
 11
1053.559171748527
 21
469.7456345049857
 31
0.0
  0
ARC
  5
1164
330
2
100
AcDbEntity
  8
0
100
AcDbCircle
 10
1039.559171748527
 20
467.7456345049857
 30
0.0
 40
2.0
100
AcDbArc
 50
90.0
 51
180.0
  0
LINE
  5
1165
330
2
100
AcDbEntity
  8
0
100
AcDbLine
 10
1039.559171748527
 20
348.7456345049865
 30
0.0
 11
1053.559171748527
 21
348.7456345049864
 31
0.0
  0
ARC
  5
1166
330
2
100
AcDbEntity
  8
0
100
AcDbCircle
 10
1039.559171748527
 20
350.7456345049865
 30
0.0
 40
2.0
100
AcDbArc
 50
180.0
 51
270.0
  0
ARC
  5
1252
330
2
100
AcDbEntity
  8
0
100
AcDbCircle
 10
1029.085082820361
 20
820.432872829285
 30
0.0
 40
8.0
100
AcDbArc
 50
270.0
 51
358.5000000000103
  0
LINE
  5
1253
330
2
100
AcDbEntity
  8
0
100
AcDbLine
 10
1029.085082820363
 20
812.432872829285
 30
0.0
 11
1026.981642361291
 21
812.4328728292846
 31
0.0
  0
ARC
  5
1254
330
2
100
AcDbEntity
  8
0
100
AcDbCircle
 10
1026.981642361291
 20
809.4328728292847
 30
0.0
 40
3.0
100
AcDbArc
 50
90.0
 51
178.5000000000038
  0
LINE
  5
1255
330
2
100
AcDbEntity
  8
0
100
AcDbLine
 10
1020.979585606346
 20
806.4328728292846
 30
0.0
 11
1010.465858973914
 21
806.4328728292844
 31
0.0
  0
ARC
  5
1256
330
2
100
AcDbEntity
  8
0
100
AcDbCircle
 10
1010.465858973914
 20
809.4328728292843
 30
0.0
 40
3.0
100
AcDbArc
 50
180.5000000000045
 51
270.0
  0
LINE
  5
1257
330
2
100
AcDbEntity
  8
0
100
AcDbLine
 10
1024.059171748527
 20
809.4328728292847
 30
0.0
 11
1024.059171748527
 21
809.4328728292847
 31
0.0
  0
LINE
  5
1258
330
2
100
AcDbEntity
  8
0
100
AcDbLine
 10
1024.059171748527
 20
747.4328728292782
 30
0.0
 11
1024.059171748527
 21
747.4328728292782
 31
0.0
  0
LINE
  5
1259
330
2
100
AcDbEntity
  8
0
100
AcDbLine
 10
1023.323909542043
 20
784.354341984356
 30
0.0
 11
1023.982670386365
 21
809.5114036742081
 31
0.0
  0
ARC
  5
125A
330
2
100
AcDbEntity
  8
0
100
AcDbCircle
 10
1020.979585606346
 20
809.4328728292847
 30
0.0
 40
3.0
100
AcDbArc
 50
270.0
 51
358.5000000000038
  0
ARC
  5
125B
330
2
100
AcDbEntity
  8
0
100
AcDbCircle
 10
1020.324937567116
 20
784.4328728292796
 30
0.0
 40
3.0
100
AcDbArc
 50
270.0
 51
358.5000000000038
  0
ARC
  5
125C
330
2
100
AcDbEntity
  8
0
100
AcDbCircle
 10
1029.085082820361
 20
736.4328728292778
 30
0.0
 40
8.0
100
AcDbArc
 50
1.499999999989688
 51
90.0
  0
LINE
  5
125D
330
2
100
AcDbEntity
  8
0
100
AcDbLine
 10
1029.085082820363
 20
744.4328728292778
 30
0.0
 11
1026.981642361291
 21
744.4328728292783
 31
0.0
  0
ARC
  5
125E
330
2
100
AcDbEntity
  8
0
100
AcDbCircle
 10
1026.981642361291
 20
747.4328728292782
 30
0.0
 40
3.0
100
AcDbArc
 50
181.4999999999962
 51
269.9999999999739
  0
LINE
  5
125F
330
2
100
AcDbEntity
  8
0
100
AcDbLine
 10
1020.979585606346
 20
750.4328728292782
 30
0.0
 11
1010.465858973914
 21
750.4328728292785
 31
0.0
  0
ARC
  5
1260
330
2
100
AcDbEntity
  8
0
100
AcDbCircle
 10
1010.465858973914
 20
747.4328728292785
 30
0.0
 40
3.0
100
AcDbArc
 50
90.0
 51
179.4999999999954
  0
LINE
  5
1261
330
2
100
AcDbEntity
  8
0
100
AcDbLine
 10
1024.059171748527
 20
747.4328728292782
 30
0.0
 11
1024.059171748527
 21
747.4328728292782
 31
0.0
  0
LINE
  5
1262
330
2
100
AcDbEntity
  8
0
100
AcDbLine
 10
1023.323909542043
 20
772.5114036742069
 30
0.0
 11
1023.982670386365
 21
747.3543419843547
 31
0.0
  0
ARC
  5
1263
330
2
100
AcDbEntity
  8
0
100
AcDbCircle
 10
1020.979585606346
 20
747.4328728292782
 30
0.0
 40
3.0
100
AcDbArc
 50
1.499999999996204
 51
90.0
  0
ARC
  5
1264
330
2
100
AcDbEntity
  8
0
100
AcDbCircle
 10
1020.324937567116
 20
772.4328728292833
 30
0.0
 40
3.0
100
AcDbArc
 50
1.499999999996204
 51
90.0
  0
TEXT
  5
1E89
330
2
100
AcDbEntity
  8
TITLE
100
AcDbText
 10
560.0751813492295
 20
809.635902035017
 30
0.0
 40
10.0
  1
AFCZ28L-7.5~10M1000K13
100
AcDbText
  0
TEXT
  5
1E8A
330
2
100
AcDbEntity
  8
TITLE
100
AcDbText
 10
560.0751813492295
 20
781.9736718957215
 30
0.0
 40
10.0
  1
AFCZ28L-7.5~10L1000K13
100
AcDbText
  0
TEXT
  5
1E8B
330
2
100
AcDbEntity
  8
TITLE
100
AcDbText
 10
560.0751813492295
 20
795.5664569636196
 30
0.0
 40
10.0
  1
AFCZ28L-3~5M2000K13
100
AcDbText
  0
TEXT
  5
1E8C
330
2
100
AcDbEntity
  8
TITLE
100
AcDbText
 10
560.0751813492295
 20
767.6073111709524
 30
0.0
 40
10.0
  1
AFCZ28L-3~5L2000K13
100
AcDbText
  0
LINE
  5
2178
330
2
100
AcDbEntity
  8
0
100
AcDbLine
 10
662.6063679289704
 20
394.2456345049863
 30
0.0
 11
662.6063679289709
 21
424.2456345049861
 31
0.0
  0
LINE
  5
2179
330
2
100
AcDbEntity
  8
0
100
AcDbLine
 10
661.6063679289704
 20
424.8229847741761
 30
0.0
 11
662.6063679289704
 21
424.2456345049864
 31
0.0
  0
LINE
  5
217A
330
2
100
AcDbEntity
  8
0
100
AcDbLine
 10
662.6063679289709
 20
423.2456345049861
 30
0.0
 11
707.6063679289707
 21
423.245634504985
 31
0.0
  0
LINE
  5
217B
330
2
100
AcDbEntity
  8
0
100
AcDbLine
 10
662.6063679289704
 20
395.2456345049863
 30
0.0
 11
707.6063679289704
 21
395.2456345049865
 31
0.0
  0
LINE
  5
217C
330
2
100
AcDbEntity
  8
0
100
AcDbLine
 10
707.6063679289704
 20
395.2456345049867
 30
0.0
 11
707.6063679289707
 21
423.245634504985
 31
0.0
  0
LINE
  5
217D
330
2
100
AcDbEntity
  8
0
100
AcDbLine
 10
661.6063679289704
 20
430.4569593703911
 30
0.0
 11
661.6063679289704
 21
388.0343096395812
 31
0.0
  0
LINE
  5
217E
330
2
100
AcDbEntity
  8
0
100
AcDbLine
 10
661.6063679289704
 20
393.6682842357959
 30
0.0
 11
662.6063679289704
 21
394.2456345049859
 31
0.0
  0
LINE
  5
217F
330
2
100
AcDbEntity
  8
0
100
AcDbLine
 10
661.3563679289704
 20
430.8899720722832
 30
0.0
 11
661.2044441403241
 21
430.9776853125548
 31
0.0
  0
ARC
  5
2180
330
2
100
AcDbEntity
  8
0
100
AcDbCircle
 10
661.1063679289705
 20
430.4569593703911
 30
0.0
 40
0.5
100
AcDbArc
 50
0.0
 51
59.99999999999907
  0
ARC
  5
2181
330
2
100
AcDbEntity
  8
0
100
AcDbCircle
 10
660.2044441403241
 20
429.2456345049859
 30
0.0
 40
2.0
100
AcDbArc
 50
59.99999999999907
 51
78.40678637648896
  0
LINE
  5
2182
330
2
100
AcDbEntity
  8
0
100
AcDbLine
 10
661.3563679289704
 20
387.6012969376889
 30
0.0
 11
661.2044441403241
 21
387.5135836974175
 31
0.0
  0
ARC
  5
2183
330
2
100
AcDbEntity
  8
0
100
AcDbCircle
 10
661.1063679289705
 20
388.0343096395812
 30
0.0
 40
0.5
100
AcDbArc
 50
300.0000000000009
 51
0.0
  0
ARC
  5
2184
330
2
100
AcDbEntity
  8
0
100
AcDbCircle
 10
660.2044441403241
 20
389.2456345049864
 30
0.0
 40
2.0
100
AcDbArc
 50
281.5932136234977
 51
300.0000000000009
  0
LINE
  5
2185
330
2
100
AcDbEntity
  8
0
100
AcDbLine
 10
707.6063679289704
 20
413.2456345049861
 30
0.0
 11
671.6063679289704
 21
413.2456345049861
 31
0.0
  0
LINE
  5
2186
330
2
100
AcDbEntity
  8
0
100
AcDbLine
 10
707.6063679289704
 20
405.2456345049862
 30
0.0
 11
671.6063679289704
 21
405.245634504986
 31
0.0
  0
ARC
  5
2187
330
2
100
AcDbEntity
  8
0
100
AcDbCircle
 10
671.6063679289704
 20
409.245634504986
 30
0.0
 40
4.0
100
AcDbArc
 50
90.0
 51
270.0
  0
LINE
  5
21A1
330
2
100
AcDbEntity
  8
0
100
AcDbLine
 10
933.0591717485297
 20
690.4328728292772
 30
0.0
 11
963.0591717485293
 21
690.432872829277
 31
0.0
  0
LINE
  5
21A2
330
2
100
AcDbEntity
  8
0
100
AcDbLine
 10
963.6365220177193
 20
691.4328728292773
 30
0.0
 11
963.0591717485296
 21
690.4328728292772
 31
0.0
  0
LINE
  5
21A3
330
2
100
AcDbEntity
  8
0
100
AcDbLine
 10
962.0591717485293
 20
690.432872829277
 30
0.0
 11
962.0591717485281
 21
645.4328728292772
 31
0.0
  0
LINE
  5
21A4
330
2
100
AcDbEntity
  8
0
100
AcDbLine
 10
934.0591717485297
 20
690.4328728292772
 30
0.0
 11
934.0591717485299
 21
685.4328728292772
 31
0.0
  0
LINE
  5
21A5
330
2
100
AcDbEntity
  8
0
100
AcDbLine
 10
934.5591717485296
 20
645.4328728292772
 30
0.0
 11
962.0591717485279
 21
645.4328728292773
 31
0.0
  0
LINE
  5
21A6
330
2
100
AcDbEntity
  8
0
100
AcDbLine
 10
969.2704966139343
 20
691.4328728292773
 30
0.0
 11
926.8478468831245
 21
691.4328728292773
 31
0.0
  0
LINE
  5
21A7
330
2
100
AcDbEntity
  8
0
100
AcDbLine
 10
932.4818214793392
 20
691.4328728292773
 30
0.0
 11
933.0591717485292
 21
690.4328728292772
 31
0.0
  0
LINE
  5
21A8
330
2
100
AcDbEntity
  8
0
100
AcDbLine
 10
969.7035093158264
 20
691.6828728292772
 30
0.0
 11
969.7912225560981
 21
691.8347966179238
 31
0.0
  0
ARC
  5
21A9
330
2
100
AcDbEntity
  8
0
100
AcDbCircle
 10
969.2704966139343
 20
691.9328728292772
 30
0.0
 40
0.5
100
AcDbArc
 50
270.0
 51
330.0000000000084
  0
ARC
  5
21AA
330
2
100
AcDbEntity
  8
0
100
AcDbCircle
 10
968.0591717485292
 20
692.8347966179238
 30
0.0
 40
2.0
100
AcDbArc
 50
330.0000000000084
 51
348.4067863764956
  0
LINE
  5
21AB
330
2
100
AcDbEntity
  8
0
100
AcDbLine
 10
926.4148341812322
 20
691.6828728292772
 30
0.0
 11
926.3271209409607
 21
691.8347966179238
 31
0.0
  0
ARC
  5
21AC
330
2
100
AcDbEntity
  8
0
100
AcDbCircle
 10
926.8478468831245
 20
691.9328728292772
 30
0.0
 40
0.5
100
AcDbArc
 50
209.9999999999915
 51
270.0
  0
ARC
  5
21AD
330
2
100
AcDbEntity
  8
0
100
AcDbCircle
 10
928.0591717485297
 20
692.8347966179238
 30
0.0
 40
2.0
100
AcDbArc
 50
191.5932136235044
 51
209.9999999999915
  0
LINE
  5
21AE
330
2
100
AcDbEntity
  8
0
100
AcDbLine
 10
931.0591717485296
 20
645.4328728292772
 30
0.0
 11
931.0591717485296
 21
685.4328728292772
 31
0.0
  0
LINE
  5
21AF
330
2
100
AcDbEntity
  8
0
100
AcDbLine
 10
934.5591717485296
 20
645.4328728292772
 30
0.0
 11
931.0591717485296
 21
645.4328728292772
 31
0.0
  0
LINE
  5
21B0
330
2
100
AcDbEntity
  8
0
100
AcDbLine
 10
934.0591717485299
 20
685.4328728292771
 30
0.0
 11
931.0591717485296
 21
685.4328728292772
 31
0.0
  0
LINE
  5
21B1
330
2
100
AcDbEntity
  8
0
100
AcDbLine
 10
934.6427638835313
 20
645.4328728292772
 30
0.0
 11
934.6427638835313
 21
681.4328728292772
 31
0.0
  0
LINE
  5
21B2
330
2
100
AcDbEntity
  8
0
100
AcDbLine
 10
934.0591717485297
 20
685.4328728292772
 30
0.0
 11
934.6427638835313
 21
681.4328728292772
 31
0.0
  0
ARC
  5
21C2
330
2
100
AcDbEntity
  8
0
100
AcDbCircle
 10
948.0591717485296
 20
409.2456345049856
 30
0.0
 40
13.99999999999958
100
AcDbArc
 50
196.6015495990203
 51
163.3984504009797
  0
ARC
  5
21C3
330
2
100
AcDbEntity
  8
0
100
AcDbCircle
 10
948.0591717485296
 20
409.2456345049856
 30
0.0
 40
14.99999999999983
100
AcDbArc
 50
195.4660099534202
 51
164.5339900465797
  0
ARC
  5
21C4
330
2
100
AcDbEntity
  8
0
100
AcDbCircle
 10
948.0591717485296
 20
409.2456345049856
 30
0.0
 40
15.57735026919027
100
AcDbArc
 50
194.8792668176911
 51
165.1207331823088
  0
CIRCLE
  5
21C5
330
2
100
AcDbEntity
  8
0
100
AcDbCircle
 10
948.0591717485296
 20
409.2456345049856
 30
0.0
 40
21.99999999999977
  0
LINE
  5
21C6
330
2
100
AcDbEntity
  8
0
100
AcDbLine
 10
931.0591717485296
 20
413.2456345049856
 30
0.0
 11
938.0591717485296
 21
413.2456345049856
 31
0.0
  0
LINE
  5
21C7
330
2
100
AcDbEntity
  8
0
100
AcDbLine
 10
931.0591717485296
 20
405.2456345049856
 30
0.0
 11
938.0591717485296
 21
405.2456345049856
 31
0.0
  0
LINE
  5
21C8
330
2
100
AcDbEntity
  8
0
100
AcDbLine
 10
938.0591717485296
 20
413.2456345049856
 30
0.0
 11
938.0591717485296
 21
405.2456345049856
 31
0.0
  0
LINE
  5
21C9
330
2
100
AcDbEntity
  8
0
100
AcDbLine
 10
931.0591717485296
 20
413.2456345049856
 30
0.0
 11
931.0591717485296
 21
405.2456345049856
 31
0.0
  0
LINE
  5
21DD
330
2
100
AcDbEntity
  8
0
100
AcDbLine
 10
1349.610790824461
 20
424.2456345049858
 30
0.0
 11
1349.610790824461
 21
394.245634504986
 31
0.0
  0
LINE
  5
21DE
330
2
100
AcDbEntity
  8
0
100
AcDbLine
 10
1350.610790824461
 20
393.668284235796
 30
0.0
 11
1349.610790824461
 21
394.2456345049858
 31
0.0
  0
LINE
  5
21DF
330
2
100
AcDbEntity
  8
0
100
AcDbLine
 10
1349.610790824461
 20
395.245634504986
 30
0.0
 11
1304.61079082446
 21
395.2456345049873
 31
0.0
  0
LINE
  5
21E0
330
2
100
AcDbEntity
  8
0
100
AcDbLine
 10
1349.610790824461
 20
423.2456345049858
 30
0.0
 11
1304.610790824461
 21
423.2456345049856
 31
0.0
  0
LINE
  5
21E1
330
2
100
AcDbEntity
  8
0
100
AcDbLine
 10
1304.610790824461
 20
423.2456345049856
 30
0.0
 11
1304.610790824461
 21
395.2456345049873
 31
0.0
  0
LINE
  5
21E2
330
2
100
AcDbEntity
  8
0
100
AcDbLine
 10
1350.610790824461
 20
388.034309639581
 30
0.0
 11
1350.610790824461
 21
430.4569593703909
 31
0.0
  0
LINE
  5
21E3
330
2
100
AcDbEntity
  8
0
100
AcDbLine
 10
1350.610790824461
 20
424.8229847741763
 30
0.0
 11
1349.610790824461
 21
424.2456345049863
 31
0.0
  0
LINE
  5
21E4
330
2
100
AcDbEntity
  8
0
100
AcDbLine
 10
1350.86079082446
 20
387.6012969376889
 30
0.0
 11
1351.012714613108
 21
387.5135836974173
 31
0.0
  0
ARC
  5
21E5
330
2
100
AcDbEntity
  8
0
100
AcDbCircle
 10
1351.110790824461
 20
388.034309639581
 30
0.0
 40
0.5
100
AcDbArc
 50
180.0
 51
239.9999999999991
  0
ARC
  5
21E6
330
2
100
AcDbEntity
  8
0
100
AcDbCircle
 10
1352.012714613108
 20
389.2456345049863
 30
0.0
 40
2.0
100
AcDbArc
 50
239.9999999999991
 51
258.4067863764889
  0
LINE
  5
21E7
330
2
100
AcDbEntity
  8
0
100
AcDbLine
 10
1350.86079082446
 20
430.8899720722832
 30
0.0
 11
1351.012714613108
 21
430.9776853125547
 31
0.0
  0
ARC
  5
21E8
330
2
100
AcDbEntity
  8
0
100
AcDbCircle
 10
1351.110790824461
 20
430.4569593703909
 30
0.0
 40
0.5
100
AcDbArc
 50
120.0000000000008
 51
180.0
  0
ARC
  5
21E9
330
2
100
AcDbEntity
  8
0
100
AcDbCircle
 10
1352.012714613108
 20
429.2456345049857
 30
0.0
 40
2.0
100
AcDbArc
 50
101.593213623511
 51
120.0000000000008
  0
LINE
  5
2841
330
2
100
AcDbEntity
  8
CENTER
100
AcDbLine
 10
1148.059171748533
 20
409.2456345049856
 30
0.0
 11
873.0591717485301
 21
409.2456345049862
 31
0.0
  0
LINE
  5
2842
330
2
100
AcDbEntity
  8
CENTER
100
AcDbLine
 10
948.0591717485301
 20
484.2456345049862
 30
0.0
 11
948.0591717485301
 21
334.2456345049863
 31
0.0
  0
SPLINE
  5
29CD
330
2
100
AcDbEntity
  8
HOJO
100
AcDbSpline
210
0.0
220
0.0
230
1.0
 70
     8
 71
     3
 72
    20
 73
    16
 74
    14
 42
0.0000000001
 43
0.0000000001
 44
0.0000000001
 40
0.0
 40
0.0
 40
0.0
 40
0.0
 40
14.85506882871914
 40
22.03448209950047
 40
30.44412430254707
 40
37.37351627376137
 40
45.45744306198741
 40
53.55830448626035
 40
62.42551460174855
 40
65.75683397536018
 40
70.77413448252525
 40
74.8227083206142
 40
78.94059623694873
 40
92.3093476088762
 40
100.9194333049609
 40
100.9194333049609
 40
100.9194333049609
 40
100.9194333049609
 10
1054.796427920907
 20
409.2456345049859
 30
0.0
 10
1056.295862258525
 20
413.9335134461336
 30
0.0
 10
1058.519969023197
 20
420.8870311850515
 30
0.0
 10
1064.906303562496
 20
429.5831787667284
 30
0.0
 10
1073.083978458717
 20
430.1778671612915
 30
0.0
 10
1080.656762523678
 20
428.8398921452428
 30
0.0
 10
1088.457099671054
 20
428.9461237074371
 30
0.0
 10
1096.669817940623
 20
430.447488728388
 30
0.0
 10
1103.6906981933
 20
428.5319304739328
 30
0.0
 10
1108.971601223406
 20
431.1583324350354
 30
0.0
 10
1112.360757883961
 20
433.2746160718062
 30
0.0
 10
1116.752998188689
 20
435.1919889864655
 30
0.0
 10
1117.903004119341
 20
442.8438163638016
 30
0.0
 10
1120.866087732093
 20
450.8785365298987
 30
0.0
 10
1125.140073521387
 20
456.8904868213382
 30
0.0
 10
1126.814383394826
 20
459.2456345049812
 30
0.0
 11
1054.796427920907
 21
409.2456345049859
 31
0.0
 11
1060.384699878992
 21
423.0095106461192
 31
0.0
 11
1065.155381507214
 21
428.374636153954
 31
0.0
 11
1073.437812812541
 21
429.8318299145068
 31
0.0
 11
1080.328793851318
 21
429.1032330342306
 31
0.0
 11
1088.412449274386
 21
429.1694698707058
 31
0.0
 11
1096.488356623056
 21
429.8048251342991
 31
0.0
 11
1105.353226377312
 21
429.6011109416433
 31
0.0
 11
1108.410078816951
 21
430.9252491259996
 31
0.0
 11
1112.791565336877
 21
433.3698104884754
 31
0.0
 11
1116.168409817062
 21
435.6031647996185
 31
0.0
 11
1117.467316637782
 21
439.5108293147197
 31
0.0
 11
1122.064382260399
 21
452.0643348373125
 31
0.0
 11
1126.814383394826
 21
459.2456345049812
 31
0.0
  0
ENDSEC
  0
SECTION
  2
OBJECTS
  0
DICTIONARY
  5
7
330
0
100
AcDbDictionary
  3
ACAD_COLOR
350
832
  3
ACAD_GROUP
350
75
  3
ACAD_LAYOUT
350
61
  3
ACAD_MATERIAL
350
808
  3
ACAD_MLEADERSTYLE
350
857
  3
ACAD_MLINESTYLE
350
76
  3
ACAD_PLOTSETTINGS
350
77
  3
ACAD_PLOTSTYLENAME
350
6
  3
ACAD_SCALELIST
350
835
  3
ACAD_TABLESTYLE
350
833
  3
ACAD_VISUALSTYLE
350
821
  3
ACADDIM
350
480
  3
ACDB_RECOMPOSE_DATA
350
88E
  3
ACDBHEADERROUNDTRIPXREC
350
2A6A
  3
ACDBVARIABLEDICTIONARY
350
102
  3
DWGPROPS
350
2A39
  0
DICTIONARY
  5
1E6F
330
6E
100
AcDbDictionary
280
     1
  3
ACAD_XREC_ROUNDTRIP
360
2A3D
  0
DICTIONARY
  5
86B
330
66
100
AcDbDictionary
280
     1
  3
ACAD_LAYERSTATES
360
86C
  0
DICTIONARY
  5
158C
330
5E
100
AcDbDictionary
280
     1
  3
ADSK_XREC_LAYER_RECONCILED
360
158D
  0
DICTIONARY
  5
158E
330
3E
100
AcDbDictionary
280
     1
  3
ADSK_XREC_LAYER_RECONCILED
360
158F
  0
DICTIONARY
  5
1594
330
2B5
100
AcDbDictionary
280
     1
  3
ADSK_XREC_LAYER_RECONCILED
360
1595
  0
DICTIONARY
  5
1596
330
2BA
100
AcDbDictionary
280
     1
  3
ADSK_XREC_LAYER_RECONCILED
360
1597
  0
DICTIONARY
  5
159A
330
3FA
100
AcDbDictionary
280
     1
  3
ADSK_XREC_LAYER_RECONCILED
360
159B
  0
DICTIONARY
  5
215D
330
2
100
AcDbDictionary
280
     1
  3
ACAD_LAYOUTSELFREF
360
2A8B
  3
ACAD_SORTENTS
360
215E
  0
DICTIONARY
  5
2A8C
330
2A64
100
AcDbDictionary
280
     1
  3
ACAD_LAYOUTSELFREF
360
2A8D
  0
DICTIONARY
  5
832
102
{ACAD_REACTORS
330
7
102
}
330
7
100
AcDbDictionary
  0
DICTIONARY
  5
75
102
{ACAD_REACTORS
330
7
102
}
330
7
100
AcDbDictionary
  0
DICTIONARY
  5
61
102
{ACAD_REACTORS
330
7
102
}
330
7
100
AcDbDictionary
  0
DICTIONARY
  5
808
102
{ACAD_REACTORS
330
7
102
}
330
7
100
AcDbDictionary
  3
BYBLOCK
350
811
  3
BYLAYER
350
809
  3
GLOBAL
350
819
  0
DICTIONARY
  5
857
102
{ACAD_REACTORS
330
7
102
}
330
7
100
AcDbDictionary
  3
STANDARD
350
858
  0
DICTIONARY
  5
76
102
{ACAD_REACTORS
330
7
102
}
330
7
100
AcDbDictionary
  3
STANDARD
350
78
  0
DICTIONARY
  5
77
102
{ACAD_REACTORS
330
7
102
}
330
7
100
AcDbDictionary
  0
ACDBDICTIONARYWDFLT
  5
6
102
{ACAD_REACTORS
330
7
102
}
330
7
100
AcDbDictionary
281
     1
  3
Normal
350
5
100
AcDbDictionaryWithDefault
340
5
  0
DICTIONARY
  5
835
102
{ACAD_REACTORS
330
7
102
}
330
7
100
AcDbDictionary
  3
A0
350
836
  3
A1
350
837
  3
A2
350
838
  3
A3
350
839
  3
A4
350
83A
  3
A5
350
83B
  3
A6
350
83C
  3
A7
350
83D
  3
A8
350
83E
  3
A9
350
83F
  3
B0
350
840
  3
B1
350
841
  3
B2
350
842
  3
B3
350
843
  3
B4
350
844
  3
B5
350
845
  3
B6
350
846
  3
B7
350
847
  3
B8
350
848
  3
B9
350
849
  3
C0
350
84A
  3
C1
350
84B
  3
C2
350
84C
  3
C3
350
84D
  3
C4
350
84E
  3
C5
350
84F
  3
C6
350
850
  3
C7
350
851
  3
C8
350
852
  3
C9
350
853
  3
D0
350
854
  3
D1
350
855
  3
D2
350
856
  0
DICTIONARY
  5
833
102
{ACAD_REACTORS
330
7
102
}
330
7
100
AcDbDictionary
  3
STANDARD
350
834
  0
DICTIONARY
  5
821
102
{ACAD_REACTORS
330
7
102
}
330
7
100
AcDbDictionary
  3
2DWIREFRAME
350
827
  3
3D_HIDDEN
350
829
  3
3DWIREFRAME
350
828
  3
BASIC
350
826
  3
BRIGHTEN
350
82D
  3
COLORCHANGE
350
831
  3
CONCEPTUAL
350
82A
  3
DIM
350
82C
  3
FACEPATTERN
350
830
  3
FLAT
350
822
  3
FLATWITHEDGES
350
823
  3
GOURAUD
350
824
  3
GOURAUDWITHEDGES
350
825
  3
LINEPATTERN
350
82F
  3
REALISTIC
350
82B
  3
THICKEN
350
82E
  0
XRECORD
  5
480
102
{ACAD_REACTORS
330
7
102
}
330
7
100
AcDbXrecord
 90
   990106
  3

 60
     0
 61
     0
 62
     1
 63
     3
 64
     1
 65
     0
 66
     0
 67
     3
 68
     1
 69
     0
 70
     0
 71
     0
 72
     0
 40
0.0
170
     2
340
0
  0
XRECORD
  5
88E
102
{ACAD_REACTORS
330
7
102
}
330
7
100
AcDbXrecord
 90
        1
330
834
  0
DICTIONARY
  5
2A6A
102
{ACAD_REACTORS
330
7
102
}
330
7
100
AcDbDictionary
  3
CEPSNTYPE
350
2A74
  3
DIMSTYLEDATA
350
2A78
  3
FINGERPRINTGUID
350
2A75
  3
HYPERLINKBASE
350
2A6D
  3
INSUNITS
350
2A73
  3
LAYOUTDICT
350
2A6F
  3
LWETCUNION
350
2A72
  3
PLOTSETDICT
350
2A70
  3
PLOTSTYLNAMDICT
350
2A71
  3
PSVPSCALE
350
2A77
  3
PUCSBASE
350
2A7B
  3
PUCSORGBACK
350
2A81
  3
PUCSORGBOTTOM
350
2A7D
  3
PUCSORGFRONT
350
2A80
  3
PUCSORGLEFT
350
2A7E
  3
PUCSORGRIGHT
350
2A7F
  3
PUCSORGTOP
350
2A7C
  3
PUCSORTHOREF
350
2A79
  3
PUCSORTHOVIEW
350
2A7A
  3
STYLESHEET
350
2A6E
  3
TSTACKALIGN
350
2A6B
  3
TSTACKSIZE
350
2A6C
  3
UCSBASE
350
2A84
  3
UCSORGBACK
350
2A8A
  3
UCSORGBOTTOM
350
2A86
  3
UCSORGFRONT
350
2A89
  3
UCSORGLEFT
350
2A87
  3
UCSORGRIGHT
350
2A88
  3
UCSORGTOP
350
2A85
  3
UCSORTHOREF
350
2A82
  3
UCSORTHOVIEW
350
2A83
  3
VERSIONGUID
350
2A76
  0
DICTIONARY
  5
102
102
{ACAD_REACTORS
330
7
102
}
330
7
100
AcDbDictionary
  3
CANNOSCALE
350
892
  3
CMLEADERSTYLE
350
890
  3
CTABLESTYLE
350
88F
  3
DIMASSOC
350
103
  3
INDEXCTL
350
1E7C
  3
LIGHTINGUNITS
350
893
  3
MSLTSCALE
350
891
  3
SORTENTS
350
549
  0
XRECORD
  5
2A39
102
{ACAD_REACTORS
330
7
102
}
330
7
100
AcDbXrecord
  1
DWGPROPS COOKIE
  2

  3

  4

  6

  7

  8
knsuzuki
  9

300
=
301
=
302
=
303
=
304
=
305
=
306
=
307
=
308
=
309
=
 40
0.1048020023148148
 41
2454889.364024514
 42
2454904.431482928
  1

 90
        0
  0
XRECORD
  5
2A3D
102
{ACAD_REACTORS
330
1E6F
102
}
330
1E6F
100
AcDbXrecord
102
VTR_0.000_0.000_1.000_1.000_VISUALSTYLE
340
827
102
VTR_0.000_0.000_1.000_1.000_GRIDDISPLAY
 70
     3
102
VTR_0.000_0.000_1.000_1.000_GRIDMAJOR
 70
     5
102
VTR_0.000_0.000_1.000_1.000_DEFAULTLIGHTING
280
     1
102
VTR_0.000_0.000_1.000_1.000_DEFAULTLIGHTINGTYPE
 70
     1
102
VTR_0.000_0.000_1.000_1.000_BRIGHTNESS
141
0.0
102
VTR_0.000_0.000_1.000_1.000_CONTRAST
142
0.0
  0
DICTIONARY
  5
86C
102
{ACAD_REACTORS
330
86B
102
}
330
86B
100
AcDbDictionary
  0
XRECORD
  5
158D
102
{ACAD_REACTORS
330
158C
102
}
330
158C
100
AcDbXrecord
290
     1
  0
XRECORD
  5
158F
102
{ACAD_REACTORS
330
158E
102
}
330
158E
100
AcDbXrecord
290
     1
  0
XRECORD
  5
1595
102
{ACAD_REACTORS
330
1594
102
}
330
1594
100
AcDbXrecord
290
     1
  0
XRECORD
  5
1597
102
{ACAD_REACTORS
330
1596
102
}
330
1596
100
AcDbXrecord
290
     1
  0
XRECORD
  5
159B
102
{ACAD_REACTORS
330
159A
102
}
330
159A
100
AcDbXrecord
290
     1
  0
XRECORD
  5
2A8B
102
{ACAD_REACTORS
330
215D
102
}
330
215D
100
AcDbXrecord
340
2
  0
SORTENTSTABLE
  5
215E
102
{ACAD_REACTORS
330
215D
102
}
330
215D
100
AcDbSortentsTable
330
2
331
16A2
  5
16FD
331
1711
  5
1744
331
1828
  5
1870
331
AD0
  5
AD0
331
AD1
  5
AD1
331
AF0
  5
AF1
331
1676
  5
16B8
331
AD2
  5
AD2
331
AF1
  5
AF2
331
B40
  5
B41
331
AF2
  5
AF3
331
AD3
  5
AD3
331
1775
  5
1828
331
B58
  5
B5A
331
B41
  5
B42
331
AF3
  5
AF4
331
AD4
  5
AD4
331
B78
  5
B79
331
B42
  5
B43
331
AF4
  5
AF5
331
AD5
  5
AD5
331
B98
  5
B99
331
B79
  5
B7A
331
B5A
  5
B5B
331
B43
  5
B44
331
AF5
  5
AF6
331
AD6
  5
AD6
331
1634
  5
1676
331
16D2
  5
1727
331
BB8
  5
BB9
331
B99
  5
B9A
331
B7A
  5
B7B
331
B5B
  5
B5C
331
B44
  5
B45
331
AF6
  5
AF7
331
AD7
  5
AD7
331
BD0
  5
BD1
331
BB9
  5
BBA
331
B9A
  5
B9B
331
B7B
  5
B7C
331
B5C
  5
B5D
331
B45
  5
B46
331
B26
  5
B27
331
AF7
  5
AF8
331
AD8
  5
AD8
331
BF0
  5
BF1
331
BD1
  5
BD2
331
BBA
  5
BBB
331
B9B
  5
B9C
331
B7C
  5
B7D
331
B5D
  5
B5E
331
B46
  5
B47
331
B27
  5
B2A
331
AF8
  5
AF9
331
AD9
  5
AD9
331
C10
  5
C11
331
BF1
  5
BF2
331
BD2
  5
BD3
331
BBB
  5
BBC
331
B9C
  5
B9D
331
B7D
  5
B7E
331
B5E
  5
B5F
331
B47
  5
B48
331
AF9
  5
AFA
331
ADA
  5
ADA
331
F58
  5
F59
331
C11
  5
C12
331
BF2
  5
BF3
331
BD3
  5
BD4
331
BBC
  5
BBD
331
B9D
  5
B9E
331
B7E
  5
B7F
331
B48
  5
B49
331
AFA
  5
AFB
331
ADB
  5
ADB
331
B5F
  5
B60
331
F70
  5
F71
331
F59
  5
F5A
331
C12
  5
C13
331
BF3
  5
BF4
331
BD4
  5
BD5
331
BBD
  5
BBE
331
B9E
  5
B9F
331
B7F
  5
B80
331
B60
  5
B61
331
B2A
  5
B2B
331
AFB
  5
AFC
331
ADC
  5
ADC
331
B49
  5
B4A
331
1727
  5
174B
331
F90
  5
F91
331
F71
  5
F72
331
F5A
  5
F5B
331
C13
  5
C14
331
BF4
  5
BF5
331
BD5
  5
BD6
331
BBE
  5
BBF
331
B9F
  5
BA0
331
B80
  5
B81
331
B61
  5
B62
331
B2B
  5
B2D
331
AFC
  5
AFD
331
ADD
  5
ADD
331
B4A
  5
B4B
331
FB0
  5
FB1
331
F91
  5
F92
331
F72
  5
F73
331
F5B
  5
F5C
331
C14
  5
C15
331
BF5
  5
BF6
331
BD6
  5
BD7
331
BBF
  5
BC0
331
BA0
  5
BA1
331
B81
  5
B82
331
B62
  5
B63
331
ADE
  5
ADE
331
AFD
  5
AFE
331
B4B
  5
B4C
331
FD0
  5
FD1
331
F92
  5
F93
331
F73
  5
F74
331
F5C
  5
F5D
331
C15
  5
C16
331
BF6
  5
BF7
331
BD7
  5
BD8
331
BA1
  5
BA2
331
B82
  5
B83
331
B63
  5
B64
331
B2D
  5
B2E
331
AFE
  5
AFF
331
ADF
  5
ADF
331
B4C
  5
B4D
331
BC0
  5
BC1
331
FB1
  5
FB2
331
1850
  5
1883
331
FB2
  5
FB3
331
F93
  5
F94
331
F74
  5
F75
331
F5D
  5
F5E
331
C16
  5
F41
331
BF7
  5
BF9
331
BD8
  5
BD9
331
BA2
  5
BA3
331
B83
  5
B84
331
B64
  5
B65
331
B2E
  5
B2F
331
AFF
  5
B00
331
AE0
  5
AE0
331
B4D
  5
B4E
331
BC1
  5
BC2
331
FD1
  5
FD2
331
FE8
  5
FE9
331
FD2
  5
FD3
331
F94
  5
F95
331
F75
  5
F76
331
F5E
  5
F5F
331
BD9
  5
BDA
331
BA3
  5
BA4
331
B84
  5
B85
331
B65
  5
B66
331
B2F
  5
B30
331
AE1
  5
AE1
331
B00
  5
B01
331
B4E
  5
B4F
331
BC2
  5
BC3
331
FB3
  5
FB4
331
FE9
  5
FEA
331
1899
  5
18FD
331
FB4
  5
FB5
331
F76
  5
F77
331
F5F
  5
F60
331
BF9
  5
BFA
331
BDA
  5
BDB
331
BA4
  5
BA5
331
B85
  5
B86
331
B66
  5
B67
331
B30
  5
B31
331
AE2
  5
AE2
331
B01
  5
B02
331
B4F
  5
B50
331
BC3
  5
BC4
331
F95
  5
F96
331
FD3
  5
FD4
331
FEA
  5
FEB
331
FD4
  5
FD5
331
F77
  5
F78
331
BFA
  5
BFB
331
BDB
  5
BDC
331
BA5
  5
BA6
331
B86
  5
B87
331
B50
  5
B51
331
B67
  5
B68
331
AE3
  5
AE3
331
B02
  5
B03
331
B31
  5
B32
331
BC4
  5
BC5
331
F60
  5
F61
331
F96
  5
F97
331
FB5
  5
FB6
331
FEB
  5
FEC
331
100A
  5
100B
331
1050
  5
1051
331
FB6
  5
FB7
331
F78
  5
F79
331
F42
  5
F43
331
BFB
  5
BFC
331
BDC
  5
BDD
331
BA6
  5
BA7
331
B87
  5
B88
331
B51
  5
B52
331
B68
  5
B69
331
B03
  5
B04
331
AE4
  5
AE4
331
B32
  5
B33
331
BC5
  5
BC6
331
F61
  5
F62
331
F97
  5
F98
331
FD5
  5
FD6
331
FEC
  5
FED
331
100B
  5
100C
331
1051
  5
1052
331
1068
  5
1069
331
1E89
  5
1E8C
331
FD6
  5
FD7
331
F79
  5
F7A
331
F43
  5
F44
331
BFC
  5
BFD
331
BDD
  5
BDE
331
BA7
  5
BA8
331
B88
  5
B89
331
B52
  5
B53
331
AE5
  5
AE5
331
B04
  5
B05
331
B33
  5
B34
331
B69
  5
B6A
331
F62
  5
F63
331
F98
  5
F99
331
FB7
  5
FB8
331
1088
  5
1089
331
1052
  5
1053
331
FED
  5
FEE
331
100C
  5
100D
331
1033
  5
1034
331
1069
  5
106A
331
21A1
  5
21A1
331
1E8A
  5
1EA2
331
21C8
  5
21C8
331
F99
  5
F9A
331
F7A
  5
F7B
331
F44
  5
F45
331
BFD
  5
BFE
331
BDE
  5
BDF
331
BA8
  5
BA9
331
B53
  5
B54
331
B6A
  5
B6B
331
B05
  5
B06
331
AE6
  5
AE6
331
B34
  5
B35
331
B89
  5
B8A
331
BC7
  5
BC8
331
F63
  5
F64
331
FB8
  5
FB9
331
FD7
  5
FD8
331
FEE
  5
FEF
331
100D
  5
100E
331
1034
  5
1035
331
1053
  5
1054
331
106A
  5
106B
331
1089
  5
108A
331
10A8
  5
10A9
331
21A2
  5
21A2
331
1E8B
  5
1EC1
331
19DC
  5
1AB0
331
1935
  5
19B0
331
21C9
  5
21C9
331
F7B
  5
F7C
331
F45
  5
F46
331
BFE
  5
BFF
331
BC8
  5
BC9
331
BDF
  5
BE0
331
B8A
  5
B8B
331
B54
  5
B55
331
B35
  5
B36
331
AE7
  5
AE7
331
B06
  5
B07
331
B6B
  5
B6C
331
BA9
  5
BAA
331
F64
  5
F65
331
F9A
  5
F9B
331
FB9
  5
FBA
331
FD8
  5
FD9
331
1054
  5
1055
331
FEF
  5
FF0
331
100E
  5
100F
331
1035
  5
1036
331
106B
  5
106C
331
108A
  5
108B
331
10A9
  5
10AA
331
10C8
  5
10CA
331
21A3
  5
21A3
331
1E8C
  5
1EF2
331
F9B
  5
F9C
331
F7C
  5
F7D
331
F46
  5
F47
331
BFF
  5
C00
331
BC9
  5
BCA
331
BE0
  5
BE1
331
BAA
  5
BAB
331
B55
  5
B56
331
B6C
  5
B6D
331
AE8
  5
AE8
331
B07
  5
B08
331
B36
  5
B37
331
B8B
  5
B8C
331
F65
  5
F66
331
FBA
  5
FBB
331
FD9
  5
FDA
331
10E0
  5
10E2
331
FF0
  5
FF1
331
100F
  5
1010
331
1036
  5
1037
331
1055
  5
1056
331
106C
  5
106D
331
108B
  5
108C
331
10AA
  5
10AB
331
10C9
  5
10CB
331
21A4
  5
21A4
331
FBB
  5
FBC
331
F7D
  5
F7E
331
F47
  5
F48
331
BCA
  5
BCB
331
B8C
  5
B8D
331
B56
  5
B57
331
AE9
  5
AE9
331
B08
  5
B09
331
B37
  5
B38
331
B6D
  5
B6E
331
BAB
  5
BAC
331
BE1
  5
BE2
331
C00
  5
C01
331
F66
  5
F67
331
F9C
  5
F9D
331
FDA
  5
FDB
331
FF1
  5
FF2
331
1010
  5
1011
331
1037
  5
1038
331
1056
  5
1057
331
106D
  5
106E
331
108C
  5
108D
331
10AB
  5
10AC
331
10CA
  5
10CC
331
10E1
  5
10E3
331
1100
  5
1102
331
21A5
  5
21A5
331
F9D
  5
F9E
331
F7E
  5
F7F
331
BCB
  5
BCC
331
BE2
  5
BE3
331
BAC
  5
BAD
331
B57
  5
B58
331
B09
  5
B0A
331
AEA
  5
AEA
331
B38
  5
B39
331
B6E
  5
B6F
331
B8D
  5
B8E
331
C01
  5
C02
331
F48
  5
F49
331
F67
  5
F68
331
FBC
  5
FBD
331
FDB
  5
FDC
331
1101
  5
1103
331
FF2
  5
FF3
331
1011
  5
1012
331
1038
  5
1039
331
1057
  5
1058
331
106E
  5
106F
331
108D
  5
108E
331
10AC
  5
10AD
331
10CB
  5
10CD
331
10E2
  5
10E4
331
1120
  5
1122
331
21A6
  5
21A7
331
FBD
  5
FBE
331
F68
  5
F69
331
F7F
  5
F80
331
F49
  5
F4A
331
C02
  5
C03
331
BCC
  5
BCD
331
BE3
  5
BE4
331
BAD
  5
BAE
331
B8E
  5
B8F
331
B39
  5
B3A
331
B0A
  5
B0B
331
AEB
  5
AEB
331
B6F
  5
B70
331
F9E
  5
F9F
331
FDC
  5
FDD
331
1140
  5
1142
331
1058
  5
1059
331
FF3
  5
FF4
331
1012
  5
1013
331
1039
  5
103A
331
106F
  5
1070
331
108E
  5
108F
331
10AD
  5
10AE
331
10CC
  5
10CE
331
10E3
  5
10E5
331
1102
  5
1104
331
1121
  5
1123
331
21A7
  5
21A8
331
18E3
  5
18FF
331
F9F
  5
FA0
331
F69
  5
F6A
331
F80
  5
F81
331
F4A
  5
F4B
331
C03
  5
C04
331
BCD
  5
BCE
331
BE4
  5
BE5
331
BAE
  5
BAF
331
B70
  5
B71
331
B3A
  5
B3B
331
B0B
  5
B0C
331
AEC
  5
AEC
331
B8F
  5
B90
331
FBE
  5
FBF
331
FDD
  5
FDE
331
1070
  5
1071
331
FF4
  5
FF5
331
1013
  5
1014
331
103A
  5
103B
331
1059
  5
105A
331
108F
  5
1090
331
10AE
  5
10AF
331
10CD
  5
10CF
331
10E4
  5
10E6
331
1103
  5
1105
331
1122
  5
1124
331
1141
  5
1143
331
1158
  5
115A
331
21A8
  5
21A9
331
FBF
  5
FC0
331
FA0
  5
FA1
331
F6A
  5
F6B
331
F81
  5
F82
331
F4B
  5
F4C
331
C04
  5
C05
331
BCE
  5
BCF
331
BE5
  5
BE6
331
B90
  5
B91
331
B71
  5
B72
331
B3B
  5
B3C
331
AED
  5
AEE
331
B0C
  5
B0D
331
BAF
  5
BB0
331
FDE
  5
FDF
331
1260
  5
1263
331
1071
  5
1072
331
FF5
  5
FF6
331
1014
  5
1016
331
103B
  5
103C
331
105A
  5
105B
331
1090
  5
1091
331
10AF
  5
10B0
331
10CE
  5
10D0
331
10E5
  5
10E7
331
1104
  5
1106
331
1123
  5
1125
331
1142
  5
1144
331
1159
  5
115B
331
A78
  5
A78
331
21A9
  5
21AA
331
FDF
  5
FE0
331
FC0
  5
FC1
331
FA1
  5
FA2
331
F6B
  5
F6C
331
F82
  5
F83
331
F4C
  5
F4D
331
C05
  5
C06
331
BCF
  5
BD0
331
BB0
  5
BB1
331
B91
  5
B92
331
B72
  5
B73
331
B3C
  5
B3D
331
B0D
  5
B0E
331
AEE
  5
AEF
331
BE6
  5
BE7
331
1261
  5
1264
331
1072
  5
1073
331
FF6
  5
FF7
331
103C
  5
103D
331
105B
  5
105C
331
1091
  5
1092
331
10B0
  5
10B1
331
10CF
  5
10D1
331
10E6
  5
10E8
331
1105
  5
1107
331
1124
  5
1126
331
1143
  5
1145
331
115A
  5
115C
331
A79
  5
A79
331
A98
  5
A98
331
186F
  5
1899
331
21AA
  5
21AB
331
FE0
  5
FE1
331
FC1
  5
FC2
331
FA2
  5
FA3
331
F6C
  5
F6D
331
F83
  5
F84
331
F4D
  5
F4E
331
C06
  5
C07
331
BB1
  5
BB2
331
B92
  5
B93
331
B73
  5
B74
331
B3D
  5
B3E
331
AEF
  5
AF0
331
B0E
  5
B0F
331
BE7
  5
BE8
331
1262
  5
15BF
331
10E7
  5
10E9
331
1073
  5
1074
331
FF7
  5
FF8
331
1016
  5
1018
331
103D
  5
103E
331
105C
  5
105D
331
1092
  5
1093
331
10B1
  5
10B2
331
10D0
  5
10D2
331
1106
  5
1108
331
1125
  5
1127
331
1144
  5
1146
331
115B
  5
115D
331
A7A
  5
A7A
331
A99
  5
A99
331
AB8
  5
AB8
331
1870
  5
18AF
331
21AB
  5
21AC
331
FE1
  5
FE2
331
FC2
  5
FC3
331
FA3
  5
FA4
331
F6D
  5
F6E
331
F84
  5
F85
331
F4E
  5
F4F
331
BE8
  5
BE9
331
BB2
  5
BB3
331
B93
  5
B94
331
B74
  5
B75
331
B3E
  5
B3F
331
B0F
  5
B26
331
C07
  5
C08
331
1263
  5
15ED
331
10E8
  5
10EA
331
1074
  5
1075
331
103E
  5
103F
331
FF8
  5
FF9
331
105D
  5
105E
331
1093
  5
1094
331
10B2
  5
10B3
331
10D1
  5
10D3
331
1107
  5
1109
331
1126
  5
1128
331
1145
  5
1147
331
115C
  5
115E
331
A7B
  5
A7B
331
A9A
  5
A9A
331
AB9
  5
AB9
331
21AC
  5
21AD
331
FE2
  5
FE3
331
FC3
  5
FC4
331
FA4
  5
FA5
331
F6E
  5
F6F
331
F85
  5
F86
331
C08
  5
C09
331
BE9
  5
BEA
331
BB3
  5
BB4
331
B94
  5
B95
331
B75
  5
B76
331
B3F
  5
B40
331
F4F
  5
F50
331
1264
  5
1612
331
10E9
  5
10EB
331
1075
  5
1076
331
103F
  5
1040
331
1018
  5
101A
331
FF9
  5
FFA
331
105E
  5
105F
331
1094
  5
1095
331
10B3
  5
10B4
331
10D2
  5
10D4
331
1108
  5
110A
331
1127
  5
1129
331
1146
  5
1148
331
115D
  5
115F
331
A7C
  5
A7C
331
A9B
  5
A9B
331
ABA
  5
ABA
331
21AD
  5
21AE
331
FE3
  5
FE4
331
FC4
  5
FC5
331
FA5
  5
FA6
331
F6F
  5
F70
331
F50
  5
F51
331
C09
  5
C0A
331
BEA
  5
BEB
331
BB4
  5
BB5
331
B95
  5
B96
331
B76
  5
B77
331
F86
  5
F87
331
10EA
  5
10EC
331
1076
  5
1077
331
1040
  5
1041
331
FFA
  5
FFB
331
105F
  5
1060
331
1095
  5
1096
331
10B4
  5
10B5
331
10D3
  5
10D5
331
1109
  5
110B
331
1128
  5
112A
331
1147
  5
1149
331
115E
  5
1160
331
A7D
  5
A7D
331
A9C
  5
A9C
331
ABB
  5
ABB
331
21AE
  5
21AF
331
21DD
  5
21DD
331
FE4
  5
FE5
331
FC5
  5
FC6
331
FA6
  5
FA7
331
F51
  5
F52
331
C0A
  5
C0B
331
BEB
  5
BEC
331
BB5
  5
BB6
331
B96
  5
B97
331
B77
  5
B78
331
F87
  5
F88
331
115F
  5
1161
331
10EB
  5
10ED
331
1077
  5
1078
331
1096
  5
1097
331
10B5
  5
10B6
331
10D4
  5
10D6
331
110A
  5
110C
331
1129
  5
112B
331
1148
  5
114A
331
A7E
  5
A7E
331
A9D
  5
A9D
331
ABC
  5
ABC
331
1041
  5
1042
331
101A
  5
101C
331
FFB
  5
FFC
331
1060
  5
1061
331
199A
  5
19DC
331
2178
  5
2178
331
21AF
  5
21B0
331
21DE
  5
21DE
331
FE5
  5
FE6
331
FC6
  5
FC7
331
F88
  5
F89
331
F52
  5
F53
331
C0B
  5
C0C
331
BEC
  5
BED
331
BB6
  5
BB7
331
B97
  5
B98
331
FA7
  5
FA8
331
1160
  5
1162
331
112A
  5
112C
331
10EC
  5
10EE
331
1097
  5
1098
331
1078
  5
1079
331
10B6
  5
10B7
331
10D5
  5
10D7
331
110B
  5
110D
331
1149
  5
114B
331
A7F
  5
A7F
331
A9E
  5
A9E
331
ABD
  5
ABD
331
1042
  5
1043
331
FFC
  5
FFD
331
1061
  5
1062
331
2179
  5
2179
331
21B0
  5
21B1
331
21DF
  5
21DF
331
FE6
  5
FE7
331
F89
  5
F8A
331
F53
  5
F54
331
C0C
  5
C0D
331
BED
  5
BEE
331
BB7
  5
BB8
331
FA8
  5
FA9
331
FC7
  5
FC8
331
1161
  5
1163
331
110C
  5
110E
331
10ED
  5
10EF
331
10B7
  5
10B8
331
1098
  5
1099
331
1079
  5
107A
331
10D6
  5
10D8
331
112B
  5
112D
331
114A
  5
114C
331
A9F
  5
A9F
331
ABE
  5
ABE
331
1043
  5
1044
331
101C
  5
101E
331
FFD
  5
FFE
331
1062
  5
1063
331
217A
  5
217A
331
18FD
  5
191C
331
21B1
  5
21B2
331
21E0
  5
21E0
331
FC8
  5
FC9
331
FA9
  5
FAA
331
F8A
  5
F8B
331
BEE
  5
BEF
331
C0D
  5
C0E
331
FE7
  5
FE8
331
1162
  5
1164
331
112C
  5
112E
331
10EE
  5
10F0
331
10B8
  5
10B9
331
1099
  5
109A
331
107A
  5
107B
331
10D7
  5
10D9
331
110D
  5
110F
331
114B
  5
114D
331
A81
  5
A81
331
AA0
  5
AA0
331
ABF
  5
ABF
331
1044
  5
1045
331
FFE
  5
FFF
331
1063
  5
1064
331
217B
  5
217B
331
18FE
  5
192C
331
21B2
  5
21B3
331
21E1
  5
21E1
331
FC9
  5
FCA
331
FAA
  5
FAB
331
F8B
  5
F8C
331
F55
  5
F56
331
C0E
  5
C0F
331
BEF
  5
BF0
331
AC0
  5
AC0
331
1163
  5
1165
331
110E
  5
1110
331
10EF
  5
10F1
331
112D
  5
112F
331
114C
  5
114E
331
A82
  5
A82
331
AA1
  5
AA1
331
10B9
  5
10BA
331
109A
  5
109B
331
107B
  5
107C
331
10D8
  5
10DA
331
1045
  5
1046
331
101E
  5
1028
331
FFF
  5
1000
331
1064
  5
1065
331
217C
  5
217C
331
18FF
  5
1933
331
21E2
  5
21E3
331
FCA
  5
FCB
331
FAB
  5
FAC
331
F8C
  5
F8D
331
F56
  5
F57
331
C0F
  5
C10
331
1164
  5
1166
331
112E
  5
1130
331
110F
  5
1111
331
10F0
  5
10F2
331
114D
  5
114F
331
A83
  5
A83
331
AA2
  5
AA2
331
10BA
  5
10BB
331
109B
  5
109C
331
107C
  5
107D
331
1046
  5
1047
331
1065
  5
1066
331
10D9
  5
10DB
331
1000
  5
1001
331
217D
  5
217E
331
21E3
  5
21E4
331
FCB
  5
FCC
331
FAC
  5
FAD
331
F8D
  5
F8E
331
F57
  5
F58
331
AC2
  5
AC2
331
1165
  5
1253
331
112F
  5
1131
331
1110
  5
1112
331
10F1
  5
10F3
331
114E
  5
1150
331
A65
  5
A65
331
A84
  5
A84
331
AA3
  5
AA3
331
10BB
  5
10BC
331
109C
  5
109D
331
107D
  5
107E
331
1047
  5
1048
331
1066
  5
1067
331
10DA
  5
10DC
331
1028
  5
1029
331
1001
  5
1002
331
217E
  5
217F
331
21E4
  5
21E5
331
19B0
  5
1A2D
331
FCC
  5
FCD
331
FAD
  5
FAE
331
F8E
  5
F8F
331
1166
  5
1254
331
1130
  5
1132
331
1111
  5
1113
331
10F2
  5
10F4
331
114F
  5
1151
331
A66
  5
A66
331
A85
  5
A85
331
AA4
  5
AA4
331
10BC
  5
10BD
331
109D
  5
109E
331
107E
  5
107F
331
1067
  5
1068
331
10DB
  5
10DD
331
1048
  5
1049
331
1029
  5
102A
331
1002
  5
1004
331
217F
  5
2180
331
21E5
  5
21E6
331
1883
  5
18E3
331
FAE
  5
FAF
331
F8F
  5
F90
331
FCD
  5
FCE
331
AC4
  5
AC4
331
A67
  5
A67
331
A86
  5
A86
331
AA5
  5
AA5
331
10F3
  5
10F5
331
1112
  5
1114
331
1131
  5
1133
331
107F
  5
1080
331
109E
  5
109F
331
10BD
  5
10BE
331
10DC
  5
10DE
331
1150
  5
1152
331
102A
  5
1033
331
1049
  5
104A
331
21E6
  5
21E7
331
2180
  5
2181
331
FCE
  5
FCF
331
FAF
  5
FB0
331
A87
  5
A87
331
A68
  5
A68
331
AA6
  5
AA6
331
AC5
  5
AC5
331
10F4
  5
10F6
331
1113
  5
1115
331
1132
  5
1134
331
109F
  5
10A0
331
10BE
  5
10BF
331
10DD
  5
10DF
331
1151
  5
1153
331
1004
  5
100A
331
104A
  5
104B
331
1080
  5
1081
331
21E7
  5
21E8
331
2181
  5
2182
331
FCF
  5
FD0
331
164A
  5
168C
331
AA7
  5
AA7
331
A69
  5
A69
331
A88
  5
A88
331
AC6
  5
AC6
331
10F5
  5
10F7
331
1114
  5
1116
331
1133
  5
1135
331
10BF
  5
10C0
331
10DE
  5
10E0
331
1152
  5
1154
331
104B
  5
104C
331
1081
  5
1082
331
10A0
  5
10A1
331
2182
  5
2183
331
21E8
  5
21E9
331
1252
  5
1255
331
A6A
  5
A6A
331
A89
  5
A89
331
AA8
  5
AA8
331
AC7
  5
AC7
331
10F6
  5
10F8
331
1115
  5
1117
331
1134
  5
1136
331
10DF
  5
10E1
331
1153
  5
1155
331
104C
  5
104D
331
1082
  5
1083
331
10A1
  5
10A2
331
10C0
  5
10C1
331
2183
  5
2184
331
21C2
  5
21C2
331
21E9
  5
21EA
331
15ED
  5
164A
331
AC8
  5
AC8
331
1253
  5
1256
331
A6B
  5
A6B
331
A8A
  5
A8A
331
AA9
  5
AA9
331
10F7
  5
10F9
331
1116
  5
1118
331
1135
  5
1137
331
1154
  5
1156
331
104D
  5
104E
331
1083
  5
1084
331
10A2
  5
10A3
331
10C1
  5
10C3
331
2184
  5
2185
331
21C3
  5
21C3
331
17D1
  5
1850
331
AC9
  5
AC9
331
1254
  5
1257
331
A6C
  5
A6C
331
A8B
  5
A8B
331
AAA
  5
AAA
331
1117
  5
1119
331
1136
  5
1138
331
1155
  5
1157
331
104E
  5
104F
331
1084
  5
1085
331
10A3
  5
10A4
331
10C2
  5
10C4
331
10F8
  5
10FA
331
2185
  5
2186
331
21C4
  5
21C4
331
ACA
  5
ACA
331
1255
  5
1258
331
A6D
  5
A6D
331
A8C
  5
A8C
331
AAB
  5
AAB
331
1137
  5
1139
331
1156
  5
1158
331
104F
  5
1050
331
1085
  5
1086
331
10A4
  5
10A5
331
10C3
  5
10C5
331
10F9
  5
10FB
331
1118
  5
111A
331
2186
  5
2187
331
21C5
  5
21C5
331
16FD
  5
1743
331
ACB
  5
ACB
331
1256
  5
1259
331
A6E
  5
A6E
331
A8D
  5
A8D
331
AAC
  5
AAC
331
1157
  5
1159
331
1086
  5
1087
331
10A5
  5
10A6
331
10C4
  5
10C6
331
10FA
  5
10FC
331
1119
  5
111B
331
1138
  5
113A
331
2187
  5
2188
331
21C6
  5
21C6
331
1660
  5
16A2
331
ACC
  5
ACC
331
1257
  5
125A
331
A6F
  5
A6F
331
A8E
  5
A8E
331
AAD
  5
AAD
331
10FB
  5
10FD
331
1087
  5
1088
331
10A6
  5
10A7
331
10C5
  5
10C7
331
111A
  5
1120
331
1139
  5
113B
331
21C7
  5
21C7
331
ACD
  5
ACD
331
A8F
  5
A8F
331
AAE
  5
AAE
331
1258
  5
125B
331
113A
  5
113C
331
10A7
  5
10A8
331
10C6
  5
10C8
331
10FC
  5
10FE
331
111B
  5
1121
331
A70
  5
A70
331
ACE
  5
ACE
331
AAF
  5
AAF
331
1259
  5
125C
331
10C7
  5
10C9
331
10FD
  5
10FF
331
113B
  5
113D
331
A71
  5
A71
331
ACF
  5
ACF
331
125A
  5
125D
331
113C
  5
113E
331
10FE
  5
1100
331
A91
  5
A91
331
AB0
  5
AB0
331
125B
  5
125E
331
113D
  5
113F
331
10FF
  5
1101
331
A73
  5
A73
331
A92
  5
A92
331
AB1
  5
AB1
331
15BF
  5
1634
331
168C
  5
16D2
331
1809
  5
186F
331
125C
  5
125F
331
113E
  5
1140
331
A74
  5
A74
331
A93
  5
A93
331
AB2
  5
AB2
331
1743
  5
174C
331
125D
  5
1260
331
113F
  5
1141
331
A75
  5
A75
331
A94
  5
A94
331
AB3
  5
AB3
331
1744
  5
174D
331
125E
  5
1261
331
A76
  5
A76
331
A95
  5
A95
331
AB4
  5
AB4
331
125F
  5
1262
331
A77
  5
A77
331
A96
  5
A96
331
AB5
  5
AB5
331
1612
  5
1660
331
A97
  5
A97
331
AB6
  5
AB6
331
AB7
  5
AB7
  0
XRECORD
  5
2A8D
102
{ACAD_REACTORS
330
2A8C
102
}
330
2A8C
100
AcDbXrecord
340
2A64
  0
ACAD_PROXY_OBJECT
  5
811
102
{ACAD_XDICTIONARY
360
812
102
}
102
{ACAD_REACTORS
330
808
102
}
330
808
100
AcDbProxyObject
 90
      499
 91
      512
 93
     1340
310
42109E509B1BD8DAC02004014080404555555555555953FAA155555555555654FEA9AA400014080404555555555555953FAA155555555555654FEA9AA400000000000000E03F4080404555555555555953FAA155555555555654FEA9AA4014080404555555555555953FAA155555555555654FEA9AA4010201011555555555
310
55654FEA8555555555555953FAA6A9005020101155555555555654FEA8555555555555953FAA6A9001
 94
        0
1001
ACAD
1000
AcadProxyRoundTripData
1071
      504
1071
   851991
1070
     0
  0
ACAD_PROXY_OBJECT
  5
809
102
{ACAD_XDICTIONARY
360
80A
102
}
102
{ACAD_REACTORS
330
808
102
}
330
808
100
AcDbProxyObject
 90
      499
 91
      512
 93
     1340
310
42109E53185E595C802004014080404555555555555953FAA155555555555654FEA9AA400014080404555555555555953FAA155555555555654FEA9AA400000000000000E03F4080404555555555555953FAA155555555555654FEA9AA4014080404555555555555953FAA155555555555654FEA9AA4010201011555555555
310
55654FEA8555555555555953FAA6A9005020101155555555555654FEA8555555555555953FAA6A9001
 94
        0
1001
ACAD
1000
AcadProxyRoundTripData
1071
      504
1071
   851991
1070
     0
  0
ACAD_PROXY_OBJECT
  5
819
102
{ACAD_XDICTIONARY
360
81A
102
}
102
{ACAD_REACTORS
330
808
102
}
330
808
100
AcDbProxyObject
 90
      499
 91
      512
 93
     1332
310
41D1DB1BD8985B002004014080404555555555555953FAA155555555555654FEA9AA400014080404555555555555953FAA155555555555654FEA9AA400000000000000E03F4080404555555555555953FAA155555555555654FEA9AA4014080404555555555555953FAA155555555555654FEA9AA401020101155555555555
310
654FEA8555555555555953FAA6A9005020101155555555555654FEA8555555555555953FAA6A9000
 94
        0
1001
ACAD
1000
AcadProxyRoundTripData
1071
      504
1071
   851991
1070
     0
  0
ACAD_PROXY_OBJECT
  5
858
102
{ACAD_REACTORS
330
857
102
}
330
857
100
AcDbProxyObject
 90
      499
 91
      512
 93
      618
310
40901902A4063FBFFFFFE056BD1B81E855B9FC0AD7A3703D0AD73F4254DD185B99185C990000AD7A3703D0AC73F90141901A02B5E8DC0F42B1CFC02B5E8DC0F42B1CFE5764000000000000300FC6
340
6A
340
0
340
16
340
0
 94
        0
1001
ACAD_MLEADERVER
1070
     2
1001
ACAD
1000
AcadProxyRoundTripData
1071
      508
1071
   851991
1070
     0
  0
MLINESTYLE
  5
78
102
{ACAD_REACTORS
330
76
102
}
330
76
100
AcDbMlineStyle
  2
STANDARD
 70
     0
  3

 62
     0
 51
90.0
 52
90.0
 71
     2
 49
0.5
 62
   256
  6
BYLAYER
 49
-0.5
 62
   256
  6
BYLAYER
  0
ACDBPLACEHOLDER
  5
5
102
{ACAD_REACTORS
330
6
102
}
330
6
100
AcDbPlaceHolder
280
     0
  0
ACAD_PROXY_OBJECT
  5
836
102
{ACAD_REACTORS
330
835
102
}
330
835
100
AcDbProxyObject
 90
      499
 91
      512
 93
       49
310
904313A3100598
 94
        0
1001
ACAD
1000
AcadProxyRoundTripData
1071
      507
1071
   851991
1070
     0
  0
ACAD_PROXY_OBJECT
  5
837
102
{ACAD_REACTORS
330
835
102
}
330
835
100
AcDbProxyObject
 90
      499
 91
      512
 93
      113
310
904313A3200400000000000000406B
 94
        0
1001
ACAD
1000
AcadProxyRoundTripData
1071
      507
1071
   851991
1070
     0
  0
ACAD_PROXY_OBJECT
  5
838
102
{ACAD_REACTORS
330
835
102
}
330
835
100
AcDbProxyObject
 90
      499
 91
      512
 93
      113
310
904313A3400400000000000010406B
 94
        0
1001
ACAD
1000
AcadProxyRoundTripData
1071
      507
1071
   851991
1070
     0
  0
ACAD_PROXY_OBJECT
  5
839
102
{ACAD_REACTORS
330
835
102
}
330
835
100
AcDbProxyObject
 90
      499
 91
      512
 93
      113
310
904313A3500400000000000014406B
 94
        0
1001
ACAD
1000
AcadProxyRoundTripData
1071
      507
1071
   851991
1070
     0
  0
ACAD_PROXY_OBJECT
  5
83A
102
{ACAD_REACTORS
330
835
102
}
330
835
100
AcDbProxyObject
 90
      499
 91
      512
 93
      113
310
904313A3800400000000000020406B
 94
        0
1001
ACAD
1000
AcadProxyRoundTripData
1071
      507
1071
   851991
1070
     0
  0
ACAD_PROXY_OBJECT
  5
83B
102
{ACAD_REACTORS
330
835
102
}
330
835
100
AcDbProxyObject
 90
      499
 91
      512
 93
      121
310
905313A3130004000000000000244051
 94
        0
1001
ACAD
1000
AcadProxyRoundTripData
1071
      507
1071
   851991
1070
     0
  0
ACAD_PROXY_OBJECT
  5
83C
102
{ACAD_REACTORS
330
835
102
}
330
835
100
AcDbProxyObject
 90
      499
 91
      512
 93
      121
310
905313A3136004000000000000304051
 94
        0
1001
ACAD
1000
AcadProxyRoundTripData
1071
      507
1071
   851991
1070
     0
  0
ACAD_PROXY_OBJECT
  5
83D
102
{ACAD_REACTORS
330
835
102
}
330
835
100
AcDbProxyObject
 90
      499
 91
      512
 93
      121
310
905313A3230004000000000000344051
 94
        0
1001
ACAD
1000
AcadProxyRoundTripData
1071
      507
1071
   851991
1070
     0
  0
ACAD_PROXY_OBJECT
  5
83E
102
{ACAD_REACTORS
330
835
102
}
330
835
100
AcDbProxyObject
 90
      499
 91
      512
 93
      121
310
905313A33300040000000000003E4051
 94
        0
1001
ACAD
1000
AcadProxyRoundTripData
1071
      507
1071
   851991
1070
     0
  0
ACAD_PROXY_OBJECT
  5
83F
102
{ACAD_REACTORS
330
835
102
}
330
835
100
AcDbProxyObject
 90
      499
 91
      512
 93
      121
310
905313A3430004000000000000444051
 94
        0
1001
ACAD
1000
AcadProxyRoundTripData
1071
      507
1071
   851991
1070
     0
  0
ACAD_PROXY_OBJECT
  5
840
102
{ACAD_REACTORS
330
835
102
}
330
835
100
AcDbProxyObject
 90
      499
 91
      512
 93
      121
310
905313A3530004000000000000494051
 94
        0
1001
ACAD
1000
AcadProxyRoundTripData
1071
      507
1071
   851991
1070
     0
  0
ACAD_PROXY_OBJECT
  5
841
102
{ACAD_REACTORS
330
835
102
}
330
835
100
AcDbProxyObject
 90
      499
 91
      512
 93
      129
310
906313A313030004000000000000594038
 94
        0
1001
ACAD
1000
AcadProxyRoundTripData
1071
      507
1071
   851991
1070
     0
  0
ACAD_PROXY_OBJECT
  5
842
102
{ACAD_REACTORS
330
835
102
}
330
835
100
AcDbProxyObject
 90
      499
 91
      512
 93
      113
310
904323A31000000000000000010159
 94
        0
1001
ACAD
1000
AcadProxyRoundTripData
1071
      507
1071
   851991
1070
     0
  0
ACAD_PROXY_OBJECT
  5
843
102
{ACAD_REACTORS
330
835
102
}
330
835
100
AcDbProxyObject
 90
      499
 91
      512
 93
      113
310
904343A31000000000000000410159
 94
        0
1001
ACAD
1000
AcadProxyRoundTripData
1071
      507
1071
   851991
1070
     0
  0
ACAD_PROXY_OBJECT
  5
844
102
{ACAD_REACTORS
330
835
102
}
330
835
100
AcDbProxyObject
 90
      499
 91
      512
 93
      113
310
904383A31000000000000000810159
 94
        0
1001
ACAD
1000
AcadProxyRoundTripData
1071
      507
1071
   851991
1070
     0
  0
ACAD_PROXY_OBJECT
  5
845
102
{ACAD_REACTORS
330
835
102
}
330
835
100
AcDbProxyObject
 90
      499
 91
      512
 93
      121
310
90531303A31000000000000000910140
 94
        0
1001
ACAD
1000
AcadProxyRoundTripData
1071
      507
1071
   851991
1070
     0
  0
ACAD_PROXY_OBJECT
  5
846
102
{ACAD_REACTORS
330
835
102
}
330
835
100
AcDbProxyObject
 90
      499
 91
      512
 93
      129
310
9063130303A31000000000000001650138
 94
        0
1001
ACAD
1000
AcadProxyRoundTripData
1071
      507
1071
   851991
1070
     0
  0
ACAD_PROXY_OBJECT
  5
847
102
{ACAD_REACTORS
330
835
102
}
330
835
100
AcDbProxyObject
 90
      499
 91
      512
 93
      265
310
90F312F31323822203D2031272D302200000000000000200FC00000000000028402B
 94
        0
1001
ACAD
1000
AcadProxyRoundTripData
1071
      507
1071
   851991
1070
     0
  0
ACAD_PROXY_OBJECT
  5
848
102
{ACAD_REACTORS
330
835
102
}
330
835
100
AcDbProxyObject
 90
      499
 91
      512
 93
      257
310
90E312F363422203D2031272D302200000000000000240FC000000000000284040
 94
        0
1001
ACAD
1000
AcadProxyRoundTripData
1071
      507
1071
   851991
1070
     0
  0
ACAD_PROXY_OBJECT
  5
849
102
{ACAD_REACTORS
330
835
102
}
330
835
100
AcDbProxyObject
 90
      499
 91
      512
 93
      257
310
90E312F333222203D2031272D302200000000000000280FC000000000000284040
 94
        0
1001
ACAD
1000
AcadProxyRoundTripData
1071
      507
1071
   851991
1070
     0
  0
ACAD_PROXY_OBJECT
  5
84A
102
{ACAD_REACTORS
330
835
102
}
330
835
100
AcDbProxyObject
 90
      499
 91
      512
 93
      257
310
90E312F313622203D2031272D3022000000000000002C0FC000000000000284040
 94
        0
1001
ACAD
1000
AcadProxyRoundTripData
1071
      507
1071
   851991
1070
     0
  0
ACAD_PROXY_OBJECT
  5
84B
102
{ACAD_REACTORS
330
835
102
}
330
835
100
AcDbProxyObject
 90
      499
 91
      512
 93
      257
310
90E332F333222203D2031272D3022000000000000002E0FC000000000000284040
 94
        0
1001
ACAD
1000
AcadProxyRoundTripData
1071
      507
1071
   851991
1070
     0
  0
ACAD_PROXY_OBJECT
  5
84C
102
{ACAD_REACTORS
330
835
102
}
330
835
100
AcDbProxyObject
 90
      499
 91
      512
 93
      249
310
90D312F3822203D2031272D302200000000000000300FC000000000000284040
 94
        0
1001
ACAD
1000
AcadProxyRoundTripData
1071
      507
1071
   851991
1070
     0
  0
ACAD_PROXY_OBJECT
  5
84D
102
{ACAD_REACTORS
330
835
102
}
330
835
100
AcDbProxyObject
 90
      499
 91
      512
 93
      257
310
90E332F313622203D2031272D302200000000000000320FC000000000000284040
 94
        0
1001
ACAD
1000
AcadProxyRoundTripData
1071
      507
1071
   851991
1070
     0
  0
ACAD_PROXY_OBJECT
  5
84E
102
{ACAD_REACTORS
330
835
102
}
330
835
100
AcDbProxyObject
 90
      499
 91
      512
 93
      249
310
90D312F3422203D2031272D302200000000000000340FC000000000000284040
 94
        0
1001
ACAD
1000
AcadProxyRoundTripData
1071
      507
1071
   851991
1070
     0
  0
ACAD_PROXY_OBJECT
  5
84F
102
{ACAD_REACTORS
330
835
102
}
330
835
100
AcDbProxyObject
 90
      499
 91
      512
 93
      249
310
90D332F3822203D2031272D302200000000000000360FC000000000000284040
 94
        0
1001
ACAD
1000
AcadProxyRoundTripData
1071
      507
1071
   851991
1070
     0
  0
ACAD_PROXY_OBJECT
  5
850
102
{ACAD_REACTORS
330
835
102
}
330
835
100
AcDbProxyObject
 90
      499
 91
      512
 93
      249
310
90D312F3222203D2031272D302200000000000000380FC000000000000284040
 94
        0
1001
ACAD
1000
AcadProxyRoundTripData
1071
      507
1071
   851991
1070
     0
  0
ACAD_PROXY_OBJECT
  5
851
102
{ACAD_REACTORS
330
835
102
}
330
835
100
AcDbProxyObject
 90
      499
 91
      512
 93
      249
310
90D332F3422203D2031272D3022000000000000003A0FC000000000000284040
 94
        0
1001
ACAD
1000
AcadProxyRoundTripData
1071
      507
1071
   851991
1070
     0
  0
ACAD_PROXY_OBJECT
  5
852
102
{ACAD_REACTORS
330
835
102
}
330
835
100
AcDbProxyObject
 90
      499
 91
      512
 93
      169
310
90B3122203D2031272D3022004000000000000284020
 94
        0
1001
ACAD
1000
AcadProxyRoundTripData
1071
      507
1071
   851991
1070
     0
  0
ACAD_PROXY_OBJECT
  5
853
102
{ACAD_REACTORS
330
835
102
}
330
835
100
AcDbProxyObject
 90
      499
 91
      512
 93
      265
310
90F312D312F3222203D2031272D3022000000000000003E0FC00000000000028402B
 94
        0
1001
ACAD
1000
AcadProxyRoundTripData
1071
      507
1071
   851991
1070
     0
  0
ACAD_PROXY_OBJECT
  5
854
102
{ACAD_REACTORS
330
835
102
}
330
835
100
AcDbProxyObject
 90
      499
 91
      512
 93
      233
310
90B3322203D2031272D30220000000000000002100000000000000284000
 94
        0
1001
ACAD
1000
AcadProxyRoundTripData
1071
      507
1071
   851991
1070
     0
  0
ACAD_PROXY_OBJECT
  5
855
102
{ACAD_REACTORS
330
835
102
}
330
835
100
AcDbProxyObject
 90
      499
 91
      512
 93
      233
310
90B3622203D2031272D30220000000000000006100000000000000284000
 94
        0
1001
ACAD
1000
AcadProxyRoundTripData
1071
      507
1071
   851991
1070
     0
  0
ACAD_PROXY_OBJECT
  5
856
102
{ACAD_REACTORS
330
835
102
}
330
835
100
AcDbProxyObject
 90
      499
 91
      512
 93
      257
310
90E31272D3022203D2031272D3022000000000000000A100000000000000284040
 94
        0
1001
ACAD
1000
AcadProxyRoundTripData
1071
      507
1071
   851991
1070
     0
  0
ACAD_PROXY_OBJECT
  5
834
102
{ACAD_XDICTIONARY
360
88C
102
}
102
{ACAD_REACTORS
330
833
102
}
330
833
100
AcDbProxyObject
 90
      499
 91
      512
 93
     1849
310
4254DD185B99185C990028B81E85EB51B8AE3F2E07A17AD46E2B8FC02B5E8DC0F42B1CFD028000000C1008070000C3001FDFF8000000C1003FBFF000000182007F7FE00000030400FEFFC00000060801FDFF8000000C1003FBFF00000018200000000000000681FA0B0000001820100E000186003FBFF000000182007F7FE0
310
0000030400FEFFC00000060801FDFF8000000C1003FBFF000000182007F7FE000000304000AD7A3703D0AC73F4160000003040201C00030C007F7FE00000030400FEFFC00000060801FDFF8000000C1003FBFF000000182007F7FE00000030400FEFFC000000608021
340
16
340
16
340
16
 94
        0
1001
ACAD
1000
AcadProxyRoundTripData
1071
      506
1071
   851991
1070
     0
  0
ACAD_PROXY_OBJECT
  5
827
102
{ACAD_REACTORS
330
821
102
}
330
821
100
AcDbProxyObject
 90
      499
 91
      512
 93
      444
310
430C9915DA5C99599C985B59401049028333333333333E3BF0000000000000FB0107901411070040501600405405064090741402480A0340
 94
        0
1001
ACAD
1000
AcDbSavedByObjectVersion
1070
     0
1000
AcadProxyRoundTripData
1071
      505
1071
   851991
1070
     0
  0
ACAD_PROXY_OBJECT
  5
829
102
{ACAD_REACTORS
330
821
102
}
330
821
100
AcDbProxyObject
 90
      499
 91
      512
 93
      508
310
428CD108121A5919195B8010640502408333333333333E3BF0000000000000FB01079024090700405020000000000001110200405405064090740C02480A0340
 94
        0
1001
ACAD
1000
AcDbSavedByObjectVersion
1070
     0
1000
AcadProxyRoundTripData
1071
      505
1071
   851991
1070
     0
  0
ACAD_PROXY_OBJECT
  5
828
102
{ACAD_REACTORS
330
821
102
}
330
821
100
AcDbProxyObject
 90
      499
 91
      512
 93
      444
310
430CD915DA5C99599C985B59401059028333333333333E3BF0000000000000FB0107901411070040501600405405064090741402480A0340
 94
        0
1001
ACAD
1000
AcDbSavedByObjectVersion
1070
     0
1000
AcadProxyRoundTripData
1071
      505
1071
   851991
1070
     0
  0
ACAD_PROXY_OBJECT
  5
826
102
{ACAD_REACTORS
330
821
102
}
330
821
100
AcDbProxyObject
 90
      499
 91
      512
 93
      396
310
4190985CDA58C0107406404333333333333E3BF0000000000000FB0107A41107004050150841D405064090741402480A0356
 94
        0
1001
ACAD
1000
AcDbSavedByObjectVersion
1070
     0
1000
AcadProxyRoundTripData
1071
      505
1071
   851991
1070
     0
  0
ACAD_PROXY_OBJECT
  5
82D
102
{ACAD_REACTORS
330
821
102
}
330
821
100
AcDbProxyObject
 90
      499
 91
      512
 93
      436
310
42509C9A59DA1D195B8010C409028333333333333E3BF0000000000000FB010790141107004050150841D405064090741402480A029956
 94
        0
1001
ACAD
1000
AcDbSavedByObjectVersion
1070
     0
1000
AcadProxyRoundTripData
1071
      505
1071
   851991
1070
     0
  0
ACAD_PROXY_OBJECT
  5
831
102
{ACAD_REACTORS
330
821
102
}
330
821
100
AcDbProxyObject
 90
      499
 91
      512
 93
      460
310
4310DBDB1BDC90DA185B99D9401104090240C333333333333E3BF0000000000000FB0108901411070040501508421405064090741402480A0354
 94
        0
1001
ACAD
1000
AcDbSavedByObjectVersion
1070
     0
1000
AcadProxyRoundTripData
1071
      505
1071
   851991
1070
     0
  0
ACAD_PROXY_OBJECT
  5
82A
102
{ACAD_REACTORS
330
821
102
}
330
821
100
AcDbProxyObject
 90
      499
 91
      512
 93
      508
310
42D0DBDB98D95C1D1D585B0010940D028333333333333E3BF0000000000000FB0107902409070040501000000000000111010841D405064090740C02480A0340
 94
        0
1001
ACAD
1000
AcDbSavedByObjectVersion
1070
     0
1000
AcadProxyRoundTripData
1071
      505
1071
   851991
1070
     0
  0
ACAD_PROXY_OBJECT
  5
82C
102
{ACAD_REACTORS
330
821
102
}
330
821
100
AcDbProxyObject
 90
      499
 91
      512
 93
      420
310
41111A5B4010B409028333333333333E3BF0000000000000FB010790141107004050150841D405064090741402480A02677FFFFFDB
 94
        0
1001
ACAD
1000
AcDbSavedByObjectVersion
1070
     0
1000
AcadProxyRoundTripData
1071
      505
1071
   851991
1070
     0
  0
ACAD_PROXY_OBJECT
  5
830
102
{ACAD_REACTORS
330
821
102
}
330
821
100
AcDbProxyObject
 90
      499
 91
      512
 93
      452
310
43119858D95C185D1D195C9B8010F409028333333333333E3BF0000000000000FB010790141107004050150841D405064090741402480A0350
 94
        0
1001
ACAD
1000
AcDbSavedByObjectVersion
1070
     0
1000
AcadProxyRoundTripData
1071
      505
1071
   851991
1070
     0
  0
ACAD_PROXY_OBJECT
  5
822
102
{ACAD_REACTORS
330
821
102
}
330
821
100
AcDbProxyObject
 90
      499
 91
      512
 93
      396
310
41519B185D00240901404333333333333E3BF0000000000000F9010740A41107004050150841D405064090741402480A1B55
 94
        0
1001
ACAD
1000
AcDbSavedByObjectVersion
1070
     0
1000
AcadProxyRoundTripData
1071
      505
1071
   851991
1070
     0
  0
ACAD_PROXY_OBJECT
  5
823
102
{ACAD_REACTORS
330
821
102
}
330
821
100
AcDbProxyObject
 90
      499
 91
      512
 93
      484
310
43919B185D15DA5D1A115919D95CC010140901404333333333333E3BF0000000000000F9010740901411070040501600405405064090741402480A1B50
 94
        0
1001
ACAD
1000
AcDbSavedByObjectVersion
1070
     0
1000
AcadProxyRoundTripData
1071
      505
1071
   851991
1070
     0
  0
ACAD_PROXY_OBJECT
  5
824
102
{ACAD_REACTORS
330
821
102
}
330
821
100
AcDbProxyObject
 90
      499
 91
      512
 93
      420
310
4211DBDD5C985D590010240902404333333333333E3BF0000000000000F9010740A411070040501641D405064090741402480A1B50
 94
        0
1001
ACAD
1000
AcDbSavedByObjectVersion
1070
     0
1000
AcadProxyRoundTripData
1071
      505
1071
   851991
1070
     0
  0
ACAD_PROXY_OBJECT
  5
825
102
{ACAD_REACTORS
330
821
102
}
330
821
100
AcDbProxyObject
 90
      499
 91
      512
 93
      508
310
4451DBDD5C985D5915DA5D1A115919D95CC010340902404333333333333E3BF0000000000000F9010740901411070040501600405405064090741402480A1B50
 94
        0
1001
ACAD
1000
AcDbSavedByObjectVersion
1070
     0
1000
AcadProxyRoundTripData
1071
      505
1071
   851991
1070
     0
  0
ACAD_PROXY_OBJECT
  5
82F
102
{ACAD_REACTORS
330
821
102
}
330
821
100
AcDbProxyObject
 90
      499
 91
      512
 93
      452
310
43131A5B995C185D1D195C9B8010E409028333333333333E3BF0000000000000FB010790141107004050750841D405064090741402483A0350
 94
        0
1001
ACAD
1000
AcDbSavedByObjectVersion
1070
     0
1000
AcadProxyRoundTripData
1071
      505
1071
   851991
1070
     0
  0
ACAD_PROXY_OBJECT
  5
82B
102
{ACAD_REACTORS
330
821
102
}
330
821
100
AcDbProxyObject
 90
      499
 91
      512
 93
      428
310
429499585B1A5CDD1A58C0108409028333333333333E3BF0000000000000FB01079019070040501508421405064090741402480A1B45
 94
        0
1001
ACAD
1000
AcDbSavedByObjectVersion
1070
     0
1000
AcadProxyRoundTripData
1071
      505
1071
   851991
1070
     0
  0
ACAD_PROXY_OBJECT
  5
82E
102
{ACAD_REACTORS
330
821
102
}
330
821
100
AcDbProxyObject
 90
      499
 91
      512
 93
      420
310
42151A1A58DAD95B8010D409028333333333333E3BF0000000000000FB010790141107004050150C41D405064090741402480A0352
 94
        0
1001
ACAD
1000
AcDbSavedByObjectVersion
1070
     0
1000
AcadProxyRoundTripData
1071
      505
1071
   851991
1070
     0
  0
XRECORD
  5
2A74
102
{ACAD_REACTORS
330
2A6A
102
}
330
2A6A
100
AcDbXrecord
 90
        0
  0
XRECORD
  5
2A78
102
{ACAD_REACTORS
330
2A6A
102
}
330
2A6A
100
AcDbXrecord
1000
DSTYLE
1002
{
1070
   179
 70
     2
1070
   277
 70
     6
1002
}
  0
XRECORD
  5
2A75
102
{ACAD_REACTORS
330
2A6A
102
}
330
2A6A
100
AcDbXrecord
  1
{472D1F85-08F4-40FF-8A32-FC4D8F4268D4}
  0
XRECORD
  5
2A6D
102
{ACAD_REACTORS
330
2A6A
102
}
330
2A6A
100
AcDbXrecord
  1

  0
XRECORD
  5
2A73
102
{ACAD_REACTORS
330
2A6A
102
}
330
2A6A
100
AcDbXrecord
 90
        0
  0
XRECORD
  5
2A6F
102
{ACAD_REACTORS
330
2A6A
102
}
330
2A6A
100
AcDbXrecord
340
61
  0
XRECORD
  5
2A72
102
{ACAD_REACTORS
330
2A6A
102
}
330
2A6A
100
AcDbXrecord
 90
    10781
  0
XRECORD
  5
2A70
102
{ACAD_REACTORS
330
2A6A
102
}
330
2A6A
100
AcDbXrecord
340
77
  0
XRECORD
  5
2A71
102
{ACAD_REACTORS
330
2A6A
102
}
330
2A6A
100
AcDbXrecord
340
6
  0
XRECORD
  5
2A77
102
{ACAD_REACTORS
330
2A6A
102
}
330
2A6A
100
AcDbXrecord
 40
0.0
  0
XRECORD
  5
2A7B
102
{ACAD_REACTORS
330
2A6A
102
}
330
2A6A
100
AcDbXrecord
340
0
  0
XRECORD
  5
2A81
102
{ACAD_REACTORS
330
2A6A
102
}
330
2A6A
100
AcDbXrecord
 10
0.0
 20
0.0
 30
0.0
  0
XRECORD
  5
2A7D
102
{ACAD_REACTORS
330
2A6A
102
}
330
2A6A
100
AcDbXrecord
 10
0.0
 20
0.0
 30
0.0
  0
XRECORD
  5
2A80
102
{ACAD_REACTORS
330
2A6A
102
}
330
2A6A
100
AcDbXrecord
 10
0.0
 20
0.0
 30
0.0
  0
XRECORD
  5
2A7E
102
{ACAD_REACTORS
330
2A6A
102
}
330
2A6A
100
AcDbXrecord
 10
0.0
 20
0.0
 30
0.0
  0
XRECORD
  5
2A7F
102
{ACAD_REACTORS
330
2A6A
102
}
330
2A6A
100
AcDbXrecord
 10
0.0
 20
0.0
 30
0.0
  0
XRECORD
  5
2A7C
102
{ACAD_REACTORS
330
2A6A
102
}
330
2A6A
100
AcDbXrecord
 10
0.0
 20
0.0
 30
0.0
  0
XRECORD
  5
2A79
102
{ACAD_REACTORS
330
2A6A
102
}
330
2A6A
100
AcDbXrecord
340
0
  0
XRECORD
  5
2A7A
102
{ACAD_REACTORS
330
2A6A
102
}
330
2A6A
100
AcDbXrecord
 70
     0
  0
XRECORD
  5
2A6E
102
{ACAD_REACTORS
330
2A6A
102
}
330
2A6A
100
AcDbXrecord
  1
Sekkei.ctb
  0
XRECORD
  5
2A6B
102
{ACAD_REACTORS
330
2A6A
102
}
330
2A6A
100
AcDbXrecord
 90
        1
  0
XRECORD
  5
2A6C
102
{ACAD_REACTORS
330
2A6A
102
}
330
2A6A
100
AcDbXrecord
 90
       70
  0
XRECORD
  5
2A84
102
{ACAD_REACTORS
330
2A6A
102
}
330
2A6A
100
AcDbXrecord
340
0
  0
XRECORD
  5
2A8A
102
{ACAD_REACTORS
330
2A6A
102
}
330
2A6A
100
AcDbXrecord
 10
0.0
 20
0.0
 30
0.0
  0
XRECORD
  5
2A86
102
{ACAD_REACTORS
330
2A6A
102
}
330
2A6A
100
AcDbXrecord
 10
0.0
 20
0.0
 30
0.0
  0
XRECORD
  5
2A89
102
{ACAD_REACTORS
330
2A6A
102
}
330
2A6A
100
AcDbXrecord
 10
0.0
 20
0.0
 30
0.0
  0
XRECORD
  5
2A87
102
{ACAD_REACTORS
330
2A6A
102
}
330
2A6A
100
AcDbXrecord
 10
0.0
 20
0.0
 30
0.0
  0
XRECORD
  5
2A88
102
{ACAD_REACTORS
330
2A6A
102
}
330
2A6A
100
AcDbXrecord
 10
0.0
 20
0.0
 30
0.0
  0
XRECORD
  5
2A85
102
{ACAD_REACTORS
330
2A6A
102
}
330
2A6A
100
AcDbXrecord
 10
0.0
 20
0.0
 30
0.0
  0
XRECORD
  5
2A82
102
{ACAD_REACTORS
330
2A6A
102
}
330
2A6A
100
AcDbXrecord
340
0
  0
XRECORD
  5
2A83
102
{ACAD_REACTORS
330
2A6A
102
}
330
2A6A
100
AcDbXrecord
 70
     0
  0
XRECORD
  5
2A76
102
{ACAD_REACTORS
330
2A6A
102
}
330
2A6A
100
AcDbXrecord
  1
{59B93B9B-2F6F-4A3B-8E14-8D44365A3C0A}
  0
DICTIONARYVAR
  5
892
102
{ACAD_REACTORS
330
102
102
}
330
102
100
DictionaryVariables
280
     0
  1
1:1
  0
DICTIONARYVAR
  5
890
102
{ACAD_REACTORS
330
102
102
}
330
102
100
DictionaryVariables
280
     0
  1
STANDARD
  0
DICTIONARYVAR
  5
88F
102
{ACAD_REACTORS
330
102
102
}
330
102
100
DictionaryVariables
280
     0
  1
STANDARD
  0
DICTIONARYVAR
  5
103
102
{ACAD_REACTORS
330
102
102
}
330
102
100
DictionaryVariables
280
     0
  1
1
  0
DICTIONARYVAR
  5
1E7C
102
{ACAD_REACTORS
330
102
102
}
330
102
100
DictionaryVariables
280
     0
  1
0
  0
DICTIONARYVAR
  5
893
102
{ACAD_REACTORS
330
102
102
}
330
102
100
DictionaryVariables
280
     0
  1
0
  0
DICTIONARYVAR
  5
891
102
{ACAD_REACTORS
330
102
102
}
330
102
100
DictionaryVariables
280
     0
  1
0
  0
DICTIONARYVAR
  5
549
102
{ACAD_REACTORS
330
102
102
}
330
102
100
DictionaryVariables
280
     0
  1
96
  0
DICTIONARY
  5
812
330
811
100
AcDbDictionary
280
     1
  3
ACAD_XREC_ROUNDTRIP
360
2A41
  3
BUMPTILE
360
814
  3
DIFFUSETILE
360
813
  3
OPACITYTILE
360
817
  3
REFLECTIONTILE
360
816
  3
REFRACTIONTILE
360
818
  3
SPECULARTILE
360
815
  0
DICTIONARY
  5
80A
330
809
100
AcDbDictionary
280
     1
  3
ACAD_XREC_ROUNDTRIP
360
2A40
  3
BUMPTILE
360
80C
  3
DIFFUSETILE
360
80B
  3
OPACITYTILE
360
80F
  3
REFLECTIONTILE
360
80E
  3
REFRACTIONTILE
360
810
  3
SPECULARTILE
360
80D
  0
DICTIONARY
  5
81A
330
819
100
AcDbDictionary
280
     1
  3
ACAD_XREC_ROUNDTRIP
360
2A42
  3
BUMPTILE
360
81C
  3
DIFFUSETILE
360
81B
  3
OPACITYTILE
360
81F
  3
REFLECTIONTILE
360
81E
  3
REFRACTIONTILE
360
820
  3
SPECULARTILE
360
81D
  0
DICTIONARY
  5
88C
330
834
100
AcDbDictionary
280
     1
  3
ACAD_ROUNDTRIP_2008_TABLES
360
2A38
  3
ACAD_XREC_ROUNDTRIP
360
2A43
  0
XRECORD
  5
2A41
102
{ACAD_REACTORS
330
812
102
}
330
812
100
AcDbXrecord
102
MATERIAL
148
0.0
149
0.0
149
0.0
 93
        0
 94
      127
282
     0
 72
     0
 77
     0
171
     0
175
     0
179
     0
273
     0
  0
XRECORD
  5
814
102
{ACAD_REACTORS
330
812
102
}
330
812
100
AcDbXrecord
270
     1
271
     1
  0
XRECORD
  5
813
102
{ACAD_REACTORS
330
812
102
}
330
812
100
AcDbXrecord
270
     1
271
     1
  0
XRECORD
  5
817
102
{ACAD_REACTORS
330
812
102
}
330
812
100
AcDbXrecord
270
     1
271
     1
  0
XRECORD
  5
816
102
{ACAD_REACTORS
330
812
102
}
330
812
100
AcDbXrecord
270
     1
271
     1
  0
XRECORD
  5
818
102
{ACAD_REACTORS
330
812
102
}
330
812
100
AcDbXrecord
270
     1
271
     1
  0
XRECORD
  5
815
102
{ACAD_REACTORS
330
812
102
}
330
812
100
AcDbXrecord
270
     1
271
     1
  0
XRECORD
  5
2A40
102
{ACAD_REACTORS
330
80A
102
}
330
80A
100
AcDbXrecord
102
MATERIAL
148
0.0
149
0.0
149
0.0
 93
        0
 94
      127
282
     0
 72
     0
 77
     0
171
     0
175
     0
179
     0
273
     0
  0
XRECORD
  5
80C
102
{ACAD_REACTORS
330
80A
102
}
330
80A
100
AcDbXrecord
270
     1
271
     1
  0
XRECORD
  5
80B
102
{ACAD_REACTORS
330
80A
102
}
330
80A
100
AcDbXrecord
270
     1
271
     1
  0
XRECORD
  5
80F
102
{ACAD_REACTORS
330
80A
102
}
330
80A
100
AcDbXrecord
270
     1
271
     1
  0
XRECORD
  5
80E
102
{ACAD_REACTORS
330
80A
102
}
330
80A
100
AcDbXrecord
270
     1
271
     1
  0
XRECORD
  5
810
102
{ACAD_REACTORS
330
80A
102
}
330
80A
100
AcDbXrecord
270
     1
271
     1
  0
XRECORD
  5
80D
102
{ACAD_REACTORS
330
80A
102
}
330
80A
100
AcDbXrecord
270
     1
271
     1
  0
XRECORD
  5
2A42
102
{ACAD_REACTORS
330
81A
102
}
330
81A
100
AcDbXrecord
102
MATERIAL
148
0.0
149
0.0
149
0.0
 93
        0
 94
      127
282
     0
 72
     0
 77
     0
171
     0
175
     0
179
     0
273
     0
  0
XRECORD
  5
81C
102
{ACAD_REACTORS
330
81A
102
}
330
81A
100
AcDbXrecord
270
     1
271
     1
  0
XRECORD
  5
81B
102
{ACAD_REACTORS
330
81A
102
}
330
81A
100
AcDbXrecord
270
     1
271
     1
  0
XRECORD
  5
81F
102
{ACAD_REACTORS
330
81A
102
}
330
81A
100
AcDbXrecord
270
     1
271
     1
  0
XRECORD
  5
81E
102
{ACAD_REACTORS
330
81A
102
}
330
81A
100
AcDbXrecord
270
     1
271
     1
  0
XRECORD
  5
820
102
{ACAD_REACTORS
330
81A
102
}
330
81A
100
AcDbXrecord
270
     1
271
     1
  0
XRECORD
  5
81D
102
{ACAD_REACTORS
330
81A
102
}
330
81A
100
AcDbXrecord
270
     1
271
     1
  0
ACAD_PROXY_OBJECT
  5
2A38
102
{ACAD_REACTORS
330
88C
102
}
330
88C
100
AcDbProxyObject
 90
      499
 91
      512
 93
     1044
310
40D054060020000020000003200101A000080002A5058000000C100000000000000340FE901405075F5449544C450041501A8000000C800406800020000A9416000000304000AD7A3703D0AC73FA409014217D2115051115480105406A0000003200101A000080002A5028000000C10002B5E8DC0F42B1CFE903409065F444
310
15441005
340
16
340
16
340
16
 94
        0
1001
ACAD
1000
AcadProxyRoundTripData
1071
      510
1071
   851991
1070
     0
  0
XRECORD
  5
2A43
102
{ACAD_REACTORS
330
88C
102
}
330
88C
100
AcDbXrecord
102
ACAD_ROUNDTRIP_PRE2007_TABLESTYLE
 90
      512
 91
        0
  1

 92
      512
 93
        0
  2

 94
      512
 95
        0
  3

  0
ENDSEC
  0
EOF
