  0
SECTION
  2
HEADER
  9
$ACADVER
  1
AC1014
  9
$ACADMAINTVER
 70
     9
  9
$DWGCODEPAGE
  3
ANSI_932
  9
$INSBASE
 10
0.0
 20
0.0
 30
0.0
  9
$EXTMIN
 10
183.7764536838412
 20
334.2456345049861
 30
0.0
  9
$EXTMAX
 10
1512.506430882163
 20
853.0577374685462
 30
0.0
  9
$LIMMIN
 10
0.0
 20
0.0
  9
$LIMMAX
 10
297.0
 20
210.0
  9
$ORTHOMODE
 70
     0
  9
$REGENMODE
 70
     1
  9
$FILLMODE
 70
     1
  9
$QTEXTMODE
 70
     0
  9
$MIRRTEXT
 70
     0
  9
$DRAGMODE
 70
     2
  9
$LTSCALE
 40
4.0
  9
$OSMODE
 70
    37
  9
$ATTMODE
 70
     1
  9
$TEXTSIZE
 40
2.0
  9
$TRACEWID
 40
1.0
  9
$TEXTSTYLE
  7
STANDARD
  9
$CLAYER
  8
0
  9
$CELTYPE
  6
BYLAYER
  9
$CECOLOR
 62
   256
  9
$CELTSCALE
 40
1.0
  9
$DELOBJ
 70
     1
  9
$DISPSILH
 70
     0
  9
$DIMSCALE
 40
4.0
  9
$DIMASZ
 40
1.8
  9
$DIMEXO
 40
0.625
  9
$DIMDLI
 40
3.75
  9
$DIMRND
 40
0.0
  9
$DIMDLE
 40
0.0
  9
$DIMEXE
 40
0.8
  9
$DIMTP
 40
0.0
  9
$DIMTM
 40
0.0
  9
$DIMTXT
 40
1.8
  9
$DIMCEN
 40
2.5
  9
$DIMTSZ
 40
0.0
  9
$DIMTOL
 70
     0
  9
$DIMLIM
 70
     0
  9
$DIMTIH
 70
     0
  9
$DIMTOH
 70
     0
  9
$DIMSE1
 70
     0
  9
$DIMSE2
 70
     0
  9
$DIMTAD
 70
     1
  9
$DIMZIN
 70
     8
  9
$DIMBLK
  1

  9
$DIMASO
 70
     1
  9
$DIMSHO
 70
     1
  9
$DIMPOST
  1

  9
$DIMAPOST
  1

  9
$DIMALT
 70
     0
  9
$DIMALTD
 70
     4
  9
$DIMALTF
 40
0.0394
  9
$DIMLFAC
 40
1.0
  9
$DIMTOFL
 70
     1
  9
$DIMTVP
 40
0.0
  9
$DIMTIX
 70
     0
  9
$DIMSOXD
 70
     0
  9
$DIMSAH
 70
     0
  9
$DIMBLK1
  1

  9
$DIMBLK2
  1

  9
$DIMSTYLE
  2
STANDARD
  9
$DIMCLRD
 70
     0
  9
$DIMCLRE
 70
     0
  9
$DIMCLRT
 70
     0
  9
$DIMTFAC
 40
1.0
  9
$DIMGAP
 40
0.75
  9
$DIMJUST
 70
     0
  9
$DIMSD1
 70
     0
  9
$DIMSD2
 70
     0
  9
$DIMTOLJ
 70
     1
  9
$DIMTZIN
 70
     0
  9
$DIMALTZ
 70
     0
  9
$DIMALTTZ
 70
     0
  9
$DIMFIT
 70
     3
  9
$DIMUPT
 70
     0
  9
$DIMUNIT
 70
     8
  9
$DIMDEC
 70
     2
  9
$DIMTDEC
 70
     2
  9
$DIMALTU
 70
     8
  9
$DIMALTTD
 70
     4
  9
$DIMTXSTY
  7
STANDARD
  9
$DIMAUNIT
 70
     0
  9
$LUNITS
 70
     2
  9
$LUPREC
 70
     3
  9
$SKETCHINC
 40
1.0
  9
$FILLETRAD
 40
10.0
  9
$AUNITS
 70
     0
  9
$AUPREC
 70
     2
  9
$MENU
  1
.
  9
$ELEVATION
 40
0.0
  9
$PELEVATION
 40
0.0
  9
$THICKNESS
 40
0.0
  9
$LIMCHECK
 70
     0
  9
$BLIPMODE
 70
     0
  9
$CHAMFERA
 40
0.0
  9
$CHAMFERB
 40
0.0
  9
$CHAMFERC
 40
20.0
  9
$CHAMFERD
 40
0.0
  9
$SKPOLY
 70
     0
  9
$TDCREATE
 40
2454889.364024514
  9
$TDUPDATE
 40
2454909.822919224
  9
$TDINDWG
 40
0.1753785069
  9
$TDUSRTIMER
 40
0.1753785069
  9
$USRTIMER
 70
     1
  9
$ANGBASE
 50
0.0
  9
$ANGDIR
 70
     0
  9
$PDMODE
 70
     0
  9
$PDSIZE
 40
-10.0
  9
$PLINEWID
 40
0.0
  9
$COORDS
 70
     1
  9
$SPLFRAME
 70
     0
  9
$SPLINETYPE
 70
     6
  9
$SPLINESEGS
 70
     8
  9
$ATTDIA
 70
     0
  9
$ATTREQ
 70
     1
  9
$HANDLING
 70
 22529
  9
$HANDSEED
  5
4376
  9
$SURFTAB1
 70
     6
  9
$SURFTAB2
 70
     6
  9
$SURFTYPE
 70
     6
  9
$SURFU
 70
     6
  9
$SURFV
 70
     6
  9
$UCSNAME
  2

  9
$UCSORG
 10
0.0
 20
0.0
 30
0.0
  9
$UCSXDIR
 10
1.0
 20
0.0
 30
0.0
  9
$UCSYDIR
 10
0.0
 20
1.0
 30
0.0
  9
$PUCSNAME
  2

  9
$PUCSORG
 10
0.0
 20
0.0
 30
0.0
  9
$PUCSXDIR
 10
1.0
 20
0.0
 30
0.0
  9
$PUCSYDIR
 10
0.0
 20
1.0
 30
0.0
  9
$USERI1
 70
     0
  9
$USERI2
 70
     0
  9
$USERI3
 70
     0
  9
$USERI4
 70
     0
  9
$USERI5
 70
     0
  9
$USERR1
 40
0.0
  9
$USERR2
 40
0.0
  9
$USERR3
 40
0.0
  9
$USERR4
 40
0.0
  9
$USERR5
 40
0.0
  9
$WORLDVIEW
 70
     1
  9
$SHADEDGE
 70
     3
  9
$SHADEDIF
 70
    70
  9
$TILEMODE
 70
     1
  9
$MAXACTVP
 70
    48
  9
$PINSBASE
 10
0.0
 20
0.0
 30
0.0
  9
$PLIMCHECK
 70
     0
  9
$PEXTMIN
 10
0.0
 20
0.0
 30
0.0
  9
$PEXTMAX
 10
0.0
 20
0.0
 30
0.0
  9
$PLIMMIN
 10
0.0
 20
0.0
  9
$PLIMMAX
 10
12.0
 20
9.0
  9
$UNITMODE
 70
     0
  9
$VISRETAIN
 70
     1
  9
$PLINEGEN
 70
     0
  9
$PSLTSCALE
 70
     1
  9
$TREEDEPTH
 70
  3020
  9
$PICKSTYLE
 70
     1
  9
$CMLSTYLE
  2
STANDARD
  9
$CMLJUST
 70
     0
  9
$CMLSCALE
 40
1.0
  9
$PROXYGRAPHICS
 70
     1
  9
$MEASUREMENT
 70
     0
  0
ENDSEC
  0
SECTION
  2
CLASSES
  0
CLASS
  1
DICTIONARYVAR
  2
AcDbDictionaryVar
  3
AutoCAD 2000
 90
        0
280
     0
281
     0
  0
CLASS
  1
ACDBDICTIONARYWDFLT
  2
AcDbDictionaryWithDefault
  3
AutoCAD 2000
 90
        0
280
     0
281
     0
  0
CLASS
  1
ACDBPLACEHOLDER
  2
AcDbPlaceHolder
  3
AutoCAD 2000
 90
        0
280
     0
281
     0
  0
CLASS
  1
LAYOUT
  2
AcDbLayout
  3
AutoCAD 2000
 90
        0
280
     0
281
     0
  0
CLASS
  1
MATERIAL
  2
AcDbMaterial
  3
ObjectDBX Classes
 90
     1153
280
     0
281
     0
  0
CLASS
  1
VISUALSTYLE
  2
AcDbVisualStyle
  3
ObjectDBX Classes
 90
     4095
280
     0
281
     0
  0
CLASS
  1
TABLESTYLE
  2
AcDbTableStyle
  3
ObjectDBX Classes
 90
     4095
280
     0
281
     0
  0
CLASS
  1
SCALE
  2
AcDbScale
  3
ObjectDBX Classes
 90
     1153
280
     0
281
     0
  0
CLASS
  1
MLEADERSTYLE
  2
AcDbMLeaderStyle
  3
ACDB_MLEADERSTYLE_CLASS
 90
     4095
280
     0
281
     0
  0
CLASS
  1
PLOTSETTINGS
  2
AcDbPlotSettings
  3
AutoCAD 2000
 90
        0
280
     0
281
     0
  0
CLASS
  1
CELLSTYLEMAP
  2
AcDbCellStyleMap
  3
ObjectDBX Classes
 90
     1152
280
     0
281
     0
  0
CLASS
  1
SORTENTSTABLE
  2
AcDbSortentsTable
  3
AutoCAD 2000
 90
        0
280
     0
281
     0
  0
CLASS
  1
ACAD_PROXY_OBJECT_WRAPPER
  2
AcDbProxyObjectWrapper
  3
AutoCAD 2000
 90
        0
280
     0
281
     0
  0
CLASS
  1
LONG_TRANSACTION
  2
AcDbLongTransaction
  3
AutoCAD 2000
 90
        0
280
     0
281
     0
  0
CLASS
  1
LWPOLYLINE
  2
AcDbPolyline
  3
AutoCAD 2000
 90
        0
280
     0
281
     1
  0
CLASS
  1
HATCH
  2
AcDbHatch
  3
AutoCAD 2000
 90
        0
280
     0
281
     1
  0
CLASS
  1
XRECORD
  2
AcDbXrecord
  3
AutoCAD 2000
 90
        0
280
     0
281
     0
  0
ENDSEC
  0
SECTION
  2
TABLES
  0
TABLE
  2
VPORT
  5
6E
102
{ACAD_XDICTIONARY
360
1E6F
102
}
330
0
100
AcDbSymbolTable
 70
     2
  0
VPORT
  5
4351
330
6E
100
AcDbSymbolTableRecord
100
AcDbViewportTableRecord
  2
*ACTIVE
 70
     0
 10
0.0
 20
0.0
 11
1.0
 21
1.0
 12
906.0467753454206
 22
577.2614239947715
 13
0.0
 23
0.0
 14
10.0
 24
10.0
 15
10.0
 25
10.0
 16
0.0
 26
0.0
 36
1.0
 17
0.0
 27
0.0
 37
0.0
 40
910.204103911102
 41
1.593429158110883
 42
50.0
 43
0.0
 44
0.0
 50
0.0
 51
0.0
 71
     0
 72
   100
 73
     1
 74
     3
 75
     0
 76
     0
 77
     0
 78
     0
  0
ENDTAB
  0
TABLE
  2
LTYPE
  5
69
330
0
100
AcDbSymbolTable
 70
     8
  0
LTYPE
  5
6A
330
69
100
AcDbSymbolTableRecord
100
AcDbLinetypeTableRecord
  2
BYBLOCK
 70
     0
  3

 72
    65
 73
     0
 40
0.0
  0
LTYPE
  5
6B
330
69
100
AcDbSymbolTableRecord
100
AcDbLinetypeTableRecord
  2
BYLAYER
 70
     0
  3

 72
    65
 73
     0
 40
0.0
  0
LTYPE
  5
8
330
69
100
AcDbSymbolTableRecord
100
AcDbLinetypeTableRecord
  2
CONTINUOUS
 70
     0
  3
Solid line
 72
    65
 73
     0
 40
0.0
  0
LTYPE
  5
27C
330
69
100
AcDbSymbolTableRecord
100
AcDbLinetypeTableRecord
  2
SEKKEI_A2_
 70
     0
  3
center(A2)  ____ _ ____ _ ____ _ ____ _ ____ _ 
 72
    65
 73
     4
 40
14.28749999999999
 49
9.525
 74
     0
 49
-1.587499999999999
 74
     0
 49
1.587499999999999
 74
     0
 49
-1.587499999999999
 74
     0
  0
LTYPE
  5
2B4
330
69
100
AcDbSymbolTableRecord
100
AcDbLinetypeTableRecord
  2
HIDDEN2
 70
     0
  3
Hidden (.5x) _ _ _ _ _ _ _ _ _ _ _ _ _ _ _ _ _
 72
    65
 73
     2
 40
4.762499999999999
 49
3.174999999999999
 74
     0
 49
-1.587499999999999
 74
     0
  0
LTYPE
  5
48F
330
69
100
AcDbSymbolTableRecord
100
AcDbLinetypeTableRecord
  2
SEKKEI_H
 70
     0
  3
Hidden-S _ _ _ _ _ _ _ _ _ _ _ _ _ _ _ _ _
 72
    65
 73
     2
 40
2.381249999999999
 49
1.587499999999999
 74
     0
 49
-0.79375
 74
     0
  0
LTYPE
  5
54A
330
69
100
AcDbSymbolTableRecord
100
AcDbLinetypeTableRecord
  2
CENTERX2
 70
     0
  3
Center (2x) ________  __  ________  __  _____
 72
    65
 73
     4
 40
4.0
 49
2.5
 74
     0
 49
-0.5
 74
     0
 49
0.5
 74
     0
 49
-0.5
 74
     0
  0
LTYPE
  5
3CD9
330
69
100
AcDbSymbolTableRecord
100
AcDbLinetypeTableRecord
  2
CENTER_小_
 70
     0
  3
Center  _______  __  ________  __  _____
 72
    65
 73
     4
 40
8.8
 49
5.5
 74
     0
 49
-1.1
 74
     0
 49
1.1
 74
     0
 49
-1.1
 74
     0
  0
ENDTAB
  0
TABLE
  2
LAYER
  5
66
102
{ACAD_XDICTIONARY
360
86B
102
}
330
0
100
AcDbSymbolTable
 70
    10
  0
LAYER
  5
5E
102
{ACAD_XDICTIONARY
360
158C
102
}
330
66
100
AcDbSymbolTableRecord
100
AcDbLayerTableRecord
  2
0
 70
     0
 62
     7
  6
CONTINUOUS
  0
LAYER
  5
3E
102
{ACAD_XDICTIONARY
360
158E
102
}
330
66
100
AcDbSymbolTableRecord
100
AcDbLayerTableRecord
  2
CENTER
 70
     0
 62
     3
  6
SEKKEI_A2_
  0
LAYER
  5
2B5
102
{ACAD_XDICTIONARY
360
1594
102
}
330
66
100
AcDbSymbolTableRecord
100
AcDbLayerTableRecord
  2
HIDS
 70
     0
 62
     1
  6
HIDDEN2
  0
LAYER
  5
2BA
102
{ACAD_XDICTIONARY
360
1596
102
}
330
66
100
AcDbSymbolTableRecord
100
AcDbLayerTableRecord
  2
HOJO
 70
     0
 62
     4
  6
CONTINUOUS
  0
LAYER
  5
3FA
102
{ACAD_XDICTIONARY
360
159A
102
}
330
66
100
AcDbSymbolTableRecord
100
AcDbLayerTableRecord
  2
TITLE
 70
     0
 62
     4
  6
CONTINUOUS
  0
ENDTAB
  0
TABLE
  2
STYLE
  5
67
330
0
100
AcDbSymbolTable
 70
     3
  0
STYLE
  5
16
330
67
100
AcDbSymbolTableRecord
100
AcDbTextStyleTableRecord
  2
STANDARD
 70
     0
 40
0.0
 41
1.0
 50
0.0
 71
     0
 42
2.0
  3
simplex.shx
  4
extfont.shx
  0
ENDTAB
  0
TABLE
  2
VIEW
  5
6C
330
0
100
AcDbSymbolTable
 70
     0
  0
ENDTAB
  0
TABLE
  2
UCS
  5
6D
330
0
100
AcDbSymbolTable
 70
     0
  0
ENDTAB
  0
TABLE
  2
APPID
  5
70
330
0
100
AcDbSymbolTable
 70
     7
  0
APPID
  5
71
330
70
100
AcDbSymbolTableRecord
100
AcDbRegAppTableRecord
  2
ACAD
 70
     0
  0
APPID
  5
859
330
70
100
AcDbSymbolTableRecord
100
AcDbRegAppTableRecord
  2
ACAD_MLEADERVER
 70
     0
  0
APPID
  5
866
330
70
100
AcDbSymbolTableRecord
100
AcDbRegAppTableRecord
  2
ACAD_PSEXT
 70
     0
  0
APPID
  5
15AD
330
70
100
AcDbSymbolTableRecord
100
AcDbRegAppTableRecord
  2
ACAD_EXEMPT_FROM_CAD_STANDARDS
 70
     0
  0
APPID
  5
15D5
330
70
100
AcDbSymbolTableRecord
100
AcDbRegAppTableRecord
  2
ACAD_DSTYLE_DIMJAG
 70
     0
  0
APPID
  5
15D6
330
70
100
AcDbSymbolTableRecord
100
AcDbRegAppTableRecord
  2
ACAD_DSTYLE_DIMTALN
 70
     0
  0
APPID
  5
16FC
330
70
100
AcDbSymbolTableRecord
100
AcDbRegAppTableRecord
  2
ACAD_DSTYLE_DIMRADIAL_EXTENSION
 70
     0
  0
ENDTAB
  0
TABLE
  2
DIMSTYLE
  5
72
330
0
100
AcDbSymbolTable
 70
     1
  0
DIMSTYLE
105
73
102
{ACAD_REACTORS
330
1743
330
18FD
102
}
330
72
100
AcDbSymbolTableRecord
100
AcDbDimStyleTableRecord
  2
STANDARD
 70
     0
  3

  4

  5

  6

  7

 40
4.0
 41
1.8
 42
0.625
 43
3.75
 44
0.8
 45
0.0
 46
0.0
 47
0.0
 48
0.0
140
1.8
141
2.5
142
0.0
143
0.0394
144
1.0
145
0.0
146
1.0
147
0.75
 71
     0
 72
     0
 73
     0
 74
     0
 75
     0
 76
     0
 77
     1
 78
     8
170
     0
171
     4
172
     1
173
     0
174
     0
175
     0
176
     0
177
     0
178
     0
270
     8
271
     2
272
     2
273
     8
274
     4
340
16
275
     0
280
     0
281
     0
282
     0
283
     1
284
     0
285
     0
286
     0
287
     3
288
     0
1001
ACAD_DSTYLE_DIMJAG
1070
   388
1040
1.5
1001
ACAD_DSTYLE_DIMTALN
1070
   392
1070
     0
  0
ENDTAB
  0
TABLE
  2
BLOCK_RECORD
  5
1
330
0
100
AcDbSymbolTable
 70
    52
  0
BLOCK_RECORD
  5
2
102
{ACAD_XDICTIONARY
360
2D5C
102
}
330
1
100
AcDbSymbolTableRecord
100
AcDbBlockTableRecord
  2
*MODEL_SPACE
  0
BLOCK_RECORD
  5
434C
102
{ACAD_XDICTIONARY
360
4374
102
}
330
1
100
AcDbSymbolTableRecord
100
AcDbBlockTableRecord
  2
*PAPER_SPACE
  0
ENDTAB
  0
ENDSEC
  0
SECTION
  2
BLOCKS
  0
BLOCK
  5
5D
330
2
100
AcDbEntity
  8
0
100
AcDbBlockBegin
  2
*MODEL_SPACE
 70
     0
 10
0.0
 20
0.0
 30
0.0
  3
*MODEL_SPACE
  1

  0
ENDBLK
  5
5F
330
2
100
AcDbEntity
  8
0
100
AcDbBlockEnd
  0
BLOCK
  5
434E
330
434C
100
AcDbEntity
 67
     1
  8
0
100
AcDbBlockBegin
  2
*PAPER_SPACE
 70
     0
 10
0.0
 20
0.0
 30
0.0
  3
*PAPER_SPACE
  1

  0
ENDBLK
  5
434F
330
434C
100
AcDbEntity
 67
     1
  8
0
100
AcDbBlockEnd
  0
ENDSEC
  0
SECTION
  2
ENTITIES
  0
LINE
  5
A65
330
2
100
AcDbEntity
  8
0
100
AcDbLine
 10
1053.559171748526
 20
469.2456345049879
 30
0.0
 11
1053.559171748526
 21
349.2456345049861
 31
0.0
  0
LINE
  5
B2D
330
2
100
AcDbEntity
  8
0
100
AcDbLine
 10
278.2764536838399
 20
469.245634504988
 30
0.0
 11
278.2764536838399
 21
349.2456345049861
 31
0.0
  0
ARC
  5
F42
330
2
100
AcDbEntity
  8
0
100
AcDbCircle
 10
951.5573282387778
 20
362.525634504982
 30
0.0
 40
2.720000000003957
100
AcDbArc
 50
307.5189678668038
 51
90.0
  0
LINE
  5
F43
330
2
100
AcDbEntity
  8
0
100
AcDbLine
 10
944.9174009987675
 20
365.2456345049863
 30
0.0
 11
951.5573282387778
 21
365.2456345049863
 31
0.0
  0
LINE
  5
F44
330
2
100
AcDbEntity
  8
0
100
AcDbLine
 10
946.4374009987698
 20
357.2456345049745
 30
0.0
 11
948.8373282387732
 21
357.245634504974
 31
0.0
  0
LINE
  5
F45
330
2
100
AcDbEntity
  8
0
100
AcDbLine
 10
946.4374009987698
 20
358.4456345049761
 30
0.0
 11
946.4374009987698
 21
357.2456345049745
 31
0.0
  0
LINE
  5
F46
330
2
100
AcDbEntity
  8
0
100
AcDbLine
 10
944.3974022400945
 20
358.4456345049766
 30
0.0
 11
946.4374009987698
 21
358.4456345049761
 31
0.0
  0
LINE
  5
F47
330
2
100
AcDbEntity
  8
0
100
AcDbLine
 10
944.3974022400945
 20
358.4456345049766
 30
0.0
 11
943.7974022400942
 21
357.2456345049745
 31
0.0
  0
LINE
  5
F48
330
2
100
AcDbEntity
  8
0
100
AcDbLine
 10
940.9174009987621
 20
357.2456345049749
 30
0.0
 11
943.7974022400942
 21
357.2456345049745
 31
0.0
  0
LINE
  5
F49
330
2
100
AcDbEntity
  8
0
100
AcDbLine
 10
945.6774022400971
 20
361.0056345049792
 30
0.0
 11
946.4374009987698
 21
361.0056345049797
 31
0.0
  0
LINE
  5
F4A
330
2
100
AcDbEntity
  8
0
100
AcDbLine
 10
944.9174009987675
 20
365.2456345049863
 30
0.0
 11
940.9174009987621
 21
357.2456345049749
 31
0.0
  0
LINE
  5
F4B
330
2
100
AcDbEntity
  8
0
100
AcDbLine
 10
946.4374009987698
 20
362.5256320223257
 30
0.0
 11
945.6774022400971
 21
361.0056345049792
 31
0.0
  0
LINE
  5
F4C
330
2
100
AcDbEntity
  8
0
100
AcDbLine
 10
946.4374009987698
 20
362.5256320223257
 30
0.0
 11
946.4374009987698
 21
361.0056345049797
 31
0.0
  0
ARC
  5
F4D
330
2
100
AcDbEntity
  8
0
100
AcDbCircle
 10
951.3874009987778
 20
362.3556345049819
 30
0.0
 40
0.1700000000002474
100
AcDbArc
 50
270.0
 51
90.0
  0
LINE
  5
F4E
330
2
100
AcDbEntity
  8
0
100
AcDbLine
 10
949.1774009987732
 20
362.1856345049814
 30
0.0
 11
951.3874009987778
 21
362.1856345049814
 31
0.0
  0
LINE
  5
F4F
330
2
100
AcDbEntity
  8
0
100
AcDbLine
 10
948.8373282387732
 20
362.5256345049824
 30
0.0
 11
951.3874009987759
 21
362.5256345049824
 31
0.0
  0
LINE
  5
F50
330
2
100
AcDbEntity
  8
0
100
AcDbLine
 10
953.2138736184371
 20
360.3682617033669
 30
0.0
 11
955.2009424982918
 21
357.2456345049749
 31
0.0
  0
LINE
  5
F51
330
2
100
AcDbEntity
  8
0
100
AcDbLine
 10
952.3209412569606
 20
357.2456345049745
 30
0.0
 11
955.2009424982918
 21
357.2456345049749
 31
0.0
  0
LINE
  5
F52
330
2
100
AcDbEntity
  8
0
100
AcDbLine
 10
948.8373282387732
 20
362.5256345049824
 30
0.0
 11
948.8373282387732
 21
357.245634504974
 31
0.0
  0
LINE
  5
F53
330
2
100
AcDbEntity
  8
0
100
AcDbLine
 10
949.1774009987732
 20
362.1856345049814
 30
0.0
 11
952.3209412569606
 21
357.2456345049745
 31
0.0
  0
LINE
  5
F55
330
2
100
AcDbEntity
  8
0
100
AcDbLine
 10
1039.559171748527
 20
349.2456345049861
 30
0.0
 11
1053.559171748527
 21
349.2456345049861
 31
0.0
  0
LINE
  5
F56
330
2
100
AcDbEntity
  8
0
100
AcDbLine
 10
1037.559171748527
 20
350.7456345049865
 30
0.0
 11
1037.559171748527
 21
467.7456345049857
 31
0.0
  0
LINE
  5
F57
330
2
100
AcDbEntity
  8
0
100
AcDbLine
 10
1024.059171748527
 20
378.2456345049829
 30
0.0
 11
1024.059171748527
 21
403.2456345049858
 31
0.0
  0
LINE
  5
F58
330
2
100
AcDbEntity
  8
0
100
AcDbLine
 10
1024.059171748527
 20
415.2456345049863
 30
0.0
 11
1024.059171748527
 21
440.2456345049893
 31
0.0
  0
ARC
  5
F59
330
2
100
AcDbEntity
  8
0
100
AcDbCircle
 10
1021.059171748527
 20
403.2456345049858
 30
0.0
 40
3.0
100
AcDbArc
 50
0.0
 51
90.0
  0
ARC
  5
F5A
330
2
100
AcDbEntity
  8
0
100
AcDbCircle
 10
1021.059171748527
 20
415.2456345049863
 30
0.0
 40
3.0
100
AcDbArc
 50
270.0
 51
0.0
  0
ARC
  5
F5B
330
2
100
AcDbEntity
  8
0
100
AcDbCircle
 10
1029.559171748527
 20
451.24563450499
 30
0.0
 40
8.0
100
AcDbArc
 50
270.0
 51
0.0
  0
ARC
  5
F5C
330
2
100
AcDbEntity
  8
0
100
AcDbCircle
 10
1034.559171748526
 20
403.2456345049858
 30
0.0
 40
3.0
100
AcDbArc
 50
0.0
 51
90.0
  0
ARC
  5
F5D
330
2
100
AcDbEntity
  8
0
100
AcDbCircle
 10
1034.559171748527
 20
358.1703737272034
 30
0.0
 40
3.0
100
AcDbArc
 50
0.0
 51
100.0000000000051
  0
ARC
  5
F5E
330
2
100
AcDbEntity
  8
0
100
AcDbCircle
 10
1034.559171748527
 20
460.3208952827688
 30
0.0
 40
3.0
100
AcDbArc
 50
259.9999999999948
 51
0.0
  0
ARC
  5
F5F
330
2
100
AcDbEntity
  8
0
100
AcDbCircle
 10
1039.559171748527
 20
351.2456345049861
 30
0.0
 40
2.0
100
AcDbArc
 50
180.0
 51
270.0
  0
ARC
  5
F60
330
2
100
AcDbEntity
  8
0
100
AcDbCircle
 10
1039.559171748527
 20
467.2456345049861
 30
0.0
 40
2.0
100
AcDbArc
 50
90.0
 51
180.0
  0
LINE
  5
F61
330
2
100
AcDbEntity
  8
0
100
AcDbLine
 10
1039.559171748527
 20
469.2456345049861
 30
0.0
 11
1053.559171748527
 21
469.2456345049861
 31
0.0
  0
LINE
  5
F62
330
2
100
AcDbEntity
  8
CENTER
100
AcDbLine
 10
890.2616970654719
 20
359.7481598219278
 30
0.0
 11
906.8616970654714
 21
359.7481598219278
 31
0.0
  0
LINE
  5
F63
330
2
100
AcDbEntity
  8
CENTER
100
AcDbLine
 10
898.5616970654715
 20
368.0481598219278
 30
0.0
 11
898.5616970654715
 21
351.4481598219278
 31
0.0
  0
LINE
  5
F64
330
2
100
AcDbEntity
  8
0
100
AcDbLine
 10
1034.038227215526
 20
457.366472023732
 30
0.0
 11
1009.350637091434
 21
461.7195602512809
 31
0.0
  0
LINE
  5
F65
330
2
100
AcDbEntity
  8
0
100
AcDbLine
 10
1034.038227215526
 20
361.1247969862402
 30
0.0
 11
1009.350637091434
 21
356.7717087586913
 31
0.0
  0
LINE
  5
F66
330
2
100
AcDbEntity
  8
0
100
AcDbLine
 10
1011.05917174853
 20
412.2456345049861
 30
0.0
 11
1034.559171748526
 21
412.2456345049863
 31
0.0
  0
ARC
  5
F67
330
2
100
AcDbEntity
  8
0
100
AcDbCircle
 10
1034.559171748526
 20
415.2456345049863
 30
0.0
 40
3.0
100
AcDbArc
 50
270.0
 51
0.0
  0
LINE
  5
F68
330
2
100
AcDbEntity
  8
0
100
AcDbLine
 10
1011.05917174853
 20
406.2456345049858
 30
0.0
 11
1034.559171748526
 21
406.2456345049858
 31
0.0
  0
LINE
  5
F69
330
2
100
AcDbEntity
  8
CENTER
100
AcDbLine
 10
989.2566464315885
 20
359.7481598219278
 30
0.0
 11
1005.856646431588
 21
359.7481598219278
 31
0.0
  0
LINE
  5
F6A
330
2
100
AcDbEntity
  8
CENTER
100
AcDbLine
 10
997.5566464315882
 20
368.0481598219278
 30
0.0
 11
997.5566464315882
 21
351.4481598219278
 31
0.0
  0
LINE
  5
F6B
330
2
100
AcDbEntity
  8
CENTER
100
AcDbLine
 10
989.2566464315885
 20
458.7431091880445
 30
0.0
 11
1005.856646431588
 21
458.7431091880445
 31
0.0
  0
LINE
  5
F6C
330
2
100
AcDbEntity
  8
CENTER
100
AcDbLine
 10
997.5566464315882
 20
467.0431091880446
 30
0.0
 11
997.5566464315882
 21
450.4431091880446
 31
0.0
  0
LINE
  5
F6D
330
2
100
AcDbEntity
  8
CENTER
100
AcDbLine
 10
890.2616970654719
 20
458.7431091880445
 30
0.0
 11
906.8616970654714
 21
458.7431091880445
 31
0.0
  0
LINE
  5
F6E
330
2
100
AcDbEntity
  8
CENTER
100
AcDbLine
 10
898.5616970654715
 20
467.0431091880446
 30
0.0
 11
898.5616970654715
 21
450.4431091880446
 31
0.0
  0
LINE
  5
F6F
330
2
100
AcDbEntity
  8
0
100
AcDbLine
 10
1053.559171748527
 20
348.7456345049865
 30
0.0
 11
1053.559171748527
 21
469.7456345049857
 31
0.0
  0
LINE
  5
F70
330
2
100
AcDbEntity
  8
0
100
AcDbLine
 10
1029.559171748529
 20
443.2456345049899
 30
0.0
 11
1027.059171748528
 21
443.2456345049892
 31
0.0
  0
LINE
  5
F71
330
2
100
AcDbEntity
  8
0
100
AcDbLine
 10
1021.059171748528
 20
437.2456345049893
 30
0.0
 11
1011.059171748531
 21
437.2456345049893
 31
0.0
  0
ARC
  5
F72
330
2
100
AcDbEntity
  8
0
100
AcDbCircle
 10
1011.059171748531
 20
440.2456345049893
 30
0.0
 40
3.0
100
AcDbArc
 50
180.0
 51
270.0
  0
ARC
  5
F73
330
2
100
AcDbEntity
  8
0
100
AcDbCircle
 10
1021.059171748528
 20
440.2456345049893
 30
0.0
 40
3.0
100
AcDbArc
 50
270.0
 51
0.0
  0
LINE
  5
F74
330
2
100
AcDbEntity
  8
0
100
AcDbLine
 10
1024.059171748528
 20
440.2456345049893
 30
0.0
 11
1024.059171748528
 21
440.2456345049893
 31
0.0
  0
ARC
  5
F75
330
2
100
AcDbEntity
  8
0
100
AcDbCircle
 10
1027.059171748528
 20
440.2456345049893
 30
0.0
 40
3.0
100
AcDbArc
 50
90.0
 51
180.0
  0
LINE
  5
F76
330
2
100
AcDbEntity
  8
0
100
AcDbLine
 10
1029.559171748529
 20
375.2456345049822
 30
0.0
 11
1027.059171748528
 21
375.2456345049829
 31
0.0
  0
LINE
  5
F77
330
2
100
AcDbEntity
  8
0
100
AcDbLine
 10
1021.059171748528
 20
381.2456345049829
 30
0.0
 11
1011.05917174853
 21
381.2456345049831
 31
0.0
  0
ARC
  5
F78
330
2
100
AcDbEntity
  8
0
100
AcDbCircle
 10
1021.059171748528
 20
378.2456345049829
 30
0.0
 40
3.0
100
AcDbArc
 50
0.0
 51
90.0
  0
LINE
  5
F79
330
2
100
AcDbEntity
  8
0
100
AcDbLine
 10
1024.059171748528
 20
378.2456345049829
 30
0.0
 11
1024.059171748528
 21
378.2456345049829
 31
0.0
  0
ARC
  5
F7A
330
2
100
AcDbEntity
  8
0
100
AcDbCircle
 10
1027.059171748528
 20
378.2456345049829
 30
0.0
 40
3.0
100
AcDbArc
 50
180.0
 51
269.9999999999739
  0
ARC
  5
F7B
330
2
100
AcDbEntity
  8
0
100
AcDbCircle
 10
1029.559171748527
 20
367.2456345049822
 30
0.0
 40
8.0
100
AcDbArc
 50
0.0
 51
89.99999999997395
  0
ARC
  5
F7C
330
2
100
AcDbEntity
  8
0
100
AcDbCircle
 10
948.0591717485287
 20
219.2456345049872
 30
0.0
 40
250.0
100
AcDbArc
 50
85.41175424079522
 51
94.58824575920479
  0
ARC
  5
F7D
330
2
100
AcDbEntity
  8
0
 48
0.5
100
AcDbCircle
 10
898.0591717485278
 20
459.2456345049875
 30
0.0
 40
10.0
100
AcDbArc
 50
90.0
 51
180.0
  0
LINE
  5
F7E
330
2
100
AcDbEntity
  8
0
 48
0.5
100
AcDbLine
 10
898.0591717485278
 20
469.2456345049874
 30
0.0
 11
908.0591717485324
 21
469.2456345049873
 31
0.0
  0
ARC
  5
F7F
330
2
100
AcDbEntity
  8
0
100
AcDbCircle
 10
908.0591717485324
 20
461.245634504987
 30
0.0
 40
8.0
100
AcDbArc
 50
81.10835431979607
 51
90.0
  0
ARC
  5
F80
330
2
100
AcDbEntity
  8
0
 48
0.5
100
AcDbCircle
 10
998.0591717485316
 20
459.2456345049875
 30
0.0
 40
10.0
100
AcDbArc
 50
0.0
 51
90.0
  0
ARC
  5
F81
330
2
100
AcDbEntity
  8
0
100
AcDbCircle
 10
1009.871581624435
 20
464.6739835103174
 30
0.0
 40
3.0
100
AcDbArc
 50
204.6809703631084
 51
259.9999999999948
  0
ARC
  5
F82
330
2
100
AcDbEntity
  8
0
100
AcDbCircle
 10
921.6610087748771
 20
548.1880869060364
 30
0.0
 40
80.0
100
AcDbArc
 50
261.1083543197961
 51
274.5882457592047
  0
LINE
  5
F83
330
2
100
AcDbEntity
  8
0
 48
0.5
100
AcDbLine
 10
888.0591717485279
 20
459.2456345049875
 30
0.0
 11
888.0591717485284
 21
449.2456345049833
 31
0.0
  0
ARC
  5
F84
330
2
100
AcDbEntity
  8
0
100
AcDbCircle
 10
896.0591717485288
 20
449.2456345049833
 30
0.0
 40
8.0
100
AcDbArc
 50
180.0
 51
188.8916456802039
  0
ARC
  5
F85
330
2
100
AcDbEntity
  8
0
100
AcDbCircle
 10
809.1167193474792
 20
435.6437974786379
 30
0.0
 40
80.0
100
AcDbArc
 50
355.4117542407789
 51
8.89164568020392
  0
LINE
  5
F86
330
2
100
AcDbEntity
  8
0
 48
0.5
100
AcDbLine
 10
998.0591717485316
 20
469.2456345049874
 30
0.0
 11
988.0591717485279
 21
469.2456345049873
 31
0.0
  0
ARC
  5
F87
330
2
100
AcDbEntity
  8
0
100
AcDbCircle
 10
988.0591717485279
 20
461.245634504987
 30
0.0
 40
8.0
100
AcDbArc
 50
90.0
 51
98.89164568020392
  0
ARC
  5
F88
330
2
100
AcDbEntity
  8
0
100
AcDbCircle
 10
974.4573347221823
 20
548.1880869060364
 30
0.0
 40
80.0
100
AcDbArc
 50
265.4117542407952
 51
278.8916456802039
  0
LINE
  5
F89
330
2
100
AcDbEntity
  8
0
 48
0.5
100
AcDbLine
 10
1008.059171748532
 20
459.2456345049872
 30
0.0
 11
1008.059171748529
 21
359.2456345049843
 31
0.0
  0
ARC
  5
F8A
330
2
100
AcDbEntity
  8
0
100
AcDbCircle
 10
1011.05917174853
 20
378.2456345049831
 30
0.0
 40
3.0
100
AcDbArc
 50
90.0
 51
180.0
  0
ARC
  5
F8B
330
2
100
AcDbEntity
  8
0
100
AcDbCircle
 10
1011.05917174853
 20
403.2456345049858
 30
0.0
 40
3.0
100
AcDbArc
 50
90.0
 51
180.0
  0
ARC
  5
F8C
330
2
100
AcDbEntity
  8
0
100
AcDbCircle
 10
1011.05917174853
 20
415.2456345049861
 30
0.0
 40
3.0
100
AcDbArc
 50
180.0
 51
270.0
  0
ARC
  5
F8D
330
2
100
AcDbEntity
  8
0
 48
0.5
100
AcDbCircle
 10
898.0591717485278
 20
359.2456345049843
 30
0.0
 40
10.0
100
AcDbArc
 50
180.0
 51
270.0
  0
LINE
  5
F8E
330
2
100
AcDbEntity
  8
0
 48
0.5
100
AcDbLine
 10
898.0591717485278
 20
349.2456345049843
 30
0.0
 11
908.0591717485324
 21
349.2456345049845
 31
0.0
  0
ARC
  5
F8F
330
2
100
AcDbEntity
  8
0
100
AcDbCircle
 10
908.0591717485324
 20
357.2456345049847
 30
0.0
 40
8.0
100
AcDbArc
 50
270.0
 51
278.8916456802039
  0
ARC
  5
F90
330
2
100
AcDbEntity
  8
0
 48
0.5
100
AcDbCircle
 10
998.0591717485316
 20
359.2456345049843
 30
0.0
 40
10.0
100
AcDbArc
 50
270.0
 51
0.0
  0
ARC
  5
F91
330
2
100
AcDbEntity
  8
0
100
AcDbCircle
 10
1009.871581624435
 20
353.8172854996546
 30
0.0
 40
3.0
100
AcDbArc
 50
100.0000000000051
 51
155.3190296368915
  0
ARC
  5
F92
330
2
100
AcDbEntity
  8
0
100
AcDbCircle
 10
921.6610087748771
 20
270.3031821039353
 30
0.0
 40
80.0
100
AcDbArc
 50
85.41175424079522
 51
98.89164568020392
  0
LINE
  5
F93
330
2
100
AcDbEntity
  8
0
 48
0.5
100
AcDbLine
 10
888.0591717485279
 20
359.2456345049843
 30
0.0
 11
888.0591717485284
 21
369.2456345049884
 31
0.0
  0
ARC
  5
F94
330
2
100
AcDbEntity
  8
0
100
AcDbCircle
 10
896.0591717485288
 20
369.2456345049884
 30
0.0
 40
8.0
100
AcDbArc
 50
171.108354319796
 51
180.0
  0
ARC
  5
F95
330
2
100
AcDbEntity
  8
0
100
AcDbCircle
 10
809.1167193474792
 20
382.8474715313339
 30
0.0
 40
80.0
100
AcDbArc
 50
351.1083543197961
 51
4.588245759202406
  0
LINE
  5
F96
330
2
100
AcDbEntity
  8
0
 48
0.5
100
AcDbLine
 10
998.0591717485316
 20
349.2456345049843
 30
0.0
 11
988.0591717485279
 21
349.2456345049845
 31
0.0
  0
ARC
  5
F97
330
2
100
AcDbEntity
  8
0
100
AcDbCircle
 10
988.0591717485279
 20
357.2456345049847
 30
0.0
 40
8.0
100
AcDbArc
 50
261.1083543197961
 51
270.0
  0
ARC
  5
F98
330
2
100
AcDbEntity
  8
0
100
AcDbCircle
 10
974.4573347221823
 20
270.3031821039353
 30
0.0
 40
80.0
100
AcDbArc
 50
81.10835431979607
 51
94.58824575920479
  0
ARC
  5
F99
330
2
100
AcDbEntity
  8
0
100
AcDbCircle
 10
1138.059171748528
 20
409.2456345049847
 30
0.0
 40
250.0
100
AcDbArc
 50
175.4117542407789
 51
184.5882457592202
  0
ARC
  5
F9A
330
2
100
AcDbEntity
  8
0
100
AcDbCircle
 10
948.0591717485287
 20
599.2456345049845
 30
0.0
 40
250.0
100
AcDbArc
 50
265.4117542407952
 51
274.5882457592047
  0
CIRCLE
  5
F9B
330
2
100
AcDbEntity
  8
HOJO
100
AcDbCircle
 10
898.5616970654712
 20
458.7431091880445
 30
0.0
 40
4.0
  0
CIRCLE
  5
F9C
330
2
100
AcDbEntity
  8
0
100
AcDbCircle
 10
898.5616970654712
 20
458.7431091880445
 30
0.0
 40
3.399999999999999
  0
CIRCLE
  5
F9D
330
2
100
AcDbEntity
  8
HOJO
100
AcDbCircle
 10
997.5566464315882
 20
458.7431091880445
 30
0.0
 40
4.0
  0
CIRCLE
  5
F9E
330
2
100
AcDbEntity
  8
0
100
AcDbCircle
 10
997.5566464315882
 20
458.7431091880445
 30
0.0
 40
3.399999999999999
  0
CIRCLE
  5
F9F
330
2
100
AcDbEntity
  8
HOJO
100
AcDbCircle
 10
997.5566464315882
 20
359.748159821928
 30
0.0
 40
4.0
  0
CIRCLE
  5
FA0
330
2
100
AcDbEntity
  8
0
100
AcDbCircle
 10
997.5566464315882
 20
359.748159821928
 30
0.0
 40
3.399999999999999
  0
CIRCLE
  5
FA1
330
2
100
AcDbEntity
  8
HOJO
100
AcDbCircle
 10
898.5616970654712
 20
359.748159821928
 30
0.0
 40
4.0
  0
CIRCLE
  5
FA2
330
2
100
AcDbEntity
  8
0
100
AcDbCircle
 10
898.5616970654712
 20
359.748159821928
 30
0.0
 40
3.399999999999999
  0
CIRCLE
  5
FA3
330
2
100
AcDbEntity
  8
CENTER
100
AcDbCircle
 10
948.0591717485296
 20
409.245634504986
 30
0.0
 40
70.00000000000039
  0
CIRCLE
  5
FA4
330
2
100
AcDbEntity
  8
0
100
AcDbCircle
 10
948.0591717485296
 20
409.245634504986
 30
0.0
 40
55.00000000000046
  0
CIRCLE
  5
FA5
330
2
100
AcDbEntity
  8
0
100
AcDbCircle
 10
948.0591717485296
 20
409.245634504986
 30
0.0
 40
39.99999999999932
  0
CIRCLE
  5
FA6
330
2
100
AcDbEntity
  8
0
100
AcDbCircle
 10
948.0591717485296
 20
409.245634504986
 30
0.0
 40
33.07735026919044
  0
CIRCLE
  5
FA7
330
2
100
AcDbEntity
  8
0
100
AcDbCircle
 10
948.0591717485296
 20
409.245634504986
 30
0.0
 40
32.50000000000023
  0
LINE
  5
FA8
330
2
100
AcDbEntity
  8
CENTER
100
AcDbLine
 10
948.0591717485292
 20
640.0577374685438
 30
0.0
 11
948.0591717485303
 21
853.0577374685462
 31
0.0
  0
LINE
  5
FA9
330
2
100
AcDbEntity
  8
0
100
AcDbLine
 10
888.9667659987688
 20
716.0577374685445
 30
0.0
 11
888.0635351824254
 21
819.5577374685479
 31
0.0
  0
LINE
  5
FAA
330
2
100
AcDbEntity
  8
0
100
AcDbLine
 10
893.0591717485297
 20
711.0577374685381
 30
0.0
 11
1003.059171748529
 21
711.0577374685443
 31
0.0
  0
LINE
  5
FAB
330
2
100
AcDbEntity
  8
0
100
AcDbLine
 10
1039.507485490373
 20
843.0577374685443
 30
0.0
 11
1053.559171748527
 21
843.0577374685441
 31
0.0
  0
ARC
  5
FAC
330
2
100
AcDbEntity
  8
0
100
AcDbCircle
 10
1039.507485490373
 20
841.0577374685441
 30
0.0
 40
2.0
100
AcDbArc
 50
90.0
 51
178.4999999999972
  0
LINE
  5
FAD
330
2
100
AcDbEntity
  8
0
100
AcDbLine
 10
1037.508170840422
 20
841.1100913651596
 30
0.0
 11
1035.98801645439
 21
783.0577374685442
 31
0.0
  0
ARC
  5
FAE
330
2
100
AcDbEntity
  8
0
100
AcDbCircle
 10
1033.144103606332
 20
789.0577374685463
 30
0.0
 40
3.0
100
AcDbArc
 50
270.0
 51
358.5000000000103
  0
LINE
  5
FAF
330
2
100
AcDbEntity
  8
0
100
AcDbLine
 10
1007.417746965909
 20
819.5577374685445
 30
0.0
 11
888.0635351824254
 21
819.5577374685479
 31
0.0
  0
LINE
  5
FB0
330
2
100
AcDbEntity
  8
0
100
AcDbLine
 10
986.1277941989149
 20
697.057737468544
 30
0.0
 11
909.9905492981445
 21
697.0577374685433
 31
0.0
  0
ARC
  5
FB1
330
2
100
AcDbEntity
  8
0
100
AcDbCircle
 10
909.9905492981445
 20
699.0577374685433
 30
0.0
 40
2.0
100
AcDbArc
 50
181.9999999999914
 51
270.0
  0
ARC
  5
FB2
330
2
100
AcDbEntity
  8
0
100
AcDbCircle
 10
986.1277941989149
 20
699.0577374685438
 30
0.0
 40
2.0
100
AcDbArc
 50
270.0
 51
357.9999999999955
  0
LINE
  5
FB3
330
2
100
AcDbEntity
  8
CENTER
100
AcDbLine
 10
878.381685072931
 20
783.0577374685478
 30
0.0
 11
1148.059171748525
 21
783.0577374685478
 31
0.0
  0
LINE
  5
FB4
330
2
100
AcDbEntity
  8
0
100
AcDbLine
 10
1007.15157749829
 20
716.0577374685443
 30
0.0
 11
1007.73627764027
 21
783.057737468547
 31
0.0
  0
ARC
  5
FB5
330
2
100
AcDbEntity
  8
0
100
AcDbCircle
 10
1010.684030668684
 20
777.0577374685456
 30
0.0
 40
3.0
100
AcDbArc
 50
90.0
 51
179.4999999999954
  0
LINE
  5
FB6
330
2
100
AcDbEntity
  8
0
100
AcDbLine
 10
988.1265758529533
 20
698.9879384751389
 30
0.0
 11
988.2784461037173
 21
703.336933442164
 31
0.0
  0
LINE
  5
FB7
330
2
100
AcDbEntity
  8
0
100
AcDbLine
 10
907.9917676441061
 20
698.9879384751384
 30
0.0
 11
907.8398973933419
 21
703.3369334421578
 31
0.0
  0
LINE
  5
FB8
330
2
100
AcDbEntity
  8
0
100
AcDbLine
 10
1007.417746965909
 20
819.5577374685445
 30
0.0
 11
1007.736277640273
 21
783.0577374685467
 31
0.0
  0
LINE
  5
FB9
330
2
100
AcDbEntity
  8
0
100
AcDbLine
 10
1039.507485490373
 20
723.0577374685515
 30
0.0
 11
1053.559171748527
 21
723.0577374685515
 31
0.0
  0
ARC
  5
FBA
330
2
100
AcDbEntity
  8
0
100
AcDbCircle
 10
1039.507485490373
 20
725.0577374685515
 30
0.0
 40
2.0
100
AcDbArc
 50
181.4999999999896
 51
270.0
  0
LINE
  5
FBB
330
2
100
AcDbEntity
  8
0
100
AcDbLine
 10
1037.508170840422
 20
725.0053835719363
 30
0.0
 11
1035.988016454391
 21
783.0577374685442
 31
0.0
  0
ARC
  5
FBC
330
2
100
AcDbEntity
  8
0
100
AcDbCircle
 10
1033.144103606332
 20
777.0577374685456
 30
0.0
 40
3.0
100
AcDbArc
 50
1.499999999989688
 51
90.0
  0
LINE
  5
FBD
330
2
100
AcDbEntity
  8
0
100
AcDbLine
 10
898.0591717485307
 20
819.5577374685463
 30
0.0
 11
898.0591717485296
 21
717.5577374685389
 31
0.0
  0
LINE
  5
FBE
330
2
100
AcDbEntity
  8
0
100
AcDbLine
 10
988.0722647093119
 20
819.5577374685452
 30
0.0
 11
989.0025503925333
 21
784.0315605202402
 31
0.0
  0
LINE
  5
FBF
330
2
100
AcDbEntity
  8
0
100
AcDbLine
 10
1010.684030668683
 20
786.057737468546
 30
0.0
 11
1033.144103606332
 21
786.057737468546
 31
0.0
  0
ARC
  5
FC0
330
2
100
AcDbEntity
  8
0
100
AcDbCircle
 10
1010.684030668683
 20
789.057737468546
 30
0.0
 40
3.0
100
AcDbArc
 50
180.4999999999915
 51
270.0
  0
LINE
  5
FC1
330
2
100
AcDbEntity
  8
0
100
AcDbLine
 10
1010.684030668684
 20
780.0577374685456
 30
0.0
 11
1033.144103606332
 21
780.0577374685456
 31
0.0
  0
LINE
  5
FC2
330
2
100
AcDbEntity
  8
0
100
AcDbLine
 10
990.0022077175087
 20
783.0577374685483
 30
0.0
 11
1053.559171748527
 21
783.0577374685426
 31
0.0
  0
ARC
  5
FC3
330
2
100
AcDbEntity
  8
0
100
AcDbCircle
 10
990.0022077175087
 20
784.0577374685478
 30
0.0
 40
1.0
100
AcDbArc
 50
181.5000000000027
 51
269.9999999999739
  0
LINE
  5
FC4
330
2
100
AcDbEntity
  8
0
100
AcDbLine
 10
908.0591717485319
 20
717.5577374685392
 30
0.0
 11
908.0591717485324
 21
819.5577374685463
 31
0.0
  0
LINE
  5
FC5
330
2
100
AcDbEntity
  8
0
100
AcDbLine
 10
928.0605634351134
 20
717.5577374685389
 30
0.0
 11
928.0605634351134
 21
819.5577374685461
 31
0.0
  0
LINE
  5
FC6
330
2
100
AcDbEntity
  8
0
100
AcDbLine
 10
968.0577800619433
 20
717.5577374685389
 30
0.0
 11
968.0577800619433
 21
819.5577374685461
 31
0.0
  0
LINE
  5
FC7
330
2
100
AcDbEntity
  8
0
100
AcDbLine
 10
988.0591717485273
 20
717.5577374685392
 30
0.0
 11
988.0591717485273
 21
783.0577374685478
 31
0.0
  0
LINE
  5
FC8
330
2
100
AcDbEntity
  8
0
100
AcDbLine
 10
998.0591717485316
 20
717.5577374685389
 30
0.0
 11
998.0591717485319
 21
819.5577374685463
 31
0.0
  0
LINE
  5
FC9
330
2
100
AcDbEntity
  8
0
100
AcDbLine
 10
1053.559171748527
 20
723.0577374685515
 30
0.0
 11
1053.559171748527
 21
843.0577374685439
 31
0.0
  0
LINE
  5
FCA
330
2
100
AcDbEntity
  8
0
100
AcDbLine
 10
893.0591717485297
 20
711.0577374685381
 30
0.0
 11
893.0591717485297
 21
716.0577374685445
 31
0.0
  0
LINE
  5
FCB
330
2
100
AcDbEntity
  8
0
 48
0.5
100
AcDbLine
 10
888.9667659987688
 20
716.0577374685443
 30
0.0
 11
1007.15157749829
 21
716.0577374685445
 31
0.0
  0
LINE
  5
FCC
330
2
100
AcDbEntity
  8
0
100
AcDbLine
 10
1003.059171748529
 20
711.0577374685443
 30
0.0
 11
1003.059171748529
 21
716.0577374685445
 31
0.0
  0
LINE
  5
FCD
330
2
100
AcDbEntity
  8
0
100
AcDbLine
 10
1033.084642467661
 20
733.6299692431561
 30
0.0
 11
1008.91510416014
 21
722.3595284362886
 31
0.0
  0
ARC
  5
FCE
330
2
100
AcDbEntity
  8
0
100
AcDbCircle
 10
1010.182958945362
 20
719.6406050751786
 30
0.0
 40
3.0
100
AcDbArc
 50
114.9999999999782
 51
179.5000000000019
  0
ARC
  5
FCF
330
2
100
AcDbEntity
  8
0
100
AcDbCircle
 10
1034.352497252883
 20
730.9110458820462
 30
0.0
 40
3.0
100
AcDbArc
 50
1.499999999989688
 51
115.000000000007
  0
LINE
  5
FD0
330
2
100
AcDbEntity
  8
0
100
AcDbLine
 10
1011.926691591296
 20
815.9477987606065
 30
0.0
 11
1035.776855140292
 21
829.7176971058366
 31
0.0
  0
ARC
  5
FD1
330
2
100
AcDbEntity
  8
0
100
AcDbCircle
 10
1034.276855140292
 20
832.3157733171896
 30
0.0
 40
3.0
100
AcDbArc
 50
299.9999999999999
 51
358.5000000000103
  0
ARC
  5
FD2
330
2
100
AcDbEntity
  8
0
100
AcDbCircle
 10
1010.426691591296
 20
818.5458749719598
 30
0.0
 40
3.0
100
AcDbArc
 50
180.499999999998
 51
299.9999999999999
  0
ARC
  5
FD3
330
2
100
AcDbEntity
  8
0
100
AcDbCircle
 10
996.2735727198699
 20
703.0577374685441
 30
0.0
 40
8.0
100
AcDbArc
 50
90.0
 51
178.000000000002
  0
ARC
  5
FD4
330
2
100
AcDbEntity
  8
0
100
AcDbCircle
 10
899.8447707771894
 20
703.0577374685383
 30
0.0
 40
8.0
100
AcDbArc
 50
1.999999999997947
 51
90.0
  0
LINE
  5
FD5
330
2
100
AcDbEntity
  8
CENTER
100
AcDbLine
 10
183.7764536838412
 20
409.2456345049861
 30
0.0
 11
453.7764536838369
 21
409.245634504986
 31
0.0
  0
LINE
  5
FD6
330
2
100
AcDbEntity
  8
0
100
AcDbLine
 10
292.2764536838396
 20
469.2456345049861
 30
0.0
 11
278.2764536838401
 21
469.2456345049861
 31
0.0
  0
LINE
  5
FD7
330
2
100
AcDbEntity
  8
0
100
AcDbLine
 10
278.2764536838401
 20
469.7456345049857
 30
0.0
 11
278.2764536838397
 21
348.7456345049866
 31
0.0
  0
LINE
  5
FD8
330
2
100
AcDbEntity
  8
0
100
AcDbLine
 10
294.2764536838401
 20
467.7456345049858
 30
0.0
 11
294.2764536838396
 21
350.7456345049865
 31
0.0
  0
ARC
  5
FD9
330
2
100
AcDbEntity
  8
0
100
AcDbCircle
 10
302.2764536838396
 20
367.2456345049822
 30
0.0
 40
8.0
100
AcDbArc
 50
90.0
 51
180.0
  0
ARC
  5
FDA
330
2
100
AcDbEntity
  8
0
100
AcDbCircle
 10
297.2764536838397
 20
460.3208952827688
 30
0.0
 40
3.0
100
AcDbArc
 50
180.0
 51
280.0000000000051
  0
ARC
  5
FDB
330
2
100
AcDbEntity
  8
0
100
AcDbCircle
 10
297.2764536838397
 20
358.1703737272034
 30
0.0
 40
3.0
100
AcDbArc
 50
79.99999999999484
 51
180.0
  0
ARC
  5
FDC
330
2
100
AcDbEntity
  8
0
100
AcDbCircle
 10
292.2764536838396
 20
467.2456345049861
 30
0.0
 40
2.0
100
AcDbArc
 50
0.0
 51
90.0
  0
ARC
  5
FDD
330
2
100
AcDbEntity
  8
0
100
AcDbCircle
 10
292.2764536838396
 20
351.2456345049861
 30
0.0
 40
2.0
100
AcDbArc
 50
270.0
 51
0.0
  0
LINE
  5
FDE
330
2
100
AcDbEntity
  8
0
100
AcDbLine
 10
292.2764536838396
 20
349.2456345049861
 30
0.0
 11
278.2764536838397
 21
349.245634504986
 31
0.0
  0
LINE
  5
FDF
330
2
100
AcDbEntity
  8
0
100
AcDbLine
 10
297.7973982168403
 20
361.1247969862402
 30
0.0
 11
322.8365686510549
 21
356.7097156641309
 31
0.0
  0
LINE
  5
FE0
330
2
100
AcDbEntity
  8
0
100
AcDbLine
 10
297.7973982168407
 20
457.366472023732
 30
0.0
 11
322.8365686510553
 21
461.7815533458412
 31
0.0
  0
LINE
  5
FE1
330
2
100
AcDbEntity
  8
CENTER
100
AcDbLine
 10
383.7764536838369
 20
479.2456345049865
 30
0.0
 11
383.7764536838369
 21
339.2456345049854
 31
0.0
  0
LINE
  5
FE2
330
2
100
AcDbEntity
  8
0
100
AcDbLine
 10
307.7764536838397
 20
440.2456345049893
 30
0.0
 11
307.7764536838397
 21
415.2456345049861
 31
0.0
  0
LINE
  5
FE3
330
2
100
AcDbEntity
  8
0
100
AcDbLine
 10
307.7764536838397
 20
403.2456345049854
 30
0.0
 11
307.7764536838397
 21
378.2456345049829
 31
0.0
  0
ARC
  5
FE4
330
2
100
AcDbEntity
  8
0
100
AcDbCircle
 10
310.7764536838396
 20
415.2456345049861
 30
0.0
 40
3.0
100
AcDbArc
 50
180.0
 51
270.0
  0
LINE
  5
FE5
330
2
100
AcDbEntity
  8
0
100
AcDbLine
 10
302.2764536838378
 20
375.2456345049822
 30
0.0
 11
304.7764536838392
 21
375.2456345049829
 31
0.0
  0
LINE
  5
FE6
330
2
100
AcDbEntity
  8
0
100
AcDbLine
 10
310.7764536838383
 20
381.2456345049829
 30
0.0
 11
321.0993477920963
 21
381.2456345049831
 31
0.0
  0
ARC
  5
FE7
330
2
100
AcDbEntity
  8
0
100
AcDbCircle
 10
321.0993477920963
 20
378.2456345049831
 30
0.0
 40
3.0
100
AcDbArc
 50
0.0
 51
90.0
  0
ARC
  5
FE8
330
2
100
AcDbEntity
  8
0
100
AcDbCircle
 10
310.7764536838383
 20
378.2456345049829
 30
0.0
 40
3.0
100
AcDbArc
 50
90.0
 51
180.0
  0
LINE
  5
FE9
330
2
100
AcDbEntity
  8
0
100
AcDbLine
 10
307.7764536838383
 20
378.2456345049829
 30
0.0
 11
307.7764536838383
 21
378.2456345049829
 31
0.0
  0
ARC
  5
FEA
330
2
100
AcDbEntity
  8
0
100
AcDbCircle
 10
304.7764536838383
 20
378.2456345049829
 30
0.0
 40
3.0
100
AcDbArc
 50
270.0
 51
0.0
  0
LINE
  5
FEB
330
2
100
AcDbEntity
  8
0
100
AcDbLine
 10
302.2764536838378
 20
443.2456345049899
 30
0.0
 11
304.7764536838396
 21
443.2456345049892
 31
0.0
  0
LINE
  5
FEC
330
2
100
AcDbEntity
  8
0
100
AcDbLine
 10
310.7764536838387
 20
437.2456345049893
 30
0.0
 11
321.0993477920958
 21
437.245634504989
 31
0.0
  0
ARC
  5
FED
330
2
100
AcDbEntity
  8
0
100
AcDbCircle
 10
321.0993477920958
 20
440.245634504989
 30
0.0
 40
3.0
100
AcDbArc
 50
270.0
 51
0.0
  0
ARC
  5
FEE
330
2
100
AcDbEntity
  8
0
100
AcDbCircle
 10
310.7764536838387
 20
440.2456345049893
 30
0.0
 40
3.0
100
AcDbArc
 50
180.0
 51
270.0
  0
LINE
  5
FEF
330
2
100
AcDbEntity
  8
0
100
AcDbLine
 10
307.7764536838387
 20
440.2456345049893
 30
0.0
 11
307.7764536838387
 21
440.2456345049893
 31
0.0
  0
ARC
  5
FF0
330
2
100
AcDbEntity
  8
0
100
AcDbCircle
 10
304.7764536838387
 20
440.2456345049893
 30
0.0
 40
3.0
100
AcDbArc
 50
0.0
 51
89.99999999997395
  0
ARC
  5
FF1
330
2
100
AcDbEntity
  8
0
100
AcDbCircle
 10
302.2764536838401
 20
451.24563450499
 30
0.0
 40
8.0
100
AcDbArc
 50
180.0
 51
269.9999999999739
  0
LINE
  5
FF2
330
2
100
AcDbEntity
  8
0
100
AcDbLine
 10
334.0993477920962
 20
349.2456345049847
 30
0.0
 11
334.4164536837913
 21
349.2456345049847
 31
0.0
  0
LINE
  5
FF3
330
2
100
AcDbEntity
  8
0
100
AcDbLine
 10
334.0993477920967
 20
469.2456345049879
 30
0.0
 11
334.4164536838836
 21
469.2456345049879
 31
0.0
  0
LINE
  5
FF4
330
2
100
AcDbEntity
  8
0
100
AcDbLine
 10
324.0993477920958
 20
459.2456345049879
 30
0.0
 11
324.0993477920958
 21
359.2456345049847
 31
0.0
  0
ARC
  5
FF5
330
2
100
AcDbEntity
  8
0
100
AcDbCircle
 10
334.0993477920962
 20
359.2456345049847
 30
0.0
 40
10.0
100
AcDbArc
 50
180.0
 51
270.0
  0
ARC
  5
FF6
330
2
100
AcDbEntity
  8
0
100
AcDbCircle
 10
322.3156241180543
 20
353.7552924050944
 30
0.0
 40
3.0
100
AcDbArc
 50
24.9820310853771
 51
79.99999999999484
  0
ARC
  5
FF7
330
2
100
AcDbEntity
  8
0
100
AcDbCircle
 10
334.0993477920962
 20
459.2456345049879
 30
0.0
 40
10.0
100
AcDbArc
 50
90.0
 51
180.0
  0
ARC
  5
FF8
330
2
100
AcDbEntity
  8
0
100
AcDbCircle
 10
322.3156241180543
 20
464.7359766048777
 30
0.0
 40
3.0
100
AcDbArc
 50
280.0000000000051
 51
335.0179689146227
  0
ARC
  5
FF9
330
2
100
AcDbEntity
  8
0
100
AcDbCircle
 10
297.2764536838401
 20
415.2456345049862
 30
0.0
 40
3.0
100
AcDbArc
 50
180.0
 51
270.0
  0
ARC
  5
FFA
330
2
100
AcDbEntity
  8
0
100
AcDbCircle
 10
297.2764536838401
 20
403.2456345049845
 30
0.0
 40
3.0
100
AcDbArc
 50
90.0
 51
180.0
  0
LINE
  5
FFB
330
2
100
AcDbEntity
  8
0
100
AcDbLine
 10
321.0993477920958
 20
406.2456345049861
 30
0.0
 11
297.2764536838397
 21
406.2456345049845
 31
0.0
  0
ARC
  5
FFC
330
2
100
AcDbEntity
  8
0
100
AcDbCircle
 10
310.7764536838396
 20
403.2456345049854
 30
0.0
 40
3.0
100
AcDbArc
 50
90.0
 51
180.0
  0
ARC
  5
FFD
330
2
100
AcDbEntity
  8
0
100
AcDbCircle
 10
321.0993477920958
 20
403.2456345049861
 30
0.0
 40
3.0
100
AcDbArc
 50
0.0
 51
90.0
  0
LINE
  5
FFE
330
2
100
AcDbEntity
  8
0
100
AcDbLine
 10
321.0993477920958
 20
412.245634504986
 30
0.0
 11
297.2764536838401
 21
412.2456345049862
 31
0.0
  0
ARC
  5
FFF
330
2
100
AcDbEntity
  8
0
100
AcDbCircle
 10
321.0993477920958
 20
415.245634504986
 30
0.0
 40
3.0
100
AcDbArc
 50
270.0
 51
0.0
  0
LINE
  5
1047
330
2
100
AcDbEntity
  8
CENTER
100
AcDbLine
 10
383.7764536837728
 20
339.2456345049188
 30
0.0
 11
383.7764536838988
 21
476.1486799437851
 31
0.0
  0
LINE
  5
1048
330
2
100
AcDbEntity
  8
0
100
AcDbLine
 10
324.4164536837909
 20
359.2456345049735
 30
0.0
 11
324.4164536838832
 21
459.2456345049765
 31
0.0
  0
ARC
  5
1049
330
2
100
AcDbEntity
  8
0
100
AcDbCircle
 10
334.4164536838832
 20
459.2456345049673
 30
0.0
 40
10.0
100
AcDbArc
 50
89.99999999994789
 51
179.9999999999479
  0
LINE
  5
104A
330
2
100
AcDbEntity
  8
0
100
AcDbLine
 10
330.7764536838128
 20
382.7775970734651
 30
0.0
 11
330.7764536838615
 21
435.7136719365705
 31
0.0
  0
ARC
  5
104B
330
2
100
AcDbEntity
  8
0
100
AcDbCircle
 10
343.7764536838615
 20
435.7136719365585
 30
0.0
 40
13.0
100
AcDbArc
 50
134.9999999999359
 51
179.9999999999479
  0
LINE
  5
104C
330
2
100
AcDbEntity
  8
0
100
AcDbLine
 10
335.7764536838128
 20
382.7775970734606
 30
0.0
 11
335.7764536838615
 21
435.7136719365659
 31
0.0
  0
ARC
  5
104D
330
2
100
AcDbEntity
  8
0
100
AcDbCircle
 10
343.7764536838128
 20
382.7775970734531
 30
0.0
 40
8.0
100
AcDbArc
 50
179.9999999999479
 51
224.9999999999535
  0
CIRCLE
  5
104E
330
2
100
AcDbEntity
  8
0
100
AcDbCircle
 10
383.7764536838369
 20
409.2456345049217
 30
0.0
 40
32.50000000000008
  0
CIRCLE
  5
104F
330
2
100
AcDbEntity
  8
0
100
AcDbCircle
 10
383.7764536838369
 20
409.2456345049218
 30
0.0
 40
33.07735026918965
  0
CIRCLE
  5
1050
330
2
100
AcDbEntity
  8
0
100
AcDbCircle
 10
383.7764536838369
 20
409.2456345049217
 30
0.0
 40
36.92264973081032
  0
CIRCLE
  5
1051
330
2
100
AcDbEntity
  8
0
100
AcDbCircle
 10
383.7764536838369
 20
409.2456345049217
 30
0.0
 40
37.50000000000008
  0
CIRCLE
  5
1052
330
2
100
AcDbEntity
  8
0
100
AcDbCircle
 10
383.7764536838369
 20
409.2456345049217
 30
0.0
 40
39.50000000000031
  0
CIRCLE
  5
1053
330
2
100
AcDbEntity
  8
0
100
AcDbCircle
 10
383.7764536838369
 20
409.2456345049218
 30
0.0
 40
40.00000000000034
  0
LINE
  5
1054
330
2
100
AcDbEntity
  8
CENTER
100
AcDbLine
 10
323.7969546984702
 20
459.2456345049774
 30
0.0
 11
343.7559526693096
 21
459.2456345049589
 31
0.0
  0
LINE
  5
1055
330
2
100
AcDbEntity
  8
CENTER
100
AcDbLine
 10
333.7764536838742
 20
449.2661355195484
 30
0.0
 11
333.7764536838924
 21
469.2251334903879
 31
0.0
  0
LINE
  5
1056
330
2
100
AcDbEntity
  8
0
100
AcDbLine
 10
410.2444911152636
 20
361.2456345048967
 30
0.0
 11
357.3084162522975
 21
361.2456345049455
 31
0.0
  0
ARC
  5
1057
330
2
100
AcDbEntity
  8
0
100
AcDbCircle
 10
410.2444911152709
 20
369.2456345048967
 30
0.0
 40
8.0
100
AcDbArc
 50
269.9999999999478
 51
314.9999999999359
  0
LINE
  5
1058
330
2
100
AcDbEntity
  8
0
100
AcDbLine
 10
410.2444911152581
 20
356.245634504896
 30
0.0
 11
357.3084162522934
 21
356.2456345049449
 31
0.0
  0
ARC
  5
1059
330
2
100
AcDbEntity
  8
0
100
AcDbCircle
 10
357.3084162523052
 20
369.2456345049449
 30
0.0
 40
13.0
100
AcDbArc
 50
224.9999999999535
 51
269.9999999999478
  0
LINE
  5
105A
330
2
100
AcDbEntity
  8
0
100
AcDbLine
 10
410.2444911154468
 20
457.2456345048975
 30
0.0
 11
357.3084162522816
 21
457.2456345049462
 31
0.0
  0
ARC
  5
105B
330
2
100
AcDbEntity
  8
0
100
AcDbCircle
 10
357.3084162522743
 20
449.2456345049462
 30
0.0
 40
8.0
100
AcDbArc
 50
89.99999999994789
 51
134.9999999999359
  0
LINE
  5
105C
330
2
100
AcDbEntity
  8
0
100
AcDbLine
 10
410.2444911154513
 20
462.2456345048973
 30
0.0
 11
357.3084162522861
 21
462.2456345049461
 31
0.0
  0
ARC
  5
105D
330
2
100
AcDbEntity
  8
0
100
AcDbCircle
 10
410.2444911154395
 20
449.2456345048973
 30
0.0
 40
13.0
100
AcDbArc
 50
44.99999999995355
 51
89.99999999994789
  0
LINE
  5
105E
330
2
100
AcDbEntity
  8
0
100
AcDbLine
 10
436.7764536838128
 20
382.7775970734017
 30
0.0
 11
436.7764536838615
 21
435.7136719364475
 31
0.0
  0
ARC
  5
105F
330
2
100
AcDbEntity
  8
0
100
AcDbCircle
 10
423.7764536838128
 20
382.7775970734137
 30
0.0
 40
13.0
100
AcDbArc
 50
314.9999999999359
 51
359.9999999999478
  0
LINE
  5
1060
330
2
100
AcDbEntity
  8
0
100
AcDbLine
 10
431.7764536838128
 20
382.7775970734063
 30
0.0
 11
431.7764536838615
 21
435.7136719364521
 31
0.0
  0
ARC
  5
1061
330
2
100
AcDbEntity
  8
0
100
AcDbCircle
 10
423.7764536838615
 20
435.7136719364595
 30
0.0
 40
8.0
100
AcDbArc
 50
359.9999999999478
 51
44.99999999995355
  0
LINE
  5
1062
330
2
100
AcDbEntity
  8
CENTER
100
AcDbLine
 10
446.0473657415907
 20
471.5165465626245
 30
0.0
 11
321.505541626054
 21
346.9747224473179
 31
0.0
  0
LINE
  5
1063
330
2
100
AcDbEntity
  8
0
100
AcDbLine
 10
351.6515620027873
 20
454.9024887544438
 30
0.0
 11
338.1195994343745
 21
441.3705261860561
 31
0.0
  0
LINE
  5
1064
330
2
100
AcDbEntity
  8
0
100
AcDbLine
 10
348.1160280968576
 20
458.4380226603797
 30
0.0
 11
334.5840655284448
 21
444.9060600919921
 31
0.0
  0
ARC
  5
1065
330
2
100
AcDbEntity
  8
0
100
AcDbCircle
 10
357.3084162522743
 20
449.245634504946
 30
0.0
 40
13.0
100
AcDbArc
 50
89.99999999994789
 51
134.9999999999359
  0
ARC
  5
1066
330
2
100
AcDbEntity
  8
0
100
AcDbCircle
 10
343.7764536838615
 20
435.7136719365585
 30
0.0
 40
8.0
100
AcDbArc
 50
134.9999999999359
 51
179.9999999999479
  0
LINE
  5
1067
330
2
100
AcDbEntity
  8
0
100
AcDbLine
 10
429.4333079332998
 20
377.1207428239161
 30
0.0
 11
415.9013453647578
 21
363.5887802553992
 31
0.0
  0
LINE
  5
1068
330
2
100
AcDbEntity
  8
0
100
AcDbLine
 10
432.9688418392295
 20
373.5852089179801
 30
0.0
 11
419.4368792706866
 21
360.0532463494624
 31
0.0
  0
ARC
  5
1069
330
2
100
AcDbEntity
  8
0
100
AcDbCircle
 10
410.24449111527
 20
369.245634504896
 30
0.0
 40
13.0
100
AcDbArc
 50
269.9999999999478
 51
314.9999999999359
  0
ARC
  5
106A
330
2
100
AcDbEntity
  8
0
100
AcDbCircle
 10
423.7764536838128
 20
382.7775970734137
 30
0.0
 40
8.0
100
AcDbArc
 50
314.9999999999359
 51
359.9999999999478
  0
LINE
  5
106B
330
2
100
AcDbEntity
  8
CENTER
100
AcDbLine
 10
321.5055416261327
 20
471.5165465627331
 30
0.0
 11
446.047365741482
 21
346.974722447239
 31
0.0
  0
LINE
  5
106C
330
2
100
AcDbEntity
  8
0
100
AcDbLine
 10
415.9013453649351
 20
454.9024887543865
 30
0.0
 11
429.4333079333571
 21
441.3705261859486
 31
0.0
  0
LINE
  5
106D
330
2
100
AcDbEntity
  8
0
100
AcDbLine
 10
419.4368792708699
 20
458.4380226603171
 30
0.0
 11
432.9688418392918
 21
444.9060600918793
 31
0.0
  0
ARC
  5
106E
330
2
100
AcDbEntity
  8
0
100
AcDbCircle
 10
423.7764536838615
 20
435.7136719364595
 30
0.0
 40
13.0
100
AcDbArc
 50
359.9999999999478
 51
44.99999999995355
  0
ARC
  5
106F
330
2
100
AcDbEntity
  8
0
100
AcDbCircle
 10
410.2444911154395
 20
449.2456345048974
 30
0.0
 40
8.0
100
AcDbArc
 50
44.99999999995355
 51
89.99999999994789
  0
LINE
  5
1070
330
2
100
AcDbEntity
  8
0
100
AcDbLine
 10
338.1195994343172
 20
377.1207428239641
 30
0.0
 11
351.6515620028092
 21
363.5887802554564
 31
0.0
  0
LINE
  5
1071
330
2
100
AcDbEntity
  8
0
100
AcDbLine
 10
334.5840655283825
 20
373.5852089180333
 30
0.0
 11
348.1160280968749
 21
360.0532463495251
 31
0.0
  0
ARC
  5
1072
330
2
100
AcDbEntity
  8
0
100
AcDbCircle
 10
343.7764536838128
 20
382.7775970734531
 30
0.0
 40
13.0
100
AcDbArc
 50
179.9999999999479
 51
224.9999999999535
  0
ARC
  5
1073
330
2
100
AcDbEntity
  8
0
100
AcDbCircle
 10
357.3084162523048
 20
369.2456345049455
 30
0.0
 40
8.0
100
AcDbArc
 50
224.9999999999535
 51
269.9999999999478
  0
LINE
  5
1074
330
2
100
AcDbEntity
  8
0
100
AcDbLine
 10
415.2193757360053
 20
357.2352005822447
 30
0.0
 11
413.3059585741846
 21
361.8545982448036
 31
0.0
  0
LINE
  5
1075
330
2
100
AcDbEntity
  8
0
100
AcDbLine
 10
435.7868876064551
 20
377.8027124526565
 30
0.0
 11
431.1674899439001
 21
379.7161296144862
 31
0.0
  0
CIRCLE
  5
1076
330
2
100
AcDbEntity
  8
HOJO
100
AcDbCircle
 10
436.276453683826
 20
370.7456345049619
 30
0.0
 40
2.5
  0
CIRCLE
  5
1077
330
2
100
AcDbEntity
  8
0
100
AcDbCircle
 10
436.276453683826
 20
370.7456345049619
 30
0.0
 40
2.0
  0
CIRCLE
  5
1078
330
2
100
AcDbEntity
  8
HOJO
100
AcDbCircle
 10
331.2764536838987
 20
447.7456345050611
 30
0.0
 40
2.5
  0
CIRCLE
  5
1079
330
2
100
AcDbEntity
  8
0
100
AcDbCircle
 10
331.2764536838987
 20
447.7456345050611
 30
0.0
 40
2.0
  0
LINE
  5
107A
330
2
100
AcDbEntity
  8
CENTER
100
AcDbLine
 10
331.2764536838938
 20
442.083841703871
 30
0.0
 11
331.2764536839042
 21
453.4074273062511
 31
0.0
  0
LINE
  5
107B
330
2
100
AcDbEntity
  8
CENTER
100
AcDbLine
 10
336.9382464850889
 20
447.7456345050558
 30
0.0
 11
325.6146608827086
 21
447.7456345050662
 31
0.0
  0
LINE
  5
107C
330
2
100
AcDbEntity
  8
0
100
AcDbLine
 10
435.7868876064497
 20
440.6885565571542
 30
0.0
 11
431.167489943891
 21
438.7751393953337
 31
0.0
  0
LINE
  5
107D
330
2
100
AcDbEntity
  8
0
100
AcDbLine
 10
415.219375736038
 20
461.2560684276039
 30
0.0
 11
413.3059585742082
 21
456.6366707650492
 31
0.0
  0
LINE
  5
107E
330
2
100
AcDbEntity
  8
0
100
AcDbLine
 10
352.3335316315403
 20
461.2560684275988
 30
0.0
 11
354.246948793361
 21
456.6366707650399
 31
0.0
  0
LINE
  5
107F
330
2
100
AcDbEntity
  8
0
100
AcDbLine
 10
331.7660197610905
 20
440.6885565571871
 30
0.0
 11
336.3854174236455
 21
438.7751393953573
 31
0.0
  0
LINE
  5
1080
330
2
100
AcDbEntity
  8
0
100
AcDbLine
 10
331.7660197610955
 20
377.8027124526894
 30
0.0
 11
336.3854174236546
 21
379.7161296145099
 31
0.0
  0
LINE
  5
1081
330
2
100
AcDbEntity
  8
0
100
AcDbLine
 10
352.3335316315076
 20
357.2352005822396
 30
0.0
 11
354.2469487933369
 21
361.8545982447944
 31
0.0
  0
ARC
  5
1082
330
2
100
AcDbEntity
  8
0
100
AcDbCircle
 10
383.7764536839511
 20
599.2456345049188
 30
0.0
 40
250.0
100
AcDbArc
 50
265.4117542407429
 51
274.5882457591524
  0
ARC
  5
1083
330
2
100
AcDbEntity
  8
0
 48
0.5
100
AcDbCircle
 10
433.7764536837305
 20
359.2456345048725
 30
0.0
 40
10.0
100
AcDbArc
 50
269.9999999999478
 51
359.9999999999478
  0
LINE
  5
1084
330
2
100
AcDbEntity
  8
0
 48
0.5
100
AcDbLine
 10
433.7764536837214
 20
349.2456345048724
 30
0.0
 11
423.7764536837168
 21
349.2456345048818
 31
0.0
  0
ARC
  5
1085
330
2
100
AcDbEntity
  8
0
100
AcDbCircle
 10
423.7764536837246
 20
357.2456345048822
 30
0.0
 40
8.0
100
AcDbArc
 50
261.1083543197433
 51
269.9999999999478
  0
ARC
  5
1086
330
2
100
AcDbEntity
  8
0
100
AcDbCircle
 10
410.1746166572991
 20
270.3031821038452
 30
0.0
 40
80.0
100
AcDbArc
 50
81.10835431974335
 51
94.58824575915246
  0
LINE
  5
1087
330
2
100
AcDbEntity
  8
0
 48
0.5
100
AcDbLine
 10
443.7764536837305
 20
359.2456345048633
 30
0.0
 11
443.7764536837396
 21
369.2456345048674
 31
0.0
  0
ARC
  5
1088
330
2
100
AcDbEntity
  8
0
100
AcDbCircle
 10
435.7764536837391
 20
369.2456345048747
 30
0.0
 40
8.0
100
AcDbArc
 50
359.9999999999478
 51
8.891645680153551
  0
ARC
  5
1089
330
2
100
AcDbEntity
  8
0
100
AcDbCircle
 10
522.7189060848011
 20
382.8474715311399
 30
0.0
 40
80.0
100
AcDbArc
 50
175.4117542407342
 51
188.8916456801534
  0
LINE
  5
108A
330
2
100
AcDbEntity
  8
0
 48
0.5
100
AcDbLine
 10
334.4164536837818
 20
349.2456345049642
 30
0.0
 11
343.7764536837214
 21
349.2456345049556
 31
0.0
  0
ARC
  5
108B
330
2
100
AcDbEntity
  8
0
 48
0.5
100
AcDbCircle
 10
334.4164536837908
 20
359.2456345049642
 30
0.0
 40
10.0
100
AcDbArc
 50
179.9999999999479
 51
269.9999999999478
  0
ARC
  5
108C
330
2
100
AcDbEntity
  8
0
100
AcDbCircle
 10
343.7764536837291
 20
357.2456345049559
 30
0.0
 40
8.0
100
AcDbArc
 50
269.9999999999478
 51
278.8916456801511
  0
ARC
  5
108D
330
2
100
AcDbEntity
  8
0
100
AcDbCircle
 10
357.3782907099937
 20
270.303182103894
 30
0.0
 40
80.0
100
AcDbArc
 50
85.41175424074296
 51
98.89164568015118
  0
ARC
  5
108E
330
2
100
AcDbEntity
  8
0
 48
0.5
100
AcDbCircle
 10
433.7764536838228
 20
459.2456345048756
 30
0.0
 40
10.0
100
AcDbArc
 50
359.9999999999478
 51
89.99999999994789
  0
LINE
  5
108F
330
2
100
AcDbEntity
  8
0
 48
0.5
100
AcDbLine
 10
433.7764536838319
 20
469.2456345048756
 30
0.0
 11
423.7764536838279
 21
469.2456345048847
 31
0.0
  0
ARC
  5
1090
330
2
100
AcDbEntity
  8
0
100
AcDbCircle
 10
423.7764536838206
 20
461.2456345048843
 30
0.0
 40
8.0
100
AcDbArc
 50
89.99999999994789
 51
98.89164568015118
  0
ARC
  5
1091
330
2
100
AcDbEntity
  8
0
100
AcDbCircle
 10
410.1746166575556
 20
548.1880869059464
 30
0.0
 40
80.0
100
AcDbArc
 50
265.4117542407429
 51
278.8916456801511
  0
LINE
  5
1092
330
2
100
AcDbEntity
  8
0
 48
0.5
100
AcDbLine
 10
443.7764536838228
 20
459.2456345048662
 30
0.0
 11
443.7764536838133
 21
449.2456345048622
 31
0.0
  0
ARC
  5
1093
330
2
100
AcDbEntity
  8
0
100
AcDbCircle
 10
435.7764536838129
 20
449.2456345048696
 30
0.0
 40
8.0
100
AcDbArc
 50
351.1083543197523
 51
359.9999999999478
  0
ARC
  5
1094
330
2
100
AcDbEntity
  8
0
100
AcDbCircle
 10
522.7189060848497
 20
435.643797478444
 30
0.0
 40
80.0
100
AcDbArc
 50
171.1083543197401
 51
184.5882457591504
  0
LINE
  5
1095
330
2
100
AcDbEntity
  8
0
 48
0.5
100
AcDbLine
 10
334.4164536838927
 20
469.2456345049673
 30
0.0
 11
343.7764536838324
 21
469.2456345049585
 31
0.0
  0
ARC
  5
1096
330
2
100
AcDbEntity
  8
0
100
AcDbCircle
 10
343.7764536838251
 20
461.2456345049582
 30
0.0
 40
8.0
100
AcDbArc
 50
81.10835431974335
 51
89.99999999994789
  0
ARC
  5
1097
330
2
100
AcDbEntity
  8
0
100
AcDbCircle
 10
357.3782907102502
 20
548.188086905995
 30
0.0
 40
80.0
100
AcDbArc
 50
261.1083543197433
 51
274.5882457591524
  0
ARC
  5
1098
330
2
100
AcDbEntity
  8
0
100
AcDbCircle
 10
193.776453683776
 20
409.2456345050967
 30
0.0
 40
250.0
100
AcDbArc
 50
355.4117542407342
 51
4.588245759156921
  0
ARC
  5
1099
330
2
100
AcDbEntity
  8
0
100
AcDbCircle
 10
383.7764536836004
 20
219.2456345049216
 30
0.0
 40
250.0
100
AcDbArc
 50
85.41175424074296
 51
94.58824575915246
  0
LINE
  5
10C8
330
2
100
AcDbEntity
  8
0
100
AcDbLine
 10
1007.419171748529
 20
819.5577374685461
 30
0.0
 11
1007.34920449556
 21
827.5751905395427
 31
0.0
  0
ARC
  5
10C9
330
2
100
AcDbEntity
  8
0
100
AcDbCircle
 10
1005.349280649432
 20
827.5577374685461
 30
0.0
 40
2.0
100
AcDbArc
 50
0.499999999998063
 51
90.0
  0
LINE
  5
10CA
330
2
100
AcDbEntity
  8
0
100
AcDbLine
 10
984.9818214793401
 20
843.0577374685462
 30
0.0
 11
948.0591717485296
 21
843.0577374685462
 31
0.0
  0
LINE
  5
10CB
330
2
100
AcDbEntity
  8
0
 48
0.5
100
AcDbLine
 10
988.0591717485296
 20
834.5577374685463
 30
0.0
 11
987.5591717485301
 21
835.0577374685462
 31
0.0
  0
LINE
  5
10CC
330
2
100
AcDbEntity
  8
0
100
AcDbLine
 10
904.5591717485297
 20
834.5577374685447
 30
0.0
 11
991.5591717485296
 21
834.557737468546
 31
0.0
  0
ARC
  5
10CD
330
2
100
AcDbEntity
  8
0
100
AcDbCircle
 10
985.1591717485296
 20
840.2577374685467
 30
0.0
 40
0.3
100
AcDbArc
 50
90.0
 51
180.0
  0
ARC
  5
10CE
330
2
100
AcDbEntity
  8
0
100
AcDbCircle
 10
985.1591717485296
 20
838.8577374685468
 30
0.0
 40
0.3
100
AcDbArc
 50
180.0
 51
270.0
  0
LINE
  5
10CF
330
2
100
AcDbEntity
  8
0
 48
0.5
100
AcDbLine
 10
985.3591717485299
 20
838.5577374685468
 30
0.0
 11
985.5591717485296
 21
838.3577374685469
 31
0.0
  0
LINE
  5
10D0
330
2
100
AcDbEntity
  8
0
 48
0.5
100
AcDbLine
 10
984.8591717485298
 20
840.2577374685467
 30
0.0
 11
984.8591717485298
 21
838.8577374685468
 31
0.0
  0
LINE
  5
10D1
330
2
100
AcDbEntity
  8
0
100
AcDbLine
 10
985.5591717485296
 20
842.0577374685468
 30
0.0
 11
984.9818214793398
 21
843.0577374685467
 31
0.0
  0
LINE
  5
10D2
330
2
100
AcDbEntity
  8
0
100
AcDbLine
 10
985.2591717485294
 20
840.5577374685467
 30
0.0
 11
910.8591717485303
 21
840.5577374685469
 31
0.0
  0
ARC
  5
10D3
330
2
100
AcDbEntity
  8
0
 48
0.5
100
AcDbCircle
 10
985.2591717485294
 20
840.8577374685467
 30
0.0
 40
0.3
100
AcDbArc
 50
270.0
 51
0.0
  0
LINE
  5
10D4
330
2
100
AcDbEntity
  8
0
 48
0.5
100
AcDbLine
 10
985.5591717485296
 20
842.0577374685468
 30
0.0
 11
985.5591717485296
 21
840.8577374685467
 31
0.0
  0
LINE
  5
10D5
330
2
100
AcDbEntity
  8
0
 48
0.5
100
AcDbLine
 10
985.5591717485296
 20
838.3577374685469
 30
0.0
 11
985.5591717485296
 21
835.0577374685467
 31
0.0
  0
LINE
  5
10D6
330
2
100
AcDbEntity
  8
HIDS
  6
SEKKEI_H
 48
0.5
100
AcDbLine
 10
1000.473385310904
 20
830.1435239061724
 30
0.0
 11
996.6449581861573
 21
833.9719510309178
 31
0.0
  0
ARC
  5
10D7
330
2
100
AcDbEntity
  8
HIDS
  6
SEKKEI_H
100
AcDbCircle
 10
995.2307446237838
 20
832.5577374685448
 30
0.0
 40
2.0
100
AcDbArc
 50
44.9999999999907
 51
90.0
  0
ARC
  5
10D8
330
2
100
AcDbEntity
  8
HIDS
  6
SEKKEI_H
 48
0.5
100
AcDbCircle
 10
1001.887598873277
 20
831.557737468546
 30
0.0
 40
2.0
100
AcDbArc
 50
224.9999999999895
 51
270.0
  0
LINE
  5
10D9
330
2
100
AcDbEntity
  8
0
100
AcDbLine
 10
911.1365220177196
 20
843.0577374685462
 30
0.0
 11
948.0591717485296
 21
843.0577374685462
 31
0.0
  0
LINE
  5
10DA
330
2
100
AcDbEntity
  8
0
 48
0.5
100
AcDbLine
 10
908.0591717485297
 20
834.5577374685463
 30
0.0
 11
908.5591717485296
 21
835.0577374685462
 31
0.0
  0
ARC
  5
10DB
330
2
100
AcDbEntity
  8
0
100
AcDbCircle
 10
910.9591717485303
 20
840.2577374685467
 30
0.0
 40
0.3
100
AcDbArc
 50
0.0
 51
90.0
  0
ARC
  5
10DC
330
2
100
AcDbEntity
  8
0
100
AcDbCircle
 10
910.9591717485303
 20
838.8577374685468
 30
0.0
 40
0.3
100
AcDbArc
 50
270.0
 51
0.0
  0
LINE
  5
10DD
330
2
100
AcDbEntity
  8
0
100
AcDbLine
 10
910.7591717485304
 20
838.5577374685468
 30
0.0
 11
985.3591717485299
 21
838.5577374685468
 31
0.0
  0
LINE
  5
10DE
330
2
100
AcDbEntity
  8
0
 48
0.5
100
AcDbLine
 10
910.7591717485304
 20
838.5577374685468
 30
0.0
 11
910.5591717485301
 21
838.3577374685469
 31
0.0
  0
LINE
  5
10DF
330
2
100
AcDbEntity
  8
0
 48
0.5
100
AcDbLine
 10
911.2591717485305
 20
840.2577374685467
 30
0.0
 11
911.2591717485305
 21
838.8577374685468
 31
0.0
  0
LINE
  5
10E0
330
2
100
AcDbEntity
  8
0
100
AcDbLine
 10
910.5591717485301
 20
842.0577374685468
 30
0.0
 11
911.1365220177196
 21
843.0577374685467
 31
0.0
  0
ARC
  5
10E1
330
2
100
AcDbEntity
  8
0
 48
0.5
100
AcDbCircle
 10
910.8591717485303
 20
840.8577374685467
 30
0.0
 40
0.3
100
AcDbArc
 50
180.0
 51
270.0
  0
LINE
  5
10E2
330
2
100
AcDbEntity
  8
0
 48
0.5
100
AcDbLine
 10
910.5591717485301
 20
842.0577374685468
 30
0.0
 11
910.5591717485301
 21
840.8577374685467
 31
0.0
  0
LINE
  5
10E3
330
2
100
AcDbEntity
  8
0
 48
0.5
100
AcDbLine
 10
910.5591717485301
 20
838.3577374685469
 30
0.0
 11
910.5591717485301
 21
835.0577374685467
 31
0.0
  0
LINE
  5
10E4
330
2
100
AcDbEntity
  8
0
 48
0.3
100
AcDbLine
 10
890.0591717485307
 20
829.5577374685461
 30
0.0
 11
1005.349280649432
 21
829.5577374685461
 31
0.0
  0
LINE
  5
10E5
330
2
100
AcDbEntity
  8
0
100
AcDbLine
 10
888.0591717485302
 20
819.5577374685461
 30
0.0
 11
1007.419171748529
 21
819.5577374685461
 31
0.0
  0
LINE
  5
10E6
330
2
100
AcDbEntity
  8
HIDS
  6
SEKKEI_H
 48
0.5
100
AcDbLine
 10
895.6449581861564
 20
830.1435239061724
 30
0.0
 11
899.4733853109025
 21
833.9719510309178
 31
0.0
  0
ARC
  5
10E7
330
2
100
AcDbEntity
  8
HIDS
  6
SEKKEI_H
100
AcDbCircle
 10
900.8875988732754
 20
832.5577374685448
 30
0.0
 40
2.0
100
AcDbArc
 50
90.0
 51
135.0000000000092
  0
ARC
  5
10E8
330
2
100
AcDbEntity
  8
HIDS
  6
SEKKEI_H
 48
0.5
100
AcDbCircle
 10
894.230744623783
 20
831.557737468546
 30
0.0
 40
2.0
100
AcDbArc
 50
270.0
 51
315.0000000000104
  0
ARC
  5
10E9
330
2
100
AcDbEntity
  8
0
 48
0.3
100
AcDbCircle
 10
890.1290628476283
 20
827.5577374685461
 30
0.0
 40
2.0
100
AcDbArc
 50
90.0
 51
179.4999999999954
  0
LINE
  5
10EA
330
2
100
AcDbEntity
  8
0
100
AcDbLine
 10
888.1291390015
 20
827.5751905395429
 30
0.0
 11
888.0591717485302
 21
819.5577374685461
 31
0.0
  0
LINE
  5
10EB
330
2
100
AcDbEntity
  8
0
100
AcDbLine
 10
985.5591717485296
 20
842.0577374685468
 30
0.0
 11
910.5591717485301
 21
842.0577374685468
 31
0.0
  0
LINE
  5
10EC
330
2
100
AcDbEntity
  8
0
100
AcDbLine
 10
985.5591717485296
 20
838.3577374685469
 30
0.0
 11
910.5591717485301
 21
838.3577374685469
 31
0.0
  0
LINE
  5
10ED
330
2
100
AcDbEntity
  8
0
100
AcDbLine
 10
987.5591717485301
 20
835.0577374685462
 30
0.0
 11
908.5591717485296
 21
835.0577374685462
 31
0.0
  0
LINE
  5
10F4
330
2
100
AcDbEntity
  8
0
100
AcDbLine
 10
898.0591717485307
 20
828.057737468546
 30
0.0
 11
898.0591717485307
 21
819.5577374685473
 31
0.0
  0
LINE
  5
10F5
330
2
100
AcDbEntity
  8
0
100
AcDbLine
 10
908.0591717485319
 20
828.057737468546
 30
0.0
 11
908.0591717485319
 21
819.5577374685472
 31
0.0
  0
LINE
  5
10F6
330
2
100
AcDbEntity
  8
0
100
AcDbLine
 10
928.0605634351134
 20
828.057737468546
 30
0.0
 11
928.0605634351134
 21
819.5577374685466
 31
0.0
  0
LINE
  5
10F7
330
2
100
AcDbEntity
  8
0
100
AcDbLine
 10
968.0577800619433
 20
828.057737468546
 30
0.0
 11
968.0577800619433
 21
819.5577374685454
 31
0.0
  0
LINE
  5
10F8
330
2
100
AcDbEntity
  8
0
100
AcDbLine
 10
988.0591717485273
 20
828.057737468546
 30
0.0
 11
988.0591717485273
 21
819.5577374685449
 31
0.0
  0
LINE
  5
10F9
330
2
100
AcDbEntity
  8
0
100
AcDbLine
 10
998.0591717485316
 20
828.057737468546
 30
0.0
 11
998.0591717485316
 21
819.5577374685447
 31
0.0
  0
LINE
  5
10FA
330
2
100
AcDbEntity
  8
0
 48
0.3
100
AcDbLine
 10
904.5591717485297
 20
839.0577374685459
 30
0.0
 11
891.5591717485296
 21
839.0577374685459
 31
0.0
  0
LINE
  5
10FB
330
2
100
AcDbEntity
  8
0
 48
0.3
100
AcDbLine
 10
903.6931463447437
 20
839.557737468546
 30
0.0
 11
892.4251971523146
 21
839.557737468546
 31
0.0
  0
LINE
  5
10FC
330
2
100
AcDbEntity
  8
0
 48
0.3
100
AcDbLine
 10
891.5591717485296
 20
839.0577374685459
 30
0.0
 11
892.4251971523146
 21
839.557737468546
 31
0.0
  0
LINE
  5
10FD
330
2
100
AcDbEntity
  8
0
 48
0.3
100
AcDbLine
 10
891.5591717485296
 20
839.0577374685459
 30
0.0
 11
891.5591717485296
 21
831.557737468546
 31
0.0
  0
LINE
  5
10FE
330
2
100
AcDbEntity
  8
0
 48
0.3
100
AcDbLine
 10
904.5591717485297
 20
839.0577374685454
 30
0.0
 11
903.6931463447452
 21
839.5577374685455
 31
0.0
  0
LINE
  5
10FF
330
2
100
AcDbEntity
  8
0
 48
0.3
100
AcDbLine
 10
904.5591717485297
 20
839.0577374685451
 30
0.0
 11
904.5591717485297
 21
831.557737468546
 31
0.0
  0
LINE
  5
1100
330
2
100
AcDbEntity
  8
0
 48
0.3
100
AcDbLine
 10
1004.559171748529
 20
839.0577374685459
 30
0.0
 11
991.5591717485296
 21
839.0577374685459
 31
0.0
  0
LINE
  5
1101
330
2
100
AcDbEntity
  8
0
 48
0.3
100
AcDbLine
 10
1003.693146344743
 20
839.557737468546
 30
0.0
 11
992.4251971523146
 21
839.557737468546
 31
0.0
  0
LINE
  5
1102
330
2
100
AcDbEntity
  8
0
 48
0.3
100
AcDbLine
 10
991.5591717485296
 20
839.0577374685459
 30
0.0
 11
992.4251971523146
 21
839.557737468546
 31
0.0
  0
LINE
  5
1103
330
2
100
AcDbEntity
  8
0
 48
0.3
100
AcDbLine
 10
991.5591717485296
 20
839.0577374685459
 30
0.0
 11
991.5591717485296
 21
831.557737468546
 31
0.0
  0
LINE
  5
1104
330
2
100
AcDbEntity
  8
0
 48
0.3
100
AcDbLine
 10
1004.559171748529
 20
839.0577374685454
 30
0.0
 11
1003.693146344745
 21
839.5577374685455
 31
0.0
  0
LINE
  5
1105
330
2
100
AcDbEntity
  8
0
 48
0.3
100
AcDbLine
 10
1004.559171748529
 20
839.0577374685451
 30
0.0
 11
1004.559171748529
 21
831.557737468546
 31
0.0
  0
LINE
  5
1106
330
2
100
AcDbEntity
  8
CENTER
 48
0.5
100
AcDbLine
 10
898.0591717485296
 20
842.557737468546
 30
0.0
 11
898.0591717485296
 21
823.557737468546
 31
0.0
  0
LINE
  5
1107
330
2
100
AcDbEntity
  8
CENTER
 48
0.5
100
AcDbLine
 10
998.0591717485296
 20
842.557737468546
 30
0.0
 11
998.0591717485296
 21
823.557737468546
 31
0.0
  0
LINE
  5
1116
330
2
100
AcDbEntity
  8
CENTER
100
AcDbLine
 10
1011.767238850136
 20
345.5375674033807
 30
0.0
 11
884.3511046469242
 21
472.9537016065914
 31
0.0
  0
LINE
  5
1117
330
2
100
AcDbEntity
  8
CENTER
100
AcDbLine
 10
884.3511046469251
 20
345.5375674033802
 30
0.0
 11
1011.767238850135
 21
472.953701606592
 31
0.0
  0
LINE
  5
111A
330
2
100
AcDbEntity
  8
HIDS
  6
SEKKEI_H
100
AcDbLine
 10
900.8875988732754
 20
834.5577374685447
 30
0.0
 11
904.5591717485297
 21
834.5577374685447
 31
0.0
  0
LINE
  5
111B
330
2
100
AcDbEntity
  8
HIDS
  6
SEKKEI_H
100
AcDbLine
 10
991.5591717485296
 20
834.557737468546
 30
0.0
 11
995.2307446237838
 21
834.5577374685447
 31
0.0
  0
LINE
  5
1120
330
2
100
AcDbEntity
  8
0
100
AcDbLine
 10
433.7764536838833
 20
455.7815328897379
 30
0.0
 11
436.7764536838833
 21
457.5135836973068
 31
0.0
  0
LINE
  5
1121
330
2
100
AcDbEntity
  8
0
100
AcDbLine
 10
430.7764536838833
 20
460.9776853124444
 30
0.0
 11
433.7764536838833
 21
462.7097361200133
 31
0.0
  0
CIRCLE
  5
1122
330
2
100
AcDbEntity
  8
0
100
AcDbCircle
 10
433.7764536838833
 20
459.2456345048756
 30
0.0
 40
6.5
  0
LINE
  5
1123
330
2
100
AcDbEntity
  8
0
100
AcDbLine
 10
436.7764536838833
 20
460.9776853124444
 30
0.0
 11
433.7764536838833
 21
462.7097361200132
 31
0.0
  0
LINE
  5
1124
330
2
100
AcDbEntity
  8
0
100
AcDbLine
 10
433.7764536838833
 20
455.781532889738
 30
0.0
 11
430.7764536838833
 21
457.5135836973067
 31
0.0
  0
LINE
  5
1125
330
2
100
AcDbEntity
  8
0
100
AcDbLine
 10
436.7764536838833
 20
457.5135836973069
 30
0.0
 11
436.7764536838833
 21
460.9776853124444
 31
0.0
  0
LINE
  5
1126
330
2
100
AcDbEntity
  8
0
100
AcDbLine
 10
430.7764536838833
 20
457.5135836973066
 30
0.0
 11
430.7764536838833
 21
460.9776853124444
 31
0.0
  0
CIRCLE
  5
1127
330
2
100
AcDbEntity
  8
0
100
AcDbCircle
 10
433.7764536838833
 20
459.2456345048756
 30
0.0
 40
5.633974596215466
  0
CIRCLE
  5
1128
330
2
100
AcDbEntity
  8
0
100
AcDbCircle
 10
433.7764536838833
 20
459.2456345048756
 30
0.0
 40
7.25
  0
LINE
  5
1129
330
2
100
AcDbEntity
  8
0
100
AcDbLine
 10
333.7764536838833
 20
455.7815328898305
 30
0.0
 11
336.7764536838833
 21
457.5135836973995
 31
0.0
  0
LINE
  5
112A
330
2
100
AcDbEntity
  8
0
100
AcDbLine
 10
330.7764536838833
 20
460.977685312537
 30
0.0
 11
333.7764536838833
 21
462.709736120106
 31
0.0
  0
CIRCLE
  5
112B
330
2
100
AcDbEntity
  8
0
100
AcDbCircle
 10
333.7764536838833
 20
459.2456345049682
 30
0.0
 40
6.5
  0
LINE
  5
112C
330
2
100
AcDbEntity
  8
0
100
AcDbLine
 10
336.7764536838833
 20
460.977685312537
 30
0.0
 11
333.7764536838833
 21
462.7097361201059
 31
0.0
  0
LINE
  5
112D
330
2
100
AcDbEntity
  8
0
100
AcDbLine
 10
333.7764536838833
 20
455.7815328898306
 30
0.0
 11
330.7764536838833
 21
457.5135836973993
 31
0.0
  0
LINE
  5
112E
330
2
100
AcDbEntity
  8
0
100
AcDbLine
 10
336.7764536838833
 20
457.5135836973996
 30
0.0
 11
336.7764536838833
 21
460.9776853125372
 31
0.0
  0
LINE
  5
112F
330
2
100
AcDbEntity
  8
0
100
AcDbLine
 10
330.7764536838833
 20
457.5135836973992
 30
0.0
 11
330.7764536838833
 21
460.977685312537
 31
0.0
  0
CIRCLE
  5
1130
330
2
100
AcDbEntity
  8
0
100
AcDbCircle
 10
333.7764536838833
 20
459.2456345049682
 30
0.0
 40
5.633974596215466
  0
CIRCLE
  5
1131
330
2
100
AcDbEntity
  8
0
100
AcDbCircle
 10
333.7764536838833
 20
459.2456345049682
 30
0.0
 40
7.25
  0
LINE
  5
1132
330
2
100
AcDbEntity
  8
0
100
AcDbLine
 10
333.776453683791
 20
355.7815328898943
 30
0.0
 11
336.7764536837905
 21
357.5135836974633
 31
0.0
  0
LINE
  5
1133
330
2
100
AcDbEntity
  8
0
100
AcDbLine
 10
330.776453683791
 20
360.9776853126009
 30
0.0
 11
333.776453683791
 21
362.7097361201698
 31
0.0
  0
CIRCLE
  5
1134
330
2
100
AcDbEntity
  8
0
100
AcDbCircle
 10
333.776453683791
 20
359.245634505032
 30
0.0
 40
6.5
  0
LINE
  5
1135
330
2
100
AcDbEntity
  8
0
100
AcDbLine
 10
336.7764536837905
 20
360.9776853126009
 30
0.0
 11
333.776453683791
 21
362.7097361201697
 31
0.0
  0
LINE
  5
1136
330
2
100
AcDbEntity
  8
0
100
AcDbLine
 10
333.776453683791
 20
355.7815328898945
 30
0.0
 11
330.776453683791
 21
357.5135836974632
 31
0.0
  0
LINE
  5
1137
330
2
100
AcDbEntity
  8
0
100
AcDbLine
 10
336.7764536837905
 20
357.5135836974634
 30
0.0
 11
336.7764536837905
 21
360.977685312601
 31
0.0
  0
LINE
  5
1138
330
2
100
AcDbEntity
  8
0
100
AcDbLine
 10
330.776453683791
 20
357.5135836974631
 30
0.0
 11
330.776453683791
 21
360.9776853126009
 31
0.0
  0
CIRCLE
  5
1139
330
2
100
AcDbEntity
  8
0
100
AcDbCircle
 10
333.776453683791
 20
359.245634505032
 30
0.0
 40
5.633974596215466
  0
CIRCLE
  5
113A
330
2
100
AcDbEntity
  8
0
100
AcDbCircle
 10
333.776453683791
 20
359.245634505032
 30
0.0
 40
7.25
  0
LINE
  5
113B
330
2
100
AcDbEntity
  8
0
100
AcDbLine
 10
433.7764536838601
 20
355.7815328897377
 30
0.0
 11
436.7764536838596
 21
357.5135836973067
 31
0.0
  0
LINE
  5
113C
330
2
100
AcDbEntity
  8
0
100
AcDbLine
 10
430.7764536838601
 20
360.9776853124443
 30
0.0
 11
433.7764536838601
 21
362.7097361200132
 31
0.0
  0
CIRCLE
  5
113D
330
2
100
AcDbEntity
  8
0
100
AcDbCircle
 10
433.7764536838601
 20
359.2456345048754
 30
0.0
 40
6.5
  0
LINE
  5
113E
330
2
100
AcDbEntity
  8
0
100
AcDbLine
 10
436.7764536838596
 20
360.9776853124443
 30
0.0
 11
433.7764536838601
 21
362.7097361200131
 31
0.0
  0
LINE
  5
113F
330
2
100
AcDbEntity
  8
0
100
AcDbLine
 10
433.7764536838601
 20
355.7815328897378
 30
0.0
 11
430.7764536838601
 21
357.5135836973066
 31
0.0
  0
LINE
  5
1140
330
2
100
AcDbEntity
  8
0
100
AcDbLine
 10
436.7764536838596
 20
357.5135836973068
 30
0.0
 11
436.7764536838596
 21
360.9776853124444
 31
0.0
  0
LINE
  5
1141
330
2
100
AcDbEntity
  8
0
100
AcDbLine
 10
430.7764536838601
 20
357.5135836973065
 30
0.0
 11
430.7764536838601
 21
360.9776853124443
 31
0.0
  0
CIRCLE
  5
1142
330
2
100
AcDbEntity
  8
0
100
AcDbCircle
 10
433.7764536838601
 20
359.2456345048754
 30
0.0
 40
5.633974596215466
  0
CIRCLE
  5
1143
330
2
100
AcDbEntity
  8
0
100
AcDbCircle
 10
433.7764536838601
 20
359.2456345048754
 30
0.0
 40
7.25
  0
LINE
  5
114C
330
2
100
AcDbEntity
  8
0
 48
0.3
100
AcDbLine
 10
905.3091717485298
 20
831.5577374685462
 30
0.0
 11
890.8091717485296
 21
831.557737468546
 31
0.0
  0
LINE
  5
114D
330
2
100
AcDbEntity
  8
0
 48
0.3
100
AcDbLine
 10
890.8091717485296
 20
831.557737468546
 30
0.0
 11
890.8091717485296
 21
829.5577374685461
 31
0.0
  0
LINE
  5
114E
330
2
100
AcDbEntity
  8
0
 48
0.3
100
AcDbLine
 10
905.3091717485298
 20
831.5577374685462
 30
0.0
 11
905.3091717485298
 21
829.5577374685461
 31
0.0
  0
LINE
  5
114F
330
2
100
AcDbEntity
  8
0
100
AcDbLine
 10
905.3091717485298
 20
829.5577374685461
 30
0.0
 11
890.8091717485296
 21
829.5577374685461
 31
0.0
  0
LINE
  5
1150
330
2
100
AcDbEntity
  8
0
 48
0.3
100
AcDbLine
 10
1005.309171748529
 20
831.5577374685462
 30
0.0
 11
990.8091717485296
 21
831.557737468546
 31
0.0
  0
LINE
  5
1151
330
2
100
AcDbEntity
  8
0
 48
0.3
100
AcDbLine
 10
990.8091717485296
 20
831.557737468546
 30
0.0
 11
990.8091717485296
 21
829.5577374685461
 31
0.0
  0
LINE
  5
1152
330
2
100
AcDbEntity
  8
0
 48
0.3
100
AcDbLine
 10
1005.309171748529
 20
831.5577374685462
 30
0.0
 11
1005.309171748529
 21
829.5577374685461
 31
0.0
  0
LINE
  5
1153
330
2
100
AcDbEntity
  8
0
100
AcDbLine
 10
1005.309171748529
 20
829.5577374685461
 30
0.0
 11
990.8091717485296
 21
829.5577374685461
 31
0.0
  0
LINE
  5
1157
330
2
100
AcDbEntity
  8
CENTER
100
AcDbLine
 10
423.7969546984706
 20
459.2456345048847
 30
0.0
 11
443.75595266931
 21
459.2456345048661
 31
0.0
  0
LINE
  5
1158
330
2
100
AcDbEntity
  8
CENTER
100
AcDbLine
 10
433.7764536838742
 20
449.2661355194557
 30
0.0
 11
433.7764536838928
 21
469.2251334902953
 31
0.0
  0
LINE
  5
1159
330
2
100
AcDbEntity
  8
CENTER
100
AcDbLine
 10
423.796954698447
 20
359.2456345048846
 30
0.0
 11
443.7559526692864
 21
359.245634504866
 31
0.0
  0
LINE
  5
115A
330
2
100
AcDbEntity
  8
CENTER
100
AcDbLine
 10
433.7764536838506
 20
349.2661355194556
 30
0.0
 11
433.7764536838692
 21
369.2251334902951
 31
0.0
  0
LINE
  5
115B
330
2
100
AcDbEntity
  8
CENTER
100
AcDbLine
 10
323.7969546983779
 20
359.2456345050412
 30
0.0
 11
343.7559526692173
 21
359.2456345050226
 31
0.0
  0
LINE
  5
115C
330
2
100
AcDbEntity
  8
CENTER
100
AcDbLine
 10
333.7764536837815
 20
349.2661355196122
 30
0.0
 11
333.7764536838001
 21
369.2251334904517
 31
0.0
  0
LINE
  5
115D
330
2
100
AcDbEntity
  8
CENTER
100
AcDbLine
 10
436.276453683821
 20
365.0838417037718
 30
0.0
 11
436.2764536838315
 21
376.407427306152
 31
0.0
  0
LINE
  5
115E
330
2
100
AcDbEntity
  8
CENTER
100
AcDbLine
 10
441.9382464850161
 20
370.7456345049567
 30
0.0
 11
430.6146608826359
 21
370.7456345049671
 31
0.0
  0
LINE
  5
115F
330
2
100
AcDbEntity
  8
0
100
AcDbLine
 10
278.2764536838401
 20
469.7456345049857
 30
0.0
 11
292.2764536838401
 21
469.7456345049857
 31
0.0
  0
ARC
  5
1160
330
2
100
AcDbEntity
  8
0
100
AcDbCircle
 10
292.2764536838401
 20
467.7456345049858
 30
0.0
 40
2.0
100
AcDbArc
 50
0.0
 51
90.0
  0
LINE
  5
1161
330
2
100
AcDbEntity
  8
0
100
AcDbLine
 10
278.2764536838401
 20
348.7456345049865
 30
0.0
 11
292.2764536838401
 21
348.7456345049865
 31
0.0
  0
ARC
  5
1162
330
2
100
AcDbEntity
  8
0
100
AcDbCircle
 10
292.2764536838401
 20
350.7456345049865
 30
0.0
 40
2.0
100
AcDbArc
 50
270.0
 51
0.0
  0
LINE
  5
1163
330
2
100
AcDbEntity
  8
0
100
AcDbLine
 10
1039.559171748527
 20
469.7456345049856
 30
0.0
 11
1053.559171748527
 21
469.7456345049857
 31
0.0
  0
ARC
  5
1164
330
2
100
AcDbEntity
  8
0
100
AcDbCircle
 10
1039.559171748527
 20
467.7456345049857
 30
0.0
 40
2.0
100
AcDbArc
 50
90.0
 51
180.0
  0
LINE
  5
1165
330
2
100
AcDbEntity
  8
0
100
AcDbLine
 10
1039.559171748527
 20
348.7456345049865
 30
0.0
 11
1053.559171748527
 21
348.7456345049864
 31
0.0
  0
ARC
  5
1166
330
2
100
AcDbEntity
  8
0
100
AcDbCircle
 10
1039.559171748527
 20
350.7456345049865
 30
0.0
 40
2.0
100
AcDbArc
 50
180.0
 51
270.0
  0
ARC
  5
1252
330
2
100
AcDbEntity
  8
0
100
AcDbCircle
 10
1029.085082820361
 20
825.0577374685516
 30
0.0
 40
8.0
100
AcDbArc
 50
270.0
 51
358.5000000000103
  0
LINE
  5
1253
330
2
100
AcDbEntity
  8
0
100
AcDbLine
 10
1029.085082820363
 20
817.0577374685516
 30
0.0
 11
1026.981642361291
 21
817.057737468551
 31
0.0
  0
ARC
  5
1254
330
2
100
AcDbEntity
  8
0
100
AcDbCircle
 10
1026.981642361291
 20
814.0577374685511
 30
0.0
 40
3.0
100
AcDbArc
 50
90.0
 51
178.5000000000038
  0
LINE
  5
1255
330
2
100
AcDbEntity
  8
0
100
AcDbLine
 10
1020.979585606346
 20
811.057737468551
 30
0.0
 11
1010.465858973914
 21
811.0577374685508
 31
0.0
  0
ARC
  5
1256
330
2
100
AcDbEntity
  8
0
100
AcDbCircle
 10
1010.465858973914
 20
814.0577374685507
 30
0.0
 40
3.0
100
AcDbArc
 50
180.5000000000045
 51
270.0
  0
LINE
  5
1257
330
2
100
AcDbEntity
  8
0
100
AcDbLine
 10
1024.059171748527
 20
814.0577374685511
 30
0.0
 11
1024.059171748527
 21
814.0577374685511
 31
0.0
  0
LINE
  5
1258
330
2
100
AcDbEntity
  8
0
100
AcDbLine
 10
1024.059171748527
 20
752.0577374685447
 30
0.0
 11
1024.059171748527
 21
752.0577374685447
 31
0.0
  0
LINE
  5
1259
330
2
100
AcDbEntity
  8
0
100
AcDbLine
 10
1023.323909542043
 20
788.9792066236224
 30
0.0
 11
1023.982670386365
 21
814.1362683134746
 31
0.0
  0
ARC
  5
125A
330
2
100
AcDbEntity
  8
0
100
AcDbCircle
 10
1020.979585606346
 20
814.0577374685511
 30
0.0
 40
3.0
100
AcDbArc
 50
270.0
 51
358.5000000000038
  0
ARC
  5
125B
330
2
100
AcDbEntity
  8
0
100
AcDbCircle
 10
1020.324937567116
 20
789.057737468546
 30
0.0
 40
3.0
100
AcDbArc
 50
270.0
 51
358.5000000000038
  0
ARC
  5
125C
330
2
100
AcDbEntity
  8
0
100
AcDbCircle
 10
1029.085082820361
 20
741.0577374685442
 30
0.0
 40
8.0
100
AcDbArc
 50
1.499999999989688
 51
90.0
  0
LINE
  5
125D
330
2
100
AcDbEntity
  8
0
100
AcDbLine
 10
1029.085082820363
 20
749.0577374685442
 30
0.0
 11
1026.981642361291
 21
749.0577374685447
 31
0.0
  0
ARC
  5
125E
330
2
100
AcDbEntity
  8
0
100
AcDbCircle
 10
1026.981642361291
 20
752.0577374685447
 30
0.0
 40
3.0
100
AcDbArc
 50
181.4999999999962
 51
269.9999999999739
  0
LINE
  5
125F
330
2
100
AcDbEntity
  8
0
100
AcDbLine
 10
1020.979585606346
 20
755.0577374685446
 30
0.0
 11
1010.465858973914
 21
755.0577374685449
 31
0.0
  0
ARC
  5
1260
330
2
100
AcDbEntity
  8
0
100
AcDbCircle
 10
1010.465858973914
 20
752.0577374685449
 30
0.0
 40
3.0
100
AcDbArc
 50
90.0
 51
179.4999999999954
  0
LINE
  5
1261
330
2
100
AcDbEntity
  8
0
100
AcDbLine
 10
1024.059171748527
 20
752.0577374685447
 30
0.0
 11
1024.059171748527
 21
752.0577374685447
 31
0.0
  0
LINE
  5
1262
330
2
100
AcDbEntity
  8
0
100
AcDbLine
 10
1023.323909542043
 20
777.1362683134733
 30
0.0
 11
1023.982670386365
 21
751.9792066236211
 31
0.0
  0
ARC
  5
1263
330
2
100
AcDbEntity
  8
0
100
AcDbCircle
 10
1020.979585606346
 20
752.0577374685447
 30
0.0
 40
3.0
100
AcDbArc
 50
1.499999999996204
 51
90.0
  0
ARC
  5
1264
330
2
100
AcDbEntity
  8
0
100
AcDbCircle
 10
1020.324937567116
 20
777.0577374685497
 30
0.0
 40
3.0
100
AcDbArc
 50
1.499999999996204
 51
90.0
  0
TEXT
  5
1E89
330
2
100
AcDbEntity
  8
TITLE
100
AcDbText
 10
582.1864921232597
 20
814.2607666742835
 30
0.0
 40
10.0
  1
AFCZ28L-7.5~10M1000K61
100
AcDbText
  0
TEXT
  5
1E8A
330
2
100
AcDbEntity
  8
TITLE
100
AcDbText
 10
582.1864921232597
 20
798.7001694050368
 30
0.0
 40
10.0
  1
AFCZ28L-7.5~10L1000K61
100
AcDbText
  0
LINE
  5
2130
330
2
100
AcDbEntity
  8
0
100
AcDbLine
 10
1053.559171748527
 20
469.2456345049879
 30
0.0
 11
1053.559171748527
 21
349.2456345049861
 31
0.0
  0
LINE
  5
242D
330
2
100
AcDbEntity
  8
0
100
AcDbLine
 10
1053.559171748527
 20
469.2456345049879
 30
0.0
 11
1053.559171748527
 21
349.2456345049861
 31
0.0
  0
LINE
  5
2687
330
2
100
AcDbEntity
  8
0
100
AcDbLine
 10
1053.559171748527
 20
469.2456345049879
 30
0.0
 11
1053.559171748527
 21
349.2456345049861
 31
0.0
  0
LINE
  5
29B8
330
2
100
AcDbEntity
  8
0
100
AcDbLine
 10
1053.559171748527
 20
469.2456345049861
 30
0.0
 11
1053.559171748527
 21
349.2456345049861
 31
0.0
  0
LINE
  5
2A85
330
2
100
AcDbEntity
  8
0
100
AcDbLine
 10
278.2764536838399
 20
469.2456345049861
 30
0.0
 11
278.2764536838399
 21
349.2456345049861
 31
0.0
  0
LINE
  5
2D49
330
2
100
AcDbEntity
  8
0
100
AcDbLine
 10
933.0591717485297
 20
695.0577374685437
 30
0.0
 11
963.0591717485293
 21
695.0577374685434
 31
0.0
  0
LINE
  5
2D4A
330
2
100
AcDbEntity
  8
0
100
AcDbLine
 10
963.6365220177193
 20
696.0577374685437
 30
0.0
 11
963.0591717485296
 21
695.0577374685437
 31
0.0
  0
LINE
  5
2D4B
330
2
100
AcDbEntity
  8
0
100
AcDbLine
 10
962.0591717485293
 20
695.0577374685434
 30
0.0
 11
962.0591717485281
 21
650.0577374685437
 31
0.0
  0
LINE
  5
2D4C
330
2
100
AcDbEntity
  8
0
100
AcDbLine
 10
934.0591717485297
 20
695.0577374685437
 30
0.0
 11
934.0591717485299
 21
690.0577374685436
 31
0.0
  0
LINE
  5
2D4D
330
2
100
AcDbEntity
  8
0
100
AcDbLine
 10
934.5591717485296
 20
650.0577374685437
 30
0.0
 11
962.0591717485279
 21
650.0577374685438
 31
0.0
  0
LINE
  5
2D4E
330
2
100
AcDbEntity
  8
0
100
AcDbLine
 10
969.2704966139343
 20
696.0577374685437
 30
0.0
 11
926.8478468831245
 21
696.0577374685437
 31
0.0
  0
LINE
  5
2D4F
330
2
100
AcDbEntity
  8
0
100
AcDbLine
 10
932.4818214793392
 20
696.0577374685437
 30
0.0
 11
933.0591717485292
 21
695.0577374685437
 31
0.0
  0
LINE
  5
2D50
330
2
100
AcDbEntity
  8
0
100
AcDbLine
 10
969.7035093158264
 20
696.3077374685436
 30
0.0
 11
969.7912225560981
 21
696.4596612571902
 31
0.0
  0
ARC
  5
2D51
330
2
100
AcDbEntity
  8
0
100
AcDbCircle
 10
969.2704966139343
 20
696.5577374685437
 30
0.0
 40
0.5
100
AcDbArc
 50
270.0
 51
330.0000000000084
  0
ARC
  5
2D52
330
2
100
AcDbEntity
  8
0
100
AcDbCircle
 10
968.0591717485292
 20
697.4596612571903
 30
0.0
 40
2.0
100
AcDbArc
 50
330.0000000000084
 51
348.4067863764952
  0
LINE
  5
2D53
330
2
100
AcDbEntity
  8
0
100
AcDbLine
 10
926.4148341812322
 20
696.3077374685436
 30
0.0
 11
926.3271209409607
 21
696.4596612571902
 31
0.0
  0
ARC
  5
2D54
330
2
100
AcDbEntity
  8
0
100
AcDbCircle
 10
926.8478468831245
 20
696.5577374685437
 30
0.0
 40
0.5
100
AcDbArc
 50
209.9999999999915
 51
270.0
  0
ARC
  5
2D55
330
2
100
AcDbEntity
  8
0
100
AcDbCircle
 10
928.0591717485297
 20
697.4596612571903
 30
0.0
 40
2.0
100
AcDbArc
 50
191.5932136235047
 51
209.9999999999915
  0
LINE
  5
2D56
330
2
100
AcDbEntity
  8
0
100
AcDbLine
 10
931.0591717485296
 20
650.0577374685437
 30
0.0
 11
931.0591717485296
 21
690.0577374685436
 31
0.0
  0
LINE
  5
2D57
330
2
100
AcDbEntity
  8
0
100
AcDbLine
 10
934.5591717485296
 20
650.0577374685437
 30
0.0
 11
931.0591717485296
 21
650.0577374685437
 31
0.0
  0
LINE
  5
2D58
330
2
100
AcDbEntity
  8
0
100
AcDbLine
 10
934.0591717485299
 20
690.0577374685435
 30
0.0
 11
931.0591717485296
 21
690.0577374685436
 31
0.0
  0
LINE
  5
2D59
330
2
100
AcDbEntity
  8
0
100
AcDbLine
 10
934.6427638835313
 20
650.0577374685437
 30
0.0
 11
934.6427638835313
 21
686.0577374685436
 31
0.0
  0
LINE
  5
2D5A
330
2
100
AcDbEntity
  8
0
100
AcDbLine
 10
934.0591717485297
 20
690.0577374685436
 30
0.0
 11
934.6427638835313
 21
686.0577374685436
 31
0.0
  0
ARC
  5
2D6D
330
2
100
AcDbEntity
  8
0
100
AcDbCircle
 10
948.0591717485296
 20
409.2456345049856
 30
0.0
 40
13.99999999999958
100
AcDbArc
 50
196.6015495990203
 51
163.3984504009797
  0
ARC
  5
2D6E
330
2
100
AcDbEntity
  8
0
100
AcDbCircle
 10
948.0591717485296
 20
409.2456345049856
 30
0.0
 40
14.99999999999983
100
AcDbArc
 50
195.4660099534202
 51
164.5339900465797
  0
ARC
  5
2D6F
330
2
100
AcDbEntity
  8
0
100
AcDbCircle
 10
948.0591717485296
 20
409.2456345049856
 30
0.0
 40
15.57735026919027
100
AcDbArc
 50
194.8792668176911
 51
165.1207331823088
  0
CIRCLE
  5
2D70
330
2
100
AcDbEntity
  8
0
100
AcDbCircle
 10
948.0591717485296
 20
409.2456345049856
 30
0.0
 40
21.99999999999977
  0
LINE
  5
2D71
330
2
100
AcDbEntity
  8
0
100
AcDbLine
 10
931.0591717485296
 20
413.2456345049856
 30
0.0
 11
938.0591717485296
 21
413.2456345049856
 31
0.0
  0
LINE
  5
2D72
330
2
100
AcDbEntity
  8
0
100
AcDbLine
 10
931.0591717485296
 20
405.2456345049856
 30
0.0
 11
938.0591717485296
 21
405.2456345049856
 31
0.0
  0
LINE
  5
2D73
330
2
100
AcDbEntity
  8
0
100
AcDbLine
 10
938.0591717485296
 20
413.2456345049856
 30
0.0
 11
938.0591717485296
 21
405.2456345049856
 31
0.0
  0
LINE
  5
2D74
330
2
100
AcDbEntity
  8
0
100
AcDbLine
 10
931.0591717485296
 20
413.2456345049856
 30
0.0
 11
931.0591717485296
 21
405.2456345049856
 31
0.0
  0
ARC
  5
2EDD
330
2
100
AcDbEntity
  8
0
100
AcDbCircle
 10
529.8417812976663
 20
459.2456345049961
 30
0.0
 40
10.0
100
AcDbArc
 50
134.663786165675
 51
179.5225462226762
  0
LINE
  5
2EDE
330
2
100
AcDbEntity
  8
0
100
AcDbLine
 10
519.8421285018053
 20
459.3289649449618
 30
0.0
 11
519.4247674148012
 21
409.245634504986
 31
0.0
  0
ARC
  5
2EDF
330
2
100
AcDbEntity
  8
0
100
AcDbCircle
 10
529.8417812976663
 20
359.2456345049765
 30
0.0
 40
10.0
100
AcDbArc
 50
180.4774537773237
 51
225.3362138342511
  0
LINE
  5
2EE0
330
2
100
AcDbEntity
  8
0
100
AcDbLine
 10
519.8421285018053
 20
359.1623040650103
 30
0.0
 11
519.4247674148011
 21
409.245634504986
 31
0.0
  0
LINE
  5
2EE1
330
2
100
AcDbEntity
  8
CENTER
100
AcDbLine
 10
722.9247674148096
 20
409.245634504986
 30
0.0
 11
509.9247674148097
 21
409.245634504986
 31
0.0
  0
LINE
  5
2EE2
330
2
100
AcDbEntity
  8
0
100
AcDbLine
 10
651.9247674148157
 20
354.2456345049856
 30
0.0
 11
651.9247674148093
 21
464.2456345049854
 31
0.0
  0
LINE
  5
2EE3
330
2
100
AcDbEntity
  8
0
100
AcDbLine
 10
543.4247674148093
 20
469.2456345049858
 30
0.0
 11
543.4247674148057
 21
349.2456345049861
 31
0.0
  0
LINE
  5
2EE4
330
2
100
AcDbEntity
  8
0
100
AcDbLine
 10
665.9247674148097
 20
447.3142569553713
 30
0.0
 11
665.9247674148103
 21
371.1770120546004
 31
0.0
  0
ARC
  5
2EE5
330
2
100
AcDbEntity
  8
0
100
AcDbCircle
 10
663.9247674148102
 20
371.1770120546004
 30
0.0
 40
2.0
100
AcDbArc
 50
271.9999999999775
 51
0.0
  0
ARC
  5
2EE6
330
2
100
AcDbEntity
  8
0
100
AcDbCircle
 10
663.9247674148098
 20
447.3142569553713
 30
0.0
 40
2.0
100
AcDbArc
 50
0.0
 51
87.99999999999636
  0
LINE
  5
2EE8
330
2
100
AcDbEntity
  8
0
100
AcDbLine
 10
663.9945664082149
 20
449.3130386094094
 30
0.0
 11
659.6455714411897
 21
449.4649088601736
 31
0.0
  0
LINE
  5
2EE9
330
2
100
AcDbEntity
  8
0
100
AcDbLine
 10
663.9945664082149
 20
369.1782304005623
 30
0.0
 11
659.6455714411956
 21
369.0263601497985
 31
0.0
  0
LINE
  5
2EEA
330
2
100
AcDbEntity
  8
0
100
AcDbLine
 10
543.4247674148061
 20
359.2456345049868
 30
0.0
 11
645.4247674148144
 21
359.2456345049859
 31
0.0
  0
LINE
  5
2EEB
330
2
100
AcDbEntity
  8
0
100
AcDbLine
 10
645.4247674148144
 20
369.2456345049881
 30
0.0
 11
543.4247674148061
 21
369.2456345049881
 31
0.0
  0
LINE
  5
2EEC
330
2
100
AcDbEntity
  8
0
100
AcDbLine
 10
645.4247674148144
 20
389.2470261915698
 30
0.0
 11
543.424767414807
 21
389.2470261915698
 31
0.0
  0
LINE
  5
2EED
330
2
100
AcDbEntity
  8
0
100
AcDbLine
 10
645.4247674148144
 20
429.2442428183997
 30
0.0
 11
543.424767414808
 21
429.2442428183997
 31
0.0
  0
LINE
  5
2EEE
330
2
100
AcDbEntity
  8
0
100
AcDbLine
 10
645.4247674148144
 20
449.2456345049836
 30
0.0
 11
543.4247674148084
 21
449.2456345049836
 31
0.0
  0
LINE
  5
2EEF
330
2
100
AcDbEntity
  8
0
100
AcDbLine
 10
645.4247674148144
 20
459.2456345049876
 30
0.0
 11
543.4247674148089
 21
459.2456345049876
 31
0.0
  0
LINE
  5
2EF0
330
2
100
AcDbEntity
  8
0
100
AcDbLine
 10
651.9247674148157
 20
354.2456345049856
 30
0.0
 11
646.9247674148089
 21
354.2456345049858
 31
0.0
  0
LINE
  5
2EF1
330
2
100
AcDbEntity
  8
0
 48
0.5
100
AcDbLine
 10
646.9247674148089
 20
350.1532287552251
 30
0.0
 11
646.9247674148089
 21
468.338040254747
 31
0.0
  0
LINE
  5
2EF2
330
2
100
AcDbEntity
  8
0
100
AcDbLine
 10
651.9247674148093
 20
464.2456345049854
 30
0.0
 11
646.9247674148089
 21
464.2456345049854
 31
0.0
  0
ARC
  5
2EF3
330
2
100
AcDbEntity
  8
0
100
AcDbCircle
 10
659.9247674148098
 20
457.4600354763263
 30
0.0
 40
8.0
100
AcDbArc
 50
180.0
 51
267.9999999999963
  0
ARC
  5
2EF4
330
2
100
AcDbEntity
  8
0
100
AcDbCircle
 10
659.9247674148152
 20
361.031233533646
 30
0.0
 40
8.0
100
AcDbArc
 50
92.00000000000365
 51
180.0
  0
LINE
  5
2EF5
330
2
100
AcDbEntity
  8
0
100
AcDbLine
 10
519.9247674148075
 20
446.1682842357963
 30
0.0
 11
519.9247674148075
 21
409.245634504986
 31
0.0
  0
LINE
  5
2EF6
330
2
100
AcDbEntity
  8
0
 48
0.5
100
AcDbLine
 10
528.4247674148075
 20
449.2456345049861
 30
0.0
 11
527.9247674148075
 21
448.7456345049863
 31
0.0
  0
LINE
  5
2EF7
330
2
100
AcDbEntity
  8
0
100
AcDbLine
 10
528.4247674148089
 20
365.7456345049861
 30
0.0
 11
528.4247674148075
 21
452.7456345049861
 31
0.0
  0
ARC
  5
2EF8
330
2
100
AcDbEntity
  8
0
100
AcDbCircle
 10
522.7247674148068
 20
446.3456345049857
 30
0.0
 40
0.3
100
AcDbArc
 50
180.0
 51
270.0
  0
ARC
  5
2EF9
330
2
100
AcDbEntity
  8
0
100
AcDbCircle
 10
524.1247674148069
 20
446.3456345049857
 30
0.0
 40
0.3
100
AcDbArc
 50
270.0
 51
0.0
  0
LINE
  5
2EFA
330
2
100
AcDbEntity
  8
0
 48
0.5
100
AcDbLine
 10
524.4247674148071
 20
446.5456345049858
 30
0.0
 11
524.6247674148069
 21
446.7456345049859
 31
0.0
  0
LINE
  5
2EFB
330
2
100
AcDbEntity
  8
0
 48
0.5
100
AcDbLine
 10
522.7247674148068
 20
446.0456345049858
 30
0.0
 11
524.1247674148069
 21
446.0456345049858
 31
0.0
  0
LINE
  5
2EFC
330
2
100
AcDbEntity
  8
0
100
AcDbLine
 10
520.9247674148071
 20
446.7456345049859
 30
0.0
 11
519.9247674148071
 21
446.1682842357961
 31
0.0
  0
LINE
  5
2EFD
330
2
100
AcDbEntity
  8
0
100
AcDbLine
 10
522.424767414807
 20
446.4456345049857
 30
0.0
 11
522.424767414807
 21
372.0456345049865
 31
0.0
  0
ARC
  5
2EFE
330
2
100
AcDbEntity
  8
0
 48
0.5
100
AcDbCircle
 10
522.1247674148068
 20
446.4456345049857
 30
0.0
 40
0.3
100
AcDbArc
 50
0.0
 51
90.0
  0
LINE
  5
2EFF
330
2
100
AcDbEntity
  8
0
 48
0.5
100
AcDbLine
 10
520.9247674148066
 20
446.7456345049859
 30
0.0
 11
522.1247674148068
 21
446.7456345049859
 31
0.0
  0
LINE
  5
2F00
330
2
100
AcDbEntity
  8
0
 48
0.5
100
AcDbLine
 10
524.6247674148069
 20
446.7456345049859
 30
0.0
 11
527.9247674148071
 21
446.7456345049859
 31
0.0
  0
LINE
  5
2F01
330
2
100
AcDbEntity
  8
HIDS
  6
SEKKEI_H
 48
0.5
100
AcDbLine
 10
532.8389809771813
 20
461.6598480673599
 30
0.0
 11
529.010553852436
 21
457.8314209426134
 31
0.0
  0
ARC
  5
2F02
330
2
100
AcDbEntity
  8
HIDS
  6
SEKKEI_H
100
AcDbCircle
 10
530.4247674148089
 20
456.4172073802403
 30
0.0
 40
2.0
100
AcDbArc
 50
135.0000000000091
 51
180.0
  0
ARC
  5
2F03
330
2
100
AcDbEntity
  8
HIDS
  6
SEKKEI_H
 48
0.5
100
AcDbCircle
 10
531.4247674148075
 20
463.0740616297332
 30
0.0
 40
2.0
100
AcDbArc
 50
314.9999999999723
 51
0.0
  0
ARC
  5
2F04
330
2
100
AcDbEntity
  8
0
 48
0.3
100
AcDbCircle
 10
535.4247674148076
 20
467.1757434058877
 30
0.0
 40
2.0
100
AcDbArc
 50
90.49999999999155
 51
180.0
  0
LINE
  5
2F05
330
2
100
AcDbEntity
  8
0
100
AcDbLine
 10
535.4073143438106
 20
469.1756672520159
 30
0.0
 11
543.4247674148075
 21
469.2456345049858
 31
0.0
  0
LINE
  5
2F06
330
2
100
AcDbEntity
  8
0
100
AcDbLine
 10
519.9247674148075
 20
372.3229847741758
 30
0.0
 11
519.9247674148075
 21
409.245634504986
 31
0.0
  0
LINE
  5
2F07
330
2
100
AcDbEntity
  8
0
 48
0.5
100
AcDbLine
 10
528.4247674148075
 20
369.2456345049861
 30
0.0
 11
527.9247674148075
 21
369.7456345049859
 31
0.0
  0
ARC
  5
2F08
330
2
100
AcDbEntity
  8
0
100
AcDbCircle
 10
522.7247674148068
 20
372.1456345049864
 30
0.0
 40
0.3
100
AcDbArc
 50
90.0
 51
180.0
  0
ARC
  5
2F09
330
2
100
AcDbEntity
  8
0
100
AcDbCircle
 10
524.1247674148069
 20
372.1456345049864
 30
0.0
 40
0.3
100
AcDbArc
 50
0.0
 51
90.0
  0
LINE
  5
2F0A
330
2
100
AcDbEntity
  8
0
100
AcDbLine
 10
524.4247674148071
 20
371.9456345049863
 30
0.0
 11
524.4247674148071
 21
446.5456345049858
 31
0.0
  0
LINE
  5
2F0B
330
2
100
AcDbEntity
  8
0
 48
0.5
100
AcDbLine
 10
524.4247674148071
 20
371.9456345049863
 30
0.0
 11
524.6247674148069
 21
371.7456345049863
 31
0.0
  0
LINE
  5
2F0C
330
2
100
AcDbEntity
  8
0
 48
0.5
100
AcDbLine
 10
522.7247674148068
 20
372.4456345049864
 30
0.0
 11
524.1247674148069
 21
372.4456345049864
 31
0.0
  0
LINE
  5
2F0D
330
2
100
AcDbEntity
  8
0
100
AcDbLine
 10
520.9247674148071
 20
371.7456345049863
 30
0.0
 11
519.9247674148071
 21
372.3229847741761
 31
0.0
  0
ARC
  5
2F0E
330
2
100
AcDbEntity
  8
0
 48
0.5
100
AcDbCircle
 10
522.1247674148068
 20
372.0456345049865
 30
0.0
 40
0.3
100
AcDbArc
 50
270.0
 51
0.0
  0
LINE
  5
2F0F
330
2
100
AcDbEntity
  8
0
 48
0.5
100
AcDbLine
 10
520.9247674148066
 20
371.7456345049863
 30
0.0
 11
522.1247674148068
 21
371.7456345049863
 31
0.0
  0
LINE
  5
2F10
330
2
100
AcDbEntity
  8
0
 48
0.5
100
AcDbLine
 10
524.6247674148069
 20
371.7456345049863
 30
0.0
 11
527.9247674148071
 21
371.7456345049863
 31
0.0
  0
LINE
  5
2F11
330
2
100
AcDbEntity
  8
0
100
AcDbLine
 10
543.4247674148075
 20
349.2456345049863
 30
0.0
 11
543.4247674148075
 21
469.2456345049858
 31
0.0
  0
LINE
  5
2F12
330
2
100
AcDbEntity
  8
HIDS
  6
SEKKEI_H
 48
0.5
100
AcDbLine
 10
532.8389809771813
 20
356.8314209426123
 30
0.0
 11
529.010553852436
 21
360.6598480673588
 31
0.0
  0
ARC
  5
2F13
330
2
100
AcDbEntity
  8
HIDS
  6
SEKKEI_H
100
AcDbCircle
 10
530.4247674148089
 20
362.0740616297319
 30
0.0
 40
2.0
100
AcDbArc
 50
180.0
 51
224.9999999999908
  0
ARC
  5
2F14
330
2
100
AcDbEntity
  8
HIDS
  6
SEKKEI_H
 48
0.5
100
AcDbCircle
 10
531.4247674148075
 20
355.417207380239
 30
0.0
 40
2.0
100
AcDbArc
 50
0.0
 51
45.00000000002769
  0
ARC
  5
2F15
330
2
100
AcDbEntity
  8
0
 48
0.3
100
AcDbCircle
 10
535.4247674148076
 20
351.3155256040845
 30
0.0
 40
2.0
100
AcDbArc
 50
180.0
 51
269.5000000000084
  0
LINE
  5
2F16
330
2
100
AcDbEntity
  8
0
100
AcDbLine
 10
535.4073143438106
 20
349.3156017579563
 30
0.0
 11
543.4247674148075
 21
349.2456345049863
 31
0.0
  0
LINE
  5
2F17
330
2
100
AcDbEntity
  8
0
100
AcDbLine
 10
520.9247674148066
 20
446.7456345049859
 30
0.0
 11
520.9247674148071
 21
371.7456345049863
 31
0.0
  0
LINE
  5
2F18
330
2
100
AcDbEntity
  8
0
100
AcDbLine
 10
524.6247674148069
 20
446.7456345049859
 30
0.0
 11
524.6247674148069
 21
371.7456345049863
 31
0.0
  0
LINE
  5
2F19
330
2
100
AcDbEntity
  8
0
100
AcDbLine
 10
527.9247674148075
 20
448.7456345049863
 30
0.0
 11
527.9247674148075
 21
369.7456345049861
 31
0.0
  0
LINE
  5
2F1A
330
2
100
AcDbEntity
  8
0
100
AcDbLine
 10
579.9247674148062
 20
348.7456345049862
 30
0.0
 11
529.8414369748436
 21
349.1629955919892
 31
0.0
  0
ARC
  5
2F1B
330
2
100
AcDbEntity
  8
0
100
AcDbCircle
 10
529.9247674148098
 20
359.1626483878505
 30
0.0
 40
10.0
100
AcDbArc
 50
180.0
 51
269.5225462226892
  0
LINE
  5
2F1C
330
2
100
AcDbEntity
  8
0
100
AcDbLine
 10
519.9247674148097
 20
359.1626483878505
 30
0.0
 11
519.9247674148097
 21
459.328620622122
 31
0.0
  0
LINE
  5
2F1D
330
2
100
AcDbEntity
  8
0
100
AcDbLine
 10
579.9247674148062
 20
348.7456345049862
 30
0.0
 11
630.0080978547683
 21
349.1629955919894
 31
0.0
  0
ARC
  5
2F1E
330
2
100
AcDbEntity
  8
0
100
AcDbCircle
 10
629.9247674148025
 20
359.1626483878507
 30
0.0
 40
10.0
100
AcDbArc
 50
270.4774537773107
 51
294.1885688072114
  0
LINE
  5
2F1F
330
2
100
AcDbEntity
  8
0
100
AcDbLine
 10
579.9247674148062
 20
469.7456345049862
 30
0.0
 11
529.8414369748436
 21
469.3282734179832
 31
0.0
  0
ARC
  5
2F20
330
2
100
AcDbEntity
  8
0
100
AcDbCircle
 10
529.9247674148098
 20
459.328620622122
 30
0.0
 40
10.0
100
AcDbArc
 50
90.47745377731077
 51
180.0
  0
LINE
  5
2F21
330
2
100
AcDbEntity
  8
0
100
AcDbLine
 10
579.9247674148062
 20
469.7456345049862
 30
0.0
 11
630.0080978547683
 21
469.3282734179832
 31
0.0
  0
ARC
  5
2F22
330
2
100
AcDbEntity
  8
0
100
AcDbCircle
 10
629.9247674148025
 20
459.328620622122
 30
0.0
 40
10.0
100
AcDbArc
 50
65.8114311927885
 51
89.52254622268922
  0
LINE
  5
2F23
330
2
100
AcDbEntity
  8
0
100
AcDbLine
 10
534.9247674148075
 20
459.2456345049876
 30
0.0
 11
543.4247674148075
 21
459.2456345049876
 31
0.0
  0
LINE
  5
2F24
330
2
100
AcDbEntity
  8
0
100
AcDbLine
 10
534.9247674148075
 20
449.2456345049836
 30
0.0
 11
543.4247674148084
 21
449.2456345049836
 31
0.0
  0
LINE
  5
2F25
330
2
100
AcDbEntity
  8
0
100
AcDbLine
 10
534.9247674148075
 20
429.2442428183997
 30
0.0
 11
543.424767414808
 21
429.2442428183997
 31
0.0
  0
LINE
  5
2F26
330
2
100
AcDbEntity
  8
0
100
AcDbLine
 10
534.9247674148075
 20
389.2470261915698
 30
0.0
 11
543.424767414807
 21
389.2470261915698
 31
0.0
  0
LINE
  5
2F27
330
2
100
AcDbEntity
  8
0
100
AcDbLine
 10
534.9247674148075
 20
369.2456345049881
 30
0.0
 11
543.4247674148061
 21
369.2456345049881
 31
0.0
  0
LINE
  5
2F28
330
2
100
AcDbEntity
  8
0
100
AcDbLine
 10
534.9247674148075
 20
359.2456345049868
 30
0.0
 11
543.4247674148061
 21
359.2456345049868
 31
0.0
  0
LINE
  5
2F29
330
2
100
AcDbEntity
  8
0
 48
0.3
100
AcDbLine
 10
523.9247674148075
 20
465.7456345049861
 30
0.0
 11
523.9247674148075
 21
452.7456345049861
 31
0.0
  0
LINE
  5
2F2A
330
2
100
AcDbEntity
  8
0
 48
0.3
100
AcDbLine
 10
523.4247674148075
 20
464.8796091012002
 30
0.0
 11
523.4247674148075
 21
453.6116599087706
 31
0.0
  0
LINE
  5
2F2B
330
2
100
AcDbEntity
  8
CENTER
 48
0.5
100
AcDbLine
 10
520.4247674148075
 20
459.245634504986
 30
0.0
 11
539.4247674148075
 21
459.245634504986
 31
0.0
  0
LINE
  5
2F2C
330
2
100
AcDbEntity
  8
0
 48
0.3
100
AcDbLine
 10
523.9247674148075
 20
452.7456345049861
 30
0.0
 11
523.4247674148075
 21
453.6116599087706
 31
0.0
  0
LINE
  5
2F2D
330
2
100
AcDbEntity
  8
0
 48
0.3
100
AcDbLine
 10
523.9247674148075
 20
452.7456345049861
 30
0.0
 11
531.4247674148075
 21
452.7456345049861
 31
0.0
  0
LINE
  5
2F2E
330
2
100
AcDbEntity
  8
0
 48
0.3
100
AcDbLine
 10
523.924767414808
 20
465.7456345049856
 30
0.0
 11
523.424767414808
 21
464.8796091012013
 31
0.0
  0
LINE
  5
2F2F
330
2
100
AcDbEntity
  8
0
 48
0.3
100
AcDbLine
 10
523.9247674148084
 20
465.7456345049861
 30
0.0
 11
531.4247674148075
 21
465.7456345049861
 31
0.0
  0
LINE
  5
2F30
330
2
100
AcDbEntity
  8
0
 48
0.3
100
AcDbLine
 10
523.9247674148075
 20
365.7456345049861
 30
0.0
 11
523.9247674148075
 21
352.7456345049861
 31
0.0
  0
LINE
  5
2F31
330
2
100
AcDbEntity
  8
0
 48
0.3
100
AcDbLine
 10
523.4247674148075
 20
364.8796091012002
 30
0.0
 11
523.4247674148075
 21
353.6116599087706
 31
0.0
  0
LINE
  5
2F32
330
2
100
AcDbEntity
  8
CENTER
 48
0.5
100
AcDbLine
 10
520.4247674148075
 20
359.2456345049861
 30
0.0
 11
539.4247674148075
 21
359.2456345049861
 31
0.0
  0
LINE
  5
2F33
330
2
100
AcDbEntity
  8
0
 48
0.3
100
AcDbLine
 10
523.9247674148075
 20
352.7456345049861
 30
0.0
 11
523.4247674148075
 21
353.6116599087706
 31
0.0
  0
LINE
  5
2F34
330
2
100
AcDbEntity
  8
0
 48
0.3
100
AcDbLine
 10
523.9247674148075
 20
352.7456345049861
 30
0.0
 11
531.4247674148075
 21
352.7456345049861
 31
0.0
  0
LINE
  5
2F35
330
2
100
AcDbEntity
  8
0
 48
0.3
100
AcDbLine
 10
523.924767414808
 20
365.7456345049856
 30
0.0
 11
523.424767414808
 21
364.8796091012013
 31
0.0
  0
LINE
  5
2F36
330
2
100
AcDbEntity
  8
0
 48
0.3
100
AcDbLine
 10
523.9247674148084
 20
365.7456345049861
 30
0.0
 11
531.4247674148075
 21
365.7456345049861
 31
0.0
  0
LINE
  5
2F37
330
2
100
AcDbEntity
  8
HIDS
  6
SEKKEI_H
100
AcDbLine
 10
528.4247674148089
 20
456.4172073802403
 30
0.0
 11
528.4247674148075
 21
452.7456345049861
 31
0.0
  0
LINE
  5
2F38
330
2
100
AcDbEntity
  8
HIDS
  6
SEKKEI_H
100
AcDbLine
 10
528.4247674148089
 20
365.7456345049861
 30
0.0
 11
528.4247674148089
 21
362.0740616297319
 31
0.0
  0
LINE
  5
2F39
330
2
100
AcDbEntity
  8
0
 48
0.3
100
AcDbLine
 10
533.4247674148075
 20
451.9956345049861
 30
0.0
 11
533.4247674148075
 21
466.4956345049861
 31
0.0
  0
LINE
  5
2F3A
330
2
100
AcDbEntity
  8
0
 48
0.3
100
AcDbLine
 10
533.4247674148075
 20
466.4956345049861
 30
0.0
 11
531.4247674148075
 21
466.4956345049861
 31
0.0
  0
LINE
  5
2F3B
330
2
100
AcDbEntity
  8
0
 48
0.3
100
AcDbLine
 10
533.4247674148075
 20
451.9956345049861
 30
0.0
 11
531.4247674148075
 21
451.9956345049861
 31
0.0
  0
LINE
  5
2F3C
330
2
100
AcDbEntity
  8
0
100
AcDbLine
 10
531.4247674148075
 20
451.9956345049861
 30
0.0
 11
531.4247674148075
 21
466.4956345049861
 31
0.0
  0
LINE
  5
2F3D
330
2
100
AcDbEntity
  8
0
 48
0.3
100
AcDbLine
 10
533.4247674148075
 20
351.9956345049861
 30
0.0
 11
533.4247674148075
 21
366.4956345049861
 31
0.0
  0
LINE
  5
2F3E
330
2
100
AcDbEntity
  8
0
 48
0.3
100
AcDbLine
 10
533.4247674148075
 20
366.4956345049861
 30
0.0
 11
531.4247674148075
 21
366.4956345049861
 31
0.0
  0
LINE
  5
2F3F
330
2
100
AcDbEntity
  8
0
 48
0.3
100
AcDbLine
 10
533.4247674148075
 20
351.9956345049861
 30
0.0
 11
531.4247674148075
 21
351.9956345049861
 31
0.0
  0
LINE
  5
2F40
330
2
100
AcDbEntity
  8
0
100
AcDbLine
 10
531.4247674148075
 20
351.9956345049861
 30
0.0
 11
531.4247674148075
 21
366.4956345049861
 31
0.0
  0
LINE
  5
2F41
330
2
100
AcDbEntity
  8
0
 48
0.3
100
AcDbLine
 10
533.4247674148075
 20
351.3155256040845
 30
0.0
 11
533.4247674148098
 21
467.1757434058876
 31
0.0
  0
LINE
  5
2F42
330
2
100
AcDbEntity
  8
0
100
AcDbLine
 10
646.9247674148089
 20
350.1532287552251
 30
0.0
 11
543.4247674148057
 21
349.2499979388817
 31
0.0
  0
LINE
  5
2F43
330
2
100
AcDbEntity
  8
0
100
AcDbLine
 10
646.9247674148089
 20
468.338040254747
 30
0.0
 11
543.4247674148057
 21
469.2412710710905
 31
0.0
  0
LINE
  5
2F48
330
2
100
AcDbEntity
  8
0
100
AcDbLine
 10
667.9247674148095
 20
394.2456345049863
 30
0.0
 11
667.9247674148101
 21
424.2456345049861
 31
0.0
  0
LINE
  5
2F49
330
2
100
AcDbEntity
  8
0
100
AcDbLine
 10
666.9247674148095
 20
424.8229847741761
 30
0.0
 11
667.9247674148095
 21
424.2456345049864
 31
0.0
  0
LINE
  5
2F4A
330
2
100
AcDbEntity
  8
0
100
AcDbLine
 10
667.9247674148101
 20
423.2456345049861
 30
0.0
 11
712.9247674148098
 21
423.245634504985
 31
0.0
  0
LINE
  5
2F4B
330
2
100
AcDbEntity
  8
0
100
AcDbLine
 10
667.9247674148095
 20
395.2456345049863
 30
0.0
 11
712.9247674148095
 21
395.2456345049865
 31
0.0
  0
LINE
  5
2F4C
330
2
100
AcDbEntity
  8
0
100
AcDbLine
 10
712.9247674148095
 20
395.2456345049867
 30
0.0
 11
712.9247674148098
 21
423.245634504985
 31
0.0
  0
LINE
  5
2F4D
330
2
100
AcDbEntity
  8
0
100
AcDbLine
 10
666.9247674148095
 20
430.4569593703911
 30
0.0
 11
666.9247674148095
 21
388.0343096395812
 31
0.0
  0
LINE
  5
2F4E
330
2
100
AcDbEntity
  8
0
100
AcDbLine
 10
666.9247674148095
 20
393.6682842357959
 30
0.0
 11
667.9247674148095
 21
394.2456345049859
 31
0.0
  0
LINE
  5
2F4F
330
2
100
AcDbEntity
  8
0
100
AcDbLine
 10
666.6747674148096
 20
430.8899720722832
 30
0.0
 11
666.5228436261632
 21
430.9776853125548
 31
0.0
  0
ARC
  5
2F50
330
2
100
AcDbEntity
  8
0
100
AcDbCircle
 10
666.4247674148096
 20
430.4569593703911
 30
0.0
 40
0.5
100
AcDbArc
 50
0.0
 51
59.99999999999951
  0
ARC
  5
2F51
330
2
100
AcDbEntity
  8
0
100
AcDbCircle
 10
665.5228436261632
 20
429.2456345049859
 30
0.0
 40
2.0
100
AcDbArc
 50
59.99999999999951
 51
78.40678637648896
  0
LINE
  5
2F52
330
2
100
AcDbEntity
  8
0
100
AcDbLine
 10
666.6747674148096
 20
387.6012969376889
 30
0.0
 11
666.5228436261632
 21
387.5135836974175
 31
0.0
  0
ARC
  5
2F53
330
2
100
AcDbEntity
  8
0
100
AcDbCircle
 10
666.4247674148096
 20
388.0343096395812
 30
0.0
 40
0.5
100
AcDbArc
 50
300.0000000000004
 51
0.0
  0
ARC
  5
2F54
330
2
100
AcDbEntity
  8
0
100
AcDbCircle
 10
665.5228436261632
 20
389.2456345049864
 30
0.0
 40
2.0
100
AcDbArc
 50
281.5932136234975
 51
300.0000000000004
  0
LINE
  5
2F55
330
2
100
AcDbEntity
  8
0
100
AcDbLine
 10
712.9247674148095
 20
413.2456345049861
 30
0.0
 11
676.9247674148096
 21
413.2456345049861
 31
0.0
  0
LINE
  5
2F56
330
2
100
AcDbEntity
  8
0
100
AcDbLine
 10
712.9247674148095
 20
405.2456345049863
 30
0.0
 11
676.9247674148096
 21
405.245634504986
 31
0.0
  0
ARC
  5
2F57
330
2
100
AcDbEntity
  8
0
100
AcDbCircle
 10
676.9247674148096
 20
409.245634504986
 30
0.0
 40
4.0
100
AcDbArc
 50
90.0
 51
270.0
  0
LINE
  5
3102
330
2
100
AcDbEntity
  8
CENTER
100
AcDbLine
 10
579.9247674148057
 20
484.245634504986
 30
0.0
 11
579.9247674148057
 21
334.2456345049861
 31
0.0
  0
LINE
  5
3106
330
2
100
AcDbEntity
  8
CENTER
100
AcDbLine
 10
633.1211600103508
 20
409.2456344740701
 30
0.0
 11
624.1211600103508
 21
409.2456344740701
 31
0.0
  0
LINE
  5
3107
330
2
100
AcDbEntity
  8
CENTER
100
AcDbLine
 10
535.728374788345
 20
409.245634504986
 30
0.0
 11
526.728374788345
 21
409.245634504986
 31
0.0
  0
LINE
  5
3534
330
2
100
AcDbEntity
  8
0
100
AcDbLine
 10
1053.559171748527
 20
469.2456345049861
 30
0.0
 11
1053.559171748527
 21
349.2456345049861
 31
0.0
  0
LINE
  5
3721
330
2
100
AcDbEntity
  8
0
100
AcDbLine
 10
1053.559171748527
 20
469.2456345049861
 30
0.0
 11
1053.559171748527
 21
349.2456345049861
 31
0.0
  0
LINE
  5
387F
330
2
100
AcDbEntity
  8
CENTER
100
AcDbLine
 10
1442.506430882166
 20
479.7696273562847
 30
0.0
 11
1442.506430882166
 21
338.7216416536867
 31
0.0
  0
LINE
  5
3880
330
2
100
AcDbEntity
  8
CENTER
100
AcDbLine
 10
1512.506430882163
 20
409.2456345049857
 30
0.0
 11
1299.506430882162
 21
409.245634504986
 31
0.0
  0
LINE
  5
3881
330
2
100
AcDbEntity
  8
0
100
AcDbLine
 10
1442.506430882166
 20
469.7456345049856
 30
0.0
 11
1492.589761322129
 21
469.3282734179827
 31
0.0
  0
ARC
  5
3883
330
2
100
AcDbEntity
  8
0
100
AcDbCircle
 10
1492.506430882162
 20
459.3286206221215
 30
0.0
 40
10.0
100
AcDbArc
 50
44.66381399547908
 51
89.52254622268922
  0
LINE
  5
3889
330
2
100
AcDbEntity
  8
0
100
AcDbLine
 10
1375.506430882163
 20
468.3380402547465
 30
0.0
 11
1388.409020413972
 21
468.4506394477488
 31
0.0
  0
ARC
  5
388A
330
2
100
AcDbEntity
  8
0
100
AcDbCircle
 10
1358.506430882162
 20
447.3142569553712
 30
0.0
 40
2.0
100
AcDbArc
 50
92.00000000000359
 51
180.0
  0
LINE
  5
388B
330
2
100
AcDbEntity
  8
0
100
AcDbLine
 10
1358.436631888757
 20
449.3130386094096
 30
0.0
 11
1365.680928365675
 21
449.5660150168095
 31
0.0
  0
ARC
  5
388C
330
2
100
AcDbEntity
  8
0
100
AcDbCircle
 10
1365.506430882163
 20
454.5629691519049
 30
0.0
 40
5.0
100
AcDbArc
 50
271.9999999999775
 51
0.0
  0
LINE
  5
388D
330
2
100
AcDbEntity
  8
0
100
AcDbLine
 10
1375.506430882163
 20
350.1532287552253
 30
0.0
 11
1388.409020413972
 21
350.0406295622223
 31
0.0
  0
LINE
  5
388E
330
2
100
AcDbEntity
  8
0
100
AcDbLine
 10
1370.506430882162
 20
354.2456345049856
 30
0.0
 11
1370.506430882164
 21
464.2456345049863
 31
0.0
  0
ARC
  5
388F
330
2
100
AcDbEntity
  8
0
100
AcDbCircle
 10
1358.506430882162
 20
371.1770120546006
 30
0.0
 40
1.999999999999999
100
AcDbArc
 50
180.0
 51
267.9999999999963
  0
LINE
  5
3890
330
2
100
AcDbEntity
  8
0
100
AcDbLine
 10
1358.436631888757
 20
369.1782304005623
 30
0.0
 11
1365.680928365675
 21
368.9252539931623
 31
0.0
  0
ARC
  5
3891
330
2
100
AcDbEntity
  8
0
100
AcDbCircle
 10
1365.506430882163
 20
363.9282998580669
 30
0.0
 40
4.999999999999999
100
AcDbArc
 50
0.0
 51
87.9999999999964
  0
LINE
  5
3892
330
2
100
AcDbEntity
  8
0
100
AcDbLine
 10
1356.506430882162
 20
447.3142569553712
 30
0.0
 11
1356.506430882162
 21
371.1770120546004
 31
0.0
  0
ARC
  5
3895
330
2
100
AcDbEntity
  8
0
100
AcDbCircle
 10
1392.50643088217
 20
459.3286206221214
 30
0.0
 40
10.0
100
AcDbArc
 50
90.47745377731077
 51
135.336202987313
  0
LINE
  5
3897
330
2
100
AcDbEntity
  8
0
100
AcDbLine
 10
1442.506430882166
 20
348.7456345049857
 30
0.0
 11
1492.589761322129
 21
349.1629955919886
 31
0.0
  0
ARC
  5
3899
330
2
100
AcDbEntity
  8
0
100
AcDbCircle
 10
1492.506430882162
 20
359.1626483878499
 30
0.0
 40
10.0
100
AcDbArc
 50
270.4774537773107
 51
315.3362424015952
  0
LINE
  5
389B
330
2
100
AcDbEntity
  8
0
100
AcDbLine
 10
1442.506430882166
 20
348.7456345049857
 30
0.0
 11
1392.423100442204
 21
349.1629955919888
 31
0.0
  0
ARC
  5
389D
330
2
100
AcDbEntity
  8
0
100
AcDbCircle
 10
1392.506430882169
 20
359.1626483878501
 30
0.0
 40
10.0
100
AcDbArc
 50
224.6638477825545
 51
269.5225462226892
  0
LINE
  5
38A7
330
2
100
AcDbEntity
  8
0
100
AcDbLine
 10
1370.506430882164
 20
464.2456345049863
 30
0.0
 11
1375.506430882163
 21
464.245634504986
 31
0.0
  0
LINE
  5
38A8
330
2
100
AcDbEntity
  8
0
 48
0.5
100
AcDbLine
 10
1375.506430882163
 20
468.3380402547465
 30
0.0
 11
1375.506430882163
 21
350.1532287552253
 31
0.0
  0
LINE
  5
38A9
330
2
100
AcDbEntity
  8
0
100
AcDbLine
 10
1370.506430882162
 20
354.2456345049856
 30
0.0
 11
1375.506430882162
 21
354.2456345049858
 31
0.0
  0
LINE
  5
38B2
330
2
100
AcDbEntity
  8
0
100
AcDbLine
 10
1354.506430882162
 20
424.2456345049857
 30
0.0
 11
1354.506430882162
 21
394.245634504986
 31
0.0
  0
LINE
  5
38B3
330
2
100
AcDbEntity
  8
0
100
AcDbLine
 10
1355.506430882162
 20
393.668284235796
 30
0.0
 11
1354.506430882162
 21
394.2456345049857
 31
0.0
  0
LINE
  5
38B4
330
2
100
AcDbEntity
  8
0
100
AcDbLine
 10
1354.506430882162
 20
395.245634504986
 30
0.0
 11
1309.506430882161
 21
395.2456345049872
 31
0.0
  0
LINE
  5
38B5
330
2
100
AcDbEntity
  8
0
100
AcDbLine
 10
1354.506430882162
 20
423.2456345049858
 30
0.0
 11
1309.506430882162
 21
423.2456345049855
 31
0.0
  0
LINE
  5
38B6
330
2
100
AcDbEntity
  8
0
100
AcDbLine
 10
1309.506430882162
 20
423.2456345049855
 30
0.0
 11
1309.506430882162
 21
395.2456345049872
 31
0.0
  0
LINE
  5
38B7
330
2
100
AcDbEntity
  8
0
100
AcDbLine
 10
1355.506430882162
 20
388.034309639581
 30
0.0
 11
1355.506430882162
 21
430.4569593703909
 31
0.0
  0
LINE
  5
38B8
330
2
100
AcDbEntity
  8
0
100
AcDbLine
 10
1355.506430882162
 20
424.8229847741762
 30
0.0
 11
1354.506430882162
 21
424.2456345049862
 31
0.0
  0
LINE
  5
38B9
330
2
100
AcDbEntity
  8
0
100
AcDbLine
 10
1355.756430882162
 20
387.6012969376888
 30
0.0
 11
1355.908354670809
 21
387.5135836974172
 31
0.0
  0
ARC
  5
38BA
330
2
100
AcDbEntity
  8
0
100
AcDbCircle
 10
1356.006430882162
 20
388.034309639581
 30
0.0
 40
0.5
100
AcDbArc
 50
180.0
 51
239.9999999999994
  0
ARC
  5
38BB
330
2
100
AcDbEntity
  8
0
100
AcDbCircle
 10
1356.908354670809
 20
389.2456345049862
 30
0.0
 40
2.0
100
AcDbArc
 50
239.9999999999994
 51
258.4067863764889
  0
LINE
  5
38BC
330
2
100
AcDbEntity
  8
0
100
AcDbLine
 10
1355.756430882162
 20
430.8899720722831
 30
0.0
 11
1355.908354670809
 21
430.9776853125546
 31
0.0
  0
ARC
  5
38BD
330
2
100
AcDbEntity
  8
0
100
AcDbCircle
 10
1356.006430882162
 20
430.4569593703909
 30
0.0
 40
0.5
100
AcDbArc
 50
120.0000000000005
 51
180.0
  0
ARC
  5
38BE
330
2
100
AcDbEntity
  8
0
100
AcDbCircle
 10
1356.908354670809
 20
429.2456345049856
 30
0.0
 40
2.0
100
AcDbArc
 50
101.593213623511
 51
120.0000000000005
  0
LINE
  5
3A3C
330
2
100
AcDbEntity
  8
0
100
AcDbLine
 10
1053.559171748527
 20
469.2456345049861
 30
0.0
 11
1053.559171748527
 21
349.2456345049861
 31
0.0
  0
LINE
  5
3AE2
330
2
100
AcDbEntity
  8
CENTER
100
AcDbLine
 10
633.1211600103508
 20
409.2456345049856
 30
0.0
 11
624.1211600103508
 21
409.2456345049856
 31
0.0
  0
LINE
  5
3AEC
330
2
100
AcDbEntity
  8
0
100
AcDbLine
 10
278.2764536838399
 20
469.2456345049861
 30
0.0
 11
278.2764536838399
 21
349.2456345049861
 31
0.0
  0
LINE
  5
3BB1
330
2
100
AcDbEntity
  8
0
100
AcDbLine
 10
1442.506430882166
 20
469.7456345049858
 30
0.0
 11
1392.423100442204
 21
469.3282734179826
 31
0.0
  0
LINE
  5
3E6E
330
2
100
AcDbEntity
  8
0
100
AcDbLine
 10
1053.559171748526
 20
349.2456345049861
 30
0.0
 11
1053.559171748527
 21
469.2456345049861
 31
0.0
  0
LINE
  5
3E70
330
2
100
AcDbEntity
  8
0
100
AcDbLine
 10
1053.559171748526
 20
349.2456345049861
 30
0.0
 11
1064.080667171073
 21
349.2456345049855
 31
0.0
  0
LINE
  5
3E71
330
2
100
AcDbEntity
  8
0
100
AcDbLine
 10
1053.559171748526
 20
349.2456345049861
 30
0.0
 11
1053.559171748527
 21
469.2456345049863
 31
0.0
  0
LINE
  5
3E72
330
2
100
AcDbEntity
  8
0
100
AcDbLine
 10
1067.093472612607
 20
351.2107296921113
 30
0.0
 11
1068.106475644204
 21
409.245634504986
 31
0.0
  0
LINE
  5
3E73
330
2
100
AcDbEntity
  8
0
100
AcDbLine
 10
1116.310348806215
 20
366.2107296921112
 30
0.0
 11
1116.012394170885
 21
383.2805393178603
 31
0.0
  0
ARC
  5
3E74
330
2
100
AcDbEntity
  8
0
100
AcDbCircle
 10
1114.012698780572
 20
383.2456345049856
 30
0.0
 40
2.0
100
AcDbArc
 50
1.000000000001761
 51
90.0
  0
LINE
  5
3E75
330
2
100
AcDbEntity
  8
0
100
AcDbLine
 10
1138.059171748526
 20
364.245634504986
 30
0.0
 11
1138.059171748527
 21
454.2456345049857
 31
0.0
  0
LINE
  5
3E76
330
2
100
AcDbEntity
  8
CENTER
100
AcDbLine
 10
1119.559171748526
 20
446.1349420098695
 30
0.0
 11
1119.559171748527
 21
462.7453056412223
 31
0.0
  0
LINE
  5
3E77
330
2
100
AcDbEntity
  8
0
100
AcDbLine
 10
1109.175464976193
 20
385.2456345049858
 30
0.0
 11
1114.012698780572
 21
385.2456345049858
 31
0.0
  0
LINE
  5
3E78
330
2
100
AcDbEntity
  8
0
100
AcDbLine
 10
1107.17576958588
 20
387.2805393178603
 30
0.0
 11
1107.559171748527
 21
409.2456345049859
 31
0.0
  0
ARC
  5
3E79
330
2
100
AcDbEntity
  8
0
100
AcDbCircle
 10
1109.175464976193
 20
387.2456345049858
 30
0.0
 40
2.0
100
AcDbArc
 50
178.9999999999982
 51
270.0
  0
LINE
  5
3E7A
330
2
100
AcDbEntity
  8
0
100
AcDbLine
 10
1109.237371010881
 20
364.245634504986
 30
0.0
 11
1138.059171748526
 21
364.2456345049858
 31
0.0
  0
ARC
  5
3E7B
330
2
100
AcDbEntity
  8
0
100
AcDbCircle
 10
1118.310044196528
 20
366.2456345049857
 30
0.0
 40
2.0
100
AcDbArc
 50
181.0000000000017
 51
270.0
  0
LINE
  5
3E7C
330
2
100
AcDbEntity
  8
0
100
AcDbLine
 10
1075.043651593361
 20
358.2456345049858
 30
0.0
 11
1104.823010601921
 21
358.2456345049858
 31
0.0
  0
ARC
  5
3E7D
330
2
100
AcDbEntity
  8
0
100
AcDbCircle
 10
1104.823010601921
 20
360.2456345049858
 30
0.0
 40
2.0
100
AcDbArc
 50
270.0
 51
350.0000000000078
  0
LINE
  5
3E7E
330
2
100
AcDbEntity
  8
0
100
AcDbLine
 10
1053.559171748527
 20
349.245634504986
 30
0.0
 11
1065.093777222294
 21
349.2456345049855
 31
0.0
  0
ARC
  5
3E7F
330
2
100
AcDbEntity
  8
0
100
AcDbCircle
 10
1065.093777222294
 20
351.2456345049855
 30
0.0
 40
2.0
100
AcDbArc
 50
270.0
 51
354.2608295227382
  0
ARC
  5
3E80
330
2
100
AcDbEntity
  8
0
100
AcDbCircle
 10
1075.043651593361
 20
350.2456345049858
 30
0.0
 40
8.0
100
AcDbArc
 50
90.0
 51
91.39399818465271
  0
ARC
  5
3E81
330
2
100
AcDbEntity
  8
0
100
AcDbCircle
 10
1075.043651593361
 20
350.2456345049858
 30
0.0
 40
8.0
100
AcDbArc
 50
149.1187890573339
 51
174.2608295227383
  0
LINE
  5
3E82
330
2
100
AcDbEntity
  8
0
100
AcDbLine
 10
1138.059171748527
 20
409.2456345049858
 30
0.0
 11
1053.559171748527
 21
409.245634504986
 31
0.0
  0
LINE
  5
3E83
330
2
100
AcDbEntity
  8
0
100
AcDbLine
 10
1053.559171748527
 20
469.2456345049861
 30
0.0
 11
1065.093777222294
 21
469.2456345049863
 31
0.0
  0
LINE
  5
3E84
330
2
100
AcDbEntity
  8
0
100
AcDbLine
 10
1107.267755504856
 20
362.5929308603197
 30
0.0
 11
1106.792626107945
 21
359.8983381496518
 31
0.0
  0
ARC
  5
3E85
330
2
100
AcDbEntity
  8
0
100
AcDbCircle
 10
1109.237371010881
 20
362.2456345049859
 30
0.0
 40
2.0
100
AcDbArc
 50
90.0
 51
170.0000000000077
  0
LINE
  5
3E86
330
2
100
AcDbEntity
  8
0
100
AcDbLine
 10
1109.175464976194
 20
433.245634504986
 30
0.0
 11
1114.012698780573
 21
433.245634504986
 31
0.0
  0
LINE
  5
3E87
330
2
100
AcDbEntity
  8
0
100
AcDbLine
 10
1107.175769585881
 20
431.2107296921115
 30
0.0
 11
1107.184279871742
 21
430.7231757416823
 31
0.0
  0
ARC
  5
3E88
330
2
100
AcDbEntity
  8
0
100
AcDbCircle
 10
1109.175464976194
 20
431.2456345049859
 30
0.0
 40
2.0
100
AcDbArc
 50
90.0
 51
181.0000000000017
  0
LINE
  5
3E89
330
2
100
AcDbEntity
  8
0
100
AcDbLine
 10
1109.237371010881
 20
454.2456345049857
 30
0.0
 11
1138.059171748527
 21
454.2456345049857
 31
0.0
  0
LINE
  5
3E8A
330
2
100
AcDbEntity
  8
0
100
AcDbLine
 10
1075.043651593361
 20
460.2456345049859
 30
0.0
 11
1104.823010601921
 21
460.2456345049859
 31
0.0
  0
ARC
  5
3E8B
330
2
100
AcDbEntity
  8
0
100
AcDbCircle
 10
1104.823010601921
 20
458.245634504986
 30
0.0
 40
2.0
100
AcDbArc
 50
10.00000000000823
 51
90.0
  0
LINE
  5
3E8C
330
2
100
AcDbEntity
  8
0
100
AcDbLine
 10
1107.267755504856
 20
455.8983381496521
 30
0.0
 11
1106.792626107945
 21
458.5929308603199
 31
0.0
  0
ARC
  5
3E8D
330
2
100
AcDbEntity
  8
0
100
AcDbCircle
 10
1109.237371010881
 20
456.2456345049858
 30
0.0
 40
2.0
100
AcDbArc
 50
190.0000000000082
 51
270.0
  0
LINE
  5
3E8E
330
2
100
AcDbEntity
  8
0
100
AcDbLine
 10
1067.093472612608
 20
467.2805393178609
 30
0.0
 11
1067.788332298717
 21
427.4720545613458
 31
0.0
  0
ARC
  5
3E8F
330
2
100
AcDbEntity
  8
0
100
AcDbCircle
 10
1065.093777222294
 20
467.2456345049872
 30
0.0
 40
2.0
100
AcDbArc
 50
5.739170477261705
 51
90.0
  0
ARC
  5
3E90
330
2
100
AcDbEntity
  8
0
100
AcDbCircle
 10
1075.043651593361
 20
468.2456345049866
 30
0.0
 40
8.0
100
AcDbArc
 50
185.7391704772616
 51
210.881210942666
  0
ARC
  5
3E91
330
2
100
AcDbEntity
  8
0
100
AcDbCircle
 10
1075.043651593361
 20
468.2456345049866
 30
0.0
 40
8.0
100
AcDbArc
 50
268.6060018153342
 51
270.0
  0
LINE
  5
3E92
330
2
100
AcDbEntity
  8
0
100
AcDbLine
 10
1116.310348806216
 20
452.2805393178605
 30
0.0
 11
1116.035081374638
 21
436.5104787245441
 31
0.0
  0
ARC
  5
3E93
330
2
100
AcDbEntity
  8
0
100
AcDbCircle
 10
1114.012698780573
 20
435.2456345049859
 30
0.0
 40
2.0
100
AcDbArc
 50
270.0
 51
293.3937325277088
  0
ARC
  5
3E94
330
2
100
AcDbEntity
  8
0
100
AcDbCircle
 10
1118.310044196528
 20
452.2456345049858
 30
0.0
 40
2.0
100
AcDbArc
 50
90.0
 51
178.9999999999982
  0
ARC
  5
3E95
330
2
100
AcDbEntity
  8
0
100
AcDbCircle
 10
1109.007485490369
 20
452.2456345049866
 30
0.0
 40
2.0
100
AcDbArc
 50
90.0
 51
178.4999999999973
  0
LINE
  5
3E96
330
2
100
AcDbEntity
  8
0
100
AcDbLine
 10
1105.000615276877
 20
450.0356345049867
 30
0.0
 11
1109.984924284958
 21
450.0356345049866
 31
0.0
  0
ARC
  5
3E97
330
2
100
AcDbEntity
  8
0
100
AcDbCircle
 10
1105.000615276877
 20
452.0356345049862
 30
0.0
 40
2.0
100
AcDbArc
 50
270.0
 51
358.4999999999973
  0
LINE
  5
3E98
330
2
100
AcDbEntity
  8
0
100
AcDbLine
 10
1107.008170840418
 20
452.2979884016025
 30
0.0
 11
1106.999929926828
 21
451.9832806083704
 31
0.0
  0
LINE
  5
3E99
330
2
100
AcDbEntity
  8
0
100
AcDbLine
 10
1053.559171748527
 20
843.5577374685426
 30
0.0
 11
1053.559171748526
 21
722.5577374685427
 31
0.0
  0
LINE
  5
3E9A
330
2
100
AcDbEntity
  8
0
100
AcDbLine
 10
1067.059171748554
 20
841.5026980701181
 30
0.0
 11
1067.059171748527
 21
724.6127768668495
 31
0.0
  0
ARC
  5
3E9B
330
2
100
AcDbEntity
  8
0
100
AcDbCircle
 10
1075.059171748527
 20
724.0577374685426
 30
0.0
 40
8.0
100
AcDbArc
 50
90.0
 51
93.58332169845889
  0
ARC
  5
3E9C
330
2
100
AcDbEntity
  8
0
100
AcDbCircle
 10
1075.059171748527
 20
724.0577374685426
 30
0.0
 40
8.0
100
AcDbArc
 50
142.6263925623591
 51
144.3409123038362
  0
ARC
  5
3E9D
330
2
100
AcDbEntity
  8
0
100
AcDbCircle
 10
1075.059171748527
 20
724.0577374685426
 30
0.0
 40
8.0
100
AcDbArc
 50
149.1187890573311
 51
177.1340160174036
  0
ARC
  5
3E9E
330
2
100
AcDbEntity
  8
0
100
AcDbCircle
 10
1065.071679570808
 20
724.5577374685426
 30
0.0
 40
2.0
100
AcDbArc
 50
270.0
 51
357.1340160174036
  0
ARC
  5
3E9F
330
2
100
AcDbEntity
  8
0
100
AcDbCircle
 10
1065.10929737746
 20
725.0577374685426
 30
0.0
 40
2.0
100
AcDbArc
 50
269.999999999987
 51
354.2608295227253
  0
LINE
  5
3EA0
330
2
100
AcDbEntity
  8
0
100
AcDbLine
 10
1138.059171748527
 20
828.0577374685428
 30
0.0
 11
1138.059171748528
 21
738.0577374685426
 31
0.0
  0
ARC
  5
3EA1
330
2
100
AcDbEntity
  8
0
100
AcDbCircle
 10
1113.559171748528
 20
750.5577374685426
 30
0.0
 40
2.0
100
AcDbArc
 50
0.0
 51
90.0
  0
LINE
  5
3EA3
330
2
100
AcDbEntity
  8
0
100
AcDbLine
 10
1109.559171748527
 20
807.0577374685425
 30
0.0
 11
1113.559171748528
 21
807.0577374685425
 31
0.0
  0
ARC
  5
3EA4
330
2
100
AcDbEntity
  8
0
100
AcDbCircle
 10
1109.559171748527
 20
805.0577374685426
 30
0.0
 40
2.0
100
AcDbArc
 50
90.0
 51
180.0
  0
LINE
  5
3EA5
330
2
100
AcDbEntity
  8
0
100
AcDbLine
 10
1109.559171748527
 20
752.5577374685426
 30
0.0
 11
1113.559171748528
 21
752.5577374685426
 31
0.0
  0
LINE
  5
3EA6
330
2
100
AcDbEntity
  8
0
100
AcDbLine
 10
1053.559171748526
 20
723.0577374685426
 30
0.0
 11
1065.10929737746
 21
723.0577374685424
 31
0.0
  0
LINE
  5
3EA7
330
2
100
AcDbEntity
  8
0
100
AcDbLine
 10
1053.559171748527
 20
722.5577374685427
 30
0.0
 11
1065.071679570808
 21
722.5577374685424
 31
0.0
  0
LINE
  5
3EA8
330
2
100
AcDbEntity
  8
0
100
AcDbLine
 10
1107.559171748527
 20
805.0577374685426
 30
0.0
 11
1107.559171748527
 21
754.5577374685426
 31
0.0
  0
ARC
  5
3EA9
330
2
100
AcDbEntity
  8
0
100
AcDbCircle
 10
1109.559171748527
 20
754.5577374685426
 30
0.0
 40
2.0
100
AcDbArc
 50
180.0
 51
270.0
  0
LINE
  5
3EAA
330
2
100
AcDbEntity
  8
0
100
AcDbLine
 10
1115.559171748528
 20
826.0577374685427
 30
0.0
 11
1115.559171748528
 21
809.0577374685427
 31
0.0
  0
ARC
  5
3EAB
330
2
100
AcDbEntity
  8
0
100
AcDbCircle
 10
1117.559171748528
 20
826.0577374685427
 30
0.0
 40
2.0
100
AcDbArc
 50
90.0
 51
180.0
  0
ARC
  5
3EAC
330
2
100
AcDbEntity
  8
0
100
AcDbCircle
 10
1113.559171748528
 20
809.0577374685427
 30
0.0
 40
2.0
100
AcDbArc
 50
270.0
 51
0.0
  0
LINE
  5
3EAD
330
2
100
AcDbEntity
  8
CENTER
100
AcDbLine
 10
1119.559171748527
 20
773.8077374685421
 30
0.0
 11
1119.559171748527
 21
752.3077374685422
 31
0.0
  0
LINE
  5
3EAE
330
2
100
AcDbEntity
  8
CENTER
100
AcDbLine
 10
1108.809171748527
 20
763.0577374685421
 30
0.0
 11
1130.309171748527
 21
763.0577374685421
 31
0.0
  0
ARC
  5
3EAF
330
2
100
AcDbEntity
  8
0
100
AcDbCircle
 10
1075.059171748527
 20
842.0577374685427
 30
0.0
 40
8.0
100
AcDbArc
 50
182.8659839825963
 51
210.8812109426688
  0
ARC
  5
3EB0
330
2
100
AcDbEntity
  8
0
100
AcDbCircle
 10
1075.059171748527
 20
842.0577374685427
 30
0.0
 40
8.0
100
AcDbArc
 50
215.6590876964529
 51
217.3736074376408
  0
ARC
  5
3EB1
330
2
100
AcDbEntity
  8
0
100
AcDbCircle
 10
1075.059171748527
 20
842.0577374685427
 30
0.0
 40
8.0
100
AcDbArc
 50
266.4166783017109
 51
270.0
  0
ARC
  5
3EB2
330
2
100
AcDbEntity
  8
0
100
AcDbCircle
 10
1065.071679570808
 20
841.5577374685426
 30
0.0
 40
2.0
100
AcDbArc
 50
2.86598398259632
 51
90.0
  0
ARC
  5
3EB3
330
2
100
AcDbEntity
  8
0
100
AcDbCircle
 10
1065.10929737746
 20
841.0577374685427
 30
0.0
 40
2.0
100
AcDbArc
 50
5.739170477261705
 51
90.0
  0
LINE
  5
3EB4
330
2
100
AcDbEntity
  8
0
100
AcDbLine
 10
1109.559171748527
 20
828.0577374685426
 30
0.0
 11
1138.059171748527
 21
828.0577374685426
 31
0.0
  0
LINE
  5
3EB5
330
2
100
AcDbEntity
  8
0
100
AcDbLine
 10
1075.059171748527
 20
834.0577374685427
 30
0.0
 11
1105.559171748527
 21
834.057737468543
 31
0.0
  0
ARC
  5
3EB6
330
2
100
AcDbEntity
  8
0
100
AcDbCircle
 10
1105.559171748527
 20
832.0577374685431
 30
0.0
 40
2.0
100
AcDbArc
 50
0.0
 51
90.0
  0
LINE
  5
3EB7
330
2
100
AcDbEntity
  8
0
100
AcDbLine
 10
1053.559171748527
 20
843.0577374685427
 30
0.0
 11
1065.10929737746
 21
843.0577374685427
 31
0.0
  0
LINE
  5
3EB8
330
2
100
AcDbEntity
  8
0
100
AcDbLine
 10
1053.559171748527
 20
843.5577374685426
 30
0.0
 11
1065.071679570808
 21
843.5577374685426
 31
0.0
  0
LINE
  5
3EB9
330
2
100
AcDbEntity
  8
0
100
AcDbLine
 10
1107.559171748527
 20
830.0577374685426
 30
0.0
 11
1107.559171748527
 21
832.0577374685431
 31
0.0
  0
ARC
  5
3EBA
330
2
100
AcDbEntity
  8
0
100
AcDbCircle
 10
1109.559171748527
 20
830.0577374685426
 30
0.0
 40
2.0
100
AcDbArc
 50
180.0
 51
270.0
  0
LINE
  5
3EBB
330
2
100
AcDbEntity
  8
0
100
AcDbLine
 10
1115.559171748528
 20
740.0577374685426
 30
0.0
 11
1115.559171748528
 21
750.5577374685426
 31
0.0
  0
ARC
  5
3EBC
330
2
100
AcDbEntity
  8
0
100
AcDbCircle
 10
1117.559171748528
 20
740.0577374685426
 30
0.0
 40
2.0
100
AcDbArc
 50
180.0
 51
270.0
  0
LINE
  5
3EBD
330
2
100
AcDbEntity
  8
0
100
AcDbLine
 10
1109.559171748527
 20
738.0577374685426
 30
0.0
 11
1138.059171748528
 21
738.0577374685426
 31
0.0
  0
LINE
  5
3EBE
330
2
100
AcDbEntity
  8
0
100
AcDbLine
 10
1075.059171748527
 20
732.0577374685426
 30
0.0
 11
1105.559171748527
 21
732.0577374685422
 31
0.0
  0
ARC
  5
3EBF
330
2
100
AcDbEntity
  8
0
100
AcDbCircle
 10
1105.559171748527
 20
734.0577374685421
 30
0.0
 40
2.0
100
AcDbArc
 50
270.0
 51
0.0
  0
LINE
  5
3EC0
330
2
100
AcDbEntity
  8
0
100
AcDbLine
 10
1107.559171748527
 20
736.0577374685426
 30
0.0
 11
1107.559171748527
 21
734.0577374685421
 31
0.0
  0
ARC
  5
3EC1
330
2
100
AcDbEntity
  8
0
100
AcDbCircle
 10
1109.559171748527
 20
736.0577374685426
 30
0.0
 40
2.0
100
AcDbArc
 50
90.0
 51
180.0
  0
LINE
  5
3EC3
330
2
100
AcDbEntity
  8
0
100
AcDbLine
 10
1481.392958775977
 20
454.2456345049861
 30
0.0
 11
1403.619902988354
 21
454.2456345049861
 31
0.0
  0
LINE
  5
3EC4
330
2
100
AcDbEntity
  8
0
100
AcDbLine
 10
1481.392958775977
 20
364.245634504986
 30
0.0
 11
1403.619902988354
 21
364.2456345049858
 31
0.0
  0
LINE
  5
3EC6
330
2
100
AcDbEntity
  8
0
100
AcDbLine
 10
1492.589416999193
 20
349.2456344976553
 30
0.0
 11
1392.423444765138
 21
349.2456344976553
 31
0.0
  0
ARC
  5
3EC7
330
2
100
AcDbEntity
  8
0
100
AcDbCircle
 10
1492.589416999193
 20
359.2456344976553
 30
0.0
 40
9.999999999999998
100
AcDbArc
 50
270.0
 51
359.5225462226371
  0
LINE
  5
3EC8
330
2
100
AcDbEntity
  8
0
100
AcDbLine
 10
1392.423444765016
 20
469.2456344976604
 30
0.0
 11
1492.589416999316
 21
469.2456344976604
 31
0.0
  0
LINE
  5
3EC9
330
2
100
AcDbEntity
  8
CENTER
100
AcDbLine
 10
1491.650352174631
 20
449.889555797451
 30
0.0
 11
1491.650352174631
 21
466.8895557974506
 31
0.0
  0
LINE
  5
3ECA
330
2
100
AcDbEntity
  8
CENTER
100
AcDbLine
 10
1483.150352174631
 20
458.3895557974507
 30
0.0
 11
1500.150352174631
 21
458.3895557974507
 31
0.0
  0
LINE
  5
3ECB
330
2
100
AcDbEntity
  8
CENTER
100
AcDbLine
 10
1491.650352174631
 20
351.6017132125206
 30
0.0
 11
1491.650352174631
 21
368.6017132125206
 31
0.0
  0
LINE
  5
3ECC
330
2
100
AcDbEntity
  8
CENTER
100
AcDbLine
 10
1483.150352174631
 20
360.1017132125206
 30
0.0
 11
1500.150352174631
 21
360.1017132125206
 31
0.0
  0
LINE
  5
3ECD
330
2
100
AcDbEntity
  8
CENTER
100
AcDbLine
 10
1393.362509589701
 20
351.6017132125206
 30
0.0
 11
1393.362509589701
 21
368.6017132125206
 31
0.0
  0
LINE
  5
3ECE
330
2
100
AcDbEntity
  8
CENTER
100
AcDbLine
 10
1384.862509589701
 20
360.1017132125206
 30
0.0
 11
1401.862509589701
 21
360.1017132125206
 31
0.0
  0
LINE
  5
3ECF
330
2
100
AcDbEntity
  8
CENTER
100
AcDbLine
 10
1393.362509589701
 20
449.889555797451
 30
0.0
 11
1393.362509589701
 21
466.8895557974506
 31
0.0
  0
LINE
  5
3ED0
330
2
100
AcDbEntity
  8
CENTER
100
AcDbLine
 10
1384.862509589701
 20
458.3895557974507
 30
0.0
 11
1401.862509589701
 21
458.3895557974507
 31
0.0
  0
LINE
  5
3ED1
330
2
100
AcDbEntity
  8
CENTER
  6
CENTER_小_
100
AcDbLine
 10
1477.861769941493
 20
436.1009735643133
 30
0.0
 11
1477.861769941493
 21
453.1009735643133
 31
0.0
  0
LINE
  5
3ED2
330
2
100
AcDbEntity
  8
CENTER
  6
CENTER_小_
100
AcDbLine
 10
1469.361769941493
 20
444.6009735643133
 30
0.0
 11
1486.361769941493
 21
444.6009735643133
 31
0.0
  0
LINE
  5
3ED3
330
2
100
AcDbEntity
  8
CENTER
  6
CENTER_小_
100
AcDbLine
 10
1477.861769941493
 20
365.3902954456583
 30
0.0
 11
1477.861769941493
 21
382.3902954456584
 31
0.0
  0
LINE
  5
3ED4
330
2
100
AcDbEntity
  8
CENTER
  6
CENTER_小_
100
AcDbLine
 10
1469.361769941493
 20
373.8902954456584
 30
0.0
 11
1486.361769941493
 21
373.8902954456584
 31
0.0
  0
LINE
  5
3ED5
330
2
100
AcDbEntity
  8
CENTER
  6
CENTER_小_
100
AcDbLine
 10
1407.151091822839
 20
365.3902954456583
 30
0.0
 11
1407.151091822839
 21
382.3902954456584
 31
0.0
  0
LINE
  5
3ED6
330
2
100
AcDbEntity
  8
CENTER
  6
CENTER_小_
100
AcDbLine
 10
1398.651091822839
 20
373.8902954456584
 30
0.0
 11
1415.651091822839
 21
373.8902954456584
 31
0.0
  0
LINE
  5
3ED7
330
2
100
AcDbEntity
  8
CENTER
  6
CENTER_小_
100
AcDbLine
 10
1407.151091822839
 20
436.1009735643133
 30
0.0
 11
1407.151091822839
 21
453.1009735643133
 31
0.0
  0
LINE
  5
3ED8
330
2
100
AcDbEntity
  8
CENTER
  6
CENTER_小_
100
AcDbLine
 10
1398.651091822839
 20
444.6009735643133
 30
0.0
 11
1415.651091822839
 21
444.6009735643133
 31
0.0
  0
ARC
  5
3ED9
330
2
100
AcDbEntity
  8
HIDS
  6
SEKKEI_H
100
AcDbCircle
 10
1442.506430882166
 20
409.2456345049858
 30
0.0
 40
50.99999999999997
100
AcDbArc
 50
106.3235402486148
 51
151.7603918884175
  0
ARC
  5
3EDA
330
2
100
AcDbEntity
  8
HIDS
  6
SEKKEI_H
100
AcDbCircle
 10
1407.006430882165
 20
452.5555640823931
 30
0.0
 40
4.999999999999998
100
AcDbArc
 50
309.3405638356654
 51
357.4623623317993
  0
ARC
  5
3EDB
330
2
100
AcDbEntity
  8
HIDS
  6
SEKKEI_H
100
AcDbCircle
 10
1413.999566348968
 20
452.245634504986
 30
0.0
 40
1.999999999999999
100
AcDbArc
 50
90.0
 51
177.4623623317993
  0
ARC
  5
3EDC
330
2
100
AcDbEntity
  8
HIDS
  6
SEKKEI_H
100
AcDbCircle
 10
1442.506430882166
 20
409.2456345049858
 30
0.0
 40
50.99999999999997
100
AcDbArc
 50
208.2396081115823
 51
241.9275130641455
  0
ARC
  5
3EDD
330
2
100
AcDbEntity
  8
0
100
AcDbCircle
 10
1442.506430882166
 20
409.2456345049858
 30
0.0
 40
50.99999999999997
100
AcDbArc
 50
241.9275130641455
 51
298.0724869358544
  0
ARC
  5
3EDE
330
2
100
AcDbEntity
  8
HIDS
  6
SEKKEI_H
100
AcDbCircle
 10
1442.506430882166
 20
409.2456345049858
 30
0.0
 40
50.99999999999997
100
AcDbArc
 50
298.0724869358544
 51
331.7603918884175
  0
ARC
  5
3EDF
330
2
100
AcDbEntity
  8
0
100
AcDbCircle
 10
1442.506430882166
 20
409.2456345049858
 30
0.0
 40
50.99999999999997
100
AcDbArc
 50
331.7603918884175
 51
28.23960811158242
  0
ARC
  5
3EE0
330
2
100
AcDbEntity
  8
HIDS
  6
SEKKEI_H
100
AcDbCircle
 10
1442.506430882166
 20
409.2456345049858
 30
0.0
 40
50.99999999999997
100
AcDbArc
 50
28.23960811158242
 51
61.92751306414548
  0
ARC
  5
3EE1
330
2
100
AcDbEntity
  8
0
100
AcDbCircle
 10
1442.506430882166
 20
409.2456345049858
 30
0.0
 40
50.99999999999997
100
AcDbArc
 50
61.92751306414548
 51
106.3235402486148
  0
ARC
  5
3EE2
330
2
100
AcDbEntity
  8
0
100
AcDbCircle
 10
1442.506430882166
 20
409.2456345049858
 30
0.0
 40
50.99999999999997
100
AcDbArc
 50
151.7603918884175
 51
208.2396081115823
  0
ARC
  5
3EE3
330
2
100
AcDbEntity
  8
HIDS
  6
SEKKEI_H
100
AcDbCircle
 10
1478.006430882166
 20
365.9357049275783
 30
0.0
 40
4.999999999999998
100
AcDbArc
 50
129.3405638356654
 51
177.4623623317862
  0
ARC
  5
3EE4
330
2
100
AcDbEntity
  8
HIDS
  6
SEKKEI_H
100
AcDbCircle
 10
1471.013295415364
 20
366.2456345049854
 30
0.0
 40
1.999999999999999
100
AcDbArc
 50
270.0
 51
357.4623623318123
  0
LINE
  5
3EE5
330
2
100
AcDbEntity
  8
0
100
AcDbLine
 10
1382.006430882166
 20
409.2456345049858
 30
0.0
 11
1382.423791969155
 21
459.3289649376358
 31
0.0
  0
ARC
  5
3EE6
330
2
100
AcDbEntity
  8
0
100
AcDbCircle
 10
1392.423444765016
 20
459.2456344976601
 30
0.0
 40
9.999999999999998
100
AcDbArc
 50
90.0
 51
179.5225462226371
  0
LINE
  5
3EE7
330
2
100
AcDbEntity
  8
0
100
AcDbLine
 10
1503.006430882166
 20
409.2456345049858
 30
0.0
 11
1502.589069795177
 21
459.3289649376358
 31
0.0
  0
ARC
  5
3EE8
330
2
100
AcDbEntity
  8
0
100
AcDbCircle
 10
1492.589416999316
 20
459.2456344976601
 30
0.0
 40
9.999999999999998
100
AcDbArc
 50
0.4774537773628799
 51
90.0
  0
LINE
  5
3EE9
330
2
100
AcDbEntity
  8
0
100
AcDbLine
 10
1382.006430882166
 20
409.2456345049856
 30
0.0
 11
1382.423791969277
 21
359.1623040576798
 31
0.0
  0
ARC
  5
3EEA
330
2
100
AcDbEntity
  8
0
100
AcDbCircle
 10
1392.423444765138
 20
359.2456344976553
 30
0.0
 40
9.999999999999998
100
AcDbArc
 50
180.4774537773628
 51
270.0
  0
LINE
  5
3EEB
330
2
100
AcDbEntity
  8
0
100
AcDbLine
 10
1503.006430882166
 20
409.2456345049856
 30
0.0
 11
1502.589069795054
 21
359.1623040576798
 31
0.0
  0
LINE
  5
3EEC
330
2
100
AcDbEntity
  8
0
100
AcDbLine
 10
1397.506430882166
 20
409.2456345049858
 30
0.0
 11
1382.006430882166
 21
409.2456345049856
 31
0.0
  0
LINE
  5
3EED
330
2
100
AcDbEntity
  8
0
100
AcDbLine
 10
1487.506430882166
 20
409.2456345049858
 30
0.0
 11
1503.006430882166
 21
409.2456345049856
 31
0.0
  0
LINE
  5
3EEE
330
2
100
AcDbEntity
  8
0
100
AcDbLine
 10
1487.39293339121
 20
448.2630877728851
 30
0.0
 11
1487.506430882166
 21
409.2456345049858
 31
0.0
  0
ARC
  5
3EEF
330
2
100
AcDbEntity
  8
0
100
AcDbCircle
 10
1481.392958775977
 20
448.245634504986
 30
0.0
 40
6.0
100
AcDbArc
 50
0.1666666665969645
 51
90.0
  0
LINE
  5
3EF0
330
2
100
AcDbEntity
  8
0
100
AcDbLine
 10
1397.619928373122
 20
448.2630877728851
 30
0.0
 11
1397.506430882166
 21
409.2456345049858
 31
0.0
  0
ARC
  5
3EF1
330
2
100
AcDbEntity
  8
0
100
AcDbCircle
 10
1403.619902988354
 20
448.245634504986
 30
0.0
 40
6.0
100
AcDbArc
 50
90.0
 51
179.833333333403
  0
LINE
  5
3EF2
330
2
100
AcDbEntity
  8
0
100
AcDbLine
 10
1487.392933391211
 20
370.2281812370865
 30
0.0
 11
1487.506430882166
 21
409.2456345049858
 31
0.0
  0
ARC
  5
3EF3
330
2
100
AcDbEntity
  8
0
100
AcDbCircle
 10
1481.392958775977
 20
370.2456345049856
 30
0.0
 40
6.0
100
AcDbArc
 50
270.0
 51
359.8333333333899
  0
LINE
  5
3EF4
330
2
100
AcDbEntity
  8
0
100
AcDbLine
 10
1397.619928373122
 20
370.2281812370865
 30
0.0
 11
1397.506430882166
 21
409.2456345049858
 31
0.0
  0
ARC
  5
3EF5
330
2
100
AcDbEntity
  8
0
100
AcDbCircle
 10
1403.619902988354
 20
370.2456345049856
 30
0.0
 40
6.0
100
AcDbArc
 50
180.16666666661
 51
270.0
  0
CIRCLE
  5
3EF6
330
2
100
AcDbEntity
  8
HOJO
100
AcDbCircle
 10
1477.861769941493
 20
373.8902954456584
 30
0.0
 40
3.0
  0
CIRCLE
  5
3EF7
330
2
100
AcDbEntity
  8
0
100
AcDbCircle
 10
1477.861769941493
 20
373.8902954456584
 30
0.0
 40
2.5
  0
CIRCLE
  5
3EF8
330
2
100
AcDbEntity
  8
HOJO
100
AcDbCircle
 10
1477.861769941493
 20
444.6009735643133
 30
0.0
 40
3.0
  0
CIRCLE
  5
3EF9
330
2
100
AcDbEntity
  8
0
100
AcDbCircle
 10
1477.861769941493
 20
444.6009735643133
 30
0.0
 40
2.5
  0
CIRCLE
  5
3EFA
330
2
100
AcDbEntity
  8
HOJO
100
AcDbCircle
 10
1407.151091822839
 20
444.6009735643133
 30
0.0
 40
3.0
  0
CIRCLE
  5
3EFB
330
2
100
AcDbEntity
  8
0
100
AcDbCircle
 10
1407.151091822839
 20
444.6009735643133
 30
0.0
 40
2.5
  0
CIRCLE
  5
3EFC
330
2
100
AcDbEntity
  8
HOJO
100
AcDbCircle
 10
1407.151091822839
 20
373.8902954456584
 30
0.0
 40
3.0
  0
CIRCLE
  5
3EFD
330
2
100
AcDbEntity
  8
0
100
AcDbCircle
 10
1407.151091822839
 20
373.8902954456584
 30
0.0
 40
2.5
  0
CIRCLE
  5
3EFE
330
2
100
AcDbEntity
  8
0
100
AcDbCircle
 10
1442.506430882166
 20
409.2456345049858
 30
0.0
 40
40.00000000000045
  0
ARC
  5
3EFF
330
2
100
AcDbEntity
  8
HIDS
  6
SEKKEI_H
100
AcDbCircle
 10
1478.006430882166
 20
365.9357049275785
 30
0.0
 40
4.999999999999998
100
AcDbArc
 50
129.3405638356654
 51
177.4623623317993
  0
ARC
  5
3F00
330
2
100
AcDbEntity
  8
HIDS
  6
SEKKEI_H
100
AcDbCircle
 10
1471.013295415364
 20
366.2456345049856
 30
0.0
 40
1.999999999999999
100
AcDbArc
 50
270.0
 51
357.4623623317993
  0
CIRCLE
  5
3F03
330
2
100
AcDbEntity
  8
CENTER
100
AcDbCircle
 10
1442.506430882166
 20
409.2456345049858
 30
0.0
 40
49.99999999999976
  0
LINE
  5
3F04
330
2
100
AcDbEntity
  8
HIDS
  6
SEKKEI_H
100
AcDbLine
 10
1428.13123712907
 20
446.5732891937149
 30
0.0
 11
1428.265158414629
 21
454.2456345049861
 31
0.0
  0
LINE
  5
3F05
330
2
100
AcDbEntity
  8
HIDS
  6
SEKKEI_H
100
AcDbLine
 10
1416.995410063923
 20
440.0545263515166
 30
0.0
 11
1416.747703349703
 21
454.2456345049859
 31
0.0
  0
LINE
  5
3F06
330
2
100
AcDbEntity
  8
CENTER
100
AcDbLine
 10
1442.506430882166
 20
456.4254814440982
 30
0.0
 11
1442.506430882166
 21
447.0657875658734
 31
0.0
  0
LINE
  5
3F23
330
2
100
AcDbEntity
  8
0
100
AcDbLine
 10
278.2764536838397
 20
349.2456345049861
 30
0.0
 11
278.2764536838399
 21
469.2456345049863
 31
0.0
  0
LINE
  5
3F25
330
2
100
AcDbEntity
  8
0
100
AcDbLine
 10
278.2764536838397
 20
349.2456345049861
 30
0.0
 11
267.7549582612928
 21
349.2456345049857
 31
0.0
  0
LINE
  5
3F26
330
2
100
AcDbEntity
  8
0
100
AcDbLine
 10
278.2764536838397
 20
349.2456345049861
 30
0.0
 11
278.2764536838401
 21
469.2456345049863
 31
0.0
  0
LINE
  5
3F27
330
2
100
AcDbEntity
  8
0
100
AcDbLine
 10
264.7421528197589
 20
351.2107296921115
 30
0.0
 11
263.7291497881613
 21
409.2456345049859
 31
0.0
  0
LINE
  5
3F28
330
2
100
AcDbEntity
  8
0
100
AcDbLine
 10
215.5252766261507
 20
366.2107296921115
 30
0.0
 11
215.8232312614805
 21
383.2805393178606
 31
0.0
  0
ARC
  5
3F29
330
2
100
AcDbEntity
  8
0
100
AcDbCircle
 10
217.8229266517935
 20
383.2456345049859
 30
0.0
 40
2.0
100
AcDbArc
 50
90.0
 51
178.9999999999982
  0
LINE
  5
3F2A
330
2
100
AcDbEntity
  8
0
100
AcDbLine
 10
193.7764536838401
 20
364.2456345049859
 30
0.0
 11
193.7764536838387
 21
454.2456345049862
 31
0.0
  0
LINE
  5
3F2B
330
2
100
AcDbEntity
  8
CENTER
100
AcDbLine
 10
212.2764536838401
 20
446.1349420098694
 30
0.0
 11
212.2764536838388
 21
462.7453056412222
 31
0.0
  0
LINE
  5
3F2C
330
2
100
AcDbEntity
  8
0
100
AcDbLine
 10
222.6601604561726
 20
385.2456345049859
 30
0.0
 11
217.8229266517935
 21
385.2456345049859
 31
0.0
  0
LINE
  5
3F2D
330
2
100
AcDbEntity
  8
0
100
AcDbLine
 10
224.6598558464854
 20
387.2805393178606
 30
0.0
 11
224.2764536838397
 21
409.2456345049861
 31
0.0
  0
ARC
  5
3F2E
330
2
100
AcDbEntity
  8
0
100
AcDbCircle
 10
222.6601604561726
 20
387.2456345049859
 30
0.0
 40
2.0
100
AcDbArc
 50
270.0
 51
1.000000000001761
  0
LINE
  5
3F2F
330
2
100
AcDbEntity
  8
0
100
AcDbLine
 10
222.598254421485
 20
364.2456345049861
 30
0.0
 11
193.7764536838403
 21
364.2456345049859
 31
0.0
  0
ARC
  5
3F30
330
2
100
AcDbEntity
  8
0
100
AcDbCircle
 10
213.525581235838
 20
366.2456345049861
 30
0.0
 40
2.0
100
AcDbArc
 50
270.0
 51
358.9999999999982
  0
LINE
  5
3F31
330
2
100
AcDbEntity
  8
0
100
AcDbLine
 10
256.7919738390057
 20
358.2456345049859
 30
0.0
 11
227.0126148304455
 21
358.2456345049859
 31
0.0
  0
ARC
  5
3F32
330
2
100
AcDbEntity
  8
0
100
AcDbCircle
 10
227.0126148304455
 20
360.2456345049859
 30
0.0
 40
2.0
100
AcDbArc
 50
189.9999999999878
 51
270.0
  0
LINE
  5
3F33
330
2
100
AcDbEntity
  8
0
100
AcDbLine
 10
278.2764536838397
 20
349.2456345049859
 30
0.0
 11
266.7418482100718
 21
349.2456345049855
 31
0.0
  0
ARC
  5
3F34
330
2
100
AcDbEntity
  8
0
100
AcDbCircle
 10
266.7418482100718
 20
351.2456345049855
 30
0.0
 40
2.0
100
AcDbArc
 50
185.7391704772616
 51
270.0
  0
ARC
  5
3F35
330
2
100
AcDbEntity
  8
0
100
AcDbCircle
 10
256.7919738390057
 20
350.2456345049859
 30
0.0
 40
8.0
100
AcDbArc
 50
5.739170477261705
 51
30.88121094266606
  0
ARC
  5
3F36
330
2
100
AcDbEntity
  8
0
100
AcDbCircle
 10
256.7919738390057
 20
350.2456345049859
 30
0.0
 40
8.0
100
AcDbArc
 50
88.60600181533426
 51
90.0
  0
LINE
  5
3F37
330
2
100
AcDbEntity
  8
0
100
AcDbLine
 10
193.7764536838392
 20
409.2456345049861
 30
0.0
 11
278.2764536838397
 21
409.2456345049861
 31
0.0
  0
LINE
  5
3F38
330
2
100
AcDbEntity
  8
0
100
AcDbLine
 10
278.2764536838401
 20
469.2456345049863
 30
0.0
 11
266.7418482100718
 21
469.2456345049867
 31
0.0
  0
LINE
  5
3F39
330
2
100
AcDbEntity
  8
0
100
AcDbLine
 10
224.5678699275097
 20
362.59293086032
 30
0.0
 11
225.0429993244208
 21
359.8983381496521
 31
0.0
  0
ARC
  5
3F3A
330
2
100
AcDbEntity
  8
0
100
AcDbCircle
 10
222.598254421485
 20
362.2456345049862
 30
0.0
 40
2.0
100
AcDbArc
 50
9.999999999987855
 51
90.0
  0
LINE
  5
3F3B
330
2
100
AcDbEntity
  8
0
100
AcDbLine
 10
222.6601604561726
 20
433.2456345049862
 30
0.0
 11
217.8229266517933
 21
433.2456345049862
 31
0.0
  0
LINE
  5
3F3C
330
2
100
AcDbEntity
  8
0
100
AcDbLine
 10
224.6598558464854
 20
431.2107296921118
 30
0.0
 11
224.2764536838397
 21
409.2456345049861
 31
0.0
  0
ARC
  5
3F3D
330
2
100
AcDbEntity
  8
0
100
AcDbCircle
 10
222.6601604561726
 20
431.2456345049861
 30
0.0
 40
2.0
100
AcDbArc
 50
358.9999999999982
 51
90.0
  0
LINE
  5
3F3E
330
2
100
AcDbEntity
  8
0
100
AcDbLine
 10
222.598254421485
 20
454.2456345049859
 30
0.0
 11
193.7764536838392
 21
454.2456345049862
 31
0.0
  0
LINE
  5
3F3F
330
2
100
AcDbEntity
  8
0
100
AcDbLine
 10
256.7919738390057
 20
460.2456345049859
 30
0.0
 11
227.0126148304455
 21
460.2456345049861
 31
0.0
  0
ARC
  5
3F40
330
2
100
AcDbEntity
  8
0
100
AcDbCircle
 10
227.0126148304455
 20
458.2456345049862
 30
0.0
 40
2.0
100
AcDbArc
 50
90.0
 51
169.9999999999906
  0
LINE
  5
3F41
330
2
100
AcDbEntity
  8
0
100
AcDbLine
 10
224.5678699275097
 20
455.8983381496523
 30
0.0
 11
225.0429993244208
 21
458.5929308603202
 31
0.0
  0
ARC
  5
3F42
330
2
100
AcDbEntity
  8
0
100
AcDbCircle
 10
222.598254421485
 20
456.2456345049861
 30
0.0
 40
2.0
100
AcDbArc
 50
270.0
 51
349.9999999999906
  0
LINE
  5
3F43
330
2
100
AcDbEntity
  8
0
100
AcDbLine
 10
264.7421528197589
 20
467.2805393178613
 30
0.0
 11
263.7291497881613
 21
409.2456345049866
 31
0.0
  0
ARC
  5
3F44
330
2
100
AcDbEntity
  8
0
100
AcDbCircle
 10
266.7418482100718
 20
467.2456345049872
 30
0.0
 40
2.0
100
AcDbArc
 50
90.0
 51
174.2608295227383
  0
ARC
  5
3F45
330
2
100
AcDbEntity
  8
0
100
AcDbCircle
 10
256.7919738390057
 20
468.2456345049867
 30
0.0
 40
8.0
100
AcDbArc
 50
270.0
 51
271.3939981846657
  0
ARC
  5
3F46
330
2
100
AcDbEntity
  8
0
100
AcDbCircle
 10
256.7919738390057
 20
468.2456345049867
 30
0.0
 40
8.0
100
AcDbArc
 50
329.1187890573339
 51
354.2608295227382
  0
LINE
  5
3F47
330
2
100
AcDbEntity
  8
0
100
AcDbLine
 10
215.5252766261507
 20
452.2805393178607
 30
0.0
 11
215.8232312614805
 21
435.2107296921118
 31
0.0
  0
ARC
  5
3F48
330
2
100
AcDbEntity
  8
0
100
AcDbCircle
 10
217.8229266517933
 20
435.2456345049863
 30
0.0
 40
2.0
100
AcDbArc
 50
181.0000000000017
 51
270.0
  0
ARC
  5
3F49
330
2
100
AcDbEntity
  8
0
100
AcDbCircle
 10
213.525581235838
 20
452.2456345049861
 30
0.0
 40
2.0
100
AcDbArc
 50
1.000000000001761
 51
90.0
  0
ARC
  5
3F4A
330
2
100
AcDbEntity
  8
0
100
AcDbCircle
 10
222.8281399419963
 20
366.2456345049866
 30
0.0
 40
2.0
100
AcDbArc
 50
270.0
 51
358.4999999999972
  0
LINE
  5
3F4B
330
2
100
AcDbEntity
  8
0
100
AcDbLine
 10
226.835010155489
 20
368.4556345049866
 30
0.0
 11
221.8507011474073
 21
368.4556345049866
 31
0.0
  0
ARC
  5
3F4C
330
2
100
AcDbEntity
  8
0
100
AcDbCircle
 10
226.835010155489
 20
366.4556345049871
 30
0.0
 40
2.0
100
AcDbArc
 50
90.0
 51
178.4999999999971
  0
LINE
  5
3F4D
330
2
100
AcDbEntity
  8
0
100
AcDbLine
 10
224.8274545919473
 20
366.193280608371
 30
0.0
 11
224.835695505538
 21
366.5079884016029
 31
0.0
  0
LINE
  5
3F4F
330
2
100
AcDbEntity
  8
0
100
AcDbLine
 10
1427.506430882166
 20
458.2456345049858
 30
0.0
 11
1417.506430882166
 21
458.2456345049858
 31
0.0
  0
ARC
  5
3F50
330
2
100
AcDbEntity
  8
0
100
AcDbCircle
 10
1417.506430882166
 20
454.2456345049858
 30
0.0
 40
4.0
100
AcDbArc
 50
90.0
 51
180.0
  0
ARC
  5
3F51
330
2
100
AcDbEntity
  8
0
100
AcDbCircle
 10
1427.506430882166
 20
454.2456345049858
 30
0.0
 40
4.0
100
AcDbArc
 50
0.0
 51
90.0
  0
LINE
  5
3F52
330
2
100
AcDbEntity
  8
0
100
AcDbLine
 10
1124.559171748527
 20
458.2456345049855
 30
0.0
 11
1114.559171748527
 21
458.2456345049855
 31
0.0
  0
ARC
  5
3F53
330
2
100
AcDbEntity
  8
0
100
AcDbCircle
 10
1114.559171748527
 20
454.2456345049855
 30
0.0
 40
4.0
100
AcDbArc
 50
90.0
 51
180.0
  0
ARC
  5
3F54
330
2
100
AcDbEntity
  8
0
100
AcDbCircle
 10
1124.559171748527
 20
454.2456345049855
 30
0.0
 40
4.0
100
AcDbArc
 50
0.0
 51
90.0
  0
LINE
  5
3F55
330
2
100
AcDbEntity
  8
0
100
AcDbLine
 10
217.2764536838394
 20
458.2456345049858
 30
0.0
 11
207.2764536838394
 21
458.2456345049858
 31
0.0
  0
ARC
  5
3F56
330
2
100
AcDbEntity
  8
0
100
AcDbCircle
 10
207.2764536838394
 20
454.2456345049858
 30
0.0
 40
4.0
100
AcDbArc
 50
90.0
 51
180.0
  0
ARC
  5
3F57
330
2
100
AcDbEntity
  8
0
100
AcDbCircle
 10
217.2764536838394
 20
454.2456345049858
 30
0.0
 40
4.0
100
AcDbArc
 50
0.0
 51
90.0
  0
CIRCLE
  5
3F58
330
2
100
AcDbEntity
  8
0
100
AcDbCircle
 10
1119.559171748527
 20
763.0577374685421
 30
0.0
 40
9.0
  0
LINE
  5
3F59
330
2
100
AcDbEntity
  8
0
100
AcDbLine
 10
264.486593501801
 20
464.139555797451
 30
0.0
 11
262.9865935018006
 21
464.139555797451
 31
0.0
  0
LINE
  5
3F5A
330
2
100
AcDbEntity
  8
0
100
AcDbLine
 10
264.4865935018008
 20
452.639555797451
 30
0.0
 11
262.9865935017999
 21
452.6395557974513
 31
0.0
  0
LINE
  5
3F5B
330
2
100
AcDbEntity
  8
0
100
AcDbLine
 10
257.3865935018007
 20
463.3895557974516
 30
0.0
 11
256.986593501801
 21
462.6967354744243
 31
0.0
  0
LINE
  5
3F5C
330
2
100
AcDbEntity
  8
0
100
AcDbLine
 10
262.9865935018006
 20
464.139555797451
 30
0.0
 11
262.9865935017999
 21
452.6395557974513
 31
0.0
  0
LINE
  5
3F5D
330
2
100
AcDbEntity
  8
0
100
AcDbLine
 10
257.3865935018007
 20
463.3895557974516
 30
0.0
 11
257.3865935018007
 21
453.3895557974513
 31
0.0
  0
LINE
  5
3F5E
330
2
100
AcDbEntity
  8
0
100
AcDbLine
 10
262.9865935018006
 20
463.389555797451
 30
0.0
 11
257.3865935018007
 21
463.3895557974516
 31
0.0
  0
LINE
  5
3F5F
330
2
100
AcDbEntity
  8
0
100
AcDbLine
 10
262.9865935018001
 20
453.3895557974513
 30
0.0
 11
257.3865935018007
 21
453.3895557974513
 31
0.0
  0
LINE
  5
3F60
330
2
100
AcDbEntity
  8
0
100
AcDbLine
 10
257.3865935018007
 20
453.3895557974513
 30
0.0
 11
256.986593501801
 21
454.0823761204785
 31
0.0
  0
LINE
  5
3F61
330
2
100
AcDbEntity
  8
0
100
AcDbLine
 10
256.986593501801
 20
462.6967354744243
 30
0.0
 11
256.986593501801
 21
454.0823761204785
 31
0.0
  0
LINE
  5
3F62
330
2
100
AcDbEntity
  8
0
 48
12.0
100
AcDbLine
 10
264.4865935018008
 20
452.639555797451
 30
0.0
 11
264.486593501801
 21
464.139555797451
 31
0.0
  0
LINE
  5
3F63
330
2
100
AcDbEntity
  8
0
100
AcDbLine
 10
1067.059171748551
 20
826.4516587610078
 30
0.0
 11
1068.559171748552
 21
826.4516587610078
 31
0.0
  0
LINE
  5
3F64
330
2
100
AcDbEntity
  8
0
100
AcDbLine
 10
1067.059171748551
 20
837.9516587610078
 30
0.0
 11
1068.559171748552
 21
837.9516587610078
 31
0.0
  0
LINE
  5
3F65
330
2
100
AcDbEntity
  8
0
100
AcDbLine
 10
1074.159171748552
 20
827.2016587610078
 30
0.0
 11
1074.559171748551
 21
827.894479084035
 31
0.0
  0
LINE
  5
3F66
330
2
100
AcDbEntity
  8
0
100
AcDbLine
 10
1068.559171748552
 20
826.4516587610078
 30
0.0
 11
1068.559171748552
 21
837.9516587610078
 31
0.0
  0
LINE
  5
3F67
330
2
100
AcDbEntity
  8
0
100
AcDbLine
 10
1074.159171748552
 20
827.2016587610078
 30
0.0
 11
1074.159171748552
 21
837.2016587610078
 31
0.0
  0
LINE
  5
3F68
330
2
100
AcDbEntity
  8
0
100
AcDbLine
 10
1068.559171748552
 20
827.2016587610078
 30
0.0
 11
1074.159171748552
 21
827.2016587610078
 31
0.0
  0
LINE
  5
3F69
330
2
100
AcDbEntity
  8
0
100
AcDbLine
 10
1068.559171748552
 20
837.2016587610078
 30
0.0
 11
1074.159171748552
 21
837.2016587610078
 31
0.0
  0
LINE
  5
3F6A
330
2
100
AcDbEntity
  8
0
100
AcDbLine
 10
1074.159171748552
 20
837.2016587610078
 30
0.0
 11
1074.559171748551
 21
836.5088384379806
 31
0.0
  0
LINE
  5
3F6B
330
2
100
AcDbEntity
  8
0
100
AcDbLine
 10
1074.559171748551
 20
827.894479084035
 30
0.0
 11
1074.559171748551
 21
836.5088384379806
 31
0.0
  0
LINE
  5
3F6C
330
2
100
AcDbEntity
  8
0
 48
12.0
100
AcDbLine
 10
1067.059171748551
 20
837.9516587610078
 30
0.0
 11
1067.059171748551
 21
826.4516587610078
 31
0.0
  0
LINE
  5
3F6D
330
2
100
AcDbEntity
  8
0
100
AcDbLine
 10
1067.349031930565
 20
354.351713212521
 30
0.0
 11
1068.849031930565
 21
354.351713212521
 31
0.0
  0
LINE
  5
3F6E
330
2
100
AcDbEntity
  8
0
100
AcDbLine
 10
1067.349031930565
 20
365.8517132125211
 30
0.0
 11
1068.849031930566
 21
365.8517132125211
 31
0.0
  0
LINE
  5
3F6F
330
2
100
AcDbEntity
  8
0
100
AcDbLine
 10
1074.449031930566
 20
355.1017132125208
 30
0.0
 11
1074.849031930565
 21
355.7945335355481
 31
0.0
  0
LINE
  5
3F70
330
2
100
AcDbEntity
  8
0
100
AcDbLine
 10
1068.849031930565
 20
354.351713212521
 30
0.0
 11
1068.849031930566
 21
365.8517132125211
 31
0.0
  0
LINE
  5
3F71
330
2
100
AcDbEntity
  8
0
100
AcDbLine
 10
1074.449031930566
 20
355.1017132125208
 30
0.0
 11
1074.449031930566
 21
365.1017132125209
 31
0.0
  0
LINE
  5
3F72
330
2
100
AcDbEntity
  8
0
100
AcDbLine
 10
1068.849031930565
 20
355.101713212521
 30
0.0
 11
1074.449031930566
 21
355.1017132125208
 31
0.0
  0
LINE
  5
3F73
330
2
100
AcDbEntity
  8
0
100
AcDbLine
 10
1068.849031930566
 20
365.101713212521
 30
0.0
 11
1074.449031930566
 21
365.1017132125209
 31
0.0
  0
LINE
  5
3F74
330
2
100
AcDbEntity
  8
0
100
AcDbLine
 10
1074.449031930566
 20
365.1017132125209
 30
0.0
 11
1074.849031930565
 21
364.4088928894936
 31
0.0
  0
LINE
  5
3F75
330
2
100
AcDbEntity
  8
0
100
AcDbLine
 10
1074.849031930565
 20
355.7945335355481
 30
0.0
 11
1074.849031930565
 21
364.4088928894936
 31
0.0
  0
LINE
  5
3F76
330
2
100
AcDbEntity
  8
0
 48
12.0
100
AcDbLine
 10
1067.349031930565
 20
365.8517132125211
 30
0.0
 11
1067.349031930565
 21
354.351713212521
 31
0.0
  0
LINE
  5
3F77
330
2
100
AcDbEntity
  8
0
100
AcDbLine
 10
1067.349031930565
 20
452.6395557974511
 30
0.0
 11
1068.849031930566
 21
452.6395557974511
 31
0.0
  0
LINE
  5
3F78
330
2
100
AcDbEntity
  8
0
100
AcDbLine
 10
1067.349031930565
 20
464.1395557974511
 30
0.0
 11
1068.849031930566
 21
464.1395557974511
 31
0.0
  0
LINE
  5
3F79
330
2
100
AcDbEntity
  8
0
100
AcDbLine
 10
1074.449031930566
 20
453.3895557974509
 30
0.0
 11
1074.849031930565
 21
454.0823761204782
 31
0.0
  0
LINE
  5
3F7A
330
2
100
AcDbEntity
  8
0
100
AcDbLine
 10
1068.849031930566
 20
452.6395557974511
 30
0.0
 11
1068.849031930566
 21
464.1395557974511
 31
0.0
  0
LINE
  5
3F7B
330
2
100
AcDbEntity
  8
0
100
AcDbLine
 10
1074.449031930566
 20
453.3895557974509
 30
0.0
 11
1074.449031930566
 21
463.389555797451
 31
0.0
  0
LINE
  5
3F7C
330
2
100
AcDbEntity
  8
0
100
AcDbLine
 10
1068.849031930566
 20
453.3895557974512
 30
0.0
 11
1074.449031930566
 21
453.3895557974509
 31
0.0
  0
LINE
  5
3F7D
330
2
100
AcDbEntity
  8
0
100
AcDbLine
 10
1068.849031930566
 20
463.3895557974511
 30
0.0
 11
1074.449031930566
 21
463.389555797451
 31
0.0
  0
LINE
  5
3F7E
330
2
100
AcDbEntity
  8
0
100
AcDbLine
 10
1074.449031930566
 20
463.389555797451
 30
0.0
 11
1074.849031930565
 21
462.6967354744238
 31
0.0
  0
LINE
  5
3F7F
330
2
100
AcDbEntity
  8
0
100
AcDbLine
 10
1074.849031930565
 20
454.0823761204782
 30
0.0
 11
1074.849031930565
 21
462.6967354744238
 31
0.0
  0
LINE
  5
3F80
330
2
100
AcDbEntity
  8
0
 48
12.0
100
AcDbLine
 10
1067.349031930565
 20
464.1395557974511
 30
0.0
 11
1067.349031930565
 21
452.6395557974511
 31
0.0
  0
LINE
  5
3F81
330
2
100
AcDbEntity
  8
0
100
AcDbLine
 10
264.4865935018008
 20
365.851713212521
 30
0.0
 11
262.9865935018003
 21
365.851713212521
 31
0.0
  0
LINE
  5
3F82
330
2
100
AcDbEntity
  8
0
100
AcDbLine
 10
264.4865935018005
 20
354.351713212521
 30
0.0
 11
262.9865935017996
 21
354.3517132125212
 31
0.0
  0
LINE
  5
3F83
330
2
100
AcDbEntity
  8
0
100
AcDbLine
 10
257.3865935018004
 20
365.1017132125214
 30
0.0
 11
256.9865935018008
 21
364.4088928894942
 31
0.0
  0
LINE
  5
3F84
330
2
100
AcDbEntity
  8
0
100
AcDbLine
 10
262.9865935018003
 20
365.851713212521
 30
0.0
 11
262.9865935017996
 21
354.3517132125212
 31
0.0
  0
LINE
  5
3F85
330
2
100
AcDbEntity
  8
0
100
AcDbLine
 10
257.3865935018004
 20
365.1017132125214
 30
0.0
 11
257.3865935018004
 21
355.1017132125212
 31
0.0
  0
LINE
  5
3F86
330
2
100
AcDbEntity
  8
0
100
AcDbLine
 10
262.9865935018003
 20
365.101713212521
 30
0.0
 11
257.3865935018004
 21
365.1017132125214
 31
0.0
  0
LINE
  5
3F87
330
2
100
AcDbEntity
  8
0
100
AcDbLine
 10
262.9865935017999
 20
355.1017132125212
 30
0.0
 11
257.3865935018004
 21
355.1017132125212
 31
0.0
  0
LINE
  5
3F88
330
2
100
AcDbEntity
  8
0
100
AcDbLine
 10
257.3865935018004
 20
355.1017132125212
 30
0.0
 11
256.9865935018008
 21
355.7945335355485
 31
0.0
  0
LINE
  5
3F89
330
2
100
AcDbEntity
  8
0
100
AcDbLine
 10
256.9865935018008
 20
364.4088928894942
 30
0.0
 11
256.9865935018008
 21
355.7945335355485
 31
0.0
  0
LINE
  5
3F8A
330
2
100
AcDbEntity
  8
0
 48
12.0
100
AcDbLine
 10
264.4865935018005
 20
354.351713212521
 30
0.0
 11
264.4865935018008
 21
365.851713212521
 31
0.0
  0
CIRCLE
  5
3F8B
330
2
100
AcDbEntity
  8
0
100
AcDbCircle
 10
1491.650352174627
 20
458.3895557974507
 30
0.0
 40
5.000000000000113
  0
CIRCLE
  5
3F8C
330
2
100
AcDbEntity
  8
0
100
AcDbCircle
 10
1491.650352174627
 20
458.3895557974507
 30
0.0
 40
4.307179676972509
  0
LINE
  5
3F8D
330
2
100
AcDbEntity
  8
0
100
AcDbLine
 10
1494.150352174627
 20
459.8329314704248
 30
0.0
 11
1494.150352174627
 21
456.9461801244766
 31
0.0
  0
LINE
  5
3F8E
330
2
100
AcDbEntity
  8
0
100
AcDbLine
 10
1491.650352174627
 20
455.5028044515026
 30
0.0
 11
1494.150352174627
 21
456.9461801244766
 31
0.0
  0
LINE
  5
3F8F
330
2
100
AcDbEntity
  8
0
100
AcDbLine
 10
1494.150352174627
 20
459.8329314704248
 30
0.0
 11
1491.650352174627
 21
461.2763071433989
 31
0.0
  0
LINE
  5
3F90
330
2
100
AcDbEntity
  8
0
100
AcDbLine
 10
1489.150352174627
 20
459.8329314704248
 30
0.0
 11
1489.150352174627
 21
456.9461801244766
 31
0.0
  0
LINE
  5
3F91
330
2
100
AcDbEntity
  8
0
100
AcDbLine
 10
1491.650352174627
 20
455.5028044515026
 30
0.0
 11
1489.150352174627
 21
456.9461801244766
 31
0.0
  0
LINE
  5
3F92
330
2
100
AcDbEntity
  8
0
100
AcDbLine
 10
1489.150352174627
 20
459.8329314704248
 30
0.0
 11
1491.650352174627
 21
461.2763071433989
 31
0.0
  0
CIRCLE
  5
3F93
330
2
100
AcDbEntity
  8
0
 48
12.0
100
AcDbCircle
 10
1491.650352174631
 20
458.3895557974507
 30
0.0
 40
5.749999999999829
  0
CIRCLE
  5
3F94
330
2
100
AcDbEntity
  8
0
100
AcDbCircle
 10
1393.362509589697
 20
458.3895557974507
 30
0.0
 40
5.000000000000113
  0
CIRCLE
  5
3F95
330
2
100
AcDbEntity
  8
0
100
AcDbCircle
 10
1393.362509589697
 20
458.3895557974507
 30
0.0
 40
4.307179676972509
  0
LINE
  5
3F96
330
2
100
AcDbEntity
  8
0
100
AcDbLine
 10
1395.862509589696
 20
459.8329314704248
 30
0.0
 11
1395.862509589696
 21
456.9461801244766
 31
0.0
  0
LINE
  5
3F97
330
2
100
AcDbEntity
  8
0
100
AcDbLine
 10
1393.362509589697
 20
455.5028044515026
 30
0.0
 11
1395.862509589696
 21
456.9461801244766
 31
0.0
  0
LINE
  5
3F98
330
2
100
AcDbEntity
  8
0
100
AcDbLine
 10
1395.862509589696
 20
459.8329314704248
 30
0.0
 11
1393.362509589697
 21
461.2763071433989
 31
0.0
  0
LINE
  5
3F99
330
2
100
AcDbEntity
  8
0
100
AcDbLine
 10
1390.862509589696
 20
459.8329314704248
 30
0.0
 11
1390.862509589696
 21
456.9461801244766
 31
0.0
  0
LINE
  5
3F9A
330
2
100
AcDbEntity
  8
0
100
AcDbLine
 10
1393.362509589697
 20
455.5028044515026
 30
0.0
 11
1390.862509589696
 21
456.9461801244766
 31
0.0
  0
LINE
  5
3F9B
330
2
100
AcDbEntity
  8
0
100
AcDbLine
 10
1390.862509589696
 20
459.8329314704248
 30
0.0
 11
1393.362509589697
 21
461.2763071433989
 31
0.0
  0
CIRCLE
  5
3F9C
330
2
100
AcDbEntity
  8
0
 48
12.0
100
AcDbCircle
 10
1393.362509589701
 20
458.3895557974507
 30
0.0
 40
5.749999999999829
  0
CIRCLE
  5
3F9D
330
2
100
AcDbEntity
  8
0
100
AcDbCircle
 10
1393.362509589697
 20
360.1017132125206
 30
0.0
 40
5.000000000000113
  0
CIRCLE
  5
3F9E
330
2
100
AcDbEntity
  8
0
100
AcDbCircle
 10
1393.362509589697
 20
360.1017132125206
 30
0.0
 40
4.307179676972509
  0
LINE
  5
3F9F
330
2
100
AcDbEntity
  8
0
100
AcDbLine
 10
1395.862509589696
 20
361.5450888854947
 30
0.0
 11
1395.862509589696
 21
358.6583375395466
 31
0.0
  0
LINE
  5
3FA0
330
2
100
AcDbEntity
  8
0
100
AcDbLine
 10
1393.362509589697
 20
357.2149618665725
 30
0.0
 11
1395.862509589696
 21
358.6583375395466
 31
0.0
  0
LINE
  5
3FA1
330
2
100
AcDbEntity
  8
0
100
AcDbLine
 10
1395.862509589696
 20
361.5450888854947
 30
0.0
 11
1393.362509589697
 21
362.9884645584688
 31
0.0
  0
LINE
  5
3FA2
330
2
100
AcDbEntity
  8
0
100
AcDbLine
 10
1390.862509589696
 20
361.5450888854947
 30
0.0
 11
1390.862509589696
 21
358.6583375395466
 31
0.0
  0
LINE
  5
3FA3
330
2
100
AcDbEntity
  8
0
100
AcDbLine
 10
1393.362509589697
 20
357.2149618665725
 30
0.0
 11
1390.862509589696
 21
358.6583375395466
 31
0.0
  0
LINE
  5
3FA4
330
2
100
AcDbEntity
  8
0
100
AcDbLine
 10
1390.862509589696
 20
361.5450888854947
 30
0.0
 11
1393.362509589697
 21
362.9884645584688
 31
0.0
  0
CIRCLE
  5
3FA5
330
2
100
AcDbEntity
  8
0
 48
12.0
100
AcDbCircle
 10
1393.362509589701
 20
360.1017132125206
 30
0.0
 40
5.749999999999829
  0
CIRCLE
  5
3FA6
330
2
100
AcDbEntity
  8
0
100
AcDbCircle
 10
1491.650352174627
 20
360.1017132125206
 30
0.0
 40
5.000000000000113
  0
CIRCLE
  5
3FA7
330
2
100
AcDbEntity
  8
0
100
AcDbCircle
 10
1491.650352174627
 20
360.1017132125206
 30
0.0
 40
4.307179676972509
  0
LINE
  5
3FA8
330
2
100
AcDbEntity
  8
0
100
AcDbLine
 10
1494.150352174627
 20
361.5450888854947
 30
0.0
 11
1494.150352174627
 21
358.6583375395466
 31
0.0
  0
LINE
  5
3FA9
330
2
100
AcDbEntity
  8
0
100
AcDbLine
 10
1491.650352174627
 20
357.2149618665725
 30
0.0
 11
1494.150352174627
 21
358.6583375395466
 31
0.0
  0
LINE
  5
3FAA
330
2
100
AcDbEntity
  8
0
100
AcDbLine
 10
1494.150352174627
 20
361.5450888854947
 30
0.0
 11
1491.650352174627
 21
362.9884645584688
 31
0.0
  0
LINE
  5
3FAB
330
2
100
AcDbEntity
  8
0
100
AcDbLine
 10
1489.150352174627
 20
361.5450888854947
 30
0.0
 11
1489.150352174627
 21
358.6583375395466
 31
0.0
  0
LINE
  5
3FAC
330
2
100
AcDbEntity
  8
0
100
AcDbLine
 10
1491.650352174627
 20
357.2149618665725
 30
0.0
 11
1489.150352174627
 21
358.6583375395466
 31
0.0
  0
LINE
  5
3FAD
330
2
100
AcDbEntity
  8
0
100
AcDbLine
 10
1489.150352174627
 20
361.5450888854947
 30
0.0
 11
1491.650352174627
 21
362.9884645584688
 31
0.0
  0
CIRCLE
  5
3FAE
330
2
100
AcDbEntity
  8
0
 48
12.0
100
AcDbCircle
 10
1491.650352174631
 20
360.1017132125206
 30
0.0
 40
5.749999999999829
  0
LINE
  5
3FAF
330
2
100
AcDbEntity
  8
0
100
AcDbLine
 10
1108.059171748527
 20
430.8861596467698
 30
0.0
 11
1108.059171748527
 21
409.2456345049856
 31
0.0
  0
LINE
  5
3FB0
330
2
100
AcDbEntity
  8
0
100
AcDbLine
 10
1130.059171748527
 20
409.2456345049858
 30
0.0
 11
1130.059171748527
 21
436.2456345049881
 31
0.0
  0
LINE
  5
3FB1
330
2
100
AcDbEntity
  8
0
100
AcDbLine
 10
1128.059171748527
 20
409.2456345049858
 30
0.0
 11
1128.059171748527
 21
418.7456345049879
 31
0.0
  0
LINE
  5
3FB2
330
2
100
AcDbEntity
  8
0
100
AcDbLine
 10
1110.059171748527
 20
430.9346787892912
 30
0.0
 11
1110.059171748527
 21
409.2456345049856
 31
0.0
  0
LINE
  5
3FB3
330
2
100
AcDbEntity
  8
0
100
AcDbLine
 10
1066.559171748527
 20
409.2456345049853
 30
0.0
 11
1066.559171748526
 21
419.2456345049865
 31
0.0
  0
LINE
  5
3FB4
330
2
100
AcDbEntity
  8
0
 48
0.3
100
AcDbLine
 10
1086.559171748527
 20
419.2456345049866
 30
0.0
 11
1066.559171748526
 21
419.2456345049865
 31
0.0
  0
LINE
  5
3FB5
330
2
100
AcDbEntity
  8
0
 48
0.3
100
AcDbLine
 10
1086.559171748527
 20
418.7456345049869
 30
0.0
 11
1108.059171748527
 21
418.7456345049871
 31
0.0
  0
LINE
  5
3FB6
330
2
100
AcDbEntity
  8
0
100
AcDbLine
 10
1086.559171748527
 20
409.2456345049854
 30
0.0
 11
1086.559171748527
 21
419.2456345049866
 31
0.0
  0
LINE
  5
3FB7
330
2
100
AcDbEntity
  8
0
100
AcDbLine
 10
1115.935722133475
 20
436.2456345049879
 30
0.0
 11
1130.059171748527
 21
436.2456345049881
 31
0.0
  0
LINE
  5
3FB8
330
2
100
AcDbEntity
  8
0
 48
0.3
100
AcDbLine
 10
1110.059171748527
 20
418.7456345049875
 30
0.0
 11
1128.059171748527
 21
418.745634504988
 31
0.0
  0
LINE
  5
3FB9
330
2
100
AcDbEntity
  8
0
 48
0.3
100
AcDbLine
 10
1061.363019325819
 20
409.2456345049858
 30
0.0
 11
1066.559171748526
 21
418.2456345049864
 31
0.0
  0
LINE
  5
3FBA
330
2
100
AcDbEntity
  8
0
100
AcDbLine
 10
1128.059171748527
 20
418.7456345049837
 30
0.0
 11
1130.059171748527
 21
419.900335043363
 31
0.0
  0
LINE
  5
3FBC
330
2
100
AcDbEntity
  8
0
100
AcDbLine
 10
1131.059171748528
 20
409.2456345049858
 30
0.0
 11
1131.059171748529
 21
449.2456345049864
 31
0.0
  0
LINE
  5
3FBD
330
2
100
AcDbEntity
  8
0
100
AcDbLine
 10
1121.041690791045
 20
449.2456345049866
 30
0.0
 11
1138.059171748527
 21
449.2456345049862
 31
0.0
  0
LINE
  5
3FBE
330
2
100
AcDbEntity
  8
CENTER
100
AcDbLine
 10
1422.506430882181
 20
386.3710484168131
 30
0.0
 11
1422.506430882181
 21
462.7453056412219
 31
0.0
  0
LINE
  5
3FBF
330
2
100
AcDbEntity
  8
HIDS
  6
SEKKEI_H
100
AcDbLine
 10
1417.426558474206
 20
419.2456345050006
 30
0.0
 11
1430.256430882173
 21
419.2456345050003
 31
0.0
  0
LINE
  5
3FC0
330
2
100
AcDbEntity
  8
HIDS
  6
SEKKEI_H
100
AcDbLine
 10
1427.006430882173
 20
409.9956345049974
 30
0.0
 11
1427.006430882173
 21
419.2456345050003
 31
0.0
  0
LINE
  5
3FC1
330
2
100
AcDbEntity
  8
HIDS
  6
SEKKEI_H
100
AcDbLine
 10
1418.006430882174
 20
409.9956345049974
 30
0.0
 11
1418.006430882174
 21
419.2456345050006
 31
0.0
  0
LINE
  5
3FC2
330
2
100
AcDbEntity
  8
HIDS
  6
SEKKEI_H
100
AcDbLine
 10
1419.106430882173
 20
395.7756679126113
 30
0.0
 11
1419.106430882174
 21
408.4956345049977
 31
0.0
  0
LINE
  5
3FC3
330
2
100
AcDbEntity
  8
HIDS
  6
SEKKEI_H
100
AcDbLine
 10
1418.506430882174
 20
396.2456345050004
 30
0.0
 11
1418.506430882174
 21
408.4956345049978
 31
0.0
  0
LINE
  5
3FC4
330
2
100
AcDbEntity
  8
HIDS
  6
SEKKEI_H
100
AcDbLine
 10
1426.506430882174
 20
387.4970713340655
 30
0.0
 11
1426.506430882174
 21
408.4956345049978
 31
0.0
  0
LINE
  5
3FC5
330
2
100
AcDbEntity
  8
HIDS
  6
SEKKEI_H
100
AcDbLine
 10
1425.906430882173
 20
387.9515038582673
 30
0.0
 11
1425.906430882173
 21
408.4956345049978
 31
0.0
  0
LINE
  5
3FC6
330
2
100
AcDbEntity
  8
0
100
AcDbLine
 10
1415.516849559004
 20
408.4956345049977
 30
0.0
 11
1433.036082419729
 21
408.4956345049974
 31
0.0
  0
LINE
  5
3FC7
330
2
100
AcDbEntity
  8
0
100
AcDbLine
 10
1451.976779344602
 20
408.4956345049974
 30
0.0
 11
1468.515150928221
 21
408.4956345049977
 31
0.0
  0
LINE
  5
3FC8
330
2
100
AcDbEntity
  8
0
100
AcDbLine
 10
1415.516849559004
 20
409.9956345049974
 30
0.0
 11
1433.036082419731
 21
409.9956345049976
 31
0.0
  0
LINE
  5
3FC9
330
2
100
AcDbEntity
  8
0
100
AcDbLine
 10
1451.9767793446
 20
409.9956345049979
 30
0.0
 11
1468.515150928221
 21
409.9956345049976
 31
0.0
  0
LINE
  5
3FCA
330
2
100
AcDbEntity
  8
0
100
AcDbLine
 10
1468.515150928221
 20
409.9956345049976
 30
0.0
 11
1468.515150928221
 21
408.4956345049977
 31
0.0
  0
LINE
  5
3FCB
330
2
100
AcDbEntity
  8
HIDS
  6
SEKKEI_H
100
AcDbLine
 10
1429.006430882181
 20
428.7456345050006
 30
0.0
 11
1423.831581485194
 21
428.7456345050004
 31
0.0
  0
LINE
  5
3FCC
330
2
100
AcDbEntity
  8
HIDS
  6
SEKKEI_H
100
AcDbLine
 10
1428.140405478395
 20
429.2456345050005
 30
0.0
 11
1424.36807373496
 21
429.2456345050004
 31
0.0
  0
LINE
  5
3FCD
330
2
100
AcDbEntity
  8
HIDS
  6
SEKKEI_H
100
AcDbLine
 10
1429.756430882181
 20
421.2456345050005
 30
0.0
 11
1418.319657637279
 21
421.2456345050004
 31
0.0
  0
LINE
  5
3FCE
330
2
100
AcDbEntity
  8
HIDS
  6
SEKKEI_H
100
AcDbLine
 10
1425.306430882187
 20
396.2456345050004
 30
0.0
 11
1419.706430882173
 21
396.2456345050004
 31
0.0
  0
LINE
  5
3FCF
330
2
100
AcDbEntity
  8
HIDS
  6
SEKKEI_H
100
AcDbLine
 10
1426.506430882174
 20
397.4456345050004
 30
0.0
 11
1418.506430882174
 21
397.4456345050004
 31
0.0
  0
LINE
  5
3FD0
330
2
100
AcDbEntity
  8
0
 48
0.3
100
AcDbLine
 10
1415.256430882181
 20
421.2456345050004
 30
0.0
 11
1415.256430882181
 21
419.2456345050003
 31
0.0
  0
LINE
  5
3FD1
330
2
100
AcDbEntity
  8
0
 48
0.3
100
AcDbLine
 10
1416.006430882181
 20
428.7456345050004
 30
0.0
 11
1416.872456285965
 21
429.2456345050004
 31
0.0
  0
LINE
  5
3FD2
330
2
100
AcDbEntity
  8
0
 48
0.3
100
AcDbLine
 10
1416.006430882181
 20
428.7456345050004
 30
0.0
 11
1416.006430882181
 21
421.2456345050004
 31
0.0
  0
LINE
  5
3FD3
330
2
100
AcDbEntity
  8
HIDS
  6
SEKKEI_H
100
AcDbLine
 10
1429.756430882181
 20
421.2456345050005
 30
0.0
 11
1429.756430882181
 21
419.2456345050006
 31
0.0
  0
LINE
  5
3FD4
330
2
100
AcDbEntity
  8
HIDS
  6
SEKKEI_H
100
AcDbLine
 10
1429.00643088218
 20
428.7456345049999
 30
0.0
 11
1428.140405478396
 21
429.2456345049999
 31
0.0
  0
LINE
  5
3FD5
330
2
100
AcDbEntity
  8
HIDS
  6
SEKKEI_H
100
AcDbLine
 10
1429.006430882181
 20
428.7456345049997
 30
0.0
 11
1429.006430882181
 21
421.2456345050005
 31
0.0
  0
LINE
  5
3FD6
330
2
100
AcDbEntity
  8
HIDS
  6
SEKKEI_H
100
AcDbLine
 10
1430.206430882181
 20
419.2456345050006
 30
0.0
 11
1417.426558474206
 21
419.2456345050003
 31
0.0
  0
LINE
  5
3FD7
330
2
100
AcDbEntity
  8
HOJO
100
AcDbLine
 10
1419.106430882174
 20
408.4956345049977
 30
0.0
 11
1419.106430882174
 21
409.9956345049974
 31
0.0
  0
LINE
  5
3FD8
330
2
100
AcDbEntity
  8
0
100
AcDbLine
 10
1418.506430882174
 20
408.4956345049978
 30
0.0
 11
1418.506430882174
 21
409.9956345049974
 31
0.0
  0
LINE
  5
3FD9
330
2
100
AcDbEntity
  8
HOJO
100
AcDbLine
 10
1425.906430882173
 20
408.4956345049978
 30
0.0
 11
1425.906430882173
 21
409.9956345049974
 31
0.0
  0
LINE
  5
3FDA
330
2
100
AcDbEntity
  8
0
100
AcDbLine
 10
1426.506430882174
 20
408.4956345049978
 30
0.0
 11
1426.506430882174
 21
409.9956345049974
 31
0.0
  0
LINE
  5
3FDB
330
2
100
AcDbEntity
  8
HIDS
  6
SEKKEI_H
100
AcDbLine
 10
1426.506430882174
 20
409.9956345049974
 30
0.0
 11
1426.506430882174
 21
419.2456345050003
 31
0.0
  0
LINE
  5
3FDC
330
2
100
AcDbEntity
  8
HIDS
  6
SEKKEI_H
100
AcDbLine
 10
1425.906430882173
 20
409.9956345049974
 30
0.0
 11
1425.906430882173
 21
419.2456345050003
 31
0.0
  0
LINE
  5
3FDD
330
2
100
AcDbEntity
  8
HIDS
  6
SEKKEI_H
100
AcDbLine
 10
1419.106430882174
 20
409.9956345049974
 30
0.0
 11
1419.106430882174
 21
419.2456345050003
 31
0.0
  0
LINE
  5
3FDE
330
2
100
AcDbEntity
  8
HIDS
  6
SEKKEI_H
100
AcDbLine
 10
1418.506430882174
 20
409.9956345049974
 30
0.0
 11
1418.506430882174
 21
419.2456345050006
 31
0.0
  0
LINE
  5
3FDF
330
2
100
AcDbEntity
  8
0
100
AcDbLine
 10
1424.36807373496
 20
429.2456345050004
 30
0.0
 11
1416.872456285965
 21
429.2456345050004
 31
0.0
  0
LINE
  5
3FE0
330
2
100
AcDbEntity
  8
0
100
AcDbLine
 10
1423.831581485194
 20
428.7456345050004
 30
0.0
 11
1416.006430882181
 21
428.7456345050004
 31
0.0
  0
LINE
  5
3FE1
330
2
100
AcDbEntity
  8
0
100
AcDbLine
 10
1418.319657637279
 20
421.2456345050004
 30
0.0
 11
1415.256430882181
 21
421.2456345050004
 31
0.0
  0
LINE
  5
3FE2
330
2
100
AcDbEntity
  8
0
100
AcDbLine
 10
1417.426558474206
 20
419.2456345050003
 30
0.0
 11
1415.256430882181
 21
419.2456345050003
 31
0.0
  0
LINE
  5
3FE3
330
2
100
AcDbEntity
  8
HIDS
  6
SEKKEI_H
100
AcDbLine
 10
1418.506430882174
 20
397.4456345050004
 30
0.0
 11
1419.706430882173
 21
396.2456345050004
 31
0.0
  0
LINE
  5
3FE4
330
2
100
AcDbEntity
  8
HIDS
  6
SEKKEI_H
100
AcDbLine
 10
1426.506430882187
 20
397.4456345050004
 30
0.0
 11
1425.306430882187
 21
396.2456345050004
 31
0.0
  0
CIRCLE
  5
3FE5
330
2
100
AcDbEntity
  8
0
100
AcDbCircle
 10
1442.506430882165
 20
409.2456345049856
 30
0.0
 40
26.99999999999249
  0
CIRCLE
  5
3FE6
330
2
100
AcDbEntity
  8
0
100
AcDbCircle
 10
1442.506430882165
 20
409.2456345049856
 30
0.0
 40
9.499999999997783
  0
ARC
  5
3FE7
330
2
100
AcDbEntity
  8
0
100
AcDbCircle
 10
1442.506430882166
 20
409.2456345049862
 30
0.0
 40
10.6547005383764
100
AcDbArc
 50
4.036472082802331
 51
175.9635279172106
  0
ARC
  5
3FE8
330
2
100
AcDbEntity
  8
0
100
AcDbCircle
 10
1442.506430882166
 20
409.2456345049862
 30
0.0
 40
10.6547005383764
100
AcDbArc
 50
184.0364720826719
 51
355.963527917328
  0
LINE
  5
3FE9
330
2
100
AcDbEntity
  8
HIDS
  6
SEKKEI_H
100
AcDbLine
 10
1430.256430882173
 20
419.2456345050003
 30
0.0
 11
1430.256430882173
 21
433.3067545953007
 31
0.0
  0
LINE
  5
3FEA
330
2
100
AcDbEntity
  8
0
100
AcDbLine
 10
1067.059171748551
 20
739.6638161760774
 30
0.0
 11
1068.559171748552
 21
739.6638161760774
 31
0.0
  0
LINE
  5
3FEB
330
2
100
AcDbEntity
  8
0
100
AcDbLine
 10
1067.059171748551
 20
728.1638161760774
 30
0.0
 11
1068.559171748552
 21
728.1638161760774
 31
0.0
  0
LINE
  5
3FEC
330
2
100
AcDbEntity
  8
0
100
AcDbLine
 10
1074.159171748552
 20
738.9138161760775
 30
0.0
 11
1074.559171748551
 21
738.2209958530502
 31
0.0
  0
LINE
  5
3FED
330
2
100
AcDbEntity
  8
0
100
AcDbLine
 10
1068.559171748552
 20
739.6638161760774
 30
0.0
 11
1068.559171748552
 21
728.1638161760774
 31
0.0
  0
LINE
  5
3FEE
330
2
100
AcDbEntity
  8
0
100
AcDbLine
 10
1074.159171748552
 20
738.9138161760775
 30
0.0
 11
1074.159171748552
 21
728.9138161760774
 31
0.0
  0
LINE
  5
3FEF
330
2
100
AcDbEntity
  8
0
100
AcDbLine
 10
1068.559171748552
 20
738.9138161760775
 30
0.0
 11
1074.159171748552
 21
738.9138161760775
 31
0.0
  0
LINE
  5
3FF0
330
2
100
AcDbEntity
  8
0
100
AcDbLine
 10
1068.559171748552
 20
728.9138161760774
 30
0.0
 11
1074.159171748552
 21
728.9138161760774
 31
0.0
  0
LINE
  5
3FF1
330
2
100
AcDbEntity
  8
0
100
AcDbLine
 10
1074.159171748552
 20
728.9138161760774
 30
0.0
 11
1074.559171748551
 21
729.6066364991047
 31
0.0
  0
LINE
  5
3FF2
330
2
100
AcDbEntity
  8
0
100
AcDbLine
 10
1074.559171748551
 20
738.2209958530502
 30
0.0
 11
1074.559171748551
 21
729.6066364991047
 31
0.0
  0
LINE
  5
3FF3
330
2
100
AcDbEntity
  8
0
 48
12.0
100
AcDbLine
 10
1067.059171748551
 20
728.1638161760774
 30
0.0
 11
1067.059171748551
 21
739.6638161760774
 31
0.0
  0
LINE
  5
3FF4
330
2
100
AcDbEntity
  8
CENTER
  6
CENTERX2
100
AcDbLine
 10
1064.059171748551
 20
832.2016587610082
 30
0.0
 11
1077.559171748552
 21
832.2016587610077
 31
0.0
  0
LINE
  5
3FF5
330
2
100
AcDbEntity
  8
CENTER
  6
CENTERX2
100
AcDbLine
 10
1064.059171748551
 20
733.9138161760779
 30
0.0
 11
1077.559171748552
 21
733.9138161760774
 31
0.0
  0
LINE
  5
3FF6
330
2
100
AcDbEntity
  8
CENTER
  6
CENTERX2
100
AcDbLine
 10
1064.349031930565
 20
458.3895557974515
 30
0.0
 11
1077.849031930566
 21
458.3895557974511
 31
0.0
  0
LINE
  5
3FF7
330
2
100
AcDbEntity
  8
CENTER
  6
CENTERX2
100
AcDbLine
 10
1064.349031930565
 20
360.1017132125214
 30
0.0
 11
1077.849031930566
 21
360.1017132125209
 31
0.0
  0
LINE
  5
3FF8
330
2
100
AcDbEntity
  8
CENTER
  6
CENTERX2
100
AcDbLine
 10
267.486593501801
 20
458.3895557974518
 30
0.0
 11
253.9804842290752
 21
458.3895557974515
 31
0.0
  0
LINE
  5
3FF9
330
2
100
AcDbEntity
  8
CENTER
  6
CENTERX2
100
AcDbLine
 10
267.4865935018008
 20
360.1017132125217
 30
0.0
 11
253.980484229075
 21
360.1017132125214
 31
0.0
  0
LINE
  5
4149
330
2
100
AcDbEntity
  8
CENTER
100
AcDbLine
 10
1148.059171748533
 20
409.2456345049856
 30
0.0
 11
873.0591717485301
 21
409.2456345049862
 31
0.0
  0
LINE
  5
414A
330
2
100
AcDbEntity
  8
CENTER
100
AcDbLine
 10
948.0591717485301
 20
484.2456345049862
 30
0.0
 11
948.0591717485301
 21
334.2456345049863
 31
0.0
  0
SPLINE
  5
42F4
330
2
100
AcDbEntity
  8
HOJO
100
AcDbSpline
210
0.0
220
0.0
230
1.0
 70
     8
 71
     3
 72
    20
 73
    16
 74
    14
 42
0.0000000001
 43
0.0000000001
 44
0.0000000001
 40
0.0
 40
0.0
 40
0.0
 40
0.0
 40
11.88038577625062
 40
18.73707816921411
 40
24.41734724586808
 40
34.87250229729273
 40
43.27755328616397
 40
51.78703166082107
 40
60.73164126663911
 40
63.7894130197853
 40
68.17793084021511
 40
75.01035139395199
 40
81.44467981465169
 40
88.61298527674774
 40
97.78032246308722
 40
97.78032246308722
 40
97.78032246308722
 40
97.78032246308722
 10
1055.031367172919
 20
409.2456345049859
 30
0.0
 10
1056.381283331083
 20
412.9798046839579
 30
0.0
 10
1058.510295389596
 20
418.8691284700938
 30
0.0
 10
1063.469341775699
 20
425.5662609345089
 30
0.0
 10
1070.68104477615
 20
429.0713043821329
 30
0.0
 10
1079.046949574285
 20
427.4009112513094
 30
0.0
 10
1088.12757936858
 20
428.4284870821235
 30
0.0
 10
1096.560506984746
 20
430.2864574766346
 30
0.0
 10
1103.594492484321
 20
429.5335151747651
 30
0.0
 10
1108.740333625675
 20
431.3113462990236
 30
0.0
 10
1114.21837106191
 20
430.1109174284525
 30
0.0
 10
1115.959662964305
 20
437.4441372553163
 30
0.0
 10
1119.441735547654
 20
442.7708999893818
 30
0.0
 10
1120.452344418683
 20
451.2085941886929
 30
0.0
 10
1126.092556787142
 20
453.1539356992642
 30
0.0
 10
1129.257766120928
 20
454.2456345049856
 30
0.0
 11
1055.031367172919
 21
409.2456345049859
 31
0.0
 11
1059.755076553617
 21
420.1465581300389
 31
0.0
 11
1064.122890482505
 21
425.4320507328466
 31
0.0
 11
1069.237830827597
 21
427.9024438289647
 31
0.0
 11
1079.692945731858
 21
427.8734699090182
 31
0.0
 11
1088.069265012337
 21
428.5678454824656
 31
0.0
 11
1096.488356623057
 21
429.8048251342989
 31
0.0
 11
1105.420061893522
 21
430.2851187549554
 31
0.0
 11
1108.410078816953
 21
430.9252491259995
 31
0.0
 11
1112.791565336879
 21
431.1735725762418
 31
0.0
 11
1116.251463169977
 21
437.0651833583329
 31
0.0
 11
1118.933136626256
 21
442.9140473248915
 31
0.0
 11
1121.3100757903
 21
449.6767955390684
 31
0.0
 11
1129.257766120928
 21
454.2456345049856
 31
0.0
  0
ENDSEC
  0
SECTION
  2
OBJECTS
  0
DICTIONARY
  5
7
330
0
100
AcDbDictionary
  3
ACAD_COLOR
350
832
  3
ACAD_GROUP
350
75
  3
ACAD_LAYOUT
350
61
  3
ACAD_MATERIAL
350
808
  3
ACAD_MLEADERSTYLE
350
857
  3
ACAD_MLINESTYLE
350
76
  3
ACAD_PLOTSETTINGS
350
77
  3
ACAD_PLOTSTYLENAME
350
6
  3
ACAD_SCALELIST
350
835
  3
ACAD_TABLESTYLE
350
833
  3
ACAD_VISUALSTYLE
350
821
  3
ACADDIM
350
480
  3
ACDB_RECOMPOSE_DATA
350
88E
  3
ACDBHEADERROUNDTRIPXREC
350
4352
  3
ACDBVARIABLEDICTIONARY
350
102
  3
DWGPROPS
350
4328
  0
DICTIONARY
  5
1E6F
330
6E
100
AcDbDictionary
280
     1
  3
ACAD_XREC_ROUNDTRIP
360
432C
  0
DICTIONARY
  5
86B
330
66
100
AcDbDictionary
280
     1
  3
ACAD_LAYERSTATES
360
86C
  0
DICTIONARY
  5
158C
330
5E
100
AcDbDictionary
280
     1
  3
ADSK_XREC_LAYER_RECONCILED
360
158D
  0
DICTIONARY
  5
158E
330
3E
100
AcDbDictionary
280
     1
  3
ADSK_XREC_LAYER_RECONCILED
360
158F
  0
DICTIONARY
  5
1594
330
2B5
100
AcDbDictionary
280
     1
  3
ADSK_XREC_LAYER_RECONCILED
360
1595
  0
DICTIONARY
  5
1596
330
2BA
100
AcDbDictionary
280
     1
  3
ADSK_XREC_LAYER_RECONCILED
360
1597
  0
DICTIONARY
  5
159A
330
3FA
100
AcDbDictionary
280
     1
  3
ADSK_XREC_LAYER_RECONCILED
360
159B
  0
DICTIONARY
  5
2D5C
330
2
100
AcDbDictionary
280
     1
  3
ACAD_LAYOUTSELFREF
360
4373
  3
ACAD_SORTENTS
360
2D5D
  0
DICTIONARY
  5
4374
330
434C
100
AcDbDictionary
280
     1
  3
ACAD_LAYOUTSELFREF
360
4375
  0
DICTIONARY
  5
832
102
{ACAD_REACTORS
330
7
102
}
330
7
100
AcDbDictionary
  0
DICTIONARY
  5
75
102
{ACAD_REACTORS
330
7
102
}
330
7
100
AcDbDictionary
  0
DICTIONARY
  5
61
102
{ACAD_REACTORS
330
7
102
}
330
7
100
AcDbDictionary
  0
DICTIONARY
  5
808
102
{ACAD_REACTORS
330
7
102
}
330
7
100
AcDbDictionary
  3
BYBLOCK
350
811
  3
BYLAYER
350
809
  3
GLOBAL
350
819
  0
DICTIONARY
  5
857
102
{ACAD_REACTORS
330
7
102
}
330
7
100
AcDbDictionary
  3
STANDARD
350
858
  0
DICTIONARY
  5
76
102
{ACAD_REACTORS
330
7
102
}
330
7
100
AcDbDictionary
  3
STANDARD
350
78
  0
DICTIONARY
  5
77
102
{ACAD_REACTORS
330
7
102
}
330
7
100
AcDbDictionary
  0
ACDBDICTIONARYWDFLT
  5
6
102
{ACAD_REACTORS
330
7
102
}
330
7
100
AcDbDictionary
281
     1
  3
Normal
350
5
100
AcDbDictionaryWithDefault
340
5
  0
DICTIONARY
  5
835
102
{ACAD_REACTORS
330
7
102
}
330
7
100
AcDbDictionary
  3
A0
350
836
  3
A1
350
837
  3
A2
350
838
  3
A3
350
839
  3
A4
350
83A
  3
A5
350
83B
  3
A6
350
83C
  3
A7
350
83D
  3
A8
350
83E
  3
A9
350
83F
  3
B0
350
840
  3
B1
350
841
  3
B2
350
842
  3
B3
350
843
  3
B4
350
844
  3
B5
350
845
  3
B6
350
846
  3
B7
350
847
  3
B8
350
848
  3
B9
350
849
  3
C0
350
84A
  3
C1
350
84B
  3
C2
350
84C
  3
C3
350
84D
  3
C4
350
84E
  3
C5
350
84F
  3
C6
350
850
  3
C7
350
851
  3
C8
350
852
  3
C9
350
853
  3
D0
350
854
  3
D1
350
855
  3
D2
350
856
  0
DICTIONARY
  5
833
102
{ACAD_REACTORS
330
7
102
}
330
7
100
AcDbDictionary
  3
STANDARD
350
834
  0
DICTIONARY
  5
821
102
{ACAD_REACTORS
330
7
102
}
330
7
100
AcDbDictionary
  3
2DWIREFRAME
350
827
  3
3D_HIDDEN
350
829
  3
3DWIREFRAME
350
828
  3
BASIC
350
826
  3
BRIGHTEN
350
82D
  3
COLORCHANGE
350
831
  3
CONCEPTUAL
350
82A
  3
DIM
350
82C
  3
FACEPATTERN
350
830
  3
FLAT
350
822
  3
FLATWITHEDGES
350
823
  3
GOURAUD
350
824
  3
GOURAUDWITHEDGES
350
825
  3
LINEPATTERN
350
82F
  3
REALISTIC
350
82B
  3
THICKEN
350
82E
  0
XRECORD
  5
480
102
{ACAD_REACTORS
330
7
102
}
330
7
100
AcDbXrecord
 90
   990106
  3

 60
     0
 61
     0
 62
     1
 63
     3
 64
     1
 65
     0
 66
     0
 67
     3
 68
     1
 69
     0
 70
     0
 71
     0
 72
     0
 40
0.0
170
     2
340
0
  0
XRECORD
  5
88E
102
{ACAD_REACTORS
330
7
102
}
330
7
100
AcDbXrecord
 90
        1
330
834
  0
DICTIONARY
  5
4352
102
{ACAD_REACTORS
330
7
102
}
330
7
100
AcDbDictionary
  3
CEPSNTYPE
350
435C
  3
DIMSTYLEDATA
350
4360
  3
FINGERPRINTGUID
350
435D
  3
HYPERLINKBASE
350
4355
  3
INSUNITS
350
435B
  3
LAYOUTDICT
350
4357
  3
LWETCUNION
350
435A
  3
PLOTSETDICT
350
4358
  3
PLOTSTYLNAMDICT
350
4359
  3
PSVPSCALE
350
435F
  3
PUCSBASE
350
4363
  3
PUCSORGBACK
350
4369
  3
PUCSORGBOTTOM
350
4365
  3
PUCSORGFRONT
350
4368
  3
PUCSORGLEFT
350
4366
  3
PUCSORGRIGHT
350
4367
  3
PUCSORGTOP
350
4364
  3
PUCSORTHOREF
350
4361
  3
PUCSORTHOVIEW
350
4362
  3
STYLESHEET
350
4356
  3
TSTACKALIGN
350
4353
  3
TSTACKSIZE
350
4354
  3
UCSBASE
350
436C
  3
UCSORGBACK
350
4372
  3
UCSORGBOTTOM
350
436E
  3
UCSORGFRONT
350
4371
  3
UCSORGLEFT
350
436F
  3
UCSORGRIGHT
350
4370
  3
UCSORGTOP
350
436D
  3
UCSORTHOREF
350
436A
  3
UCSORTHOVIEW
350
436B
  3
VERSIONGUID
350
435E
  0
DICTIONARY
  5
102
102
{ACAD_REACTORS
330
7
102
}
330
7
100
AcDbDictionary
  3
CANNOSCALE
350
892
  3
CMLEADERSTYLE
350
890
  3
CTABLESTYLE
350
88F
  3
DIMASSOC
350
103
  3
INDEXCTL
350
1E7C
  3
LIGHTINGUNITS
350
893
  3
MSLTSCALE
350
891
  3
SORTENTS
350
549
  0
XRECORD
  5
4328
102
{ACAD_REACTORS
330
7
102
}
330
7
100
AcDbXrecord
  1
DWGPROPS COOKIE
  2

  3

  4

  6

  7

  8
knsuzuki
  9

300
=
301
=
302
=
303
=
304
=
305
=
306
=
307
=
308
=
309
=
 40
0.1745107986111111
 41
2454889.364024514
 42
2454904.432318611
  1

 90
        0
  0
XRECORD
  5
432C
102
{ACAD_REACTORS
330
1E6F
102
}
330
1E6F
100
AcDbXrecord
102
VTR_0.000_0.000_1.000_1.000_VISUALSTYLE
340
827
102
VTR_0.000_0.000_1.000_1.000_GRIDDISPLAY
 70
     3
102
VTR_0.000_0.000_1.000_1.000_GRIDMAJOR
 70
     5
102
VTR_0.000_0.000_1.000_1.000_DEFAULTLIGHTING
280
     1
102
VTR_0.000_0.000_1.000_1.000_DEFAULTLIGHTINGTYPE
 70
     1
102
VTR_0.000_0.000_1.000_1.000_BRIGHTNESS
141
0.0
102
VTR_0.000_0.000_1.000_1.000_CONTRAST
142
0.0
  0
DICTIONARY
  5
86C
102
{ACAD_REACTORS
330
86B
102
}
330
86B
100
AcDbDictionary
  0
XRECORD
  5
158D
102
{ACAD_REACTORS
330
158C
102
}
330
158C
100
AcDbXrecord
290
     1
  0
XRECORD
  5
158F
102
{ACAD_REACTORS
330
158E
102
}
330
158E
100
AcDbXrecord
290
     1
  0
XRECORD
  5
1595
102
{ACAD_REACTORS
330
1594
102
}
330
1594
100
AcDbXrecord
290
     1
  0
XRECORD
  5
1597
102
{ACAD_REACTORS
330
1596
102
}
330
1596
100
AcDbXrecord
290
     1
  0
XRECORD
  5
159B
102
{ACAD_REACTORS
330
159A
102
}
330
159A
100
AcDbXrecord
290
     1
  0
XRECORD
  5
4373
102
{ACAD_REACTORS
330
2D5C
102
}
330
2D5C
100
AcDbXrecord
340
2
  0
SORTENTSTABLE
  5
2D5D
102
{ACAD_REACTORS
330
2D5C
102
}
330
2D5C
100
AcDbSortentsTable
330
2
331
F43
  5
F43
331
F82
  5
F82
331
F8A
  5
F8A
331
F4B
  5
F4B
331
F92
  5
F92
331
F53
  5
F53
331
2F50
  5
2F50
331
2F11
  5
2F11
331
F5B
  5
F5B
331
2F58
  5
2F58
331
2EE2
  5
2EE2
331
2F19
  5
2F19
331
2F60
  5
2F60
331
2EEA
  5
2EEA
331
2F21
  5
2F21
331
2F29
  5
2F29
331
2D4B
  5
2D4C
331
1775
  5
17D1
331
3AE2
  5
3AEB
331
388B
  5
388B
331
389B
  5
389D
331
115A
  5
115B
331
10DC
  5
10DD
331
FFE
  5
FFE
331
FBF
  5
FBF
331
1075
  5
1075
331
111B
  5
1120
331
1123
  5
1124
331
107D
  5
107D
331
FC7
  5
FC7
331
10E4
  5
10E5
331
1162
  5
1163
331
1252
  5
1253
331
10EC
  5
10ED
331
104E
  5
104E
331
1085
  5
1085
331
FCF
  5
FCF
331
112B
  5
112C
331
108D
  5
108D
331
FD7
  5
FD7
331
1133
  5
1134
331
F63
  5
F63
331
F6B
  5
F6B
331
F73
  5
F73
331
2F31
  5
2F31
331
2D53
  5
2D55
331
2EF2
  5
2EF2
331
F7B
  5
F7B
331
2F39
  5
2F39
331
2EFA
  5
2EFA
331
3106
  5
3106
331
2F02
  5
2F02
331
2F41
  5
2F41
331
2F49
  5
2F49
331
2F0A
  5
2F0A
331
2D73
  5
2D73
331
312E
  5
312E
331
3534
  5
3534
331
18FD
  5
18FE
331
38B3
  5
38B4
331
38BB
  5
38BC
331
F98
  5
F98
331
125A
  5
125B
331
10F4
  5
10F5
331
FDF
  5
FDF
331
FA0
  5
FA0
331
1056
  5
1056
331
1095
  5
1095
331
113B
  5
113C
331
1262
  5
1263
331
10FC
  5
10FD
331
FE7
  5
FE7
331
FA8
  5
FA8
331
105E
  5
105E
331
1143
  5
114C
331
1104
  5
1105
331
FB0
  5
FB0
331
FEF
  5
FEF
331
1066
  5
1066
331
10CD
  5
10CE
331
1153
  5
1157
331
FF7
  5
FF7
331
106E
  5
106E
331
10D5
  5
10D6
331
F83
  5
F83
331
F44
  5
F44
331
F4C
  5
F4C
331
F8B
  5
F8B
331
F93
  5
F93
331
2F51
  5
2F51
331
2F12
  5
2F12
331
F5C
  5
F5C
331
2F59
  5
2F59
331
2EE3
  5
2EE3
331
2F1A
  5
2F1A
331
2F61
  5
2F61
331
2EEB
  5
2EEB
331
2F22
  5
2F22
331
2F2A
  5
2F2A
331
2D4C
  5
2D4D
331
388C
  5
388C
331
FB8
  5
FB8
331
FFF
  5
FFF
331
FC0
  5
FC0
331
1076
  5
1076
331
10DD
  5
10DE
331
115B
  5
115C
331
1163
  5
1164
331
107E
  5
107E
331
1047
  5
1047
331
FC8
  5
FC8
331
10E5
  5
10E6
331
1124
  5
1125
331
1253
  5
1254
331
10ED
  5
10F4
331
112C
  5
112D
331
104F
  5
104F
331
FD0
  5
FD0
331
1086
  5
1086
331
1134
  5
1135
331
108E
  5
108E
331
F64
  5
F64
331
F6C
  5
F6C
331
F74
  5
F74
331
A65
  5
A65
331
2F32
  5
2F32
331
2D54
  5
2D56
331
2EF3
  5
2EF3
331
B2D
  5
B2D
331
F7C
  5
F7C
331
2F3A
  5
2F3A
331
2EFB
  5
2EFB
331
3107
  5
3107
331
2F42
  5
2F42
331
2F03
  5
2F03
331
2F4A
  5
2F4A
331
2F0B
  5
2F0B
331
242D
  5
2687
331
2D74
  5
2D74
331
1660
  5
1676
331
18FE
  5
18FF
331
38B4
  5
38B5
331
38BC
  5
38BD
331
FD8
  5
FD8
331
3A3C
  5
3A3D
331
F99
  5
F99
331
1096
  5
1096
331
FE0
  5
FE0
331
FA1
  5
FA1
331
1057
  5
1057
331
10F5
  5
10F6
331
113C
  5
113D
331
125B
  5
125C
331
1263
  5
1264
331
FE8
  5
FE8
331
FA9
  5
FA9
331
105F
  5
105F
331
10FD
  5
10FE
331
1105
  5
1106
331
FF0
  5
FF0
331
FB1
  5
FB1
331
1067
  5
1067
331
10CE
  5
10CF
331
114C
  5
114D
331
10D6
  5
10D7
331
106F
  5
106F
331
F84
  5
F84
331
F45
  5
F45
331
F8C
  5
F8C
331
F4D
  5
F4D
331
F94
  5
F94
331
F55
  5
F55
331
2F52
  5
2F52
331
2F13
  5
2F13
331
F5D
  5
F5D
331
2F5A
  5
2F5A
331
2EE4
  5
2EE4
331
2F1B
  5
2F1B
331
2F62
  5
2F62
331
2EEC
  5
2EEC
331
2F23
  5
2F23
331
2A85
  5
2A86
331
2F2B
  5
2F2B
331
2D4D
  5
2D4F
331
388D
  5
388D
331
3AEC
  5
3AED
331
3895
  5
3897
331
389D
  5
38A7
331
FF8
  5
FF8
331
FB9
  5
FB9
331
115C
  5
115D
331
1077
  5
1077
331
FC1
  5
FC1
331
10DE
  5
10DF
331
1125
  5
1126
331
1048
  5
1048
331
107F
  5
107F
331
FC9
  5
FC9
331
10E6
  5
10E7
331
1164
  5
1165
331
1254
  5
1255
331
FD1
  5
FD1
331
1087
  5
1087
331
112D
  5
112E
331
108F
  5
108F
331
1135
  5
1136
331
F65
  5
F65
331
F6D
  5
F6D
331
F75
  5
F75
331
2F33
  5
2F33
331
2D55
  5
2D57
331
2EF4
  5
2EF4
331
F7D
  5
F7D
331
2F3B
  5
2F3B
331
2EFC
  5
2EFC
331
2F43
  5
2F43
331
2F04
  5
2F04
331
2D6D
  5
2D6D
331
2F4B
  5
2F4B
331
2F0C
  5
2F0C
331
18FF
  5
1E89
331
38B5
  5
38B6
331
38BD
  5
38BE
331
FD9
  5
FD9
331
F9A
  5
F9A
331
1050
  5
1050
331
125C
  5
125D
331
10F6
  5
10F7
331
1058
  5
1058
331
FE1
  5
FE1
331
FA2
  5
FA2
331
1097
  5
1097
331
113D
  5
113E
331
1264
  5
15BF
331
10FE
  5
10FF
331
FE9
  5
FE9
331
FAA
  5
FAA
331
1060
  5
1060
331
1106
  5
1107
331
FF1
  5
FF1
331
FB2
  5
FB2
331
1068
  5
1068
331
10CF
  5
10D0
331
114D
  5
114E
331
1116
  5
1117
331
10D7
  5
10D8
331
F85
  5
F85
331
F46
  5
F46
331
F4E
  5
F4E
331
F8D
  5
F8D
331
F95
  5
F95
331
F56
  5
F56
331
3148
  5
3148
331
2F53
  5
2F53
331
2EDD
  5
2EDD
331
2F14
  5
2F14
331
F5E
  5
F5E
331
2F5B
  5
2F5B
331
2EE5
  5
2EE5
331
2F1C
  5
2F1C
331
2EED
  5
2EED
331
2F24
  5
2F24
331
2F2C
  5
2F2C
331
2D4E
  5
2D50
331
388E
  5
388E
331
1612
  5
1634
331
FF9
  5
FF9
331
FBA
  5
FBA
331
1070
  5
1070
331
1078
  5
1078
331
FC2
  5
FC2
331
10DF
  5
10E0
331
115D
  5
115E
331
1165
  5
1166
331
10E7
  5
10E8
331
1049
  5
1049
331
FCA
  5
FCA
331
1080
  5
1080
331
1126
  5
1127
331
1255
  5
1256
331
FD2
  5
FD2
331
1088
  5
1088
331
112E
  5
112F
331
1136
  5
1137
331
F66
  5
F66
331
F6E
  5
F6E
331
F76
  5
F76
331
2F34
  5
2F34
331
2EF5
  5
2EF5
331
2D56
  5
2D58
331
F7E
  5
F7E
331
2F3C
  5
2F3C
331
2EFD
  5
2EFD
331
2F44
  5
2F44
331
2F05
  5
2F05
331
2D6E
  5
2D6E
331
1850
  5
1883
331
164A
  5
1660
331
2F4C
  5
2F4C
331
2F0D
  5
2F0D
331
38B6
  5
38B7
331
387F
  5
387F
331
38BE
  5
3A3B
331
1090
  5
1090
331
F9B
  5
F9B
331
FDA
  5
FDA
331
1051
  5
1051
331
125D
  5
125E
331
1098
  5
1098
331
FE2
  5
FE2
331
FA3
  5
FA3
331
1059
  5
1059
331
10F7
  5
10F8
331
113E
  5
113F
331
10FF
  5
1100
331
FEA
  5
FEA
331
FAB
  5
FAB
331
1061
  5
1061
331
10C8
  5
10C8
331
1069
  5
1069
331
FB3
  5
FB3
331
FF2
  5
FF2
331
10D0
  5
10D1
331
1107
  5
1116
331
114E
  5
114F
331
1117
  5
111A
331
F86
  5
F86
331
F47
  5
F47
331
F8E
  5
F8E
331
F4F
  5
F4F
331
F57
  5
F57
331
F96
  5
F96
331
2F54
  5
2F54
331
2EDE
  5
2EDE
331
F5F
  5
F5F
331
2687
  5
280A
331
2F15
  5
2F15
331
2F5C
  5
2F5C
331
2EE6
  5
2EE6
331
2F1D
  5
2F1D
331
2EEE
  5
2EEE
331
2F25
  5
2F25
331
2F2D
  5
2F2D
331
2D4F
  5
2D51
331
16A2
  5
16B8
331
17D1
  5
1809
331
388F
  5
388F
331
1809
  5
1850
331
3897
  5
3899
331
10D8
  5
10D9
331
38A7
  5
38A8
331
FBB
  5
FBB
331
FFA
  5
FFA
331
1071
  5
1071
331
1079
  5
1079
331
FC3
  5
FC3
331
10E0
  5
10E1
331
115E
  5
115F
331
10E8
  5
10E9
331
1127
  5
1128
331
104A
  5
104A
331
1081
  5
1081
331
FCB
  5
FCB
331
1166
  5
1252
331
1256
  5
1257
331
1089
  5
1089
331
FD3
  5
FD3
331
112F
  5
1130
331
1137
  5
1138
331
F67
  5
F67
331
F6F
  5
F6F
331
F77
  5
F77
331
2130
  5
242D
331
2F35
  5
2F35
331
2EF6
  5
2EF6
331
F7F
  5
F7F
331
2D57
  5
2D59
331
2EFE
  5
2EFE
331
2F3D
  5
2F3D
331
3102
  5
3102
331
16D2
  5
16FD
331
2F06
  5
2F06
331
2D6F
  5
2D6F
331
2F45
  5
2F45
331
2F0E
  5
2F0E
331
2F4D
  5
2F4D
331
38B7
  5
38B8
331
3880
  5
3880
331
FDB
  5
FDB
331
F9C
  5
F9C
331
1052
  5
1052
331
1091
  5
1091
331
125E
  5
125F
331
10F8
  5
10F9
331
105A
  5
105A
331
FA4
  5
FA4
331
FE3
  5
FE3
331
1099
  5
1099
331
113F
  5
1140
331
10C9
  5
10C9
331
FAC
  5
FAC
331
FEB
  5
FEB
331
1062
  5
1062
331
1100
  5
1101
331
FF3
  5
FF3
331
FB4
  5
FB4
331
106A
  5
106A
331
10D1
  5
10D2
331
114F
  5
1150
331
1157
  5
1158
331
F87
  5
F87
331
F48
  5
F48
331
F50
  5
F50
331
F8F
  5
F8F
331
F58
  5
F58
331
F97
  5
F97
331
2F55
  5
2F55
331
2EDF
  5
2EDF
331
29B8
  5
29B9
331
2F16
  5
2F16
331
2F5D
  5
2F5D
331
2F1E
  5
2F1E
331
2EEF
  5
2EEF
331
2F26
  5
2F26
331
2F2E
  5
2F2E
331
3890
  5
3890
331
1E89
  5
1E8A
331
FFB
  5
FFB
331
FBC
  5
FBC
331
1072
  5
1072
331
10D9
  5
10DA
331
1120
  5
1121
331
107A
  5
107A
331
FC4
  5
FC4
331
10E1
  5
10E2
331
115F
  5
1160
331
10E9
  5
10EA
331
1128
  5
1129
331
104B
  5
104B
331
FCC
  5
FCC
331
1082
  5
1082
331
1257
  5
1258
331
FD4
  5
FD4
331
108A
  5
108A
331
1130
  5
1131
331
F60
  5
F60
331
F68
  5
F68
331
F70
  5
F70
331
2D50
  5
2D52
331
F78
  5
F78
331
2D58
  5
2D5A
331
2EF7
  5
2EF7
331
2F36
  5
2F36
331
2EFF
  5
2EFF
331
2F3E
  5
2F3E
331
1634
  5
164A
331
2D70
  5
2D70
331
2F07
  5
2F07
331
2F46
  5
2F46
331
38A8
  5
38A9
331
2F0F
  5
2F0F
331
2F4E
  5
2F4E
331
3721
  5
3721
331
38B8
  5
38B9
331
1743
  5
1744
331
3881
  5
3881
331
1138
  5
1139
331
1092
  5
1092
331
FDC
  5
FDC
331
F9D
  5
F9D
331
1053
  5
1053
331
125F
  5
1260
331
FE4
  5
FE4
331
FA5
  5
FA5
331
105B
  5
105B
331
10F9
  5
10FA
331
1140
  5
1141
331
1101
  5
1102
331
FEC
  5
FEC
331
FAD
  5
FAD
331
1063
  5
1063
331
10CA
  5
10CA
331
106B
  5
106B
331
FB5
  5
FB5
331
FF4
  5
FF4
331
10D2
  5
10D3
331
1150
  5
1151
331
F80
  5
F80
331
F88
  5
F88
331
F49
  5
F49
331
F90
  5
F90
331
F51
  5
F51
331
F59
  5
F59
331
2F56
  5
2F56
331
2EE0
  5
2EE0
331
2F17
  5
2F17
331
2F5E
  5
2F5E
331
2EE8
  5
2EE8
331
2F1F
  5
2F1F
331
2D49
  5
2D4A
331
2F27
  5
2F27
331
168C
  5
16A2
331
2F2F
  5
2F2F
331
15ED
  5
1612
331
3889
  5
3889
331
1E8A
  5
2130
331
3891
  5
3891
331
3899
  5
389B
331
10DA
  5
10DB
331
FBD
  5
FBD
331
FFC
  5
FFC
331
1073
  5
1073
331
1158
  5
1159
331
1121
  5
1122
331
107B
  5
107B
331
FC5
  5
FC5
331
10E2
  5
10E3
331
1160
  5
1161
331
10EA
  5
10EB
331
1129
  5
112A
331
104C
  5
104C
331
1083
  5
1083
331
FCD
  5
FCD
331
108B
  5
108B
331
FD5
  5
FD5
331
1131
  5
1132
331
F61
  5
F61
331
F69
  5
F69
331
F71
  5
F71
331
2EF0
  5
2EF0
331
2D51
  5
2D53
331
F79
  5
F79
331
2EF8
  5
2EF8
331
2D59
  5
2D5B
331
2F37
  5
2F37
331
2F00
  5
2F00
331
2F3F
  5
2F3F
331
2F08
  5
2F08
331
2D71
  5
2D71
331
2F47
  5
2F47
331
2F4F
  5
2F4F
331
1883
  5
18FD
331
38A9
  5
38B2
331
1744
  5
174B
331
38B9
  5
38BA
331
1258
  5
1259
331
1139
  5
113A
331
FDD
  5
FDD
331
F9E
  5
F9E
331
1054
  5
1054
331
1093
  5
1093
331
1260
  5
1261
331
10FA
  5
10FB
331
105C
  5
105C
331
FE5
  5
FE5
331
FA6
  5
FA6
331
1141
  5
1142
331
10CB
  5
10CC
331
FED
  5
FED
331
FAE
  5
FAE
331
1064
  5
1064
331
1102
  5
1103
331
FF5
  5
FF5
331
FB6
  5
FB6
331
106C
  5
106C
331
10D3
  5
10D4
331
1151
  5
1152
331
F81
  5
F81
331
F42
  5
F42
331
F4A
  5
F4A
331
F89
  5
F89
331
F91
  5
F91
331
F52
  5
F52
331
2F10
  5
2F10
331
F5A
  5
F5A
331
2F57
  5
2F57
331
2EE1
  5
2EE1
331
2F18
  5
2F18
331
2F5F
  5
2F5F
331
2EE9
  5
2EE9
331
2F20
  5
2F20
331
2D4A
  5
2D4B
331
2F28
  5
2F28
331
388A
  5
388A
331
3892
  5
3892
331
3BB1
  5
3895
331
111A
  5
111B
331
FFD
  5
FFD
331
FBE
  5
FBE
331
1074
  5
1074
331
10DB
  5
10DC
331
1159
  5
115A
331
1161
  5
1162
331
107C
  5
107C
331
FC6
  5
FC6
331
10E3
  5
10E4
331
1122
  5
1123
331
10EB
  5
10EC
331
112A
  5
112B
331
104D
  5
104D
331
FCE
  5
FCE
331
1084
  5
1084
331
108C
  5
108C
331
FD6
  5
FD6
331
1132
  5
1133
331
F62
  5
F62
331
F6A
  5
F6A
331
F72
  5
F72
331
2EF1
  5
2EF1
331
2D52
  5
2D54
331
2F30
  5
2F30
331
F7A
  5
F7A
331
2EF9
  5
2EF9
331
2D5A
  5
2D5E
331
2F38
  5
2F38
331
2F01
  5
2F01
331
2F40
  5
2F40
331
2F09
  5
2F09
331
2D72
  5
2D72
331
2F48
  5
2F48
331
16FD
  5
1711
331
15BF
  5
15ED
331
38B2
  5
38B3
331
1676
  5
168C
331
38BA
  5
38BB
331
3883
  5
3883
331
113A
  5
113B
331
1094
  5
1094
331
FDE
  5
FDE
331
F9F
  5
F9F
331
1055
  5
1055
331
1259
  5
125A
331
1261
  5
1262
331
FE6
  5
FE6
331
FA7
  5
FA7
331
105D
  5
105D
331
10FB
  5
10FC
331
1142
  5
1143
331
1103
  5
1104
331
FEE
  5
FEE
331
FAF
  5
FAF
331
1065
  5
1065
331
10CC
  5
10CD
331
106D
  5
106D
331
FF6
  5
FF6
331
FB7
  5
FB7
331
10D4
  5
10D5
331
1152
  5
1153
  0
XRECORD
  5
4375
102
{ACAD_REACTORS
330
4374
102
}
330
4374
100
AcDbXrecord
340
434C
  0
ACAD_PROXY_OBJECT
  5
811
102
{ACAD_XDICTIONARY
360
812
102
}
102
{ACAD_REACTORS
330
808
102
}
330
808
100
AcDbProxyObject
 90
      499
 91
      512
 93
     1340
310
42109E509B1BD8DAC02004014080404555555555555953FAA155555555555654FEA9AA400014080404555555555555953FAA155555555555654FEA9AA400000000000000E03F4080404555555555555953FAA155555555555654FEA9AA4014080404555555555555953FAA155555555555654FEA9AA4010201011555555555
310
55654FEA8555555555555953FAA6A9005020101155555555555654FEA8555555555555953FAA6A9000
 94
        0
1001
ACAD
1000
AcadProxyRoundTripData
1071
      504
1071
   851991
1070
     0
  0
ACAD_PROXY_OBJECT
  5
809
102
{ACAD_XDICTIONARY
360
80A
102
}
102
{ACAD_REACTORS
330
808
102
}
330
808
100
AcDbProxyObject
 90
      499
 91
      512
 93
     1340
310
42109E53185E595C802004014080404555555555555953FAA155555555555654FEA9AA400014080404555555555555953FAA155555555555654FEA9AA400000000000000E03F4080404555555555555953FAA155555555555654FEA9AA4014080404555555555555953FAA155555555555654FEA9AA4010201011555555555
310
55654FEA8555555555555953FAA6A9005020101155555555555654FEA8555555555555953FAA6A9000
 94
        0
1001
ACAD
1000
AcadProxyRoundTripData
1071
      504
1071
   851991
1070
     0
  0
ACAD_PROXY_OBJECT
  5
819
102
{ACAD_XDICTIONARY
360
81A
102
}
102
{ACAD_REACTORS
330
808
102
}
330
808
100
AcDbProxyObject
 90
      499
 91
      512
 93
     1332
310
41D1DB1BD8985B002004014080404555555555555953FAA155555555555654FEA9AA400014080404555555555555953FAA155555555555654FEA9AA400000000000000E03F4080404555555555555953FAA155555555555654FEA9AA4014080404555555555555953FAA155555555555654FEA9AA401020101155555555555
310
654FEA8555555555555953FAA6A9005020101155555555555654FEA8555555555555953FAA6A9000
 94
        0
1001
ACAD
1000
AcadProxyRoundTripData
1071
      504
1071
   851991
1070
     0
  0
ACAD_PROXY_OBJECT
  5
858
102
{ACAD_REACTORS
330
857
102
}
330
857
100
AcDbProxyObject
 90
      499
 91
      512
 93
      618
310
40901902A4063FBFFFFFE056BD1B81E855B9FC0AD7A3703D0AD73F4254DD185B99185C990000AD7A3703D0AC73F90141901A02B5E8DC0F42B1CFC02B5E8DC0F42B1CFE5764000000000000300FC6
340
6A
340
0
340
16
340
0
 94
        0
1001
ACAD_MLEADERVER
1070
     2
1001
ACAD
1000
AcadProxyRoundTripData
1071
      508
1071
   851991
1070
     0
  0
MLINESTYLE
  5
78
102
{ACAD_REACTORS
330
76
102
}
330
76
100
AcDbMlineStyle
  2
STANDARD
 70
     0
  3

 62
     0
 51
90.0
 52
90.0
 71
     2
 49
0.5
 62
   256
  6
BYLAYER
 49
-0.5
 62
   256
  6
BYLAYER
  0
ACDBPLACEHOLDER
  5
5
102
{ACAD_REACTORS
330
6
102
}
330
6
100
AcDbPlaceHolder
280
     0
  0
ACAD_PROXY_OBJECT
  5
836
102
{ACAD_REACTORS
330
835
102
}
330
835
100
AcDbProxyObject
 90
      499
 91
      512
 93
       49
310
904313A3100598
 94
        0
1001
ACAD
1000
AcadProxyRoundTripData
1071
      507
1071
   851991
1070
     0
  0
ACAD_PROXY_OBJECT
  5
837
102
{ACAD_REACTORS
330
835
102
}
330
835
100
AcDbProxyObject
 90
      499
 91
      512
 93
      113
310
904313A3200400000000000000406B
 94
        0
1001
ACAD
1000
AcadProxyRoundTripData
1071
      507
1071
   851991
1070
     0
  0
ACAD_PROXY_OBJECT
  5
838
102
{ACAD_REACTORS
330
835
102
}
330
835
100
AcDbProxyObject
 90
      499
 91
      512
 93
      113
310
904313A3400400000000000010406B
 94
        0
1001
ACAD
1000
AcadProxyRoundTripData
1071
      507
1071
   851991
1070
     0
  0
ACAD_PROXY_OBJECT
  5
839
102
{ACAD_REACTORS
330
835
102
}
330
835
100
AcDbProxyObject
 90
      499
 91
      512
 93
      113
310
904313A3500400000000000014406B
 94
        0
1001
ACAD
1000
AcadProxyRoundTripData
1071
      507
1071
   851991
1070
     0
  0
ACAD_PROXY_OBJECT
  5
83A
102
{ACAD_REACTORS
330
835
102
}
330
835
100
AcDbProxyObject
 90
      499
 91
      512
 93
      113
310
904313A3800400000000000020406B
 94
        0
1001
ACAD
1000
AcadProxyRoundTripData
1071
      507
1071
   851991
1070
     0
  0
ACAD_PROXY_OBJECT
  5
83B
102
{ACAD_REACTORS
330
835
102
}
330
835
100
AcDbProxyObject
 90
      499
 91
      512
 93
      121
310
905313A3130004000000000000244051
 94
        0
1001
ACAD
1000
AcadProxyRoundTripData
1071
      507
1071
   851991
1070
     0
  0
ACAD_PROXY_OBJECT
  5
83C
102
{ACAD_REACTORS
330
835
102
}
330
835
100
AcDbProxyObject
 90
      499
 91
      512
 93
      121
310
905313A3136004000000000000304051
 94
        0
1001
ACAD
1000
AcadProxyRoundTripData
1071
      507
1071
   851991
1070
     0
  0
ACAD_PROXY_OBJECT
  5
83D
102
{ACAD_REACTORS
330
835
102
}
330
835
100
AcDbProxyObject
 90
      499
 91
      512
 93
      121
310
905313A3230004000000000000344051
 94
        0
1001
ACAD
1000
AcadProxyRoundTripData
1071
      507
1071
   851991
1070
     0
  0
ACAD_PROXY_OBJECT
  5
83E
102
{ACAD_REACTORS
330
835
102
}
330
835
100
AcDbProxyObject
 90
      499
 91
      512
 93
      121
310
905313A33300040000000000003E4051
 94
        0
1001
ACAD
1000
AcadProxyRoundTripData
1071
      507
1071
   851991
1070
     0
  0
ACAD_PROXY_OBJECT
  5
83F
102
{ACAD_REACTORS
330
835
102
}
330
835
100
AcDbProxyObject
 90
      499
 91
      512
 93
      121
310
905313A3430004000000000000444051
 94
        0
1001
ACAD
1000
AcadProxyRoundTripData
1071
      507
1071
   851991
1070
     0
  0
ACAD_PROXY_OBJECT
  5
840
102
{ACAD_REACTORS
330
835
102
}
330
835
100
AcDbProxyObject
 90
      499
 91
      512
 93
      121
310
905313A3530004000000000000494051
 94
        0
1001
ACAD
1000
AcadProxyRoundTripData
1071
      507
1071
   851991
1070
     0
  0
ACAD_PROXY_OBJECT
  5
841
102
{ACAD_REACTORS
330
835
102
}
330
835
100
AcDbProxyObject
 90
      499
 91
      512
 93
      129
310
906313A313030004000000000000594038
 94
        0
1001
ACAD
1000
AcadProxyRoundTripData
1071
      507
1071
   851991
1070
     0
  0
ACAD_PROXY_OBJECT
  5
842
102
{ACAD_REACTORS
330
835
102
}
330
835
100
AcDbProxyObject
 90
      499
 91
      512
 93
      113
310
904323A31000000000000000010159
 94
        0
1001
ACAD
1000
AcadProxyRoundTripData
1071
      507
1071
   851991
1070
     0
  0
ACAD_PROXY_OBJECT
  5
843
102
{ACAD_REACTORS
330
835
102
}
330
835
100
AcDbProxyObject
 90
      499
 91
      512
 93
      113
310
904343A31000000000000000410159
 94
        0
1001
ACAD
1000
AcadProxyRoundTripData
1071
      507
1071
   851991
1070
     0
  0
ACAD_PROXY_OBJECT
  5
844
102
{ACAD_REACTORS
330
835
102
}
330
835
100
AcDbProxyObject
 90
      499
 91
      512
 93
      113
310
904383A31000000000000000810159
 94
        0
1001
ACAD
1000
AcadProxyRoundTripData
1071
      507
1071
   851991
1070
     0
  0
ACAD_PROXY_OBJECT
  5
845
102
{ACAD_REACTORS
330
835
102
}
330
835
100
AcDbProxyObject
 90
      499
 91
      512
 93
      121
310
90531303A31000000000000000910140
 94
        0
1001
ACAD
1000
AcadProxyRoundTripData
1071
      507
1071
   851991
1070
     0
  0
ACAD_PROXY_OBJECT
  5
846
102
{ACAD_REACTORS
330
835
102
}
330
835
100
AcDbProxyObject
 90
      499
 91
      512
 93
      129
310
9063130303A31000000000000001650138
 94
        0
1001
ACAD
1000
AcadProxyRoundTripData
1071
      507
1071
   851991
1070
     0
  0
ACAD_PROXY_OBJECT
  5
847
102
{ACAD_REACTORS
330
835
102
}
330
835
100
AcDbProxyObject
 90
      499
 91
      512
 93
      265
310
90F312F31323822203D2031272D302200000000000000200FC00000000000028402B
 94
        0
1001
ACAD
1000
AcadProxyRoundTripData
1071
      507
1071
   851991
1070
     0
  0
ACAD_PROXY_OBJECT
  5
848
102
{ACAD_REACTORS
330
835
102
}
330
835
100
AcDbProxyObject
 90
      499
 91
      512
 93
      257
310
90E312F363422203D2031272D302200000000000000240FC000000000000284040
 94
        0
1001
ACAD
1000
AcadProxyRoundTripData
1071
      507
1071
   851991
1070
     0
  0
ACAD_PROXY_OBJECT
  5
849
102
{ACAD_REACTORS
330
835
102
}
330
835
100
AcDbProxyObject
 90
      499
 91
      512
 93
      257
310
90E312F333222203D2031272D302200000000000000280FC000000000000284040
 94
        0
1001
ACAD
1000
AcadProxyRoundTripData
1071
      507
1071
   851991
1070
     0
  0
ACAD_PROXY_OBJECT
  5
84A
102
{ACAD_REACTORS
330
835
102
}
330
835
100
AcDbProxyObject
 90
      499
 91
      512
 93
      257
310
90E312F313622203D2031272D3022000000000000002C0FC000000000000284040
 94
        0
1001
ACAD
1000
AcadProxyRoundTripData
1071
      507
1071
   851991
1070
     0
  0
ACAD_PROXY_OBJECT
  5
84B
102
{ACAD_REACTORS
330
835
102
}
330
835
100
AcDbProxyObject
 90
      499
 91
      512
 93
      257
310
90E332F333222203D2031272D3022000000000000002E0FC000000000000284040
 94
        0
1001
ACAD
1000
AcadProxyRoundTripData
1071
      507
1071
   851991
1070
     0
  0
ACAD_PROXY_OBJECT
  5
84C
102
{ACAD_REACTORS
330
835
102
}
330
835
100
AcDbProxyObject
 90
      499
 91
      512
 93
      249
310
90D312F3822203D2031272D302200000000000000300FC000000000000284040
 94
        0
1001
ACAD
1000
AcadProxyRoundTripData
1071
      507
1071
   851991
1070
     0
  0
ACAD_PROXY_OBJECT
  5
84D
102
{ACAD_REACTORS
330
835
102
}
330
835
100
AcDbProxyObject
 90
      499
 91
      512
 93
      257
310
90E332F313622203D2031272D302200000000000000320FC000000000000284040
 94
        0
1001
ACAD
1000
AcadProxyRoundTripData
1071
      507
1071
   851991
1070
     0
  0
ACAD_PROXY_OBJECT
  5
84E
102
{ACAD_REACTORS
330
835
102
}
330
835
100
AcDbProxyObject
 90
      499
 91
      512
 93
      249
310
90D312F3422203D2031272D302200000000000000340FC000000000000284040
 94
        0
1001
ACAD
1000
AcadProxyRoundTripData
1071
      507
1071
   851991
1070
     0
  0
ACAD_PROXY_OBJECT
  5
84F
102
{ACAD_REACTORS
330
835
102
}
330
835
100
AcDbProxyObject
 90
      499
 91
      512
 93
      249
310
90D332F3822203D2031272D302200000000000000360FC000000000000284040
 94
        0
1001
ACAD
1000
AcadProxyRoundTripData
1071
      507
1071
   851991
1070
     0
  0
ACAD_PROXY_OBJECT
  5
850
102
{ACAD_REACTORS
330
835
102
}
330
835
100
AcDbProxyObject
 90
      499
 91
      512
 93
      249
310
90D312F3222203D2031272D302200000000000000380FC000000000000284040
 94
        0
1001
ACAD
1000
AcadProxyRoundTripData
1071
      507
1071
   851991
1070
     0
  0
ACAD_PROXY_OBJECT
  5
851
102
{ACAD_REACTORS
330
835
102
}
330
835
100
AcDbProxyObject
 90
      499
 91
      512
 93
      249
310
90D332F3422203D2031272D3022000000000000003A0FC000000000000284040
 94
        0
1001
ACAD
1000
AcadProxyRoundTripData
1071
      507
1071
   851991
1070
     0
  0
ACAD_PROXY_OBJECT
  5
852
102
{ACAD_REACTORS
330
835
102
}
330
835
100
AcDbProxyObject
 90
      499
 91
      512
 93
      169
310
90B3122203D2031272D3022004000000000000284020
 94
        0
1001
ACAD
1000
AcadProxyRoundTripData
1071
      507
1071
   851991
1070
     0
  0
ACAD_PROXY_OBJECT
  5
853
102
{ACAD_REACTORS
330
835
102
}
330
835
100
AcDbProxyObject
 90
      499
 91
      512
 93
      265
310
90F312D312F3222203D2031272D3022000000000000003E0FC00000000000028402B
 94
        0
1001
ACAD
1000
AcadProxyRoundTripData
1071
      507
1071
   851991
1070
     0
  0
ACAD_PROXY_OBJECT
  5
854
102
{ACAD_REACTORS
330
835
102
}
330
835
100
AcDbProxyObject
 90
      499
 91
      512
 93
      233
310
90B3322203D2031272D30220000000000000002100000000000000284000
 94
        0
1001
ACAD
1000
AcadProxyRoundTripData
1071
      507
1071
   851991
1070
     0
  0
ACAD_PROXY_OBJECT
  5
855
102
{ACAD_REACTORS
330
835
102
}
330
835
100
AcDbProxyObject
 90
      499
 91
      512
 93
      233
310
90B3622203D2031272D30220000000000000006100000000000000284000
 94
        0
1001
ACAD
1000
AcadProxyRoundTripData
1071
      507
1071
   851991
1070
     0
  0
ACAD_PROXY_OBJECT
  5
856
102
{ACAD_REACTORS
330
835
102
}
330
835
100
AcDbProxyObject
 90
      499
 91
      512
 93
      257
310
90E31272D3022203D2031272D3022000000000000000A100000000000000284040
 94
        0
1001
ACAD
1000
AcadProxyRoundTripData
1071
      507
1071
   851991
1070
     0
  0
ACAD_PROXY_OBJECT
  5
834
102
{ACAD_XDICTIONARY
360
88C
102
}
102
{ACAD_REACTORS
330
833
102
}
330
833
100
AcDbProxyObject
 90
      499
 91
      512
 93
     1849
310
4254DD185B99185C990028B81E85EB51B8AE3F2E07A17AD46E2B8FC02B5E8DC0F42B1CFD028000000C1008070000C3001FDFF8000000C1003FBFF000000182007F7FE00000030400FEFFC00000060801FDFF8000000C1003FBFF00000018200000000000000681FA0B0000001820100E000186003FBFF000000182007F7FE0
310
0000030400FEFFC00000060801FDFF8000000C1003FBFF000000182007F7FE000000304000AD7A3703D0AC73F4160000003040201C00030C007F7FE00000030400FEFFC00000060801FDFF8000000C1003FBFF000000182007F7FE00000030400FEFFC000000608000
340
16
340
16
340
16
 94
        0
1001
ACAD
1000
AcadProxyRoundTripData
1071
      506
1071
   851991
1070
     0
  0
ACAD_PROXY_OBJECT
  5
827
102
{ACAD_REACTORS
330
821
102
}
330
821
100
AcDbProxyObject
 90
      499
 91
      512
 93
      444
310
430C9915DA5C99599C985B59401049028333333333333E3BF0000000000000FB0107901411070040501600405405064090741402480A0340
 94
        0
1001
ACAD
1000
AcDbSavedByObjectVersion
1070
     0
1000
AcadProxyRoundTripData
1071
      505
1071
   851991
1070
     0
  0
ACAD_PROXY_OBJECT
  5
829
102
{ACAD_REACTORS
330
821
102
}
330
821
100
AcDbProxyObject
 90
      499
 91
      512
 93
      508
310
428CD108121A5919195B8010640502408333333333333E3BF0000000000000FB01079024090700405020000000000001110200405405064090740C02480A0340
 94
        0
1001
ACAD
1000
AcDbSavedByObjectVersion
1070
     0
1000
AcadProxyRoundTripData
1071
      505
1071
   851991
1070
     0
  0
ACAD_PROXY_OBJECT
  5
828
102
{ACAD_REACTORS
330
821
102
}
330
821
100
AcDbProxyObject
 90
      499
 91
      512
 93
      444
310
430CD915DA5C99599C985B59401059028333333333333E3BF0000000000000FB0107901411070040501600405405064090741402480A0340
 94
        0
1001
ACAD
1000
AcDbSavedByObjectVersion
1070
     0
1000
AcadProxyRoundTripData
1071
      505
1071
   851991
1070
     0
  0
ACAD_PROXY_OBJECT
  5
826
102
{ACAD_REACTORS
330
821
102
}
330
821
100
AcDbProxyObject
 90
      499
 91
      512
 93
      396
310
4190985CDA58C0107406404333333333333E3BF0000000000000FB0107A41107004050150841D405064090741402480A0356
 94
        0
1001
ACAD
1000
AcDbSavedByObjectVersion
1070
     0
1000
AcadProxyRoundTripData
1071
      505
1071
   851991
1070
     0
  0
ACAD_PROXY_OBJECT
  5
82D
102
{ACAD_REACTORS
330
821
102
}
330
821
100
AcDbProxyObject
 90
      499
 91
      512
 93
      436
310
42509C9A59DA1D195B8010C409028333333333333E3BF0000000000000FB010790141107004050150841D405064090741402480A029956
 94
        0
1001
ACAD
1000
AcDbSavedByObjectVersion
1070
     0
1000
AcadProxyRoundTripData
1071
      505
1071
   851991
1070
     0
  0
ACAD_PROXY_OBJECT
  5
831
102
{ACAD_REACTORS
330
821
102
}
330
821
100
AcDbProxyObject
 90
      499
 91
      512
 93
      460
310
4310DBDB1BDC90DA185B99D9401104090240C333333333333E3BF0000000000000FB0108901411070040501508421405064090741402480A0354
 94
        0
1001
ACAD
1000
AcDbSavedByObjectVersion
1070
     0
1000
AcadProxyRoundTripData
1071
      505
1071
   851991
1070
     0
  0
ACAD_PROXY_OBJECT
  5
82A
102
{ACAD_REACTORS
330
821
102
}
330
821
100
AcDbProxyObject
 90
      499
 91
      512
 93
      508
310
42D0DBDB98D95C1D1D585B0010940D028333333333333E3BF0000000000000FB0107902409070040501000000000000111010841D405064090740C02480A0340
 94
        0
1001
ACAD
1000
AcDbSavedByObjectVersion
1070
     0
1000
AcadProxyRoundTripData
1071
      505
1071
   851991
1070
     0
  0
ACAD_PROXY_OBJECT
  5
82C
102
{ACAD_REACTORS
330
821
102
}
330
821
100
AcDbProxyObject
 90
      499
 91
      512
 93
      420
310
41111A5B4010B409028333333333333E3BF0000000000000FB010790141107004050150841D405064090741402480A02677FFFFFDB
 94
        0
1001
ACAD
1000
AcDbSavedByObjectVersion
1070
     0
1000
AcadProxyRoundTripData
1071
      505
1071
   851991
1070
     0
  0
ACAD_PROXY_OBJECT
  5
830
102
{ACAD_REACTORS
330
821
102
}
330
821
100
AcDbProxyObject
 90
      499
 91
      512
 93
      452
310
43119858D95C185D1D195C9B8010F409028333333333333E3BF0000000000000FB010790141107004050150841D405064090741402480A0350
 94
        0
1001
ACAD
1000
AcDbSavedByObjectVersion
1070
     0
1000
AcadProxyRoundTripData
1071
      505
1071
   851991
1070
     0
  0
ACAD_PROXY_OBJECT
  5
822
102
{ACAD_REACTORS
330
821
102
}
330
821
100
AcDbProxyObject
 90
      499
 91
      512
 93
      396
310
41519B185D00240901404333333333333E3BF0000000000000F9010740A41107004050150841D405064090741402480A1B55
 94
        0
1001
ACAD
1000
AcDbSavedByObjectVersion
1070
     0
1000
AcadProxyRoundTripData
1071
      505
1071
   851991
1070
     0
  0
ACAD_PROXY_OBJECT
  5
823
102
{ACAD_REACTORS
330
821
102
}
330
821
100
AcDbProxyObject
 90
      499
 91
      512
 93
      484
310
43919B185D15DA5D1A115919D95CC010140901404333333333333E3BF0000000000000F9010740901411070040501600405405064090741402480A1B50
 94
        0
1001
ACAD
1000
AcDbSavedByObjectVersion
1070
     0
1000
AcadProxyRoundTripData
1071
      505
1071
   851991
1070
     0
  0
ACAD_PROXY_OBJECT
  5
824
102
{ACAD_REACTORS
330
821
102
}
330
821
100
AcDbProxyObject
 90
      499
 91
      512
 93
      420
310
4211DBDD5C985D590010240902404333333333333E3BF0000000000000F9010740A411070040501641D405064090741402480A1B50
 94
        0
1001
ACAD
1000
AcDbSavedByObjectVersion
1070
     0
1000
AcadProxyRoundTripData
1071
      505
1071
   851991
1070
     0
  0
ACAD_PROXY_OBJECT
  5
825
102
{ACAD_REACTORS
330
821
102
}
330
821
100
AcDbProxyObject
 90
      499
 91
      512
 93
      508
310
4451DBDD5C985D5915DA5D1A115919D95CC010340902404333333333333E3BF0000000000000F9010740901411070040501600405405064090741402480A1B50
 94
        0
1001
ACAD
1000
AcDbSavedByObjectVersion
1070
     0
1000
AcadProxyRoundTripData
1071
      505
1071
   851991
1070
     0
  0
ACAD_PROXY_OBJECT
  5
82F
102
{ACAD_REACTORS
330
821
102
}
330
821
100
AcDbProxyObject
 90
      499
 91
      512
 93
      452
310
43131A5B995C185D1D195C9B8010E409028333333333333E3BF0000000000000FB010790141107004050750841D405064090741402483A0350
 94
        0
1001
ACAD
1000
AcDbSavedByObjectVersion
1070
     0
1000
AcadProxyRoundTripData
1071
      505
1071
   851991
1070
     0
  0
ACAD_PROXY_OBJECT
  5
82B
102
{ACAD_REACTORS
330
821
102
}
330
821
100
AcDbProxyObject
 90
      499
 91
      512
 93
      428
310
429499585B1A5CDD1A58C0108409028333333333333E3BF0000000000000FB01079019070040501508421405064090741402480A1B45
 94
        0
1001
ACAD
1000
AcDbSavedByObjectVersion
1070
     0
1000
AcadProxyRoundTripData
1071
      505
1071
   851991
1070
     0
  0
ACAD_PROXY_OBJECT
  5
82E
102
{ACAD_REACTORS
330
821
102
}
330
821
100
AcDbProxyObject
 90
      499
 91
      512
 93
      420
310
42151A1A58DAD95B8010D409028333333333333E3BF0000000000000FB010790141107004050150C41D405064090741402480A0352
 94
        0
1001
ACAD
1000
AcDbSavedByObjectVersion
1070
     0
1000
AcadProxyRoundTripData
1071
      505
1071
   851991
1070
     0
  0
XRECORD
  5
435C
102
{ACAD_REACTORS
330
4352
102
}
330
4352
100
AcDbXrecord
 90
        0
  0
XRECORD
  5
4360
102
{ACAD_REACTORS
330
4352
102
}
330
4352
100
AcDbXrecord
1000
DSTYLE
1002
{
1070
   179
 70
     2
1070
   277
 70
     6
1002
}
  0
XRECORD
  5
435D
102
{ACAD_REACTORS
330
4352
102
}
330
4352
100
AcDbXrecord
  1
{472D1F85-08F4-40FF-8A32-FC4D8F4268D4}
  0
XRECORD
  5
4355
102
{ACAD_REACTORS
330
4352
102
}
330
4352
100
AcDbXrecord
  1

  0
XRECORD
  5
435B
102
{ACAD_REACTORS
330
4352
102
}
330
4352
100
AcDbXrecord
 90
        0
  0
XRECORD
  5
4357
102
{ACAD_REACTORS
330
4352
102
}
330
4352
100
AcDbXrecord
340
61
  0
XRECORD
  5
435A
102
{ACAD_REACTORS
330
4352
102
}
330
4352
100
AcDbXrecord
 90
    10781
  0
XRECORD
  5
4358
102
{ACAD_REACTORS
330
4352
102
}
330
4352
100
AcDbXrecord
340
77
  0
XRECORD
  5
4359
102
{ACAD_REACTORS
330
4352
102
}
330
4352
100
AcDbXrecord
340
6
  0
XRECORD
  5
435F
102
{ACAD_REACTORS
330
4352
102
}
330
4352
100
AcDbXrecord
 40
0.0
  0
XRECORD
  5
4363
102
{ACAD_REACTORS
330
4352
102
}
330
4352
100
AcDbXrecord
340
0
  0
XRECORD
  5
4369
102
{ACAD_REACTORS
330
4352
102
}
330
4352
100
AcDbXrecord
 10
0.0
 20
0.0
 30
0.0
  0
XRECORD
  5
4365
102
{ACAD_REACTORS
330
4352
102
}
330
4352
100
AcDbXrecord
 10
0.0
 20
0.0
 30
0.0
  0
XRECORD
  5
4368
102
{ACAD_REACTORS
330
4352
102
}
330
4352
100
AcDbXrecord
 10
0.0
 20
0.0
 30
0.0
  0
XRECORD
  5
4366
102
{ACAD_REACTORS
330
4352
102
}
330
4352
100
AcDbXrecord
 10
0.0
 20
0.0
 30
0.0
  0
XRECORD
  5
4367
102
{ACAD_REACTORS
330
4352
102
}
330
4352
100
AcDbXrecord
 10
0.0
 20
0.0
 30
0.0
  0
XRECORD
  5
4364
102
{ACAD_REACTORS
330
4352
102
}
330
4352
100
AcDbXrecord
 10
0.0
 20
0.0
 30
0.0
  0
XRECORD
  5
4361
102
{ACAD_REACTORS
330
4352
102
}
330
4352
100
AcDbXrecord
340
0
  0
XRECORD
  5
4362
102
{ACAD_REACTORS
330
4352
102
}
330
4352
100
AcDbXrecord
 70
     0
  0
XRECORD
  5
4356
102
{ACAD_REACTORS
330
4352
102
}
330
4352
100
AcDbXrecord
  1
Sekkei.ctb
  0
XRECORD
  5
4353
102
{ACAD_REACTORS
330
4352
102
}
330
4352
100
AcDbXrecord
 90
        1
  0
XRECORD
  5
4354
102
{ACAD_REACTORS
330
4352
102
}
330
4352
100
AcDbXrecord
 90
       70
  0
XRECORD
  5
436C
102
{ACAD_REACTORS
330
4352
102
}
330
4352
100
AcDbXrecord
340
0
  0
XRECORD
  5
4372
102
{ACAD_REACTORS
330
4352
102
}
330
4352
100
AcDbXrecord
 10
0.0
 20
0.0
 30
0.0
  0
XRECORD
  5
436E
102
{ACAD_REACTORS
330
4352
102
}
330
4352
100
AcDbXrecord
 10
0.0
 20
0.0
 30
0.0
  0
XRECORD
  5
4371
102
{ACAD_REACTORS
330
4352
102
}
330
4352
100
AcDbXrecord
 10
0.0
 20
0.0
 30
0.0
  0
XRECORD
  5
436F
102
{ACAD_REACTORS
330
4352
102
}
330
4352
100
AcDbXrecord
 10
0.0
 20
0.0
 30
0.0
  0
XRECORD
  5
4370
102
{ACAD_REACTORS
330
4352
102
}
330
4352
100
AcDbXrecord
 10
0.0
 20
0.0
 30
0.0
  0
XRECORD
  5
436D
102
{ACAD_REACTORS
330
4352
102
}
330
4352
100
AcDbXrecord
 10
0.0
 20
0.0
 30
0.0
  0
XRECORD
  5
436A
102
{ACAD_REACTORS
330
4352
102
}
330
4352
100
AcDbXrecord
340
0
  0
XRECORD
  5
436B
102
{ACAD_REACTORS
330
4352
102
}
330
4352
100
AcDbXrecord
 70
     0
  0
XRECORD
  5
435E
102
{ACAD_REACTORS
330
4352
102
}
330
4352
100
AcDbXrecord
  1
{FAE80C42-9C5B-49FE-835F-475DB3F5FA8B}
  0
DICTIONARYVAR
  5
892
102
{ACAD_REACTORS
330
102
102
}
330
102
100
DictionaryVariables
280
     0
  1
1:1
  0
DICTIONARYVAR
  5
890
102
{ACAD_REACTORS
330
102
102
}
330
102
100
DictionaryVariables
280
     0
  1
STANDARD
  0
DICTIONARYVAR
  5
88F
102
{ACAD_REACTORS
330
102
102
}
330
102
100
DictionaryVariables
280
     0
  1
STANDARD
  0
DICTIONARYVAR
  5
103
102
{ACAD_REACTORS
330
102
102
}
330
102
100
DictionaryVariables
280
     0
  1
1
  0
DICTIONARYVAR
  5
1E7C
102
{ACAD_REACTORS
330
102
102
}
330
102
100
DictionaryVariables
280
     0
  1
0
  0
DICTIONARYVAR
  5
893
102
{ACAD_REACTORS
330
102
102
}
330
102
100
DictionaryVariables
280
     0
  1
0
  0
DICTIONARYVAR
  5
891
102
{ACAD_REACTORS
330
102
102
}
330
102
100
DictionaryVariables
280
     0
  1
0
  0
DICTIONARYVAR
  5
549
102
{ACAD_REACTORS
330
102
102
}
330
102
100
DictionaryVariables
280
     0
  1
96
  0
DICTIONARY
  5
812
330
811
100
AcDbDictionary
280
     1
  3
ACAD_XREC_ROUNDTRIP
360
4330
  3
BUMPTILE
360
814
  3
DIFFUSETILE
360
813
  3
OPACITYTILE
360
817
  3
REFLECTIONTILE
360
816
  3
REFRACTIONTILE
360
818
  3
SPECULARTILE
360
815
  0
DICTIONARY
  5
80A
330
809
100
AcDbDictionary
280
     1
  3
ACAD_XREC_ROUNDTRIP
360
432F
  3
BUMPTILE
360
80C
  3
DIFFUSETILE
360
80B
  3
OPACITYTILE
360
80F
  3
REFLECTIONTILE
360
80E
  3
REFRACTIONTILE
360
810
  3
SPECULARTILE
360
80D
  0
DICTIONARY
  5
81A
330
819
100
AcDbDictionary
280
     1
  3
ACAD_XREC_ROUNDTRIP
360
4331
  3
BUMPTILE
360
81C
  3
DIFFUSETILE
360
81B
  3
OPACITYTILE
360
81F
  3
REFLECTIONTILE
360
81E
  3
REFRACTIONTILE
360
820
  3
SPECULARTILE
360
81D
  0
DICTIONARY
  5
88C
330
834
100
AcDbDictionary
280
     1
  3
ACAD_ROUNDTRIP_2008_TABLES
360
4327
  3
ACAD_XREC_ROUNDTRIP
360
4332
  0
XRECORD
  5
4330
102
{ACAD_REACTORS
330
812
102
}
330
812
100
AcDbXrecord
102
MATERIAL
148
0.0
149
0.0
149
0.0
 93
        0
 94
      127
282
     0
 72
     0
 77
     0
171
     0
175
     0
179
     0
273
     0
  0
XRECORD
  5
814
102
{ACAD_REACTORS
330
812
102
}
330
812
100
AcDbXrecord
270
     1
271
     1
  0
XRECORD
  5
813
102
{ACAD_REACTORS
330
812
102
}
330
812
100
AcDbXrecord
270
     1
271
     1
  0
XRECORD
  5
817
102
{ACAD_REACTORS
330
812
102
}
330
812
100
AcDbXrecord
270
     1
271
     1
  0
XRECORD
  5
816
102
{ACAD_REACTORS
330
812
102
}
330
812
100
AcDbXrecord
270
     1
271
     1
  0
XRECORD
  5
818
102
{ACAD_REACTORS
330
812
102
}
330
812
100
AcDbXrecord
270
     1
271
     1
  0
XRECORD
  5
815
102
{ACAD_REACTORS
330
812
102
}
330
812
100
AcDbXrecord
270
     1
271
     1
  0
XRECORD
  5
432F
102
{ACAD_REACTORS
330
80A
102
}
330
80A
100
AcDbXrecord
102
MATERIAL
148
0.0
149
0.0
149
0.0
 93
        0
 94
      127
282
     0
 72
     0
 77
     0
171
     0
175
     0
179
     0
273
     0
  0
XRECORD
  5
80C
102
{ACAD_REACTORS
330
80A
102
}
330
80A
100
AcDbXrecord
270
     1
271
     1
  0
XRECORD
  5
80B
102
{ACAD_REACTORS
330
80A
102
}
330
80A
100
AcDbXrecord
270
     1
271
     1
  0
XRECORD
  5
80F
102
{ACAD_REACTORS
330
80A
102
}
330
80A
100
AcDbXrecord
270
     1
271
     1
  0
XRECORD
  5
80E
102
{ACAD_REACTORS
330
80A
102
}
330
80A
100
AcDbXrecord
270
     1
271
     1
  0
XRECORD
  5
810
102
{ACAD_REACTORS
330
80A
102
}
330
80A
100
AcDbXrecord
270
     1
271
     1
  0
XRECORD
  5
80D
102
{ACAD_REACTORS
330
80A
102
}
330
80A
100
AcDbXrecord
270
     1
271
     1
  0
XRECORD
  5
4331
102
{ACAD_REACTORS
330
81A
102
}
330
81A
100
AcDbXrecord
102
MATERIAL
148
0.0
149
0.0
149
0.0
 93
        0
 94
      127
282
     0
 72
     0
 77
     0
171
     0
175
     0
179
     0
273
     0
  0
XRECORD
  5
81C
102
{ACAD_REACTORS
330
81A
102
}
330
81A
100
AcDbXrecord
270
     1
271
     1
  0
XRECORD
  5
81B
102
{ACAD_REACTORS
330
81A
102
}
330
81A
100
AcDbXrecord
270
     1
271
     1
  0
XRECORD
  5
81F
102
{ACAD_REACTORS
330
81A
102
}
330
81A
100
AcDbXrecord
270
     1
271
     1
  0
XRECORD
  5
81E
102
{ACAD_REACTORS
330
81A
102
}
330
81A
100
AcDbXrecord
270
     1
271
     1
  0
XRECORD
  5
820
102
{ACAD_REACTORS
330
81A
102
}
330
81A
100
AcDbXrecord
270
     1
271
     1
  0
XRECORD
  5
81D
102
{ACAD_REACTORS
330
81A
102
}
330
81A
100
AcDbXrecord
270
     1
271
     1
  0
ACAD_PROXY_OBJECT
  5
4327
102
{ACAD_REACTORS
330
88C
102
}
330
88C
100
AcDbProxyObject
 90
      499
 91
      512
 93
     1044
310
40D054060020000020000003200101A000080002A5058000000C100000000000000340FE901405075F5449544C450041501A8000000C800406800020000A9416000000304000AD7A3703D0AC73FA409014217D2115051115480105406A0000003200101A000080002A5028000000C10002B5E8DC0F42B1CFE903409065F444
310
15441002
340
16
340
16
340
16
 94
        0
1001
ACAD
1000
AcadProxyRoundTripData
1071
      510
1071
   851991
1070
     0
  0
XRECORD
  5
4332
102
{ACAD_REACTORS
330
88C
102
}
330
88C
100
AcDbXrecord
102
ACAD_ROUNDTRIP_PRE2007_TABLESTYLE
 90
      512
 91
        0
  1

 92
      512
 93
        0
  2

 94
      512
 95
        0
  3

  0
ENDSEC
  0
EOF
