  0
SECTION
  2
HEADER
  9
$ACADVER
  1
AC1014
  9
$ACADMAINTVER
 70
     9
  9
$DWGCODEPAGE
  3
ANSI_932
  9
$INSBASE
 10
0.0
 20
0.0
 30
0.0
  9
$EXTMIN
 10
179.7819854187942
 20
334.2456345049863
 30
0.0
  9
$EXTMAX
 10
1509.397922843885
 20
851.0276062997755
 30
0.0
  9
$LIMMIN
 10
0.0
 20
0.0
  9
$LIMMAX
 10
297.0
 20
210.0
  9
$ORTHOMODE
 70
     0
  9
$REGENMODE
 70
     1
  9
$FILLMODE
 70
     1
  9
$QTEXTMODE
 70
     0
  9
$MIRRTEXT
 70
     0
  9
$DRAGMODE
 70
     2
  9
$LTSCALE
 40
4.0
  9
$OSMODE
 70
    37
  9
$ATTMODE
 70
     1
  9
$TEXTSIZE
 40
2.0
  9
$TRACEWID
 40
1.0
  9
$TEXTSTYLE
  7
STANDARD
  9
$CLAYER
  8
0
  9
$CELTYPE
  6
BYLAYER
  9
$CECOLOR
 62
   256
  9
$CELTSCALE
 40
1.0
  9
$DELOBJ
 70
     1
  9
$DISPSILH
 70
     0
  9
$DIMSCALE
 40
4.0
  9
$DIMASZ
 40
1.8
  9
$DIMEXO
 40
0.625
  9
$DIMDLI
 40
3.75
  9
$DIMRND
 40
0.0
  9
$DIMDLE
 40
0.0
  9
$DIMEXE
 40
0.8
  9
$DIMTP
 40
0.0
  9
$DIMTM
 40
0.0
  9
$DIMTXT
 40
1.8
  9
$DIMCEN
 40
2.5
  9
$DIMTSZ
 40
0.0
  9
$DIMTOL
 70
     0
  9
$DIMLIM
 70
     0
  9
$DIMTIH
 70
     0
  9
$DIMTOH
 70
     0
  9
$DIMSE1
 70
     0
  9
$DIMSE2
 70
     0
  9
$DIMTAD
 70
     1
  9
$DIMZIN
 70
     8
  9
$DIMBLK
  1

  9
$DIMASO
 70
     1
  9
$DIMSHO
 70
     1
  9
$DIMPOST
  1

  9
$DIMAPOST
  1

  9
$DIMALT
 70
     0
  9
$DIMALTD
 70
     4
  9
$DIMALTF
 40
0.0394
  9
$DIMLFAC
 40
1.0
  9
$DIMTOFL
 70
     1
  9
$DIMTVP
 40
0.0
  9
$DIMTIX
 70
     0
  9
$DIMSOXD
 70
     0
  9
$DIMSAH
 70
     0
  9
$DIMBLK1
  1

  9
$DIMBLK2
  1

  9
$DIMSTYLE
  2
STANDARD
  9
$DIMCLRD
 70
     0
  9
$DIMCLRE
 70
     0
  9
$DIMCLRT
 70
     0
  9
$DIMTFAC
 40
1.0
  9
$DIMGAP
 40
0.75
  9
$DIMJUST
 70
     0
  9
$DIMSD1
 70
     0
  9
$DIMSD2
 70
     0
  9
$DIMTOLJ
 70
     1
  9
$DIMTZIN
 70
     0
  9
$DIMALTZ
 70
     0
  9
$DIMALTTZ
 70
     0
  9
$DIMFIT
 70
     3
  9
$DIMUPT
 70
     0
  9
$DIMUNIT
 70
     8
  9
$DIMDEC
 70
     2
  9
$DIMTDEC
 70
     2
  9
$DIMALTU
 70
     8
  9
$DIMALTTD
 70
     4
  9
$DIMTXSTY
  7
STANDARD
  9
$DIMAUNIT
 70
     0
  9
$LUNITS
 70
     2
  9
$LUPREC
 70
     3
  9
$SKETCHINC
 40
1.0
  9
$FILLETRAD
 40
10.0
  9
$AUNITS
 70
     0
  9
$AUPREC
 70
     2
  9
$MENU
  1
.
  9
$ELEVATION
 40
0.0
  9
$PELEVATION
 40
0.0
  9
$THICKNESS
 40
0.0
  9
$LIMCHECK
 70
     0
  9
$BLIPMODE
 70
     0
  9
$CHAMFERA
 40
0.0
  9
$CHAMFERB
 40
0.0
  9
$CHAMFERC
 40
20.0
  9
$CHAMFERD
 40
0.0
  9
$SKPOLY
 70
     0
  9
$TDCREATE
 40
2454889.364024514
  9
$TDUPDATE
 40
2454909.823112905
  9
$TDINDWG
 40
0.0980157986
  9
$TDUSRTIMER
 40
0.0980157986
  9
$USRTIMER
 70
     1
  9
$ANGBASE
 50
0.0
  9
$ANGDIR
 70
     0
  9
$PDMODE
 70
     0
  9
$PDSIZE
 40
-10.0
  9
$PLINEWID
 40
0.0
  9
$COORDS
 70
     1
  9
$SPLFRAME
 70
     0
  9
$SPLINETYPE
 70
     6
  9
$SPLINESEGS
 70
     8
  9
$ATTDIA
 70
     0
  9
$ATTREQ
 70
     1
  9
$HANDLING
 70
 22529
  9
$HANDSEED
  5
2CAB
  9
$SURFTAB1
 70
     6
  9
$SURFTAB2
 70
     6
  9
$SURFTYPE
 70
     6
  9
$SURFU
 70
     6
  9
$SURFV
 70
     6
  9
$UCSNAME
  2

  9
$UCSORG
 10
0.0
 20
0.0
 30
0.0
  9
$UCSXDIR
 10
1.0
 20
0.0
 30
0.0
  9
$UCSYDIR
 10
0.0
 20
1.0
 30
0.0
  9
$PUCSNAME
  2

  9
$PUCSORG
 10
0.0
 20
0.0
 30
0.0
  9
$PUCSXDIR
 10
1.0
 20
0.0
 30
0.0
  9
$PUCSYDIR
 10
0.0
 20
1.0
 30
0.0
  9
$USERI1
 70
     0
  9
$USERI2
 70
     0
  9
$USERI3
 70
     0
  9
$USERI4
 70
     0
  9
$USERI5
 70
     0
  9
$USERR1
 40
0.0
  9
$USERR2
 40
0.0
  9
$USERR3
 40
0.0
  9
$USERR4
 40
0.0
  9
$USERR5
 40
0.0
  9
$WORLDVIEW
 70
     1
  9
$SHADEDGE
 70
     3
  9
$SHADEDIF
 70
    70
  9
$TILEMODE
 70
     1
  9
$MAXACTVP
 70
    48
  9
$PINSBASE
 10
0.0
 20
0.0
 30
0.0
  9
$PLIMCHECK
 70
     0
  9
$PEXTMIN
 10
0.0
 20
0.0
 30
0.0
  9
$PEXTMAX
 10
0.0
 20
0.0
 30
0.0
  9
$PLIMMIN
 10
0.0
 20
0.0
  9
$PLIMMAX
 10
12.0
 20
9.0
  9
$UNITMODE
 70
     0
  9
$VISRETAIN
 70
     1
  9
$PLINEGEN
 70
     0
  9
$PSLTSCALE
 70
     1
  9
$TREEDEPTH
 70
  3020
  9
$PICKSTYLE
 70
     1
  9
$CMLSTYLE
  2
STANDARD
  9
$CMLJUST
 70
     0
  9
$CMLSCALE
 40
1.0
  9
$PROXYGRAPHICS
 70
     1
  9
$MEASUREMENT
 70
     0
  0
ENDSEC
  0
SECTION
  2
CLASSES
  0
CLASS
  1
DICTIONARYVAR
  2
AcDbDictionaryVar
  3
AutoCAD 2000
 90
        0
280
     0
281
     0
  0
CLASS
  1
ACDBDICTIONARYWDFLT
  2
AcDbDictionaryWithDefault
  3
AutoCAD 2000
 90
        0
280
     0
281
     0
  0
CLASS
  1
ACDBPLACEHOLDER
  2
AcDbPlaceHolder
  3
AutoCAD 2000
 90
        0
280
     0
281
     0
  0
CLASS
  1
LAYOUT
  2
AcDbLayout
  3
AutoCAD 2000
 90
        0
280
     0
281
     0
  0
CLASS
  1
MATERIAL
  2
AcDbMaterial
  3
ObjectDBX Classes
 90
     1153
280
     0
281
     0
  0
CLASS
  1
VISUALSTYLE
  2
AcDbVisualStyle
  3
ObjectDBX Classes
 90
     4095
280
     0
281
     0
  0
CLASS
  1
TABLESTYLE
  2
AcDbTableStyle
  3
ObjectDBX Classes
 90
     4095
280
     0
281
     0
  0
CLASS
  1
SCALE
  2
AcDbScale
  3
ObjectDBX Classes
 90
     1153
280
     0
281
     0
  0
CLASS
  1
MLEADERSTYLE
  2
AcDbMLeaderStyle
  3
ACDB_MLEADERSTYLE_CLASS
 90
     4095
280
     0
281
     0
  0
CLASS
  1
PLOTSETTINGS
  2
AcDbPlotSettings
  3
AutoCAD 2000
 90
        0
280
     0
281
     0
  0
CLASS
  1
CELLSTYLEMAP
  2
AcDbCellStyleMap
  3
ObjectDBX Classes
 90
     1152
280
     0
281
     0
  0
CLASS
  1
SORTENTSTABLE
  2
AcDbSortentsTable
  3
AutoCAD 2000
 90
        0
280
     0
281
     0
  0
CLASS
  1
ACAD_PROXY_OBJECT_WRAPPER
  2
AcDbProxyObjectWrapper
  3
AutoCAD 2000
 90
        0
280
     0
281
     0
  0
CLASS
  1
LONG_TRANSACTION
  2
AcDbLongTransaction
  3
AutoCAD 2000
 90
        0
280
     0
281
     0
  0
CLASS
  1
LWPOLYLINE
  2
AcDbPolyline
  3
AutoCAD 2000
 90
        0
280
     0
281
     1
  0
CLASS
  1
HATCH
  2
AcDbHatch
  3
AutoCAD 2000
 90
        0
280
     0
281
     1
  0
CLASS
  1
XRECORD
  2
AcDbXrecord
  3
AutoCAD 2000
 90
        0
280
     0
281
     0
  0
ENDSEC
  0
SECTION
  2
TABLES
  0
TABLE
  2
VPORT
  5
6E
102
{ACAD_XDICTIONARY
360
1E6F
102
}
330
0
100
AcDbSymbolTable
 70
     2
  0
VPORT
  5
2C86
330
6E
100
AcDbSymbolTableRecord
100
AcDbViewportTableRecord
  2
*ACTIVE
 70
     0
 10
0.0
 20
0.0
 11
1.0
 21
1.0
 12
902.555363363313
 22
573.9722572850985
 13
0.0
 23
0.0
 14
10.0
 24
10.0
 15
10.0
 25
10.0
 16
0.0
 26
0.0
 36
1.0
 17
0.0
 27
0.0
 37
0.0
 40
910.7785986297747
 41
1.593429158110883
 42
50.0
 43
0.0
 44
0.0
 50
0.0
 51
0.0
 71
     0
 72
   100
 73
     1
 74
     3
 75
     0
 76
     0
 77
     0
 78
     0
  0
ENDTAB
  0
TABLE
  2
LTYPE
  5
69
330
0
100
AcDbSymbolTable
 70
     7
  0
LTYPE
  5
6A
330
69
100
AcDbSymbolTableRecord
100
AcDbLinetypeTableRecord
  2
BYBLOCK
 70
     0
  3

 72
    65
 73
     0
 40
0.0
  0
LTYPE
  5
6B
330
69
100
AcDbSymbolTableRecord
100
AcDbLinetypeTableRecord
  2
BYLAYER
 70
     0
  3

 72
    65
 73
     0
 40
0.0
  0
LTYPE
  5
8
330
69
100
AcDbSymbolTableRecord
100
AcDbLinetypeTableRecord
  2
CONTINUOUS
 70
     0
  3
Solid line
 72
    65
 73
     0
 40
0.0
  0
LTYPE
  5
27C
330
69
100
AcDbSymbolTableRecord
100
AcDbLinetypeTableRecord
  2
SEKKEI_A2_
 70
     0
  3
center(A2)  ____ _ ____ _ ____ _ ____ _ ____ _ 
 72
    65
 73
     4
 40
14.28749999999999
 49
9.525
 74
     0
 49
-1.587499999999999
 74
     0
 49
1.587499999999999
 74
     0
 49
-1.587499999999999
 74
     0
  0
LTYPE
  5
2B4
330
69
100
AcDbSymbolTableRecord
100
AcDbLinetypeTableRecord
  2
HIDDEN2
 70
     0
  3
Hidden (.5x) _ _ _ _ _ _ _ _ _ _ _ _ _ _ _ _ _
 72
    65
 73
     2
 40
4.762499999999999
 49
3.174999999999999
 74
     0
 49
-1.587499999999999
 74
     0
  0
LTYPE
  5
48F
330
69
100
AcDbSymbolTableRecord
100
AcDbLinetypeTableRecord
  2
SEKKEI_H
 70
     0
  3
Hidden-S _ _ _ _ _ _ _ _ _ _ _ _ _ _ _ _ _
 72
    65
 73
     2
 40
2.381249999999999
 49
1.587499999999999
 74
     0
 49
-0.79375
 74
     0
  0
LTYPE
  5
54A
330
69
100
AcDbSymbolTableRecord
100
AcDbLinetypeTableRecord
  2
CENTERX2
 70
     0
  3
Center (2x) ________  __  ________  __  _____
 72
    65
 73
     4
 40
4.0
 49
2.5
 74
     0
 49
-0.5
 74
     0
 49
0.5
 74
     0
 49
-0.5
 74
     0
  0
ENDTAB
  0
TABLE
  2
LAYER
  5
66
102
{ACAD_XDICTIONARY
360
86B
102
}
330
0
100
AcDbSymbolTable
 70
    10
  0
LAYER
  5
5E
102
{ACAD_XDICTIONARY
360
158C
102
}
330
66
100
AcDbSymbolTableRecord
100
AcDbLayerTableRecord
  2
0
 70
     0
 62
     7
  6
CONTINUOUS
  0
LAYER
  5
3E
102
{ACAD_XDICTIONARY
360
158E
102
}
330
66
100
AcDbSymbolTableRecord
100
AcDbLayerTableRecord
  2
CENTER
 70
     0
 62
     3
  6
SEKKEI_A2_
  0
LAYER
  5
2B5
102
{ACAD_XDICTIONARY
360
1594
102
}
330
66
100
AcDbSymbolTableRecord
100
AcDbLayerTableRecord
  2
HIDS
 70
     0
 62
     1
  6
HIDDEN2
  0
LAYER
  5
2BA
102
{ACAD_XDICTIONARY
360
1596
102
}
330
66
100
AcDbSymbolTableRecord
100
AcDbLayerTableRecord
  2
HOJO
 70
     0
 62
     4
  6
CONTINUOUS
  0
LAYER
  5
3FA
102
{ACAD_XDICTIONARY
360
159A
102
}
330
66
100
AcDbSymbolTableRecord
100
AcDbLayerTableRecord
  2
TITLE
 70
     0
 62
     4
  6
CONTINUOUS
  0
ENDTAB
  0
TABLE
  2
STYLE
  5
67
330
0
100
AcDbSymbolTable
 70
     3
  0
STYLE
  5
16
330
67
100
AcDbSymbolTableRecord
100
AcDbTextStyleTableRecord
  2
STANDARD
 70
     0
 40
0.0
 41
1.0
 50
0.0
 71
     0
 42
2.0
  3
simplex.shx
  4
extfont.shx
  0
ENDTAB
  0
TABLE
  2
VIEW
  5
6C
330
0
100
AcDbSymbolTable
 70
     0
  0
ENDTAB
  0
TABLE
  2
UCS
  5
6D
330
0
100
AcDbSymbolTable
 70
     0
  0
ENDTAB
  0
TABLE
  2
APPID
  5
70
330
0
100
AcDbSymbolTable
 70
     7
  0
APPID
  5
71
330
70
100
AcDbSymbolTableRecord
100
AcDbRegAppTableRecord
  2
ACAD
 70
     0
  0
APPID
  5
859
330
70
100
AcDbSymbolTableRecord
100
AcDbRegAppTableRecord
  2
ACAD_MLEADERVER
 70
     0
  0
APPID
  5
866
330
70
100
AcDbSymbolTableRecord
100
AcDbRegAppTableRecord
  2
ACAD_PSEXT
 70
     0
  0
APPID
  5
15AD
330
70
100
AcDbSymbolTableRecord
100
AcDbRegAppTableRecord
  2
ACAD_EXEMPT_FROM_CAD_STANDARDS
 70
     0
  0
APPID
  5
15D5
330
70
100
AcDbSymbolTableRecord
100
AcDbRegAppTableRecord
  2
ACAD_DSTYLE_DIMJAG
 70
     0
  0
APPID
  5
15D6
330
70
100
AcDbSymbolTableRecord
100
AcDbRegAppTableRecord
  2
ACAD_DSTYLE_DIMTALN
 70
     0
  0
APPID
  5
16FC
330
70
100
AcDbSymbolTableRecord
100
AcDbRegAppTableRecord
  2
ACAD_DSTYLE_DIMRADIAL_EXTENSION
 70
     0
  0
ENDTAB
  0
TABLE
  2
DIMSTYLE
  5
72
330
0
100
AcDbSymbolTable
 70
     1
  0
DIMSTYLE
105
73
102
{ACAD_REACTORS
330
1743
330
18FD
102
}
330
72
100
AcDbSymbolTableRecord
100
AcDbDimStyleTableRecord
  2
STANDARD
 70
     0
  3

  4

  5

  6

  7

 40
4.0
 41
1.8
 42
0.625
 43
3.75
 44
0.8
 45
0.0
 46
0.0
 47
0.0
 48
0.0
140
1.8
141
2.5
142
0.0
143
0.0394
144
1.0
145
0.0
146
1.0
147
0.75
 71
     0
 72
     0
 73
     0
 74
     0
 75
     0
 76
     0
 77
     1
 78
     8
170
     0
171
     4
172
     1
173
     0
174
     0
175
     0
176
     0
177
     0
178
     0
270
     8
271
     2
272
     2
273
     8
274
     4
340
16
275
     0
280
     0
281
     0
282
     0
283
     1
284
     0
285
     0
286
     0
287
     3
288
     0
1001
ACAD_DSTYLE_DIMJAG
1070
   388
1040
1.5
1001
ACAD_DSTYLE_DIMTALN
1070
   392
1070
     0
  0
ENDTAB
  0
TABLE
  2
BLOCK_RECORD
  5
1
330
0
100
AcDbSymbolTable
 70
    49
  0
BLOCK_RECORD
  5
2
102
{ACAD_XDICTIONARY
360
276A
102
}
330
1
100
AcDbSymbolTableRecord
100
AcDbBlockTableRecord
  2
*MODEL_SPACE
  0
BLOCK_RECORD
  5
2C81
102
{ACAD_XDICTIONARY
360
2CA9
102
}
330
1
100
AcDbSymbolTableRecord
100
AcDbBlockTableRecord
  2
*PAPER_SPACE
  0
ENDTAB
  0
ENDSEC
  0
SECTION
  2
BLOCKS
  0
BLOCK
  5
5D
330
2
100
AcDbEntity
  8
0
100
AcDbBlockBegin
  2
*MODEL_SPACE
 70
     0
 10
0.0
 20
0.0
 30
0.0
  3
*MODEL_SPACE
  1

  0
ENDBLK
  5
5F
330
2
100
AcDbEntity
  8
0
100
AcDbBlockEnd
  0
BLOCK
  5
2C83
330
2C81
100
AcDbEntity
 67
     1
  8
0
100
AcDbBlockBegin
  2
*PAPER_SPACE
 70
     0
 10
0.0
 20
0.0
 30
0.0
  3
*PAPER_SPACE
  1

  0
ENDBLK
  5
2C84
330
2C81
100
AcDbEntity
 67
     1
  8
0
100
AcDbBlockEnd
  0
ENDSEC
  0
SECTION
  2
ENTITIES
  0
LINE
  5
A65
330
2
100
AcDbEntity
  8
0
100
AcDbLine
 10
1053.559171748526
 20
469.2456345049879
 30
0.0
 11
1053.559171748526
 21
349.2456345049861
 31
0.0
  0
LINE
  5
A91
330
2
100
AcDbEntity
  8
0
100
AcDbLine
 10
1053.559171748526
 20
720.5276062997771
 30
0.0
 11
1053.559171748526
 21
841.5276062997779
 31
0.0
  0
LINE
  5
A92
330
2
100
AcDbEntity
  8
0
 48
0.5
100
AcDbLine
 10
1075.241630114041
 20
833.527606299777
 30
0.0
 11
1101.05917174853
 21
833.5276062997762
 31
0.0
  0
LINE
  5
A93
330
2
100
AcDbEntity
  8
0
 48
0.5
100
AcDbLine
 10
1075.357130719654
 20
728.5276062997771
 30
0.0
 11
1101.05917174853
 21
728.5276062997788
 31
0.0
  0
LINE
  5
A94
330
2
100
AcDbEntity
  8
0
100
AcDbLine
 10
1053.559171748526
 20
721.0276062997762
 30
0.0
 11
1065.559171748522
 21
721.0276062997738
 31
0.0
  0
LINE
  5
A95
330
2
100
AcDbEntity
  8
0
100
AcDbLine
 10
1053.559171748526
 20
841.027606299777
 30
0.0
 11
1065.559171748522
 21
841.0276062997784
 31
0.0
  0
ARC
  5
A96
330
2
100
AcDbEntity
  8
0
100
AcDbCircle
 10
1065.559171748522
 20
839.0276062997784
 30
0.0
 40
2.0
100
AcDbArc
 50
0.0
 51
90.0
  0
ARC
  5
A97
330
2
100
AcDbEntity
  8
0
100
AcDbCircle
 10
1075.241630114041
 20
841.5276062997774
 30
0.0
 40
8.0
100
AcDbArc
 50
194.477512185929
 51
232.6089831569974
  0
ARC
  5
A98
330
2
100
AcDbEntity
  8
0
100
AcDbCircle
 10
1075.241630114041
 20
841.5276062997774
 30
0.0
 40
8.0
100
AcDbArc
 50
268.6931248980347
 51
270.0
  0
LINE
  5
A99
330
2
100
AcDbEntity
  8
0
100
AcDbLine
 10
1053.559171748526
 20
841.527606299777
 30
0.0
 11
1065.559171748522
 21
841.5276062997774
 31
0.0
  0
ARC
  5
A9A
330
2
100
AcDbEntity
  8
0
100
AcDbCircle
 10
1065.559171748522
 20
839.527606299778
 30
0.0
 40
2.0
100
AcDbArc
 50
11.53695903279986
 51
90.0
  0
ARC
  5
A9B
330
2
100
AcDbEntity
  8
0
100
AcDbCircle
 10
1075.357130719655
 20
841.527606299777
 30
0.0
 40
8.0
100
AcDbArc
 50
191.5369590328239
 51
232.6089831569974
  0
ARC
  5
A9C
330
2
100
AcDbEntity
  8
0
100
AcDbCircle
 10
1075.357130719655
 20
841.527606299777
 30
0.0
 40
8.0
100
AcDbArc
 50
267.8655323847083
 51
270.0
  0
LINE
  5
A9D
330
2
100
AcDbEntity
  8
0
100
AcDbLine
 10
1104.767270992077
 20
731.027606299783
 30
0.0
 11
1138.059171748524
 21
731.0276062997782
 31
0.0
  0
ARC
  5
A9E
330
2
100
AcDbEntity
  8
0
100
AcDbCircle
 10
1125.059171748524
 20
733.0276062997797
 30
0.0
 40
2.0
100
AcDbArc
 50
180.0
 51
270.0
  0
LINE
  5
A9F
330
2
100
AcDbEntity
  8
0
 48
0.5
100
AcDbLine
 10
1104.767270992076
 20
831.0276062997779
 30
0.0
 11
1138.059171748525
 21
831.0276062997772
 31
0.0
  0
ARC
  5
AA0
330
2
100
AcDbEntity
  8
0
 48
0.5
100
AcDbCircle
 10
1125.059171748524
 20
829.027606299777
 30
0.0
 40
2.0
100
AcDbArc
 50
90.0
 51
180.0
  0
LINE
  5
AA1
330
2
100
AcDbEntity
  8
0
100
AcDbLine
 10
1138.059171748525
 20
831.027606299777
 30
0.0
 11
1138.059171748524
 21
731.0276062997779
 31
0.0
  0
LINE
  5
AA2
330
2
100
AcDbEntity
  8
0
100
AcDbLine
 10
1067.559171748522
 20
839.0276062997784
 30
0.0
 11
1067.559171748523
 21
723.0276062997743
 31
0.0
  0
LINE
  5
AA3
330
2
100
AcDbEntity
  8
CENTER
 48
0.5
100
AcDbLine
 10
1108.809171748526
 20
761.027606299777
 30
0.0
 11
1130.309171748525
 21
761.027606299777
 31
0.0
  0
LINE
  5
AA4
330
2
100
AcDbEntity
  8
0
100
AcDbLine
 10
1123.059171748524
 20
747.5276062997766
 30
0.0
 11
1123.059171748524
 21
733.0276062997771
 31
0.0
  0
ARC
  5
AA5
330
2
100
AcDbEntity
  8
0
100
AcDbCircle
 10
1120.059171748524
 20
747.5276062997766
 30
0.0
 40
3.0
100
AcDbArc
 50
0.0
 51
90.0
  0
LINE
  5
AA6
330
2
100
AcDbEntity
  8
CENTER
 48
0.5
100
AcDbLine
 10
1119.559171748526
 20
771.7776062997771
 30
0.0
 11
1119.559171748526
 21
750.277606299777
 31
0.0
  0
LINE
  5
AA7
330
2
100
AcDbEntity
  8
0
100
AcDbLine
 10
1123.059171748526
 20
814.5276062997771
 30
0.0
 11
1123.059171748524
 21
829.027606299777
 31
0.0
  0
LINE
  5
AA8
330
2
100
AcDbEntity
  8
0
100
AcDbLine
 10
1105.059171748529
 20
750.527606299777
 30
0.0
 11
1120.059171748524
 21
750.5276062997766
 31
0.0
  0
ARC
  5
AA9
330
2
100
AcDbEntity
  8
0
100
AcDbCircle
 10
1105.059171748529
 20
752.527606299777
 30
0.0
 40
2.0
100
AcDbArc
 50
180.0
 51
270.0
  0
LINE
  5
AAA
330
2
100
AcDbEntity
  8
0
100
AcDbLine
 10
1103.05917174853
 20
809.527606299777
 30
0.0
 11
1103.05917174853
 21
752.527606299777
 31
0.0
  0
LINE
  5
AAB
330
2
100
AcDbEntity
  8
0
100
AcDbLine
 10
1053.559171748526
 20
720.5276062997779
 30
0.0
 11
1065.559171748522
 21
720.5276062997771
 31
0.0
  0
LINE
  5
AAC
330
2
100
AcDbEntity
  8
0
100
AcDbLine
 10
1105.059171748529
 20
811.527606299777
 30
0.0
 11
1120.059171748526
 21
811.527606299777
 31
0.0
  0
ARC
  5
AAD
330
2
100
AcDbEntity
  8
0
100
AcDbCircle
 10
1120.059171748526
 20
814.5276062997771
 30
0.0
 40
3.0
100
AcDbArc
 50
270.0
 51
0.0
  0
ARC
  5
AAE
330
2
100
AcDbEntity
  8
0
100
AcDbCircle
 10
1105.059171748529
 20
809.527606299777
 30
0.0
 40
2.0
100
AcDbArc
 50
90.0
 51
180.0
  0
ARC
  5
AAF
330
2
100
AcDbEntity
  8
0
100
AcDbCircle
 10
1065.559171748522
 20
723.0276062997757
 30
0.0
 40
2.0
100
AcDbArc
 50
270.0
 51
0.0
  0
ARC
  5
AB0
330
2
100
AcDbEntity
  8
0
100
AcDbCircle
 10
1075.241630114041
 20
720.5276062997766
 30
0.0
 40
8.0
100
AcDbArc
 50
90.0
 51
91.30687510196517
  0
ARC
  5
AB1
330
2
100
AcDbEntity
  8
0
100
AcDbCircle
 10
1075.241630114041
 20
720.5276062997766
 30
0.0
 40
8.0
100
AcDbArc
 50
127.3910168430025
 51
165.5224878140709
  0
ARC
  5
AB2
330
2
100
AcDbEntity
  8
0
100
AcDbCircle
 10
1065.559171748522
 20
722.5276062997761
 30
0.0
 40
2.0
100
AcDbArc
 50
270.0
 51
348.4630409672001
  0
ARC
  5
AB3
330
2
100
AcDbEntity
  8
0
100
AcDbCircle
 10
1075.357130719655
 20
720.5276062997771
 30
0.0
 40
8.0
100
AcDbArc
 50
90.0
 51
92.13446761529166
  0
ARC
  5
AB4
330
2
100
AcDbEntity
  8
0
100
AcDbCircle
 10
1075.357130719655
 20
720.5276062997771
 30
0.0
 40
8.0
100
AcDbArc
 50
127.3910168430025
 51
168.4630409672001
  0
LINE
  5
AB5
330
2
100
AcDbEntity
  8
0
100
AcDbLine
 10
1100.059171748527
 20
738.2076062997842
 30
0.0
 11
1120.059171748523
 21
738.2076062997805
 31
0.0
  0
ARC
  5
AB6
330
2
100
AcDbEntity
  8
0
100
AcDbCircle
 10
1100.059171748526
 20
735.2076062997841
 30
0.0
 40
3.0
100
AcDbArc
 50
0.0000000000130276
 51
90.0
  0
LINE
  5
AB7
330
2
100
AcDbEntity
  8
0
100
AcDbLine
 10
1103.059171748525
 20
735.2076062997846
 30
0.0
 11
1103.059171748525
 21
733.0276062997834
 31
0.0
  0
ARC
  5
AB8
330
2
100
AcDbEntity
  8
0
100
AcDbCircle
 10
1105.059171748525
 20
733.0276062997834
 30
0.0
 40
2.0
100
AcDbArc
 50
180.0
 51
270.0
  0
ARC
  5
AB9
330
2
100
AcDbEntity
  8
0
100
AcDbCircle
 10
1101.05917174853
 20
730.5276062997775
 30
0.0
 40
2.0
100
AcDbArc
 50
270.0
 51
337.9756871629358
  0
ARC
  5
ABA
330
2
100
AcDbEntity
  8
0
100
AcDbCircle
 10
1104.767270992076
 20
729.0276062997756
 30
0.0
 40
2.0
100
AcDbArc
 50
90.0
 51
157.9756871629358
  0
ARC
  5
ABB
330
2
100
AcDbEntity
  8
0
 48
0.5
100
AcDbCircle
 10
1105.059171748524
 20
829.0276062997779
 30
0.0
 40
2.0
100
AcDbArc
 50
90.0
 51
180.0
  0
LINE
  5
ABC
330
2
100
AcDbEntity
  8
0
 48
0.5
100
AcDbLine
 10
1100.059171748524
 20
823.8476062997781
 30
0.0
 11
1120.059171748524
 21
823.8476062997781
 31
0.0
  0
ARC
  5
ABD
330
2
100
AcDbEntity
  8
0
 48
0.5
100
AcDbCircle
 10
1100.059171748524
 20
826.8476062997777
 30
0.0
 40
3.0
100
AcDbArc
 50
270.0
 51
0.0
  0
LINE
  5
ABE
330
2
100
AcDbEntity
  8
0
100
AcDbLine
 10
1103.059171748524
 20
829.0276062997779
 30
0.0
 11
1103.059171748524
 21
826.8476062997777
 31
0.0
  0
ARC
  5
ABF
330
2
100
AcDbEntity
  8
0
100
AcDbCircle
 10
1101.05917174853
 20
831.5276062997766
 30
0.0
 40
2.0
100
AcDbArc
 50
22.02431283706412
 51
90.0
  0
ARC
  5
AC0
330
2
100
AcDbEntity
  8
0
100
AcDbCircle
 10
1104.767270992076
 20
833.0276062997784
 30
0.0
 40
2.0
100
AcDbArc
 50
202.0243128370641
 51
270.0
  0
LINE
  5
AC2
330
2
100
AcDbEntity
  8
0
100
AcDbLine
 10
1487.397922843878
 20
409.2456345049859
 30
0.0
 11
1487.275681758767
 21
451.2689055361852
 31
0.0
  0
LINE
  5
AC4
330
2
100
AcDbEntity
  8
0
100
AcDbLine
 10
1479.275715605123
 20
459.2456345123101
 30
0.0
 11
1395.520130082631
 21
459.2456345123101
 31
0.0
  0
ARC
  5
AC5
330
2
100
AcDbEntity
  8
0
100
AcDbCircle
 10
1479.275715605123
 20
451.2456345123101
 30
0.0
 40
8.0
100
AcDbArc
 50
0.1666666666621402
 51
90.0
  0
ARC
  5
AC6
330
2
100
AcDbEntity
  8
HIDS
  6
SEKKEI_H
100
AcDbCircle
 10
1408.863317369829
 20
457.24563451231
 30
0.0
 40
2.0
100
AcDbArc
 50
90.0
 51
178.9999999999721
  0
LINE
  5
AC7
330
2
100
AcDbEntity
  8
0
100
AcDbLine
 10
1479.275715605164
 20
359.24563451231
 30
0.0
 11
1395.520130082588
 21
359.24563451231
 31
0.0
  0
ARC
  5
AC8
330
2
100
AcDbEntity
  8
0
100
AcDbCircle
 10
1437.397922843872
 20
409.2456345285645
 30
0.0
 40
52.5
100
AcDbArc
 50
162.0797860355235
 51
197.920213963979
  0
LINE
  5
AC9
330
2
100
AcDbEntity
  8
CENTER
100
AcDbLine
 10
1486.541844137585
 20
370.3517132210872
 30
0.0
 11
1486.541844137585
 21
349.8517132210872
 31
0.0
  0
LINE
  5
ACA
330
2
100
AcDbEntity
  8
CENTER
100
AcDbLine
 10
1476.291844137586
 20
360.1017132210872
 30
0.0
 11
1496.791844137586
 21
360.1017132210872
 31
0.0
  0
ARC
  5
ACB
330
2
100
AcDbEntity
  8
0
100
AcDbCircle
 10
1437.397922843877
 20
409.2456345285645
 30
0.0
 40
52.5
100
AcDbArc
 50
342.0797860360301
 51
17.920213964464
  0
ARC
  5
ACC
330
2
100
AcDbEntity
  8
HIDS
  6
SEKKEI_H
100
AcDbCircle
 10
1437.397922836558
 20
409.245634504984
 30
0.0
 40
52.5
100
AcDbArc
 50
17.92021393802706
 51
72.24720986428152
  0
ARC
  5
ACD
330
2
100
AcDbEntity
  8
0
 48
0.5
100
AcDbCircle
 10
1437.397922836558
 20
409.245634504984
 30
0.0
 40
52.5
100
AcDbArc
 50
72.24720986428152
 51
102.3325369910477
  0
ARC
  5
ACE
330
2
100
AcDbEntity
  8
HIDS
  6
SEKKEI_H
100
AcDbCircle
 10
1437.397922836558
 20
409.245634504984
 30
0.0
 40
52.5
100
AcDbArc
 50
102.3325369910477
 51
162.0797860095962
  0
ARC
  5
ACF
330
2
100
AcDbEntity
  8
HIDS
  6
SEKKEI_H
100
AcDbCircle
 10
1403.795733250109
 20
453.4173772258273
 30
0.0
 40
3.0
100
AcDbArc
 50
307.2608602757739
 51
358.9999999999461
  0
ARC
  5
AD8
330
2
100
AcDbEntity
  8
HIDS
  6
SEKKEI_H
100
AcDbCircle
 10
1437.397922843877
 20
409.2456345285691
 30
0.0
 40
52.5
100
AcDbArc
 50
197.9202139639698
 51
252.2472098962363
  0
ARC
  5
AD9
330
2
100
AcDbEntity
  8
0
 48
0.5
100
AcDbCircle
 10
1437.397922843877
 20
409.2456345285691
 30
0.0
 40
52.5
100
AcDbArc
 50
252.2472098962363
 51
287.7527901037637
  0
ARC
  5
ADA
330
2
100
AcDbEntity
  8
HIDS
  6
SEKKEI_H
100
AcDbCircle
 10
1437.397922843877
 20
409.2456345285691
 30
0.0
 40
52.5
100
AcDbArc
 50
287.7527901037637
 51
342.0797860360301
  0
LINE
  5
AE3
330
2
100
AcDbEntity
  8
HIDS
  6
SEKKEI_H
100
AcDbLine
 10
1406.863621979517
 20
457.2805393251865
 30
0.0
 11
1406.795276335578
 21
453.3650200065125
 31
0.0
  0
LINE
  5
AE4
330
2
100
AcDbEntity
  8
0
100
AcDbLine
 10
1487.479245287762
 20
469.2456345049931
 30
0.0
 11
1387.316600399993
 21
469.245634504995
 31
0.0
  0
LINE
  5
AE5
330
2
100
AcDbEntity
  8
0
100
AcDbLine
 10
1377.316950377525
 20
459.3292970901575
 30
0.0
 11
1376.897922843873
 21
409.2456345049859
 31
0.0
  0
ARC
  5
AE6
330
2
100
AcDbEntity
  8
0
100
AcDbCircle
 10
1387.316600399993
 20
459.2456345049949
 30
0.0
 40
10.0
100
AcDbArc
 50
90.0
 51
179.5206431045574
  0
LINE
  5
AE7
330
2
100
AcDbEntity
  8
0
100
AcDbLine
 10
1387.316600399993
 20
349.2456345049877
 30
0.0
 11
1487.479245287762
 21
349.2456345049868
 31
0.0
  0
LINE
  5
AE8
330
2
100
AcDbEntity
  8
0
100
AcDbLine
 10
1377.316950377525
 20
359.1619719198151
 30
0.0
 11
1376.897922843873
 21
409.2456345049868
 31
0.0
  0
ARC
  5
AE9
330
2
100
AcDbEntity
  8
0
100
AcDbCircle
 10
1387.316600399993
 20
359.2456345049786
 30
0.0
 40
10.0
100
AcDbArc
 50
180.4793568954686
 51
270.0
  0
LINE
  5
AEA
330
2
100
AcDbEntity
  8
0
100
AcDbLine
 10
1497.47889531023
 20
459.3292970901575
 30
0.0
 11
1497.897922843881
 21
409.2456345049859
 31
0.0
  0
ARC
  5
AEB
330
2
100
AcDbEntity
  8
0
100
AcDbCircle
 10
1487.479245287762
 20
459.2456345049949
 30
0.0
 40
10.0
100
AcDbArc
 50
0.4793568954425761
 51
90.0
  0
LINE
  5
AEC
330
2
100
AcDbEntity
  8
0
100
AcDbLine
 10
1497.47889531023
 20
359.1619719198161
 30
0.0
 11
1497.897922843881
 21
409.2456345049868
 31
0.0
  0
ARC
  5
AED
330
2
100
AcDbEntity
  8
0
100
AcDbCircle
 10
1487.479245287762
 20
359.2456345049786
 30
0.0
 40
10.0
100
AcDbArc
 50
270.0
 51
359.5206431045313
  0
LINE
  5
AEE
330
2
100
AcDbEntity
  8
0
100
AcDbLine
 10
1387.397922843876
 20
409.2456345049859
 30
0.0
 11
1387.520163928987
 21
451.2689055361847
 31
0.0
  0
ARC
  5
AEF
330
2
100
AcDbEntity
  8
0
100
AcDbCircle
 10
1395.520130082631
 20
451.2456345123101
 30
0.0
 40
8.0
100
AcDbArc
 50
90.0
 51
179.8333333333378
  0
LINE
  5
AF0
330
2
100
AcDbEntity
  8
0
100
AcDbLine
 10
1487.397922843878
 20
409.2456345049859
 30
0.0
 11
1487.275681758809
 21
367.2223634884348
 31
0.0
  0
ARC
  5
AF1
330
2
100
AcDbEntity
  8
0
100
AcDbCircle
 10
1479.275715605164
 20
367.24563451231
 30
0.0
 40
8.0
100
AcDbArc
 50
270.0
 51
359.8333333333378
  0
LINE
  5
AF2
330
2
100
AcDbEntity
  8
0
100
AcDbLine
 10
1387.397922843876
 20
409.2456345049859
 30
0.0
 11
1387.520163928945
 21
367.2223634884353
 31
0.0
  0
ARC
  5
AF3
330
2
100
AcDbEntity
  8
0
100
AcDbCircle
 10
1395.520130082588
 20
367.24563451231
 30
0.0
 40
8.0
100
AcDbArc
 50
180.1666666666621
 51
270.0
  0
LINE
  5
AF4
330
2
100
AcDbEntity
  8
0
100
AcDbLine
 10
1487.397922843878
 20
409.2456345049859
 30
0.0
 11
1497.897922843881
 21
409.2456345049868
 31
0.0
  0
LINE
  5
AF5
330
2
100
AcDbEntity
  8
0
100
AcDbLine
 10
1387.397922843876
 20
409.2456345049859
 30
0.0
 11
1376.897922843873
 21
409.2456345049868
 31
0.0
  0
LINE
  5
AF6
330
2
100
AcDbEntity
  8
CENTER
100
AcDbLine
 10
1476.291844127775
 20
458.3895557986934
 30
0.0
 11
1496.791844127775
 21
458.3895557986934
 31
0.0
  0
LINE
  5
AF7
330
2
100
AcDbEntity
  8
CENTER
100
AcDbLine
 10
1486.541844127775
 20
448.1395557986943
 30
0.0
 11
1486.541844127775
 21
468.6395557986943
 31
0.0
  0
LINE
  5
AF8
330
2
100
AcDbEntity
  8
CENTER
100
AcDbLine
 10
1388.254001550169
 20
448.1395557888849
 30
0.0
 11
1388.254001550169
 21
468.6395557888849
 31
0.0
  0
LINE
  5
AF9
330
2
100
AcDbEntity
  8
CENTER
100
AcDbLine
 10
1398.504001550168
 20
458.3895557888849
 30
0.0
 11
1378.004001550168
 21
458.3895557888849
 31
0.0
  0
LINE
  5
AFA
330
2
100
AcDbEntity
  8
CENTER
100
AcDbLine
 10
1398.504001559978
 20
360.1017132112783
 30
0.0
 11
1378.004001559979
 21
360.1017132112783
 31
0.0
  0
LINE
  5
AFB
330
2
100
AcDbEntity
  8
CENTER
100
AcDbLine
 10
1388.254001559978
 20
370.3517132112774
 30
0.0
 11
1388.254001559978
 21
349.8517132112774
 31
0.0
  0
LINE
  5
AFC
330
2
100
AcDbEntity
  8
0
100
AcDbLine
 10
1487.397922851202
 20
409.2456345049859
 30
0.0
 11
1488.897922851201
 21
409.2456345054134
 31
0.0
  0
LINE
  5
AFD
330
2
100
AcDbEntity
  8
0
100
AcDbLine
 10
1385.897922844246
 20
409.2456345049845
 30
0.0
 11
1387.397922844246
 21
409.2456345049836
 31
0.0
  0
LINE
  5
AFE
330
2
100
AcDbEntity
  8
0
100
AcDbLine
 10
1487.397922844247
 20
409.2456345045571
 30
0.0
 11
1488.897922844246
 21
409.2456345049845
 31
0.0
  0
CIRCLE
  5
B00
330
2
100
AcDbEntity
  8
0
100
AcDbCircle
 10
1437.397922836558
 20
409.245634504984
 30
0.0
 40
40.49999999999863
  0
CIRCLE
  5
B01
330
2
100
AcDbEntity
  8
0
100
AcDbCircle
 10
1437.397922843878
 20
409.2456345049859
 30
0.0
 40
40.99999999999863
  0
CIRCLE
  5
B02
330
2
100
AcDbEntity
  8
0
100
AcDbCircle
 10
1437.397922843877
 20
409.2456345049859
 30
0.0
 40
45.50000000000363
  0
CIRCLE
  5
B03
330
2
100
AcDbEntity
  8
0
100
AcDbCircle
 10
1437.397922843877
 20
409.2456345049859
 30
0.0
 40
46.49999999999929
  0
CIRCLE
  5
B04
330
2
100
AcDbEntity
  8
0
100
AcDbCircle
 10
1437.397922843878
 20
409.2456345049859
 30
0.0
 40
47.50000000000182
  0
ARC
  5
B05
330
2
100
AcDbEntity
  8
HIDS
  6
SEKKEI_H
100
AcDbCircle
 10
1465.932528315
 20
457.245634505347
 30
0.0
 40
2.0
100
AcDbArc
 50
0.9999999860472865
 51
89.9999999860084
  0
ARC
  5
B06
330
2
100
AcDbEntity
  8
HIDS
  6
SEKKEI_H
100
AcDbCircle
 10
1471.000112433785
 20
453.4173772176277
 30
0.0
 40
3.0
100
AcDbArc
 50
180.9999999860603
 51
232.7391397102463
  0
LINE
  5
B07
330
2
100
AcDbEntity
  8
HIDS
  6
SEKKEI_H
100
AcDbLine
 10
1467.93222370532
 20
457.2805393177354
 30
0.0
 11
1468.000569348303
 21
453.3650199990452
 31
0.0
  0
ARC
  5
B08
330
2
100
AcDbEntity
  8
HIDS
  6
SEKKEI_H
100
AcDbCircle
 10
1408.863317369829
 20
361.2456344976617
 30
0.0
 40
2.0
100
AcDbArc
 50
181.0000000000278
 51
270.0
  0
ARC
  5
B09
330
2
100
AcDbEntity
  8
HIDS
  6
SEKKEI_H
100
AcDbCircle
 10
1403.795733250109
 20
365.0738917841445
 30
0.0
 40
3.0
100
AcDbArc
 50
1.000000000053862
 51
52.73913972425674
  0
LINE
  5
B0A
330
2
100
AcDbEntity
  8
HIDS
  6
SEKKEI_H
100
AcDbLine
 10
1406.863621979517
 20
361.2107296847852
 30
0.0
 11
1406.795276335578
 21
365.1262490034592
 31
0.0
  0
ARC
  5
B0B
330
2
100
AcDbEntity
  8
HIDS
  6
SEKKEI_H
100
AcDbCircle
 10
1465.932528315
 20
361.2456345046248
 30
0.0
 40
2.0
100
AcDbArc
 50
270.0000000139655
 51
359.0000000139527
  0
ARC
  5
B0C
330
2
100
AcDbEntity
  8
HIDS
  6
SEKKEI_H
100
AcDbCircle
 10
1471.000112433785
 20
365.073891792344
 30
0.0
 40
3.0
100
AcDbArc
 50
127.2608602897536
 51
179.0000000139266
  0
LINE
  5
B0D
330
2
100
AcDbEntity
  8
HIDS
  6
SEKKEI_H
100
AcDbLine
 10
1467.93222370532
 20
361.2107296922363
 30
0.0
 11
1468.000569348303
 21
365.126249010927
 31
0.0
  0
LINE
  5
B0E
330
2
100
AcDbEntity
  8
HIDS
  6
SEKKEI_H
100
AcDbLine
 10
1422.944276040023
 20
447.0787165137353
 30
0.0
 11
1423.156650383663
 21
459.2456345123098
 31
0.0
  0
LINE
  5
B0F
330
2
100
AcDbEntity
  8
HIDS
  6
SEKKEI_H
100
AcDbLine
 10
1411.961835512809
 20
440.7615901728445
 30
0.0
 11
1411.639195318732
 21
459.2456345123101
 31
0.0
  0
LINE
  5
B2D
330
2
100
AcDbEntity
  8
0
100
AcDbLine
 10
274.2819854187928
 20
469.245634504988
 30
0.0
 11
274.2819854187928
 21
349.2456345049861
 31
0.0
  0
LINE
  5
B2E
330
2
100
AcDbEntity
  8
0
100
AcDbLine
 10
274.2819854187928
 20
469.2456345049871
 30
0.0
 11
262.2446838407213
 21
469.2456345049889
 31
0.0
  0
LINE
  5
B2F
330
2
100
AcDbEntity
  8
0
100
AcDbLine
 10
274.2819854187928
 20
349.2456345049861
 30
0.0
 11
262.2446838407213
 21
349.2456345049843
 31
0.0
  0
LINE
  5
B30
330
2
100
AcDbEntity
  8
0
100
AcDbLine
 10
223.9535582940425
 20
459.2456345049761
 30
0.0
 11
189.7819854187946
 21
459.2456345049837
 31
0.0
  0
LINE
  5
B31
330
2
100
AcDbEntity
  8
0
 48
0.5
100
AcDbLine
 10
223.9535582940434
 20
359.2456345049853
 30
0.0
 11
189.7819854187937
 21
359.2456345049859
 31
0.0
  0
ARC
  5
B32
330
2
100
AcDbEntity
  8
0
 48
0.5
100
AcDbCircle
 10
202.8168376461512
 20
361.2456345049861
 30
0.0
 40
2.0
100
AcDbArc
 50
270.0
 51
358.9999999999982
  0
LINE
  5
B33
330
2
100
AcDbEntity
  8
0
100
AcDbLine
 10
189.7819854187937
 20
359.2456345049859
 30
0.0
 11
189.7819854187946
 21
459.2456345049834
 31
0.0
  0
LINE
  5
B34
330
2
100
AcDbEntity
  8
0
100
AcDbLine
 10
260.2479884504087
 20
351.2107296921097
 30
0.0
 11
259.2349854187937
 21
409.2456345049853
 31
0.0
  0
ARC
  5
B35
330
2
100
AcDbEntity
  8
0
100
AcDbCircle
 10
262.2476838407215
 20
351.2456345049843
 30
0.0
 40
2.0
100
AcDbArc
 50
181.0000000000017
 51
270.0
  0
ARC
  5
B36
330
2
100
AcDbEntity
  8
0
100
AcDbCircle
 10
252.5622254752024
 20
348.7456345049853
 30
0.0
 40
8.0
100
AcDbArc
 50
14.47751218592939
 51
52.60898312771404
  0
LINE
  5
B37
330
2
100
AcDbEntity
  8
0
100
AcDbLine
 10
205.0734944510054
 20
375.9320392716793
 30
0.0
 11
204.816533036464
 21
361.2107296921115
 31
0.0
  0
ARC
  5
B38
330
2
100
AcDbEntity
  8
0
100
AcDbCircle
 10
208.0676977278312
 20
375.7456345049861
 30
0.0
 40
3.0
100
AcDbArc
 50
90.0
 51
178.9999999999982
  0
LINE
  5
B39
330
2
100
AcDbEntity
  8
CENTER
100
AcDbLine
 10
208.2819854187955
 20
452.8973602083523
 30
0.0
 11
208.2819854187955
 21
467.4687196296025
 31
0.0
  0
LINE
  5
B3A
330
2
100
AcDbEntity
  8
0
100
AcDbLine
 10
274.2819854187928
 20
409.2456345049861
 30
0.0
 11
189.7819854187941
 21
409.2456345049859
 31
0.0
  0
LINE
  5
B3B
330
2
100
AcDbEntity
  8
0
 48
0.5
100
AcDbLine
 10
252.5622254752033
 20
356.7456345049852
 30
0.0
 11
228.1104125435376
 21
356.745634504987
 31
0.0
  0
LINE
  5
B3C
330
2
100
AcDbEntity
  8
0
 48
0.5
100
AcDbLine
 10
252.5622254752033
 20
461.7456345049862
 30
0.0
 11
228.1104125435376
 21
461.7456345049834
 31
0.0
  0
LINE
  5
B3D
330
2
100
AcDbEntity
  8
0
100
AcDbLine
 10
225.3677718564131
 20
459.8314209426046
 30
0.0
 11
226.6961989811661
 21
461.1598480673568
 31
0.0
  0
ARC
  5
B3E
330
2
100
AcDbEntity
  8
0
100
AcDbCircle
 10
228.1104125435376
 20
459.7456345049844
 30
0.0
 40
2.0
100
AcDbArc
 50
90.0
 51
135.0000000000832
  0
ARC
  5
B3F
330
2
100
AcDbEntity
  8
0
100
AcDbCircle
 10
223.9535582940434
 20
461.2456345049753
 30
0.0
 40
2.0
100
AcDbArc
 50
269.9999999999478
 51
315.0000000000833
  0
LINE
  5
B40
330
2
100
AcDbEntity
  8
0
100
AcDbLine
 10
225.3677718564131
 20
358.6598480673677
 30
0.0
 11
226.6961989811661
 21
357.3314209426155
 31
0.0
  0
ARC
  5
B41
330
2
100
AcDbEntity
  8
0
100
AcDbCircle
 10
228.1104125435376
 20
358.745634504988
 30
0.0
 40
2.0
100
AcDbArc
 50
224.9999999999166
 51
270.0
  0
ARC
  5
B42
330
2
100
AcDbEntity
  8
0
100
AcDbCircle
 10
223.9535582940434
 20
357.2456345049971
 30
0.0
 40
2.0
100
AcDbArc
 50
44.9999999999167
 51
90.00000000005213
  0
LINE
  5
B43
330
2
100
AcDbEntity
  8
0
100
AcDbLine
 10
260.2479884504087
 20
467.2805393178621
 30
0.0
 11
259.2349854187937
 21
409.2456345049866
 31
0.0
  0
ARC
  5
B44
330
2
100
AcDbEntity
  8
0
100
AcDbCircle
 10
262.2476838407215
 20
467.2456345049875
 30
0.0
 40
2.0
100
AcDbArc
 50
90.0
 51
178.9999999999721
  0
ARC
  5
B45
330
2
100
AcDbEntity
  8
0
100
AcDbCircle
 10
252.5622254752024
 20
469.7456345049866
 30
0.0
 40
8.0
100
AcDbArc
 50
307.3910167566215
 51
345.5224878140705
  0
ARC
  5
B46
330
2
100
AcDbEntity
  8
0
 48
0.5
100
AcDbCircle
 10
202.8168376461512
 20
457.2456345049862
 30
0.0
 40
2.0
100
AcDbArc
 50
1.000000000027831
 51
90.0
  0
LINE
  5
B47
330
2
100
AcDbEntity
  8
0
100
AcDbLine
 10
205.0734944510045
 20
442.5592297382952
 30
0.0
 11
204.816533036464
 21
457.2805393178608
 31
0.0
  0
ARC
  5
B48
330
2
100
AcDbEntity
  8
0
100
AcDbCircle
 10
208.0676977278303
 20
442.7456345049861
 30
0.0
 40
3.0
100
AcDbArc
 50
181.0000000000017
 51
270.0
  0
ARC
  5
B49
330
2
100
AcDbEntity
  8
0
 48
0.5
100
AcDbCircle
 10
222.8165908925616
 20
361.2456345049848
 30
0.0
 40
2.0
100
AcDbArc
 50
270.0
 51
358.9999999999982
  0
LINE
  5
B4A
330
2
100
AcDbEntity
  8
0
100
AcDbLine
 10
224.8162862828753
 20
361.2107296921106
 30
0.0
 11
224.8590081123525
 21
363.6582616636649
 31
0.0
  0
LINE
  5
B4B
330
2
100
AcDbEntity
  8
0
100
AcDbLine
 10
227.8585511978212
 20
366.6059044443516
 30
0.0
 11
207.9077061620641
 21
366.6059044443516
 31
0.0
  0
ARC
  5
B4C
330
2
100
AcDbEntity
  8
0
100
AcDbCircle
 10
227.8585511978212
 20
363.605904444353
 30
0.0
 40
3.0
100
AcDbArc
 50
90.0
 51
179.0000000000242
  0
ARC
  5
B4D
330
2
100
AcDbEntity
  8
0
 48
0.5
100
AcDbCircle
 10
222.8165908925616
 20
457.2456345049875
 30
0.0
 40
2.0
100
AcDbArc
 50
0.9999999999756957
 51
90.0
  0
LINE
  5
B4E
330
2
100
AcDbEntity
  8
0
100
AcDbLine
 10
224.8162862828753
 20
457.2805393178617
 30
0.0
 11
224.8590081123525
 21
454.8330073463073
 31
0.0
  0
LINE
  5
B4F
330
2
100
AcDbEntity
  8
0
100
AcDbLine
 10
227.8585511978212
 20
451.8853645656206
 30
0.0
 11
207.9077061620641
 21
451.8853645656206
 31
0.0
  0
ARC
  5
B50
330
2
100
AcDbEntity
  8
0
100
AcDbCircle
 10
227.8585511978212
 20
454.8853645656193
 30
0.0
 40
3.0
100
AcDbArc
 50
180.9999999999757
 51
270.0
  0
LINE
  5
B51
330
2
100
AcDbEntity
  8
0
100
AcDbLine
 10
222.566177858675
 20
378.7456345049861
 30
0.0
 11
208.0676977278312
 21
378.7456345049861
 31
0.0
  0
LINE
  5
B52
330
2
100
AcDbEntity
  8
0
100
AcDbLine
 10
222.566177858675
 20
439.7456345049866
 30
0.0
 11
208.0676977278303
 21
439.7456345049861
 31
0.0
  0
LINE
  5
B53
330
2
100
AcDbEntity
  8
0
100
AcDbLine
 10
224.7819854187941
 20
393.0917876082283
 30
0.0
 11
224.5000189723709
 21
409.2456345049861
 31
0.0
  0
LINE
  5
B54
330
2
100
AcDbEntity
  8
0
100
AcDbLine
 10
224.5658732489878
 20
380.7107296921115
 30
0.0
 11
224.7819854187933
 21
393.0917876082283
 31
0.0
  0
ARC
  5
B55
330
2
100
AcDbEntity
  8
0
100
AcDbCircle
 10
222.566177858675
 20
380.7456345049861
 30
0.0
 40
2.0
100
AcDbArc
 50
270.0
 51
358.9999999999982
  0
LINE
  5
B56
330
2
100
AcDbEntity
  8
0
100
AcDbLine
 10
224.7819854187941
 20
425.399481401744
 30
0.0
 11
224.5000189723709
 21
409.2456345049861
 31
0.0
  0
LINE
  5
B57
330
2
100
AcDbEntity
  8
0
100
AcDbLine
 10
224.5658732489878
 20
437.7805393178608
 30
0.0
 11
224.7819854187933
 21
425.399481401744
 31
0.0
  0
ARC
  5
B58
330
2
100
AcDbEntity
  8
0
100
AcDbCircle
 10
222.566177858675
 20
437.7456345049862
 30
0.0
 40
2.0
100
AcDbArc
 50
1.00000000000175
 51
90.0
  0
LINE
  5
B5D
330
2
100
AcDbEntity
  8
0
100
AcDbLine
 10
213.2819854187955
 20
463.2456345049802
 30
0.0
 11
203.2819854187955
 21
463.2456345049802
 31
0.0
  0
ARC
  5
B5E
330
2
100
AcDbEntity
  8
0
100
AcDbCircle
 10
203.2819854187955
 20
459.2456345049803
 30
0.0
 40
4.0
100
AcDbArc
 50
90.0
 51
180.0
  0
ARC
  5
B5F
330
2
100
AcDbEntity
  8
0
100
AcDbCircle
 10
213.2819854187955
 20
459.2456345049803
 30
0.0
 40
4.0
100
AcDbArc
 50
0.0
 51
90.0
  0
LINE
  5
B60
330
2
100
AcDbEntity
  8
0
100
AcDbLine
 10
1422.397922851198
 20
463.2456345123101
 30
0.0
 11
1412.397922851197
 21
463.2456345123101
 31
0.0
  0
ARC
  5
B61
330
2
100
AcDbEntity
  8
0
100
AcDbCircle
 10
1412.397922851197
 20
459.2456345123101
 30
0.0
 40
4.0
100
AcDbArc
 50
90.0
 51
180.0
  0
ARC
  5
B62
330
2
100
AcDbEntity
  8
0
100
AcDbCircle
 10
1422.397922851198
 20
459.2456345123101
 30
0.0
 40
4.0
100
AcDbArc
 50
0.0
 51
90.0
  0
CIRCLE
  5
B63
330
2
100
AcDbEntity
  8
0
100
AcDbCircle
 10
1119.559171748526
 20
761.027606299777
 30
0.0
 40
9.0
  0
LINE
  5
B64
330
2
100
AcDbEntity
  8
0
100
AcDbLine
 10
1067.559171748522
 20
824.4215275910008
 30
0.0
 11
1069.059171748522
 21
824.4215275910008
 31
0.0
  0
LINE
  5
B65
330
2
100
AcDbEntity
  8
0
100
AcDbLine
 10
1067.559171748522
 20
835.9215275910008
 30
0.0
 11
1069.059171748523
 21
835.9215275910008
 31
0.0
  0
LINE
  5
B66
330
2
100
AcDbEntity
  8
0
100
AcDbLine
 10
1074.659171748522
 20
825.1715275910008
 30
0.0
 11
1075.059171748522
 21
825.864347914028
 31
0.0
  0
LINE
  5
B67
330
2
100
AcDbEntity
  8
0
100
AcDbLine
 10
1069.059171748522
 20
824.4215275910008
 30
0.0
 11
1069.059171748523
 21
835.9215275910008
 31
0.0
  0
LINE
  5
B68
330
2
100
AcDbEntity
  8
0
100
AcDbLine
 10
1074.659171748522
 20
825.1715275910008
 30
0.0
 11
1074.659171748522
 21
835.1715275910008
 31
0.0
  0
LINE
  5
B69
330
2
100
AcDbEntity
  8
0
100
AcDbLine
 10
1069.059171748522
 20
825.1715275910008
 30
0.0
 11
1074.659171748522
 21
825.1715275910008
 31
0.0
  0
LINE
  5
B6A
330
2
100
AcDbEntity
  8
0
100
AcDbLine
 10
1069.059171748523
 20
835.1715275910008
 30
0.0
 11
1074.659171748522
 21
835.1715275910008
 31
0.0
  0
LINE
  5
B6B
330
2
100
AcDbEntity
  8
0
100
AcDbLine
 10
1074.659171748522
 20
835.1715275910008
 30
0.0
 11
1075.059171748522
 21
834.4787072679734
 31
0.0
  0
LINE
  5
B6C
330
2
100
AcDbEntity
  8
0
100
AcDbLine
 10
1075.059171748522
 20
825.864347914028
 30
0.0
 11
1075.059171748522
 21
834.4787072679734
 31
0.0
  0
LINE
  5
B6D
330
2
100
AcDbEntity
  8
0
 48
12.0
100
AcDbLine
 10
1067.559171748522
 20
835.9215275910008
 30
0.0
 11
1067.559171748522
 21
824.4215275910008
 31
0.0
  0
LINE
  5
B82
330
2
100
AcDbEntity
  8
0
100
AcDbLine
 10
259.9924291324678
 20
365.8517132112786
 30
0.0
 11
258.4924291324673
 21
365.8517132112786
 31
0.0
  0
LINE
  5
B83
330
2
100
AcDbEntity
  8
0
100
AcDbLine
 10
259.9924291324678
 20
354.3517132112786
 30
0.0
 11
258.4924291324668
 21
354.3517132112786
 31
0.0
  0
LINE
  5
B84
330
2
100
AcDbEntity
  8
0
100
AcDbLine
 10
252.8924291324674
 20
365.1017132112786
 30
0.0
 11
252.4924291324678
 21
364.4088928882514
 31
0.0
  0
LINE
  5
B85
330
2
100
AcDbEntity
  8
0
100
AcDbLine
 10
258.4924291324673
 20
365.8517132112786
 30
0.0
 11
258.4924291324668
 21
354.3517132112786
 31
0.0
  0
LINE
  5
B86
330
2
100
AcDbEntity
  8
0
100
AcDbLine
 10
252.8924291324674
 20
365.1017132112786
 30
0.0
 11
252.8924291324674
 21
355.1017132112786
 31
0.0
  0
LINE
  5
B87
330
2
100
AcDbEntity
  8
0
100
AcDbLine
 10
258.4924291324673
 20
365.1017132112786
 30
0.0
 11
252.8924291324674
 21
365.1017132112786
 31
0.0
  0
LINE
  5
B88
330
2
100
AcDbEntity
  8
0
100
AcDbLine
 10
258.4924291324668
 20
355.1017132112786
 30
0.0
 11
252.8924291324674
 21
355.1017132112786
 31
0.0
  0
LINE
  5
B89
330
2
100
AcDbEntity
  8
0
100
AcDbLine
 10
252.8924291324674
 20
355.1017132112786
 30
0.0
 11
252.4924291324678
 21
355.7945335343059
 31
0.0
  0
LINE
  5
B8A
330
2
100
AcDbEntity
  8
0
100
AcDbLine
 10
252.4924291324678
 20
364.4088928882514
 30
0.0
 11
252.4924291324678
 21
355.7945335343059
 31
0.0
  0
LINE
  5
B8B
330
2
100
AcDbEntity
  8
0
 48
12.0
100
AcDbLine
 10
259.9924291324678
 20
354.3517132112786
 30
0.0
 11
259.9924291324678
 21
365.8517132112786
 31
0.0
  0
LINE
  5
B8C
330
2
100
AcDbEntity
  8
0
100
AcDbLine
 10
259.9924291322968
 20
464.1395557888852
 30
0.0
 11
258.4924291322963
 21
464.1395557888852
 31
0.0
  0
LINE
  5
B8D
330
2
100
AcDbEntity
  8
0
100
AcDbLine
 10
259.9924291322963
 20
452.6395557888853
 30
0.0
 11
258.4924291322959
 21
452.6395557888853
 31
0.0
  0
LINE
  5
B8E
330
2
100
AcDbEntity
  8
0
100
AcDbLine
 10
252.8924291322964
 20
463.3895557888853
 30
0.0
 11
252.4924291322968
 21
462.696735465858
 31
0.0
  0
LINE
  5
B8F
330
2
100
AcDbEntity
  8
0
100
AcDbLine
 10
258.4924291322963
 20
464.1395557888852
 30
0.0
 11
258.4924291322959
 21
452.6395557888853
 31
0.0
  0
LINE
  5
B90
330
2
100
AcDbEntity
  8
0
100
AcDbLine
 10
252.8924291322964
 20
463.3895557888853
 30
0.0
 11
252.8924291322959
 21
453.3895557888852
 31
0.0
  0
LINE
  5
B91
330
2
100
AcDbEntity
  8
0
100
AcDbLine
 10
258.4924291322963
 20
463.3895557888853
 30
0.0
 11
252.8924291322964
 21
463.3895557888853
 31
0.0
  0
LINE
  5
B92
330
2
100
AcDbEntity
  8
0
100
AcDbLine
 10
258.4924291322959
 20
453.3895557888852
 30
0.0
 11
252.8924291322959
 21
453.3895557888852
 31
0.0
  0
LINE
  5
B93
330
2
100
AcDbEntity
  8
0
100
AcDbLine
 10
252.8924291322959
 20
453.3895557888852
 30
0.0
 11
252.4924291322963
 21
454.0823761119125
 31
0.0
  0
LINE
  5
B94
330
2
100
AcDbEntity
  8
0
100
AcDbLine
 10
252.4924291322968
 20
462.696735465858
 30
0.0
 11
252.4924291322963
 21
454.0823761119125
 31
0.0
  0
LINE
  5
B95
330
2
100
AcDbEntity
  8
0
 48
12.0
100
AcDbLine
 10
259.9924291322963
 20
452.6395557888853
 30
0.0
 11
259.9924291322968
 21
464.1395557888852
 31
0.0
  0
ARC
  5
B96
330
2
100
AcDbEntity
  8
0
100
AcDbCircle
 10
1486.541844127771
 20
458.3895557986934
 30
0.0
 40
5.000000000000113
100
AcDbArc
 50
275.0016630384152
 51
174.0265442060207
  0
ARC
  5
B97
330
2
100
AcDbEntity
  8
0
100
AcDbCircle
 10
1486.541844127771
 20
458.3895557986934
 30
0.0
 40
4.307179676972509
100
AcDbArc
 50
272.8219851704368
 51
176.2062220740109
  0
LINE
  5
B98
330
2
100
AcDbEntity
  8
0
100
AcDbLine
 10
1489.041844127771
 20
459.8329314716675
 30
0.0
 11
1489.041844127771
 21
456.9461801257193
 31
0.0
  0
LINE
  5
B99
330
2
100
AcDbEntity
  8
0
100
AcDbLine
 10
1486.541844127771
 20
455.5028044527452
 30
0.0
 11
1489.041844127771
 21
456.9461801257193
 31
0.0
  0
LINE
  5
B9A
330
2
100
AcDbEntity
  8
0
100
AcDbLine
 10
1489.041844127771
 20
459.8329314716675
 30
0.0
 11
1486.541844127771
 21
461.2763071446416
 31
0.0
  0
LINE
  5
B9B
330
2
100
AcDbEntity
  8
0
100
AcDbLine
 10
1484.041844127771
 20
459.8329314716675
 30
0.0
 11
1484.041844127771
 21
457.6708986240491
 31
0.0
  0
LINE
  5
B9C
330
2
100
AcDbEntity
  8
0
100
AcDbLine
 10
1486.541844127771
 20
455.5028044527452
 30
0.0
 11
1485.731099161074
 21
455.9708882775116
 31
0.0
  0
LINE
  5
B9D
330
2
100
AcDbEntity
  8
0
100
AcDbLine
 10
1484.041844127771
 20
459.8329314716675
 30
0.0
 11
1486.541844127771
 21
461.2763071446416
 31
0.0
  0
ARC
  5
B9E
330
2
100
AcDbEntity
  8
0
 48
12.0
100
AcDbCircle
 10
1486.541844127775
 20
458.3895557986934
 30
0.0
 40
5.749999999999829
100
AcDbArc
 50
276.0473863444506
 51
172.9808208999609
  0
ARC
  5
B9F
330
2
100
AcDbEntity
  8
0
100
AcDbCircle
 10
1388.254001550165
 20
458.3895557888849
 30
0.0
 40
5.000000000000113
100
AcDbArc
 50
5.973455870735787
 51
264.9983370408858
  0
ARC
  5
BA0
330
2
100
AcDbEntity
  8
0
100
AcDbCircle
 10
1388.254001550165
 20
458.3895557888849
 30
0.0
 40
4.307179676972509
100
AcDbArc
 50
3.793778002432669
 51
267.1780149091799
  0
LINE
  5
BA1
330
2
100
AcDbEntity
  8
0
100
AcDbLine
 10
1390.754001550165
 20
459.832931461859
 30
0.0
 11
1390.754001550165
 21
457.6708986167659
 31
0.0
  0
LINE
  5
BA2
330
2
100
AcDbEntity
  8
0
100
AcDbLine
 10
1388.254001550165
 20
455.5028044429368
 30
0.0
 11
1389.064746521431
 21
455.9708882703416
 31
0.0
  0
LINE
  5
BA3
330
2
100
AcDbEntity
  8
0
100
AcDbLine
 10
1390.754001550165
 20
459.832931461859
 30
0.0
 11
1388.254001550165
 21
461.2763071348331
 31
0.0
  0
LINE
  5
BA4
330
2
100
AcDbEntity
  8
0
100
AcDbLine
 10
1385.754001550165
 20
459.832931461859
 30
0.0
 11
1385.754001550165
 21
456.9461801159109
 31
0.0
  0
LINE
  5
BA5
330
2
100
AcDbEntity
  8
0
100
AcDbLine
 10
1388.254001550165
 20
455.5028044429368
 30
0.0
 11
1385.754001550165
 21
456.9461801159109
 31
0.0
  0
LINE
  5
BA6
330
2
100
AcDbEntity
  8
0
100
AcDbLine
 10
1385.754001550165
 20
459.832931461859
 30
0.0
 11
1388.254001550165
 21
461.2763071348331
 31
0.0
  0
ARC
  5
BA7
330
2
100
AcDbEntity
  8
0
 48
12.0
100
AcDbCircle
 10
1388.254001550169
 20
458.3895557888849
 30
0.0
 40
5.749999999999829
100
AcDbArc
 50
7.019179177061215
 51
263.9526137345189
  0
ARC
  5
BA8
330
2
100
AcDbEntity
  8
0
100
AcDbCircle
 10
1388.254001559974
 20
360.1017132112783
 30
0.0
 40
5.000000000000113
100
AcDbArc
 50
95.00166299261826
 51
354.02654436956
  0
ARC
  5
BA9
330
2
100
AcDbEntity
  8
0
100
AcDbCircle
 10
1388.254001559974
 20
360.1017132112783
 30
0.0
 40
4.307179676972509
100
AcDbArc
 50
92.82198509809822
 51
356.2062222640701
  0
LINE
  5
BAA
330
2
100
AcDbEntity
  8
0
100
AcDbLine
 10
1390.754001559974
 20
360.8203704005459
 30
0.0
 11
1390.754001559974
 21
358.6583375383042
 31
0.0
  0
LINE
  5
BAB
330
2
100
AcDbEntity
  8
0
100
AcDbLine
 10
1388.254001559974
 20
357.2149618653302
 30
0.0
 11
1390.754001559974
 21
358.6583375383042
 31
0.0
  0
LINE
  5
BAC
330
2
100
AcDbEntity
  8
0
100
AcDbLine
 10
1389.064746545182
 20
362.5203807217726
 30
0.0
 11
1388.254001559974
 21
362.9884645572265
 31
0.0
  0
LINE
  5
BAD
330
2
100
AcDbEntity
  8
0
100
AcDbLine
 10
1385.754001559974
 20
361.5450888842524
 30
0.0
 11
1385.754001559974
 21
358.6583375383042
 31
0.0
  0
LINE
  5
BAE
330
2
100
AcDbEntity
  8
0
100
AcDbLine
 10
1388.254001559974
 20
357.2149618653302
 30
0.0
 11
1385.754001559974
 21
358.6583375383042
 31
0.0
  0
LINE
  5
BAF
330
2
100
AcDbEntity
  8
0
100
AcDbLine
 10
1385.754001559974
 20
361.5450888842524
 30
0.0
 11
1388.254001559974
 21
362.9884645572265
 31
0.0
  0
ARC
  5
BB0
330
2
100
AcDbEntity
  8
0
 48
12.0
100
AcDbCircle
 10
1388.254001559978
 20
360.1017132112783
 30
0.0
 40
5.749999999999829
100
AcDbArc
 50
96.04738631879996
 51
352.9808210434277
  0
ARC
  5
BB1
330
2
100
AcDbEntity
  8
0
100
AcDbCircle
 10
1486.541844137581
 20
360.1017132210872
 30
0.0
 40
5.000000000000113
100
AcDbArc
 50
185.9734557072512
 51
84.99833708649967
  0
ARC
  5
BB2
330
2
100
AcDbEntity
  8
0
100
AcDbCircle
 10
1486.541844137581
 20
360.1017132210872
 30
0.0
 40
4.307179676972509
100
AcDbArc
 50
183.7937778124514
 51
87.17801498130979
  0
LINE
  5
BB3
330
2
100
AcDbEntity
  8
0
100
AcDbLine
 10
1489.041844137581
 20
361.5450888940613
 30
0.0
 11
1489.041844137581
 21
358.6583375481132
 31
0.0
  0
LINE
  5
BB4
330
2
100
AcDbEntity
  8
0
100
AcDbLine
 10
1486.541844137581
 20
357.2149618751391
 30
0.0
 11
1489.041844137581
 21
358.6583375481132
 31
0.0
  0
LINE
  5
BB5
330
2
100
AcDbEntity
  8
0
100
AcDbLine
 10
1489.041844137581
 20
361.5450888940613
 30
0.0
 11
1486.541844137581
 21
362.9884645670354
 31
0.0
  0
LINE
  5
BB6
330
2
100
AcDbEntity
  8
0
100
AcDbLine
 10
1484.041844137581
 20
360.8203704078168
 30
0.0
 11
1484.041844137581
 21
358.6583375481132
 31
0.0
  0
LINE
  5
BB7
330
2
100
AcDbEntity
  8
0
100
AcDbLine
 10
1486.541844137581
 20
357.2149618751391
 30
0.0
 11
1484.041844137581
 21
358.6583375481132
 31
0.0
  0
LINE
  5
BB8
330
2
100
AcDbEntity
  8
0
100
AcDbLine
 10
1485.731099147831
 20
362.5203807289594
 30
0.0
 11
1486.541844137581
 21
362.9884645670354
 31
0.0
  0
ARC
  5
BB9
330
2
100
AcDbEntity
  8
0
 48
12.0
100
AcDbCircle
 10
1486.541844137585
 20
360.1017132210872
 30
0.0
 40
5.749999999999829
100
AcDbArc
 50
187.0191790335944
 51
83.95261376019579
  0
LINE
  5
BFA
330
2
100
AcDbEntity
  8
0
100
AcDbLine
 10
1067.559171748522
 20
737.6336850085533
 30
0.0
 11
1069.059171748522
 21
737.6336850085533
 31
0.0
  0
LINE
  5
BFB
330
2
100
AcDbEntity
  8
0
100
AcDbLine
 10
1067.559171748522
 20
726.1336850085533
 30
0.0
 11
1069.059171748523
 21
726.1336850085533
 31
0.0
  0
LINE
  5
BFC
330
2
100
AcDbEntity
  8
0
100
AcDbLine
 10
1074.659171748522
 20
736.8836850085533
 30
0.0
 11
1075.059171748522
 21
736.1908646855261
 31
0.0
  0
LINE
  5
BFD
330
2
100
AcDbEntity
  8
0
100
AcDbLine
 10
1069.059171748522
 20
737.6336850085533
 30
0.0
 11
1069.059171748523
 21
726.1336850085533
 31
0.0
  0
LINE
  5
BFE
330
2
100
AcDbEntity
  8
0
100
AcDbLine
 10
1074.659171748522
 20
736.8836850085533
 30
0.0
 11
1074.659171748522
 21
726.8836850085533
 31
0.0
  0
LINE
  5
BFF
330
2
100
AcDbEntity
  8
0
100
AcDbLine
 10
1069.059171748522
 20
736.8836850085533
 30
0.0
 11
1074.659171748522
 21
736.8836850085533
 31
0.0
  0
LINE
  5
C00
330
2
100
AcDbEntity
  8
0
100
AcDbLine
 10
1069.059171748523
 20
726.8836850085533
 30
0.0
 11
1074.659171748522
 21
726.8836850085533
 31
0.0
  0
LINE
  5
C01
330
2
100
AcDbEntity
  8
0
100
AcDbLine
 10
1074.659171748522
 20
726.8836850085533
 30
0.0
 11
1075.059171748522
 21
727.5765053315806
 31
0.0
  0
LINE
  5
C02
330
2
100
AcDbEntity
  8
0
100
AcDbLine
 10
1075.059171748522
 20
736.1908646855261
 30
0.0
 11
1075.059171748522
 21
727.5765053315806
 31
0.0
  0
LINE
  5
C03
330
2
100
AcDbEntity
  8
0
 48
12.0
100
AcDbLine
 10
1067.559171748522
 20
726.1336850085533
 30
0.0
 11
1067.559171748522
 21
737.6336850085533
 31
0.0
  0
LINE
  5
C04
330
2
100
AcDbEntity
  8
CENTER
  6
CENTERX2
100
AcDbLine
 10
1064.559171748522
 20
830.1715275910012
 30
0.0
 11
1078.059171748523
 21
830.1715275910007
 31
0.0
  0
LINE
  5
C05
330
2
100
AcDbEntity
  8
CENTER
  6
CENTERX2
100
AcDbLine
 10
1064.559171748522
 20
731.8836850085538
 30
0.0
 11
1078.059171748523
 21
731.8836850085533
 31
0.0
  0
LINE
  5
C08
330
2
100
AcDbEntity
  8
CENTER
  6
CENTERX2
100
AcDbLine
 10
262.9924291322968
 20
458.3895557888855
 30
0.0
 11
249.4863198595708
 21
458.3895557888852
 31
0.0
  0
LINE
  5
C09
330
2
100
AcDbEntity
  8
CENTER
  6
CENTERX2
100
AcDbLine
 10
262.9924291324678
 20
360.1017132112788
 30
0.0
 11
249.4863198597418
 21
360.1017132112786
 31
0.0
  0
CIRCLE
  5
C0A
330
2
100
AcDbEntity
  8
0
100
AcDbCircle
 10
1437.397922843879
 20
409.2456345049859
 30
0.0
 40
41.37528389595729
  0
LINE
  5
C0B
330
2
100
AcDbEntity
  8
HIDS
  6
SEKKEI_H
100
AcDbLine
 10
1485.315011008949
 20
378.7456345049836
 30
0.0
 11
1481.647216605696
 21
378.745634504984
 31
0.0
  0
LINE
  5
C0C
330
2
100
AcDbEntity
  8
HIDS
  6
SEKKEI_H
100
AcDbLine
 10
1393.148629082054
 20
378.7456345049845
 30
0.0
 11
1389.4808346788
 21
378.7456345049854
 31
0.0
  0
ARC
  5
C0D
330
2
100
AcDbEntity
  8
HIDS
  6
SEKKEI_H
100
AcDbCircle
 10
1481.647216616228
 20
442.745634504985
 30
0.0
 40
3.0
100
AcDbArc
 50
217.1284250626476
 51
270.0
  0
ARC
  5
C0E
330
2
100
AcDbEntity
  8
HIDS
  6
SEKKEI_H
100
AcDbCircle
 10
1393.148629056881
 20
442.745634504984
 30
0.0
 40
3.0
100
AcDbArc
 50
270.0
 51
322.8715749373655
  0
ARC
  5
C0F
330
2
100
AcDbEntity
  8
HIDS
  6
SEKKEI_H
100
AcDbCircle
 10
1393.148629082054
 20
375.7456345049849
 30
0.0
 40
3.0
100
AcDbArc
 50
37.12842509316087
 51
90.0
  0
ARC
  5
C10
330
2
100
AcDbEntity
  8
HIDS
  6
SEKKEI_H
100
AcDbCircle
 10
1481.647216605695
 20
375.7456345049841
 30
0.0
 40
3.0
100
AcDbArc
 50
90.0
 51
142.8715749068391
  0
ARC
  5
C11
330
2
100
AcDbEntity
  8
HIDS
  6
SEKKEI_H
100
AcDbCircle
 10
1485.315011008949
 20
380.7456345049845
 30
0.0
 40
2.0
100
AcDbArc
 50
270.0
 51
359.8333333333247
  0
ARC
  5
C12
330
2
100
AcDbEntity
  8
HIDS
  6
SEKKEI_H
100
AcDbCircle
 10
1389.4808346788
 20
380.745634504985
 30
0.0
 40
2.0
100
AcDbArc
 50
180.1666666666751
 51
270.0
  0
LINE
  5
C13
330
2
100
AcDbEntity
  8
HIDS
  6
SEKKEI_H
100
AcDbLine
 10
1485.315011008949
 20
439.745634504985
 30
0.0
 11
1481.647216616228
 21
439.7456345049845
 31
0.0
  0
LINE
  5
C14
330
2
100
AcDbEntity
  8
HIDS
  6
SEKKEI_H
100
AcDbLine
 10
1393.148629056881
 20
439.7456345049845
 30
0.0
 11
1389.4808346788
 21
439.7456345049836
 31
0.0
  0
ARC
  5
C15
330
2
100
AcDbEntity
  8
HIDS
  6
SEKKEI_H
100
AcDbCircle
 10
1485.315011008949
 20
437.7456345049845
 30
0.0
 40
2.0
100
AcDbArc
 50
0.1666666666881955
 51
90.0
  0
ARC
  5
C16
330
2
100
AcDbEntity
  8
HIDS
  6
SEKKEI_H
100
AcDbCircle
 10
1389.4808346788
 20
437.745634504984
 30
0.0
 40
2.0
100
AcDbArc
 50
90.0
 51
179.8333333333117
  0
ARC
  5
F42
330
2
100
AcDbEntity
  8
0
100
AcDbCircle
 10
951.5573282387778
 20
362.525634504982
 30
0.0
 40
2.720000000003957
100
AcDbArc
 50
307.5189678668038
 51
90.0
  0
LINE
  5
F43
330
2
100
AcDbEntity
  8
0
100
AcDbLine
 10
944.9174009987675
 20
365.2456345049863
 30
0.0
 11
951.5573282387778
 21
365.2456345049863
 31
0.0
  0
LINE
  5
F44
330
2
100
AcDbEntity
  8
0
100
AcDbLine
 10
946.4374009987698
 20
357.2456345049745
 30
0.0
 11
948.8373282387732
 21
357.245634504974
 31
0.0
  0
LINE
  5
F45
330
2
100
AcDbEntity
  8
0
100
AcDbLine
 10
946.4374009987698
 20
358.4456345049761
 30
0.0
 11
946.4374009987698
 21
357.2456345049745
 31
0.0
  0
LINE
  5
F46
330
2
100
AcDbEntity
  8
0
100
AcDbLine
 10
944.3974022400945
 20
358.4456345049766
 30
0.0
 11
946.4374009987698
 21
358.4456345049761
 31
0.0
  0
LINE
  5
F47
330
2
100
AcDbEntity
  8
0
100
AcDbLine
 10
944.3974022400945
 20
358.4456345049766
 30
0.0
 11
943.7974022400942
 21
357.2456345049745
 31
0.0
  0
LINE
  5
F48
330
2
100
AcDbEntity
  8
0
100
AcDbLine
 10
940.9174009987621
 20
357.2456345049749
 30
0.0
 11
943.7974022400942
 21
357.2456345049745
 31
0.0
  0
LINE
  5
F49
330
2
100
AcDbEntity
  8
0
100
AcDbLine
 10
945.6774022400971
 20
361.0056345049792
 30
0.0
 11
946.4374009987698
 21
361.0056345049797
 31
0.0
  0
LINE
  5
F4A
330
2
100
AcDbEntity
  8
0
100
AcDbLine
 10
944.9174009987675
 20
365.2456345049863
 30
0.0
 11
940.9174009987621
 21
357.2456345049749
 31
0.0
  0
LINE
  5
F4B
330
2
100
AcDbEntity
  8
0
100
AcDbLine
 10
946.4374009987698
 20
362.5256320223257
 30
0.0
 11
945.6774022400971
 21
361.0056345049792
 31
0.0
  0
LINE
  5
F4C
330
2
100
AcDbEntity
  8
0
100
AcDbLine
 10
946.4374009987698
 20
362.5256320223257
 30
0.0
 11
946.4374009987698
 21
361.0056345049797
 31
0.0
  0
ARC
  5
F4D
330
2
100
AcDbEntity
  8
0
100
AcDbCircle
 10
951.3874009987778
 20
362.3556345049819
 30
0.0
 40
0.1700000000002474
100
AcDbArc
 50
270.0
 51
90.0
  0
LINE
  5
F4E
330
2
100
AcDbEntity
  8
0
100
AcDbLine
 10
949.1774009987732
 20
362.1856345049814
 30
0.0
 11
951.3874009987778
 21
362.1856345049814
 31
0.0
  0
LINE
  5
F4F
330
2
100
AcDbEntity
  8
0
100
AcDbLine
 10
948.8373282387732
 20
362.5256345049824
 30
0.0
 11
951.3874009987759
 21
362.5256345049824
 31
0.0
  0
LINE
  5
F50
330
2
100
AcDbEntity
  8
0
100
AcDbLine
 10
953.2138736184371
 20
360.3682617033669
 30
0.0
 11
955.2009424982918
 21
357.2456345049749
 31
0.0
  0
LINE
  5
F51
330
2
100
AcDbEntity
  8
0
100
AcDbLine
 10
952.3209412569606
 20
357.2456345049745
 30
0.0
 11
955.2009424982918
 21
357.2456345049749
 31
0.0
  0
LINE
  5
F52
330
2
100
AcDbEntity
  8
0
100
AcDbLine
 10
948.8373282387732
 20
362.5256345049824
 30
0.0
 11
948.8373282387732
 21
357.245634504974
 31
0.0
  0
LINE
  5
F53
330
2
100
AcDbEntity
  8
0
100
AcDbLine
 10
949.1774009987732
 20
362.1856345049814
 30
0.0
 11
952.3209412569606
 21
357.2456345049745
 31
0.0
  0
LINE
  5
F55
330
2
100
AcDbEntity
  8
0
100
AcDbLine
 10
1039.559171748527
 20
349.2456345049861
 30
0.0
 11
1053.559171748527
 21
349.2456345049861
 31
0.0
  0
LINE
  5
F56
330
2
100
AcDbEntity
  8
0
100
AcDbLine
 10
1037.559171748527
 20
350.7456345049865
 30
0.0
 11
1037.559171748527
 21
467.7456345049857
 31
0.0
  0
LINE
  5
F57
330
2
100
AcDbEntity
  8
0
100
AcDbLine
 10
1024.059171748527
 20
378.2456345049829
 30
0.0
 11
1024.059171748527
 21
403.2456345049858
 31
0.0
  0
LINE
  5
F58
330
2
100
AcDbEntity
  8
0
100
AcDbLine
 10
1024.059171748527
 20
415.2456345049863
 30
0.0
 11
1024.059171748527
 21
440.2456345049893
 31
0.0
  0
ARC
  5
F59
330
2
100
AcDbEntity
  8
0
100
AcDbCircle
 10
1021.059171748527
 20
403.2456345049858
 30
0.0
 40
3.0
100
AcDbArc
 50
0.0
 51
90.0
  0
ARC
  5
F5A
330
2
100
AcDbEntity
  8
0
100
AcDbCircle
 10
1021.059171748527
 20
415.2456345049863
 30
0.0
 40
3.0
100
AcDbArc
 50
270.0
 51
0.0
  0
ARC
  5
F5B
330
2
100
AcDbEntity
  8
0
100
AcDbCircle
 10
1029.559171748527
 20
451.24563450499
 30
0.0
 40
8.0
100
AcDbArc
 50
270.0
 51
0.0
  0
ARC
  5
F5C
330
2
100
AcDbEntity
  8
0
100
AcDbCircle
 10
1034.559171748526
 20
403.2456345049858
 30
0.0
 40
3.0
100
AcDbArc
 50
0.0
 51
90.0
  0
ARC
  5
F5D
330
2
100
AcDbEntity
  8
0
100
AcDbCircle
 10
1034.559171748527
 20
358.1703737272034
 30
0.0
 40
3.0
100
AcDbArc
 50
0.0
 51
100.0000000000051
  0
ARC
  5
F5E
330
2
100
AcDbEntity
  8
0
100
AcDbCircle
 10
1034.559171748527
 20
460.3208952827688
 30
0.0
 40
3.0
100
AcDbArc
 50
259.9999999999948
 51
0.0
  0
ARC
  5
F5F
330
2
100
AcDbEntity
  8
0
100
AcDbCircle
 10
1039.559171748527
 20
351.2456345049861
 30
0.0
 40
2.0
100
AcDbArc
 50
180.0
 51
270.0
  0
ARC
  5
F60
330
2
100
AcDbEntity
  8
0
100
AcDbCircle
 10
1039.559171748527
 20
467.2456345049861
 30
0.0
 40
2.0
100
AcDbArc
 50
90.0
 51
180.0
  0
LINE
  5
F61
330
2
100
AcDbEntity
  8
0
100
AcDbLine
 10
1039.559171748527
 20
469.2456345049861
 30
0.0
 11
1053.559171748527
 21
469.2456345049861
 31
0.0
  0
LINE
  5
F62
330
2
100
AcDbEntity
  8
CENTER
100
AcDbLine
 10
890.2616970654719
 20
359.7481598219278
 30
0.0
 11
906.8616970654714
 21
359.7481598219278
 31
0.0
  0
LINE
  5
F63
330
2
100
AcDbEntity
  8
CENTER
100
AcDbLine
 10
898.5616970654715
 20
368.0481598219278
 30
0.0
 11
898.5616970654715
 21
351.4481598219278
 31
0.0
  0
LINE
  5
F64
330
2
100
AcDbEntity
  8
0
100
AcDbLine
 10
1034.038227215526
 20
457.366472023732
 30
0.0
 11
1009.350637091434
 21
461.7195602512809
 31
0.0
  0
LINE
  5
F65
330
2
100
AcDbEntity
  8
0
100
AcDbLine
 10
1034.038227215526
 20
361.1247969862402
 30
0.0
 11
1009.350637091434
 21
356.7717087586913
 31
0.0
  0
LINE
  5
F66
330
2
100
AcDbEntity
  8
0
100
AcDbLine
 10
1011.05917174853
 20
412.2456345049861
 30
0.0
 11
1034.559171748526
 21
412.2456345049863
 31
0.0
  0
ARC
  5
F67
330
2
100
AcDbEntity
  8
0
100
AcDbCircle
 10
1034.559171748526
 20
415.2456345049863
 30
0.0
 40
3.0
100
AcDbArc
 50
270.0
 51
0.0
  0
LINE
  5
F68
330
2
100
AcDbEntity
  8
0
100
AcDbLine
 10
1011.05917174853
 20
406.2456345049858
 30
0.0
 11
1034.559171748526
 21
406.2456345049858
 31
0.0
  0
LINE
  5
F69
330
2
100
AcDbEntity
  8
CENTER
100
AcDbLine
 10
989.2566464315885
 20
359.7481598219278
 30
0.0
 11
1005.856646431588
 21
359.7481598219278
 31
0.0
  0
LINE
  5
F6A
330
2
100
AcDbEntity
  8
CENTER
100
AcDbLine
 10
997.5566464315882
 20
368.0481598219278
 30
0.0
 11
997.5566464315882
 21
351.4481598219278
 31
0.0
  0
LINE
  5
F6B
330
2
100
AcDbEntity
  8
CENTER
100
AcDbLine
 10
989.2566464315885
 20
458.7431091880445
 30
0.0
 11
1005.856646431588
 21
458.7431091880445
 31
0.0
  0
LINE
  5
F6C
330
2
100
AcDbEntity
  8
CENTER
100
AcDbLine
 10
997.5566464315882
 20
467.0431091880446
 30
0.0
 11
997.5566464315882
 21
450.4431091880446
 31
0.0
  0
LINE
  5
F6D
330
2
100
AcDbEntity
  8
CENTER
100
AcDbLine
 10
890.2616970654719
 20
458.7431091880445
 30
0.0
 11
906.8616970654714
 21
458.7431091880445
 31
0.0
  0
LINE
  5
F6E
330
2
100
AcDbEntity
  8
CENTER
100
AcDbLine
 10
898.5616970654715
 20
467.0431091880446
 30
0.0
 11
898.5616970654715
 21
450.4431091880446
 31
0.0
  0
LINE
  5
F6F
330
2
100
AcDbEntity
  8
0
100
AcDbLine
 10
1053.559171748527
 20
348.7456345049865
 30
0.0
 11
1053.559171748527
 21
469.7456345049857
 31
0.0
  0
LINE
  5
F70
330
2
100
AcDbEntity
  8
0
100
AcDbLine
 10
1029.559171748529
 20
443.2456345049899
 30
0.0
 11
1027.059171748528
 21
443.2456345049892
 31
0.0
  0
LINE
  5
F71
330
2
100
AcDbEntity
  8
0
100
AcDbLine
 10
1021.059171748528
 20
437.2456345049893
 30
0.0
 11
1011.059171748531
 21
437.2456345049893
 31
0.0
  0
ARC
  5
F72
330
2
100
AcDbEntity
  8
0
100
AcDbCircle
 10
1011.059171748531
 20
440.2456345049893
 30
0.0
 40
3.0
100
AcDbArc
 50
180.0
 51
270.0
  0
ARC
  5
F73
330
2
100
AcDbEntity
  8
0
100
AcDbCircle
 10
1021.059171748528
 20
440.2456345049893
 30
0.0
 40
3.0
100
AcDbArc
 50
270.0
 51
0.0
  0
LINE
  5
F74
330
2
100
AcDbEntity
  8
0
100
AcDbLine
 10
1024.059171748528
 20
440.2456345049893
 30
0.0
 11
1024.059171748528
 21
440.2456345049893
 31
0.0
  0
ARC
  5
F75
330
2
100
AcDbEntity
  8
0
100
AcDbCircle
 10
1027.059171748528
 20
440.2456345049893
 30
0.0
 40
3.0
100
AcDbArc
 50
90.0
 51
180.0
  0
LINE
  5
F76
330
2
100
AcDbEntity
  8
0
100
AcDbLine
 10
1029.559171748529
 20
375.2456345049822
 30
0.0
 11
1027.059171748528
 21
375.2456345049829
 31
0.0
  0
LINE
  5
F77
330
2
100
AcDbEntity
  8
0
100
AcDbLine
 10
1021.059171748528
 20
381.2456345049829
 30
0.0
 11
1011.05917174853
 21
381.2456345049831
 31
0.0
  0
ARC
  5
F78
330
2
100
AcDbEntity
  8
0
100
AcDbCircle
 10
1021.059171748528
 20
378.2456345049829
 30
0.0
 40
3.0
100
AcDbArc
 50
0.0
 51
90.0
  0
LINE
  5
F79
330
2
100
AcDbEntity
  8
0
100
AcDbLine
 10
1024.059171748528
 20
378.2456345049829
 30
0.0
 11
1024.059171748528
 21
378.2456345049829
 31
0.0
  0
ARC
  5
F7A
330
2
100
AcDbEntity
  8
0
100
AcDbCircle
 10
1027.059171748528
 20
378.2456345049829
 30
0.0
 40
3.0
100
AcDbArc
 50
180.0
 51
269.9999999999739
  0
ARC
  5
F7B
330
2
100
AcDbEntity
  8
0
100
AcDbCircle
 10
1029.559171748527
 20
367.2456345049822
 30
0.0
 40
8.0
100
AcDbArc
 50
0.0
 51
89.99999999997395
  0
ARC
  5
F7C
330
2
100
AcDbEntity
  8
0
100
AcDbCircle
 10
948.0591717485287
 20
219.2456345049872
 30
0.0
 40
250.0
100
AcDbArc
 50
85.41175424079522
 51
94.58824575920479
  0
ARC
  5
F7D
330
2
100
AcDbEntity
  8
0
 48
0.5
100
AcDbCircle
 10
898.0591717485278
 20
459.2456345049875
 30
0.0
 40
10.0
100
AcDbArc
 50
90.0
 51
180.0
  0
LINE
  5
F7E
330
2
100
AcDbEntity
  8
0
 48
0.5
100
AcDbLine
 10
898.0591717485278
 20
469.2456345049874
 30
0.0
 11
908.0591717485324
 21
469.2456345049873
 31
0.0
  0
ARC
  5
F7F
330
2
100
AcDbEntity
  8
0
100
AcDbCircle
 10
908.0591717485324
 20
461.245634504987
 30
0.0
 40
8.0
100
AcDbArc
 50
81.10835431979607
 51
90.0
  0
ARC
  5
F80
330
2
100
AcDbEntity
  8
0
 48
0.5
100
AcDbCircle
 10
998.0591717485316
 20
459.2456345049875
 30
0.0
 40
10.0
100
AcDbArc
 50
0.0
 51
90.0
  0
ARC
  5
F81
330
2
100
AcDbEntity
  8
0
100
AcDbCircle
 10
1009.871581624435
 20
464.6739835103174
 30
0.0
 40
3.0
100
AcDbArc
 50
204.6809703631084
 51
259.9999999999948
  0
ARC
  5
F82
330
2
100
AcDbEntity
  8
0
100
AcDbCircle
 10
921.6610087748771
 20
548.1880869060364
 30
0.0
 40
80.0
100
AcDbArc
 50
261.1083543197961
 51
274.5882457592047
  0
LINE
  5
F83
330
2
100
AcDbEntity
  8
0
 48
0.5
100
AcDbLine
 10
888.0591717485279
 20
459.2456345049875
 30
0.0
 11
888.0591717485284
 21
449.2456345049833
 31
0.0
  0
ARC
  5
F84
330
2
100
AcDbEntity
  8
0
100
AcDbCircle
 10
896.0591717485288
 20
449.2456345049833
 30
0.0
 40
8.0
100
AcDbArc
 50
180.0
 51
188.8916456802039
  0
ARC
  5
F85
330
2
100
AcDbEntity
  8
0
100
AcDbCircle
 10
809.1167193474792
 20
435.6437974786379
 30
0.0
 40
80.0
100
AcDbArc
 50
355.4117542407789
 51
8.89164568020392
  0
LINE
  5
F86
330
2
100
AcDbEntity
  8
0
 48
0.5
100
AcDbLine
 10
998.0591717485316
 20
469.2456345049874
 30
0.0
 11
988.0591717485279
 21
469.2456345049873
 31
0.0
  0
ARC
  5
F87
330
2
100
AcDbEntity
  8
0
100
AcDbCircle
 10
988.0591717485279
 20
461.245634504987
 30
0.0
 40
8.0
100
AcDbArc
 50
90.0
 51
98.89164568020392
  0
ARC
  5
F88
330
2
100
AcDbEntity
  8
0
100
AcDbCircle
 10
974.4573347221823
 20
548.1880869060364
 30
0.0
 40
80.0
100
AcDbArc
 50
265.4117542407952
 51
278.8916456802039
  0
LINE
  5
F89
330
2
100
AcDbEntity
  8
0
 48
0.5
100
AcDbLine
 10
1008.059171748532
 20
459.2456345049872
 30
0.0
 11
1008.059171748529
 21
359.2456345049843
 31
0.0
  0
ARC
  5
F8A
330
2
100
AcDbEntity
  8
0
100
AcDbCircle
 10
1011.05917174853
 20
378.2456345049831
 30
0.0
 40
3.0
100
AcDbArc
 50
90.0
 51
180.0
  0
ARC
  5
F8B
330
2
100
AcDbEntity
  8
0
100
AcDbCircle
 10
1011.05917174853
 20
403.2456345049858
 30
0.0
 40
3.0
100
AcDbArc
 50
90.0
 51
180.0
  0
ARC
  5
F8C
330
2
100
AcDbEntity
  8
0
100
AcDbCircle
 10
1011.05917174853
 20
415.2456345049861
 30
0.0
 40
3.0
100
AcDbArc
 50
180.0
 51
270.0
  0
ARC
  5
F8D
330
2
100
AcDbEntity
  8
0
 48
0.5
100
AcDbCircle
 10
898.0591717485278
 20
359.2456345049843
 30
0.0
 40
10.0
100
AcDbArc
 50
180.0
 51
270.0
  0
LINE
  5
F8E
330
2
100
AcDbEntity
  8
0
 48
0.5
100
AcDbLine
 10
898.0591717485278
 20
349.2456345049843
 30
0.0
 11
908.0591717485324
 21
349.2456345049845
 31
0.0
  0
ARC
  5
F8F
330
2
100
AcDbEntity
  8
0
100
AcDbCircle
 10
908.0591717485324
 20
357.2456345049847
 30
0.0
 40
8.0
100
AcDbArc
 50
270.0
 51
278.8916456802039
  0
ARC
  5
F90
330
2
100
AcDbEntity
  8
0
 48
0.5
100
AcDbCircle
 10
998.0591717485316
 20
359.2456345049843
 30
0.0
 40
10.0
100
AcDbArc
 50
270.0
 51
0.0
  0
ARC
  5
F91
330
2
100
AcDbEntity
  8
0
100
AcDbCircle
 10
1009.871581624435
 20
353.8172854996546
 30
0.0
 40
3.0
100
AcDbArc
 50
100.0000000000051
 51
155.3190296368915
  0
ARC
  5
F92
330
2
100
AcDbEntity
  8
0
100
AcDbCircle
 10
921.6610087748771
 20
270.3031821039353
 30
0.0
 40
80.0
100
AcDbArc
 50
85.41175424079522
 51
98.89164568020392
  0
LINE
  5
F93
330
2
100
AcDbEntity
  8
0
 48
0.5
100
AcDbLine
 10
888.0591717485279
 20
359.2456345049843
 30
0.0
 11
888.0591717485284
 21
369.2456345049884
 31
0.0
  0
ARC
  5
F94
330
2
100
AcDbEntity
  8
0
100
AcDbCircle
 10
896.0591717485288
 20
369.2456345049884
 30
0.0
 40
8.0
100
AcDbArc
 50
171.108354319796
 51
180.0
  0
ARC
  5
F95
330
2
100
AcDbEntity
  8
0
100
AcDbCircle
 10
809.1167193474792
 20
382.8474715313339
 30
0.0
 40
80.0
100
AcDbArc
 50
351.1083543197961
 51
4.588245759202406
  0
LINE
  5
F96
330
2
100
AcDbEntity
  8
0
 48
0.5
100
AcDbLine
 10
998.0591717485316
 20
349.2456345049843
 30
0.0
 11
988.0591717485279
 21
349.2456345049845
 31
0.0
  0
ARC
  5
F97
330
2
100
AcDbEntity
  8
0
100
AcDbCircle
 10
988.0591717485279
 20
357.2456345049847
 30
0.0
 40
8.0
100
AcDbArc
 50
261.1083543197961
 51
270.0
  0
ARC
  5
F98
330
2
100
AcDbEntity
  8
0
100
AcDbCircle
 10
974.4573347221823
 20
270.3031821039353
 30
0.0
 40
80.0
100
AcDbArc
 50
81.10835431979607
 51
94.58824575920479
  0
ARC
  5
F99
330
2
100
AcDbEntity
  8
0
100
AcDbCircle
 10
1138.059171748528
 20
409.2456345049847
 30
0.0
 40
250.0
100
AcDbArc
 50
175.4117542407789
 51
184.5882457592202
  0
ARC
  5
F9A
330
2
100
AcDbEntity
  8
0
100
AcDbCircle
 10
948.0591717485287
 20
599.2456345049845
 30
0.0
 40
250.0
100
AcDbArc
 50
265.4117542407952
 51
274.5882457592047
  0
CIRCLE
  5
F9B
330
2
100
AcDbEntity
  8
HOJO
100
AcDbCircle
 10
898.5616970654712
 20
458.7431091880445
 30
0.0
 40
4.0
  0
CIRCLE
  5
F9C
330
2
100
AcDbEntity
  8
0
100
AcDbCircle
 10
898.5616970654712
 20
458.7431091880445
 30
0.0
 40
3.399999999999999
  0
CIRCLE
  5
F9D
330
2
100
AcDbEntity
  8
HOJO
100
AcDbCircle
 10
997.5566464315882
 20
458.7431091880445
 30
0.0
 40
4.0
  0
CIRCLE
  5
F9E
330
2
100
AcDbEntity
  8
0
100
AcDbCircle
 10
997.5566464315882
 20
458.7431091880445
 30
0.0
 40
3.399999999999999
  0
CIRCLE
  5
F9F
330
2
100
AcDbEntity
  8
HOJO
100
AcDbCircle
 10
997.5566464315882
 20
359.748159821928
 30
0.0
 40
4.0
  0
CIRCLE
  5
FA0
330
2
100
AcDbEntity
  8
0
100
AcDbCircle
 10
997.5566464315882
 20
359.748159821928
 30
0.0
 40
3.399999999999999
  0
CIRCLE
  5
FA1
330
2
100
AcDbEntity
  8
HOJO
100
AcDbCircle
 10
898.5616970654712
 20
359.748159821928
 30
0.0
 40
4.0
  0
CIRCLE
  5
FA2
330
2
100
AcDbEntity
  8
0
100
AcDbCircle
 10
898.5616970654712
 20
359.748159821928
 30
0.0
 40
3.399999999999999
  0
CIRCLE
  5
FA3
330
2
100
AcDbEntity
  8
CENTER
100
AcDbCircle
 10
948.0591717485296
 20
409.245634504986
 30
0.0
 40
70.00000000000039
  0
CIRCLE
  5
FA4
330
2
100
AcDbEntity
  8
0
100
AcDbCircle
 10
948.0591717485296
 20
409.245634504986
 30
0.0
 40
55.00000000000046
  0
CIRCLE
  5
FA5
330
2
100
AcDbEntity
  8
0
100
AcDbCircle
 10
948.0591717485296
 20
409.245634504986
 30
0.0
 40
39.99999999999932
  0
CIRCLE
  5
FA6
330
2
100
AcDbEntity
  8
0
100
AcDbCircle
 10
948.0591717485296
 20
409.245634504986
 30
0.0
 40
33.07735026919044
  0
CIRCLE
  5
FA7
330
2
100
AcDbEntity
  8
0
100
AcDbCircle
 10
948.0591717485296
 20
409.245634504986
 30
0.0
 40
32.50000000000023
  0
LINE
  5
FA8
330
2
100
AcDbEntity
  8
CENTER
100
AcDbLine
 10
948.0591717485292
 20
638.0276062997729
 30
0.0
 11
948.0591717485303
 21
851.0276062997755
 31
0.0
  0
LINE
  5
FA9
330
2
100
AcDbEntity
  8
0
100
AcDbLine
 10
888.9667659987688
 20
714.0276062997736
 30
0.0
 11
888.0635351824254
 21
817.527606299777
 31
0.0
  0
LINE
  5
FAA
330
2
100
AcDbEntity
  8
0
100
AcDbLine
 10
893.0591717485297
 20
709.0276062997673
 30
0.0
 11
1003.059171748529
 21
709.0276062997735
 31
0.0
  0
LINE
  5
FAB
330
2
100
AcDbEntity
  8
0
100
AcDbLine
 10
1039.507485490373
 20
841.0276062997734
 30
0.0
 11
1053.559171748527
 21
841.0276062997732
 31
0.0
  0
ARC
  5
FAC
330
2
100
AcDbEntity
  8
0
100
AcDbCircle
 10
1039.507485490373
 20
839.0276062997735
 30
0.0
 40
2.0
100
AcDbArc
 50
90.0
 51
178.4999999999972
  0
LINE
  5
FAD
330
2
100
AcDbEntity
  8
0
100
AcDbLine
 10
1037.508170840422
 20
839.0799601963887
 30
0.0
 11
1035.98801645439
 21
781.0276062997734
 31
0.0
  0
ARC
  5
FAE
330
2
100
AcDbEntity
  8
0
100
AcDbCircle
 10
1033.144103606332
 20
787.0276062997755
 30
0.0
 40
3.0
100
AcDbArc
 50
270.0
 51
358.5000000000103
  0
LINE
  5
FAF
330
2
100
AcDbEntity
  8
0
100
AcDbLine
 10
1007.417746965909
 20
817.5276062997737
 30
0.0
 11
888.0635351824254
 21
817.527606299777
 31
0.0
  0
LINE
  5
FB0
330
2
100
AcDbEntity
  8
0
100
AcDbLine
 10
986.1277941989149
 20
695.0276062997732
 30
0.0
 11
909.9905492981445
 21
695.0276062997724
 31
0.0
  0
ARC
  5
FB1
330
2
100
AcDbEntity
  8
0
100
AcDbCircle
 10
909.9905492981445
 20
697.0276062997725
 30
0.0
 40
2.0
100
AcDbArc
 50
181.9999999999914
 51
270.0
  0
ARC
  5
FB2
330
2
100
AcDbEntity
  8
0
100
AcDbCircle
 10
986.1277941989149
 20
697.0276062997729
 30
0.0
 40
2.0
100
AcDbArc
 50
270.0
 51
357.9999999999955
  0
LINE
  5
FB3
330
2
100
AcDbEntity
  8
CENTER
100
AcDbLine
 10
878.381685072931
 20
781.027606299777
 30
0.0
 11
1148.059171748525
 21
781.027606299777
 31
0.0
  0
LINE
  5
FB4
330
2
100
AcDbEntity
  8
0
100
AcDbLine
 10
1007.15157749829
 20
714.0276062997735
 30
0.0
 11
1007.73627764027
 21
781.0276062997761
 31
0.0
  0
ARC
  5
FB5
330
2
100
AcDbEntity
  8
0
100
AcDbCircle
 10
1010.684030668684
 20
775.0276062997747
 30
0.0
 40
3.0
100
AcDbArc
 50
90.0
 51
179.4999999999954
  0
LINE
  5
FB6
330
2
100
AcDbEntity
  8
0
100
AcDbLine
 10
988.1265758529533
 20
696.957807306368
 30
0.0
 11
988.2784461037173
 21
701.3068022733931
 31
0.0
  0
LINE
  5
FB7
330
2
100
AcDbEntity
  8
0
100
AcDbLine
 10
907.9917676441061
 20
696.9578073063676
 30
0.0
 11
907.8398973933419
 21
701.306802273387
 31
0.0
  0
LINE
  5
FB8
330
2
100
AcDbEntity
  8
0
100
AcDbLine
 10
1007.417746965909
 20
817.5276062997737
 30
0.0
 11
1007.736277640273
 21
781.0276062997759
 31
0.0
  0
LINE
  5
FB9
330
2
100
AcDbEntity
  8
0
100
AcDbLine
 10
1039.507485490373
 20
721.0276062997807
 30
0.0
 11
1053.559171748527
 21
721.0276062997807
 31
0.0
  0
ARC
  5
FBA
330
2
100
AcDbEntity
  8
0
100
AcDbCircle
 10
1039.507485490373
 20
723.0276062997806
 30
0.0
 40
2.0
100
AcDbArc
 50
181.4999999999896
 51
270.0
  0
LINE
  5
FBB
330
2
100
AcDbEntity
  8
0
100
AcDbLine
 10
1037.508170840422
 20
722.9752524031655
 30
0.0
 11
1035.988016454391
 21
781.0276062997734
 31
0.0
  0
ARC
  5
FBC
330
2
100
AcDbEntity
  8
0
100
AcDbCircle
 10
1033.144103606332
 20
775.0276062997747
 30
0.0
 40
3.0
100
AcDbArc
 50
1.499999999989688
 51
90.0
  0
LINE
  5
FBD
330
2
100
AcDbEntity
  8
0
100
AcDbLine
 10
898.0591717485307
 20
817.5276062997754
 30
0.0
 11
898.0591717485296
 21
715.5276062997682
 31
0.0
  0
LINE
  5
FBE
330
2
100
AcDbEntity
  8
0
100
AcDbLine
 10
988.0722647093119
 20
817.5276062997744
 30
0.0
 11
989.0025503925333
 21
782.0014293514693
 31
0.0
  0
LINE
  5
FBF
330
2
100
AcDbEntity
  8
0
100
AcDbLine
 10
1010.684030668683
 20
784.0276062997753
 30
0.0
 11
1033.144103606332
 21
784.0276062997753
 31
0.0
  0
ARC
  5
FC0
330
2
100
AcDbEntity
  8
0
100
AcDbCircle
 10
1010.684030668683
 20
787.0276062997752
 30
0.0
 40
3.0
100
AcDbArc
 50
180.4999999999915
 51
270.0
  0
LINE
  5
FC1
330
2
100
AcDbEntity
  8
0
100
AcDbLine
 10
1010.684030668684
 20
778.0276062997748
 30
0.0
 11
1033.144103606332
 21
778.0276062997748
 31
0.0
  0
LINE
  5
FC2
330
2
100
AcDbEntity
  8
0
100
AcDbLine
 10
990.0022077175087
 20
781.0276062997774
 30
0.0
 11
1053.559171748527
 21
781.0276062997718
 31
0.0
  0
ARC
  5
FC3
330
2
100
AcDbEntity
  8
0
100
AcDbCircle
 10
990.0022077175087
 20
782.0276062997771
 30
0.0
 40
1.0
100
AcDbArc
 50
181.5000000000027
 51
269.9999999999739
  0
LINE
  5
FC4
330
2
100
AcDbEntity
  8
0
100
AcDbLine
 10
908.0591717485319
 20
715.5276062997684
 30
0.0
 11
908.0591717485324
 21
817.5276062997754
 31
0.0
  0
LINE
  5
FC5
330
2
100
AcDbEntity
  8
0
100
AcDbLine
 10
928.0605634351134
 20
715.5276062997682
 30
0.0
 11
928.0605634351134
 21
817.5276062997753
 31
0.0
  0
LINE
  5
FC6
330
2
100
AcDbEntity
  8
0
100
AcDbLine
 10
968.0577800619433
 20
715.5276062997682
 30
0.0
 11
968.0577800619433
 21
817.5276062997753
 31
0.0
  0
LINE
  5
FC7
330
2
100
AcDbEntity
  8
0
100
AcDbLine
 10
988.0591717485273
 20
715.5276062997684
 30
0.0
 11
988.0591717485273
 21
781.027606299777
 31
0.0
  0
LINE
  5
FC8
330
2
100
AcDbEntity
  8
0
100
AcDbLine
 10
998.0591717485316
 20
715.5276062997682
 30
0.0
 11
998.0591717485319
 21
817.5276062997754
 31
0.0
  0
LINE
  5
FC9
330
2
100
AcDbEntity
  8
0
100
AcDbLine
 10
1053.559171748527
 20
721.0276062997807
 30
0.0
 11
1053.559171748527
 21
841.0276062997732
 31
0.0
  0
LINE
  5
FCA
330
2
100
AcDbEntity
  8
0
100
AcDbLine
 10
893.0591717485297
 20
709.0276062997673
 30
0.0
 11
893.0591717485297
 21
714.0276062997736
 31
0.0
  0
LINE
  5
FCB
330
2
100
AcDbEntity
  8
0
 48
0.5
100
AcDbLine
 10
888.9667659987688
 20
714.0276062997735
 30
0.0
 11
1007.15157749829
 21
714.0276062997736
 31
0.0
  0
LINE
  5
FCC
330
2
100
AcDbEntity
  8
0
100
AcDbLine
 10
1003.059171748529
 20
709.0276062997735
 30
0.0
 11
1003.059171748529
 21
714.0276062997736
 31
0.0
  0
LINE
  5
FCD
330
2
100
AcDbEntity
  8
0
100
AcDbLine
 10
1033.084642467661
 20
731.5998380743852
 30
0.0
 11
1008.91510416014
 21
720.3293972675178
 31
0.0
  0
ARC
  5
FCE
330
2
100
AcDbEntity
  8
0
100
AcDbCircle
 10
1010.182958945362
 20
717.6104739064078
 30
0.0
 40
3.0
100
AcDbArc
 50
114.9999999999782
 51
179.5000000000019
  0
ARC
  5
FCF
330
2
100
AcDbEntity
  8
0
100
AcDbCircle
 10
1034.352497252883
 20
728.8809147132753
 30
0.0
 40
3.0
100
AcDbArc
 50
1.499999999989688
 51
115.0000000000071
  0
LINE
  5
FD0
330
2
100
AcDbEntity
  8
0
100
AcDbLine
 10
1011.926691591296
 20
813.9176675918356
 30
0.0
 11
1035.776855140292
 21
827.6875659370658
 31
0.0
  0
ARC
  5
FD1
330
2
100
AcDbEntity
  8
0
100
AcDbCircle
 10
1034.276855140292
 20
830.285642148419
 30
0.0
 40
3.0
100
AcDbArc
 50
300.0000000000001
 51
358.5000000000103
  0
ARC
  5
FD2
330
2
100
AcDbEntity
  8
0
100
AcDbCircle
 10
1010.426691591296
 20
816.515743803189
 30
0.0
 40
3.0
100
AcDbArc
 50
180.499999999998
 51
300.0000000000001
  0
ARC
  5
FD3
330
2
100
AcDbEntity
  8
0
100
AcDbCircle
 10
996.2735727198699
 20
701.0276062997733
 30
0.0
 40
8.0
100
AcDbArc
 50
90.0
 51
178.000000000002
  0
ARC
  5
FD4
330
2
100
AcDbEntity
  8
0
100
AcDbCircle
 10
899.8447707771894
 20
701.0276062997675
 30
0.0
 40
8.0
100
AcDbArc
 50
1.999999999997947
 51
90.0
  0
LINE
  5
FD5
330
2
100
AcDbEntity
  8
CENTER
100
AcDbLine
 10
179.7819854187942
 20
409.2456345049861
 30
0.0
 11
449.7819854187898
 21
409.245634504986
 31
0.0
  0
LINE
  5
FD6
330
2
100
AcDbEntity
  8
0
100
AcDbLine
 10
288.2819854187926
 20
469.2456345049861
 30
0.0
 11
274.281985418793
 21
469.2456345049861
 31
0.0
  0
LINE
  5
FD7
330
2
100
AcDbEntity
  8
0
100
AcDbLine
 10
274.281985418793
 20
469.7456345049857
 30
0.0
 11
274.2819854187926
 21
348.7456345049866
 31
0.0
  0
LINE
  5
FD8
330
2
100
AcDbEntity
  8
0
100
AcDbLine
 10
290.281985418793
 20
467.7456345049858
 30
0.0
 11
290.2819854187926
 21
350.7456345049865
 31
0.0
  0
ARC
  5
FD9
330
2
100
AcDbEntity
  8
0
100
AcDbCircle
 10
298.2819854187926
 20
367.2456345049822
 30
0.0
 40
8.0
100
AcDbArc
 50
90.0
 51
180.0
  0
ARC
  5
FDA
330
2
100
AcDbEntity
  8
0
100
AcDbCircle
 10
293.2819854187926
 20
460.3208952827688
 30
0.0
 40
3.0
100
AcDbArc
 50
180.0
 51
280.0000000000051
  0
ARC
  5
FDB
330
2
100
AcDbEntity
  8
0
100
AcDbCircle
 10
293.2819854187926
 20
358.1703737272034
 30
0.0
 40
3.0
100
AcDbArc
 50
79.99999999999484
 51
180.0
  0
ARC
  5
FDC
330
2
100
AcDbEntity
  8
0
100
AcDbCircle
 10
288.2819854187926
 20
467.2456345049861
 30
0.0
 40
2.0
100
AcDbArc
 50
0.0
 51
90.0
  0
ARC
  5
FDD
330
2
100
AcDbEntity
  8
0
100
AcDbCircle
 10
288.2819854187926
 20
351.2456345049861
 30
0.0
 40
2.0
100
AcDbArc
 50
270.0
 51
0.0
  0
LINE
  5
FDE
330
2
100
AcDbEntity
  8
0
100
AcDbLine
 10
288.2819854187926
 20
349.2456345049861
 30
0.0
 11
274.2819854187926
 21
349.245634504986
 31
0.0
  0
LINE
  5
FDF
330
2
100
AcDbEntity
  8
0
100
AcDbLine
 10
293.8029299517932
 20
361.1247969862402
 30
0.0
 11
318.8421003860078
 21
356.7097156641309
 31
0.0
  0
LINE
  5
FE0
330
2
100
AcDbEntity
  8
0
100
AcDbLine
 10
293.8029299517936
 20
457.366472023732
 30
0.0
 11
318.8421003860082
 21
461.7815533458412
 31
0.0
  0
LINE
  5
FE1
330
2
100
AcDbEntity
  8
CENTER
100
AcDbLine
 10
379.7819854187898
 20
479.2456345049865
 30
0.0
 11
379.7819854187898
 21
339.2456345049854
 31
0.0
  0
LINE
  5
FE2
330
2
100
AcDbEntity
  8
0
100
AcDbLine
 10
303.7819854187925
 20
440.2456345049893
 30
0.0
 11
303.7819854187925
 21
415.2456345049861
 31
0.0
  0
LINE
  5
FE3
330
2
100
AcDbEntity
  8
0
100
AcDbLine
 10
303.7819854187925
 20
403.2456345049854
 30
0.0
 11
303.7819854187925
 21
378.2456345049829
 31
0.0
  0
ARC
  5
FE4
330
2
100
AcDbEntity
  8
0
100
AcDbCircle
 10
306.7819854187926
 20
415.2456345049861
 30
0.0
 40
3.0
100
AcDbArc
 50
180.0
 51
270.0
  0
LINE
  5
FE5
330
2
100
AcDbEntity
  8
0
100
AcDbLine
 10
298.2819854187908
 20
375.2456345049822
 30
0.0
 11
300.7819854187921
 21
375.2456345049829
 31
0.0
  0
LINE
  5
FE6
330
2
100
AcDbEntity
  8
0
100
AcDbLine
 10
306.7819854187912
 20
381.2456345049829
 30
0.0
 11
317.1048795270491
 21
381.2456345049831
 31
0.0
  0
ARC
  5
FE7
330
2
100
AcDbEntity
  8
0
100
AcDbCircle
 10
317.1048795270491
 20
378.2456345049831
 30
0.0
 40
3.0
100
AcDbArc
 50
0.0
 51
90.0
  0
ARC
  5
FE8
330
2
100
AcDbEntity
  8
0
100
AcDbCircle
 10
306.7819854187912
 20
378.2456345049829
 30
0.0
 40
3.0
100
AcDbArc
 50
90.0
 51
180.0
  0
LINE
  5
FE9
330
2
100
AcDbEntity
  8
0
100
AcDbLine
 10
303.7819854187912
 20
378.2456345049829
 30
0.0
 11
303.7819854187912
 21
378.2456345049829
 31
0.0
  0
ARC
  5
FEA
330
2
100
AcDbEntity
  8
0
100
AcDbCircle
 10
300.7819854187912
 20
378.2456345049829
 30
0.0
 40
3.0
100
AcDbArc
 50
270.0
 51
0.0
  0
LINE
  5
FEB
330
2
100
AcDbEntity
  8
0
100
AcDbLine
 10
298.2819854187908
 20
443.2456345049899
 30
0.0
 11
300.7819854187926
 21
443.2456345049892
 31
0.0
  0
LINE
  5
FEC
330
2
100
AcDbEntity
  8
0
100
AcDbLine
 10
306.7819854187916
 20
437.2456345049893
 30
0.0
 11
317.1048795270487
 21
437.245634504989
 31
0.0
  0
ARC
  5
FED
330
2
100
AcDbEntity
  8
0
100
AcDbCircle
 10
317.1048795270487
 20
440.245634504989
 30
0.0
 40
3.0
100
AcDbArc
 50
270.0
 51
0.0
  0
ARC
  5
FEE
330
2
100
AcDbEntity
  8
0
100
AcDbCircle
 10
306.7819854187916
 20
440.2456345049893
 30
0.0
 40
3.0
100
AcDbArc
 50
180.0
 51
270.0
  0
LINE
  5
FEF
330
2
100
AcDbEntity
  8
0
100
AcDbLine
 10
303.7819854187917
 20
440.2456345049893
 30
0.0
 11
303.7819854187917
 21
440.2456345049893
 31
0.0
  0
ARC
  5
FF0
330
2
100
AcDbEntity
  8
0
100
AcDbCircle
 10
300.7819854187916
 20
440.2456345049893
 30
0.0
 40
3.0
100
AcDbArc
 50
0.0
 51
89.99999999997395
  0
ARC
  5
FF1
330
2
100
AcDbEntity
  8
0
100
AcDbCircle
 10
298.281985418793
 20
451.24563450499
 30
0.0
 40
8.0
100
AcDbArc
 50
180.0
 51
269.9999999999739
  0
LINE
  5
FF2
330
2
100
AcDbEntity
  8
0
100
AcDbLine
 10
330.1048795270492
 20
349.2456345049847
 30
0.0
 11
330.4219854187442
 21
349.2456345049847
 31
0.0
  0
LINE
  5
FF3
330
2
100
AcDbEntity
  8
0
100
AcDbLine
 10
330.1048795270496
 20
469.2456345049879
 30
0.0
 11
330.4219854188366
 21
469.2456345049879
 31
0.0
  0
LINE
  5
FF4
330
2
100
AcDbEntity
  8
0
100
AcDbLine
 10
320.1048795270487
 20
459.2456345049879
 30
0.0
 11
320.1048795270487
 21
359.2456345049847
 31
0.0
  0
ARC
  5
FF5
330
2
100
AcDbEntity
  8
0
100
AcDbCircle
 10
330.1048795270492
 20
359.2456345049847
 30
0.0
 40
10.0
100
AcDbArc
 50
180.0
 51
270.0
  0
ARC
  5
FF6
330
2
100
AcDbEntity
  8
0
100
AcDbCircle
 10
318.3211558530071
 20
353.7552924050944
 30
0.0
 40
3.0
100
AcDbArc
 50
24.98203108537692
 51
79.99999999999484
  0
ARC
  5
FF7
330
2
100
AcDbEntity
  8
0
100
AcDbCircle
 10
330.1048795270492
 20
459.2456345049879
 30
0.0
 40
10.0
100
AcDbArc
 50
90.0
 51
180.0
  0
ARC
  5
FF8
330
2
100
AcDbEntity
  8
0
100
AcDbCircle
 10
318.3211558530071
 20
464.7359766048777
 30
0.0
 40
3.0
100
AcDbArc
 50
280.0000000000051
 51
335.0179689146229
  0
ARC
  5
FF9
330
2
100
AcDbEntity
  8
0
100
AcDbCircle
 10
293.281985418793
 20
415.2456345049862
 30
0.0
 40
3.0
100
AcDbArc
 50
180.0
 51
270.0
  0
ARC
  5
FFA
330
2
100
AcDbEntity
  8
0
100
AcDbCircle
 10
293.281985418793
 20
403.2456345049845
 30
0.0
 40
3.0
100
AcDbArc
 50
90.0
 51
180.0
  0
LINE
  5
FFB
330
2
100
AcDbEntity
  8
0
100
AcDbLine
 10
317.1048795270487
 20
406.2456345049861
 30
0.0
 11
293.2819854187926
 21
406.2456345049845
 31
0.0
  0
ARC
  5
FFC
330
2
100
AcDbEntity
  8
0
100
AcDbCircle
 10
306.7819854187926
 20
403.2456345049854
 30
0.0
 40
3.0
100
AcDbArc
 50
90.0
 51
180.0
  0
ARC
  5
FFD
330
2
100
AcDbEntity
  8
0
100
AcDbCircle
 10
317.1048795270487
 20
403.2456345049861
 30
0.0
 40
3.0
100
AcDbArc
 50
0.0
 51
90.0
  0
LINE
  5
FFE
330
2
100
AcDbEntity
  8
0
100
AcDbLine
 10
317.1048795270487
 20
412.245634504986
 30
0.0
 11
293.281985418793
 21
412.2456345049862
 31
0.0
  0
ARC
  5
FFF
330
2
100
AcDbEntity
  8
0
100
AcDbCircle
 10
317.1048795270487
 20
415.245634504986
 30
0.0
 40
3.0
100
AcDbArc
 50
270.0
 51
0.0
  0
LINE
  5
1000
330
2
100
AcDbEntity
  8
CENTER
100
AcDbLine
 10
1437.397922843879
 20
479.7696273562848
 30
0.0
 11
1437.397922843878
 21
338.7216416536868
 31
0.0
  0
LINE
  5
1001
330
2
100
AcDbEntity
  8
CENTER
100
AcDbLine
 10
1509.397922843885
 20
409.2456345049858
 30
0.0
 11
1294.397922843874
 21
409.2456345049859
 31
0.0
  0
LINE
  5
1002
330
2
100
AcDbEntity
  8
0
100
AcDbLine
 10
1437.397922843879
 20
469.7456345049857
 30
0.0
 11
1487.481253283841
 21
469.3282734179827
 31
0.0
  0
ARC
  5
1004
330
2
100
AcDbEntity
  8
0
100
AcDbCircle
 10
1487.397922843875
 20
459.3286206221215
 30
0.0
 40
10.0
100
AcDbArc
 50
44.08702223930833
 51
89.52254622268922
  0
LINE
  5
100A
330
2
100
AcDbEntity
  8
0
100
AcDbLine
 10
1370.397922843875
 20
468.3380402547466
 30
0.0
 11
1383.300512375684
 21
468.4506394477489
 31
0.0
  0
ARC
  5
100B
330
2
100
AcDbEntity
  8
0
100
AcDbCircle
 10
1353.397922843874
 20
447.3142569553713
 30
0.0
 40
2.0
100
AcDbArc
 50
92.00000000000365
 51
180.0
  0
LINE
  5
100C
330
2
100
AcDbEntity
  8
0
100
AcDbLine
 10
1353.328123850469
 20
449.3130386094096
 30
0.0
 11
1360.572420327387
 21
449.5660150168096
 31
0.0
  0
ARC
  5
100D
330
2
100
AcDbEntity
  8
0
100
AcDbCircle
 10
1360.397922843876
 20
454.5629691519049
 30
0.0
 40
5.0
100
AcDbArc
 50
271.9999999999775
 51
0.0
  0
LINE
  5
100E
330
2
100
AcDbEntity
  8
0
100
AcDbLine
 10
1370.397922843875
 20
350.1532287552254
 30
0.0
 11
1383.300512375685
 21
350.0406295622224
 31
0.0
  0
LINE
  5
100F
330
2
100
AcDbEntity
  8
0
100
AcDbLine
 10
1365.397922843875
 20
354.2456345049857
 30
0.0
 11
1365.397922843876
 21
464.2456345049863
 31
0.0
  0
ARC
  5
1010
330
2
100
AcDbEntity
  8
0
100
AcDbCircle
 10
1353.397922843874
 20
371.1770120546006
 30
0.0
 40
1.999999999999999
100
AcDbArc
 50
180.0
 51
267.9999999999963
  0
LINE
  5
1011
330
2
100
AcDbEntity
  8
0
100
AcDbLine
 10
1353.328123850469
 20
369.1782304005623
 30
0.0
 11
1360.572420327387
 21
368.9252539931624
 31
0.0
  0
ARC
  5
1012
330
2
100
AcDbEntity
  8
0
100
AcDbCircle
 10
1360.397922843875
 20
363.928299858067
 30
0.0
 40
4.999999999999999
100
AcDbArc
 50
0.0
 51
87.99999999999636
  0
LINE
  5
1013
330
2
100
AcDbEntity
  8
0
100
AcDbLine
 10
1351.397922843874
 20
447.3142569553713
 30
0.0
 11
1351.397922843874
 21
371.1770120546004
 31
0.0
  0
LINE
  5
1014
330
2
100
AcDbEntity
  8
0
100
AcDbLine
 10
1437.397922843879
 20
469.7456345049857
 30
0.0
 11
1387.314592403916
 21
469.3282734179827
 31
0.0
  0
ARC
  5
1016
330
2
100
AcDbEntity
  8
0
100
AcDbCircle
 10
1387.397922843882
 20
459.3286206221214
 30
0.0
 40
10.0
100
AcDbArc
 50
90.47745377731077
 51
135.9129777596969
  0
LINE
  5
1018
330
2
100
AcDbEntity
  8
0
100
AcDbLine
 10
1437.397922843878
 20
348.7456345049857
 30
0.0
 11
1487.481253283841
 21
349.1629955919887
 31
0.0
  0
ARC
  5
101A
330
2
100
AcDbEntity
  8
0
100
AcDbCircle
 10
1487.397922843875
 20
359.16264838785
 30
0.0
 40
10.0
100
AcDbArc
 50
270.4774537773107
 51
315.9129777614027
  0
LINE
  5
101C
330
2
100
AcDbEntity
  8
0
100
AcDbLine
 10
1437.397922843878
 20
348.7456345049857
 30
0.0
 11
1387.314592403916
 21
349.1629955919888
 31
0.0
  0
ARC
  5
101E
330
2
100
AcDbEntity
  8
0
100
AcDbCircle
 10
1387.397922843882
 20
359.1626483878501
 30
0.0
 40
10.0
100
AcDbArc
 50
224.0870222394325
 51
269.5225462226892
  0
LINE
  5
1028
330
2
100
AcDbEntity
  8
0
100
AcDbLine
 10
1365.397922843876
 20
464.2456345049863
 30
0.0
 11
1370.397922843875
 21
464.2456345049861
 31
0.0
  0
LINE
  5
1029
330
2
100
AcDbEntity
  8
0
 48
0.5
100
AcDbLine
 10
1370.397922843875
 20
468.3380402547465
 30
0.0
 11
1370.397922843875
 21
350.1532287552254
 31
0.0
  0
LINE
  5
102A
330
2
100
AcDbEntity
  8
0
100
AcDbLine
 10
1365.397922843875
 20
354.2456345049857
 30
0.0
 11
1370.397922843875
 21
354.2456345049858
 31
0.0
  0
LINE
  5
1047
330
2
100
AcDbEntity
  8
CENTER
100
AcDbLine
 10
379.7819854187257
 20
339.2456345049188
 30
0.0
 11
379.7819854188517
 21
476.1486799437851
 31
0.0
  0
LINE
  5
1048
330
2
100
AcDbEntity
  8
0
100
AcDbLine
 10
320.4219854187438
 20
359.2456345049735
 30
0.0
 11
320.4219854188361
 21
459.2456345049765
 31
0.0
  0
ARC
  5
1049
330
2
100
AcDbEntity
  8
0
100
AcDbCircle
 10
330.4219854188361
 20
459.2456345049673
 30
0.0
 40
10.0
100
AcDbArc
 50
89.99999999994789
 51
179.9999999999479
  0
LINE
  5
104A
330
2
100
AcDbEntity
  8
0
100
AcDbLine
 10
326.7819854187657
 20
382.7775970734651
 30
0.0
 11
326.7819854188144
 21
435.7136719365705
 31
0.0
  0
ARC
  5
104B
330
2
100
AcDbEntity
  8
0
100
AcDbCircle
 10
339.7819854188144
 20
435.7136719365585
 30
0.0
 40
13.0
100
AcDbArc
 50
134.9999999999359
 51
179.9999999999479
  0
LINE
  5
104C
330
2
100
AcDbEntity
  8
0
100
AcDbLine
 10
331.7819854187657
 20
382.7775970734606
 30
0.0
 11
331.7819854188144
 21
435.7136719365659
 31
0.0
  0
ARC
  5
104D
330
2
100
AcDbEntity
  8
0
100
AcDbCircle
 10
339.7819854187657
 20
382.7775970734531
 30
0.0
 40
8.0
100
AcDbArc
 50
179.9999999999479
 51
224.9999999999535
  0
CIRCLE
  5
104E
330
2
100
AcDbEntity
  8
0
100
AcDbCircle
 10
379.7819854187898
 20
409.2456345049217
 30
0.0
 40
32.50000000000008
  0
CIRCLE
  5
104F
330
2
100
AcDbEntity
  8
0
100
AcDbCircle
 10
379.7819854187898
 20
409.2456345049218
 30
0.0
 40
33.07735026918965
  0
CIRCLE
  5
1050
330
2
100
AcDbEntity
  8
0
100
AcDbCircle
 10
379.7819854187898
 20
409.2456345049217
 30
0.0
 40
36.92264973081032
  0
CIRCLE
  5
1051
330
2
100
AcDbEntity
  8
0
100
AcDbCircle
 10
379.7819854187898
 20
409.2456345049217
 30
0.0
 40
37.50000000000008
  0
CIRCLE
  5
1052
330
2
100
AcDbEntity
  8
0
100
AcDbCircle
 10
379.7819854187898
 20
409.2456345049217
 30
0.0
 40
39.50000000000031
  0
CIRCLE
  5
1053
330
2
100
AcDbEntity
  8
0
100
AcDbCircle
 10
379.7819854187898
 20
409.2456345049218
 30
0.0
 40
40.00000000000034
  0
LINE
  5
1054
330
2
100
AcDbEntity
  8
CENTER
100
AcDbLine
 10
319.8024864334231
 20
459.2456345049774
 30
0.0
 11
339.7614844042625
 21
459.2456345049589
 31
0.0
  0
LINE
  5
1055
330
2
100
AcDbEntity
  8
CENTER
100
AcDbLine
 10
329.7819854188271
 20
449.2661355195484
 30
0.0
 11
329.7819854188453
 21
469.2251334903879
 31
0.0
  0
LINE
  5
1056
330
2
100
AcDbEntity
  8
0
100
AcDbLine
 10
406.2500228502164
 20
361.2456345048967
 30
0.0
 11
353.3139479872504
 21
361.2456345049455
 31
0.0
  0
ARC
  5
1057
330
2
100
AcDbEntity
  8
0
100
AcDbCircle
 10
406.2500228502237
 20
369.2456345048967
 30
0.0
 40
8.0
100
AcDbArc
 50
269.9999999999478
 51
314.9999999999359
  0
LINE
  5
1058
330
2
100
AcDbEntity
  8
0
100
AcDbLine
 10
406.250022850211
 20
356.245634504896
 30
0.0
 11
353.3139479872463
 21
356.2456345049449
 31
0.0
  0
ARC
  5
1059
330
2
100
AcDbEntity
  8
0
100
AcDbCircle
 10
353.3139479872581
 20
369.2456345049449
 30
0.0
 40
13.0
100
AcDbArc
 50
224.9999999999535
 51
269.9999999999478
  0
LINE
  5
105A
330
2
100
AcDbEntity
  8
0
100
AcDbLine
 10
406.2500228503997
 20
457.2456345048975
 30
0.0
 11
353.3139479872345
 21
457.2456345049462
 31
0.0
  0
ARC
  5
105B
330
2
100
AcDbEntity
  8
0
100
AcDbCircle
 10
353.3139479872272
 20
449.2456345049462
 30
0.0
 40
8.0
100
AcDbArc
 50
89.99999999994789
 51
134.9999999999359
  0
LINE
  5
105C
330
2
100
AcDbEntity
  8
0
100
AcDbLine
 10
406.2500228504043
 20
462.2456345048973
 30
0.0
 11
353.313947987239
 21
462.2456345049461
 31
0.0
  0
ARC
  5
105D
330
2
100
AcDbEntity
  8
0
100
AcDbCircle
 10
406.2500228503925
 20
449.2456345048973
 30
0.0
 40
13.0
100
AcDbArc
 50
44.99999999995355
 51
89.99999999994789
  0
LINE
  5
105E
330
2
100
AcDbEntity
  8
0
100
AcDbLine
 10
432.7819854187658
 20
382.7775970734017
 30
0.0
 11
432.7819854188144
 21
435.7136719364475
 31
0.0
  0
ARC
  5
105F
330
2
100
AcDbEntity
  8
0
100
AcDbCircle
 10
419.7819854187657
 20
382.7775970734137
 30
0.0
 40
13.0
100
AcDbArc
 50
314.9999999999359
 51
359.9999999999478
  0
LINE
  5
1060
330
2
100
AcDbEntity
  8
0
100
AcDbLine
 10
427.7819854187657
 20
382.7775970734063
 30
0.0
 11
427.7819854188144
 21
435.7136719364521
 31
0.0
  0
ARC
  5
1061
330
2
100
AcDbEntity
  8
0
100
AcDbCircle
 10
419.7819854188144
 20
435.7136719364595
 30
0.0
 40
8.0
100
AcDbArc
 50
359.9999999999478
 51
44.99999999995355
  0
LINE
  5
1062
330
2
100
AcDbEntity
  8
CENTER
100
AcDbLine
 10
442.0528974765436
 20
471.5165465626245
 30
0.0
 11
317.511073361007
 21
346.9747224473179
 31
0.0
  0
LINE
  5
1063
330
2
100
AcDbEntity
  8
0
100
AcDbLine
 10
347.6570937377402
 20
454.9024887544438
 30
0.0
 11
334.1251311693274
 21
441.3705261860561
 31
0.0
  0
LINE
  5
1064
330
2
100
AcDbEntity
  8
0
100
AcDbLine
 10
344.1215598318105
 20
458.4380226603797
 30
0.0
 11
330.5895972633977
 21
444.9060600919921
 31
0.0
  0
ARC
  5
1065
330
2
100
AcDbEntity
  8
0
100
AcDbCircle
 10
353.3139479872272
 20
449.245634504946
 30
0.0
 40
13.0
100
AcDbArc
 50
89.99999999994789
 51
134.9999999999359
  0
ARC
  5
1066
330
2
100
AcDbEntity
  8
0
100
AcDbCircle
 10
339.7819854188144
 20
435.7136719365585
 30
0.0
 40
8.0
100
AcDbArc
 50
134.9999999999359
 51
179.9999999999479
  0
LINE
  5
1067
330
2
100
AcDbEntity
  8
0
100
AcDbLine
 10
425.4388396682527
 20
377.1207428239161
 30
0.0
 11
411.9068770997107
 21
363.5887802553992
 31
0.0
  0
LINE
  5
1068
330
2
100
AcDbEntity
  8
0
100
AcDbLine
 10
428.9743735741824
 20
373.5852089179801
 30
0.0
 11
415.4424110056395
 21
360.0532463494624
 31
0.0
  0
ARC
  5
1069
330
2
100
AcDbEntity
  8
0
100
AcDbCircle
 10
406.2500228502228
 20
369.245634504896
 30
0.0
 40
13.0
100
AcDbArc
 50
269.9999999999478
 51
314.9999999999359
  0
ARC
  5
106A
330
2
100
AcDbEntity
  8
0
100
AcDbCircle
 10
419.7819854187657
 20
382.7775970734137
 30
0.0
 40
8.0
100
AcDbArc
 50
314.9999999999359
 51
359.9999999999478
  0
LINE
  5
106B
330
2
100
AcDbEntity
  8
CENTER
100
AcDbLine
 10
317.5110733610856
 20
471.5165465627331
 30
0.0
 11
442.052897476435
 21
346.974722447239
 31
0.0
  0
LINE
  5
106C
330
2
100
AcDbEntity
  8
0
100
AcDbLine
 10
411.9068770998881
 20
454.9024887543865
 30
0.0
 11
425.43883966831
 21
441.3705261859486
 31
0.0
  0
LINE
  5
106D
330
2
100
AcDbEntity
  8
0
100
AcDbLine
 10
415.4424110058227
 20
458.4380226603171
 30
0.0
 11
428.9743735742447
 21
444.9060600918793
 31
0.0
  0
ARC
  5
106E
330
2
100
AcDbEntity
  8
0
100
AcDbCircle
 10
419.7819854188144
 20
435.7136719364595
 30
0.0
 40
13.0
100
AcDbArc
 50
359.9999999999478
 51
44.99999999995355
  0
ARC
  5
106F
330
2
100
AcDbEntity
  8
0
100
AcDbCircle
 10
406.2500228503925
 20
449.2456345048974
 30
0.0
 40
8.0
100
AcDbArc
 50
44.99999999995355
 51
89.99999999994789
  0
LINE
  5
1070
330
2
100
AcDbEntity
  8
0
100
AcDbLine
 10
334.1251311692701
 20
377.1207428239641
 30
0.0
 11
347.6570937377621
 21
363.5887802554564
 31
0.0
  0
LINE
  5
1071
330
2
100
AcDbEntity
  8
0
100
AcDbLine
 10
330.5895972633354
 20
373.5852089180333
 30
0.0
 11
344.1215598318279
 21
360.0532463495251
 31
0.0
  0
ARC
  5
1072
330
2
100
AcDbEntity
  8
0
100
AcDbCircle
 10
339.7819854187657
 20
382.7775970734531
 30
0.0
 40
13.0
100
AcDbArc
 50
179.9999999999479
 51
224.9999999999535
  0
ARC
  5
1073
330
2
100
AcDbEntity
  8
0
100
AcDbCircle
 10
353.3139479872577
 20
369.2456345049455
 30
0.0
 40
8.0
100
AcDbArc
 50
224.9999999999535
 51
269.9999999999478
  0
LINE
  5
1074
330
2
100
AcDbEntity
  8
0
100
AcDbLine
 10
411.2249074709581
 20
357.2352005822447
 30
0.0
 11
409.3114903091374
 21
361.8545982448036
 31
0.0
  0
LINE
  5
1075
330
2
100
AcDbEntity
  8
0
100
AcDbLine
 10
431.792419341408
 20
377.8027124526565
 30
0.0
 11
427.173021678853
 21
379.7161296144862
 31
0.0
  0
CIRCLE
  5
1076
330
2
100
AcDbEntity
  8
HOJO
100
AcDbCircle
 10
432.2819854187789
 20
370.7456345049619
 30
0.0
 40
2.5
  0
CIRCLE
  5
1077
330
2
100
AcDbEntity
  8
0
100
AcDbCircle
 10
432.2819854187789
 20
370.7456345049619
 30
0.0
 40
2.0
  0
CIRCLE
  5
1078
330
2
100
AcDbEntity
  8
HOJO
100
AcDbCircle
 10
327.2819854188517
 20
447.7456345050611
 30
0.0
 40
2.5
  0
CIRCLE
  5
1079
330
2
100
AcDbEntity
  8
0
100
AcDbCircle
 10
327.2819854188517
 20
447.7456345050611
 30
0.0
 40
2.0
  0
LINE
  5
107A
330
2
100
AcDbEntity
  8
CENTER
100
AcDbLine
 10
327.2819854188467
 20
442.083841703871
 30
0.0
 11
327.2819854188572
 21
453.4074273062511
 31
0.0
  0
LINE
  5
107B
330
2
100
AcDbEntity
  8
CENTER
100
AcDbLine
 10
332.9437782200418
 20
447.7456345050558
 30
0.0
 11
321.6201926176616
 21
447.7456345050662
 31
0.0
  0
LINE
  5
107C
330
2
100
AcDbEntity
  8
0
100
AcDbLine
 10
431.7924193414025
 20
440.6885565571542
 30
0.0
 11
427.1730216788439
 21
438.7751393953337
 31
0.0
  0
LINE
  5
107D
330
2
100
AcDbEntity
  8
0
100
AcDbLine
 10
411.2249074709909
 20
461.2560684276039
 30
0.0
 11
409.3114903091612
 21
456.6366707650492
 31
0.0
  0
LINE
  5
107E
330
2
100
AcDbEntity
  8
0
100
AcDbLine
 10
348.3390633664932
 20
461.2560684275988
 30
0.0
 11
350.2524805283139
 21
456.6366707650399
 31
0.0
  0
LINE
  5
107F
330
2
100
AcDbEntity
  8
0
100
AcDbLine
 10
327.7715514960434
 20
440.6885565571871
 30
0.0
 11
332.3909491585984
 21
438.7751393953573
 31
0.0
  0
LINE
  5
1080
330
2
100
AcDbEntity
  8
0
100
AcDbLine
 10
327.7715514960484
 20
377.8027124526894
 30
0.0
 11
332.3909491586075
 21
379.7161296145099
 31
0.0
  0
LINE
  5
1081
330
2
100
AcDbEntity
  8
0
100
AcDbLine
 10
348.3390633664605
 20
357.2352005822396
 30
0.0
 11
350.2524805282898
 21
361.8545982447944
 31
0.0
  0
ARC
  5
1082
330
2
100
AcDbEntity
  8
0
100
AcDbCircle
 10
379.781985418904
 20
599.2456345049188
 30
0.0
 40
250.0
100
AcDbArc
 50
265.4117542407429
 51
274.5882457591524
  0
ARC
  5
1083
330
2
100
AcDbEntity
  8
0
 48
0.5
100
AcDbCircle
 10
429.7819854186834
 20
359.2456345048725
 30
0.0
 40
10.0
100
AcDbArc
 50
269.9999999999478
 51
359.9999999999478
  0
LINE
  5
1084
330
2
100
AcDbEntity
  8
0
 48
0.5
100
AcDbLine
 10
429.7819854186744
 20
349.2456345048724
 30
0.0
 11
419.7819854186698
 21
349.2456345048818
 31
0.0
  0
ARC
  5
1085
330
2
100
AcDbEntity
  8
0
100
AcDbCircle
 10
419.7819854186775
 20
357.2456345048822
 30
0.0
 40
8.0
100
AcDbArc
 50
261.1083543197433
 51
269.9999999999478
  0
ARC
  5
1086
330
2
100
AcDbEntity
  8
0
100
AcDbCircle
 10
406.180148392252
 20
270.3031821038452
 30
0.0
 40
80.0
100
AcDbArc
 50
81.10835431974335
 51
94.58824575915246
  0
LINE
  5
1087
330
2
100
AcDbEntity
  8
0
 48
0.5
100
AcDbLine
 10
439.7819854186834
 20
359.2456345048633
 30
0.0
 11
439.7819854186925
 21
369.2456345048674
 31
0.0
  0
ARC
  5
1088
330
2
100
AcDbEntity
  8
0
100
AcDbCircle
 10
431.7819854186921
 20
369.2456345048747
 30
0.0
 40
8.0
100
AcDbArc
 50
359.9999999999478
 51
8.891645680153487
  0
ARC
  5
1089
330
2
100
AcDbEntity
  8
0
100
AcDbCircle
 10
518.724437819754
 20
382.8474715311399
 30
0.0
 40
80.0
100
AcDbArc
 50
175.4117542407342
 51
188.8916456801534
  0
LINE
  5
108A
330
2
100
AcDbEntity
  8
0
 48
0.5
100
AcDbLine
 10
330.4219854187347
 20
349.2456345049642
 30
0.0
 11
339.7819854186743
 21
349.2456345049556
 31
0.0
  0
ARC
  5
108B
330
2
100
AcDbEntity
  8
0
 48
0.5
100
AcDbCircle
 10
330.4219854187438
 20
359.2456345049642
 30
0.0
 40
10.0
100
AcDbArc
 50
179.9999999999479
 51
269.9999999999478
  0
ARC
  5
108C
330
2
100
AcDbEntity
  8
0
100
AcDbCircle
 10
339.781985418682
 20
357.2456345049559
 30
0.0
 40
8.0
100
AcDbArc
 50
269.9999999999478
 51
278.8916456801511
  0
ARC
  5
108D
330
2
100
AcDbEntity
  8
0
100
AcDbCircle
 10
353.3838224449466
 20
270.303182103894
 30
0.0
 40
80.0
100
AcDbArc
 50
85.41175424074296
 51
98.89164568015118
  0
ARC
  5
108E
330
2
100
AcDbEntity
  8
0
 48
0.5
100
AcDbCircle
 10
429.7819854187757
 20
459.2456345048756
 30
0.0
 40
10.0
100
AcDbArc
 50
359.9999999999478
 51
89.99999999994789
  0
LINE
  5
108F
330
2
100
AcDbEntity
  8
0
 48
0.5
100
AcDbLine
 10
429.7819854187848
 20
469.2456345048756
 30
0.0
 11
419.7819854187807
 21
469.2456345048847
 31
0.0
  0
ARC
  5
1090
330
2
100
AcDbEntity
  8
0
100
AcDbCircle
 10
419.7819854187734
 20
461.2456345048843
 30
0.0
 40
8.0
100
AcDbArc
 50
89.99999999994789
 51
98.89164568015118
  0
ARC
  5
1091
330
2
100
AcDbEntity
  8
0
100
AcDbCircle
 10
406.1801483925084
 20
548.1880869059464
 30
0.0
 40
80.0
100
AcDbArc
 50
265.4117542407429
 51
278.8916456801511
  0
LINE
  5
1092
330
2
100
AcDbEntity
  8
0
 48
0.5
100
AcDbLine
 10
439.7819854187758
 20
459.2456345048662
 30
0.0
 11
439.7819854187662
 21
449.2456345048622
 31
0.0
  0
ARC
  5
1093
330
2
100
AcDbEntity
  8
0
100
AcDbCircle
 10
431.7819854187657
 20
449.2456345048696
 30
0.0
 40
8.0
100
AcDbArc
 50
351.1083543197524
 51
359.9999999999478
  0
ARC
  5
1094
330
2
100
AcDbEntity
  8
0
100
AcDbCircle
 10
518.7244378198027
 20
435.643797478444
 30
0.0
 40
80.0
100
AcDbArc
 50
171.1083543197401
 51
184.5882457591504
  0
LINE
  5
1095
330
2
100
AcDbEntity
  8
0
 48
0.5
100
AcDbLine
 10
330.4219854188456
 20
469.2456345049673
 30
0.0
 11
339.7819854187853
 21
469.2456345049585
 31
0.0
  0
ARC
  5
1096
330
2
100
AcDbEntity
  8
0
100
AcDbCircle
 10
339.781985418778
 20
461.2456345049582
 30
0.0
 40
8.0
100
AcDbArc
 50
81.10835431974335
 51
89.99999999994789
  0
ARC
  5
1097
330
2
100
AcDbEntity
  8
0
100
AcDbCircle
 10
353.3838224452031
 20
548.188086905995
 30
0.0
 40
80.0
100
AcDbArc
 50
261.1083543197433
 51
274.5882457591524
  0
ARC
  5
1098
330
2
100
AcDbEntity
  8
0
100
AcDbCircle
 10
189.7819854187289
 20
409.2456345050967
 30
0.0
 40
250.0
100
AcDbArc
 50
355.4117542407341
 51
4.588245759156921
  0
ARC
  5
1099
330
2
100
AcDbEntity
  8
0
100
AcDbCircle
 10
379.7819854185533
 20
219.2456345049216
 30
0.0
 40
250.0
100
AcDbArc
 50
85.41175424074296
 51
94.58824575915246
  0
LINE
  5
10C8
330
2
100
AcDbEntity
  8
0
100
AcDbLine
 10
1007.419171748529
 20
817.5276062997753
 30
0.0
 11
1007.34920449556
 21
825.5450593707719
 31
0.0
  0
ARC
  5
10C9
330
2
100
AcDbEntity
  8
0
100
AcDbCircle
 10
1005.349280649432
 20
825.5276062997753
 30
0.0
 40
2.0
100
AcDbArc
 50
0.499999999998063
 51
90.0
  0
LINE
  5
10CA
330
2
100
AcDbEntity
  8
0
100
AcDbLine
 10
984.9818214793401
 20
841.0276062997754
 30
0.0
 11
948.0591717485296
 21
841.0276062997754
 31
0.0
  0
LINE
  5
10CB
330
2
100
AcDbEntity
  8
0
 48
0.5
100
AcDbLine
 10
988.0591717485296
 20
832.5276062997755
 30
0.0
 11
987.5591717485301
 21
833.0276062997754
 31
0.0
  0
LINE
  5
10CC
330
2
100
AcDbEntity
  8
0
100
AcDbLine
 10
904.5591717485297
 20
832.527606299774
 30
0.0
 11
991.5591717485296
 21
832.5276062997753
 31
0.0
  0
ARC
  5
10CD
330
2
100
AcDbEntity
  8
0
100
AcDbCircle
 10
985.1591717485296
 20
838.2276062997759
 30
0.0
 40
0.3
100
AcDbArc
 50
90.0
 51
180.0
  0
ARC
  5
10CE
330
2
100
AcDbEntity
  8
0
100
AcDbCircle
 10
985.1591717485296
 20
836.8276062997759
 30
0.0
 40
0.3
100
AcDbArc
 50
180.0
 51
270.0
  0
LINE
  5
10CF
330
2
100
AcDbEntity
  8
0
 48
0.5
100
AcDbLine
 10
985.3591717485299
 20
836.5276062997759
 30
0.0
 11
985.5591717485296
 21
836.327606299776
 31
0.0
  0
LINE
  5
10D0
330
2
100
AcDbEntity
  8
0
 48
0.5
100
AcDbLine
 10
984.8591717485298
 20
838.2276062997759
 30
0.0
 11
984.8591717485298
 21
836.8276062997759
 31
0.0
  0
LINE
  5
10D1
330
2
100
AcDbEntity
  8
0
100
AcDbLine
 10
985.5591717485296
 20
840.0276062997759
 30
0.0
 11
984.9818214793398
 21
841.0276062997759
 31
0.0
  0
LINE
  5
10D2
330
2
100
AcDbEntity
  8
0
100
AcDbLine
 10
985.2591717485294
 20
838.5276062997759
 30
0.0
 11
910.8591717485303
 21
838.527606299776
 31
0.0
  0
ARC
  5
10D3
330
2
100
AcDbEntity
  8
0
 48
0.5
100
AcDbCircle
 10
985.2591717485294
 20
838.8276062997759
 30
0.0
 40
0.3
100
AcDbArc
 50
270.0
 51
0.0
  0
LINE
  5
10D4
330
2
100
AcDbEntity
  8
0
 48
0.5
100
AcDbLine
 10
985.5591717485296
 20
840.0276062997759
 30
0.0
 11
985.5591717485296
 21
838.8276062997759
 31
0.0
  0
LINE
  5
10D5
330
2
100
AcDbEntity
  8
0
 48
0.5
100
AcDbLine
 10
985.5591717485296
 20
836.327606299776
 30
0.0
 11
985.5591717485296
 21
833.0276062997759
 31
0.0
  0
LINE
  5
10D6
330
2
100
AcDbEntity
  8
HIDS
  6
SEKKEI_H
 48
0.5
100
AcDbLine
 10
1000.473385310904
 20
828.1133927374016
 30
0.0
 11
996.6449581861573
 21
831.941819862147
 31
0.0
  0
ARC
  5
10D7
330
2
100
AcDbEntity
  8
HIDS
  6
SEKKEI_H
100
AcDbCircle
 10
995.2307446237838
 20
830.5276062997739
 30
0.0
 40
2.0
100
AcDbArc
 50
44.99999999999098
 51
90.0
  0
ARC
  5
10D8
330
2
100
AcDbEntity
  8
HIDS
  6
SEKKEI_H
 48
0.5
100
AcDbCircle
 10
1001.887598873277
 20
829.5276062997752
 30
0.0
 40
2.0
100
AcDbArc
 50
224.9999999999898
 51
270.0
  0
LINE
  5
10D9
330
2
100
AcDbEntity
  8
0
100
AcDbLine
 10
911.1365220177196
 20
841.0276062997754
 30
0.0
 11
948.0591717485296
 21
841.0276062997754
 31
0.0
  0
LINE
  5
10DA
330
2
100
AcDbEntity
  8
0
 48
0.5
100
AcDbLine
 10
908.0591717485297
 20
832.5276062997755
 30
0.0
 11
908.5591717485296
 21
833.0276062997754
 31
0.0
  0
ARC
  5
10DB
330
2
100
AcDbEntity
  8
0
100
AcDbCircle
 10
910.9591717485303
 20
838.2276062997759
 30
0.0
 40
0.3
100
AcDbArc
 50
0.0
 51
90.0
  0
ARC
  5
10DC
330
2
100
AcDbEntity
  8
0
100
AcDbCircle
 10
910.9591717485303
 20
836.8276062997759
 30
0.0
 40
0.3
100
AcDbArc
 50
270.0
 51
0.0
  0
LINE
  5
10DD
330
2
100
AcDbEntity
  8
0
100
AcDbLine
 10
910.7591717485304
 20
836.5276062997759
 30
0.0
 11
985.3591717485299
 21
836.5276062997759
 31
0.0
  0
LINE
  5
10DE
330
2
100
AcDbEntity
  8
0
 48
0.5
100
AcDbLine
 10
910.7591717485304
 20
836.5276062997759
 30
0.0
 11
910.5591717485301
 21
836.327606299776
 31
0.0
  0
LINE
  5
10DF
330
2
100
AcDbEntity
  8
0
 48
0.5
100
AcDbLine
 10
911.2591717485305
 20
838.2276062997759
 30
0.0
 11
911.2591717485305
 21
836.8276062997759
 31
0.0
  0
LINE
  5
10E0
330
2
100
AcDbEntity
  8
0
100
AcDbLine
 10
910.5591717485301
 20
840.0276062997759
 30
0.0
 11
911.1365220177196
 21
841.0276062997759
 31
0.0
  0
ARC
  5
10E1
330
2
100
AcDbEntity
  8
0
 48
0.5
100
AcDbCircle
 10
910.8591717485303
 20
838.8276062997759
 30
0.0
 40
0.3
100
AcDbArc
 50
180.0
 51
270.0
  0
LINE
  5
10E2
330
2
100
AcDbEntity
  8
0
 48
0.5
100
AcDbLine
 10
910.5591717485301
 20
840.0276062997759
 30
0.0
 11
910.5591717485301
 21
838.8276062997759
 31
0.0
  0
LINE
  5
10E3
330
2
100
AcDbEntity
  8
0
 48
0.5
100
AcDbLine
 10
910.5591717485301
 20
836.327606299776
 30
0.0
 11
910.5591717485301
 21
833.0276062997759
 31
0.0
  0
LINE
  5
10E4
330
2
100
AcDbEntity
  8
0
 48
0.3
100
AcDbLine
 10
890.0591717485307
 20
827.5276062997752
 30
0.0
 11
1005.349280649432
 21
827.5276062997752
 31
0.0
  0
LINE
  5
10E5
330
2
100
AcDbEntity
  8
0
100
AcDbLine
 10
888.0591717485302
 20
817.5276062997753
 30
0.0
 11
1007.419171748529
 21
817.5276062997753
 31
0.0
  0
LINE
  5
10E6
330
2
100
AcDbEntity
  8
HIDS
  6
SEKKEI_H
 48
0.5
100
AcDbLine
 10
895.6449581861564
 20
828.1133927374016
 30
0.0
 11
899.4733853109025
 21
831.941819862147
 31
0.0
  0
ARC
  5
10E7
330
2
100
AcDbEntity
  8
HIDS
  6
SEKKEI_H
100
AcDbCircle
 10
900.8875988732754
 20
830.5276062997739
 30
0.0
 40
2.0
100
AcDbArc
 50
90.0
 51
135.000000000009
  0
ARC
  5
10E8
330
2
100
AcDbEntity
  8
HIDS
  6
SEKKEI_H
 48
0.5
100
AcDbCircle
 10
894.230744623783
 20
829.5276062997752
 30
0.0
 40
2.0
100
AcDbArc
 50
270.0
 51
315.0000000000101
  0
ARC
  5
10E9
330
2
100
AcDbEntity
  8
0
 48
0.3
100
AcDbCircle
 10
890.1290628476283
 20
825.5276062997753
 30
0.0
 40
2.0
100
AcDbArc
 50
90.0
 51
179.4999999999954
  0
LINE
  5
10EA
330
2
100
AcDbEntity
  8
0
100
AcDbLine
 10
888.1291390015
 20
825.545059370772
 30
0.0
 11
888.0591717485302
 21
817.5276062997753
 31
0.0
  0
LINE
  5
10EB
330
2
100
AcDbEntity
  8
0
100
AcDbLine
 10
985.5591717485296
 20
840.0276062997759
 30
0.0
 11
910.5591717485301
 21
840.0276062997759
 31
0.0
  0
LINE
  5
10EC
330
2
100
AcDbEntity
  8
0
100
AcDbLine
 10
985.5591717485296
 20
836.327606299776
 30
0.0
 11
910.5591717485301
 21
836.327606299776
 31
0.0
  0
LINE
  5
10ED
330
2
100
AcDbEntity
  8
0
100
AcDbLine
 10
987.5591717485301
 20
833.0276062997754
 30
0.0
 11
908.5591717485296
 21
833.0276062997754
 31
0.0
  0
LINE
  5
10F4
330
2
100
AcDbEntity
  8
0
100
AcDbLine
 10
898.0591717485307
 20
826.0276062997752
 30
0.0
 11
898.0591717485307
 21
817.5276062997765
 31
0.0
  0
LINE
  5
10F5
330
2
100
AcDbEntity
  8
0
100
AcDbLine
 10
908.0591717485319
 20
826.0276062997752
 30
0.0
 11
908.0591717485319
 21
817.5276062997763
 31
0.0
  0
LINE
  5
10F6
330
2
100
AcDbEntity
  8
0
100
AcDbLine
 10
928.0605634351134
 20
826.0276062997752
 30
0.0
 11
928.0605634351134
 21
817.5276062997758
 31
0.0
  0
LINE
  5
10F7
330
2
100
AcDbEntity
  8
0
100
AcDbLine
 10
968.0577800619433
 20
826.0276062997752
 30
0.0
 11
968.0577800619433
 21
817.5276062997747
 31
0.0
  0
LINE
  5
10F8
330
2
100
AcDbEntity
  8
0
100
AcDbLine
 10
988.0591717485273
 20
826.0276062997752
 30
0.0
 11
988.0591717485273
 21
817.527606299774
 31
0.0
  0
LINE
  5
10F9
330
2
100
AcDbEntity
  8
0
100
AcDbLine
 10
998.0591717485316
 20
826.0276062997752
 30
0.0
 11
998.0591717485316
 21
817.5276062997738
 31
0.0
  0
LINE
  5
10FA
330
2
100
AcDbEntity
  8
0
 48
0.3
100
AcDbLine
 10
904.5591717485297
 20
837.0276062997753
 30
0.0
 11
891.5591717485296
 21
837.0276062997753
 31
0.0
  0
LINE
  5
10FB
330
2
100
AcDbEntity
  8
0
 48
0.3
100
AcDbLine
 10
903.6931463447437
 20
837.5276062997752
 30
0.0
 11
892.4251971523146
 21
837.5276062997752
 31
0.0
  0
LINE
  5
10FC
330
2
100
AcDbEntity
  8
0
 48
0.3
100
AcDbLine
 10
891.5591717485296
 20
837.0276062997753
 30
0.0
 11
892.4251971523146
 21
837.5276062997752
 31
0.0
  0
LINE
  5
10FD
330
2
100
AcDbEntity
  8
0
 48
0.3
100
AcDbLine
 10
891.5591717485296
 20
837.0276062997753
 30
0.0
 11
891.5591717485296
 21
829.5276062997752
 31
0.0
  0
LINE
  5
10FE
330
2
100
AcDbEntity
  8
0
 48
0.3
100
AcDbLine
 10
904.5591717485297
 20
837.0276062997746
 30
0.0
 11
903.6931463447452
 21
837.5276062997748
 31
0.0
  0
LINE
  5
10FF
330
2
100
AcDbEntity
  8
0
 48
0.3
100
AcDbLine
 10
904.5591717485297
 20
837.0276062997742
 30
0.0
 11
904.5591717485297
 21
829.5276062997752
 31
0.0
  0
LINE
  5
1100
330
2
100
AcDbEntity
  8
0
 48
0.3
100
AcDbLine
 10
1004.559171748529
 20
837.0276062997753
 30
0.0
 11
991.5591717485296
 21
837.0276062997753
 31
0.0
  0
LINE
  5
1101
330
2
100
AcDbEntity
  8
0
 48
0.3
100
AcDbLine
 10
1003.693146344743
 20
837.5276062997752
 30
0.0
 11
992.4251971523146
 21
837.5276062997752
 31
0.0
  0
LINE
  5
1102
330
2
100
AcDbEntity
  8
0
 48
0.3
100
AcDbLine
 10
991.5591717485296
 20
837.0276062997753
 30
0.0
 11
992.4251971523146
 21
837.5276062997752
 31
0.0
  0
LINE
  5
1103
330
2
100
AcDbEntity
  8
0
 48
0.3
100
AcDbLine
 10
991.5591717485296
 20
837.0276062997753
 30
0.0
 11
991.5591717485296
 21
829.5276062997752
 31
0.0
  0
LINE
  5
1104
330
2
100
AcDbEntity
  8
0
 48
0.3
100
AcDbLine
 10
1004.559171748529
 20
837.0276062997746
 30
0.0
 11
1003.693146344745
 21
837.5276062997748
 31
0.0
  0
LINE
  5
1105
330
2
100
AcDbEntity
  8
0
 48
0.3
100
AcDbLine
 10
1004.559171748529
 20
837.0276062997742
 30
0.0
 11
1004.559171748529
 21
829.5276062997752
 31
0.0
  0
LINE
  5
1106
330
2
100
AcDbEntity
  8
CENTER
 48
0.5
100
AcDbLine
 10
898.0591717485296
 20
840.5276062997753
 30
0.0
 11
898.0591717485296
 21
821.5276062997752
 31
0.0
  0
LINE
  5
1107
330
2
100
AcDbEntity
  8
CENTER
 48
0.5
100
AcDbLine
 10
998.0591717485296
 20
840.5276062997753
 30
0.0
 11
998.0591717485296
 21
821.5276062997752
 31
0.0
  0
LINE
  5
1116
330
2
100
AcDbEntity
  8
CENTER
100
AcDbLine
 10
1011.767238850136
 20
345.5375674033807
 30
0.0
 11
884.3511046469242
 21
472.9537016065914
 31
0.0
  0
LINE
  5
1117
330
2
100
AcDbEntity
  8
CENTER
100
AcDbLine
 10
884.3511046469251
 20
345.5375674033802
 30
0.0
 11
1011.767238850135
 21
472.953701606592
 31
0.0
  0
LINE
  5
111A
330
2
100
AcDbEntity
  8
HIDS
  6
SEKKEI_H
100
AcDbLine
 10
900.8875988732754
 20
832.5276062997739
 30
0.0
 11
904.5591717485297
 21
832.527606299774
 31
0.0
  0
LINE
  5
111B
330
2
100
AcDbEntity
  8
HIDS
  6
SEKKEI_H
100
AcDbLine
 10
991.5591717485296
 20
832.5276062997753
 30
0.0
 11
995.2307446237838
 21
832.5276062997739
 31
0.0
  0
LINE
  5
1120
330
2
100
AcDbEntity
  8
0
100
AcDbLine
 10
429.7819854188362
 20
455.7815328897379
 30
0.0
 11
432.7819854188362
 21
457.5135836973068
 31
0.0
  0
LINE
  5
1121
330
2
100
AcDbEntity
  8
0
100
AcDbLine
 10
426.7819854188362
 20
460.9776853124444
 30
0.0
 11
429.7819854188362
 21
462.7097361200133
 31
0.0
  0
CIRCLE
  5
1122
330
2
100
AcDbEntity
  8
0
100
AcDbCircle
 10
429.7819854188362
 20
459.2456345048756
 30
0.0
 40
6.5
  0
LINE
  5
1123
330
2
100
AcDbEntity
  8
0
100
AcDbLine
 10
432.7819854188362
 20
460.9776853124444
 30
0.0
 11
429.7819854188362
 21
462.7097361200132
 31
0.0
  0
LINE
  5
1124
330
2
100
AcDbEntity
  8
0
100
AcDbLine
 10
429.7819854188362
 20
455.781532889738
 30
0.0
 11
426.7819854188362
 21
457.5135836973067
 31
0.0
  0
LINE
  5
1125
330
2
100
AcDbEntity
  8
0
100
AcDbLine
 10
432.7819854188362
 20
457.5135836973069
 30
0.0
 11
432.7819854188362
 21
460.9776853124444
 31
0.0
  0
LINE
  5
1126
330
2
100
AcDbEntity
  8
0
100
AcDbLine
 10
426.7819854188362
 20
457.5135836973066
 30
0.0
 11
426.7819854188362
 21
460.9776853124444
 31
0.0
  0
CIRCLE
  5
1127
330
2
100
AcDbEntity
  8
0
100
AcDbCircle
 10
429.7819854188362
 20
459.2456345048756
 30
0.0
 40
5.633974596215466
  0
CIRCLE
  5
1128
330
2
100
AcDbEntity
  8
0
100
AcDbCircle
 10
429.7819854188362
 20
459.2456345048756
 30
0.0
 40
7.25
  0
LINE
  5
1129
330
2
100
AcDbEntity
  8
0
100
AcDbLine
 10
329.7819854188362
 20
455.7815328898305
 30
0.0
 11
332.7819854188362
 21
457.5135836973995
 31
0.0
  0
LINE
  5
112A
330
2
100
AcDbEntity
  8
0
100
AcDbLine
 10
326.7819854188362
 20
460.977685312537
 30
0.0
 11
329.7819854188362
 21
462.709736120106
 31
0.0
  0
CIRCLE
  5
112B
330
2
100
AcDbEntity
  8
0
100
AcDbCircle
 10
329.7819854188362
 20
459.2456345049682
 30
0.0
 40
6.5
  0
LINE
  5
112C
330
2
100
AcDbEntity
  8
0
100
AcDbLine
 10
332.7819854188362
 20
460.977685312537
 30
0.0
 11
329.7819854188362
 21
462.7097361201059
 31
0.0
  0
LINE
  5
112D
330
2
100
AcDbEntity
  8
0
100
AcDbLine
 10
329.7819854188362
 20
455.7815328898306
 30
0.0
 11
326.7819854188362
 21
457.5135836973993
 31
0.0
  0
LINE
  5
112E
330
2
100
AcDbEntity
  8
0
100
AcDbLine
 10
332.7819854188362
 20
457.5135836973996
 30
0.0
 11
332.7819854188362
 21
460.9776853125372
 31
0.0
  0
LINE
  5
112F
330
2
100
AcDbEntity
  8
0
100
AcDbLine
 10
326.7819854188362
 20
457.5135836973992
 30
0.0
 11
326.7819854188362
 21
460.977685312537
 31
0.0
  0
CIRCLE
  5
1130
330
2
100
AcDbEntity
  8
0
100
AcDbCircle
 10
329.7819854188362
 20
459.2456345049682
 30
0.0
 40
5.633974596215466
  0
CIRCLE
  5
1131
330
2
100
AcDbEntity
  8
0
100
AcDbCircle
 10
329.7819854188362
 20
459.2456345049682
 30
0.0
 40
7.25
  0
LINE
  5
1132
330
2
100
AcDbEntity
  8
0
100
AcDbLine
 10
329.7819854187439
 20
355.7815328898943
 30
0.0
 11
332.7819854187434
 21
357.5135836974633
 31
0.0
  0
LINE
  5
1133
330
2
100
AcDbEntity
  8
0
100
AcDbLine
 10
326.7819854187439
 20
360.9776853126009
 30
0.0
 11
329.7819854187439
 21
362.7097361201698
 31
0.0
  0
CIRCLE
  5
1134
330
2
100
AcDbEntity
  8
0
100
AcDbCircle
 10
329.7819854187439
 20
359.245634505032
 30
0.0
 40
6.5
  0
LINE
  5
1135
330
2
100
AcDbEntity
  8
0
100
AcDbLine
 10
332.7819854187434
 20
360.9776853126009
 30
0.0
 11
329.7819854187439
 21
362.7097361201697
 31
0.0
  0
LINE
  5
1136
330
2
100
AcDbEntity
  8
0
100
AcDbLine
 10
329.7819854187439
 20
355.7815328898945
 30
0.0
 11
326.7819854187439
 21
357.5135836974632
 31
0.0
  0
LINE
  5
1137
330
2
100
AcDbEntity
  8
0
100
AcDbLine
 10
332.7819854187434
 20
357.5135836974634
 30
0.0
 11
332.7819854187434
 21
360.977685312601
 31
0.0
  0
LINE
  5
1138
330
2
100
AcDbEntity
  8
0
100
AcDbLine
 10
326.7819854187439
 20
357.5135836974631
 30
0.0
 11
326.7819854187439
 21
360.9776853126009
 31
0.0
  0
CIRCLE
  5
1139
330
2
100
AcDbEntity
  8
0
100
AcDbCircle
 10
329.7819854187439
 20
359.245634505032
 30
0.0
 40
5.633974596215466
  0
CIRCLE
  5
113A
330
2
100
AcDbEntity
  8
0
100
AcDbCircle
 10
329.7819854187439
 20
359.245634505032
 30
0.0
 40
7.25
  0
LINE
  5
113B
330
2
100
AcDbEntity
  8
0
100
AcDbLine
 10
429.781985418813
 20
355.7815328897377
 30
0.0
 11
432.7819854188126
 21
357.5135836973067
 31
0.0
  0
LINE
  5
113C
330
2
100
AcDbEntity
  8
0
100
AcDbLine
 10
426.7819854188131
 20
360.9776853124443
 30
0.0
 11
429.781985418813
 21
362.7097361200132
 31
0.0
  0
CIRCLE
  5
113D
330
2
100
AcDbEntity
  8
0
100
AcDbCircle
 10
429.781985418813
 20
359.2456345048754
 30
0.0
 40
6.5
  0
LINE
  5
113E
330
2
100
AcDbEntity
  8
0
100
AcDbLine
 10
432.7819854188126
 20
360.9776853124443
 30
0.0
 11
429.781985418813
 21
362.7097361200131
 31
0.0
  0
LINE
  5
113F
330
2
100
AcDbEntity
  8
0
100
AcDbLine
 10
429.781985418813
 20
355.7815328897378
 30
0.0
 11
426.7819854188131
 21
357.5135836973066
 31
0.0
  0
LINE
  5
1140
330
2
100
AcDbEntity
  8
0
100
AcDbLine
 10
432.7819854188126
 20
357.5135836973068
 30
0.0
 11
432.7819854188126
 21
360.9776853124444
 31
0.0
  0
LINE
  5
1141
330
2
100
AcDbEntity
  8
0
100
AcDbLine
 10
426.7819854188131
 20
357.5135836973065
 30
0.0
 11
426.7819854188131
 21
360.9776853124443
 31
0.0
  0
CIRCLE
  5
1142
330
2
100
AcDbEntity
  8
0
100
AcDbCircle
 10
429.781985418813
 20
359.2456345048754
 30
0.0
 40
5.633974596215466
  0
CIRCLE
  5
1143
330
2
100
AcDbEntity
  8
0
100
AcDbCircle
 10
429.781985418813
 20
359.2456345048754
 30
0.0
 40
7.25
  0
LINE
  5
114C
330
2
100
AcDbEntity
  8
0
 48
0.3
100
AcDbLine
 10
905.3091717485298
 20
829.5276062997753
 30
0.0
 11
890.8091717485296
 21
829.5276062997752
 31
0.0
  0
LINE
  5
114D
330
2
100
AcDbEntity
  8
0
 48
0.3
100
AcDbLine
 10
890.8091717485296
 20
829.5276062997752
 30
0.0
 11
890.8091717485296
 21
827.5276062997752
 31
0.0
  0
LINE
  5
114E
330
2
100
AcDbEntity
  8
0
 48
0.3
100
AcDbLine
 10
905.3091717485298
 20
829.5276062997753
 30
0.0
 11
905.3091717485298
 21
827.5276062997754
 31
0.0
  0
LINE
  5
114F
330
2
100
AcDbEntity
  8
0
100
AcDbLine
 10
905.3091717485298
 20
827.5276062997754
 30
0.0
 11
890.8091717485296
 21
827.5276062997752
 31
0.0
  0
LINE
  5
1150
330
2
100
AcDbEntity
  8
0
 48
0.3
100
AcDbLine
 10
1005.309171748529
 20
829.5276062997753
 30
0.0
 11
990.8091717485296
 21
829.5276062997752
 31
0.0
  0
LINE
  5
1151
330
2
100
AcDbEntity
  8
0
 48
0.3
100
AcDbLine
 10
990.8091717485296
 20
829.5276062997752
 30
0.0
 11
990.8091717485296
 21
827.5276062997752
 31
0.0
  0
LINE
  5
1152
330
2
100
AcDbEntity
  8
0
 48
0.3
100
AcDbLine
 10
1005.309171748529
 20
829.5276062997753
 30
0.0
 11
1005.309171748529
 21
827.5276062997754
 31
0.0
  0
LINE
  5
1153
330
2
100
AcDbEntity
  8
0
100
AcDbLine
 10
1005.309171748529
 20
827.5276062997754
 30
0.0
 11
990.8091717485296
 21
827.5276062997752
 31
0.0
  0
LINE
  5
1157
330
2
100
AcDbEntity
  8
CENTER
100
AcDbLine
 10
419.8024864334236
 20
459.2456345048847
 30
0.0
 11
439.761484404263
 21
459.2456345048661
 31
0.0
  0
LINE
  5
1158
330
2
100
AcDbEntity
  8
CENTER
100
AcDbLine
 10
429.7819854188271
 20
449.2661355194557
 30
0.0
 11
429.7819854188458
 21
469.2251334902953
 31
0.0
  0
LINE
  5
1159
330
2
100
AcDbEntity
  8
CENTER
100
AcDbLine
 10
419.8024864334
 20
359.2456345048846
 30
0.0
 11
439.7614844042393
 21
359.245634504866
 31
0.0
  0
LINE
  5
115A
330
2
100
AcDbEntity
  8
CENTER
100
AcDbLine
 10
429.7819854188035
 20
349.2661355194556
 30
0.0
 11
429.7819854188221
 21
369.2251334902951
 31
0.0
  0
LINE
  5
115B
330
2
100
AcDbEntity
  8
CENTER
100
AcDbLine
 10
319.8024864333308
 20
359.2456345050412
 30
0.0
 11
339.7614844041702
 21
359.2456345050226
 31
0.0
  0
LINE
  5
115C
330
2
100
AcDbEntity
  8
CENTER
100
AcDbLine
 10
329.7819854187344
 20
349.2661355196122
 30
0.0
 11
329.781985418753
 21
369.2251334904517
 31
0.0
  0
LINE
  5
115D
330
2
100
AcDbEntity
  8
CENTER
100
AcDbLine
 10
432.281985418774
 20
365.0838417037718
 30
0.0
 11
432.2819854187843
 21
376.407427306152
 31
0.0
  0
LINE
  5
115E
330
2
100
AcDbEntity
  8
CENTER
100
AcDbLine
 10
437.9437782199691
 20
370.7456345049567
 30
0.0
 11
426.6201926175888
 21
370.7456345049671
 31
0.0
  0
LINE
  5
115F
330
2
100
AcDbEntity
  8
0
100
AcDbLine
 10
274.281985418793
 20
469.7456345049857
 30
0.0
 11
288.281985418793
 21
469.7456345049857
 31
0.0
  0
ARC
  5
1160
330
2
100
AcDbEntity
  8
0
100
AcDbCircle
 10
288.281985418793
 20
467.7456345049858
 30
0.0
 40
2.0
100
AcDbArc
 50
0.0
 51
90.0
  0
LINE
  5
1161
330
2
100
AcDbEntity
  8
0
100
AcDbLine
 10
274.281985418793
 20
348.7456345049865
 30
0.0
 11
288.281985418793
 21
348.7456345049865
 31
0.0
  0
ARC
  5
1162
330
2
100
AcDbEntity
  8
0
100
AcDbCircle
 10
288.281985418793
 20
350.7456345049865
 30
0.0
 40
2.0
100
AcDbArc
 50
270.0
 51
0.0
  0
LINE
  5
1163
330
2
100
AcDbEntity
  8
0
100
AcDbLine
 10
1039.559171748527
 20
469.7456345049856
 30
0.0
 11
1053.559171748527
 21
469.7456345049857
 31
0.0
  0
ARC
  5
1164
330
2
100
AcDbEntity
  8
0
100
AcDbCircle
 10
1039.559171748527
 20
467.7456345049857
 30
0.0
 40
2.0
100
AcDbArc
 50
90.0
 51
180.0
  0
LINE
  5
1165
330
2
100
AcDbEntity
  8
0
100
AcDbLine
 10
1039.559171748527
 20
348.7456345049865
 30
0.0
 11
1053.559171748527
 21
348.7456345049864
 31
0.0
  0
ARC
  5
1166
330
2
100
AcDbEntity
  8
0
100
AcDbCircle
 10
1039.559171748527
 20
350.7456345049865
 30
0.0
 40
2.0
100
AcDbArc
 50
180.0
 51
270.0
  0
ARC
  5
1252
330
2
100
AcDbEntity
  8
0
100
AcDbCircle
 10
1029.085082820361
 20
823.0276062997807
 30
0.0
 40
8.0
100
AcDbArc
 50
270.0
 51
358.5000000000103
  0
LINE
  5
1253
330
2
100
AcDbEntity
  8
0
100
AcDbLine
 10
1029.085082820363
 20
815.0276062997807
 30
0.0
 11
1026.981642361291
 21
815.0276062997802
 31
0.0
  0
ARC
  5
1254
330
2
100
AcDbEntity
  8
0
100
AcDbCircle
 10
1026.981642361291
 20
812.0276062997803
 30
0.0
 40
3.0
100
AcDbArc
 50
90.0
 51
178.5000000000038
  0
LINE
  5
1255
330
2
100
AcDbEntity
  8
0
100
AcDbLine
 10
1020.979585606346
 20
809.0276062997801
 30
0.0
 11
1010.465858973914
 21
809.02760629978
 31
0.0
  0
ARC
  5
1256
330
2
100
AcDbEntity
  8
0
100
AcDbCircle
 10
1010.465858973914
 20
812.0276062997799
 30
0.0
 40
3.0
100
AcDbArc
 50
180.5000000000045
 51
270.0
  0
LINE
  5
1257
330
2
100
AcDbEntity
  8
0
100
AcDbLine
 10
1024.059171748527
 20
812.0276062997803
 30
0.0
 11
1024.059171748527
 21
812.0276062997803
 31
0.0
  0
LINE
  5
1258
330
2
100
AcDbEntity
  8
0
100
AcDbLine
 10
1024.059171748527
 20
750.0276062997738
 30
0.0
 11
1024.059171748527
 21
750.0276062997738
 31
0.0
  0
LINE
  5
1259
330
2
100
AcDbEntity
  8
0
100
AcDbLine
 10
1023.323909542043
 20
786.9490754548515
 30
0.0
 11
1023.982670386365
 21
812.1061371447037
 31
0.0
  0
ARC
  5
125A
330
2
100
AcDbEntity
  8
0
100
AcDbCircle
 10
1020.979585606346
 20
812.0276062997803
 30
0.0
 40
3.0
100
AcDbArc
 50
270.0
 51
358.5000000000038
  0
ARC
  5
125B
330
2
100
AcDbEntity
  8
0
100
AcDbCircle
 10
1020.324937567116
 20
787.0276062997752
 30
0.0
 40
3.0
100
AcDbArc
 50
270.0
 51
358.5000000000038
  0
ARC
  5
125C
330
2
100
AcDbEntity
  8
0
100
AcDbCircle
 10
1029.085082820361
 20
739.0276062997734
 30
0.0
 40
8.0
100
AcDbArc
 50
1.499999999989688
 51
90.0
  0
LINE
  5
125D
330
2
100
AcDbEntity
  8
0
100
AcDbLine
 10
1029.085082820363
 20
747.0276062997734
 30
0.0
 11
1026.981642361291
 21
747.0276062997738
 31
0.0
  0
ARC
  5
125E
330
2
100
AcDbEntity
  8
0
100
AcDbCircle
 10
1026.981642361291
 20
750.0276062997738
 30
0.0
 40
3.0
100
AcDbArc
 50
181.4999999999962
 51
269.9999999999739
  0
LINE
  5
125F
330
2
100
AcDbEntity
  8
0
100
AcDbLine
 10
1020.979585606346
 20
753.0276062997739
 30
0.0
 11
1010.465858973914
 21
753.027606299774
 31
0.0
  0
ARC
  5
1260
330
2
100
AcDbEntity
  8
0
100
AcDbCircle
 10
1010.465858973914
 20
750.0276062997741
 30
0.0
 40
3.0
100
AcDbArc
 50
90.0
 51
179.4999999999954
  0
LINE
  5
1261
330
2
100
AcDbEntity
  8
0
100
AcDbLine
 10
1024.059171748527
 20
750.0276062997738
 30
0.0
 11
1024.059171748527
 21
750.0276062997738
 31
0.0
  0
LINE
  5
1262
330
2
100
AcDbEntity
  8
0
100
AcDbLine
 10
1023.323909542043
 20
775.1061371447025
 30
0.0
 11
1023.982670386365
 21
749.9490754548503
 31
0.0
  0
ARC
  5
1263
330
2
100
AcDbEntity
  8
0
100
AcDbCircle
 10
1020.979585606346
 20
750.0276062997738
 30
0.0
 40
3.0
100
AcDbArc
 50
1.499999999996204
 51
90.0
  0
ARC
  5
1264
330
2
100
AcDbEntity
  8
0
100
AcDbCircle
 10
1020.324937567116
 20
775.0276062997788
 30
0.0
 40
3.0
100
AcDbArc
 50
1.499999999996204
 51
90.0
  0
TEXT
  5
1E89
330
2
100
AcDbEntity
  8
TITLE
100
AcDbText
 10
570.4293310204591
 20
812.2306355055126
 30
0.0
 40
10.0
  1
AFCZ28L-3~5M2000K21
100
AcDbText
  0
TEXT
  5
1E8A
330
2
100
AcDbEntity
  8
TITLE
100
AcDbText
 10
570.4293310204591
 20
796.7109213766186
 30
0.0
 40
10.0
  1
AFCZ28L-3~5L2000K21
100
AcDbText
  0
LINE
  5
2130
330
2
100
AcDbEntity
  8
0
100
AcDbLine
 10
1053.559171748527
 20
469.2456345049879
 30
0.0
 11
1053.559171748527
 21
349.2456345049861
 31
0.0
  0
LINE
  5
2131
330
2
100
AcDbEntity
  8
0
100
AcDbLine
 10
1053.559171748527
 20
469.245634504987
 30
0.0
 11
1065.596473326598
 21
469.2456345049889
 31
0.0
  0
LINE
  5
2132
330
2
100
AcDbEntity
  8
0
100
AcDbLine
 10
1053.559171748527
 20
349.2456345049861
 30
0.0
 11
1065.596473326598
 21
349.2456345049843
 31
0.0
  0
ARC
  5
2133
330
2
100
AcDbEntity
  8
0
 48
0.5
100
AcDbCircle
 10
1125.024319521168
 20
361.2456345049861
 30
0.0
 40
2.0
100
AcDbArc
 50
181.0000000000017
 51
270.0
  0
LINE
  5
2134
330
2
100
AcDbEntity
  8
0
100
AcDbLine
 10
1067.593168716911
 20
351.2107296921096
 30
0.0
 11
1068.606171748526
 21
409.2456345049852
 31
0.0
  0
ARC
  5
2135
330
2
100
AcDbEntity
  8
0
100
AcDbCircle
 10
1065.593473326598
 20
351.2456345049843
 30
0.0
 40
2.0
100
AcDbArc
 50
270.0
 51
358.9999999999982
  0
ARC
  5
2136
330
2
100
AcDbEntity
  8
0
100
AcDbCircle
 10
1075.278931692117
 20
348.7456345049852
 30
0.0
 40
8.0
100
AcDbArc
 50
127.3910168722878
 51
165.5224878140717
  0
LINE
  5
2137
330
2
100
AcDbEntity
  8
0
100
AcDbLine
 10
1122.767662716314
 20
375.9320392716793
 30
0.0
 11
1123.024624130856
 21
361.2107296921115
 31
0.0
  0
ARC
  5
2138
330
2
100
AcDbEntity
  8
0
100
AcDbCircle
 10
1119.773459439488
 20
375.7456345049861
 30
0.0
 40
3.0
100
AcDbArc
 50
1.000000000001761
 51
90.0
  0
LINE
  5
2139
330
2
100
AcDbEntity
  8
CENTER
100
AcDbLine
 10
1119.559171748524
 20
452.8973602083522
 30
0.0
 11
1119.559171748524
 21
467.4687196296024
 31
0.0
  0
LINE
  5
213A
330
2
100
AcDbEntity
  8
0
100
AcDbLine
 10
1053.559171748527
 20
409.245634504986
 30
0.0
 11
1138.059171748525
 21
409.2456345049859
 31
0.0
  0
LINE
  5
213B
330
2
100
AcDbEntity
  8
0
 48
0.5
100
AcDbLine
 10
1075.278931692116
 20
356.7456345049852
 30
0.0
 11
1099.730744623782
 21
356.745634504987
 31
0.0
  0
LINE
  5
213C
330
2
100
AcDbEntity
  8
0
 48
0.5
100
AcDbLine
 10
1075.278931692116
 20
461.7456345049861
 30
0.0
 11
1099.730744623782
 21
461.7456345049833
 31
0.0
  0
LINE
  5
213D
330
2
100
AcDbEntity
  8
0
100
AcDbLine
 10
1102.473385310906
 20
459.8314209426046
 30
0.0
 11
1101.144958186153
 21
461.1598480673567
 31
0.0
  0
ARC
  5
213E
330
2
100
AcDbEntity
  8
0
100
AcDbCircle
 10
1099.730744623782
 20
459.7456345049843
 30
0.0
 40
2.0
100
AcDbArc
 50
44.99999999991709
 51
90.0
  0
ARC
  5
213F
330
2
100
AcDbEntity
  8
0
100
AcDbCircle
 10
1103.887598873276
 20
461.2456345049752
 30
0.0
 40
2.0
100
AcDbArc
 50
224.999999999917
 51
270.0000000000521
  0
LINE
  5
2140
330
2
100
AcDbEntity
  8
0
100
AcDbLine
 10
1102.473385310906
 20
358.6598480673676
 30
0.0
 11
1101.144958186153
 21
357.3314209426155
 31
0.0
  0
ARC
  5
2141
330
2
100
AcDbEntity
  8
0
100
AcDbCircle
 10
1099.730744623782
 20
358.7456345049879
 30
0.0
 40
2.0
100
AcDbArc
 50
270.0
 51
315.0000000000829
  0
ARC
  5
2142
330
2
100
AcDbEntity
  8
0
100
AcDbCircle
 10
1103.887598873276
 20
357.245634504997
 30
0.0
 40
2.0
100
AcDbArc
 50
89.99999999994789
 51
135.0000000000828
  0
LINE
  5
2143
330
2
100
AcDbEntity
  8
0
100
AcDbLine
 10
1067.593168716911
 20
467.2805393178621
 30
0.0
 11
1068.251997895629
 21
429.5362409480191
 31
0.0
  0
ARC
  5
2144
330
2
100
AcDbEntity
  8
0
100
AcDbCircle
 10
1065.593473326598
 20
467.2456345049875
 30
0.0
 40
2.0
100
AcDbArc
 50
1.000000000027841
 51
90.0
  0
ARC
  5
2145
330
2
100
AcDbEntity
  8
0
100
AcDbCircle
 10
1075.278931692117
 20
469.7456345049865
 30
0.0
 40
8.0
100
AcDbArc
 50
194.4775121859282
 51
232.6089832433943
  0
ARC
  5
2146
330
2
100
AcDbEntity
  8
0
 48
0.5
100
AcDbCircle
 10
1125.024319521168
 20
457.2456345049861
 30
0.0
 40
2.0
100
AcDbArc
 50
90.0
 51
178.9999999999721
  0
LINE
  5
2147
330
2
100
AcDbEntity
  8
0
100
AcDbLine
 10
1122.959908996011
 20
453.573011725687
 30
0.0
 11
1123.024624130856
 21
457.2805393178607
 31
0.0
  0
ARC
  5
2149
330
2
100
AcDbEntity
  8
0
 48
0.5
100
AcDbCircle
 10
1105.024566274758
 20
361.2456345049847
 30
0.0
 40
2.0
100
AcDbArc
 50
181.0000000000017
 51
270.0
  0
LINE
  5
214A
330
2
100
AcDbEntity
  8
0
100
AcDbLine
 10
1103.024870884444
 20
361.2107296921105
 30
0.0
 11
1102.982149054967
 21
363.6582616636649
 31
0.0
  0
LINE
  5
214B
330
2
100
AcDbEntity
  8
0
100
AcDbLine
 10
1099.982605969498
 20
366.6059044443516
 30
0.0
 11
1119.933451005255
 21
366.6059044443516
 31
0.0
  0
ARC
  5
214C
330
2
100
AcDbEntity
  8
0
100
AcDbCircle
 10
1099.982605969498
 20
363.6059044443529
 30
0.0
 40
3.0
100
AcDbArc
 50
0.9999999999757104
 51
90.0
  0
ARC
  5
214D
330
2
100
AcDbEntity
  8
0
 48
0.5
100
AcDbCircle
 10
1105.024566274758
 20
457.2456345049874
 30
0.0
 40
2.0
100
AcDbArc
 50
90.0
 51
179.0000000000242
  0
LINE
  5
214E
330
2
100
AcDbEntity
  8
0
100
AcDbLine
 10
1103.024870884444
 20
457.2805393178616
 30
0.0
 11
1102.982149054967
 21
454.8330073463073
 31
0.0
  0
LINE
  5
214F
330
2
100
AcDbEntity
  8
0
100
AcDbLine
 10
1099.982605969498
 20
451.8853645656206
 30
0.0
 11
1119.933451005255
 21
451.8853645656206
 31
0.0
  0
ARC
  5
2150
330
2
100
AcDbEntity
  8
0
100
AcDbCircle
 10
1099.982605969498
 20
454.8853645656192
 30
0.0
 40
3.0
100
AcDbArc
 50
270.0
 51
359.0000000000242
  0
LINE
  5
2151
330
2
100
AcDbEntity
  8
0
100
AcDbLine
 10
1105.274979308644
 20
378.7456345049861
 30
0.0
 11
1119.773459439488
 21
378.7456345049861
 31
0.0
  0
LINE
  5
2152
330
2
100
AcDbEntity
  8
0
100
AcDbLine
 10
1105.274979308644
 20
439.7456345049866
 30
0.0
 11
1117.51403267648
 21
439.7456345049861
 31
0.0
  0
LINE
  5
2153
330
2
100
AcDbEntity
  8
0
100
AcDbLine
 10
1103.059171748525
 20
393.0917876082283
 30
0.0
 11
1103.341138194948
 21
409.245634504986
 31
0.0
  0
LINE
  5
2154
330
2
100
AcDbEntity
  8
0
100
AcDbLine
 10
1103.275283918332
 20
380.7107296921115
 30
0.0
 11
1103.059171748526
 21
393.0917876082283
 31
0.0
  0
ARC
  5
2155
330
2
100
AcDbEntity
  8
0
100
AcDbCircle
 10
1105.274979308644
 20
380.7456345049861
 30
0.0
 40
2.0
100
AcDbArc
 50
181.0000000000017
 51
270.0
  0
LINE
  5
2156
330
2
100
AcDbEntity
  8
0
100
AcDbLine
 10
1103.275283918332
 20
437.7805393178607
 30
0.0
 11
1103.127168429042
 21
429.2950086195518
 31
0.0
  0
ARC
  5
2157
330
2
100
AcDbEntity
  8
0
100
AcDbCircle
 10
1105.274979308644
 20
437.7456345049861
 30
0.0
 40
2.0
100
AcDbArc
 50
90.0
 51
178.9999999999982
  0
LINE
  5
2196
330
2
100
AcDbEntity
  8
0
100
AcDbLine
 10
1124.559171748524
 20
463.2456345049802
 30
0.0
 11
1114.559171748524
 21
463.2456345049802
 31
0.0
  0
ARC
  5
2197
330
2
100
AcDbEntity
  8
0
100
AcDbCircle
 10
1114.559171748524
 20
459.2456345049802
 30
0.0
 40
4.0
100
AcDbArc
 50
90.0
 51
180.0
  0
ARC
  5
2198
330
2
100
AcDbEntity
  8
0
100
AcDbCircle
 10
1124.559171748524
 20
459.2456345049802
 30
0.0
 40
4.0
100
AcDbArc
 50
0.0
 51
90.0
  0
LINE
  5
219C
330
2
100
AcDbEntity
  8
0
100
AcDbLine
 10
1067.848728035023
 20
452.6395557888852
 30
0.0
 11
1069.348728035023
 21
452.6395557888852
 31
0.0
  0
LINE
  5
219D
330
2
100
AcDbEntity
  8
0
100
AcDbLine
 10
1067.848728035023
 20
464.1395557888852
 30
0.0
 11
1069.348728035024
 21
464.1395557888852
 31
0.0
  0
LINE
  5
219E
330
2
100
AcDbEntity
  8
0
100
AcDbLine
 10
1074.948728035023
 20
453.3895557888852
 30
0.0
 11
1075.348728035023
 21
454.0823761119124
 31
0.0
  0
LINE
  5
219F
330
2
100
AcDbEntity
  8
0
100
AcDbLine
 10
1069.348728035023
 20
452.6395557888852
 30
0.0
 11
1069.348728035024
 21
464.1395557888852
 31
0.0
  0
LINE
  5
21A0
330
2
100
AcDbEntity
  8
0
100
AcDbLine
 10
1074.948728035023
 20
453.3895557888852
 30
0.0
 11
1074.948728035023
 21
463.3895557888852
 31
0.0
  0
LINE
  5
21A1
330
2
100
AcDbEntity
  8
0
100
AcDbLine
 10
1069.348728035023
 20
453.3895557888852
 30
0.0
 11
1074.948728035023
 21
453.3895557888852
 31
0.0
  0
LINE
  5
21A2
330
2
100
AcDbEntity
  8
0
100
AcDbLine
 10
1069.348728035024
 20
463.3895557888852
 30
0.0
 11
1074.948728035023
 21
463.3895557888852
 31
0.0
  0
LINE
  5
21A3
330
2
100
AcDbEntity
  8
0
100
AcDbLine
 10
1074.948728035023
 20
463.3895557888852
 30
0.0
 11
1075.348728035023
 21
462.6967354658579
 31
0.0
  0
LINE
  5
21A4
330
2
100
AcDbEntity
  8
0
100
AcDbLine
 10
1075.348728035023
 20
454.0823761119124
 30
0.0
 11
1075.348728035023
 21
462.6967354658579
 31
0.0
  0
LINE
  5
21A5
330
2
100
AcDbEntity
  8
0
 48
12.0
100
AcDbLine
 10
1067.848728035023
 20
464.1395557888852
 30
0.0
 11
1067.848728035023
 21
452.6395557888852
 31
0.0
  0
LINE
  5
21A6
330
2
100
AcDbEntity
  8
0
100
AcDbLine
 10
1067.848728034852
 20
354.3517132112786
 30
0.0
 11
1069.348728034852
 21
354.3517132112786
 31
0.0
  0
LINE
  5
21A7
330
2
100
AcDbEntity
  8
0
100
AcDbLine
 10
1067.848728034852
 20
365.8517132112785
 30
0.0
 11
1069.348728034853
 21
365.8517132112785
 31
0.0
  0
LINE
  5
21A8
330
2
100
AcDbEntity
  8
0
100
AcDbLine
 10
1074.948728034852
 20
355.1017132112785
 30
0.0
 11
1075.348728034852
 21
355.7945335343058
 31
0.0
  0
LINE
  5
21A9
330
2
100
AcDbEntity
  8
0
100
AcDbLine
 10
1069.348728034852
 20
354.3517132112786
 30
0.0
 11
1069.348728034853
 21
365.8517132112785
 31
0.0
  0
LINE
  5
21AA
330
2
100
AcDbEntity
  8
0
100
AcDbLine
 10
1074.948728034852
 20
355.1017132112785
 30
0.0
 11
1074.948728034852
 21
365.1017132112786
 31
0.0
  0
LINE
  5
21AB
330
2
100
AcDbEntity
  8
0
100
AcDbLine
 10
1069.348728034852
 20
355.1017132112785
 30
0.0
 11
1074.948728034852
 21
355.1017132112785
 31
0.0
  0
LINE
  5
21AC
330
2
100
AcDbEntity
  8
0
100
AcDbLine
 10
1069.348728034853
 20
365.1017132112786
 30
0.0
 11
1074.948728034852
 21
365.1017132112786
 31
0.0
  0
LINE
  5
21AD
330
2
100
AcDbEntity
  8
0
100
AcDbLine
 10
1074.948728034852
 20
365.1017132112786
 30
0.0
 11
1075.348728034852
 21
364.4088928882513
 31
0.0
  0
LINE
  5
21AE
330
2
100
AcDbEntity
  8
0
100
AcDbLine
 10
1075.348728034852
 20
355.7945335343058
 30
0.0
 11
1075.348728034852
 21
364.4088928882513
 31
0.0
  0
LINE
  5
21AF
330
2
100
AcDbEntity
  8
0
 48
12.0
100
AcDbLine
 10
1067.848728034852
 20
365.8517132112785
 30
0.0
 11
1067.848728034852
 21
354.3517132112786
 31
0.0
  0
LINE
  5
21D4
330
2
100
AcDbEntity
  8
0
100
AcDbLine
 10
1108.059171748525
 20
430.7365319870052
 30
0.0
 11
1108.059171748525
 21
409.245634504986
 31
0.0
  0
LINE
  5
21D5
330
2
100
AcDbEntity
  8
0
100
AcDbLine
 10
1130.059171748525
 20
409.245634504986
 30
0.0
 11
1130.059171748525
 21
436.2456345049884
 31
0.0
  0
LINE
  5
21D6
330
2
100
AcDbEntity
  8
0
100
AcDbLine
 10
1128.059171748525
 20
409.245634504986
 30
0.0
 11
1128.059171748525
 21
418.7456345049883
 31
0.0
  0
LINE
  5
21D7
330
2
100
AcDbEntity
  8
0
100
AcDbLine
 10
1110.059171748525
 20
431.8559339807034
 30
0.0
 11
1110.059171748525
 21
409.245634504986
 31
0.0
  0
LINE
  5
21D8
330
2
100
AcDbEntity
  8
0
100
AcDbLine
 10
1066.559171748525
 20
409.2456345049856
 30
0.0
 11
1066.559171748525
 21
419.245634504987
 31
0.0
  0
LINE
  5
21D9
330
2
100
AcDbEntity
  8
0
 48
0.3
100
AcDbLine
 10
1086.559171748526
 20
419.245634504987
 30
0.0
 11
1066.559171748525
 21
419.245634504987
 31
0.0
  0
LINE
  5
21DA
330
2
100
AcDbEntity
  8
0
 48
0.3
100
AcDbLine
 10
1086.559171748526
 20
418.7456345049874
 30
0.0
 11
1108.059171748525
 21
418.7456345049874
 31
0.0
  0
LINE
  5
21DB
330
2
100
AcDbEntity
  8
0
100
AcDbLine
 10
1086.559171748526
 20
409.2456345049856
 30
0.0
 11
1086.559171748526
 21
419.245634504987
 31
0.0
  0
LINE
  5
21DC
330
2
100
AcDbEntity
  8
0
100
AcDbLine
 10
1116.572969675357
 20
436.2456345049884
 30
0.0
 11
1130.059171748525
 21
436.2456345049884
 31
0.0
  0
LINE
  5
21DD
330
2
100
AcDbEntity
  8
0
 48
0.3
100
AcDbLine
 10
1110.059171748525
 20
418.7456345049879
 30
0.0
 11
1128.059171748525
 21
418.7456345049883
 31
0.0
  0
LINE
  5
21DE
330
2
100
AcDbEntity
  8
0
 48
0.3
100
AcDbLine
 10
1061.363019325818
 20
409.245634504986
 30
0.0
 11
1066.559171748525
 21
418.245634504987
 31
0.0
  0
LINE
  5
21DF
330
2
100
AcDbEntity
  8
0
100
AcDbLine
 10
1128.059171748525
 20
418.7456345049842
 30
0.0
 11
1130.059171748525
 21
419.9003350433633
 31
0.0
  0
LINE
  5
21E0
330
2
100
AcDbEntity
  8
0
100
AcDbLine
 10
1130.059171748531
 20
454.7456345049888
 30
0.0
 11
1131.059171748529
 21
455.7456345049875
 31
0.0
  0
LINE
  5
21E1
330
2
100
AcDbEntity
  8
0
100
AcDbLine
 10
1121.204557845705
 20
450.4663605403527
 30
0.0
 11
1129.567897951745
 21
450.6123431849207
 31
0.0
  0
ARC
  5
21E2
330
2
100
AcDbEntity
  8
0
100
AcDbCircle
 10
1129.559171748528
 20
451.1122670324986
 30
0.0
 40
0.5
100
AcDbArc
 50
270.9999999999757
 51
0.0
  0
LINE
  5
21E3
330
2
100
AcDbEntity
  8
0
100
AcDbLine
 10
1131.059171748526
 20
456.7456345049852
 30
0.0
 11
1131.059171748526
 21
409.245634504986
 31
0.0
  0
LINE
  5
21E4
330
2
100
AcDbEntity
  8
0
100
AcDbLine
 10
1130.059171748531
 20
454.7456345049888
 30
0.0
 11
1130.059171748531
 21
409.245634504986
 31
0.0
  0
LINE
  5
2223
330
2
100
AcDbEntity
  8
0
100
AcDbLine
 10
1103.887598873277
 20
459.2456345049761
 30
0.0
 11
1138.059171748525
 21
459.2456345049845
 31
0.0
  0
LINE
  5
2224
330
2
100
AcDbEntity
  8
0
 48
0.5
100
AcDbLine
 10
1103.887598873276
 20
359.2456345049852
 30
0.0
 11
1138.059171748526
 21
359.2456345049861
 31
0.0
  0
LINE
  5
2225
330
2
100
AcDbEntity
  8
0
100
AcDbLine
 10
1138.059171748526
 20
359.2456345049861
 30
0.0
 11
1138.059171748525
 21
459.2456345049845
 31
0.0
  0
LINE
  5
2226
330
2
100
AcDbEntity
  8
0
100
AcDbLine
 10
1131.059171748526
 20
456.7456345049852
 30
0.0
 11
1138.059171748525
 21
456.7456345049852
 31
0.0
  0
LINE
  5
2227
330
2
100
AcDbEntity
  8
CENTER
  6
CENTERX2
100
AcDbLine
 10
1064.848728035023
 20
458.3895557888856
 30
0.0
 11
1078.348728035024
 21
458.3895557888852
 31
0.0
  0
LINE
  5
2228
330
2
100
AcDbEntity
  8
CENTER
  6
CENTERX2
100
AcDbLine
 10
1064.848728034852
 20
360.101713211279
 30
0.0
 11
1078.348728034853
 21
360.1017132112786
 31
0.0
  0
LINE
  5
2239
330
2
100
AcDbEntity
  8
CENTER
100
AcDbLine
 10
1417.397922843893
 20
386.3710484168127
 30
0.0
 11
1417.397922843893
 21
467.4687196296012
 31
0.0
  0
LINE
  5
223A
330
2
100
AcDbEntity
  8
HIDS
  6
SEKKEI_H
100
AcDbLine
 10
1412.318050435918
 20
419.245634505
 30
0.0
 11
1425.147922843885
 21
419.2456345049995
 31
0.0
  0
LINE
  5
223B
330
2
100
AcDbEntity
  8
HIDS
  6
SEKKEI_H
100
AcDbLine
 10
1421.897922843886
 20
409.9956345049967
 30
0.0
 11
1421.897922843886
 21
419.2456345049995
 31
0.0
  0
LINE
  5
223C
330
2
100
AcDbEntity
  8
HIDS
  6
SEKKEI_H
100
AcDbLine
 10
1412.897922843886
 20
409.9956345049967
 30
0.0
 11
1412.897922843886
 21
419.245634505
 31
0.0
  0
LINE
  5
223D
330
2
100
AcDbEntity
  8
HIDS
  6
SEKKEI_H
100
AcDbLine
 10
1413.997922843885
 20
395.7756679126105
 30
0.0
 11
1413.997922843886
 21
408.4956345049968
 31
0.0
  0
LINE
  5
223E
330
2
100
AcDbEntity
  8
HIDS
  6
SEKKEI_H
100
AcDbLine
 10
1413.397922843885
 20
396.245634505
 30
0.0
 11
1413.397922843885
 21
408.4956345049972
 31
0.0
  0
LINE
  5
223F
330
2
100
AcDbEntity
  8
HIDS
  6
SEKKEI_H
100
AcDbLine
 10
1421.397922843886
 20
387.4970713340649
 30
0.0
 11
1421.397922843886
 21
408.4956345049972
 31
0.0
  0
LINE
  5
2240
330
2
100
AcDbEntity
  8
HIDS
  6
SEKKEI_H
100
AcDbLine
 10
1420.797922843886
 20
387.9515038582667
 30
0.0
 11
1420.797922843886
 21
408.4956345049972
 31
0.0
  0
LINE
  5
2241
330
2
100
AcDbEntity
  8
0
100
AcDbLine
 10
1410.408341520716
 20
408.4956345049968
 30
0.0
 11
1427.927574381441
 21
408.4956345049968
 31
0.0
  0
LINE
  5
2242
330
2
100
AcDbEntity
  8
0
100
AcDbLine
 10
1446.868271306315
 20
408.4956345049968
 30
0.0
 11
1463.406642889934
 21
408.4956345049972
 31
0.0
  0
LINE
  5
2243
330
2
100
AcDbEntity
  8
0
100
AcDbLine
 10
1410.408341520716
 20
409.9956345049967
 30
0.0
 11
1427.927574381443
 21
409.9956345049973
 31
0.0
  0
LINE
  5
2244
330
2
100
AcDbEntity
  8
0
100
AcDbLine
 10
1446.868271306312
 20
409.9956345049973
 30
0.0
 11
1463.406642889934
 21
409.9956345049967
 31
0.0
  0
LINE
  5
2245
330
2
100
AcDbEntity
  8
0
100
AcDbLine
 10
1463.406642889934
 20
409.9956345049967
 30
0.0
 11
1463.406642889934
 21
408.4956345049972
 31
0.0
  0
LINE
  5
2246
330
2
100
AcDbEntity
  8
HIDS
  6
SEKKEI_H
100
AcDbLine
 10
1423.897922843893
 20
428.7456345049999
 30
0.0
 11
1418.723073446906
 21
428.7456345049999
 31
0.0
  0
LINE
  5
2247
330
2
100
AcDbEntity
  8
HIDS
  6
SEKKEI_H
100
AcDbLine
 10
1423.031897440107
 20
429.2456345049999
 30
0.0
 11
1419.259565696672
 21
429.2456345049999
 31
0.0
  0
LINE
  5
2248
330
2
100
AcDbEntity
  8
HIDS
  6
SEKKEI_H
100
AcDbLine
 10
1424.647922843893
 20
421.2456345049999
 30
0.0
 11
1413.211149598991
 21
421.2456345049999
 31
0.0
  0
LINE
  5
2249
330
2
100
AcDbEntity
  8
HIDS
  6
SEKKEI_H
100
AcDbLine
 10
1420.1979228439
 20
396.245634505
 30
0.0
 11
1414.597922843886
 21
396.245634505
 31
0.0
  0
LINE
  5
224A
330
2
100
AcDbEntity
  8
HIDS
  6
SEKKEI_H
100
AcDbLine
 10
1421.397922843886
 20
397.4456345049998
 30
0.0
 11
1413.397922843885
 21
397.4456345049998
 31
0.0
  0
LINE
  5
224B
330
2
100
AcDbEntity
  8
0
 48
0.3
100
AcDbLine
 10
1410.147922843893
 20
421.2456345049995
 30
0.0
 11
1410.147922843893
 21
419.2456345049995
 31
0.0
  0
LINE
  5
224C
330
2
100
AcDbEntity
  8
0
 48
0.3
100
AcDbLine
 10
1410.897922843893
 20
428.7456345049995
 30
0.0
 11
1411.763948247677
 21
429.2456345049995
 31
0.0
  0
LINE
  5
224D
330
2
100
AcDbEntity
  8
0
 48
0.3
100
AcDbLine
 10
1410.897922843893
 20
428.7456345049995
 30
0.0
 11
1410.897922843893
 21
421.2456345049995
 31
0.0
  0
LINE
  5
224E
330
2
100
AcDbEntity
  8
HIDS
  6
SEKKEI_H
100
AcDbLine
 10
1424.647922843893
 20
421.2456345049999
 30
0.0
 11
1424.647922843893
 21
419.245634505
 31
0.0
  0
LINE
  5
224F
330
2
100
AcDbEntity
  8
HIDS
  6
SEKKEI_H
100
AcDbLine
 10
1423.897922843892
 20
428.745634504999
 30
0.0
 11
1423.031897440108
 21
429.2456345049995
 31
0.0
  0
LINE
  5
2250
330
2
100
AcDbEntity
  8
HIDS
  6
SEKKEI_H
100
AcDbLine
 10
1423.897922843893
 20
428.745634504999
 30
0.0
 11
1423.897922843893
 21
421.2456345049999
 31
0.0
  0
LINE
  5
2251
330
2
100
AcDbEntity
  8
HIDS
  6
SEKKEI_H
100
AcDbLine
 10
1425.097922843893
 20
419.245634505
 30
0.0
 11
1412.318050435918
 21
419.2456345049995
 31
0.0
  0
LINE
  5
2252
330
2
100
AcDbEntity
  8
HOJO
100
AcDbLine
 10
1413.997922843886
 20
408.4956345049968
 30
0.0
 11
1413.997922843886
 21
409.9956345049967
 31
0.0
  0
LINE
  5
2253
330
2
100
AcDbEntity
  8
0
100
AcDbLine
 10
1413.397922843885
 20
408.4956345049972
 30
0.0
 11
1413.397922843885
 21
409.9956345049967
 31
0.0
  0
LINE
  5
2254
330
2
100
AcDbEntity
  8
HOJO
100
AcDbLine
 10
1420.797922843886
 20
408.4956345049972
 30
0.0
 11
1420.797922843886
 21
409.9956345049967
 31
0.0
  0
LINE
  5
2255
330
2
100
AcDbEntity
  8
0
100
AcDbLine
 10
1421.397922843886
 20
408.4956345049972
 30
0.0
 11
1421.397922843886
 21
409.9956345049967
 31
0.0
  0
LINE
  5
2256
330
2
100
AcDbEntity
  8
HIDS
  6
SEKKEI_H
100
AcDbLine
 10
1421.397922843886
 20
409.9956345049967
 30
0.0
 11
1421.397922843886
 21
419.2456345049995
 31
0.0
  0
LINE
  5
2257
330
2
100
AcDbEntity
  8
HIDS
  6
SEKKEI_H
100
AcDbLine
 10
1420.797922843886
 20
409.9956345049967
 30
0.0
 11
1420.797922843886
 21
419.2456345049995
 31
0.0
  0
LINE
  5
2258
330
2
100
AcDbEntity
  8
HIDS
  6
SEKKEI_H
100
AcDbLine
 10
1413.997922843886
 20
409.9956345049967
 30
0.0
 11
1413.997922843886
 21
419.245634505
 31
0.0
  0
LINE
  5
2259
330
2
100
AcDbEntity
  8
HIDS
  6
SEKKEI_H
100
AcDbLine
 10
1413.397922843885
 20
409.9956345049967
 30
0.0
 11
1413.397922843885
 21
419.245634505
 31
0.0
  0
LINE
  5
225A
330
2
100
AcDbEntity
  8
0
100
AcDbLine
 10
1419.259565696672
 20
429.2456345049999
 30
0.0
 11
1411.763948247677
 21
429.2456345049995
 31
0.0
  0
LINE
  5
225B
330
2
100
AcDbEntity
  8
0
100
AcDbLine
 10
1418.723073446906
 20
428.7456345049999
 30
0.0
 11
1410.897922843893
 21
428.7456345049995
 31
0.0
  0
LINE
  5
225C
330
2
100
AcDbEntity
  8
0
100
AcDbLine
 10
1413.211149598991
 20
421.2456345049999
 30
0.0
 11
1410.147922843893
 21
421.2456345049995
 31
0.0
  0
LINE
  5
225D
330
2
100
AcDbEntity
  8
0
100
AcDbLine
 10
1412.318050435918
 20
419.2456345049995
 30
0.0
 11
1410.147922843893
 21
419.2456345049995
 31
0.0
  0
LINE
  5
225E
330
2
100
AcDbEntity
  8
HIDS
  6
SEKKEI_H
100
AcDbLine
 10
1413.397922843885
 20
397.4456345049998
 30
0.0
 11
1414.597922843886
 21
396.245634505
 31
0.0
  0
LINE
  5
225F
330
2
100
AcDbEntity
  8
HIDS
  6
SEKKEI_H
100
AcDbLine
 10
1421.397922843899
 20
397.4456345049998
 30
0.0
 11
1420.197922843899
 21
396.245634505
 31
0.0
  0
CIRCLE
  5
2260
330
2
100
AcDbEntity
  8
0
100
AcDbCircle
 10
1437.397922843878
 20
409.245634504985
 30
0.0
 40
26.99999999999249
  0
LINE
  5
2261
330
2
100
AcDbEntity
  8
CENTER
100
AcDbLine
 10
1468.806562759819
 20
368.5869945910999
 30
0.0
 11
1487.306562759819
 21
368.5869945910999
 31
0.0
  0
LINE
  5
2262
330
2
100
AcDbEntity
  8
CENTER
100
AcDbLine
 10
1478.056562759819
 20
359.3369945910999
 30
0.0
 11
1478.056562759819
 21
377.8369945910999
 31
0.0
  0
LINE
  5
2263
330
2
100
AcDbEntity
  8
CENTER
100
AcDbLine
 10
1405.989282927931
 20
449.9042744497764
 30
0.0
 11
1387.489282927931
 21
449.9042744497764
 31
0.0
  0
LINE
  5
2264
330
2
100
AcDbEntity
  8
CENTER
100
AcDbLine
 10
1396.739282927931
 20
459.1542744497765
 30
0.0
 11
1396.739282927931
 21
440.6542744497764
 31
0.0
  0
LINE
  5
2265
330
2
100
AcDbEntity
  8
CENTER
100
AcDbLine
 10
1396.739282922667
 20
377.8369945963677
 30
0.0
 11
1396.739282922667
 21
359.3369945963677
 31
0.0
  0
LINE
  5
2266
330
2
100
AcDbEntity
  8
CENTER
100
AcDbLine
 10
1387.489282922667
 20
368.5869945963677
 30
0.0
 11
1405.989282922667
 21
368.5869945963677
 31
0.0
  0
LINE
  5
2267
330
2
100
AcDbEntity
  8
CENTER
100
AcDbLine
 10
1468.806562759823
 20
449.9042744497764
 30
0.0
 11
1487.306562759823
 21
449.9042744497764
 31
0.0
  0
LINE
  5
2268
330
2
100
AcDbEntity
  8
CENTER
100
AcDbLine
 10
1478.056562759823
 20
459.1542744497765
 30
0.0
 11
1478.056562759823
 21
440.6542744497764
 31
0.0
  0
CIRCLE
  5
2269
330
2
100
AcDbEntity
  8
CENTER
100
AcDbCircle
 10
1437.397922843879
 20
409.2456345049836
 30
0.0
 40
57.49999999531469
  0
CIRCLE
  5
226A
330
2
100
AcDbEntity
  8
HOJO
100
AcDbCircle
 10
1478.056562759816
 20
368.5869945910958
 30
0.0
 40
4.0
  0
CIRCLE
  5
226B
330
2
100
AcDbEntity
  8
0
100
AcDbCircle
 10
1478.056562759816
 20
368.5869945910958
 30
0.0
 40
3.399999999999999
  0
CIRCLE
  5
226C
330
2
100
AcDbEntity
  8
HOJO
100
AcDbCircle
 10
1478.056562728907
 20
449.9042744497724
 30
0.0
 40
4.0
  0
CIRCLE
  5
226D
330
2
100
AcDbEntity
  8
0
100
AcDbCircle
 10
1478.056562728907
 20
449.9042744497724
 30
0.0
 40
3.399999999999999
  0
CIRCLE
  5
226E
330
2
100
AcDbEntity
  8
HOJO
100
AcDbCircle
 10
1396.739282958839
 20
449.9042744497724
 30
0.0
 40
4.0
  0
CIRCLE
  5
226F
330
2
100
AcDbEntity
  8
0
100
AcDbCircle
 10
1396.739282958839
 20
449.9042744497724
 30
0.0
 40
3.399999999999999
  0
CIRCLE
  5
2270
330
2
100
AcDbEntity
  8
HOJO
100
AcDbCircle
 10
1396.739282922662
 20
368.5869945963636
 30
0.0
 40
4.0
  0
CIRCLE
  5
2271
330
2
100
AcDbEntity
  8
0
100
AcDbCircle
 10
1396.739282922662
 20
368.5869945963636
 30
0.0
 40
3.399999999999999
  0
CIRCLE
  5
2272
330
2
100
AcDbEntity
  8
0
100
AcDbCircle
 10
1437.397922843878
 20
409.245634504985
 30
0.0
 40
9.499999999997783
  0
ARC
  5
2273
330
2
100
AcDbEntity
  8
0
100
AcDbCircle
 10
1437.397922843878
 20
409.2456345049859
 30
0.0
 40
10.6547005383764
100
AcDbArc
 50
4.03647208280239
 51
175.9635279171959
  0
ARC
  5
2274
330
2
100
AcDbEntity
  8
0
100
AcDbCircle
 10
1437.397922843878
 20
409.2456345049859
 30
0.0
 40
10.6547005383764
100
AcDbArc
 50
184.0364720826718
 51
355.9635279173281
  0
LINE
  5
2275
330
2
100
AcDbEntity
  8
HIDS
  6
SEKKEI_H
100
AcDbLine
 10
1425.147922843885
 20
419.2456345049995
 30
0.0
 11
1425.147922843885
 21
433.3067545952999
 31
0.0
  0
ARC
  5
2570
330
2
100
AcDbEntity
  8
0
100
AcDbCircle
 10
525.8473130326192
 20
459.2456345049962
 30
0.0
 40
10.0
100
AcDbArc
 50
134.663786165675
 51
179.5225462226761
  0
LINE
  5
2571
330
2
100
AcDbEntity
  8
0
100
AcDbLine
 10
515.8476602367581
 20
459.3289649449618
 30
0.0
 11
515.4302991497542
 21
409.245634504986
 31
0.0
  0
ARC
  5
2572
330
2
100
AcDbEntity
  8
0
100
AcDbCircle
 10
525.8473130326192
 20
359.2456345049766
 30
0.0
 40
10.0
100
AcDbArc
 50
180.4774537773238
 51
225.3362138342445
  0
LINE
  5
2573
330
2
100
AcDbEntity
  8
0
100
AcDbLine
 10
515.8476602367581
 20
359.1623040650104
 30
0.0
 11
515.4302991497539
 21
409.2456345049861
 31
0.0
  0
LINE
  5
2574
330
2
100
AcDbEntity
  8
CENTER
100
AcDbLine
 10
718.9302991497624
 20
409.2456345049861
 30
0.0
 11
505.9302991497625
 21
409.245634504986
 31
0.0
  0
LINE
  5
2575
330
2
100
AcDbEntity
  8
0
100
AcDbLine
 10
647.9302991497686
 20
354.2456345049857
 30
0.0
 11
647.9302991497623
 21
464.2456345049855
 31
0.0
  0
LINE
  5
2576
330
2
100
AcDbEntity
  8
0
100
AcDbLine
 10
539.4302991497623
 20
469.2456345049859
 30
0.0
 11
539.4302991497586
 21
349.2456345049861
 31
0.0
  0
LINE
  5
2577
330
2
100
AcDbEntity
  8
0
100
AcDbLine
 10
661.9302991497627
 20
447.3142569553713
 30
0.0
 11
661.9302991497631
 21
371.1770120546005
 31
0.0
  0
ARC
  5
2578
330
2
100
AcDbEntity
  8
0
100
AcDbCircle
 10
659.9302991497632
 20
371.1770120546005
 30
0.0
 40
2.0
100
AcDbArc
 50
271.9999999999775
 51
0.0
  0
ARC
  5
2579
330
2
100
AcDbEntity
  8
0
100
AcDbCircle
 10
659.9302991497627
 20
447.3142569553713
 30
0.0
 40
2.0
100
AcDbArc
 50
0.0
 51
87.99999999999636
  0
LINE
  5
257A
330
2
100
AcDbEntity
  8
CENTER
100
AcDbLine
 10
575.9302991497586
 20
338.745287288792
 30
0.0
 11
575.9302991497586
 21
479.7459817211806
 31
0.0
  0
LINE
  5
257B
330
2
100
AcDbEntity
  8
0
100
AcDbLine
 10
660.0000981431678
 20
449.3130386094095
 30
0.0
 11
655.6511031761426
 21
449.4649088601737
 31
0.0
  0
LINE
  5
257C
330
2
100
AcDbEntity
  8
0
100
AcDbLine
 10
660.0000981431678
 20
369.1782304005624
 30
0.0
 11
655.6511031761486
 21
369.0263601497985
 31
0.0
  0
LINE
  5
257D
330
2
100
AcDbEntity
  8
0
100
AcDbLine
 10
539.4302991497591
 20
359.2456345049868
 30
0.0
 11
641.4302991497672
 21
359.2456345049859
 31
0.0
  0
LINE
  5
257E
330
2
100
AcDbEntity
  8
0
100
AcDbLine
 10
641.4302991497672
 20
369.2456345049882
 30
0.0
 11
539.4302991497591
 21
369.2456345049881
 31
0.0
  0
LINE
  5
257F
330
2
100
AcDbEntity
  8
0
100
AcDbLine
 10
641.4302991497672
 20
389.2470261915698
 30
0.0
 11
539.43029914976
 21
389.2470261915698
 31
0.0
  0
LINE
  5
2580
330
2
100
AcDbEntity
  8
0
100
AcDbLine
 10
641.4302991497672
 20
429.2442428183997
 30
0.0
 11
539.4302991497609
 21
429.2442428183997
 31
0.0
  0
LINE
  5
2581
330
2
100
AcDbEntity
  8
0
100
AcDbLine
 10
641.4302991497672
 20
449.2456345049837
 30
0.0
 11
539.4302991497613
 21
449.2456345049837
 31
0.0
  0
LINE
  5
2582
330
2
100
AcDbEntity
  8
0
100
AcDbLine
 10
641.4302991497672
 20
459.2456345049877
 30
0.0
 11
539.4302991497617
 21
459.2456345049877
 31
0.0
  0
LINE
  5
2583
330
2
100
AcDbEntity
  8
0
100
AcDbLine
 10
647.9302991497686
 20
354.2456345049856
 30
0.0
 11
642.9302991497618
 21
354.2456345049859
 31
0.0
  0
LINE
  5
2584
330
2
100
AcDbEntity
  8
0
 48
0.5
100
AcDbLine
 10
642.9302991497618
 20
350.1532287552252
 30
0.0
 11
642.9302991497618
 21
468.338040254747
 31
0.0
  0
LINE
  5
2585
330
2
100
AcDbEntity
  8
0
100
AcDbLine
 10
647.9302991497623
 20
464.2456345049855
 30
0.0
 11
642.9302991497618
 21
464.2456345049855
 31
0.0
  0
ARC
  5
2586
330
2
100
AcDbEntity
  8
0
100
AcDbCircle
 10
655.9302991497627
 20
457.4600354763263
 30
0.0
 40
8.0
100
AcDbArc
 50
180.0
 51
267.9999999999963
  0
ARC
  5
2587
330
2
100
AcDbEntity
  8
0
100
AcDbCircle
 10
655.9302991497681
 20
361.0312335336461
 30
0.0
 40
8.0
100
AcDbArc
 50
92.00000000000365
 51
180.0
  0
LINE
  5
2588
330
2
100
AcDbEntity
  8
0
100
AcDbLine
 10
515.9302991497604
 20
446.1682842357965
 30
0.0
 11
515.9302991497604
 21
409.2456345049861
 31
0.0
  0
LINE
  5
2589
330
2
100
AcDbEntity
  8
0
 48
0.5
100
AcDbLine
 10
524.4302991497604
 20
449.2456345049862
 30
0.0
 11
523.9302991497604
 21
448.7456345049864
 31
0.0
  0
LINE
  5
258A
330
2
100
AcDbEntity
  8
0
100
AcDbLine
 10
524.4302991497618
 20
365.7456345049861
 30
0.0
 11
524.4302991497604
 21
452.7456345049862
 31
0.0
  0
ARC
  5
258B
330
2
100
AcDbEntity
  8
0
100
AcDbCircle
 10
518.7302991497597
 20
446.3456345049858
 30
0.0
 40
0.3
100
AcDbArc
 50
180.0
 51
270.0
  0
ARC
  5
258C
330
2
100
AcDbEntity
  8
0
100
AcDbCircle
 10
520.1302991497597
 20
446.3456345049858
 30
0.0
 40
0.3
100
AcDbArc
 50
270.0
 51
0.0
  0
LINE
  5
258D
330
2
100
AcDbEntity
  8
0
 48
0.5
100
AcDbLine
 10
520.4302991497599
 20
446.5456345049859
 30
0.0
 11
520.6302991497598
 21
446.745634504986
 31
0.0
  0
LINE
  5
258E
330
2
100
AcDbEntity
  8
0
 48
0.5
100
AcDbLine
 10
518.7302991497597
 20
446.0456345049859
 30
0.0
 11
520.1302991497597
 21
446.0456345049859
 31
0.0
  0
LINE
  5
258F
330
2
100
AcDbEntity
  8
0
100
AcDbLine
 10
516.93029914976
 20
446.745634504986
 30
0.0
 11
515.9302991497599
 21
446.1682842357961
 31
0.0
  0
LINE
  5
2590
330
2
100
AcDbEntity
  8
0
100
AcDbLine
 10
518.43029914976
 20
446.4456345049858
 30
0.0
 11
518.43029914976
 21
372.0456345049865
 31
0.0
  0
ARC
  5
2591
330
2
100
AcDbEntity
  8
0
 48
0.5
100
AcDbCircle
 10
518.1302991497598
 20
446.4456345049858
 30
0.0
 40
0.3
100
AcDbArc
 50
0.0
 51
90.0
  0
LINE
  5
2592
330
2
100
AcDbEntity
  8
0
 48
0.5
100
AcDbLine
 10
516.9302991497595
 20
446.745634504986
 30
0.0
 11
518.1302991497598
 21
446.745634504986
 31
0.0
  0
LINE
  5
2593
330
2
100
AcDbEntity
  8
0
 48
0.5
100
AcDbLine
 10
520.6302991497598
 20
446.745634504986
 30
0.0
 11
523.9302991497599
 21
446.745634504986
 31
0.0
  0
LINE
  5
2594
330
2
100
AcDbEntity
  8
HIDS
  6
SEKKEI_H
 48
0.5
100
AcDbLine
 10
528.8445127121342
 20
461.6598480673599
 30
0.0
 11
525.0160855873889
 21
457.8314209426135
 31
0.0
  0
ARC
  5
2595
330
2
100
AcDbEntity
  8
HIDS
  6
SEKKEI_H
100
AcDbCircle
 10
526.4302991497618
 20
456.4172073802404
 30
0.0
 40
2.0
100
AcDbArc
 50
135.0000000000094
 51
180.0
  0
ARC
  5
2596
330
2
100
AcDbEntity
  8
HIDS
  6
SEKKEI_H
 48
0.5
100
AcDbCircle
 10
527.4302991497604
 20
463.0740616297332
 30
0.0
 40
2.0
100
AcDbArc
 50
314.9999999999725
 51
0.0
  0
ARC
  5
2597
330
2
100
AcDbEntity
  8
0
 48
0.3
100
AcDbCircle
 10
531.4302991497604
 20
467.1757434058877
 30
0.0
 40
2.0
100
AcDbArc
 50
90.49999999999155
 51
180.0
  0
LINE
  5
2598
330
2
100
AcDbEntity
  8
0
100
AcDbLine
 10
531.4128460787635
 20
469.1756672520161
 30
0.0
 11
539.4302991497604
 21
469.2456345049859
 31
0.0
  0
LINE
  5
2599
330
2
100
AcDbEntity
  8
0
100
AcDbLine
 10
515.9302991497604
 20
372.3229847741758
 30
0.0
 11
515.9302991497604
 21
409.2456345049861
 31
0.0
  0
LINE
  5
259A
330
2
100
AcDbEntity
  8
0
 48
0.5
100
AcDbLine
 10
524.4302991497604
 20
369.2456345049861
 30
0.0
 11
523.9302991497604
 21
369.7456345049859
 31
0.0
  0
ARC
  5
259B
330
2
100
AcDbEntity
  8
0
100
AcDbCircle
 10
518.7302991497597
 20
372.1456345049864
 30
0.0
 40
0.3
100
AcDbArc
 50
90.0
 51
180.0
  0
ARC
  5
259C
330
2
100
AcDbEntity
  8
0
100
AcDbCircle
 10
520.1302991497597
 20
372.1456345049864
 30
0.0
 40
0.3
100
AcDbArc
 50
0.0
 51
90.0
  0
LINE
  5
259D
330
2
100
AcDbEntity
  8
0
100
AcDbLine
 10
520.4302991497599
 20
371.9456345049864
 30
0.0
 11
520.4302991497599
 21
446.5456345049859
 31
0.0
  0
LINE
  5
259E
330
2
100
AcDbEntity
  8
0
 48
0.5
100
AcDbLine
 10
520.4302991497599
 20
371.9456345049864
 30
0.0
 11
520.6302991497598
 21
371.7456345049864
 31
0.0
  0
LINE
  5
259F
330
2
100
AcDbEntity
  8
0
 48
0.5
100
AcDbLine
 10
518.7302991497597
 20
372.4456345049864
 30
0.0
 11
520.1302991497597
 21
372.4456345049864
 31
0.0
  0
LINE
  5
25A0
330
2
100
AcDbEntity
  8
0
100
AcDbLine
 10
516.93029914976
 20
371.7456345049864
 30
0.0
 11
515.9302991497599
 21
372.3229847741762
 31
0.0
  0
ARC
  5
25A1
330
2
100
AcDbEntity
  8
0
 48
0.5
100
AcDbCircle
 10
518.1302991497598
 20
372.0456345049865
 30
0.0
 40
0.3
100
AcDbArc
 50
270.0
 51
0.0
  0
LINE
  5
25A2
330
2
100
AcDbEntity
  8
0
 48
0.5
100
AcDbLine
 10
516.9302991497595
 20
371.7456345049864
 30
0.0
 11
518.1302991497598
 21
371.7456345049864
 31
0.0
  0
LINE
  5
25A3
330
2
100
AcDbEntity
  8
0
 48
0.5
100
AcDbLine
 10
520.6302991497598
 20
371.7456345049864
 30
0.0
 11
523.9302991497599
 21
371.7456345049864
 31
0.0
  0
LINE
  5
25A4
330
2
100
AcDbEntity
  8
0
100
AcDbLine
 10
539.4302991497604
 20
349.2456345049864
 30
0.0
 11
539.4302991497604
 21
469.2456345049859
 31
0.0
  0
LINE
  5
25A5
330
2
100
AcDbEntity
  8
HIDS
  6
SEKKEI_H
 48
0.5
100
AcDbLine
 10
528.8445127121342
 20
356.8314209426124
 30
0.0
 11
525.0160855873889
 21
360.6598480673588
 31
0.0
  0
ARC
  5
25A6
330
2
100
AcDbEntity
  8
HIDS
  6
SEKKEI_H
100
AcDbCircle
 10
526.4302991497618
 20
362.0740616297319
 30
0.0
 40
2.0
100
AcDbArc
 50
180.0
 51
224.9999999999905
  0
ARC
  5
25A7
330
2
100
AcDbEntity
  8
HIDS
  6
SEKKEI_H
 48
0.5
100
AcDbCircle
 10
527.4302991497604
 20
355.4172073802391
 30
0.0
 40
2.0
100
AcDbArc
 50
0.0
 51
45.0000000000274
  0
ARC
  5
25A8
330
2
100
AcDbEntity
  8
0
 48
0.3
100
AcDbCircle
 10
531.4302991497604
 20
351.3155256040846
 30
0.0
 40
2.0
100
AcDbArc
 50
180.0
 51
269.5000000000084
  0
LINE
  5
25A9
330
2
100
AcDbEntity
  8
0
100
AcDbLine
 10
531.4128460787635
 20
349.3156017579563
 30
0.0
 11
539.4302991497604
 21
349.2456345049864
 31
0.0
  0
LINE
  5
25AA
330
2
100
AcDbEntity
  8
0
100
AcDbLine
 10
516.9302991497595
 20
446.745634504986
 30
0.0
 11
516.93029914976
 21
371.7456345049864
 31
0.0
  0
LINE
  5
25AB
330
2
100
AcDbEntity
  8
0
100
AcDbLine
 10
520.6302991497598
 20
446.745634504986
 30
0.0
 11
520.6302991497598
 21
371.7456345049864
 31
0.0
  0
LINE
  5
25AC
330
2
100
AcDbEntity
  8
0
100
AcDbLine
 10
523.9302991497604
 20
448.7456345049864
 30
0.0
 11
523.9302991497604
 21
369.7456345049861
 31
0.0
  0
LINE
  5
25AD
330
2
100
AcDbEntity
  8
0
100
AcDbLine
 10
575.930299149759
 20
348.7456345049863
 30
0.0
 11
525.8469687097965
 21
349.1629955919892
 31
0.0
  0
ARC
  5
25AE
330
2
100
AcDbEntity
  8
0
100
AcDbCircle
 10
525.9302991497627
 20
359.1626483878505
 30
0.0
 40
10.0
100
AcDbArc
 50
180.0
 51
269.5225462226892
  0
LINE
  5
25AF
330
2
100
AcDbEntity
  8
0
100
AcDbLine
 10
515.9302991497627
 20
359.1626483878505
 30
0.0
 11
515.9302991497627
 21
459.328620622122
 31
0.0
  0
LINE
  5
25B0
330
2
100
AcDbEntity
  8
0
100
AcDbLine
 10
575.930299149759
 20
348.7456345049863
 30
0.0
 11
626.0136295897211
 21
349.1629955919894
 31
0.0
  0
ARC
  5
25B1
330
2
100
AcDbEntity
  8
0
100
AcDbCircle
 10
625.9302991497555
 20
359.1626483878507
 30
0.0
 40
10.0
100
AcDbArc
 50
270.4774537773107
 51
294.1885688072113
  0
LINE
  5
25B2
330
2
100
AcDbEntity
  8
0
100
AcDbLine
 10
575.930299149759
 20
469.7456345049863
 30
0.0
 11
525.8469687097965
 21
469.3282734179833
 31
0.0
  0
ARC
  5
25B3
330
2
100
AcDbEntity
  8
0
100
AcDbCircle
 10
525.9302991497627
 20
459.328620622122
 30
0.0
 40
10.0
100
AcDbArc
 50
90.47745377731077
 51
180.0
  0
LINE
  5
25B4
330
2
100
AcDbEntity
  8
0
100
AcDbLine
 10
575.930299149759
 20
469.7456345049863
 30
0.0
 11
626.0136295897211
 21
469.3282734179833
 31
0.0
  0
ARC
  5
25B5
330
2
100
AcDbEntity
  8
0
100
AcDbCircle
 10
625.9302991497555
 20
459.328620622122
 30
0.0
 40
10.0
100
AcDbArc
 50
65.8114311927887
 51
89.52254622268922
  0
LINE
  5
25B6
330
2
100
AcDbEntity
  8
0
100
AcDbLine
 10
530.9302991497604
 20
459.2456345049877
 30
0.0
 11
539.4302991497604
 21
459.2456345049877
 31
0.0
  0
LINE
  5
25B7
330
2
100
AcDbEntity
  8
0
100
AcDbLine
 10
530.9302991497604
 20
449.2456345049837
 30
0.0
 11
539.4302991497613
 21
449.2456345049837
 31
0.0
  0
LINE
  5
25B8
330
2
100
AcDbEntity
  8
0
100
AcDbLine
 10
530.9302991497604
 20
429.2442428183997
 30
0.0
 11
539.4302991497609
 21
429.2442428183997
 31
0.0
  0
LINE
  5
25B9
330
2
100
AcDbEntity
  8
0
100
AcDbLine
 10
530.9302991497604
 20
389.2470261915698
 30
0.0
 11
539.43029914976
 21
389.2470261915699
 31
0.0
  0
LINE
  5
25BA
330
2
100
AcDbEntity
  8
0
100
AcDbLine
 10
530.9302991497604
 20
369.2456345049882
 30
0.0
 11
539.4302991497591
 21
369.2456345049882
 31
0.0
  0
LINE
  5
25BB
330
2
100
AcDbEntity
  8
0
100
AcDbLine
 10
530.9302991497604
 20
359.2456345049868
 30
0.0
 11
539.4302991497591
 21
359.2456345049868
 31
0.0
  0
LINE
  5
25BC
330
2
100
AcDbEntity
  8
0
 48
0.3
100
AcDbLine
 10
519.9302991497604
 20
465.7456345049862
 30
0.0
 11
519.9302991497604
 21
452.7456345049862
 31
0.0
  0
LINE
  5
25BD
330
2
100
AcDbEntity
  8
0
 48
0.3
100
AcDbLine
 10
519.4302991497604
 20
464.8796091012003
 30
0.0
 11
519.4302991497604
 21
453.6116599087707
 31
0.0
  0
LINE
  5
25BE
330
2
100
AcDbEntity
  8
CENTER
 48
0.5
100
AcDbLine
 10
516.4302991497605
 20
459.2456345049861
 30
0.0
 11
535.4302991497604
 21
459.2456345049861
 31
0.0
  0
LINE
  5
25BF
330
2
100
AcDbEntity
  8
0
 48
0.3
100
AcDbLine
 10
519.9302991497604
 20
452.7456345049862
 30
0.0
 11
519.4302991497604
 21
453.6116599087707
 31
0.0
  0
LINE
  5
25C0
330
2
100
AcDbEntity
  8
0
 48
0.3
100
AcDbLine
 10
519.9302991497604
 20
452.7456345049862
 30
0.0
 11
527.4302991497604
 21
452.7456345049862
 31
0.0
  0
LINE
  5
25C1
330
2
100
AcDbEntity
  8
0
 48
0.3
100
AcDbLine
 10
519.9302991497609
 20
465.7456345049857
 30
0.0
 11
519.4302991497608
 21
464.8796091012014
 31
0.0
  0
LINE
  5
25C2
330
2
100
AcDbEntity
  8
0
 48
0.3
100
AcDbLine
 10
519.9302991497614
 20
465.7456345049862
 30
0.0
 11
527.4302991497604
 21
465.7456345049862
 31
0.0
  0
LINE
  5
25C3
330
2
100
AcDbEntity
  8
0
 48
0.3
100
AcDbLine
 10
519.9302991497604
 20
365.7456345049861
 30
0.0
 11
519.9302991497604
 21
352.7456345049861
 31
0.0
  0
LINE
  5
25C4
330
2
100
AcDbEntity
  8
0
 48
0.3
100
AcDbLine
 10
519.4302991497604
 20
364.8796091012002
 30
0.0
 11
519.4302991497604
 21
353.6116599087707
 31
0.0
  0
LINE
  5
25C5
330
2
100
AcDbEntity
  8
CENTER
 48
0.5
100
AcDbLine
 10
516.4302991497605
 20
359.2456345049861
 30
0.0
 11
535.4302991497604
 21
359.2456345049861
 31
0.0
  0
LINE
  5
25C6
330
2
100
AcDbEntity
  8
0
 48
0.3
100
AcDbLine
 10
519.9302991497604
 20
352.7456345049861
 30
0.0
 11
519.4302991497604
 21
353.6116599087707
 31
0.0
  0
LINE
  5
25C7
330
2
100
AcDbEntity
  8
0
 48
0.3
100
AcDbLine
 10
519.9302991497604
 20
352.7456345049861
 30
0.0
 11
527.4302991497604
 21
352.7456345049861
 31
0.0
  0
LINE
  5
25C8
330
2
100
AcDbEntity
  8
0
 48
0.3
100
AcDbLine
 10
519.9302991497609
 20
365.7456345049857
 30
0.0
 11
519.4302991497608
 21
364.8796091012014
 31
0.0
  0
LINE
  5
25C9
330
2
100
AcDbEntity
  8
0
 48
0.3
100
AcDbLine
 10
519.9302991497614
 20
365.7456345049861
 30
0.0
 11
527.4302991497604
 21
365.7456345049861
 31
0.0
  0
LINE
  5
25CA
330
2
100
AcDbEntity
  8
HIDS
  6
SEKKEI_H
100
AcDbLine
 10
524.4302991497618
 20
456.4172073802404
 30
0.0
 11
524.4302991497604
 21
452.7456345049862
 31
0.0
  0
LINE
  5
25CB
330
2
100
AcDbEntity
  8
HIDS
  6
SEKKEI_H
100
AcDbLine
 10
524.4302991497618
 20
365.7456345049861
 30
0.0
 11
524.4302991497618
 21
362.0740616297319
 31
0.0
  0
LINE
  5
25CC
330
2
100
AcDbEntity
  8
0
 48
0.3
100
AcDbLine
 10
529.4302991497604
 20
451.9956345049862
 30
0.0
 11
529.4302991497604
 21
466.4956345049861
 31
0.0
  0
LINE
  5
25CD
330
2
100
AcDbEntity
  8
0
 48
0.3
100
AcDbLine
 10
529.4302991497604
 20
466.4956345049861
 30
0.0
 11
527.4302991497604
 21
466.4956345049861
 31
0.0
  0
LINE
  5
25CE
330
2
100
AcDbEntity
  8
0
 48
0.3
100
AcDbLine
 10
529.4302991497604
 20
451.9956345049862
 30
0.0
 11
527.4302991497604
 21
451.9956345049862
 31
0.0
  0
LINE
  5
25CF
330
2
100
AcDbEntity
  8
0
100
AcDbLine
 10
527.4302991497604
 20
451.9956345049862
 30
0.0
 11
527.4302991497604
 21
466.4956345049861
 31
0.0
  0
LINE
  5
25D0
330
2
100
AcDbEntity
  8
0
 48
0.3
100
AcDbLine
 10
529.4302991497604
 20
351.9956345049862
 30
0.0
 11
529.4302991497604
 21
366.4956345049862
 31
0.0
  0
LINE
  5
25D1
330
2
100
AcDbEntity
  8
0
 48
0.3
100
AcDbLine
 10
529.4302991497604
 20
366.4956345049862
 30
0.0
 11
527.4302991497604
 21
366.4956345049862
 31
0.0
  0
LINE
  5
25D2
330
2
100
AcDbEntity
  8
0
 48
0.3
100
AcDbLine
 10
529.4302991497604
 20
351.9956345049862
 30
0.0
 11
527.4302991497604
 21
351.9956345049862
 31
0.0
  0
LINE
  5
25D3
330
2
100
AcDbEntity
  8
0
100
AcDbLine
 10
527.4302991497604
 20
351.9956345049862
 30
0.0
 11
527.4302991497604
 21
366.4956345049862
 31
0.0
  0
LINE
  5
25D4
330
2
100
AcDbEntity
  8
0
 48
0.3
100
AcDbLine
 10
529.4302991497604
 20
351.3155256040846
 30
0.0
 11
529.4302991497627
 21
467.1757434058876
 31
0.0
  0
LINE
  5
25D5
330
2
100
AcDbEntity
  8
0
100
AcDbLine
 10
642.9302991497618
 20
350.1532287552252
 30
0.0
 11
539.4302991497586
 21
349.2499979388818
 31
0.0
  0
LINE
  5
25D6
330
2
100
AcDbEntity
  8
0
100
AcDbLine
 10
642.9302991497618
 20
468.338040254747
 30
0.0
 11
539.4302991497586
 21
469.2412710710906
 31
0.0
  0
LINE
  5
25DB
330
2
100
AcDbEntity
  8
0
100
AcDbLine
 10
663.9302991497625
 20
394.2456345049864
 30
0.0
 11
663.9302991497629
 21
424.2456345049862
 31
0.0
  0
LINE
  5
25DC
330
2
100
AcDbEntity
  8
0
100
AcDbLine
 10
662.9302991497625
 20
424.8229847741761
 30
0.0
 11
663.9302991497625
 21
424.2456345049864
 31
0.0
  0
LINE
  5
25DD
330
2
100
AcDbEntity
  8
0
100
AcDbLine
 10
663.9302991497629
 20
423.2456345049861
 30
0.0
 11
708.9302991497627
 21
423.245634504985
 31
0.0
  0
LINE
  5
25DE
330
2
100
AcDbEntity
  8
0
100
AcDbLine
 10
663.9302991497625
 20
395.2456345049864
 30
0.0
 11
708.9302991497625
 21
395.2456345049866
 31
0.0
  0
LINE
  5
25DF
330
2
100
AcDbEntity
  8
0
100
AcDbLine
 10
708.9302991497625
 20
395.2456345049867
 30
0.0
 11
708.9302991497627
 21
423.245634504985
 31
0.0
  0
LINE
  5
25E0
330
2
100
AcDbEntity
  8
0
100
AcDbLine
 10
662.9302991497625
 20
430.4569593703911
 30
0.0
 11
662.9302991497625
 21
388.0343096395812
 31
0.0
  0
LINE
  5
25E1
330
2
100
AcDbEntity
  8
0
100
AcDbLine
 10
662.9302991497625
 20
393.6682842357959
 30
0.0
 11
663.9302991497625
 21
394.2456345049859
 31
0.0
  0
LINE
  5
25E2
330
2
100
AcDbEntity
  8
0
100
AcDbLine
 10
662.6802991497624
 20
430.8899720722833
 30
0.0
 11
662.5283753611161
 21
430.9776853125549
 31
0.0
  0
ARC
  5
25E3
330
2
100
AcDbEntity
  8
0
100
AcDbCircle
 10
662.4302991497625
 20
430.4569593703911
 30
0.0
 40
0.5
100
AcDbArc
 50
0.0
 51
59.99999999999915
  0
ARC
  5
25E4
330
2
100
AcDbEntity
  8
0
100
AcDbCircle
 10
661.528375361116
 20
429.2456345049859
 30
0.0
 40
2.0
100
AcDbArc
 50
59.99999999999915
 51
78.40678637648896
  0
LINE
  5
25E5
330
2
100
AcDbEntity
  8
0
100
AcDbLine
 10
662.6802991497624
 20
387.601296937689
 30
0.0
 11
662.5283753611161
 21
387.5135836974175
 31
0.0
  0
ARC
  5
25E6
330
2
100
AcDbEntity
  8
0
100
AcDbCircle
 10
662.4302991497625
 20
388.0343096395812
 30
0.0
 40
0.5
100
AcDbArc
 50
300.0000000000008
 51
0.0
  0
ARC
  5
25E7
330
2
100
AcDbEntity
  8
0
100
AcDbCircle
 10
661.528375361116
 20
389.2456345049865
 30
0.0
 40
2.0
100
AcDbArc
 50
281.5932136234977
 51
300.0000000000008
  0
LINE
  5
25E8
330
2
100
AcDbEntity
  8
0
100
AcDbLine
 10
708.9302991497625
 20
413.2456345049861
 30
0.0
 11
672.9302991497625
 21
413.2456345049861
 31
0.0
  0
LINE
  5
25E9
330
2
100
AcDbEntity
  8
0
100
AcDbLine
 10
708.9302991497625
 20
405.2456345049863
 30
0.0
 11
672.9302991497625
 21
405.2456345049861
 31
0.0
  0
ARC
  5
25EA
330
2
100
AcDbEntity
  8
0
100
AcDbCircle
 10
672.9302991497625
 20
409.2456345049861
 30
0.0
 40
4.0
100
AcDbArc
 50
90.0
 51
270.0
  0
LINE
  5
2757
330
2
100
AcDbEntity
  8
0
100
AcDbLine
 10
933.0591717485297
 20
693.0276062997728
 30
0.0
 11
963.0591717485293
 21
693.0276062997726
 31
0.0
  0
LINE
  5
2758
330
2
100
AcDbEntity
  8
0
100
AcDbLine
 10
963.6365220177193
 20
694.0276062997728
 30
0.0
 11
963.0591717485296
 21
693.0276062997728
 31
0.0
  0
LINE
  5
2759
330
2
100
AcDbEntity
  8
0
100
AcDbLine
 10
962.0591717485293
 20
693.0276062997726
 30
0.0
 11
962.0591717485281
 21
648.0276062997728
 31
0.0
  0
LINE
  5
275A
330
2
100
AcDbEntity
  8
0
100
AcDbLine
 10
934.0591717485297
 20
693.0276062997728
 30
0.0
 11
934.0591717485299
 21
688.0276062997729
 31
0.0
  0
LINE
  5
275B
330
2
100
AcDbEntity
  8
0
100
AcDbLine
 10
934.5591717485296
 20
648.0276062997728
 30
0.0
 11
962.0591717485279
 21
648.0276062997729
 31
0.0
  0
LINE
  5
275C
330
2
100
AcDbEntity
  8
0
100
AcDbLine
 10
969.2704966139343
 20
694.0276062997728
 30
0.0
 11
926.8478468831245
 21
694.0276062997728
 31
0.0
  0
LINE
  5
275D
330
2
100
AcDbEntity
  8
0
100
AcDbLine
 10
932.4818214793392
 20
694.0276062997728
 30
0.0
 11
933.0591717485292
 21
693.0276062997728
 31
0.0
  0
LINE
  5
275E
330
2
100
AcDbEntity
  8
0
100
AcDbLine
 10
969.7035093158264
 20
694.2776062997729
 30
0.0
 11
969.7912225560981
 21
694.4295300884195
 31
0.0
  0
ARC
  5
275F
330
2
100
AcDbEntity
  8
0
100
AcDbCircle
 10
969.2704966139343
 20
694.5276062997728
 30
0.0
 40
0.5
100
AcDbArc
 50
270.0
 51
330.0000000000084
  0
ARC
  5
2760
330
2
100
AcDbEntity
  8
0
100
AcDbCircle
 10
968.0591717485292
 20
695.4295300884195
 30
0.0
 40
2.0
100
AcDbArc
 50
330.0000000000084
 51
348.4067863764956
  0
LINE
  5
2761
330
2
100
AcDbEntity
  8
0
100
AcDbLine
 10
926.4148341812322
 20
694.2776062997729
 30
0.0
 11
926.3271209409607
 21
694.4295300884195
 31
0.0
  0
ARC
  5
2762
330
2
100
AcDbEntity
  8
0
100
AcDbCircle
 10
926.8478468831245
 20
694.5276062997728
 30
0.0
 40
0.5
100
AcDbArc
 50
209.9999999999915
 51
270.0
  0
ARC
  5
2763
330
2
100
AcDbEntity
  8
0
100
AcDbCircle
 10
928.0591717485297
 20
695.4295300884195
 30
0.0
 40
2.0
100
AcDbArc
 50
191.5932136235044
 51
209.9999999999915
  0
LINE
  5
2764
330
2
100
AcDbEntity
  8
0
100
AcDbLine
 10
931.0591717485296
 20
648.0276062997728
 30
0.0
 11
931.0591717485296
 21
688.0276062997729
 31
0.0
  0
LINE
  5
2765
330
2
100
AcDbEntity
  8
0
100
AcDbLine
 10
934.5591717485296
 20
648.0276062997728
 30
0.0
 11
931.0591717485296
 21
648.0276062997728
 31
0.0
  0
LINE
  5
2766
330
2
100
AcDbEntity
  8
0
100
AcDbLine
 10
934.0591717485299
 20
688.0276062997727
 30
0.0
 11
931.0591717485296
 21
688.0276062997729
 31
0.0
  0
LINE
  5
2767
330
2
100
AcDbEntity
  8
0
100
AcDbLine
 10
934.6427638835313
 20
648.0276062997728
 30
0.0
 11
934.6427638835313
 21
684.0276062997729
 31
0.0
  0
LINE
  5
2768
330
2
100
AcDbEntity
  8
0
100
AcDbLine
 10
934.0591717485297
 20
688.0276062997729
 30
0.0
 11
934.6427638835313
 21
684.0276062997729
 31
0.0
  0
ARC
  5
277B
330
2
100
AcDbEntity
  8
0
100
AcDbCircle
 10
948.0591717485296
 20
409.2456345049856
 30
0.0
 40
13.99999999999958
100
AcDbArc
 50
196.6015495990203
 51
163.3984504009797
  0
ARC
  5
277C
330
2
100
AcDbEntity
  8
0
100
AcDbCircle
 10
948.0591717485296
 20
409.2456345049856
 30
0.0
 40
14.99999999999983
100
AcDbArc
 50
195.4660099534202
 51
164.5339900465797
  0
ARC
  5
277D
330
2
100
AcDbEntity
  8
0
100
AcDbCircle
 10
948.0591717485296
 20
409.2456345049856
 30
0.0
 40
15.57735026919027
100
AcDbArc
 50
194.8792668176911
 51
165.1207331823088
  0
CIRCLE
  5
277E
330
2
100
AcDbEntity
  8
0
100
AcDbCircle
 10
948.0591717485296
 20
409.2456345049856
 30
0.0
 40
21.99999999999977
  0
LINE
  5
277F
330
2
100
AcDbEntity
  8
0
100
AcDbLine
 10
931.0591717485296
 20
413.2456345049856
 30
0.0
 11
938.0591717485296
 21
413.2456345049856
 31
0.0
  0
LINE
  5
2780
330
2
100
AcDbEntity
  8
0
100
AcDbLine
 10
931.0591717485296
 20
405.2456345049856
 30
0.0
 11
938.0591717485296
 21
405.2456345049856
 31
0.0
  0
LINE
  5
2781
330
2
100
AcDbEntity
  8
0
100
AcDbLine
 10
938.0591717485296
 20
413.2456345049856
 30
0.0
 11
938.0591717485296
 21
405.2456345049856
 31
0.0
  0
LINE
  5
2782
330
2
100
AcDbEntity
  8
0
100
AcDbLine
 10
931.0591717485296
 20
413.2456345049856
 30
0.0
 11
931.0591717485296
 21
405.2456345049856
 31
0.0
  0
LINE
  5
2796
330
2
100
AcDbEntity
  8
0
100
AcDbLine
 10
1349.397922843874
 20
424.2456345049858
 30
0.0
 11
1349.397922843874
 21
394.245634504986
 31
0.0
  0
LINE
  5
2797
330
2
100
AcDbEntity
  8
0
100
AcDbLine
 10
1350.397922843874
 20
393.668284235796
 30
0.0
 11
1349.397922843874
 21
394.2456345049858
 31
0.0
  0
LINE
  5
2798
330
2
100
AcDbEntity
  8
0
100
AcDbLine
 10
1349.397922843874
 20
395.245634504986
 30
0.0
 11
1304.397922843874
 21
395.2456345049873
 31
0.0
  0
LINE
  5
2799
330
2
100
AcDbEntity
  8
0
100
AcDbLine
 10
1349.397922843874
 20
423.2456345049858
 30
0.0
 11
1304.397922843874
 21
423.2456345049856
 31
0.0
  0
LINE
  5
279A
330
2
100
AcDbEntity
  8
0
100
AcDbLine
 10
1304.397922843874
 20
423.2456345049856
 30
0.0
 11
1304.397922843874
 21
395.2456345049873
 31
0.0
  0
LINE
  5
279B
330
2
100
AcDbEntity
  8
0
100
AcDbLine
 10
1350.397922843874
 20
388.034309639581
 30
0.0
 11
1350.397922843874
 21
430.4569593703909
 31
0.0
  0
LINE
  5
279C
330
2
100
AcDbEntity
  8
0
100
AcDbLine
 10
1350.397922843874
 20
424.8229847741763
 30
0.0
 11
1349.397922843874
 21
424.2456345049863
 31
0.0
  0
LINE
  5
279D
330
2
100
AcDbEntity
  8
0
100
AcDbLine
 10
1350.647922843874
 20
387.6012969376889
 30
0.0
 11
1350.799846632521
 21
387.5135836974173
 31
0.0
  0
ARC
  5
279E
330
2
100
AcDbEntity
  8
0
100
AcDbCircle
 10
1350.897922843874
 20
388.034309639581
 30
0.0
 40
0.5
100
AcDbArc
 50
180.0
 51
239.9999999999991
  0
ARC
  5
279F
330
2
100
AcDbEntity
  8
0
100
AcDbCircle
 10
1351.799846632521
 20
389.2456345049863
 30
0.0
 40
2.0
100
AcDbArc
 50
239.9999999999991
 51
258.4067863764889
  0
LINE
  5
27A0
330
2
100
AcDbEntity
  8
0
100
AcDbLine
 10
1350.647922843874
 20
430.8899720722832
 30
0.0
 11
1350.799846632521
 21
430.9776853125547
 31
0.0
  0
ARC
  5
27A1
330
2
100
AcDbEntity
  8
0
100
AcDbCircle
 10
1350.897922843874
 20
430.4569593703909
 30
0.0
 40
0.5
100
AcDbArc
 50
120.0000000000008
 51
180.0
  0
ARC
  5
27A2
330
2
100
AcDbEntity
  8
0
100
AcDbCircle
 10
1351.799846632521
 20
429.2456345049857
 30
0.0
 40
2.0
100
AcDbArc
 50
101.593213623511
 51
120.0000000000008
  0
LINE
  5
2B02
330
2
100
AcDbEntity
  8
CENTER
100
AcDbLine
 10
1148.059171748533
 20
409.2456345049856
 30
0.0
 11
873.0591717485301
 21
409.2456345049862
 31
0.0
  0
LINE
  5
2B03
330
2
100
AcDbEntity
  8
CENTER
100
AcDbLine
 10
948.0591717485301
 20
484.2456345049862
 30
0.0
 11
948.0591717485301
 21
334.2456345049863
 31
0.0
  0
SPLINE
  5
2C2E
330
2
100
AcDbEntity
  8
HOJO
100
AcDbSpline
210
0.0
220
0.0
230
1.0
 70
     8
 71
     3
 72
    20
 73
    16
 74
    14
 42
0.0000000001
 43
0.0000000001
 44
0.0000000001
 40
0.0
 40
0.0
 40
0.0
 40
0.0
 40
14.85506882871914
 40
22.03448209950047
 40
30.44412430254707
 40
37.37351627376137
 40
45.45744306198741
 40
53.55830448626035
 40
62.42551460174855
 40
65.75683397536018
 40
70.77413448252525
 40
74.8227083206142
 40
78.94059623694873
 40
92.3093476088762
 40
100.9194333049609
 40
100.9194333049609
 40
100.9194333049609
 40
100.9194333049609
 10
1054.796427920907
 20
409.2456345049933
 30
0.0
 10
1056.295862258525
 20
413.9335134461411
 30
0.0
 10
1058.519969023197
 20
420.887031185059
 30
0.0
 10
1064.906303562496
 20
429.5831787667358
 30
0.0
 10
1073.083978458718
 20
430.1778671612989
 30
0.0
 10
1080.656762523678
 20
428.8398921452504
 30
0.0
 10
1088.457099671055
 20
428.9461237074446
 30
0.0
 10
1096.669817940623
 20
430.4474887283955
 30
0.0
 10
1103.690698193301
 20
428.5319304739404
 30
0.0
 10
1108.971601223406
 20
431.1583324350428
 30
0.0
 10
1112.360757883961
 20
433.2746160718138
 30
0.0
 10
1116.75299818869
 20
435.1919889864729
 30
0.0
 10
1117.903004119341
 20
442.8438163638092
 30
0.0
 10
1120.866087732093
 20
450.8785365299061
 30
0.0
 10
1125.140073521388
 20
456.8904868213457
 30
0.0
 10
1126.814383394827
 20
459.2456345049887
 30
0.0
 11
1054.796427920907
 21
409.2456345049933
 31
0.0
 11
1060.384699878992
 21
423.0095106461267
 31
0.0
 11
1065.155381507214
 21
428.3746361539615
 31
0.0
 11
1073.437812812542
 21
429.8318299145144
 31
0.0
 11
1080.328793851318
 21
429.1032330342382
 31
0.0
 11
1088.412449274386
 21
429.1694698707133
 31
0.0
 11
1096.488356623056
 21
429.8048251343066
 31
0.0
 11
1105.353226377312
 21
429.6011109416508
 31
0.0
 11
1108.410078816951
 21
430.9252491260072
 31
0.0
 11
1112.791565336877
 21
433.3698104884829
 31
0.0
 11
1116.168409817062
 21
435.6031647996259
 31
0.0
 11
1117.467316637782
 21
439.5108293147273
 31
0.0
 11
1122.064382260399
 21
452.0643348373201
 31
0.0
 11
1126.814383394827
 21
459.2456345049887
 31
0.0
  0
ENDSEC
  0
SECTION
  2
OBJECTS
  0
DICTIONARY
  5
7
330
0
100
AcDbDictionary
  3
ACAD_COLOR
350
832
  3
ACAD_GROUP
350
75
  3
ACAD_LAYOUT
350
61
  3
ACAD_MATERIAL
350
808
  3
ACAD_MLEADERSTYLE
350
857
  3
ACAD_MLINESTYLE
350
76
  3
ACAD_PLOTSETTINGS
350
77
  3
ACAD_PLOTSTYLENAME
350
6
  3
ACAD_SCALELIST
350
835
  3
ACAD_TABLESTYLE
350
833
  3
ACAD_VISUALSTYLE
350
821
  3
ACADDIM
350
480
  3
ACDB_RECOMPOSE_DATA
350
88E
  3
ACDBHEADERROUNDTRIPXREC
350
2C87
  3
ACDBVARIABLEDICTIONARY
350
102
  3
DWGPROPS
350
2C5D
  0
DICTIONARY
  5
1E6F
330
6E
100
AcDbDictionary
280
     1
  3
ACAD_XREC_ROUNDTRIP
360
2C61
  0
DICTIONARY
  5
86B
330
66
100
AcDbDictionary
280
     1
  3
ACAD_LAYERSTATES
360
86C
  0
DICTIONARY
  5
158C
330
5E
100
AcDbDictionary
280
     1
  3
ADSK_XREC_LAYER_RECONCILED
360
158D
  0
DICTIONARY
  5
158E
330
3E
100
AcDbDictionary
280
     1
  3
ADSK_XREC_LAYER_RECONCILED
360
158F
  0
DICTIONARY
  5
1594
330
2B5
100
AcDbDictionary
280
     1
  3
ADSK_XREC_LAYER_RECONCILED
360
1595
  0
DICTIONARY
  5
1596
330
2BA
100
AcDbDictionary
280
     1
  3
ADSK_XREC_LAYER_RECONCILED
360
1597
  0
DICTIONARY
  5
159A
330
3FA
100
AcDbDictionary
280
     1
  3
ADSK_XREC_LAYER_RECONCILED
360
159B
  0
DICTIONARY
  5
276A
330
2
100
AcDbDictionary
280
     1
  3
ACAD_LAYOUTSELFREF
360
2CA8
  3
ACAD_SORTENTS
360
276B
  0
DICTIONARY
  5
2CA9
330
2C81
100
AcDbDictionary
280
     1
  3
ACAD_LAYOUTSELFREF
360
2CAA
  0
DICTIONARY
  5
832
102
{ACAD_REACTORS
330
7
102
}
330
7
100
AcDbDictionary
  0
DICTIONARY
  5
75
102
{ACAD_REACTORS
330
7
102
}
330
7
100
AcDbDictionary
  0
DICTIONARY
  5
61
102
{ACAD_REACTORS
330
7
102
}
330
7
100
AcDbDictionary
  0
DICTIONARY
  5
808
102
{ACAD_REACTORS
330
7
102
}
330
7
100
AcDbDictionary
  3
BYBLOCK
350
811
  3
BYLAYER
350
809
  3
GLOBAL
350
819
  0
DICTIONARY
  5
857
102
{ACAD_REACTORS
330
7
102
}
330
7
100
AcDbDictionary
  3
STANDARD
350
858
  0
DICTIONARY
  5
76
102
{ACAD_REACTORS
330
7
102
}
330
7
100
AcDbDictionary
  3
STANDARD
350
78
  0
DICTIONARY
  5
77
102
{ACAD_REACTORS
330
7
102
}
330
7
100
AcDbDictionary
  0
ACDBDICTIONARYWDFLT
  5
6
102
{ACAD_REACTORS
330
7
102
}
330
7
100
AcDbDictionary
281
     1
  3
Normal
350
5
100
AcDbDictionaryWithDefault
340
5
  0
DICTIONARY
  5
835
102
{ACAD_REACTORS
330
7
102
}
330
7
100
AcDbDictionary
  3
A0
350
836
  3
A1
350
837
  3
A2
350
838
  3
A3
350
839
  3
A4
350
83A
  3
A5
350
83B
  3
A6
350
83C
  3
A7
350
83D
  3
A8
350
83E
  3
A9
350
83F
  3
B0
350
840
  3
B1
350
841
  3
B2
350
842
  3
B3
350
843
  3
B4
350
844
  3
B5
350
845
  3
B6
350
846
  3
B7
350
847
  3
B8
350
848
  3
B9
350
849
  3
C0
350
84A
  3
C1
350
84B
  3
C2
350
84C
  3
C3
350
84D
  3
C4
350
84E
  3
C5
350
84F
  3
C6
350
850
  3
C7
350
851
  3
C8
350
852
  3
C9
350
853
  3
D0
350
854
  3
D1
350
855
  3
D2
350
856
  0
DICTIONARY
  5
833
102
{ACAD_REACTORS
330
7
102
}
330
7
100
AcDbDictionary
  3
STANDARD
350
834
  0
DICTIONARY
  5
821
102
{ACAD_REACTORS
330
7
102
}
330
7
100
AcDbDictionary
  3
2DWIREFRAME
350
827
  3
3D_HIDDEN
350
829
  3
3DWIREFRAME
350
828
  3
BASIC
350
826
  3
BRIGHTEN
350
82D
  3
COLORCHANGE
350
831
  3
CONCEPTUAL
350
82A
  3
DIM
350
82C
  3
FACEPATTERN
350
830
  3
FLAT
350
822
  3
FLATWITHEDGES
350
823
  3
GOURAUD
350
824
  3
GOURAUDWITHEDGES
350
825
  3
LINEPATTERN
350
82F
  3
REALISTIC
350
82B
  3
THICKEN
350
82E
  0
XRECORD
  5
480
102
{ACAD_REACTORS
330
7
102
}
330
7
100
AcDbXrecord
 90
   990106
  3

 60
     0
 61
     0
 62
     1
 63
     3
 64
     1
 65
     0
 66
     0
 67
     3
 68
     1
 69
     0
 70
     0
 71
     0
 72
     0
 40
0.0
170
     2
340
0
  0
XRECORD
  5
88E
102
{ACAD_REACTORS
330
7
102
}
330
7
100
AcDbXrecord
 90
        1
330
834
  0
DICTIONARY
  5
2C87
102
{ACAD_REACTORS
330
7
102
}
330
7
100
AcDbDictionary
  3
CEPSNTYPE
350
2C91
  3
DIMSTYLEDATA
350
2C95
  3
FINGERPRINTGUID
350
2C92
  3
HYPERLINKBASE
350
2C8A
  3
INSUNITS
350
2C90
  3
LAYOUTDICT
350
2C8C
  3
LWETCUNION
350
2C8F
  3
PLOTSETDICT
350
2C8D
  3
PLOTSTYLNAMDICT
350
2C8E
  3
PSVPSCALE
350
2C94
  3
PUCSBASE
350
2C98
  3
PUCSORGBACK
350
2C9E
  3
PUCSORGBOTTOM
350
2C9A
  3
PUCSORGFRONT
350
2C9D
  3
PUCSORGLEFT
350
2C9B
  3
PUCSORGRIGHT
350
2C9C
  3
PUCSORGTOP
350
2C99
  3
PUCSORTHOREF
350
2C96
  3
PUCSORTHOVIEW
350
2C97
  3
STYLESHEET
350
2C8B
  3
TSTACKALIGN
350
2C88
  3
TSTACKSIZE
350
2C89
  3
UCSBASE
350
2CA1
  3
UCSORGBACK
350
2CA7
  3
UCSORGBOTTOM
350
2CA3
  3
UCSORGFRONT
350
2CA6
  3
UCSORGLEFT
350
2CA4
  3
UCSORGRIGHT
350
2CA5
  3
UCSORGTOP
350
2CA2
  3
UCSORTHOREF
350
2C9F
  3
UCSORTHOVIEW
350
2CA0
  3
VERSIONGUID
350
2C93
  0
DICTIONARY
  5
102
102
{ACAD_REACTORS
330
7
102
}
330
7
100
AcDbDictionary
  3
CANNOSCALE
350
892
  3
CMLEADERSTYLE
350
890
  3
CTABLESTYLE
350
88F
  3
DIMASSOC
350
103
  3
INDEXCTL
350
1E7C
  3
LIGHTINGUNITS
350
893
  3
MSLTSCALE
350
891
  3
SORTENTS
350
549
  0
XRECORD
  5
2C5D
102
{ACAD_REACTORS
330
7
102
}
330
7
100
AcDbXrecord
  1
DWGPROPS COOKIE
  2

  3

  4

  6

  7

  8
knsuzuki
  9

300
=
301
=
302
=
303
=
304
=
305
=
306
=
307
=
308
=
309
=
 40
0.0972191782407407
 41
2454889.364024514
 42
2454904.429580613
  1

 90
        0
  0
XRECORD
  5
2C61
102
{ACAD_REACTORS
330
1E6F
102
}
330
1E6F
100
AcDbXrecord
102
VTR_0.000_0.000_1.000_1.000_VISUALSTYLE
340
827
102
VTR_0.000_0.000_1.000_1.000_GRIDDISPLAY
 70
     3
102
VTR_0.000_0.000_1.000_1.000_GRIDMAJOR
 70
     5
102
VTR_0.000_0.000_1.000_1.000_DEFAULTLIGHTING
280
     1
102
VTR_0.000_0.000_1.000_1.000_DEFAULTLIGHTINGTYPE
 70
     1
102
VTR_0.000_0.000_1.000_1.000_BRIGHTNESS
141
0.0
102
VTR_0.000_0.000_1.000_1.000_CONTRAST
142
0.0
  0
DICTIONARY
  5
86C
102
{ACAD_REACTORS
330
86B
102
}
330
86B
100
AcDbDictionary
  0
XRECORD
  5
158D
102
{ACAD_REACTORS
330
158C
102
}
330
158C
100
AcDbXrecord
290
     1
  0
XRECORD
  5
158F
102
{ACAD_REACTORS
330
158E
102
}
330
158E
100
AcDbXrecord
290
     1
  0
XRECORD
  5
1595
102
{ACAD_REACTORS
330
1594
102
}
330
1594
100
AcDbXrecord
290
     1
  0
XRECORD
  5
1597
102
{ACAD_REACTORS
330
1596
102
}
330
1596
100
AcDbXrecord
290
     1
  0
XRECORD
  5
159B
102
{ACAD_REACTORS
330
159A
102
}
330
159A
100
AcDbXrecord
290
     1
  0
XRECORD
  5
2CA8
102
{ACAD_REACTORS
330
276A
102
}
330
276A
100
AcDbXrecord
340
2
  0
SORTENTSTABLE
  5
276B
102
{ACAD_REACTORS
330
276A
102
}
330
276A
100
AcDbSortentsTable
330
2
331
112A
  5
112B
331
10EC
  5
10ED
331
2798
  5
2798
331
25E0
  5
25E1
331
25C1
  5
25C2
331
25A2
  5
25A3
331
2265
  5
2266
331
2246
  5
2247
331
1086
  5
1086
331
10CD
  5
10CE
331
1612
  5
1634
331
2141
  5
2142
331
2198
  5
219C
331
21D7
  5
21D8
331
AC8
  5
AC8
331
AA9
  5
AA9
331
AEF
  5
AEF
331
112B
  5
112C
331
10CE
  5
10CF
331
2799
  5
2799
331
25E1
  5
25E2
331
25A3
  5
25A4
331
2266
  5
2267
331
2247
  5
2248
331
25C2
  5
25C3
331
1087
  5
1087
331
10ED
  5
10F4
331
2142
  5
2143
331
21D8
  5
21D9
331
AF0
  5
AF0
331
AAA
  5
AAA
331
AC9
  5
AC9
331
112C
  5
112D
331
279A
  5
279A
331
25E2
  5
25E3
331
25C3
  5
25C4
331
25A4
  5
25A5
331
2267
  5
2268
331
1088
  5
1088
331
10CF
  5
10D0
331
1252
  5
1253
331
16D2
  5
16FD
331
18FD
  5
18FE
331
2143
  5
2144
331
21D9
  5
21DA
331
AF1
  5
AF1
331
ACA
  5
ACA
331
AAB
  5
AAB
331
1253
  5
1254
331
114C
  5
114D
331
10D0
  5
10D1
331
279B
  5
279C
331
25E3
  5
25E4
331
25A5
  5
25A6
331
25C4
  5
25C5
331
1089
  5
1089
331
1116
  5
1117
331
112D
  5
112E
331
1828
  5
1850
331
18FE
  5
18FF
331
2144
  5
2145
331
21DA
  5
21DB
331
AF2
  5
AF2
331
A65
  5
A65
331
AAC
  5
AAC
331
ACB
  5
ACB
331
1254
  5
1255
331
10D1
  5
10D2
331
279C
  5
279D
331
25E4
  5
25E5
331
25C5
  5
25C6
331
25A6
  5
25A7
331
108A
  5
108A
331
1117
  5
111A
331
112E
  5
112F
331
114D
  5
114E
331
18FF
  5
1E89
331
2145
  5
2146
331
219C
  5
219D
331
21DB
  5
21DC
331
AF3
  5
AF3
331
AAD
  5
AAD
331
ACC
  5
ACC
331
1255
  5
1256
331
114E
  5
114F
331
10D2
  5
10D3
331
279D
  5
279E
331
25E5
  5
25E6
331
25C6
  5
25C7
331
25A7
  5
25A8
331
108B
  5
108B
331
112F
  5
1130
331
1676
  5
168C
331
2146
  5
2147
331
219D
  5
219E
331
21DC
  5
21DD
331
AF4
  5
AF4
331
AAE
  5
AAE
331
ACD
  5
ACD
331
1256
  5
1257
331
10D3
  5
10D4
331
279E
  5
279F
331
25E6
  5
25E7
331
25C7
  5
25C8
331
108C
  5
108C
331
1130
  5
1131
331
114F
  5
1150
331
2147
  5
2148
331
219E
  5
219F
331
21DD
  5
21DE
331
AF5
  5
AF5
331
AAF
  5
AAF
331
ACE
  5
ACE
331
1257
  5
1258
331
1150
  5
1151
331
111A
  5
111B
331
10D4
  5
10D5
331
279F
  5
27A0
331
25E7
  5
25E8
331
108D
  5
108D
331
1131
  5
1132
331
1775
  5
17D1
331
1883
  5
1899
331
1E89
  5
1E8A
331
219F
  5
21A0
331
21DE
  5
21DF
331
AF6
  5
AF6
331
ACF
  5
ACF
331
A91
  5
A91
331
AB0
  5
AB0
331
1151
  5
1152
331
111B
  5
1120
331
1132
  5
1133
331
10D5
  5
10D6
331
27A0
  5
27A1
331
108E
  5
108E
331
10F4
  5
10F5
331
1258
  5
1259
331
1E8A
  5
2130
331
2149
  5
214A
331
21A0
  5
21A1
331
21DF
  5
21E0
331
1727
  5
1743
331
AF7
  5
AF7
331
AB1
  5
AB1
331
A92
  5
A92
331
AD8
  5
AD8
331
1259
  5
125A
331
1152
  5
1153
331
10F5
  5
10F6
331
10D6
  5
10D7
331
27A1
  5
27A2
331
108F
  5
108F
331
1133
  5
1134
331
21E0
  5
21E1
331
214A
  5
214B
331
21A1
  5
21A2
331
AD9
  5
AD9
331
A93
  5
A93
331
AB2
  5
AB2
331
125A
  5
125B
331
1153
  5
1157
331
1134
  5
1135
331
1090
  5
1090
331
27A2
  5
27A3
331
277B
  5
277B
331
10D7
  5
10D8
331
10F6
  5
10F7
331
21E1
  5
21E2
331
214B
  5
214C
331
21A2
  5
21A3
331
1634
  5
164A
331
AB3
  5
AB3
331
A94
  5
A94
331
ADA
  5
ADA
331
125B
  5
125C
331
10D8
  5
10D9
331
1091
  5
1091
331
277C
  5
277C
331
10F7
  5
10F8
331
1135
  5
1136
331
21E2
  5
21E3
331
214C
  5
214D
331
21A3
  5
21A4
331
1850
  5
186F
331
A95
  5
A95
331
AB4
  5
AB4
331
125C
  5
125D
331
10D9
  5
10DA
331
1092
  5
1092
331
10F8
  5
10F9
331
277D
  5
277D
331
1136
  5
1137
331
21E3
  5
21E4
331
214D
  5
214E
331
21A4
  5
21A5
331
AB5
  5
AB5
331
A96
  5
A96
331
10F9
  5
10FA
331
10DA
  5
10DB
331
1093
  5
1093
331
2757
  5
2758
331
277E
  5
277E
331
1137
  5
1138
331
125D
  5
125E
331
21E4
  5
2223
331
214E
  5
214F
331
21A5
  5
21A6
331
1899
  5
18AF
331
16FD
  5
1711
331
A97
  5
A97
331
AB6
  5
AB6
331
125E
  5
125F
331
1138
  5
1139
331
10DB
  5
10DC
331
1094
  5
1094
331
10FA
  5
10FB
331
277F
  5
277F
331
1157
  5
1158
331
214F
  5
2150
331
21A6
  5
21A7
331
2130
  5
2131
331
AB7
  5
AB7
331
1139
  5
113A
331
10FB
  5
10FC
331
1095
  5
1095
331
10DC
  5
10DD
331
1158
  5
1159
331
125F
  5
1260
331
21A7
  5
21A8
331
2131
  5
2132
331
2150
  5
2151
331
1260
  5
1261
331
1159
  5
115A
331
10DD
  5
10DE
331
1096
  5
1096
331
10FC
  5
10FD
331
113A
  5
113B
331
2132
  5
2133
331
2151
  5
2152
331
21A8
  5
21A9
331
1261
  5
1262
331
113B
  5
113C
331
10FD
  5
10FE
331
1097
  5
1097
331
10DE
  5
10DF
331
115A
  5
115B
331
2133
  5
2134
331
2152
  5
2153
331
21A9
  5
21AA
331
AF8
  5
AF8
331
1262
  5
1263
331
115B
  5
115C
331
113C
  5
113D
331
10DF
  5
10E0
331
10FE
  5
10FF
331
2134
  5
2135
331
2153
  5
2154
331
21AA
  5
21AB
331
B30
  5
B30
331
AF9
  5
AF9
331
1263
  5
1264
331
113D
  5
113E
331
10FF
  5
1100
331
115C
  5
115D
331
2135
  5
2136
331
2154
  5
2155
331
21AB
  5
21AC
331
B50
  5
B50
331
AFA
  5
AFA
331
B31
  5
B31
331
1264
  5
15BF
331
115D
  5
115E
331
113E
  5
113F
331
2136
  5
2137
331
2155
  5
2156
331
21AC
  5
21AD
331
B51
  5
B51
331
B32
  5
B32
331
AFB
  5
AFB
331
113F
  5
1140
331
115E
  5
115F
331
2156
  5
2157
331
2137
  5
2138
331
21AD
  5
21AE
331
B98
  5
B98
331
B52
  5
B52
331
AFC
  5
AFC
331
B33
  5
B33
331
115F
  5
1160
331
2157
  5
2196
331
21AE
  5
21AF
331
BB8
  5
BB8
331
B82
  5
B82
331
B34
  5
B34
331
AFD
  5
AFD
331
B53
  5
B53
331
B99
  5
B99
331
21AF
  5
21D4
331
C10
  5
C10
331
B9A
  5
B9A
331
B54
  5
B54
331
AFE
  5
AFE
331
B35
  5
B35
331
B83
  5
B83
331
BB9
  5
BB9
331
C11
  5
C11
331
B84
  5
B84
331
B36
  5
B36
331
B55
  5
B55
331
B9B
  5
B9B
331
F58
  5
F58
331
C12
  5
C12
331
B9C
  5
B9C
331
B37
  5
B37
331
B00
  5
B00
331
B56
  5
B56
331
B85
  5
B85
331
F59
  5
F59
331
F70
  5
F70
331
F90
  5
F90
331
F5A
  5
F5A
331
C13
  5
C13
331
B9D
  5
B9D
331
B86
  5
B86
331
B38
  5
B38
331
B01
  5
B01
331
B57
  5
B57
331
F71
  5
F71
331
FB0
  5
FB0
331
F91
  5
F91
331
C14
  5
C14
331
B9E
  5
B9E
331
B87
  5
B87
331
B39
  5
B39
331
B02
  5
B02
331
B58
  5
B58
331
F5B
  5
F5B
331
F72
  5
F72
331
FD0
  5
FD0
331
FB1
  5
FB1
331
F5C
  5
F5C
331
C15
  5
C15
331
B3A
  5
B3A
331
B03
  5
B03
331
B88
  5
B88
331
B9F
  5
B9F
331
F73
  5
F73
331
F92
  5
F92
331
FD1
  5
FD1
331
FB2
  5
FB2
331
F74
  5
F74
331
C16
  5
C16
331
B3B
  5
B3B
331
B04
  5
B04
331
B89
  5
B89
331
BA0
  5
BA0
331
F5D
  5
F5D
331
F93
  5
F93
331
FE8
  5
FE8
331
FE9
  5
FE9
331
FD2
  5
FD2
331
FB3
  5
FB3
331
F75
  5
F75
331
F5E
  5
F5E
331
B3C
  5
B3C
331
B05
  5
B05
331
B8A
  5
B8A
331
BA1
  5
BA1
331
F94
  5
F94
331
FD3
  5
FD3
331
FB4
  5
FB4
331
F95
  5
F95
331
F76
  5
F76
331
B3D
  5
B3D
331
B06
  5
B06
331
B8B
  5
B8B
331
BA2
  5
BA2
331
F5F
  5
F5F
331
FEA
  5
FEA
331
1060
  5
1060
331
100A
  5
100A
331
FEB
  5
FEB
331
FD4
  5
FD4
331
FB5
  5
FB5
331
F96
  5
F96
331
F77
  5
F77
331
F60
  5
F60
331
BFA
  5
BFA
331
B5D
  5
B5D
331
B3E
  5
B3E
331
B07
  5
B07
331
B8C
  5
B8C
331
BA3
  5
BA3
331
1061
  5
1061
331
100B
  5
100B
331
FD5
  5
FD5
331
FB6
  5
FB6
331
F97
  5
F97
331
F78
  5
F78
331
F61
  5
F61
331
F42
  5
F42
331
B8D
  5
B8D
331
B3F
  5
B3F
331
B08
  5
B08
331
B5E
  5
B5E
331
BA4
  5
BA4
331
BFB
  5
BFB
331
FEC
  5
FEC
331
1062
  5
1062
331
100C
  5
100C
331
FED
  5
FED
331
FD6
  5
FD6
331
FB7
  5
FB7
331
F98
  5
F98
331
F79
  5
F79
331
F62
  5
F62
331
BA5
  5
BA5
331
B5F
  5
B5F
331
B40
  5
B40
331
B09
  5
B09
331
B8E
  5
B8E
331
BFC
  5
BFC
331
F43
  5
F43
331
2248
  5
2249
331
1063
  5
1063
331
100D
  5
100D
331
FD7
  5
FD7
331
FB8
  5
FB8
331
F99
  5
F99
331
F7A
  5
F7A
331
F63
  5
F63
331
F44
  5
F44
331
B8F
  5
B8F
331
B41
  5
B41
331
B0A
  5
B0A
331
B60
  5
B60
331
BA6
  5
BA6
331
BFD
  5
BFD
331
FEE
  5
FEE
331
2249
  5
224A
331
2268
  5
2269
331
2570
  5
2571
331
2269
  5
226A
331
224A
  5
224B
331
1064
  5
1064
331
100E
  5
100E
331
FD8
  5
FD8
331
FB9
  5
FB9
331
F9A
  5
F9A
331
F7B
  5
F7B
331
F64
  5
F64
331
B90
  5
B90
331
BA7
  5
BA7
331
B61
  5
B61
331
B0B
  5
B0B
331
B42
  5
B42
331
BFE
  5
BFE
331
F45
  5
F45
331
FEF
  5
FEF
331
2223
  5
2224
331
2571
  5
2572
331
224B
  5
224C
331
FBA
  5
FBA
331
F9B
  5
F9B
331
F65
  5
F65
331
BFF
  5
BFF
331
B91
  5
B91
331
BA8
  5
BA8
331
B43
  5
B43
331
B0C
  5
B0C
331
B62
  5
B62
331
F46
  5
F46
331
F7C
  5
F7C
331
FD9
  5
FD9
331
FF0
  5
FF0
331
100F
  5
100F
331
1065
  5
1065
331
2224
  5
2225
331
226A
  5
226B
331
2588
  5
2589
331
25A8
  5
25A9
331
2572
  5
2573
331
226B
  5
226C
331
224C
  5
224D
331
FDA
  5
FDA
331
F9C
  5
F9C
331
F66
  5
F66
331
B92
  5
B92
331
BA9
  5
BA9
331
B63
  5
B63
331
B0D
  5
B0D
331
B44
  5
B44
331
C00
  5
C00
331
F47
  5
F47
331
F7D
  5
F7D
331
FBB
  5
FBB
331
FF1
  5
FF1
331
1010
  5
1010
331
1047
  5
1047
331
1066
  5
1066
331
2225
  5
2226
331
2589
  5
258A
331
25C8
  5
25C9
331
25A9
  5
25AA
331
2573
  5
2574
331
224D
  5
224E
331
FBC
  5
FBC
331
F9D
  5
F9D
331
F67
  5
F67
331
C01
  5
C01
331
B93
  5
B93
331
BAA
  5
BAA
331
B45
  5
B45
331
B0E
  5
B0E
331
B64
  5
B64
331
F48
  5
F48
331
F7E
  5
F7E
331
FDB
  5
FDB
331
FF2
  5
FF2
331
1011
  5
1011
331
1048
  5
1048
331
1067
  5
1067
331
2226
  5
2227
331
226C
  5
226D
331
258A
  5
258B
331
25E8
  5
25E9
331
25C9
  5
25CA
331
25AA
  5
25AB
331
2574
  5
2575
331
226D
  5
226E
331
224E
  5
224F
331
1049
  5
1049
331
FDC
  5
FDC
331
F9E
  5
F9E
331
F68
  5
F68
331
F49
  5
F49
331
B94
  5
B94
331
BAB
  5
BAB
331
B65
  5
B65
331
B0F
  5
B0F
331
B46
  5
B46
331
C02
  5
C02
331
F7F
  5
F7F
331
FBD
  5
FBD
331
FF3
  5
FF3
331
1012
  5
1012
331
1068
  5
1068
331
2227
  5
2228
331
258B
  5
258C
331
25E9
  5
25EA
331
25CA
  5
25CB
331
25AB
  5
25AC
331
2575
  5
2576
331
224F
  5
2250
331
FF4
  5
FF4
331
FBE
  5
FBE
331
F9F
  5
F9F
331
F69
  5
F69
331
F80
  5
F80
331
C03
  5
C03
331
B95
  5
B95
331
BAC
  5
BAC
331
B47
  5
B47
331
B66
  5
B66
331
F4A
  5
F4A
331
FDD
  5
FDD
331
1013
  5
1013
331
104A
  5
104A
331
1069
  5
1069
331
2228
  5
2236
331
226E
  5
226F
331
258C
  5
258D
331
25EA
  5
25EB
331
25CB
  5
25CC
331
25AC
  5
25AD
331
2576
  5
2577
331
104B
  5
104B
331
FDE
  5
FDE
331
FA0
  5
FA0
331
F6A
  5
F6A
331
F4B
  5
F4B
331
B96
  5
B96
331
BAD
  5
BAD
331
B48
  5
B48
331
B67
  5
B67
331
C04
  5
C04
331
F81
  5
F81
331
FBF
  5
FBF
331
FF5
  5
FF5
331
1014
  5
1014
331
106A
  5
106A
331
2250
  5
2251
331
226F
  5
2270
331
258D
  5
258E
331
25EB
  5
25EC
331
25CC
  5
25CD
331
25AD
  5
25AE
331
2577
  5
2578
331
FF6
  5
FF6
331
FC0
  5
FC0
331
FA1
  5
FA1
331
F6B
  5
F6B
331
F82
  5
F82
331
C05
  5
C05
331
B97
  5
B97
331
B49
  5
B49
331
B68
  5
B68
331
BAE
  5
BAE
331
F4C
  5
F4C
331
FDF
  5
FDF
331
104C
  5
104C
331
106B
  5
106B
331
2251
  5
2252
331
2270
  5
2271
331
258E
  5
258F
331
25EC
  5
25ED
331
25CD
  5
25CE
331
25AE
  5
25AF
331
2578
  5
2579
331
2271
  5
2272
331
FE0
  5
FE0
331
FF7
  5
FF7
331
FA2
  5
FA2
331
F6C
  5
F6C
331
F4D
  5
F4D
331
B4A
  5
B4A
331
B69
  5
B69
331
BAF
  5
BAF
331
F83
  5
F83
331
FC1
  5
FC1
331
1016
  5
1016
331
104D
  5
104D
331
106C
  5
106C
331
2252
  5
2253
331
258F
  5
2590
331
25ED
  5
25EE
331
25CE
  5
25CF
331
25AF
  5
25B0
331
2579
  5
257A
331
2272
  5
2273
331
FE1
  5
FE1
331
FF8
  5
FF8
331
FC2
  5
FC2
331
F6D
  5
F6D
331
F84
  5
F84
331
B6A
  5
B6A
331
B4B
  5
B4B
331
BB0
  5
BB0
331
F4E
  5
F4E
331
FA3
  5
FA3
331
104E
  5
104E
331
106D
  5
106D
331
2253
  5
2254
331
2590
  5
2591
331
25EE
  5
25EF
331
25CF
  5
25D0
331
25B0
  5
25B1
331
257A
  5
257B
331
2273
  5
2274
331
106E
  5
106E
331
1018
  5
1018
331
FF9
  5
FF9
331
104F
  5
104F
331
2254
  5
2255
331
2591
  5
2592
331
2758
  5
2759
331
F85
  5
F85
331
FA4
  5
FA4
331
FC3
  5
FC3
331
BB1
  5
BB1
331
B4C
  5
B4C
331
B2D
  5
B2D
331
B6B
  5
B6B
331
C08
  5
C08
331
F4F
  5
F4F
331
F6E
  5
F6E
331
FE2
  5
FE2
331
A98
  5
A98
331
25EF
  5
25F0
331
25D0
  5
25D1
331
25B1
  5
25B2
331
257B
  5
257C
331
2274
  5
2275
331
FFA
  5
FFA
331
1050
  5
1050
331
106F
  5
106F
331
2255
  5
2256
331
2592
  5
2593
331
2759
  5
275A
331
2780
  5
2780
331
FC4
  5
FC4
331
F86
  5
F86
331
FA5
  5
FA5
331
FE3
  5
FE3
331
C09
  5
C09
331
B6C
  5
B6C
331
B4D
  5
B4D
331
B2E
  5
B2E
331
BB2
  5
BB2
331
F50
  5
F50
331
F6F
  5
F6F
331
A99
  5
A99
331
AB8
  5
AB8
331
25F0
  5
25F1
331
25D1
  5
25D2
331
25B2
  5
25B3
331
257C
  5
257D
331
2275
  5
227D
331
1070
  5
1070
331
1051
  5
1051
331
101A
  5
101A
331
FFB
  5
FFB
331
2256
  5
2257
331
2593
  5
2594
331
275A
  5
275B
331
2781
  5
2781
331
F51
  5
F51
331
B4E
  5
B4E
331
B2F
  5
B2F
331
B6D
  5
B6D
331
BB3
  5
BB3
331
C0A
  5
C0A
331
F87
  5
F87
331
FA6
  5
FA6
331
FC5
  5
FC5
331
FE4
  5
FE4
331
164A
  5
1660
331
A9A
  5
A9A
331
AB9
  5
AB9
331
1078
  5
1078
331
25F1
  5
25F2
331
25D2
  5
25D3
331
25B3
  5
25B4
331
257D
  5
257E
331
1071
  5
1071
331
FFC
  5
FFC
331
1052
  5
1052
331
2257
  5
2258
331
2594
  5
2595
331
275B
  5
275D
331
2782
  5
2782
331
C0B
  5
C0B
331
BB4
  5
BB4
331
B4F
  5
B4F
331
F52
  5
F52
331
F88
  5
F88
331
FA7
  5
FA7
331
FC6
  5
FC6
331
FE5
  5
FE5
331
A9B
  5
A9B
331
ABA
  5
ABA
331
1079
  5
1079
331
1098
  5
1098
331
25F2
  5
25F3
331
25D3
  5
25D4
331
25B4
  5
25B5
331
2258
  5
2259
331
1072
  5
1072
331
1053
  5
1053
331
101C
  5
101C
331
FFD
  5
FFD
331
2239
  5
223A
331
257E
  5
257F
331
2595
  5
2596
331
275C
  5
275E
331
FA8
  5
FA8
331
F89
  5
F89
331
F53
  5
F53
331
BB5
  5
BB5
331
C0C
  5
C0C
331
FC7
  5
FC7
331
FE6
  5
FE6
331
15ED
  5
1612
331
A9C
  5
A9C
331
ABB
  5
ABB
331
1099
  5
1099
331
107A
  5
107A
331
10E0
  5
10E1
331
25F3
  5
25F4
331
25D4
  5
25D5
331
25B5
  5
25B6
331
2259
  5
225A
331
1073
  5
1073
331
FFE
  5
FFE
331
1054
  5
1054
331
223A
  5
223B
331
257F
  5
2580
331
2596
  5
2597
331
275D
  5
275F
331
FC8
  5
FC8
331
FA9
  5
FA9
331
BB6
  5
BB6
331
C0D
  5
C0D
331
F8A
  5
F8A
331
FE7
  5
FE7
331
17D1
  5
1809
331
168C
  5
16A2
331
15BF
  5
15ED
331
AE3
  5
AE3
331
A9D
  5
A9D
331
ABC
  5
ABC
331
107B
  5
107B
331
10E1
  5
10E2
331
1100
  5
1101
331
25F4
  5
25F5
331
25D5
  5
25D6
331
25B6
  5
25B7
331
2580
  5
2581
331
225A
  5
225B
331
1074
  5
1074
331
1055
  5
1055
331
101E
  5
101E
331
FC9
  5
FC9
331
FAA
  5
FAA
331
F8B
  5
F8B
331
F55
  5
F55
331
BB7
  5
BB7
331
C0E
  5
C0E
331
FFF
  5
FFF
331
223B
  5
223C
331
2597
  5
2598
331
275E
  5
2760
331
A9E
  5
A9E
331
ABD
  5
ABD
331
AE4
  5
AE4
331
10E2
  5
10E3
331
107C
  5
107C
331
1101
  5
1102
331
1120
  5
1121
331
25F5
  5
2757
331
25D6
  5
25D7
331
2581
  5
2582
331
2598
  5
2599
331
225B
  5
225C
331
1075
  5
1075
331
1000
  5
1000
331
FCA
  5
FCA
331
FAB
  5
FAB
331
F8C
  5
F8C
331
C0F
  5
C0F
331
F56
  5
F56
331
1056
  5
1056
331
223C
  5
223D
331
25B7
  5
25B8
331
275F
  5
2761
331
ABE
  5
ABE
331
A9F
  5
A9F
331
AE5
  5
AE5
331
1121
  5
1122
331
107D
  5
107D
331
10E3
  5
10E4
331
1102
  5
1103
331
1140
  5
1141
331
2760
  5
2762
331
25B8
  5
25B9
331
2599
  5
259A
331
25D7
  5
25D8
331
225C
  5
225D
331
1076
  5
1076
331
1057
  5
1057
331
223D
  5
223E
331
1028
  5
1028
331
1001
  5
1001
331
FCB
  5
FCB
331
FAC
  5
FAC
331
F8D
  5
F8D
331
F57
  5
F57
331
2582
  5
2583
331
2138
  5
2139
331
1660
  5
1676
331
AA0
  5
AA0
331
ABF
  5
ABF
331
AE6
  5
AE6
331
1141
  5
1142
331
10E4
  5
10E5
331
107E
  5
107E
331
1103
  5
1104
331
1122
  5
1123
331
1160
  5
1161
331
25B9
  5
25BA
331
259A
  5
259B
331
25D8
  5
25D9
331
2761
  5
2763
331
225D
  5
225E
331
1077
  5
1077
331
223E
  5
223F
331
1058
  5
1058
331
1029
  5
1029
331
1002
  5
1002
331
FCC
  5
FCC
331
FAD
  5
FAD
331
F8E
  5
F8E
331
2583
  5
2584
331
18E3
  5
18FD
331
2139
  5
213A
331
AC0
  5
AC0
331
AA1
  5
AA1
331
AE7
  5
AE7
331
1161
  5
1162
331
1104
  5
1105
331
107F
  5
107F
331
10E5
  5
10E6
331
1123
  5
1124
331
1142
  5
1143
331
25BA
  5
25BB
331
259B
  5
259C
331
25D9
  5
25DA
331
2762
  5
2764
331
225E
  5
225F
331
223F
  5
2240
331
1059
  5
1059
331
102A
  5
102A
331
FCD
  5
FCD
331
FAE
  5
FAE
331
F8F
  5
F8F
331
2584
  5
2585
331
213A
  5
213B
331
AE8
  5
AE8
331
AA2
  5
AA2
331
1162
  5
1163
331
1143
  5
114C
331
10E6
  5
10E7
331
1080
  5
1080
331
1105
  5
1106
331
1124
  5
1125
331
25BB
  5
25BC
331
259C
  5
259D
331
25DA
  5
25DB
331
2763
  5
2765
331
2240
  5
2241
331
225F
  5
2260
331
105A
  5
105A
331
1004
  5
1004
331
FCE
  5
FCE
331
FAF
  5
FAF
331
2585
  5
2586
331
213B
  5
213C
331
16A2
  5
16B8
331
1711
  5
1727
331
AC2
  5
AC2
331
AA3
  5
AA3
331
AE9
  5
AE9
331
1106
  5
1107
331
10C8
  5
10C8
331
1081
  5
1081
331
10E7
  5
10E8
331
1125
  5
1126
331
1163
  5
1164
331
25BC
  5
25BD
331
259D
  5
259E
331
25DB
  5
25DC
331
2764
  5
2766
331
2260
  5
2261
331
2241
  5
2242
331
105B
  5
105B
331
FCF
  5
FCF
331
2586
  5
2587
331
213C
  5
213D
331
186F
  5
1870
331
AEA
  5
AEA
331
AA4
  5
AA4
331
1126
  5
1127
331
10E8
  5
10E9
331
10C9
  5
10C9
331
1082
  5
1082
331
1107
  5
1116
331
1164
  5
1165
331
25BD
  5
25BE
331
259E
  5
259F
331
25DC
  5
25DD
331
2765
  5
2767
331
2242
  5
2243
331
2261
  5
2262
331
105C
  5
105C
331
2587
  5
2588
331
213D
  5
213E
331
1870
  5
1883
331
1809
  5
1828
331
AC4
  5
AC4
331
AA5
  5
AA5
331
AEB
  5
AEB
331
1127
  5
1128
331
10CA
  5
10CA
331
1083
  5
1083
331
10E9
  5
10EA
331
1165
  5
1166
331
25BE
  5
25BF
331
2262
  5
2263
331
2243
  5
2244
331
259F
  5
25A0
331
25DD
  5
25DE
331
2766
  5
2768
331
105D
  5
105D
331
213E
  5
213F
331
1743
  5
1744
331
21D4
  5
21D5
331
AEC
  5
AEC
331
AA6
  5
AA6
331
AC5
  5
AC5
331
1128
  5
1129
331
10EA
  5
10EB
331
1084
  5
1084
331
10CB
  5
10CC
331
1166
  5
1252
331
2796
  5
2796
331
25A0
  5
25A1
331
2263
  5
2264
331
2244
  5
2245
331
25BF
  5
25C0
331
25DE
  5
25DF
331
2767
  5
2769
331
105E
  5
105E
331
1744
  5
174B
331
213F
  5
2140
331
2196
  5
2197
331
21D5
  5
21D6
331
AC6
  5
AC6
331
AA7
  5
AA7
331
AED
  5
AED
331
1129
  5
112A
331
10CC
  5
10CD
331
1085
  5
1085
331
10EB
  5
10EC
331
2768
  5
276C
331
25DF
  5
25E0
331
2797
  5
2797
331
25A1
  5
25A2
331
2264
  5
2265
331
105F
  5
105F
331
2245
  5
2246
331
25C0
  5
25C1
331
2140
  5
2141
331
2197
  5
2198
331
21D6
  5
21D7
331
AA8
  5
AA8
331
AC7
  5
AC7
331
AEE
  5
AEE
  0
XRECORD
  5
2CAA
102
{ACAD_REACTORS
330
2CA9
102
}
330
2CA9
100
AcDbXrecord
340
2C81
  0
ACAD_PROXY_OBJECT
  5
811
102
{ACAD_XDICTIONARY
360
812
102
}
102
{ACAD_REACTORS
330
808
102
}
330
808
100
AcDbProxyObject
 90
      499
 91
      512
 93
     1340
310
42109E509B1BD8DAC02004014080404555555555555953FAA155555555555654FEA9AA400014080404555555555555953FAA155555555555654FEA9AA400000000000000E03F4080404555555555555953FAA155555555555654FEA9AA4014080404555555555555953FAA155555555555654FEA9AA4010201011555555555
310
55654FEA8555555555555953FAA6A9005020101155555555555654FEA8555555555555953FAA6A9000
 94
        0
1001
ACAD
1000
AcadProxyRoundTripData
1071
      504
1071
   851991
1070
     0
  0
ACAD_PROXY_OBJECT
  5
809
102
{ACAD_XDICTIONARY
360
80A
102
}
102
{ACAD_REACTORS
330
808
102
}
330
808
100
AcDbProxyObject
 90
      499
 91
      512
 93
     1340
310
42109E53185E595C802004014080404555555555555953FAA155555555555654FEA9AA400014080404555555555555953FAA155555555555654FEA9AA400000000000000E03F4080404555555555555953FAA155555555555654FEA9AA4014080404555555555555953FAA155555555555654FEA9AA4010201011555555555
310
55654FEA8555555555555953FAA6A9005020101155555555555654FEA8555555555555953FAA6A9000
 94
        0
1001
ACAD
1000
AcadProxyRoundTripData
1071
      504
1071
   851991
1070
     0
  0
ACAD_PROXY_OBJECT
  5
819
102
{ACAD_XDICTIONARY
360
81A
102
}
102
{ACAD_REACTORS
330
808
102
}
330
808
100
AcDbProxyObject
 90
      499
 91
      512
 93
     1332
310
41D1DB1BD8985B002004014080404555555555555953FAA155555555555654FEA9AA400014080404555555555555953FAA155555555555654FEA9AA400000000000000E03F4080404555555555555953FAA155555555555654FEA9AA4014080404555555555555953FAA155555555555654FEA9AA401020101155555555555
310
654FEA8555555555555953FAA6A9005020101155555555555654FEA8555555555555953FAA6A9000
 94
        0
1001
ACAD
1000
AcadProxyRoundTripData
1071
      504
1071
   851991
1070
     0
  0
ACAD_PROXY_OBJECT
  5
858
102
{ACAD_REACTORS
330
857
102
}
330
857
100
AcDbProxyObject
 90
      499
 91
      512
 93
      618
310
40901902A4063FBFFFFFE056BD1B81E855B9FC0AD7A3703D0AD73F4254DD185B99185C990000AD7A3703D0AC73F90141901A02B5E8DC0F42B1CFC02B5E8DC0F42B1CFE5764000000000000300FC6
340
6A
340
0
340
16
340
0
 94
        0
1001
ACAD_MLEADERVER
1070
     2
1001
ACAD
1000
AcadProxyRoundTripData
1071
      508
1071
   851991
1070
     0
  0
MLINESTYLE
  5
78
102
{ACAD_REACTORS
330
76
102
}
330
76
100
AcDbMlineStyle
  2
STANDARD
 70
     0
  3

 62
     0
 51
90.0
 52
90.0
 71
     2
 49
0.5
 62
   256
  6
BYLAYER
 49
-0.5
 62
   256
  6
BYLAYER
  0
ACDBPLACEHOLDER
  5
5
102
{ACAD_REACTORS
330
6
102
}
330
6
100
AcDbPlaceHolder
280
     0
  0
ACAD_PROXY_OBJECT
  5
836
102
{ACAD_REACTORS
330
835
102
}
330
835
100
AcDbProxyObject
 90
      499
 91
      512
 93
       49
310
904313A3100598
 94
        0
1001
ACAD
1000
AcadProxyRoundTripData
1071
      507
1071
   851991
1070
     0
  0
ACAD_PROXY_OBJECT
  5
837
102
{ACAD_REACTORS
330
835
102
}
330
835
100
AcDbProxyObject
 90
      499
 91
      512
 93
      113
310
904313A3200400000000000000406B
 94
        0
1001
ACAD
1000
AcadProxyRoundTripData
1071
      507
1071
   851991
1070
     0
  0
ACAD_PROXY_OBJECT
  5
838
102
{ACAD_REACTORS
330
835
102
}
330
835
100
AcDbProxyObject
 90
      499
 91
      512
 93
      113
310
904313A3400400000000000010406B
 94
        0
1001
ACAD
1000
AcadProxyRoundTripData
1071
      507
1071
   851991
1070
     0
  0
ACAD_PROXY_OBJECT
  5
839
102
{ACAD_REACTORS
330
835
102
}
330
835
100
AcDbProxyObject
 90
      499
 91
      512
 93
      113
310
904313A3500400000000000014406B
 94
        0
1001
ACAD
1000
AcadProxyRoundTripData
1071
      507
1071
   851991
1070
     0
  0
ACAD_PROXY_OBJECT
  5
83A
102
{ACAD_REACTORS
330
835
102
}
330
835
100
AcDbProxyObject
 90
      499
 91
      512
 93
      113
310
904313A3800400000000000020406B
 94
        0
1001
ACAD
1000
AcadProxyRoundTripData
1071
      507
1071
   851991
1070
     0
  0
ACAD_PROXY_OBJECT
  5
83B
102
{ACAD_REACTORS
330
835
102
}
330
835
100
AcDbProxyObject
 90
      499
 91
      512
 93
      121
310
905313A3130004000000000000244051
 94
        0
1001
ACAD
1000
AcadProxyRoundTripData
1071
      507
1071
   851991
1070
     0
  0
ACAD_PROXY_OBJECT
  5
83C
102
{ACAD_REACTORS
330
835
102
}
330
835
100
AcDbProxyObject
 90
      499
 91
      512
 93
      121
310
905313A3136004000000000000304051
 94
        0
1001
ACAD
1000
AcadProxyRoundTripData
1071
      507
1071
   851991
1070
     0
  0
ACAD_PROXY_OBJECT
  5
83D
102
{ACAD_REACTORS
330
835
102
}
330
835
100
AcDbProxyObject
 90
      499
 91
      512
 93
      121
310
905313A3230004000000000000344051
 94
        0
1001
ACAD
1000
AcadProxyRoundTripData
1071
      507
1071
   851991
1070
     0
  0
ACAD_PROXY_OBJECT
  5
83E
102
{ACAD_REACTORS
330
835
102
}
330
835
100
AcDbProxyObject
 90
      499
 91
      512
 93
      121
310
905313A33300040000000000003E4051
 94
        0
1001
ACAD
1000
AcadProxyRoundTripData
1071
      507
1071
   851991
1070
     0
  0
ACAD_PROXY_OBJECT
  5
83F
102
{ACAD_REACTORS
330
835
102
}
330
835
100
AcDbProxyObject
 90
      499
 91
      512
 93
      121
310
905313A3430004000000000000444051
 94
        0
1001
ACAD
1000
AcadProxyRoundTripData
1071
      507
1071
   851991
1070
     0
  0
ACAD_PROXY_OBJECT
  5
840
102
{ACAD_REACTORS
330
835
102
}
330
835
100
AcDbProxyObject
 90
      499
 91
      512
 93
      121
310
905313A3530004000000000000494051
 94
        0
1001
ACAD
1000
AcadProxyRoundTripData
1071
      507
1071
   851991
1070
     0
  0
ACAD_PROXY_OBJECT
  5
841
102
{ACAD_REACTORS
330
835
102
}
330
835
100
AcDbProxyObject
 90
      499
 91
      512
 93
      129
310
906313A313030004000000000000594038
 94
        0
1001
ACAD
1000
AcadProxyRoundTripData
1071
      507
1071
   851991
1070
     0
  0
ACAD_PROXY_OBJECT
  5
842
102
{ACAD_REACTORS
330
835
102
}
330
835
100
AcDbProxyObject
 90
      499
 91
      512
 93
      113
310
904323A31000000000000000010159
 94
        0
1001
ACAD
1000
AcadProxyRoundTripData
1071
      507
1071
   851991
1070
     0
  0
ACAD_PROXY_OBJECT
  5
843
102
{ACAD_REACTORS
330
835
102
}
330
835
100
AcDbProxyObject
 90
      499
 91
      512
 93
      113
310
904343A31000000000000000410159
 94
        0
1001
ACAD
1000
AcadProxyRoundTripData
1071
      507
1071
   851991
1070
     0
  0
ACAD_PROXY_OBJECT
  5
844
102
{ACAD_REACTORS
330
835
102
}
330
835
100
AcDbProxyObject
 90
      499
 91
      512
 93
      113
310
904383A31000000000000000810159
 94
        0
1001
ACAD
1000
AcadProxyRoundTripData
1071
      507
1071
   851991
1070
     0
  0
ACAD_PROXY_OBJECT
  5
845
102
{ACAD_REACTORS
330
835
102
}
330
835
100
AcDbProxyObject
 90
      499
 91
      512
 93
      121
310
90531303A31000000000000000910140
 94
        0
1001
ACAD
1000
AcadProxyRoundTripData
1071
      507
1071
   851991
1070
     0
  0
ACAD_PROXY_OBJECT
  5
846
102
{ACAD_REACTORS
330
835
102
}
330
835
100
AcDbProxyObject
 90
      499
 91
      512
 93
      129
310
9063130303A31000000000000001650138
 94
        0
1001
ACAD
1000
AcadProxyRoundTripData
1071
      507
1071
   851991
1070
     0
  0
ACAD_PROXY_OBJECT
  5
847
102
{ACAD_REACTORS
330
835
102
}
330
835
100
AcDbProxyObject
 90
      499
 91
      512
 93
      265
310
90F312F31323822203D2031272D302200000000000000200FC00000000000028402B
 94
        0
1001
ACAD
1000
AcadProxyRoundTripData
1071
      507
1071
   851991
1070
     0
  0
ACAD_PROXY_OBJECT
  5
848
102
{ACAD_REACTORS
330
835
102
}
330
835
100
AcDbProxyObject
 90
      499
 91
      512
 93
      257
310
90E312F363422203D2031272D302200000000000000240FC000000000000284040
 94
        0
1001
ACAD
1000
AcadProxyRoundTripData
1071
      507
1071
   851991
1070
     0
  0
ACAD_PROXY_OBJECT
  5
849
102
{ACAD_REACTORS
330
835
102
}
330
835
100
AcDbProxyObject
 90
      499
 91
      512
 93
      257
310
90E312F333222203D2031272D302200000000000000280FC000000000000284040
 94
        0
1001
ACAD
1000
AcadProxyRoundTripData
1071
      507
1071
   851991
1070
     0
  0
ACAD_PROXY_OBJECT
  5
84A
102
{ACAD_REACTORS
330
835
102
}
330
835
100
AcDbProxyObject
 90
      499
 91
      512
 93
      257
310
90E312F313622203D2031272D3022000000000000002C0FC000000000000284040
 94
        0
1001
ACAD
1000
AcadProxyRoundTripData
1071
      507
1071
   851991
1070
     0
  0
ACAD_PROXY_OBJECT
  5
84B
102
{ACAD_REACTORS
330
835
102
}
330
835
100
AcDbProxyObject
 90
      499
 91
      512
 93
      257
310
90E332F333222203D2031272D3022000000000000002E0FC000000000000284040
 94
        0
1001
ACAD
1000
AcadProxyRoundTripData
1071
      507
1071
   851991
1070
     0
  0
ACAD_PROXY_OBJECT
  5
84C
102
{ACAD_REACTORS
330
835
102
}
330
835
100
AcDbProxyObject
 90
      499
 91
      512
 93
      249
310
90D312F3822203D2031272D302200000000000000300FC000000000000284040
 94
        0
1001
ACAD
1000
AcadProxyRoundTripData
1071
      507
1071
   851991
1070
     0
  0
ACAD_PROXY_OBJECT
  5
84D
102
{ACAD_REACTORS
330
835
102
}
330
835
100
AcDbProxyObject
 90
      499
 91
      512
 93
      257
310
90E332F313622203D2031272D302200000000000000320FC000000000000284040
 94
        0
1001
ACAD
1000
AcadProxyRoundTripData
1071
      507
1071
   851991
1070
     0
  0
ACAD_PROXY_OBJECT
  5
84E
102
{ACAD_REACTORS
330
835
102
}
330
835
100
AcDbProxyObject
 90
      499
 91
      512
 93
      249
310
90D312F3422203D2031272D302200000000000000340FC000000000000284040
 94
        0
1001
ACAD
1000
AcadProxyRoundTripData
1071
      507
1071
   851991
1070
     0
  0
ACAD_PROXY_OBJECT
  5
84F
102
{ACAD_REACTORS
330
835
102
}
330
835
100
AcDbProxyObject
 90
      499
 91
      512
 93
      249
310
90D332F3822203D2031272D302200000000000000360FC000000000000284040
 94
        0
1001
ACAD
1000
AcadProxyRoundTripData
1071
      507
1071
   851991
1070
     0
  0
ACAD_PROXY_OBJECT
  5
850
102
{ACAD_REACTORS
330
835
102
}
330
835
100
AcDbProxyObject
 90
      499
 91
      512
 93
      249
310
90D312F3222203D2031272D302200000000000000380FC000000000000284040
 94
        0
1001
ACAD
1000
AcadProxyRoundTripData
1071
      507
1071
   851991
1070
     0
  0
ACAD_PROXY_OBJECT
  5
851
102
{ACAD_REACTORS
330
835
102
}
330
835
100
AcDbProxyObject
 90
      499
 91
      512
 93
      249
310
90D332F3422203D2031272D3022000000000000003A0FC000000000000284040
 94
        0
1001
ACAD
1000
AcadProxyRoundTripData
1071
      507
1071
   851991
1070
     0
  0
ACAD_PROXY_OBJECT
  5
852
102
{ACAD_REACTORS
330
835
102
}
330
835
100
AcDbProxyObject
 90
      499
 91
      512
 93
      169
310
90B3122203D2031272D3022004000000000000284020
 94
        0
1001
ACAD
1000
AcadProxyRoundTripData
1071
      507
1071
   851991
1070
     0
  0
ACAD_PROXY_OBJECT
  5
853
102
{ACAD_REACTORS
330
835
102
}
330
835
100
AcDbProxyObject
 90
      499
 91
      512
 93
      265
310
90F312D312F3222203D2031272D3022000000000000003E0FC00000000000028402B
 94
        0
1001
ACAD
1000
AcadProxyRoundTripData
1071
      507
1071
   851991
1070
     0
  0
ACAD_PROXY_OBJECT
  5
854
102
{ACAD_REACTORS
330
835
102
}
330
835
100
AcDbProxyObject
 90
      499
 91
      512
 93
      233
310
90B3322203D2031272D30220000000000000002100000000000000284000
 94
        0
1001
ACAD
1000
AcadProxyRoundTripData
1071
      507
1071
   851991
1070
     0
  0
ACAD_PROXY_OBJECT
  5
855
102
{ACAD_REACTORS
330
835
102
}
330
835
100
AcDbProxyObject
 90
      499
 91
      512
 93
      233
310
90B3622203D2031272D30220000000000000006100000000000000284000
 94
        0
1001
ACAD
1000
AcadProxyRoundTripData
1071
      507
1071
   851991
1070
     0
  0
ACAD_PROXY_OBJECT
  5
856
102
{ACAD_REACTORS
330
835
102
}
330
835
100
AcDbProxyObject
 90
      499
 91
      512
 93
      257
310
90E31272D3022203D2031272D3022000000000000000A100000000000000284040
 94
        0
1001
ACAD
1000
AcadProxyRoundTripData
1071
      507
1071
   851991
1070
     0
  0
ACAD_PROXY_OBJECT
  5
834
102
{ACAD_XDICTIONARY
360
88C
102
}
102
{ACAD_REACTORS
330
833
102
}
330
833
100
AcDbProxyObject
 90
      499
 91
      512
 93
     1849
310
4254DD185B99185C990028B81E85EB51B8AE3F2E07A17AD46E2B8FC02B5E8DC0F42B1CFD028000000C1008070000C3001FDFF8000000C1003FBFF000000182007F7FE00000030400FEFFC00000060801FDFF8000000C1003FBFF00000018200000000000000681FA0B0000001820100E000186003FBFF000000182007F7FE0
310
0000030400FEFFC00000060801FDFF8000000C1003FBFF000000182007F7FE000000304000AD7A3703D0AC73F4160000003040201C00030C007F7FE00000030400FEFFC00000060801FDFF8000000C1003FBFF000000182007F7FE00000030400FEFFC000000608000
340
16
340
16
340
16
 94
        0
1001
ACAD
1000
AcadProxyRoundTripData
1071
      506
1071
   851991
1070
     0
  0
ACAD_PROXY_OBJECT
  5
827
102
{ACAD_REACTORS
330
821
102
}
330
821
100
AcDbProxyObject
 90
      499
 91
      512
 93
      444
310
430C9915DA5C99599C985B59401049028333333333333E3BF0000000000000FB0107901411070040501600405405064090741402480A0340
 94
        0
1001
ACAD
1000
AcDbSavedByObjectVersion
1070
     0
1000
AcadProxyRoundTripData
1071
      505
1071
   851991
1070
     0
  0
ACAD_PROXY_OBJECT
  5
829
102
{ACAD_REACTORS
330
821
102
}
330
821
100
AcDbProxyObject
 90
      499
 91
      512
 93
      508
310
428CD108121A5919195B8010640502408333333333333E3BF0000000000000FB01079024090700405020000000000001110200405405064090740C02480A0340
 94
        0
1001
ACAD
1000
AcDbSavedByObjectVersion
1070
     0
1000
AcadProxyRoundTripData
1071
      505
1071
   851991
1070
     0
  0
ACAD_PROXY_OBJECT
  5
828
102
{ACAD_REACTORS
330
821
102
}
330
821
100
AcDbProxyObject
 90
      499
 91
      512
 93
      444
310
430CD915DA5C99599C985B59401059028333333333333E3BF0000000000000FB0107901411070040501600405405064090741402480A0340
 94
        0
1001
ACAD
1000
AcDbSavedByObjectVersion
1070
     0
1000
AcadProxyRoundTripData
1071
      505
1071
   851991
1070
     0
  0
ACAD_PROXY_OBJECT
  5
826
102
{ACAD_REACTORS
330
821
102
}
330
821
100
AcDbProxyObject
 90
      499
 91
      512
 93
      396
310
4190985CDA58C0107406404333333333333E3BF0000000000000FB0107A41107004050150841D405064090741402480A0356
 94
        0
1001
ACAD
1000
AcDbSavedByObjectVersion
1070
     0
1000
AcadProxyRoundTripData
1071
      505
1071
   851991
1070
     0
  0
ACAD_PROXY_OBJECT
  5
82D
102
{ACAD_REACTORS
330
821
102
}
330
821
100
AcDbProxyObject
 90
      499
 91
      512
 93
      436
310
42509C9A59DA1D195B8010C409028333333333333E3BF0000000000000FB010790141107004050150841D405064090741402480A029956
 94
        0
1001
ACAD
1000
AcDbSavedByObjectVersion
1070
     0
1000
AcadProxyRoundTripData
1071
      505
1071
   851991
1070
     0
  0
ACAD_PROXY_OBJECT
  5
831
102
{ACAD_REACTORS
330
821
102
}
330
821
100
AcDbProxyObject
 90
      499
 91
      512
 93
      460
310
4310DBDB1BDC90DA185B99D9401104090240C333333333333E3BF0000000000000FB0108901411070040501508421405064090741402480A0354
 94
        0
1001
ACAD
1000
AcDbSavedByObjectVersion
1070
     0
1000
AcadProxyRoundTripData
1071
      505
1071
   851991
1070
     0
  0
ACAD_PROXY_OBJECT
  5
82A
102
{ACAD_REACTORS
330
821
102
}
330
821
100
AcDbProxyObject
 90
      499
 91
      512
 93
      508
310
42D0DBDB98D95C1D1D585B0010940D028333333333333E3BF0000000000000FB0107902409070040501000000000000111010841D405064090740C02480A0340
 94
        0
1001
ACAD
1000
AcDbSavedByObjectVersion
1070
     0
1000
AcadProxyRoundTripData
1071
      505
1071
   851991
1070
     0
  0
ACAD_PROXY_OBJECT
  5
82C
102
{ACAD_REACTORS
330
821
102
}
330
821
100
AcDbProxyObject
 90
      499
 91
      512
 93
      420
310
41111A5B4010B409028333333333333E3BF0000000000000FB010790141107004050150841D405064090741402480A02677FFFFFDB
 94
        0
1001
ACAD
1000
AcDbSavedByObjectVersion
1070
     0
1000
AcadProxyRoundTripData
1071
      505
1071
   851991
1070
     0
  0
ACAD_PROXY_OBJECT
  5
830
102
{ACAD_REACTORS
330
821
102
}
330
821
100
AcDbProxyObject
 90
      499
 91
      512
 93
      452
310
43119858D95C185D1D195C9B8010F409028333333333333E3BF0000000000000FB010790141107004050150841D405064090741402480A0350
 94
        0
1001
ACAD
1000
AcDbSavedByObjectVersion
1070
     0
1000
AcadProxyRoundTripData
1071
      505
1071
   851991
1070
     0
  0
ACAD_PROXY_OBJECT
  5
822
102
{ACAD_REACTORS
330
821
102
}
330
821
100
AcDbProxyObject
 90
      499
 91
      512
 93
      396
310
41519B185D00240901404333333333333E3BF0000000000000F9010740A41107004050150841D405064090741402480A1B55
 94
        0
1001
ACAD
1000
AcDbSavedByObjectVersion
1070
     0
1000
AcadProxyRoundTripData
1071
      505
1071
   851991
1070
     0
  0
ACAD_PROXY_OBJECT
  5
823
102
{ACAD_REACTORS
330
821
102
}
330
821
100
AcDbProxyObject
 90
      499
 91
      512
 93
      484
310
43919B185D15DA5D1A115919D95CC010140901404333333333333E3BF0000000000000F9010740901411070040501600405405064090741402480A1B50
 94
        0
1001
ACAD
1000
AcDbSavedByObjectVersion
1070
     0
1000
AcadProxyRoundTripData
1071
      505
1071
   851991
1070
     0
  0
ACAD_PROXY_OBJECT
  5
824
102
{ACAD_REACTORS
330
821
102
}
330
821
100
AcDbProxyObject
 90
      499
 91
      512
 93
      420
310
4211DBDD5C985D590010240902404333333333333E3BF0000000000000F9010740A411070040501641D405064090741402480A1B50
 94
        0
1001
ACAD
1000
AcDbSavedByObjectVersion
1070
     0
1000
AcadProxyRoundTripData
1071
      505
1071
   851991
1070
     0
  0
ACAD_PROXY_OBJECT
  5
825
102
{ACAD_REACTORS
330
821
102
}
330
821
100
AcDbProxyObject
 90
      499
 91
      512
 93
      508
310
4451DBDD5C985D5915DA5D1A115919D95CC010340902404333333333333E3BF0000000000000F9010740901411070040501600405405064090741402480A1B50
 94
        0
1001
ACAD
1000
AcDbSavedByObjectVersion
1070
     0
1000
AcadProxyRoundTripData
1071
      505
1071
   851991
1070
     0
  0
ACAD_PROXY_OBJECT
  5
82F
102
{ACAD_REACTORS
330
821
102
}
330
821
100
AcDbProxyObject
 90
      499
 91
      512
 93
      452
310
43131A5B995C185D1D195C9B8010E409028333333333333E3BF0000000000000FB010790141107004050750841D405064090741402483A0350
 94
        0
1001
ACAD
1000
AcDbSavedByObjectVersion
1070
     0
1000
AcadProxyRoundTripData
1071
      505
1071
   851991
1070
     0
  0
ACAD_PROXY_OBJECT
  5
82B
102
{ACAD_REACTORS
330
821
102
}
330
821
100
AcDbProxyObject
 90
      499
 91
      512
 93
      428
310
429499585B1A5CDD1A58C0108409028333333333333E3BF0000000000000FB01079019070040501508421405064090741402480A1B45
 94
        0
1001
ACAD
1000
AcDbSavedByObjectVersion
1070
     0
1000
AcadProxyRoundTripData
1071
      505
1071
   851991
1070
     0
  0
ACAD_PROXY_OBJECT
  5
82E
102
{ACAD_REACTORS
330
821
102
}
330
821
100
AcDbProxyObject
 90
      499
 91
      512
 93
      420
310
42151A1A58DAD95B8010D409028333333333333E3BF0000000000000FB010790141107004050150C41D405064090741402480A0352
 94
        0
1001
ACAD
1000
AcDbSavedByObjectVersion
1070
     0
1000
AcadProxyRoundTripData
1071
      505
1071
   851991
1070
     0
  0
XRECORD
  5
2C91
102
{ACAD_REACTORS
330
2C87
102
}
330
2C87
100
AcDbXrecord
 90
        0
  0
XRECORD
  5
2C95
102
{ACAD_REACTORS
330
2C87
102
}
330
2C87
100
AcDbXrecord
1000
DSTYLE
1002
{
1070
   179
 70
     2
1070
   277
 70
     6
1002
}
  0
XRECORD
  5
2C92
102
{ACAD_REACTORS
330
2C87
102
}
330
2C87
100
AcDbXrecord
  1
{472D1F85-08F4-40FF-8A32-FC4D8F4268D4}
  0
XRECORD
  5
2C8A
102
{ACAD_REACTORS
330
2C87
102
}
330
2C87
100
AcDbXrecord
  1

  0
XRECORD
  5
2C90
102
{ACAD_REACTORS
330
2C87
102
}
330
2C87
100
AcDbXrecord
 90
        0
  0
XRECORD
  5
2C8C
102
{ACAD_REACTORS
330
2C87
102
}
330
2C87
100
AcDbXrecord
340
61
  0
XRECORD
  5
2C8F
102
{ACAD_REACTORS
330
2C87
102
}
330
2C87
100
AcDbXrecord
 90
    10781
  0
XRECORD
  5
2C8D
102
{ACAD_REACTORS
330
2C87
102
}
330
2C87
100
AcDbXrecord
340
77
  0
XRECORD
  5
2C8E
102
{ACAD_REACTORS
330
2C87
102
}
330
2C87
100
AcDbXrecord
340
6
  0
XRECORD
  5
2C94
102
{ACAD_REACTORS
330
2C87
102
}
330
2C87
100
AcDbXrecord
 40
0.0
  0
XRECORD
  5
2C98
102
{ACAD_REACTORS
330
2C87
102
}
330
2C87
100
AcDbXrecord
340
0
  0
XRECORD
  5
2C9E
102
{ACAD_REACTORS
330
2C87
102
}
330
2C87
100
AcDbXrecord
 10
0.0
 20
0.0
 30
0.0
  0
XRECORD
  5
2C9A
102
{ACAD_REACTORS
330
2C87
102
}
330
2C87
100
AcDbXrecord
 10
0.0
 20
0.0
 30
0.0
  0
XRECORD
  5
2C9D
102
{ACAD_REACTORS
330
2C87
102
}
330
2C87
100
AcDbXrecord
 10
0.0
 20
0.0
 30
0.0
  0
XRECORD
  5
2C9B
102
{ACAD_REACTORS
330
2C87
102
}
330
2C87
100
AcDbXrecord
 10
0.0
 20
0.0
 30
0.0
  0
XRECORD
  5
2C9C
102
{ACAD_REACTORS
330
2C87
102
}
330
2C87
100
AcDbXrecord
 10
0.0
 20
0.0
 30
0.0
  0
XRECORD
  5
2C99
102
{ACAD_REACTORS
330
2C87
102
}
330
2C87
100
AcDbXrecord
 10
0.0
 20
0.0
 30
0.0
  0
XRECORD
  5
2C96
102
{ACAD_REACTORS
330
2C87
102
}
330
2C87
100
AcDbXrecord
340
0
  0
XRECORD
  5
2C97
102
{ACAD_REACTORS
330
2C87
102
}
330
2C87
100
AcDbXrecord
 70
     0
  0
XRECORD
  5
2C8B
102
{ACAD_REACTORS
330
2C87
102
}
330
2C87
100
AcDbXrecord
  1
Sekkei.ctb
  0
XRECORD
  5
2C88
102
{ACAD_REACTORS
330
2C87
102
}
330
2C87
100
AcDbXrecord
 90
        1
  0
XRECORD
  5
2C89
102
{ACAD_REACTORS
330
2C87
102
}
330
2C87
100
AcDbXrecord
 90
       70
  0
XRECORD
  5
2CA1
102
{ACAD_REACTORS
330
2C87
102
}
330
2C87
100
AcDbXrecord
340
0
  0
XRECORD
  5
2CA7
102
{ACAD_REACTORS
330
2C87
102
}
330
2C87
100
AcDbXrecord
 10
0.0
 20
0.0
 30
0.0
  0
XRECORD
  5
2CA3
102
{ACAD_REACTORS
330
2C87
102
}
330
2C87
100
AcDbXrecord
 10
0.0
 20
0.0
 30
0.0
  0
XRECORD
  5
2CA6
102
{ACAD_REACTORS
330
2C87
102
}
330
2C87
100
AcDbXrecord
 10
0.0
 20
0.0
 30
0.0
  0
XRECORD
  5
2CA4
102
{ACAD_REACTORS
330
2C87
102
}
330
2C87
100
AcDbXrecord
 10
0.0
 20
0.0
 30
0.0
  0
XRECORD
  5
2CA5
102
{ACAD_REACTORS
330
2C87
102
}
330
2C87
100
AcDbXrecord
 10
0.0
 20
0.0
 30
0.0
  0
XRECORD
  5
2CA2
102
{ACAD_REACTORS
330
2C87
102
}
330
2C87
100
AcDbXrecord
 10
0.0
 20
0.0
 30
0.0
  0
XRECORD
  5
2C9F
102
{ACAD_REACTORS
330
2C87
102
}
330
2C87
100
AcDbXrecord
340
0
  0
XRECORD
  5
2CA0
102
{ACAD_REACTORS
330
2C87
102
}
330
2C87
100
AcDbXrecord
 70
     0
  0
XRECORD
  5
2C93
102
{ACAD_REACTORS
330
2C87
102
}
330
2C87
100
AcDbXrecord
  1
{9D007AEB-2475-4074-8970-B2FD012ECA62}
  0
DICTIONARYVAR
  5
892
102
{ACAD_REACTORS
330
102
102
}
330
102
100
DictionaryVariables
280
     0
  1
1:1
  0
DICTIONARYVAR
  5
890
102
{ACAD_REACTORS
330
102
102
}
330
102
100
DictionaryVariables
280
     0
  1
STANDARD
  0
DICTIONARYVAR
  5
88F
102
{ACAD_REACTORS
330
102
102
}
330
102
100
DictionaryVariables
280
     0
  1
STANDARD
  0
DICTIONARYVAR
  5
103
102
{ACAD_REACTORS
330
102
102
}
330
102
100
DictionaryVariables
280
     0
  1
1
  0
DICTIONARYVAR
  5
1E7C
102
{ACAD_REACTORS
330
102
102
}
330
102
100
DictionaryVariables
280
     0
  1
0
  0
DICTIONARYVAR
  5
893
102
{ACAD_REACTORS
330
102
102
}
330
102
100
DictionaryVariables
280
     0
  1
0
  0
DICTIONARYVAR
  5
891
102
{ACAD_REACTORS
330
102
102
}
330
102
100
DictionaryVariables
280
     0
  1
0
  0
DICTIONARYVAR
  5
549
102
{ACAD_REACTORS
330
102
102
}
330
102
100
DictionaryVariables
280
     0
  1
96
  0
DICTIONARY
  5
812
330
811
100
AcDbDictionary
280
     1
  3
ACAD_XREC_ROUNDTRIP
360
2C65
  3
BUMPTILE
360
814
  3
DIFFUSETILE
360
813
  3
OPACITYTILE
360
817
  3
REFLECTIONTILE
360
816
  3
REFRACTIONTILE
360
818
  3
SPECULARTILE
360
815
  0
DICTIONARY
  5
80A
330
809
100
AcDbDictionary
280
     1
  3
ACAD_XREC_ROUNDTRIP
360
2C64
  3
BUMPTILE
360
80C
  3
DIFFUSETILE
360
80B
  3
OPACITYTILE
360
80F
  3
REFLECTIONTILE
360
80E
  3
REFRACTIONTILE
360
810
  3
SPECULARTILE
360
80D
  0
DICTIONARY
  5
81A
330
819
100
AcDbDictionary
280
     1
  3
ACAD_XREC_ROUNDTRIP
360
2C66
  3
BUMPTILE
360
81C
  3
DIFFUSETILE
360
81B
  3
OPACITYTILE
360
81F
  3
REFLECTIONTILE
360
81E
  3
REFRACTIONTILE
360
820
  3
SPECULARTILE
360
81D
  0
DICTIONARY
  5
88C
330
834
100
AcDbDictionary
280
     1
  3
ACAD_ROUNDTRIP_2008_TABLES
360
2C5C
  3
ACAD_XREC_ROUNDTRIP
360
2C67
  0
XRECORD
  5
2C65
102
{ACAD_REACTORS
330
812
102
}
330
812
100
AcDbXrecord
102
MATERIAL
148
0.0
149
0.0
149
0.0
 93
        0
 94
      127
282
     0
 72
     0
 77
     0
171
     0
175
     0
179
     0
273
     0
  0
XRECORD
  5
814
102
{ACAD_REACTORS
330
812
102
}
330
812
100
AcDbXrecord
270
     1
271
     1
  0
XRECORD
  5
813
102
{ACAD_REACTORS
330
812
102
}
330
812
100
AcDbXrecord
270
     1
271
     1
  0
XRECORD
  5
817
102
{ACAD_REACTORS
330
812
102
}
330
812
100
AcDbXrecord
270
     1
271
     1
  0
XRECORD
  5
816
102
{ACAD_REACTORS
330
812
102
}
330
812
100
AcDbXrecord
270
     1
271
     1
  0
XRECORD
  5
818
102
{ACAD_REACTORS
330
812
102
}
330
812
100
AcDbXrecord
270
     1
271
     1
  0
XRECORD
  5
815
102
{ACAD_REACTORS
330
812
102
}
330
812
100
AcDbXrecord
270
     1
271
     1
  0
XRECORD
  5
2C64
102
{ACAD_REACTORS
330
80A
102
}
330
80A
100
AcDbXrecord
102
MATERIAL
148
0.0
149
0.0
149
0.0
 93
        0
 94
      127
282
     0
 72
     0
 77
     0
171
     0
175
     0
179
     0
273
     0
  0
XRECORD
  5
80C
102
{ACAD_REACTORS
330
80A
102
}
330
80A
100
AcDbXrecord
270
     1
271
     1
  0
XRECORD
  5
80B
102
{ACAD_REACTORS
330
80A
102
}
330
80A
100
AcDbXrecord
270
     1
271
     1
  0
XRECORD
  5
80F
102
{ACAD_REACTORS
330
80A
102
}
330
80A
100
AcDbXrecord
270
     1
271
     1
  0
XRECORD
  5
80E
102
{ACAD_REACTORS
330
80A
102
}
330
80A
100
AcDbXrecord
270
     1
271
     1
  0
XRECORD
  5
810
102
{ACAD_REACTORS
330
80A
102
}
330
80A
100
AcDbXrecord
270
     1
271
     1
  0
XRECORD
  5
80D
102
{ACAD_REACTORS
330
80A
102
}
330
80A
100
AcDbXrecord
270
     1
271
     1
  0
XRECORD
  5
2C66
102
{ACAD_REACTORS
330
81A
102
}
330
81A
100
AcDbXrecord
102
MATERIAL
148
0.0
149
0.0
149
0.0
 93
        0
 94
      127
282
     0
 72
     0
 77
     0
171
     0
175
     0
179
     0
273
     0
  0
XRECORD
  5
81C
102
{ACAD_REACTORS
330
81A
102
}
330
81A
100
AcDbXrecord
270
     1
271
     1
  0
XRECORD
  5
81B
102
{ACAD_REACTORS
330
81A
102
}
330
81A
100
AcDbXrecord
270
     1
271
     1
  0
XRECORD
  5
81F
102
{ACAD_REACTORS
330
81A
102
}
330
81A
100
AcDbXrecord
270
     1
271
     1
  0
XRECORD
  5
81E
102
{ACAD_REACTORS
330
81A
102
}
330
81A
100
AcDbXrecord
270
     1
271
     1
  0
XRECORD
  5
820
102
{ACAD_REACTORS
330
81A
102
}
330
81A
100
AcDbXrecord
270
     1
271
     1
  0
XRECORD
  5
81D
102
{ACAD_REACTORS
330
81A
102
}
330
81A
100
AcDbXrecord
270
     1
271
     1
  0
ACAD_PROXY_OBJECT
  5
2C5C
102
{ACAD_REACTORS
330
88C
102
}
330
88C
100
AcDbProxyObject
 90
      499
 91
      512
 93
     1044
310
40D054060020000020000003200101A000080002A5058000000C100000000000000340FE901405075F5449544C450041501A8000000C800406800020000A9416000000304000AD7A3703D0AC73FA409014217D2115051115480105406A0000003200101A000080002A5028000000C10002B5E8DC0F42B1CFE903409065F444
310
15441003
340
16
340
16
340
16
 94
        0
1001
ACAD
1000
AcadProxyRoundTripData
1071
      510
1071
   851991
1070
     0
  0
XRECORD
  5
2C67
102
{ACAD_REACTORS
330
88C
102
}
330
88C
100
AcDbXrecord
102
ACAD_ROUNDTRIP_PRE2007_TABLESTYLE
 90
      512
 91
        0
  1

 92
      512
 93
        0
  2

 94
      512
 95
        0
  3

  0
ENDSEC
  0
EOF
