  0
SECTION
  2
HEADER
  9
$ACADVER
  1
AC1014
  9
$ACADMAINTVER
 70
     9
  9
$DWGCODEPAGE
  3
ANSI_932
  9
$INSBASE
 10
0.0
 20
0.0
 30
0.0
  9
$EXTMIN
 10
125.8079721591941
 20
304.2456345049858
 30
0.0
  9
$EXTMAX
 10
1517.57752768158
 20
906.2120975477599
 30
0.0
  9
$LIMMIN
 10
0.0
 20
0.0
  9
$LIMMAX
 10
297.0
 20
210.0
  9
$ORTHOMODE
 70
     0
  9
$REGENMODE
 70
     1
  9
$FILLMODE
 70
     1
  9
$QTEXTMODE
 70
     0
  9
$MIRRTEXT
 70
     0
  9
$DRAGMODE
 70
     2
  9
$LTSCALE
 40
4.0
  9
$OSMODE
 70
    37
  9
$ATTMODE
 70
     1
  9
$TEXTSIZE
 40
2.0
  9
$TRACEWID
 40
1.0
  9
$TEXTSTYLE
  7
STANDARD
  9
$CLAYER
  8
0
  9
$CELTYPE
  6
BYLAYER
  9
$CECOLOR
 62
   256
  9
$CELTSCALE
 40
1.0
  9
$DELOBJ
 70
     1
  9
$DISPSILH
 70
     0
  9
$DIMSCALE
 40
4.0
  9
$DIMASZ
 40
1.8
  9
$DIMEXO
 40
0.625
  9
$DIMDLI
 40
3.75
  9
$DIMRND
 40
0.0
  9
$DIMDLE
 40
0.0
  9
$DIMEXE
 40
0.8
  9
$DIMTP
 40
0.0
  9
$DIMTM
 40
0.0
  9
$DIMTXT
 40
1.8
  9
$DIMCEN
 40
2.5
  9
$DIMTSZ
 40
0.0
  9
$DIMTOL
 70
     0
  9
$DIMLIM
 70
     0
  9
$DIMTIH
 70
     0
  9
$DIMTOH
 70
     0
  9
$DIMSE1
 70
     0
  9
$DIMSE2
 70
     0
  9
$DIMTAD
 70
     1
  9
$DIMZIN
 70
     8
  9
$DIMBLK
  1

  9
$DIMASO
 70
     1
  9
$DIMSHO
 70
     1
  9
$DIMPOST
  1

  9
$DIMAPOST
  1

  9
$DIMALT
 70
     0
  9
$DIMALTD
 70
     4
  9
$DIMALTF
 40
0.0394
  9
$DIMLFAC
 40
1.0
  9
$DIMTOFL
 70
     1
  9
$DIMTVP
 40
0.0
  9
$DIMTIX
 70
     0
  9
$DIMSOXD
 70
     0
  9
$DIMSAH
 70
     0
  9
$DIMBLK1
  1

  9
$DIMBLK2
  1

  9
$DIMSTYLE
  2
STANDARD
  9
$DIMCLRD
 70
     0
  9
$DIMCLRE
 70
     0
  9
$DIMCLRT
 70
     0
  9
$DIMTFAC
 40
1.0
  9
$DIMGAP
 40
0.75
  9
$DIMJUST
 70
     0
  9
$DIMSD1
 70
     0
  9
$DIMSD2
 70
     0
  9
$DIMTOLJ
 70
     1
  9
$DIMTZIN
 70
     0
  9
$DIMALTZ
 70
     0
  9
$DIMALTTZ
 70
     0
  9
$DIMFIT
 70
     3
  9
$DIMUPT
 70
     0
  9
$DIMUNIT
 70
     8
  9
$DIMDEC
 70
     2
  9
$DIMTDEC
 70
     2
  9
$DIMALTU
 70
     8
  9
$DIMALTTD
 70
     4
  9
$DIMTXSTY
  7
STANDARD
  9
$DIMAUNIT
 70
     0
  9
$LUNITS
 70
     2
  9
$LUPREC
 70
     3
  9
$SKETCHINC
 40
1.0
  9
$FILLETRAD
 40
10.0
  9
$AUNITS
 70
     0
  9
$AUPREC
 70
     2
  9
$MENU
  1
.
  9
$ELEVATION
 40
0.0
  9
$PELEVATION
 40
0.0
  9
$THICKNESS
 40
0.0
  9
$LIMCHECK
 70
     0
  9
$BLIPMODE
 70
     0
  9
$CHAMFERA
 40
0.0
  9
$CHAMFERB
 40
0.0
  9
$CHAMFERC
 40
20.0
  9
$CHAMFERD
 40
0.0
  9
$SKPOLY
 70
     0
  9
$TDCREATE
 40
2454889.364024514
  9
$TDUPDATE
 40
2454909.824105208
  9
$TDINDWG
 40
0.1951515741
  9
$TDUSRTIMER
 40
0.1951515741
  9
$USRTIMER
 70
     1
  9
$ANGBASE
 50
0.0
  9
$ANGDIR
 70
     0
  9
$PDMODE
 70
     0
  9
$PDSIZE
 40
-10.0
  9
$PLINEWID
 40
0.0
  9
$COORDS
 70
     1
  9
$SPLFRAME
 70
     0
  9
$SPLINETYPE
 70
     6
  9
$SPLINESEGS
 70
     8
  9
$ATTDIA
 70
     0
  9
$ATTREQ
 70
     1
  9
$HANDLING
 70
 22529
  9
$HANDSEED
  5
4B3C
  9
$SURFTAB1
 70
     6
  9
$SURFTAB2
 70
     6
  9
$SURFTYPE
 70
     6
  9
$SURFU
 70
     6
  9
$SURFV
 70
     6
  9
$UCSNAME
  2

  9
$UCSORG
 10
0.0
 20
0.0
 30
0.0
  9
$UCSXDIR
 10
1.0
 20
0.0
 30
0.0
  9
$UCSYDIR
 10
0.0
 20
1.0
 30
0.0
  9
$PUCSNAME
  2

  9
$PUCSORG
 10
0.0
 20
0.0
 30
0.0
  9
$PUCSXDIR
 10
1.0
 20
0.0
 30
0.0
  9
$PUCSYDIR
 10
0.0
 20
1.0
 30
0.0
  9
$USERI1
 70
     0
  9
$USERI2
 70
     0
  9
$USERI3
 70
     0
  9
$USERI4
 70
     0
  9
$USERI5
 70
     0
  9
$USERR1
 40
0.0
  9
$USERR2
 40
0.0
  9
$USERR3
 40
0.0
  9
$USERR4
 40
0.0
  9
$USERR5
 40
0.0
  9
$WORLDVIEW
 70
     1
  9
$SHADEDGE
 70
     3
  9
$SHADEDIF
 70
    70
  9
$TILEMODE
 70
     1
  9
$MAXACTVP
 70
    48
  9
$PINSBASE
 10
0.0
 20
0.0
 30
0.0
  9
$PLIMCHECK
 70
     0
  9
$PEXTMIN
 10
0.0
 20
0.0
 30
0.0
  9
$PEXTMAX
 10
0.0
 20
0.0
 30
0.0
  9
$PLIMMIN
 10
0.0
 20
0.0
  9
$PLIMMAX
 10
12.0
 20
9.0
  9
$UNITMODE
 70
     0
  9
$VISRETAIN
 70
     1
  9
$PLINEGEN
 70
     0
  9
$PSLTSCALE
 70
     1
  9
$TREEDEPTH
 70
  3020
  9
$PICKSTYLE
 70
     1
  9
$CMLSTYLE
  2
STANDARD
  9
$CMLJUST
 70
     0
  9
$CMLSCALE
 40
1.0
  9
$PROXYGRAPHICS
 70
     1
  9
$MEASUREMENT
 70
     0
  0
ENDSEC
  0
SECTION
  2
CLASSES
  0
CLASS
  1
DICTIONARYVAR
  2
AcDbDictionaryVar
  3
AutoCAD 2000
 90
        0
280
     0
281
     0
  0
CLASS
  1
ACDBDICTIONARYWDFLT
  2
AcDbDictionaryWithDefault
  3
AutoCAD 2000
 90
        0
280
     0
281
     0
  0
CLASS
  1
ACDBPLACEHOLDER
  2
AcDbPlaceHolder
  3
AutoCAD 2000
 90
        0
280
     0
281
     0
  0
CLASS
  1
LAYOUT
  2
AcDbLayout
  3
AutoCAD 2000
 90
        0
280
     0
281
     0
  0
CLASS
  1
MATERIAL
  2
AcDbMaterial
  3
ObjectDBX Classes
 90
     1153
280
     0
281
     0
  0
CLASS
  1
VISUALSTYLE
  2
AcDbVisualStyle
  3
ObjectDBX Classes
 90
     4095
280
     0
281
     0
  0
CLASS
  1
TABLESTYLE
  2
AcDbTableStyle
  3
ObjectDBX Classes
 90
     4095
280
     0
281
     0
  0
CLASS
  1
SCALE
  2
AcDbScale
  3
ObjectDBX Classes
 90
     1153
280
     0
281
     0
  0
CLASS
  1
MLEADERSTYLE
  2
AcDbMLeaderStyle
  3
ACDB_MLEADERSTYLE_CLASS
 90
     4095
280
     0
281
     0
  0
CLASS
  1
PLOTSETTINGS
  2
AcDbPlotSettings
  3
AutoCAD 2000
 90
        0
280
     0
281
     0
  0
CLASS
  1
CELLSTYLEMAP
  2
AcDbCellStyleMap
  3
ObjectDBX Classes
 90
     1152
280
     0
281
     0
  0
CLASS
  1
SORTENTSTABLE
  2
AcDbSortentsTable
  3
AutoCAD 2000
 90
        0
280
     0
281
     0
  0
CLASS
  1
ACAD_PROXY_OBJECT_WRAPPER
  2
AcDbProxyObjectWrapper
  3
AutoCAD 2000
 90
        0
280
     0
281
     0
  0
CLASS
  1
LONG_TRANSACTION
  2
AcDbLongTransaction
  3
AutoCAD 2000
 90
        0
280
     0
281
     0
  0
CLASS
  1
LWPOLYLINE
  2
AcDbPolyline
  3
AutoCAD 2000
 90
        0
280
     0
281
     1
  0
CLASS
  1
HATCH
  2
AcDbHatch
  3
AutoCAD 2000
 90
        0
280
     0
281
     1
  0
CLASS
  1
XRECORD
  2
AcDbXrecord
  3
AutoCAD 2000
 90
        0
280
     0
281
     0
  0
ENDSEC
  0
SECTION
  2
TABLES
  0
TABLE
  2
VPORT
  5
6E
102
{ACAD_XDICTIONARY
360
1E6F
102
}
330
0
100
AcDbSymbolTable
 70
     2
  0
VPORT
  5
4B17
330
6E
100
AcDbSymbolTableRecord
100
AcDbViewportTableRecord
  2
*ACTIVE
 70
     0
 10
0.0
 20
0.0
 11
1.0
 21
1.0
 12
882.3460205266679
 22
588.1681033908714
 13
0.0
 23
0.0
 14
10.0
 24
10.0
 15
10.0
 25
10.0
 16
0.0
 26
0.0
 36
1.0
 17
0.0
 27
0.0
 37
0.0
 40
953.3832417754476
 41
1.593429158110883
 42
50.0
 43
0.0
 44
0.0
 50
0.0
 51
0.0
 71
     0
 72
   100
 73
     1
 74
     3
 75
     0
 76
     0
 77
     0
 78
     0
  0
ENDTAB
  0
TABLE
  2
LTYPE
  5
69
330
0
100
AcDbSymbolTable
 70
     8
  0
LTYPE
  5
6A
330
69
100
AcDbSymbolTableRecord
100
AcDbLinetypeTableRecord
  2
BYBLOCK
 70
     0
  3

 72
    65
 73
     0
 40
0.0
  0
LTYPE
  5
6B
330
69
100
AcDbSymbolTableRecord
100
AcDbLinetypeTableRecord
  2
BYLAYER
 70
     0
  3

 72
    65
 73
     0
 40
0.0
  0
LTYPE
  5
8
330
69
100
AcDbSymbolTableRecord
100
AcDbLinetypeTableRecord
  2
CONTINUOUS
 70
     0
  3
Solid line
 72
    65
 73
     0
 40
0.0
  0
LTYPE
  5
27C
330
69
100
AcDbSymbolTableRecord
100
AcDbLinetypeTableRecord
  2
SEKKEI_A2_
 70
     0
  3
center(A2)  ____ _ ____ _ ____ _ ____ _ ____ _ 
 72
    65
 73
     4
 40
14.28749999999999
 49
9.525
 74
     0
 49
-1.587499999999999
 74
     0
 49
1.587499999999999
 74
     0
 49
-1.587499999999999
 74
     0
  0
LTYPE
  5
2B4
330
69
100
AcDbSymbolTableRecord
100
AcDbLinetypeTableRecord
  2
HIDDEN2
 70
     0
  3
Hidden (.5x) _ _ _ _ _ _ _ _ _ _ _ _ _ _ _ _ _
 72
    65
 73
     2
 40
4.762499999999999
 49
3.174999999999999
 74
     0
 49
-1.587499999999999
 74
     0
  0
LTYPE
  5
48F
330
69
100
AcDbSymbolTableRecord
100
AcDbLinetypeTableRecord
  2
SEKKEI_H
 70
     0
  3
Hidden-S _ _ _ _ _ _ _ _ _ _ _ _ _ _ _ _ _
 72
    65
 73
     2
 40
2.381249999999999
 49
1.587499999999999
 74
     0
 49
-0.79375
 74
     0
  0
LTYPE
  5
54A
330
69
100
AcDbSymbolTableRecord
100
AcDbLinetypeTableRecord
  2
CENTERX2
 70
     0
  3
Center (2x) ________  __  ________  __  _____
 72
    65
 73
     4
 40
4.0
 49
2.5
 74
     0
 49
-0.5
 74
     0
 49
0.5
 74
     0
 49
-0.5
 74
     0
  0
ENDTAB
  0
TABLE
  2
LAYER
  5
66
102
{ACAD_XDICTIONARY
360
86B
102
}
330
0
100
AcDbSymbolTable
 70
    10
  0
LAYER
  5
5E
102
{ACAD_XDICTIONARY
360
158C
102
}
330
66
100
AcDbSymbolTableRecord
100
AcDbLayerTableRecord
  2
0
 70
     0
 62
     7
  6
CONTINUOUS
  0
LAYER
  5
3E
102
{ACAD_XDICTIONARY
360
158E
102
}
330
66
100
AcDbSymbolTableRecord
100
AcDbLayerTableRecord
  2
CENTER
 70
     0
 62
     3
  6
SEKKEI_A2_
  0
LAYER
  5
2B5
102
{ACAD_XDICTIONARY
360
1594
102
}
330
66
100
AcDbSymbolTableRecord
100
AcDbLayerTableRecord
  2
HIDS
 70
     0
 62
     1
  6
HIDDEN2
  0
LAYER
  5
2BA
102
{ACAD_XDICTIONARY
360
1596
102
}
330
66
100
AcDbSymbolTableRecord
100
AcDbLayerTableRecord
  2
HOJO
 70
     0
 62
     4
  6
CONTINUOUS
  0
LAYER
  5
3FA
102
{ACAD_XDICTIONARY
360
159A
102
}
330
66
100
AcDbSymbolTableRecord
100
AcDbLayerTableRecord
  2
TITLE
 70
     0
 62
     4
  6
CONTINUOUS
  0
ENDTAB
  0
TABLE
  2
STYLE
  5
67
330
0
100
AcDbSymbolTable
 70
     3
  0
STYLE
  5
16
330
67
100
AcDbSymbolTableRecord
100
AcDbTextStyleTableRecord
  2
STANDARD
 70
     0
 40
0.0
 41
1.0
 50
0.0
 71
     0
 42
2.0
  3
simplex.shx
  4
extfont.shx
  0
ENDTAB
  0
TABLE
  2
VIEW
  5
6C
330
0
100
AcDbSymbolTable
 70
     0
  0
ENDTAB
  0
TABLE
  2
UCS
  5
6D
330
0
100
AcDbSymbolTable
 70
     0
  0
ENDTAB
  0
TABLE
  2
APPID
  5
70
330
0
100
AcDbSymbolTable
 70
     7
  0
APPID
  5
71
330
70
100
AcDbSymbolTableRecord
100
AcDbRegAppTableRecord
  2
ACAD
 70
     0
  0
APPID
  5
859
330
70
100
AcDbSymbolTableRecord
100
AcDbRegAppTableRecord
  2
ACAD_MLEADERVER
 70
     0
  0
APPID
  5
866
330
70
100
AcDbSymbolTableRecord
100
AcDbRegAppTableRecord
  2
ACAD_PSEXT
 70
     0
  0
APPID
  5
15AD
330
70
100
AcDbSymbolTableRecord
100
AcDbRegAppTableRecord
  2
ACAD_EXEMPT_FROM_CAD_STANDARDS
 70
     0
  0
APPID
  5
15D5
330
70
100
AcDbSymbolTableRecord
100
AcDbRegAppTableRecord
  2
ACAD_DSTYLE_DIMJAG
 70
     0
  0
APPID
  5
15D6
330
70
100
AcDbSymbolTableRecord
100
AcDbRegAppTableRecord
  2
ACAD_DSTYLE_DIMTALN
 70
     0
  0
APPID
  5
16FC
330
70
100
AcDbSymbolTableRecord
100
AcDbRegAppTableRecord
  2
ACAD_DSTYLE_DIMRADIAL_EXTENSION
 70
     0
  0
ENDTAB
  0
TABLE
  2
DIMSTYLE
  5
72
330
0
100
AcDbSymbolTable
 70
     1
  0
DIMSTYLE
105
73
102
{ACAD_REACTORS
330
1743
330
18FD
102
}
330
72
100
AcDbSymbolTableRecord
100
AcDbDimStyleTableRecord
  2
STANDARD
 70
     0
  3

  4

  5

  6

  7

 40
4.0
 41
1.8
 42
0.625
 43
3.75
 44
0.8
 45
0.0
 46
0.0
 47
0.0
 48
0.0
140
1.8
141
2.5
142
0.0
143
0.0394
144
1.0
145
0.0
146
1.0
147
0.75
 71
     0
 72
     0
 73
     0
 74
     0
 75
     0
 76
     0
 77
     1
 78
     8
170
     0
171
     4
172
     1
173
     0
174
     0
175
     0
176
     0
177
     0
178
     0
270
     8
271
     2
272
     2
273
     8
274
     4
340
16
275
     0
280
     0
281
     0
282
     0
283
     1
284
     0
285
     0
286
     0
287
     3
288
     0
1001
ACAD_DSTYLE_DIMJAG
1070
   388
1040
1.5
1001
ACAD_DSTYLE_DIMTALN
1070
   392
1070
     0
  0
ENDTAB
  0
TABLE
  2
BLOCK_RECORD
  5
1
330
0
100
AcDbSymbolTable
 70
    48
  0
BLOCK_RECORD
  5
2
102
{ACAD_XDICTIONARY
360
2D5C
102
}
330
1
100
AcDbSymbolTableRecord
100
AcDbBlockTableRecord
  2
*MODEL_SPACE
  0
BLOCK_RECORD
  5
4B12
102
{ACAD_XDICTIONARY
360
4B3A
102
}
330
1
100
AcDbSymbolTableRecord
100
AcDbBlockTableRecord
  2
*PAPER_SPACE
  0
ENDTAB
  0
ENDSEC
  0
SECTION
  2
BLOCKS
  0
BLOCK
  5
5D
330
2
100
AcDbEntity
  8
0
100
AcDbBlockBegin
  2
*MODEL_SPACE
 70
     0
 10
0.0
 20
0.0
 30
0.0
  3
*MODEL_SPACE
  1

  0
ENDBLK
  5
5F
330
2
100
AcDbEntity
  8
0
100
AcDbBlockEnd
  0
BLOCK
  5
4B14
330
4B12
100
AcDbEntity
 67
     1
  8
0
100
AcDbBlockBegin
  2
*PAPER_SPACE
 70
     0
 10
0.0
 20
0.0
 30
0.0
  3
*PAPER_SPACE
  1

  0
ENDBLK
  5
4B15
330
4B12
100
AcDbEntity
 67
     1
  8
0
100
AcDbBlockEnd
  0
ENDSEC
  0
SECTION
  2
ENTITIES
  0
LINE
  5
A65
330
2
100
AcDbEntity
  8
0
100
AcDbLine
 10
1053.559171748526
 20
469.2456345049879
 30
0.0
 11
1053.559171748526
 21
349.2456345049861
 31
0.0
  0
LINE
  5
B2D
330
2
100
AcDbEntity
  8
0
100
AcDbLine
 10
230.3079721591984
 20
469.245634504988
 30
0.0
 11
230.3079721591984
 21
349.2456345049861
 31
0.0
  0
ARC
  5
F42
330
2
100
AcDbEntity
  8
0
100
AcDbCircle
 10
951.5573282387778
 20
362.525634504982
 30
0.0
 40
2.720000000003957
100
AcDbArc
 50
307.5189678668038
 51
90.0
  0
LINE
  5
F43
330
2
100
AcDbEntity
  8
0
100
AcDbLine
 10
944.9174009987675
 20
365.2456345049863
 30
0.0
 11
951.5573282387778
 21
365.2456345049863
 31
0.0
  0
LINE
  5
F44
330
2
100
AcDbEntity
  8
0
100
AcDbLine
 10
946.4374009987698
 20
357.2456345049745
 30
0.0
 11
948.8373282387732
 21
357.245634504974
 31
0.0
  0
LINE
  5
F45
330
2
100
AcDbEntity
  8
0
100
AcDbLine
 10
946.4374009987698
 20
358.4456345049761
 30
0.0
 11
946.4374009987698
 21
357.2456345049745
 31
0.0
  0
LINE
  5
F46
330
2
100
AcDbEntity
  8
0
100
AcDbLine
 10
944.3974022400945
 20
358.4456345049766
 30
0.0
 11
946.4374009987698
 21
358.4456345049761
 31
0.0
  0
LINE
  5
F47
330
2
100
AcDbEntity
  8
0
100
AcDbLine
 10
944.3974022400945
 20
358.4456345049766
 30
0.0
 11
943.7974022400942
 21
357.2456345049745
 31
0.0
  0
LINE
  5
F48
330
2
100
AcDbEntity
  8
0
100
AcDbLine
 10
940.9174009987621
 20
357.2456345049749
 30
0.0
 11
943.7974022400942
 21
357.2456345049745
 31
0.0
  0
LINE
  5
F49
330
2
100
AcDbEntity
  8
0
100
AcDbLine
 10
945.6774022400971
 20
361.0056345049792
 30
0.0
 11
946.4374009987698
 21
361.0056345049797
 31
0.0
  0
LINE
  5
F4A
330
2
100
AcDbEntity
  8
0
100
AcDbLine
 10
944.9174009987675
 20
365.2456345049863
 30
0.0
 11
940.9174009987621
 21
357.2456345049749
 31
0.0
  0
LINE
  5
F4B
330
2
100
AcDbEntity
  8
0
100
AcDbLine
 10
946.4374009987698
 20
362.5256320223257
 30
0.0
 11
945.6774022400971
 21
361.0056345049792
 31
0.0
  0
LINE
  5
F4C
330
2
100
AcDbEntity
  8
0
100
AcDbLine
 10
946.4374009987698
 20
362.5256320223257
 30
0.0
 11
946.4374009987698
 21
361.0056345049797
 31
0.0
  0
ARC
  5
F4D
330
2
100
AcDbEntity
  8
0
100
AcDbCircle
 10
951.3874009987778
 20
362.3556345049819
 30
0.0
 40
0.1700000000002474
100
AcDbArc
 50
270.0
 51
90.0
  0
LINE
  5
F4E
330
2
100
AcDbEntity
  8
0
100
AcDbLine
 10
949.1774009987732
 20
362.1856345049814
 30
0.0
 11
951.3874009987778
 21
362.1856345049814
 31
0.0
  0
LINE
  5
F4F
330
2
100
AcDbEntity
  8
0
100
AcDbLine
 10
948.8373282387732
 20
362.5256345049824
 30
0.0
 11
951.3874009987759
 21
362.5256345049824
 31
0.0
  0
LINE
  5
F50
330
2
100
AcDbEntity
  8
0
100
AcDbLine
 10
953.2138736184371
 20
360.3682617033669
 30
0.0
 11
955.2009424982918
 21
357.2456345049749
 31
0.0
  0
LINE
  5
F51
330
2
100
AcDbEntity
  8
0
100
AcDbLine
 10
952.3209412569606
 20
357.2456345049745
 30
0.0
 11
955.2009424982918
 21
357.2456345049749
 31
0.0
  0
LINE
  5
F52
330
2
100
AcDbEntity
  8
0
100
AcDbLine
 10
948.8373282387732
 20
362.5256345049824
 30
0.0
 11
948.8373282387732
 21
357.245634504974
 31
0.0
  0
LINE
  5
F53
330
2
100
AcDbEntity
  8
0
100
AcDbLine
 10
949.1774009987732
 20
362.1856345049814
 30
0.0
 11
952.3209412569606
 21
357.2456345049745
 31
0.0
  0
LINE
  5
F55
330
2
100
AcDbEntity
  8
0
100
AcDbLine
 10
1039.559171748527
 20
349.2456345049861
 30
0.0
 11
1053.559171748527
 21
349.2456345049861
 31
0.0
  0
LINE
  5
F56
330
2
100
AcDbEntity
  8
0
100
AcDbLine
 10
1037.559171748527
 20
350.7456345049865
 30
0.0
 11
1037.559171748527
 21
467.7456345049857
 31
0.0
  0
LINE
  5
F57
330
2
100
AcDbEntity
  8
0
100
AcDbLine
 10
1024.059171748527
 20
378.2456345049829
 30
0.0
 11
1024.059171748527
 21
403.2456345049858
 31
0.0
  0
LINE
  5
F58
330
2
100
AcDbEntity
  8
0
100
AcDbLine
 10
1024.059171748527
 20
415.2456345049863
 30
0.0
 11
1024.059171748527
 21
440.2456345049893
 31
0.0
  0
ARC
  5
F59
330
2
100
AcDbEntity
  8
0
100
AcDbCircle
 10
1021.059171748527
 20
403.2456345049858
 30
0.0
 40
3.0
100
AcDbArc
 50
0.0
 51
90.0
  0
ARC
  5
F5A
330
2
100
AcDbEntity
  8
0
100
AcDbCircle
 10
1021.059171748527
 20
415.2456345049863
 30
0.0
 40
3.0
100
AcDbArc
 50
270.0
 51
0.0
  0
ARC
  5
F5B
330
2
100
AcDbEntity
  8
0
100
AcDbCircle
 10
1029.559171748527
 20
451.24563450499
 30
0.0
 40
8.0
100
AcDbArc
 50
270.0
 51
0.0
  0
ARC
  5
F5C
330
2
100
AcDbEntity
  8
0
100
AcDbCircle
 10
1034.559171748526
 20
403.2456345049858
 30
0.0
 40
3.0
100
AcDbArc
 50
0.0
 51
90.0
  0
ARC
  5
F5D
330
2
100
AcDbEntity
  8
0
100
AcDbCircle
 10
1034.559171748527
 20
358.1703737272034
 30
0.0
 40
3.0
100
AcDbArc
 50
0.0
 51
100.0000000000051
  0
ARC
  5
F5E
330
2
100
AcDbEntity
  8
0
100
AcDbCircle
 10
1034.559171748527
 20
460.3208952827688
 30
0.0
 40
3.0
100
AcDbArc
 50
259.9999999999948
 51
0.0
  0
ARC
  5
F5F
330
2
100
AcDbEntity
  8
0
100
AcDbCircle
 10
1039.559171748527
 20
351.2456345049861
 30
0.0
 40
2.0
100
AcDbArc
 50
180.0
 51
270.0
  0
ARC
  5
F60
330
2
100
AcDbEntity
  8
0
100
AcDbCircle
 10
1039.559171748527
 20
467.2456345049861
 30
0.0
 40
2.0
100
AcDbArc
 50
90.0
 51
180.0
  0
LINE
  5
F61
330
2
100
AcDbEntity
  8
0
100
AcDbLine
 10
1039.559171748527
 20
469.2456345049861
 30
0.0
 11
1053.559171748527
 21
469.2456345049861
 31
0.0
  0
LINE
  5
F62
330
2
100
AcDbEntity
  8
CENTER
100
AcDbLine
 10
890.2616970654719
 20
359.7481598219278
 30
0.0
 11
906.8616970654714
 21
359.7481598219278
 31
0.0
  0
LINE
  5
F63
330
2
100
AcDbEntity
  8
CENTER
100
AcDbLine
 10
898.5616970654715
 20
368.0481598219278
 30
0.0
 11
898.5616970654715
 21
351.4481598219278
 31
0.0
  0
LINE
  5
F64
330
2
100
AcDbEntity
  8
0
100
AcDbLine
 10
1034.038227215526
 20
457.366472023732
 30
0.0
 11
1009.350637091434
 21
461.7195602512809
 31
0.0
  0
LINE
  5
F65
330
2
100
AcDbEntity
  8
0
100
AcDbLine
 10
1034.038227215526
 20
361.1247969862402
 30
0.0
 11
1009.350637091434
 21
356.7717087586913
 31
0.0
  0
LINE
  5
F66
330
2
100
AcDbEntity
  8
0
100
AcDbLine
 10
1011.05917174853
 20
412.2456345049861
 30
0.0
 11
1034.559171748526
 21
412.2456345049863
 31
0.0
  0
ARC
  5
F67
330
2
100
AcDbEntity
  8
0
100
AcDbCircle
 10
1034.559171748526
 20
415.2456345049863
 30
0.0
 40
3.0
100
AcDbArc
 50
270.0
 51
0.0
  0
LINE
  5
F68
330
2
100
AcDbEntity
  8
0
100
AcDbLine
 10
1011.05917174853
 20
406.2456345049858
 30
0.0
 11
1034.559171748526
 21
406.2456345049858
 31
0.0
  0
LINE
  5
F69
330
2
100
AcDbEntity
  8
CENTER
100
AcDbLine
 10
989.2566464315885
 20
359.7481598219278
 30
0.0
 11
1005.856646431588
 21
359.7481598219278
 31
0.0
  0
LINE
  5
F6A
330
2
100
AcDbEntity
  8
CENTER
100
AcDbLine
 10
997.5566464315882
 20
368.0481598219278
 30
0.0
 11
997.5566464315882
 21
351.4481598219278
 31
0.0
  0
LINE
  5
F6B
330
2
100
AcDbEntity
  8
CENTER
100
AcDbLine
 10
989.2566464315885
 20
458.7431091880445
 30
0.0
 11
1005.856646431588
 21
458.7431091880445
 31
0.0
  0
LINE
  5
F6C
330
2
100
AcDbEntity
  8
CENTER
100
AcDbLine
 10
997.5566464315882
 20
467.0431091880446
 30
0.0
 11
997.5566464315882
 21
450.4431091880446
 31
0.0
  0
LINE
  5
F6D
330
2
100
AcDbEntity
  8
CENTER
100
AcDbLine
 10
890.2616970654719
 20
458.7431091880445
 30
0.0
 11
906.8616970654714
 21
458.7431091880445
 31
0.0
  0
LINE
  5
F6E
330
2
100
AcDbEntity
  8
CENTER
100
AcDbLine
 10
898.5616970654715
 20
467.0431091880446
 30
0.0
 11
898.5616970654715
 21
450.4431091880446
 31
0.0
  0
LINE
  5
F6F
330
2
100
AcDbEntity
  8
0
100
AcDbLine
 10
1053.559171748527
 20
348.7456345049865
 30
0.0
 11
1053.559171748527
 21
469.7456345049857
 31
0.0
  0
LINE
  5
F70
330
2
100
AcDbEntity
  8
0
100
AcDbLine
 10
1029.559171748529
 20
443.2456345049899
 30
0.0
 11
1027.059171748528
 21
443.2456345049892
 31
0.0
  0
LINE
  5
F71
330
2
100
AcDbEntity
  8
0
100
AcDbLine
 10
1021.059171748528
 20
437.2456345049893
 30
0.0
 11
1011.059171748531
 21
437.2456345049893
 31
0.0
  0
ARC
  5
F72
330
2
100
AcDbEntity
  8
0
100
AcDbCircle
 10
1011.059171748531
 20
440.2456345049893
 30
0.0
 40
3.0
100
AcDbArc
 50
180.0
 51
270.0
  0
ARC
  5
F73
330
2
100
AcDbEntity
  8
0
100
AcDbCircle
 10
1021.059171748528
 20
440.2456345049893
 30
0.0
 40
3.0
100
AcDbArc
 50
270.0
 51
0.0
  0
LINE
  5
F74
330
2
100
AcDbEntity
  8
0
100
AcDbLine
 10
1024.059171748528
 20
440.2456345049893
 30
0.0
 11
1024.059171748528
 21
440.2456345049893
 31
0.0
  0
ARC
  5
F75
330
2
100
AcDbEntity
  8
0
100
AcDbCircle
 10
1027.059171748528
 20
440.2456345049893
 30
0.0
 40
3.0
100
AcDbArc
 50
90.0
 51
180.0
  0
LINE
  5
F76
330
2
100
AcDbEntity
  8
0
100
AcDbLine
 10
1029.559171748529
 20
375.2456345049822
 30
0.0
 11
1027.059171748528
 21
375.2456345049829
 31
0.0
  0
LINE
  5
F77
330
2
100
AcDbEntity
  8
0
100
AcDbLine
 10
1021.059171748528
 20
381.2456345049829
 30
0.0
 11
1011.05917174853
 21
381.2456345049831
 31
0.0
  0
ARC
  5
F78
330
2
100
AcDbEntity
  8
0
100
AcDbCircle
 10
1021.059171748528
 20
378.2456345049829
 30
0.0
 40
3.0
100
AcDbArc
 50
0.0
 51
90.0
  0
LINE
  5
F79
330
2
100
AcDbEntity
  8
0
100
AcDbLine
 10
1024.059171748528
 20
378.2456345049829
 30
0.0
 11
1024.059171748528
 21
378.2456345049829
 31
0.0
  0
ARC
  5
F7A
330
2
100
AcDbEntity
  8
0
100
AcDbCircle
 10
1027.059171748528
 20
378.2456345049829
 30
0.0
 40
3.0
100
AcDbArc
 50
180.0
 51
269.9999999999739
  0
ARC
  5
F7B
330
2
100
AcDbEntity
  8
0
100
AcDbCircle
 10
1029.559171748527
 20
367.2456345049822
 30
0.0
 40
8.0
100
AcDbArc
 50
0.0
 51
89.99999999997395
  0
ARC
  5
F7C
330
2
100
AcDbEntity
  8
0
100
AcDbCircle
 10
948.0591717485287
 20
219.2456345049872
 30
0.0
 40
250.0
100
AcDbArc
 50
85.41175424079522
 51
94.58824575920479
  0
ARC
  5
F7D
330
2
100
AcDbEntity
  8
0
 48
0.5
100
AcDbCircle
 10
898.0591717485278
 20
459.2456345049875
 30
0.0
 40
10.0
100
AcDbArc
 50
90.0
 51
180.0
  0
LINE
  5
F7E
330
2
100
AcDbEntity
  8
0
 48
0.5
100
AcDbLine
 10
898.0591717485278
 20
469.2456345049874
 30
0.0
 11
908.0591717485324
 21
469.2456345049873
 31
0.0
  0
ARC
  5
F7F
330
2
100
AcDbEntity
  8
0
100
AcDbCircle
 10
908.0591717485324
 20
461.245634504987
 30
0.0
 40
8.0
100
AcDbArc
 50
81.10835431979607
 51
90.0
  0
ARC
  5
F80
330
2
100
AcDbEntity
  8
0
 48
0.5
100
AcDbCircle
 10
998.0591717485316
 20
459.2456345049875
 30
0.0
 40
10.0
100
AcDbArc
 50
0.0
 51
90.0
  0
ARC
  5
F81
330
2
100
AcDbEntity
  8
0
100
AcDbCircle
 10
1009.871581624435
 20
464.6739835103174
 30
0.0
 40
3.0
100
AcDbArc
 50
204.6809703631084
 51
259.9999999999948
  0
ARC
  5
F82
330
2
100
AcDbEntity
  8
0
100
AcDbCircle
 10
921.6610087748771
 20
548.1880869060364
 30
0.0
 40
80.0
100
AcDbArc
 50
261.1083543197961
 51
274.5882457592047
  0
LINE
  5
F83
330
2
100
AcDbEntity
  8
0
 48
0.5
100
AcDbLine
 10
888.0591717485279
 20
459.2456345049875
 30
0.0
 11
888.0591717485284
 21
449.2456345049833
 31
0.0
  0
ARC
  5
F84
330
2
100
AcDbEntity
  8
0
100
AcDbCircle
 10
896.0591717485288
 20
449.2456345049833
 30
0.0
 40
8.0
100
AcDbArc
 50
180.0
 51
188.8916456802039
  0
ARC
  5
F85
330
2
100
AcDbEntity
  8
0
100
AcDbCircle
 10
809.1167193474792
 20
435.6437974786379
 30
0.0
 40
80.0
100
AcDbArc
 50
355.4117542407789
 51
8.89164568020392
  0
LINE
  5
F86
330
2
100
AcDbEntity
  8
0
 48
0.5
100
AcDbLine
 10
998.0591717485316
 20
469.2456345049874
 30
0.0
 11
988.0591717485279
 21
469.2456345049873
 31
0.0
  0
ARC
  5
F87
330
2
100
AcDbEntity
  8
0
100
AcDbCircle
 10
988.0591717485279
 20
461.245634504987
 30
0.0
 40
8.0
100
AcDbArc
 50
90.0
 51
98.89164568020392
  0
ARC
  5
F88
330
2
100
AcDbEntity
  8
0
100
AcDbCircle
 10
974.4573347221823
 20
548.1880869060364
 30
0.0
 40
80.0
100
AcDbArc
 50
265.4117542407952
 51
278.8916456802039
  0
LINE
  5
F89
330
2
100
AcDbEntity
  8
0
 48
0.5
100
AcDbLine
 10
1008.059171748532
 20
459.2456345049872
 30
0.0
 11
1008.059171748529
 21
359.2456345049843
 31
0.0
  0
ARC
  5
F8A
330
2
100
AcDbEntity
  8
0
100
AcDbCircle
 10
1011.05917174853
 20
378.2456345049831
 30
0.0
 40
3.0
100
AcDbArc
 50
90.0
 51
180.0
  0
ARC
  5
F8B
330
2
100
AcDbEntity
  8
0
100
AcDbCircle
 10
1011.05917174853
 20
403.2456345049858
 30
0.0
 40
3.0
100
AcDbArc
 50
90.0
 51
180.0
  0
ARC
  5
F8C
330
2
100
AcDbEntity
  8
0
100
AcDbCircle
 10
1011.05917174853
 20
415.2456345049861
 30
0.0
 40
3.0
100
AcDbArc
 50
180.0
 51
270.0
  0
ARC
  5
F8D
330
2
100
AcDbEntity
  8
0
 48
0.5
100
AcDbCircle
 10
898.0591717485278
 20
359.2456345049843
 30
0.0
 40
10.0
100
AcDbArc
 50
180.0
 51
270.0
  0
LINE
  5
F8E
330
2
100
AcDbEntity
  8
0
 48
0.5
100
AcDbLine
 10
898.0591717485278
 20
349.2456345049843
 30
0.0
 11
908.0591717485324
 21
349.2456345049845
 31
0.0
  0
ARC
  5
F8F
330
2
100
AcDbEntity
  8
0
100
AcDbCircle
 10
908.0591717485324
 20
357.2456345049847
 30
0.0
 40
8.0
100
AcDbArc
 50
270.0
 51
278.8916456802039
  0
ARC
  5
F90
330
2
100
AcDbEntity
  8
0
 48
0.5
100
AcDbCircle
 10
998.0591717485316
 20
359.2456345049843
 30
0.0
 40
10.0
100
AcDbArc
 50
270.0
 51
0.0
  0
ARC
  5
F91
330
2
100
AcDbEntity
  8
0
100
AcDbCircle
 10
1009.871581624435
 20
353.8172854996546
 30
0.0
 40
3.0
100
AcDbArc
 50
100.0000000000051
 51
155.3190296368915
  0
ARC
  5
F92
330
2
100
AcDbEntity
  8
0
100
AcDbCircle
 10
921.6610087748771
 20
270.3031821039353
 30
0.0
 40
80.0
100
AcDbArc
 50
85.41175424079522
 51
98.89164568020392
  0
LINE
  5
F93
330
2
100
AcDbEntity
  8
0
 48
0.5
100
AcDbLine
 10
888.0591717485279
 20
359.2456345049843
 30
0.0
 11
888.0591717485284
 21
369.2456345049884
 31
0.0
  0
ARC
  5
F94
330
2
100
AcDbEntity
  8
0
100
AcDbCircle
 10
896.0591717485288
 20
369.2456345049884
 30
0.0
 40
8.0
100
AcDbArc
 50
171.108354319796
 51
180.0
  0
ARC
  5
F95
330
2
100
AcDbEntity
  8
0
100
AcDbCircle
 10
809.1167193474792
 20
382.8474715313339
 30
0.0
 40
80.0
100
AcDbArc
 50
351.1083543197961
 51
4.588245759202406
  0
LINE
  5
F96
330
2
100
AcDbEntity
  8
0
 48
0.5
100
AcDbLine
 10
998.0591717485316
 20
349.2456345049843
 30
0.0
 11
988.0591717485279
 21
349.2456345049845
 31
0.0
  0
ARC
  5
F97
330
2
100
AcDbEntity
  8
0
100
AcDbCircle
 10
988.0591717485279
 20
357.2456345049847
 30
0.0
 40
8.0
100
AcDbArc
 50
261.1083543197961
 51
270.0
  0
ARC
  5
F98
330
2
100
AcDbEntity
  8
0
100
AcDbCircle
 10
974.4573347221823
 20
270.3031821039353
 30
0.0
 40
80.0
100
AcDbArc
 50
81.10835431979607
 51
94.58824575920479
  0
ARC
  5
F99
330
2
100
AcDbEntity
  8
0
100
AcDbCircle
 10
1138.059171748528
 20
409.2456345049847
 30
0.0
 40
250.0
100
AcDbArc
 50
175.4117542407789
 51
184.5882457592202
  0
ARC
  5
F9A
330
2
100
AcDbEntity
  8
0
100
AcDbCircle
 10
948.0591717485287
 20
599.2456345049845
 30
0.0
 40
250.0
100
AcDbArc
 50
265.4117542407952
 51
274.5882457592047
  0
CIRCLE
  5
F9B
330
2
100
AcDbEntity
  8
HOJO
100
AcDbCircle
 10
898.5616970654712
 20
458.7431091880445
 30
0.0
 40
4.0
  0
CIRCLE
  5
F9C
330
2
100
AcDbEntity
  8
0
100
AcDbCircle
 10
898.5616970654712
 20
458.7431091880445
 30
0.0
 40
3.399999999999999
  0
CIRCLE
  5
F9D
330
2
100
AcDbEntity
  8
HOJO
100
AcDbCircle
 10
997.5566464315882
 20
458.7431091880445
 30
0.0
 40
4.0
  0
CIRCLE
  5
F9E
330
2
100
AcDbEntity
  8
0
100
AcDbCircle
 10
997.5566464315882
 20
458.7431091880445
 30
0.0
 40
3.399999999999999
  0
CIRCLE
  5
F9F
330
2
100
AcDbEntity
  8
HOJO
100
AcDbCircle
 10
997.5566464315882
 20
359.748159821928
 30
0.0
 40
4.0
  0
CIRCLE
  5
FA0
330
2
100
AcDbEntity
  8
0
100
AcDbCircle
 10
997.5566464315882
 20
359.748159821928
 30
0.0
 40
3.399999999999999
  0
CIRCLE
  5
FA1
330
2
100
AcDbEntity
  8
HOJO
100
AcDbCircle
 10
898.5616970654712
 20
359.748159821928
 30
0.0
 40
4.0
  0
CIRCLE
  5
FA2
330
2
100
AcDbEntity
  8
0
100
AcDbCircle
 10
898.5616970654712
 20
359.748159821928
 30
0.0
 40
3.399999999999999
  0
CIRCLE
  5
FA3
330
2
100
AcDbEntity
  8
CENTER
100
AcDbCircle
 10
948.0591717485296
 20
409.245634504986
 30
0.0
 40
70.00000000000039
  0
CIRCLE
  5
FA4
330
2
100
AcDbEntity
  8
0
100
AcDbCircle
 10
948.0591717485296
 20
409.245634504986
 30
0.0
 40
55.00000000000046
  0
CIRCLE
  5
FA5
330
2
100
AcDbEntity
  8
0
100
AcDbCircle
 10
948.0591717485296
 20
409.245634504986
 30
0.0
 40
39.99999999999932
  0
CIRCLE
  5
FA6
330
2
100
AcDbEntity
  8
0
100
AcDbCircle
 10
948.0591717485296
 20
409.245634504986
 30
0.0
 40
33.07735026919044
  0
CIRCLE
  5
FA7
330
2
100
AcDbEntity
  8
0
100
AcDbCircle
 10
948.0591717485296
 20
409.245634504986
 30
0.0
 40
32.50000000000023
  0
LINE
  5
FA8
330
2
100
AcDbEntity
  8
CENTER
100
AcDbLine
 10
948.0591717485292
 20
674.5907772041958
 30
0.0
 11
948.0591717485303
 21
887.5907772041982
 31
0.0
  0
LINE
  5
FA9
330
2
100
AcDbEntity
  8
0
100
AcDbLine
 10
888.9667659987688
 20
750.5907772041965
 30
0.0
 11
888.0635351824254
 21
854.0907772041999
 31
0.0
  0
LINE
  5
FAA
330
2
100
AcDbEntity
  8
0
100
AcDbLine
 10
893.0591717485297
 20
745.5907772041901
 30
0.0
 11
1003.059171748529
 21
745.5907772041963
 31
0.0
  0
LINE
  5
FAB
330
2
100
AcDbEntity
  8
0
100
AcDbLine
 10
1039.507485490373
 20
877.5907772041962
 30
0.0
 11
1053.559171748527
 21
877.5907772041961
 31
0.0
  0
ARC
  5
FAC
330
2
100
AcDbEntity
  8
0
100
AcDbCircle
 10
1039.507485490373
 20
875.5907772041963
 30
0.0
 40
2.0
100
AcDbArc
 50
90.0
 51
178.4999999999972
  0
LINE
  5
FAD
330
2
100
AcDbEntity
  8
0
100
AcDbLine
 10
1037.508170840422
 20
875.6431311008116
 30
0.0
 11
1035.98801645439
 21
817.5907772041963
 31
0.0
  0
ARC
  5
FAE
330
2
100
AcDbEntity
  8
0
100
AcDbCircle
 10
1033.144103606332
 20
823.5907772041983
 30
0.0
 40
3.0
100
AcDbArc
 50
270.0
 51
358.5000000000103
  0
LINE
  5
FAF
330
2
100
AcDbEntity
  8
0
100
AcDbLine
 10
1007.417746965909
 20
854.0907772041965
 30
0.0
 11
888.0635351824254
 21
854.0907772041999
 31
0.0
  0
LINE
  5
FB0
330
2
100
AcDbEntity
  8
0
100
AcDbLine
 10
986.1277941989149
 20
731.590777204196
 30
0.0
 11
909.9905492981445
 21
731.5907772041953
 31
0.0
  0
ARC
  5
FB1
330
2
100
AcDbEntity
  8
0
100
AcDbCircle
 10
909.9905492981445
 20
733.5907772041953
 30
0.0
 40
2.0
100
AcDbArc
 50
181.9999999999914
 51
270.0
  0
ARC
  5
FB2
330
2
100
AcDbEntity
  8
0
100
AcDbCircle
 10
986.1277941989149
 20
733.5907772041958
 30
0.0
 40
2.0
100
AcDbArc
 50
270.0
 51
357.9999999999955
  0
LINE
  5
FB3
330
2
100
AcDbEntity
  8
CENTER
100
AcDbLine
 10
878.381685072931
 20
817.5907772041998
 30
0.0
 11
1158.059171748531
 21
817.5907772041981
 31
0.0
  0
LINE
  5
FB4
330
2
100
AcDbEntity
  8
0
100
AcDbLine
 10
1007.15157749829
 20
750.5907772041963
 30
0.0
 11
1007.73627764027
 21
817.5907772041989
 31
0.0
  0
ARC
  5
FB5
330
2
100
AcDbEntity
  8
0
100
AcDbCircle
 10
1010.684030668684
 20
811.5907772041975
 30
0.0
 40
3.0
100
AcDbArc
 50
90.0
 51
179.4999999999954
  0
LINE
  5
FB6
330
2
100
AcDbEntity
  8
0
100
AcDbLine
 10
988.1265758529533
 20
733.5209782107908
 30
0.0
 11
988.2784461037173
 21
737.8699731778159
 31
0.0
  0
LINE
  5
FB7
330
2
100
AcDbEntity
  8
0
100
AcDbLine
 10
907.9917676441061
 20
733.5209782107904
 30
0.0
 11
907.8398973933419
 21
737.8699731778098
 31
0.0
  0
LINE
  5
FB8
330
2
100
AcDbEntity
  8
0
100
AcDbLine
 10
1007.417746965909
 20
854.0907772041965
 30
0.0
 11
1007.736277640273
 21
817.5907772041988
 31
0.0
  0
LINE
  5
FB9
330
2
100
AcDbEntity
  8
0
100
AcDbLine
 10
1039.507485490373
 20
757.5907772042035
 30
0.0
 11
1053.559171748527
 21
757.5907772042035
 31
0.0
  0
ARC
  5
FBA
330
2
100
AcDbEntity
  8
0
100
AcDbCircle
 10
1039.507485490373
 20
759.5907772042035
 30
0.0
 40
2.0
100
AcDbArc
 50
181.4999999999896
 51
270.0
  0
LINE
  5
FBB
330
2
100
AcDbEntity
  8
0
100
AcDbLine
 10
1037.508170840422
 20
759.5384233075883
 30
0.0
 11
1035.988016454391
 21
817.5907772041963
 31
0.0
  0
ARC
  5
FBC
330
2
100
AcDbEntity
  8
0
100
AcDbCircle
 10
1033.144103606332
 20
811.5907772041975
 30
0.0
 40
3.0
100
AcDbArc
 50
1.499999999989688
 51
90.0
  0
LINE
  5
FBD
330
2
100
AcDbEntity
  8
0
100
AcDbLine
 10
898.0591717485307
 20
854.0907772041983
 30
0.0
 11
898.0591717485296
 21
752.0907772041909
 31
0.0
  0
LINE
  5
FBE
330
2
100
AcDbEntity
  8
0
100
AcDbLine
 10
988.0722647093119
 20
854.0907772041972
 30
0.0
 11
989.0025503925333
 21
818.5646002558922
 31
0.0
  0
LINE
  5
FBF
330
2
100
AcDbEntity
  8
0
100
AcDbLine
 10
1010.684030668683
 20
820.590777204198
 30
0.0
 11
1033.144103606332
 21
820.590777204198
 31
0.0
  0
ARC
  5
FC0
330
2
100
AcDbEntity
  8
0
100
AcDbCircle
 10
1010.684030668683
 20
823.5907772041979
 30
0.0
 40
3.0
100
AcDbArc
 50
180.4999999999915
 51
270.0
  0
LINE
  5
FC1
330
2
100
AcDbEntity
  8
0
100
AcDbLine
 10
1010.684030668684
 20
814.5907772041976
 30
0.0
 11
1033.144103606332
 21
814.5907772041976
 31
0.0
  0
LINE
  5
FC2
330
2
100
AcDbEntity
  8
0
100
AcDbLine
 10
990.0022077175087
 20
817.5907772042004
 30
0.0
 11
1053.559171748527
 21
817.5907772041947
 31
0.0
  0
ARC
  5
FC3
330
2
100
AcDbEntity
  8
0
100
AcDbCircle
 10
990.0022077175087
 20
818.5907772041998
 30
0.0
 40
1.0
100
AcDbArc
 50
181.5000000000027
 51
269.9999999999739
  0
LINE
  5
FC4
330
2
100
AcDbEntity
  8
0
100
AcDbLine
 10
908.0591717485319
 20
752.0907772041912
 30
0.0
 11
908.0591717485324
 21
854.0907772041983
 31
0.0
  0
LINE
  5
FC5
330
2
100
AcDbEntity
  8
0
100
AcDbLine
 10
928.0605634351134
 20
752.0907772041909
 30
0.0
 11
928.0605634351134
 21
854.0907772041981
 31
0.0
  0
LINE
  5
FC6
330
2
100
AcDbEntity
  8
0
100
AcDbLine
 10
968.0577800619433
 20
752.0907772041909
 30
0.0
 11
968.0577800619433
 21
854.0907772041981
 31
0.0
  0
LINE
  5
FC7
330
2
100
AcDbEntity
  8
0
100
AcDbLine
 10
988.0591717485273
 20
752.0907772041912
 30
0.0
 11
988.0591717485273
 21
817.5907772041998
 31
0.0
  0
LINE
  5
FC8
330
2
100
AcDbEntity
  8
0
100
AcDbLine
 10
998.0591717485316
 20
752.0907772041909
 30
0.0
 11
998.0591717485319
 21
854.0907772041983
 31
0.0
  0
LINE
  5
FC9
330
2
100
AcDbEntity
  8
0
100
AcDbLine
 10
1053.559171748527
 20
757.5907772042035
 30
0.0
 11
1053.559171748527
 21
877.5907772041959
 31
0.0
  0
LINE
  5
FCA
330
2
100
AcDbEntity
  8
0
100
AcDbLine
 10
893.0591717485297
 20
745.5907772041901
 30
0.0
 11
893.0591717485297
 21
750.5907772041965
 31
0.0
  0
LINE
  5
FCB
330
2
100
AcDbEntity
  8
0
 48
0.5
100
AcDbLine
 10
888.9667659987688
 20
750.5907772041963
 30
0.0
 11
1007.15157749829
 21
750.5907772041965
 31
0.0
  0
LINE
  5
FCC
330
2
100
AcDbEntity
  8
0
100
AcDbLine
 10
1003.059171748529
 20
745.5907772041963
 30
0.0
 11
1003.059171748529
 21
750.5907772041965
 31
0.0
  0
LINE
  5
FCD
330
2
100
AcDbEntity
  8
0
100
AcDbLine
 10
1033.084642467661
 20
768.1630089788081
 30
0.0
 11
1008.91510416014
 21
756.8925681719406
 31
0.0
  0
ARC
  5
FCE
330
2
100
AcDbEntity
  8
0
100
AcDbCircle
 10
1010.182958945362
 20
754.1736448108306
 30
0.0
 40
3.0
100
AcDbArc
 50
114.9999999999782
 51
179.5000000000019
  0
ARC
  5
FCF
330
2
100
AcDbEntity
  8
0
100
AcDbCircle
 10
1034.352497252883
 20
765.4440856176981
 30
0.0
 40
3.0
100
AcDbArc
 50
1.499999999989688
 51
115.0000000000071
  0
LINE
  5
FD0
330
2
100
AcDbEntity
  8
0
100
AcDbLine
 10
1011.926691591296
 20
850.4808384962585
 30
0.0
 11
1035.776855140292
 21
864.2507368414886
 31
0.0
  0
ARC
  5
FD1
330
2
100
AcDbEntity
  8
0
100
AcDbCircle
 10
1034.276855140292
 20
866.8488130528416
 30
0.0
 40
3.0
100
AcDbArc
 50
299.9999999999999
 51
358.5000000000103
  0
ARC
  5
FD2
330
2
100
AcDbEntity
  8
0
100
AcDbCircle
 10
1010.426691591296
 20
853.0789147076118
 30
0.0
 40
3.0
100
AcDbArc
 50
180.499999999998
 51
299.9999999999999
  0
ARC
  5
FD3
330
2
100
AcDbEntity
  8
0
100
AcDbCircle
 10
996.2735727198699
 20
737.5907772041961
 30
0.0
 40
8.0
100
AcDbArc
 50
90.0
 51
178.000000000002
  0
ARC
  5
FD4
330
2
100
AcDbEntity
  8
0
100
AcDbCircle
 10
899.8447707771894
 20
737.5907772041903
 30
0.0
 40
8.0
100
AcDbArc
 50
1.999999999997947
 51
90.0
  0
LINE
  5
FD5
330
2
100
AcDbEntity
  8
CENTER
100
AcDbLine
 10
125.8079721591941
 20
409.2456345049861
 30
0.0
 11
405.8079721591955
 21
409.245634504986
 31
0.0
  0
LINE
  5
FD6
330
2
100
AcDbEntity
  8
0
100
AcDbLine
 10
244.3079721591982
 20
469.2456345049861
 30
0.0
 11
230.3079721591986
 21
469.2456345049861
 31
0.0
  0
LINE
  5
FD7
330
2
100
AcDbEntity
  8
0
100
AcDbLine
 10
230.3079721591986
 20
469.7456345049857
 30
0.0
 11
230.3079721591982
 21
348.7456345049866
 31
0.0
  0
LINE
  5
FD8
330
2
100
AcDbEntity
  8
0
100
AcDbLine
 10
246.3079721591987
 20
467.7456345049858
 30
0.0
 11
246.3079721591982
 21
350.7456345049865
 31
0.0
  0
ARC
  5
FD9
330
2
100
AcDbEntity
  8
0
100
AcDbCircle
 10
254.3079721591982
 20
367.2456345049822
 30
0.0
 40
8.0
100
AcDbArc
 50
90.0
 51
180.0
  0
ARC
  5
FDA
330
2
100
AcDbEntity
  8
0
100
AcDbCircle
 10
249.3079721591982
 20
460.3208952827688
 30
0.0
 40
3.0
100
AcDbArc
 50
180.0
 51
280.0000000000051
  0
ARC
  5
FDB
330
2
100
AcDbEntity
  8
0
100
AcDbCircle
 10
249.3079721591982
 20
358.1703737272034
 30
0.0
 40
3.0
100
AcDbArc
 50
79.99999999999484
 51
180.0
  0
ARC
  5
FDC
330
2
100
AcDbEntity
  8
0
100
AcDbCircle
 10
244.3079721591982
 20
467.2456345049861
 30
0.0
 40
2.0
100
AcDbArc
 50
0.0
 51
90.0
  0
ARC
  5
FDD
330
2
100
AcDbEntity
  8
0
100
AcDbCircle
 10
244.3079721591982
 20
351.2456345049861
 30
0.0
 40
2.0
100
AcDbArc
 50
270.0
 51
0.0
  0
LINE
  5
FDE
330
2
100
AcDbEntity
  8
0
100
AcDbLine
 10
244.3079721591982
 20
349.2456345049861
 30
0.0
 11
230.3079721591982
 21
349.245634504986
 31
0.0
  0
LINE
  5
FDF
330
2
100
AcDbEntity
  8
0
100
AcDbLine
 10
249.8289166921988
 20
361.1247969862402
 30
0.0
 11
274.8680871264134
 21
356.7097156641309
 31
0.0
  0
LINE
  5
FE0
330
2
100
AcDbEntity
  8
0
100
AcDbLine
 10
249.8289166921992
 20
457.366472023732
 30
0.0
 11
274.8680871264139
 21
461.7815533458412
 31
0.0
  0
LINE
  5
FE1
330
2
100
AcDbEntity
  8
CENTER
100
AcDbLine
 10
335.8079721591955
 20
479.2456345049865
 30
0.0
 11
335.8079721591955
 21
339.2456345049854
 31
0.0
  0
LINE
  5
FE2
330
2
100
AcDbEntity
  8
0
100
AcDbLine
 10
259.8079721591982
 20
440.2456345049893
 30
0.0
 11
259.8079721591982
 21
415.2456345049861
 31
0.0
  0
LINE
  5
FE3
330
2
100
AcDbEntity
  8
0
100
AcDbLine
 10
259.8079721591982
 20
403.2456345049854
 30
0.0
 11
259.8079721591982
 21
378.2456345049829
 31
0.0
  0
ARC
  5
FE4
330
2
100
AcDbEntity
  8
0
100
AcDbCircle
 10
262.8079721591982
 20
415.2456345049861
 30
0.0
 40
3.0
100
AcDbArc
 50
180.0
 51
270.0
  0
LINE
  5
FE5
330
2
100
AcDbEntity
  8
0
100
AcDbLine
 10
254.3079721591964
 20
375.2456345049822
 30
0.0
 11
256.8079721591977
 21
375.2456345049829
 31
0.0
  0
LINE
  5
FE6
330
2
100
AcDbEntity
  8
0
100
AcDbLine
 10
262.8079721591968
 20
381.2456345049829
 30
0.0
 11
273.1308662674548
 21
381.2456345049831
 31
0.0
  0
ARC
  5
FE7
330
2
100
AcDbEntity
  8
0
100
AcDbCircle
 10
273.1308662674548
 20
378.2456345049831
 30
0.0
 40
3.0
100
AcDbArc
 50
0.0
 51
90.0
  0
ARC
  5
FE8
330
2
100
AcDbEntity
  8
0
100
AcDbCircle
 10
262.8079721591968
 20
378.2456345049829
 30
0.0
 40
3.0
100
AcDbArc
 50
90.0
 51
180.0
  0
LINE
  5
FE9
330
2
100
AcDbEntity
  8
0
100
AcDbLine
 10
259.8079721591968
 20
378.2456345049829
 30
0.0
 11
259.8079721591968
 21
378.2456345049829
 31
0.0
  0
ARC
  5
FEA
330
2
100
AcDbEntity
  8
0
100
AcDbCircle
 10
256.8079721591968
 20
378.2456345049829
 30
0.0
 40
3.0
100
AcDbArc
 50
270.0
 51
0.0
  0
LINE
  5
FEB
330
2
100
AcDbEntity
  8
0
100
AcDbLine
 10
254.3079721591964
 20
443.2456345049899
 30
0.0
 11
256.8079721591982
 21
443.2456345049892
 31
0.0
  0
LINE
  5
FEC
330
2
100
AcDbEntity
  8
0
100
AcDbLine
 10
262.8079721591973
 20
437.2456345049893
 30
0.0
 11
273.1308662674543
 21
437.245634504989
 31
0.0
  0
ARC
  5
FED
330
2
100
AcDbEntity
  8
0
100
AcDbCircle
 10
273.1308662674543
 20
440.245634504989
 30
0.0
 40
3.0
100
AcDbArc
 50
270.0
 51
0.0
  0
ARC
  5
FEE
330
2
100
AcDbEntity
  8
0
100
AcDbCircle
 10
262.8079721591973
 20
440.2456345049893
 30
0.0
 40
3.0
100
AcDbArc
 50
180.0
 51
270.0
  0
LINE
  5
FEF
330
2
100
AcDbEntity
  8
0
100
AcDbLine
 10
259.8079721591973
 20
440.2456345049893
 30
0.0
 11
259.8079721591973
 21
440.2456345049893
 31
0.0
  0
ARC
  5
FF0
330
2
100
AcDbEntity
  8
0
100
AcDbCircle
 10
256.8079721591973
 20
440.2456345049893
 30
0.0
 40
3.0
100
AcDbArc
 50
0.0
 51
89.99999999997395
  0
ARC
  5
FF1
330
2
100
AcDbEntity
  8
0
100
AcDbCircle
 10
254.3079721591987
 20
451.24563450499
 30
0.0
 40
8.0
100
AcDbArc
 50
180.0
 51
269.9999999999739
  0
LINE
  5
FF2
330
2
100
AcDbEntity
  8
0
100
AcDbLine
 10
286.1308662674548
 20
349.2456345049847
 30
0.0
 11
286.4479721591499
 21
349.2456345049847
 31
0.0
  0
LINE
  5
FF3
330
2
100
AcDbEntity
  8
0
100
AcDbLine
 10
286.1308662674553
 20
469.2456345049879
 30
0.0
 11
286.4479721592422
 21
469.2456345049879
 31
0.0
  0
LINE
  5
FF4
330
2
100
AcDbEntity
  8
0
100
AcDbLine
 10
276.1308662674543
 20
459.2456345049879
 30
0.0
 11
276.1308662674543
 21
359.2456345049847
 31
0.0
  0
ARC
  5
FF5
330
2
100
AcDbEntity
  8
0
100
AcDbCircle
 10
286.1308662674548
 20
359.2456345049847
 30
0.0
 40
10.0
100
AcDbArc
 50
180.0
 51
270.0
  0
ARC
  5
FF6
330
2
100
AcDbEntity
  8
0
100
AcDbCircle
 10
274.3471425934128
 20
353.7552924050944
 30
0.0
 40
3.0
100
AcDbArc
 50
24.98203108537716
 51
79.99999999999484
  0
ARC
  5
FF7
330
2
100
AcDbEntity
  8
0
100
AcDbCircle
 10
286.1308662674548
 20
459.2456345049879
 30
0.0
 40
10.0
100
AcDbArc
 50
90.0
 51
180.0
  0
ARC
  5
FF8
330
2
100
AcDbEntity
  8
0
100
AcDbCircle
 10
274.3471425934128
 20
464.7359766048777
 30
0.0
 40
3.0
100
AcDbArc
 50
280.0000000000051
 51
335.0179689146227
  0
ARC
  5
FF9
330
2
100
AcDbEntity
  8
0
100
AcDbCircle
 10
249.3079721591986
 20
415.2456345049862
 30
0.0
 40
3.0
100
AcDbArc
 50
180.0
 51
270.0
  0
ARC
  5
FFA
330
2
100
AcDbEntity
  8
0
100
AcDbCircle
 10
249.3079721591986
 20
403.2456345049845
 30
0.0
 40
3.0
100
AcDbArc
 50
90.0
 51
180.0
  0
LINE
  5
FFB
330
2
100
AcDbEntity
  8
0
100
AcDbLine
 10
273.1308662674543
 20
406.2456345049861
 30
0.0
 11
249.3079721591982
 21
406.2456345049845
 31
0.0
  0
ARC
  5
FFC
330
2
100
AcDbEntity
  8
0
100
AcDbCircle
 10
262.8079721591982
 20
403.2456345049854
 30
0.0
 40
3.0
100
AcDbArc
 50
90.0
 51
180.0
  0
ARC
  5
FFD
330
2
100
AcDbEntity
  8
0
100
AcDbCircle
 10
273.1308662674543
 20
403.2456345049861
 30
0.0
 40
3.0
100
AcDbArc
 50
0.0
 51
90.0
  0
LINE
  5
FFE
330
2
100
AcDbEntity
  8
0
100
AcDbLine
 10
273.1308662674543
 20
412.245634504986
 30
0.0
 11
249.3079721591986
 21
412.2456345049862
 31
0.0
  0
ARC
  5
FFF
330
2
100
AcDbEntity
  8
0
100
AcDbCircle
 10
273.1308662674543
 20
415.245634504986
 30
0.0
 40
3.0
100
AcDbArc
 50
270.0
 51
0.0
  0
LINE
  5
1047
330
2
100
AcDbEntity
  8
CENTER
100
AcDbLine
 10
335.8079721591313
 20
339.2456345049188
 30
0.0
 11
335.8079721592573
 21
476.1486799437851
 31
0.0
  0
LINE
  5
1048
330
2
100
AcDbEntity
  8
0
100
AcDbLine
 10
276.4479721591494
 20
359.2456345049735
 30
0.0
 11
276.4479721592417
 21
459.2456345049765
 31
0.0
  0
ARC
  5
1049
330
2
100
AcDbEntity
  8
0
100
AcDbCircle
 10
286.4479721592417
 20
459.2456345049673
 30
0.0
 40
10.0
100
AcDbArc
 50
89.99999999994789
 51
179.9999999999479
  0
LINE
  5
104A
330
2
100
AcDbEntity
  8
0
100
AcDbLine
 10
282.8079721591714
 20
382.7775970734651
 30
0.0
 11
282.80797215922
 21
435.7136719365705
 31
0.0
  0
ARC
  5
104B
330
2
100
AcDbEntity
  8
0
100
AcDbCircle
 10
295.80797215922
 20
435.7136719365585
 30
0.0
 40
13.0
100
AcDbArc
 50
134.9999999999359
 51
179.9999999999479
  0
LINE
  5
104C
330
2
100
AcDbEntity
  8
0
100
AcDbLine
 10
287.8079721591713
 20
382.7775970734606
 30
0.0
 11
287.80797215922
 21
435.7136719365659
 31
0.0
  0
ARC
  5
104D
330
2
100
AcDbEntity
  8
0
100
AcDbCircle
 10
295.8079721591714
 20
382.7775970734531
 30
0.0
 40
8.0
100
AcDbArc
 50
179.9999999999479
 51
224.9999999999534
  0
CIRCLE
  5
104E
330
2
100
AcDbEntity
  8
0
100
AcDbCircle
 10
335.8079721591955
 20
409.2456345049217
 30
0.0
 40
32.50000000000008
  0
CIRCLE
  5
104F
330
2
100
AcDbEntity
  8
0
100
AcDbCircle
 10
335.8079721591955
 20
409.2456345049218
 30
0.0
 40
33.07735026918965
  0
CIRCLE
  5
1050
330
2
100
AcDbEntity
  8
0
100
AcDbCircle
 10
335.8079721591955
 20
409.2456345049217
 30
0.0
 40
36.92264973081032
  0
CIRCLE
  5
1051
330
2
100
AcDbEntity
  8
0
100
AcDbCircle
 10
335.8079721591955
 20
409.2456345049217
 30
0.0
 40
37.50000000000008
  0
CIRCLE
  5
1052
330
2
100
AcDbEntity
  8
0
100
AcDbCircle
 10
335.8079721591955
 20
409.2456345049217
 30
0.0
 40
39.50000000000031
  0
CIRCLE
  5
1053
330
2
100
AcDbEntity
  8
0
100
AcDbCircle
 10
335.8079721591955
 20
409.2456345049218
 30
0.0
 40
40.00000000000034
  0
LINE
  5
1054
330
2
100
AcDbEntity
  8
CENTER
100
AcDbLine
 10
275.8284731738287
 20
459.2456345049774
 30
0.0
 11
295.7874711446681
 21
459.2456345049589
 31
0.0
  0
LINE
  5
1055
330
2
100
AcDbEntity
  8
CENTER
100
AcDbLine
 10
285.8079721592328
 20
449.2661355195484
 30
0.0
 11
285.8079721592509
 21
469.2251334903879
 31
0.0
  0
LINE
  5
1056
330
2
100
AcDbEntity
  8
0
100
AcDbLine
 10
362.2760095906221
 20
361.2456345048967
 30
0.0
 11
309.3399347276561
 21
361.2456345049455
 31
0.0
  0
ARC
  5
1057
330
2
100
AcDbEntity
  8
0
100
AcDbCircle
 10
362.2760095906294
 20
369.2456345048967
 30
0.0
 40
8.0
100
AcDbArc
 50
269.9999999999478
 51
314.9999999999359
  0
LINE
  5
1058
330
2
100
AcDbEntity
  8
0
100
AcDbLine
 10
362.2760095906166
 20
356.245634504896
 30
0.0
 11
309.339934727652
 21
356.2456345049449
 31
0.0
  0
ARC
  5
1059
330
2
100
AcDbEntity
  8
0
100
AcDbCircle
 10
309.3399347276638
 20
369.2456345049449
 30
0.0
 40
13.0
100
AcDbArc
 50
224.9999999999534
 51
269.9999999999478
  0
LINE
  5
105A
330
2
100
AcDbEntity
  8
0
100
AcDbLine
 10
362.2760095908054
 20
457.2456345048975
 30
0.0
 11
309.3399347276402
 21
457.2456345049462
 31
0.0
  0
ARC
  5
105B
330
2
100
AcDbEntity
  8
0
100
AcDbCircle
 10
309.3399347276329
 20
449.2456345049462
 30
0.0
 40
8.0
100
AcDbArc
 50
89.99999999994789
 51
134.9999999999359
  0
LINE
  5
105C
330
2
100
AcDbEntity
  8
0
100
AcDbLine
 10
362.2760095908099
 20
462.2456345048973
 30
0.0
 11
309.3399347276447
 21
462.2456345049461
 31
0.0
  0
ARC
  5
105D
330
2
100
AcDbEntity
  8
0
100
AcDbCircle
 10
362.2760095907981
 20
449.2456345048973
 30
0.0
 40
13.0
100
AcDbArc
 50
44.99999999995348
 51
89.99999999994789
  0
LINE
  5
105E
330
2
100
AcDbEntity
  8
0
100
AcDbLine
 10
388.8079721591714
 20
382.7775970734017
 30
0.0
 11
388.80797215922
 21
435.7136719364475
 31
0.0
  0
ARC
  5
105F
330
2
100
AcDbEntity
  8
0
100
AcDbCircle
 10
375.8079721591714
 20
382.7775970734137
 30
0.0
 40
13.0
100
AcDbArc
 50
314.9999999999359
 51
359.9999999999478
  0
LINE
  5
1060
330
2
100
AcDbEntity
  8
0
100
AcDbLine
 10
383.8079721591714
 20
382.7775970734063
 30
0.0
 11
383.80797215922
 21
435.7136719364521
 31
0.0
  0
ARC
  5
1061
330
2
100
AcDbEntity
  8
0
100
AcDbCircle
 10
375.80797215922
 20
435.7136719364595
 30
0.0
 40
8.0
100
AcDbArc
 50
359.9999999999478
 51
44.99999999995348
  0
LINE
  5
1062
330
2
100
AcDbEntity
  8
CENTER
100
AcDbLine
 10
398.0788842169492
 20
471.5165465626245
 30
0.0
 11
273.5370601014126
 21
346.9747224473179
 31
0.0
  0
LINE
  5
1063
330
2
100
AcDbEntity
  8
0
100
AcDbLine
 10
303.6830804781459
 20
454.9024887544438
 30
0.0
 11
290.151117909733
 21
441.3705261860561
 31
0.0
  0
LINE
  5
1064
330
2
100
AcDbEntity
  8
0
100
AcDbLine
 10
300.1475465722162
 20
458.4380226603797
 30
0.0
 11
286.6155840038034
 21
444.9060600919921
 31
0.0
  0
ARC
  5
1065
330
2
100
AcDbEntity
  8
0
100
AcDbCircle
 10
309.3399347276329
 20
449.245634504946
 30
0.0
 40
13.0
100
AcDbArc
 50
89.99999999994789
 51
134.9999999999359
  0
ARC
  5
1066
330
2
100
AcDbEntity
  8
0
100
AcDbCircle
 10
295.80797215922
 20
435.7136719365585
 30
0.0
 40
8.0
100
AcDbArc
 50
134.9999999999359
 51
179.9999999999479
  0
LINE
  5
1067
330
2
100
AcDbEntity
  8
0
100
AcDbLine
 10
381.4648264086583
 20
377.1207428239161
 30
0.0
 11
367.9328638401163
 21
363.5887802553992
 31
0.0
  0
LINE
  5
1068
330
2
100
AcDbEntity
  8
0
100
AcDbLine
 10
385.000360314588
 20
373.5852089179801
 30
0.0
 11
371.4683977460452
 21
360.0532463494624
 31
0.0
  0
ARC
  5
1069
330
2
100
AcDbEntity
  8
0
100
AcDbCircle
 10
362.2760095906285
 20
369.245634504896
 30
0.0
 40
13.0
100
AcDbArc
 50
269.9999999999478
 51
314.9999999999359
  0
ARC
  5
106A
330
2
100
AcDbEntity
  8
0
100
AcDbCircle
 10
375.8079721591714
 20
382.7775970734137
 30
0.0
 40
8.0
100
AcDbArc
 50
314.9999999999359
 51
359.9999999999478
  0
LINE
  5
106B
330
2
100
AcDbEntity
  8
CENTER
100
AcDbLine
 10
273.5370601014913
 20
471.5165465627331
 30
0.0
 11
398.0788842168406
 21
346.974722447239
 31
0.0
  0
LINE
  5
106C
330
2
100
AcDbEntity
  8
0
100
AcDbLine
 10
367.9328638402937
 20
454.9024887543865
 30
0.0
 11
381.4648264087157
 21
441.3705261859486
 31
0.0
  0
LINE
  5
106D
330
2
100
AcDbEntity
  8
0
100
AcDbLine
 10
371.4683977462284
 20
458.4380226603171
 30
0.0
 11
385.0003603146504
 21
444.9060600918793
 31
0.0
  0
ARC
  5
106E
330
2
100
AcDbEntity
  8
0
100
AcDbCircle
 10
375.80797215922
 20
435.7136719364595
 30
0.0
 40
13.0
100
AcDbArc
 50
359.9999999999478
 51
44.99999999995348
  0
ARC
  5
106F
330
2
100
AcDbEntity
  8
0
100
AcDbCircle
 10
362.2760095907981
 20
449.2456345048974
 30
0.0
 40
8.0
100
AcDbArc
 50
44.99999999995348
 51
89.99999999994789
  0
LINE
  5
1070
330
2
100
AcDbEntity
  8
0
100
AcDbLine
 10
290.1511179096758
 20
377.1207428239641
 30
0.0
 11
303.6830804781677
 21
363.5887802554564
 31
0.0
  0
LINE
  5
1071
330
2
100
AcDbEntity
  8
0
100
AcDbLine
 10
286.6155840037411
 20
373.5852089180333
 30
0.0
 11
300.1475465722335
 21
360.0532463495251
 31
0.0
  0
ARC
  5
1072
330
2
100
AcDbEntity
  8
0
100
AcDbCircle
 10
295.8079721591714
 20
382.7775970734531
 30
0.0
 40
13.0
100
AcDbArc
 50
179.9999999999479
 51
224.9999999999534
  0
ARC
  5
1073
330
2
100
AcDbEntity
  8
0
100
AcDbCircle
 10
309.3399347276633
 20
369.2456345049455
 30
0.0
 40
8.0
100
AcDbArc
 50
224.9999999999534
 51
269.9999999999478
  0
LINE
  5
1074
330
2
100
AcDbEntity
  8
0
100
AcDbLine
 10
367.2508942113638
 20
357.2352005822447
 30
0.0
 11
365.3374770495431
 21
361.8545982448036
 31
0.0
  0
LINE
  5
1075
330
2
100
AcDbEntity
  8
0
100
AcDbLine
 10
387.8184060818136
 20
377.8027124526565
 30
0.0
 11
383.1990084192586
 21
379.7161296144862
 31
0.0
  0
CIRCLE
  5
1076
330
2
100
AcDbEntity
  8
HOJO
100
AcDbCircle
 10
388.3079721591846
 20
370.7456345049619
 30
0.0
 40
2.5
  0
CIRCLE
  5
1077
330
2
100
AcDbEntity
  8
0
100
AcDbCircle
 10
388.3079721591846
 20
370.7456345049619
 30
0.0
 40
2.0
  0
CIRCLE
  5
1078
330
2
100
AcDbEntity
  8
HOJO
100
AcDbCircle
 10
283.3079721592573
 20
447.7456345050611
 30
0.0
 40
2.5
  0
CIRCLE
  5
1079
330
2
100
AcDbEntity
  8
0
100
AcDbCircle
 10
283.3079721592573
 20
447.7456345050611
 30
0.0
 40
2.0
  0
LINE
  5
107A
330
2
100
AcDbEntity
  8
CENTER
100
AcDbLine
 10
283.3079721592523
 20
442.083841703871
 30
0.0
 11
283.3079721592628
 21
453.4074273062511
 31
0.0
  0
LINE
  5
107B
330
2
100
AcDbEntity
  8
CENTER
100
AcDbLine
 10
288.9697649604475
 20
447.7456345050558
 30
0.0
 11
277.6461793580672
 21
447.7456345050662
 31
0.0
  0
LINE
  5
107C
330
2
100
AcDbEntity
  8
0
100
AcDbLine
 10
387.8184060818082
 20
440.6885565571542
 30
0.0
 11
383.1990084192495
 21
438.7751393953337
 31
0.0
  0
LINE
  5
107D
330
2
100
AcDbEntity
  8
0
100
AcDbLine
 10
367.2508942113966
 20
461.2560684276039
 30
0.0
 11
365.3374770495668
 21
456.6366707650492
 31
0.0
  0
LINE
  5
107E
330
2
100
AcDbEntity
  8
0
100
AcDbLine
 10
304.3650501068989
 20
461.2560684275988
 30
0.0
 11
306.2784672687196
 21
456.6366707650399
 31
0.0
  0
LINE
  5
107F
330
2
100
AcDbEntity
  8
0
100
AcDbLine
 10
283.797538236449
 20
440.6885565571871
 30
0.0
 11
288.4169358990041
 21
438.7751393953573
 31
0.0
  0
LINE
  5
1080
330
2
100
AcDbEntity
  8
0
100
AcDbLine
 10
283.7975382364541
 20
377.8027124526894
 30
0.0
 11
288.4169358990131
 21
379.7161296145099
 31
0.0
  0
LINE
  5
1081
330
2
100
AcDbEntity
  8
0
100
AcDbLine
 10
304.3650501068662
 20
357.2352005822396
 30
0.0
 11
306.2784672686955
 21
361.8545982447944
 31
0.0
  0
ARC
  5
1082
330
2
100
AcDbEntity
  8
0
100
AcDbCircle
 10
335.8079721593096
 20
599.2456345049188
 30
0.0
 40
250.0
100
AcDbArc
 50
265.4117542407429
 51
274.5882457591524
  0
ARC
  5
1083
330
2
100
AcDbEntity
  8
0
 48
0.5
100
AcDbCircle
 10
385.8079721590891
 20
359.2456345048725
 30
0.0
 40
10.0
100
AcDbArc
 50
269.9999999999478
 51
359.9999999999478
  0
LINE
  5
1084
330
2
100
AcDbEntity
  8
0
 48
0.5
100
AcDbLine
 10
385.8079721590799
 20
349.2456345048724
 30
0.0
 11
375.8079721590754
 21
349.2456345048818
 31
0.0
  0
ARC
  5
1085
330
2
100
AcDbEntity
  8
0
100
AcDbCircle
 10
375.8079721590831
 20
357.2456345048822
 30
0.0
 40
8.0
100
AcDbArc
 50
261.1083543197433
 51
269.9999999999478
  0
ARC
  5
1086
330
2
100
AcDbEntity
  8
0
100
AcDbCircle
 10
362.2061351326576
 20
270.3031821038452
 30
0.0
 40
80.0
100
AcDbArc
 50
81.10835431974335
 51
94.58824575915246
  0
LINE
  5
1087
330
2
100
AcDbEntity
  8
0
 48
0.5
100
AcDbLine
 10
395.8079721590891
 20
359.2456345048633
 30
0.0
 11
395.8079721590982
 21
369.2456345048674
 31
0.0
  0
ARC
  5
1088
330
2
100
AcDbEntity
  8
0
100
AcDbCircle
 10
387.8079721590977
 20
369.2456345048747
 30
0.0
 40
8.0
100
AcDbArc
 50
359.9999999999478
 51
8.891645680153569
  0
ARC
  5
1089
330
2
100
AcDbEntity
  8
0
100
AcDbCircle
 10
474.7504245601597
 20
382.8474715311399
 30
0.0
 40
80.0
100
AcDbArc
 50
175.4117542407342
 51
188.8916456801534
  0
LINE
  5
108A
330
2
100
AcDbEntity
  8
0
 48
0.5
100
AcDbLine
 10
286.4479721591403
 20
349.2456345049642
 30
0.0
 11
295.80797215908
 21
349.2456345049556
 31
0.0
  0
ARC
  5
108B
330
2
100
AcDbEntity
  8
0
 48
0.5
100
AcDbCircle
 10
286.4479721591494
 20
359.2456345049642
 30
0.0
 40
10.0
100
AcDbArc
 50
179.9999999999479
 51
269.9999999999478
  0
ARC
  5
108C
330
2
100
AcDbEntity
  8
0
100
AcDbCircle
 10
295.8079721590877
 20
357.2456345049559
 30
0.0
 40
8.0
100
AcDbArc
 50
269.9999999999478
 51
278.8916456801511
  0
ARC
  5
108D
330
2
100
AcDbEntity
  8
0
100
AcDbCircle
 10
309.4098091853522
 20
270.303182103894
 30
0.0
 40
80.0
100
AcDbArc
 50
85.41175424074296
 51
98.89164568015118
  0
ARC
  5
108E
330
2
100
AcDbEntity
  8
0
 48
0.5
100
AcDbCircle
 10
385.8079721591814
 20
459.2456345048756
 30
0.0
 40
10.0
100
AcDbArc
 50
359.9999999999478
 51
89.99999999994789
  0
LINE
  5
108F
330
2
100
AcDbEntity
  8
0
 48
0.5
100
AcDbLine
 10
385.8079721591905
 20
469.2456345048756
 30
0.0
 11
375.8079721591864
 21
469.2456345048847
 31
0.0
  0
ARC
  5
1090
330
2
100
AcDbEntity
  8
0
100
AcDbCircle
 10
375.8079721591791
 20
461.2456345048843
 30
0.0
 40
8.0
100
AcDbArc
 50
89.99999999994789
 51
98.89164568015118
  0
ARC
  5
1091
330
2
100
AcDbEntity
  8
0
100
AcDbCircle
 10
362.2061351329141
 20
548.1880869059464
 30
0.0
 40
80.0
100
AcDbArc
 50
265.4117542407429
 51
278.8916456801511
  0
LINE
  5
1092
330
2
100
AcDbEntity
  8
0
 48
0.5
100
AcDbLine
 10
395.8079721591814
 20
459.2456345048662
 30
0.0
 11
395.8079721591719
 21
449.2456345048622
 31
0.0
  0
ARC
  5
1093
330
2
100
AcDbEntity
  8
0
100
AcDbCircle
 10
387.8079721591714
 20
449.2456345048696
 30
0.0
 40
8.0
100
AcDbArc
 50
351.1083543197521
 51
359.9999999999478
  0
ARC
  5
1094
330
2
100
AcDbEntity
  8
0
100
AcDbCircle
 10
474.7504245602083
 20
435.643797478444
 30
0.0
 40
80.0
100
AcDbArc
 50
171.1083543197401
 51
184.5882457591504
  0
LINE
  5
1095
330
2
100
AcDbEntity
  8
0
 48
0.5
100
AcDbLine
 10
286.4479721592513
 20
469.2456345049673
 30
0.0
 11
295.8079721591909
 21
469.2456345049585
 31
0.0
  0
ARC
  5
1096
330
2
100
AcDbEntity
  8
0
100
AcDbCircle
 10
295.8079721591836
 20
461.2456345049582
 30
0.0
 40
8.0
100
AcDbArc
 50
81.10835431974335
 51
89.99999999994789
  0
ARC
  5
1097
330
2
100
AcDbEntity
  8
0
100
AcDbCircle
 10
309.4098091856087
 20
548.188086905995
 30
0.0
 40
80.0
100
AcDbArc
 50
261.1083543197433
 51
274.5882457591524
  0
ARC
  5
1098
330
2
100
AcDbEntity
  8
0
100
AcDbCircle
 10
145.8079721591345
 20
409.2456345050967
 30
0.0
 40
250.0
100
AcDbArc
 50
355.411754240734
 51
4.588245759156901
  0
ARC
  5
1099
330
2
100
AcDbEntity
  8
0
100
AcDbCircle
 10
335.807972158959
 20
219.2456345049216
 30
0.0
 40
250.0
100
AcDbArc
 50
85.41175424074296
 51
94.58824575915246
  0
LINE
  5
10C8
330
2
100
AcDbEntity
  8
0
100
AcDbLine
 10
1007.419171748529
 20
854.0907772041981
 30
0.0
 11
1007.34920449556
 21
862.1082302751947
 31
0.0
  0
ARC
  5
10C9
330
2
100
AcDbEntity
  8
0
100
AcDbCircle
 10
1005.349280649432
 20
862.0907772041981
 30
0.0
 40
2.0
100
AcDbArc
 50
0.499999999998063
 51
90.0
  0
LINE
  5
10CA
330
2
100
AcDbEntity
  8
0
100
AcDbLine
 10
984.9818214793401
 20
877.5907772041982
 30
0.0
 11
948.0591717485296
 21
877.5907772041982
 31
0.0
  0
LINE
  5
10CB
330
2
100
AcDbEntity
  8
0
 48
0.5
100
AcDbLine
 10
988.0591717485296
 20
869.0907772041983
 30
0.0
 11
987.5591717485301
 21
869.5907772041982
 31
0.0
  0
LINE
  5
10CC
330
2
100
AcDbEntity
  8
0
100
AcDbLine
 10
904.5591717485297
 20
869.0907772041967
 30
0.0
 11
991.5591717485296
 21
869.0907772041979
 31
0.0
  0
ARC
  5
10CD
330
2
100
AcDbEntity
  8
0
100
AcDbCircle
 10
985.1591717485296
 20
874.7907772041987
 30
0.0
 40
0.3
100
AcDbArc
 50
90.0
 51
180.0
  0
ARC
  5
10CE
330
2
100
AcDbEntity
  8
0
100
AcDbCircle
 10
985.1591717485296
 20
873.3907772041987
 30
0.0
 40
0.3
100
AcDbArc
 50
180.0
 51
270.0
  0
LINE
  5
10CF
330
2
100
AcDbEntity
  8
0
 48
0.5
100
AcDbLine
 10
985.3591717485299
 20
873.0907772041987
 30
0.0
 11
985.5591717485296
 21
872.8907772041988
 31
0.0
  0
LINE
  5
10D0
330
2
100
AcDbEntity
  8
0
 48
0.5
100
AcDbLine
 10
984.8591717485298
 20
874.7907772041987
 30
0.0
 11
984.8591717485298
 21
873.3907772041987
 31
0.0
  0
LINE
  5
10D1
330
2
100
AcDbEntity
  8
0
100
AcDbLine
 10
985.5591717485296
 20
876.5907772041988
 30
0.0
 11
984.9818214793398
 21
877.5907772041987
 31
0.0
  0
LINE
  5
10D2
330
2
100
AcDbEntity
  8
0
100
AcDbLine
 10
985.2591717485294
 20
875.0907772041987
 30
0.0
 11
910.8591717485303
 21
875.0907772041989
 31
0.0
  0
ARC
  5
10D3
330
2
100
AcDbEntity
  8
0
 48
0.5
100
AcDbCircle
 10
985.2591717485294
 20
875.3907772041987
 30
0.0
 40
0.3
100
AcDbArc
 50
270.0
 51
0.0
  0
LINE
  5
10D4
330
2
100
AcDbEntity
  8
0
 48
0.5
100
AcDbLine
 10
985.5591717485296
 20
876.5907772041988
 30
0.0
 11
985.5591717485296
 21
875.3907772041987
 31
0.0
  0
LINE
  5
10D5
330
2
100
AcDbEntity
  8
0
 48
0.5
100
AcDbLine
 10
985.5591717485296
 20
872.8907772041988
 30
0.0
 11
985.5591717485296
 21
869.5907772041987
 31
0.0
  0
LINE
  5
10D6
330
2
100
AcDbEntity
  8
HIDS
  6
SEKKEI_H
 48
0.5
100
AcDbLine
 10
1000.473385310904
 20
864.6765636418244
 30
0.0
 11
996.6449581861573
 21
868.5049907665698
 31
0.0
  0
ARC
  5
10D7
330
2
100
AcDbEntity
  8
HIDS
  6
SEKKEI_H
100
AcDbCircle
 10
995.2307446237838
 20
867.0907772041967
 30
0.0
 40
2.0
100
AcDbArc
 50
44.99999999999097
 51
90.0
  0
ARC
  5
10D8
330
2
100
AcDbEntity
  8
HIDS
  6
SEKKEI_H
 48
0.5
100
AcDbCircle
 10
1001.887598873277
 20
866.090777204198
 30
0.0
 40
2.0
100
AcDbArc
 50
224.9999999999895
 51
270.0
  0
LINE
  5
10D9
330
2
100
AcDbEntity
  8
0
100
AcDbLine
 10
911.1365220177196
 20
877.5907772041982
 30
0.0
 11
948.0591717485296
 21
877.5907772041982
 31
0.0
  0
LINE
  5
10DA
330
2
100
AcDbEntity
  8
0
 48
0.5
100
AcDbLine
 10
908.0591717485297
 20
869.0907772041983
 30
0.0
 11
908.5591717485296
 21
869.5907772041982
 31
0.0
  0
ARC
  5
10DB
330
2
100
AcDbEntity
  8
0
100
AcDbCircle
 10
910.9591717485303
 20
874.7907772041987
 30
0.0
 40
0.3
100
AcDbArc
 50
0.0
 51
90.0
  0
ARC
  5
10DC
330
2
100
AcDbEntity
  8
0
100
AcDbCircle
 10
910.9591717485303
 20
873.3907772041987
 30
0.0
 40
0.3
100
AcDbArc
 50
270.0
 51
0.0
  0
LINE
  5
10DD
330
2
100
AcDbEntity
  8
0
100
AcDbLine
 10
910.7591717485304
 20
873.0907772041987
 30
0.0
 11
985.3591717485299
 21
873.0907772041987
 31
0.0
  0
LINE
  5
10DE
330
2
100
AcDbEntity
  8
0
 48
0.5
100
AcDbLine
 10
910.7591717485304
 20
873.0907772041987
 30
0.0
 11
910.5591717485301
 21
872.8907772041988
 31
0.0
  0
LINE
  5
10DF
330
2
100
AcDbEntity
  8
0
 48
0.5
100
AcDbLine
 10
911.2591717485305
 20
874.7907772041987
 30
0.0
 11
911.2591717485305
 21
873.3907772041987
 31
0.0
  0
LINE
  5
10E0
330
2
100
AcDbEntity
  8
0
100
AcDbLine
 10
910.5591717485301
 20
876.5907772041988
 30
0.0
 11
911.1365220177196
 21
877.5907772041987
 31
0.0
  0
ARC
  5
10E1
330
2
100
AcDbEntity
  8
0
 48
0.5
100
AcDbCircle
 10
910.8591717485303
 20
875.3907772041987
 30
0.0
 40
0.3
100
AcDbArc
 50
180.0
 51
270.0
  0
LINE
  5
10E2
330
2
100
AcDbEntity
  8
0
 48
0.5
100
AcDbLine
 10
910.5591717485301
 20
876.5907772041988
 30
0.0
 11
910.5591717485301
 21
875.3907772041987
 31
0.0
  0
LINE
  5
10E3
330
2
100
AcDbEntity
  8
0
 48
0.5
100
AcDbLine
 10
910.5591717485301
 20
872.8907772041988
 30
0.0
 11
910.5591717485301
 21
869.5907772041987
 31
0.0
  0
LINE
  5
10E4
330
2
100
AcDbEntity
  8
0
 48
0.3
100
AcDbLine
 10
890.0591717485307
 20
864.090777204198
 30
0.0
 11
1005.349280649432
 21
864.090777204198
 31
0.0
  0
LINE
  5
10E5
330
2
100
AcDbEntity
  8
0
100
AcDbLine
 10
888.0591717485302
 20
854.0907772041981
 30
0.0
 11
1007.419171748529
 21
854.0907772041981
 31
0.0
  0
LINE
  5
10E6
330
2
100
AcDbEntity
  8
HIDS
  6
SEKKEI_H
 48
0.5
100
AcDbLine
 10
895.6449581861564
 20
864.6765636418244
 30
0.0
 11
899.4733853109025
 21
868.5049907665698
 31
0.0
  0
ARC
  5
10E7
330
2
100
AcDbEntity
  8
HIDS
  6
SEKKEI_H
100
AcDbCircle
 10
900.8875988732754
 20
867.0907772041967
 30
0.0
 40
2.0
100
AcDbArc
 50
90.0
 51
135.000000000009
  0
ARC
  5
10E8
330
2
100
AcDbEntity
  8
HIDS
  6
SEKKEI_H
 48
0.5
100
AcDbCircle
 10
894.230744623783
 20
866.090777204198
 30
0.0
 40
2.0
100
AcDbArc
 50
270.0
 51
315.0000000000104
  0
ARC
  5
10E9
330
2
100
AcDbEntity
  8
0
 48
0.3
100
AcDbCircle
 10
890.1290628476283
 20
862.0907772041981
 30
0.0
 40
2.0
100
AcDbArc
 50
90.0
 51
179.4999999999954
  0
LINE
  5
10EA
330
2
100
AcDbEntity
  8
0
100
AcDbLine
 10
888.1291390015
 20
862.1082302751949
 30
0.0
 11
888.0591717485302
 21
854.0907772041981
 31
0.0
  0
LINE
  5
10EB
330
2
100
AcDbEntity
  8
0
100
AcDbLine
 10
985.5591717485296
 20
876.5907772041988
 30
0.0
 11
910.5591717485301
 21
876.5907772041988
 31
0.0
  0
LINE
  5
10EC
330
2
100
AcDbEntity
  8
0
100
AcDbLine
 10
985.5591717485296
 20
872.8907772041988
 30
0.0
 11
910.5591717485301
 21
872.8907772041988
 31
0.0
  0
LINE
  5
10ED
330
2
100
AcDbEntity
  8
0
100
AcDbLine
 10
987.5591717485301
 20
869.5907772041982
 30
0.0
 11
908.5591717485296
 21
869.5907772041982
 31
0.0
  0
LINE
  5
10F4
330
2
100
AcDbEntity
  8
0
100
AcDbLine
 10
898.0591717485307
 20
862.590777204198
 30
0.0
 11
898.0591717485307
 21
854.0907772041993
 31
0.0
  0
LINE
  5
10F5
330
2
100
AcDbEntity
  8
0
100
AcDbLine
 10
908.0591717485319
 20
862.590777204198
 30
0.0
 11
908.0591717485319
 21
854.0907772041991
 31
0.0
  0
LINE
  5
10F6
330
2
100
AcDbEntity
  8
0
100
AcDbLine
 10
928.0605634351134
 20
862.590777204198
 30
0.0
 11
928.0605634351134
 21
854.0907772041986
 31
0.0
  0
LINE
  5
10F7
330
2
100
AcDbEntity
  8
0
100
AcDbLine
 10
968.0577800619433
 20
862.590777204198
 30
0.0
 11
968.0577800619433
 21
854.0907772041974
 31
0.0
  0
LINE
  5
10F8
330
2
100
AcDbEntity
  8
0
100
AcDbLine
 10
988.0591717485273
 20
862.590777204198
 30
0.0
 11
988.0591717485273
 21
854.0907772041968
 31
0.0
  0
LINE
  5
10F9
330
2
100
AcDbEntity
  8
0
100
AcDbLine
 10
998.0591717485316
 20
862.590777204198
 30
0.0
 11
998.0591717485316
 21
854.0907772041967
 31
0.0
  0
LINE
  5
10FA
330
2
100
AcDbEntity
  8
0
 48
0.3
100
AcDbLine
 10
904.5591717485297
 20
873.5907772041981
 30
0.0
 11
891.5591717485296
 21
873.5907772041981
 31
0.0
  0
LINE
  5
10FB
330
2
100
AcDbEntity
  8
0
 48
0.3
100
AcDbLine
 10
903.6931463447437
 20
874.090777204198
 30
0.0
 11
892.4251971523146
 21
874.090777204198
 31
0.0
  0
LINE
  5
10FC
330
2
100
AcDbEntity
  8
0
 48
0.3
100
AcDbLine
 10
891.5591717485296
 20
873.5907772041981
 30
0.0
 11
892.4251971523146
 21
874.090777204198
 31
0.0
  0
LINE
  5
10FD
330
2
100
AcDbEntity
  8
0
 48
0.3
100
AcDbLine
 10
891.5591717485296
 20
873.5907772041981
 30
0.0
 11
891.5591717485296
 21
866.090777204198
 31
0.0
  0
LINE
  5
10FE
330
2
100
AcDbEntity
  8
0
 48
0.3
100
AcDbLine
 10
904.5591717485297
 20
873.5907772041974
 30
0.0
 11
903.6931463447452
 21
874.0907772041976
 31
0.0
  0
LINE
  5
10FF
330
2
100
AcDbEntity
  8
0
 48
0.3
100
AcDbLine
 10
904.5591717485297
 20
873.590777204197
 30
0.0
 11
904.5591717485297
 21
866.090777204198
 31
0.0
  0
LINE
  5
1100
330
2
100
AcDbEntity
  8
0
 48
0.3
100
AcDbLine
 10
1004.559171748529
 20
873.5907772041981
 30
0.0
 11
991.5591717485296
 21
873.5907772041981
 31
0.0
  0
LINE
  5
1101
330
2
100
AcDbEntity
  8
0
 48
0.3
100
AcDbLine
 10
1003.693146344743
 20
874.090777204198
 30
0.0
 11
992.4251971523146
 21
874.090777204198
 31
0.0
  0
LINE
  5
1102
330
2
100
AcDbEntity
  8
0
 48
0.3
100
AcDbLine
 10
991.5591717485296
 20
873.5907772041981
 30
0.0
 11
992.4251971523146
 21
874.090777204198
 31
0.0
  0
LINE
  5
1103
330
2
100
AcDbEntity
  8
0
 48
0.3
100
AcDbLine
 10
991.5591717485296
 20
873.5907772041981
 30
0.0
 11
991.5591717485296
 21
866.090777204198
 31
0.0
  0
LINE
  5
1104
330
2
100
AcDbEntity
  8
0
 48
0.3
100
AcDbLine
 10
1004.559171748529
 20
873.5907772041974
 30
0.0
 11
1003.693146344745
 21
874.0907772041976
 31
0.0
  0
LINE
  5
1105
330
2
100
AcDbEntity
  8
0
 48
0.3
100
AcDbLine
 10
1004.559171748529
 20
873.590777204197
 30
0.0
 11
1004.559171748529
 21
866.090777204198
 31
0.0
  0
LINE
  5
1106
330
2
100
AcDbEntity
  8
CENTER
 48
0.5
100
AcDbLine
 10
898.0591717485296
 20
877.0907772041979
 30
0.0
 11
898.0591717485296
 21
858.090777204198
 31
0.0
  0
LINE
  5
1107
330
2
100
AcDbEntity
  8
CENTER
 48
0.5
100
AcDbLine
 10
998.0591717485296
 20
877.0907772041979
 30
0.0
 11
998.0591717485296
 21
858.090777204198
 31
0.0
  0
LINE
  5
1116
330
2
100
AcDbEntity
  8
CENTER
100
AcDbLine
 10
1011.767238850136
 20
345.5375674033807
 30
0.0
 11
884.3511046469242
 21
472.9537016065914
 31
0.0
  0
LINE
  5
1117
330
2
100
AcDbEntity
  8
CENTER
100
AcDbLine
 10
884.3511046469251
 20
345.5375674033802
 30
0.0
 11
1011.767238850135
 21
472.953701606592
 31
0.0
  0
LINE
  5
111A
330
2
100
AcDbEntity
  8
HIDS
  6
SEKKEI_H
100
AcDbLine
 10
900.8875988732754
 20
869.0907772041967
 30
0.0
 11
904.5591717485297
 21
869.0907772041967
 31
0.0
  0
LINE
  5
111B
330
2
100
AcDbEntity
  8
HIDS
  6
SEKKEI_H
100
AcDbLine
 10
991.5591717485296
 20
869.0907772041979
 30
0.0
 11
995.2307446237838
 21
869.0907772041967
 31
0.0
  0
LINE
  5
1120
330
2
100
AcDbEntity
  8
0
100
AcDbLine
 10
385.8079721592419
 20
455.7815328897379
 30
0.0
 11
388.8079721592418
 21
457.5135836973068
 31
0.0
  0
LINE
  5
1121
330
2
100
AcDbEntity
  8
0
100
AcDbLine
 10
382.8079721592418
 20
460.9776853124444
 30
0.0
 11
385.8079721592419
 21
462.7097361200133
 31
0.0
  0
CIRCLE
  5
1122
330
2
100
AcDbEntity
  8
0
100
AcDbCircle
 10
385.8079721592419
 20
459.2456345048756
 30
0.0
 40
6.5
  0
LINE
  5
1123
330
2
100
AcDbEntity
  8
0
100
AcDbLine
 10
388.8079721592418
 20
460.9776853124444
 30
0.0
 11
385.8079721592419
 21
462.7097361200132
 31
0.0
  0
LINE
  5
1124
330
2
100
AcDbEntity
  8
0
100
AcDbLine
 10
385.8079721592419
 20
455.781532889738
 30
0.0
 11
382.8079721592418
 21
457.5135836973067
 31
0.0
  0
LINE
  5
1125
330
2
100
AcDbEntity
  8
0
100
AcDbLine
 10
388.8079721592418
 20
457.5135836973069
 30
0.0
 11
388.8079721592418
 21
460.9776853124444
 31
0.0
  0
LINE
  5
1126
330
2
100
AcDbEntity
  8
0
100
AcDbLine
 10
382.8079721592418
 20
457.5135836973066
 30
0.0
 11
382.8079721592418
 21
460.9776853124444
 31
0.0
  0
CIRCLE
  5
1127
330
2
100
AcDbEntity
  8
0
100
AcDbCircle
 10
385.8079721592419
 20
459.2456345048756
 30
0.0
 40
5.633974596215466
  0
CIRCLE
  5
1128
330
2
100
AcDbEntity
  8
0
100
AcDbCircle
 10
385.8079721592419
 20
459.2456345048756
 30
0.0
 40
7.25
  0
LINE
  5
1129
330
2
100
AcDbEntity
  8
0
100
AcDbLine
 10
285.8079721592419
 20
455.7815328898305
 30
0.0
 11
288.8079721592418
 21
457.5135836973995
 31
0.0
  0
LINE
  5
112A
330
2
100
AcDbEntity
  8
0
100
AcDbLine
 10
282.8079721592418
 20
460.977685312537
 30
0.0
 11
285.8079721592419
 21
462.709736120106
 31
0.0
  0
CIRCLE
  5
112B
330
2
100
AcDbEntity
  8
0
100
AcDbCircle
 10
285.8079721592419
 20
459.2456345049682
 30
0.0
 40
6.5
  0
LINE
  5
112C
330
2
100
AcDbEntity
  8
0
100
AcDbLine
 10
288.8079721592418
 20
460.977685312537
 30
0.0
 11
285.8079721592419
 21
462.7097361201059
 31
0.0
  0
LINE
  5
112D
330
2
100
AcDbEntity
  8
0
100
AcDbLine
 10
285.8079721592419
 20
455.7815328898306
 30
0.0
 11
282.8079721592418
 21
457.5135836973993
 31
0.0
  0
LINE
  5
112E
330
2
100
AcDbEntity
  8
0
100
AcDbLine
 10
288.8079721592418
 20
457.5135836973996
 30
0.0
 11
288.8079721592418
 21
460.9776853125372
 31
0.0
  0
LINE
  5
112F
330
2
100
AcDbEntity
  8
0
100
AcDbLine
 10
282.8079721592418
 20
457.5135836973992
 30
0.0
 11
282.8079721592418
 21
460.977685312537
 31
0.0
  0
CIRCLE
  5
1130
330
2
100
AcDbEntity
  8
0
100
AcDbCircle
 10
285.8079721592419
 20
459.2456345049682
 30
0.0
 40
5.633974596215466
  0
CIRCLE
  5
1131
330
2
100
AcDbEntity
  8
0
100
AcDbCircle
 10
285.8079721592419
 20
459.2456345049682
 30
0.0
 40
7.25
  0
LINE
  5
1132
330
2
100
AcDbEntity
  8
0
100
AcDbLine
 10
285.8079721591495
 20
355.7815328898943
 30
0.0
 11
288.8079721591491
 21
357.5135836974633
 31
0.0
  0
LINE
  5
1133
330
2
100
AcDbEntity
  8
0
100
AcDbLine
 10
282.8079721591496
 20
360.9776853126009
 30
0.0
 11
285.8079721591495
 21
362.7097361201698
 31
0.0
  0
CIRCLE
  5
1134
330
2
100
AcDbEntity
  8
0
100
AcDbCircle
 10
285.8079721591495
 20
359.245634505032
 30
0.0
 40
6.5
  0
LINE
  5
1135
330
2
100
AcDbEntity
  8
0
100
AcDbLine
 10
288.8079721591491
 20
360.9776853126009
 30
0.0
 11
285.8079721591495
 21
362.7097361201697
 31
0.0
  0
LINE
  5
1136
330
2
100
AcDbEntity
  8
0
100
AcDbLine
 10
285.8079721591495
 20
355.7815328898945
 30
0.0
 11
282.8079721591496
 21
357.5135836974632
 31
0.0
  0
LINE
  5
1137
330
2
100
AcDbEntity
  8
0
100
AcDbLine
 10
288.8079721591491
 20
357.5135836974634
 30
0.0
 11
288.8079721591491
 21
360.977685312601
 31
0.0
  0
LINE
  5
1138
330
2
100
AcDbEntity
  8
0
100
AcDbLine
 10
282.8079721591496
 20
357.5135836974631
 30
0.0
 11
282.8079721591496
 21
360.9776853126009
 31
0.0
  0
CIRCLE
  5
1139
330
2
100
AcDbEntity
  8
0
100
AcDbCircle
 10
285.8079721591495
 20
359.245634505032
 30
0.0
 40
5.633974596215466
  0
CIRCLE
  5
113A
330
2
100
AcDbEntity
  8
0
100
AcDbCircle
 10
285.8079721591495
 20
359.245634505032
 30
0.0
 40
7.25
  0
LINE
  5
113B
330
2
100
AcDbEntity
  8
0
100
AcDbLine
 10
385.8079721592187
 20
355.7815328897377
 30
0.0
 11
388.8079721592182
 21
357.5135836973067
 31
0.0
  0
LINE
  5
113C
330
2
100
AcDbEntity
  8
0
100
AcDbLine
 10
382.8079721592187
 20
360.9776853124443
 30
0.0
 11
385.8079721592187
 21
362.7097361200132
 31
0.0
  0
CIRCLE
  5
113D
330
2
100
AcDbEntity
  8
0
100
AcDbCircle
 10
385.8079721592187
 20
359.2456345048754
 30
0.0
 40
6.5
  0
LINE
  5
113E
330
2
100
AcDbEntity
  8
0
100
AcDbLine
 10
388.8079721592182
 20
360.9776853124443
 30
0.0
 11
385.8079721592187
 21
362.7097361200131
 31
0.0
  0
LINE
  5
113F
330
2
100
AcDbEntity
  8
0
100
AcDbLine
 10
385.8079721592187
 20
355.7815328897378
 30
0.0
 11
382.8079721592187
 21
357.5135836973066
 31
0.0
  0
LINE
  5
1140
330
2
100
AcDbEntity
  8
0
100
AcDbLine
 10
388.8079721592182
 20
357.5135836973068
 30
0.0
 11
388.8079721592182
 21
360.9776853124444
 31
0.0
  0
LINE
  5
1141
330
2
100
AcDbEntity
  8
0
100
AcDbLine
 10
382.8079721592187
 20
357.5135836973065
 30
0.0
 11
382.8079721592187
 21
360.9776853124443
 31
0.0
  0
CIRCLE
  5
1142
330
2
100
AcDbEntity
  8
0
100
AcDbCircle
 10
385.8079721592187
 20
359.2456345048754
 30
0.0
 40
5.633974596215466
  0
CIRCLE
  5
1143
330
2
100
AcDbEntity
  8
0
100
AcDbCircle
 10
385.8079721592187
 20
359.2456345048754
 30
0.0
 40
7.25
  0
LINE
  5
114C
330
2
100
AcDbEntity
  8
0
 48
0.3
100
AcDbLine
 10
905.3091717485298
 20
866.0907772041982
 30
0.0
 11
890.8091717485296
 21
866.090777204198
 31
0.0
  0
LINE
  5
114D
330
2
100
AcDbEntity
  8
0
 48
0.3
100
AcDbLine
 10
890.8091717485296
 20
866.090777204198
 30
0.0
 11
890.8091717485296
 21
864.090777204198
 31
0.0
  0
LINE
  5
114E
330
2
100
AcDbEntity
  8
0
 48
0.3
100
AcDbLine
 10
905.3091717485298
 20
866.0907772041982
 30
0.0
 11
905.3091717485298
 21
864.0907772041982
 31
0.0
  0
LINE
  5
114F
330
2
100
AcDbEntity
  8
0
100
AcDbLine
 10
905.3091717485298
 20
864.0907772041982
 30
0.0
 11
890.8091717485296
 21
864.090777204198
 31
0.0
  0
LINE
  5
1150
330
2
100
AcDbEntity
  8
0
 48
0.3
100
AcDbLine
 10
1005.309171748529
 20
866.0907772041982
 30
0.0
 11
990.8091717485296
 21
866.090777204198
 31
0.0
  0
LINE
  5
1151
330
2
100
AcDbEntity
  8
0
 48
0.3
100
AcDbLine
 10
990.8091717485296
 20
866.090777204198
 30
0.0
 11
990.8091717485296
 21
864.090777204198
 31
0.0
  0
LINE
  5
1152
330
2
100
AcDbEntity
  8
0
 48
0.3
100
AcDbLine
 10
1005.309171748529
 20
866.0907772041982
 30
0.0
 11
1005.309171748529
 21
864.0907772041982
 31
0.0
  0
LINE
  5
1153
330
2
100
AcDbEntity
  8
0
100
AcDbLine
 10
1005.309171748529
 20
864.0907772041982
 30
0.0
 11
990.8091717485296
 21
864.090777204198
 31
0.0
  0
LINE
  5
1157
330
2
100
AcDbEntity
  8
CENTER
100
AcDbLine
 10
375.8284731738292
 20
459.2456345048847
 30
0.0
 11
395.7874711446686
 21
459.2456345048661
 31
0.0
  0
LINE
  5
1158
330
2
100
AcDbEntity
  8
CENTER
100
AcDbLine
 10
385.8079721592328
 20
449.2661355194557
 30
0.0
 11
385.8079721592514
 21
469.2251334902953
 31
0.0
  0
LINE
  5
1159
330
2
100
AcDbEntity
  8
CENTER
100
AcDbLine
 10
375.8284731738056
 20
359.2456345048846
 30
0.0
 11
395.787471144645
 21
359.245634504866
 31
0.0
  0
LINE
  5
115A
330
2
100
AcDbEntity
  8
CENTER
100
AcDbLine
 10
385.8079721592091
 20
349.2661355194556
 30
0.0
 11
385.8079721592277
 21
369.2251334902951
 31
0.0
  0
LINE
  5
115B
330
2
100
AcDbEntity
  8
CENTER
100
AcDbLine
 10
275.8284731737365
 20
359.2456345050412
 30
0.0
 11
295.7874711445758
 21
359.2456345050226
 31
0.0
  0
LINE
  5
115C
330
2
100
AcDbEntity
  8
CENTER
100
AcDbLine
 10
285.80797215914
 20
349.2661355196122
 30
0.0
 11
285.8079721591586
 21
369.2251334904517
 31
0.0
  0
LINE
  5
115D
330
2
100
AcDbEntity
  8
CENTER
100
AcDbLine
 10
388.3079721591796
 20
365.0838417037718
 30
0.0
 11
388.30797215919
 21
376.407427306152
 31
0.0
  0
LINE
  5
115E
330
2
100
AcDbEntity
  8
CENTER
100
AcDbLine
 10
393.9697649603747
 20
370.7456345049567
 30
0.0
 11
382.6461793579944
 21
370.7456345049671
 31
0.0
  0
LINE
  5
115F
330
2
100
AcDbEntity
  8
0
100
AcDbLine
 10
230.3079721591986
 20
469.7456345049857
 30
0.0
 11
244.3079721591987
 21
469.7456345049857
 31
0.0
  0
ARC
  5
1160
330
2
100
AcDbEntity
  8
0
100
AcDbCircle
 10
244.3079721591987
 20
467.7456345049858
 30
0.0
 40
2.0
100
AcDbArc
 50
0.0
 51
90.0
  0
LINE
  5
1161
330
2
100
AcDbEntity
  8
0
100
AcDbLine
 10
230.3079721591986
 20
348.7456345049865
 30
0.0
 11
244.3079721591987
 21
348.7456345049865
 31
0.0
  0
ARC
  5
1162
330
2
100
AcDbEntity
  8
0
100
AcDbCircle
 10
244.3079721591987
 20
350.7456345049865
 30
0.0
 40
2.0
100
AcDbArc
 50
270.0
 51
0.0
  0
LINE
  5
1163
330
2
100
AcDbEntity
  8
0
100
AcDbLine
 10
1039.559171748527
 20
469.7456345049856
 30
0.0
 11
1053.559171748527
 21
469.7456345049857
 31
0.0
  0
ARC
  5
1164
330
2
100
AcDbEntity
  8
0
100
AcDbCircle
 10
1039.559171748527
 20
467.7456345049857
 30
0.0
 40
2.0
100
AcDbArc
 50
90.0
 51
180.0
  0
LINE
  5
1165
330
2
100
AcDbEntity
  8
0
100
AcDbLine
 10
1039.559171748527
 20
348.7456345049865
 30
0.0
 11
1053.559171748527
 21
348.7456345049864
 31
0.0
  0
ARC
  5
1166
330
2
100
AcDbEntity
  8
0
100
AcDbCircle
 10
1039.559171748527
 20
350.7456345049865
 30
0.0
 40
2.0
100
AcDbArc
 50
180.0
 51
270.0
  0
ARC
  5
1252
330
2
100
AcDbEntity
  8
0
100
AcDbCircle
 10
1029.085082820361
 20
859.5907772042036
 30
0.0
 40
8.0
100
AcDbArc
 50
270.0
 51
358.5000000000103
  0
LINE
  5
1253
330
2
100
AcDbEntity
  8
0
100
AcDbLine
 10
1029.085082820363
 20
851.5907772042035
 30
0.0
 11
1026.981642361291
 21
851.590777204203
 31
0.0
  0
ARC
  5
1254
330
2
100
AcDbEntity
  8
0
100
AcDbCircle
 10
1026.981642361291
 20
848.5907772042031
 30
0.0
 40
3.0
100
AcDbArc
 50
90.0
 51
178.5000000000038
  0
LINE
  5
1255
330
2
100
AcDbEntity
  8
0
100
AcDbLine
 10
1020.979585606346
 20
845.590777204203
 30
0.0
 11
1010.465858973914
 21
845.5907772042028
 31
0.0
  0
ARC
  5
1256
330
2
100
AcDbEntity
  8
0
100
AcDbCircle
 10
1010.465858973914
 20
848.5907772042027
 30
0.0
 40
3.0
100
AcDbArc
 50
180.5000000000045
 51
270.0
  0
LINE
  5
1257
330
2
100
AcDbEntity
  8
0
100
AcDbLine
 10
1024.059171748527
 20
848.5907772042031
 30
0.0
 11
1024.059171748527
 21
848.5907772042031
 31
0.0
  0
LINE
  5
1258
330
2
100
AcDbEntity
  8
0
100
AcDbLine
 10
1024.059171748527
 20
786.5907772041967
 30
0.0
 11
1024.059171748527
 21
786.5907772041967
 31
0.0
  0
LINE
  5
1259
330
2
100
AcDbEntity
  8
0
100
AcDbLine
 10
1023.323909542043
 20
823.5122463592743
 30
0.0
 11
1023.982670386365
 21
848.6693080491265
 31
0.0
  0
ARC
  5
125A
330
2
100
AcDbEntity
  8
0
100
AcDbCircle
 10
1020.979585606346
 20
848.5907772042031
 30
0.0
 40
3.0
100
AcDbArc
 50
270.0
 51
358.5000000000038
  0
ARC
  5
125B
330
2
100
AcDbEntity
  8
0
100
AcDbCircle
 10
1020.324937567116
 20
823.5907772041979
 30
0.0
 40
3.0
100
AcDbArc
 50
270.0
 51
358.5000000000038
  0
ARC
  5
125C
330
2
100
AcDbEntity
  8
0
100
AcDbCircle
 10
1029.085082820361
 20
775.5907772041962
 30
0.0
 40
8.0
100
AcDbArc
 50
1.499999999989688
 51
90.0
  0
LINE
  5
125D
330
2
100
AcDbEntity
  8
0
100
AcDbLine
 10
1029.085082820363
 20
783.5907772041962
 30
0.0
 11
1026.981642361291
 21
783.5907772041966
 31
0.0
  0
ARC
  5
125E
330
2
100
AcDbEntity
  8
0
100
AcDbCircle
 10
1026.981642361291
 20
786.5907772041967
 30
0.0
 40
3.0
100
AcDbArc
 50
181.4999999999962
 51
269.9999999999739
  0
LINE
  5
125F
330
2
100
AcDbEntity
  8
0
100
AcDbLine
 10
1020.979585606346
 20
789.5907772041966
 30
0.0
 11
1010.465858973914
 21
789.5907772041969
 31
0.0
  0
ARC
  5
1260
330
2
100
AcDbEntity
  8
0
100
AcDbCircle
 10
1010.465858973914
 20
786.5907772041969
 30
0.0
 40
3.0
100
AcDbArc
 50
90.0
 51
179.4999999999954
  0
LINE
  5
1261
330
2
100
AcDbEntity
  8
0
100
AcDbLine
 10
1024.059171748527
 20
786.5907772041967
 30
0.0
 11
1024.059171748527
 21
786.5907772041967
 31
0.0
  0
LINE
  5
1262
330
2
100
AcDbEntity
  8
0
100
AcDbLine
 10
1023.323909542043
 20
811.6693080491254
 30
0.0
 11
1023.982670386365
 21
786.5122463592731
 31
0.0
  0
ARC
  5
1263
330
2
100
AcDbEntity
  8
0
100
AcDbCircle
 10
1020.979585606346
 20
786.5907772041967
 30
0.0
 40
3.0
100
AcDbArc
 50
1.499999999996204
 51
90.0
  0
ARC
  5
1264
330
2
100
AcDbEntity
  8
0
100
AcDbCircle
 10
1020.324937567116
 20
811.5907772042017
 30
0.0
 40
3.0
100
AcDbArc
 50
1.499999999996204
 51
90.0
  0
TEXT
  5
1E89
330
2
100
AcDbEntity
  8
TITLE
100
AcDbText
 10
582.1864921232597
 20
848.7938064099354
 30
0.0
 40
10.0
  1
AFCZ28L-3~5M2000K75
100
AcDbText
  0
TEXT
  5
1E8A
330
2
100
AcDbEntity
  8
TITLE
100
AcDbText
 10
582.1864921232597
 20
833.2332091406888
 30
0.0
 40
10.0
  1
AFCZ28L-3~5L2000K75
100
AcDbText
  0
LINE
  5
2130
330
2
100
AcDbEntity
  8
0
100
AcDbLine
 10
1053.559171748527
 20
469.2456345049879
 30
0.0
 11
1053.559171748527
 21
349.2456345049861
 31
0.0
  0
LINE
  5
242D
330
2
100
AcDbEntity
  8
0
100
AcDbLine
 10
1053.559171748527
 20
469.2456345049879
 30
0.0
 11
1053.559171748527
 21
349.2456345049861
 31
0.0
  0
LINE
  5
2687
330
2
100
AcDbEntity
  8
0
100
AcDbLine
 10
1053.559171748527
 20
469.2456345049879
 30
0.0
 11
1053.559171748527
 21
349.2456345049861
 31
0.0
  0
LINE
  5
29B8
330
2
100
AcDbEntity
  8
0
100
AcDbLine
 10
1053.559171748527
 20
469.2456345049861
 30
0.0
 11
1053.559171748527
 21
349.2456345049861
 31
0.0
  0
LINE
  5
2A85
330
2
100
AcDbEntity
  8
0
100
AcDbLine
 10
230.3079721591984
 20
469.2456345049861
 30
0.0
 11
230.3079721591984
 21
349.2456345049861
 31
0.0
  0
LINE
  5
2D49
330
2
100
AcDbEntity
  8
0
100
AcDbLine
 10
933.0591717485297
 20
729.5907772041957
 30
0.0
 11
963.0591717485293
 21
729.5907772041954
 31
0.0
  0
LINE
  5
2D4A
330
2
100
AcDbEntity
  8
0
100
AcDbLine
 10
963.6365220177193
 20
730.5907772041956
 30
0.0
 11
963.0591717485296
 21
729.5907772041957
 31
0.0
  0
LINE
  5
2D4B
330
2
100
AcDbEntity
  8
0
100
AcDbLine
 10
962.0591717485293
 20
729.5907772041954
 30
0.0
 11
962.0591717485281
 21
684.5907772041956
 31
0.0
  0
LINE
  5
2D4C
330
2
100
AcDbEntity
  8
0
100
AcDbLine
 10
934.0591717485297
 20
729.5907772041957
 30
0.0
 11
934.0591717485299
 21
724.5907772041956
 31
0.0
  0
LINE
  5
2D4D
330
2
100
AcDbEntity
  8
0
100
AcDbLine
 10
934.5591717485296
 20
684.5907772041956
 30
0.0
 11
962.0591717485279
 21
684.5907772041957
 31
0.0
  0
LINE
  5
2D4E
330
2
100
AcDbEntity
  8
0
100
AcDbLine
 10
969.2704966139343
 20
730.5907772041956
 30
0.0
 11
926.8478468831245
 21
730.5907772041956
 31
0.0
  0
LINE
  5
2D4F
330
2
100
AcDbEntity
  8
0
100
AcDbLine
 10
932.4818214793392
 20
730.5907772041956
 30
0.0
 11
933.0591717485292
 21
729.5907772041957
 31
0.0
  0
LINE
  5
2D50
330
2
100
AcDbEntity
  8
0
100
AcDbLine
 10
969.7035093158264
 20
730.8407772041956
 30
0.0
 11
969.7912225560981
 21
730.9927009928422
 31
0.0
  0
ARC
  5
2D51
330
2
100
AcDbEntity
  8
0
100
AcDbCircle
 10
969.2704966139343
 20
731.0907772041956
 30
0.0
 40
0.5
100
AcDbArc
 50
270.0
 51
330.0000000000084
  0
ARC
  5
2D52
330
2
100
AcDbEntity
  8
0
100
AcDbCircle
 10
968.0591717485292
 20
731.9927009928423
 30
0.0
 40
2.0
100
AcDbArc
 50
330.0000000000084
 51
348.4067863764952
  0
LINE
  5
2D53
330
2
100
AcDbEntity
  8
0
100
AcDbLine
 10
926.4148341812322
 20
730.8407772041956
 30
0.0
 11
926.3271209409607
 21
730.9927009928422
 31
0.0
  0
ARC
  5
2D54
330
2
100
AcDbEntity
  8
0
100
AcDbCircle
 10
926.8478468831245
 20
731.0907772041956
 30
0.0
 40
0.5
100
AcDbArc
 50
209.9999999999915
 51
270.0
  0
ARC
  5
2D55
330
2
100
AcDbEntity
  8
0
100
AcDbCircle
 10
928.0591717485297
 20
731.9927009928423
 30
0.0
 40
2.0
100
AcDbArc
 50
191.5932136235047
 51
209.9999999999915
  0
LINE
  5
2D56
330
2
100
AcDbEntity
  8
0
100
AcDbLine
 10
931.0591717485296
 20
684.5907772041956
 30
0.0
 11
931.0591717485296
 21
724.5907772041956
 31
0.0
  0
LINE
  5
2D57
330
2
100
AcDbEntity
  8
0
100
AcDbLine
 10
934.5591717485296
 20
684.5907772041956
 30
0.0
 11
931.0591717485296
 21
684.5907772041956
 31
0.0
  0
LINE
  5
2D58
330
2
100
AcDbEntity
  8
0
100
AcDbLine
 10
934.0591717485299
 20
724.5907772041955
 30
0.0
 11
931.0591717485296
 21
724.5907772041956
 31
0.0
  0
LINE
  5
2D59
330
2
100
AcDbEntity
  8
0
100
AcDbLine
 10
934.6427638835313
 20
684.5907772041956
 30
0.0
 11
934.6427638835313
 21
720.5907772041956
 31
0.0
  0
LINE
  5
2D5A
330
2
100
AcDbEntity
  8
0
100
AcDbLine
 10
934.0591717485297
 20
724.5907772041956
 30
0.0
 11
934.6427638835313
 21
720.5907772041956
 31
0.0
  0
ARC
  5
2D6D
330
2
100
AcDbEntity
  8
0
100
AcDbCircle
 10
948.0591717485296
 20
409.2456345049856
 30
0.0
 40
13.99999999999958
100
AcDbArc
 50
196.6015495990203
 51
163.3984504009797
  0
ARC
  5
2D6E
330
2
100
AcDbEntity
  8
0
100
AcDbCircle
 10
948.0591717485296
 20
409.2456345049856
 30
0.0
 40
14.99999999999983
100
AcDbArc
 50
195.4660099534202
 51
164.5339900465797
  0
ARC
  5
2D6F
330
2
100
AcDbEntity
  8
0
100
AcDbCircle
 10
948.0591717485296
 20
409.2456345049856
 30
0.0
 40
15.57735026919027
100
AcDbArc
 50
194.8792668176911
 51
165.1207331823088
  0
CIRCLE
  5
2D70
330
2
100
AcDbEntity
  8
0
100
AcDbCircle
 10
948.0591717485296
 20
409.2456345049856
 30
0.0
 40
21.99999999999977
  0
LINE
  5
2D71
330
2
100
AcDbEntity
  8
0
100
AcDbLine
 10
931.0591717485296
 20
413.2456345049856
 30
0.0
 11
938.0591717485296
 21
413.2456345049856
 31
0.0
  0
LINE
  5
2D72
330
2
100
AcDbEntity
  8
0
100
AcDbLine
 10
931.0591717485296
 20
405.2456345049856
 30
0.0
 11
938.0591717485296
 21
405.2456345049856
 31
0.0
  0
LINE
  5
2D73
330
2
100
AcDbEntity
  8
0
100
AcDbLine
 10
938.0591717485296
 20
413.2456345049856
 30
0.0
 11
938.0591717485296
 21
405.2456345049856
 31
0.0
  0
LINE
  5
2D74
330
2
100
AcDbEntity
  8
0
100
AcDbLine
 10
931.0591717485296
 20
413.2456345049856
 30
0.0
 11
931.0591717485296
 21
405.2456345049856
 31
0.0
  0
ARC
  5
2EDD
330
2
100
AcDbEntity
  8
0
100
AcDbCircle
 10
541.5462681253057
 20
459.2456345049961
 30
0.0
 40
10.0
100
AcDbArc
 50
134.663786165675
 51
179.5225462226762
  0
LINE
  5
2EDE
330
2
100
AcDbEntity
  8
0
100
AcDbLine
 10
531.5466153294446
 20
459.3289649449618
 30
0.0
 11
531.1292542424406
 21
409.245634504986
 31
0.0
  0
ARC
  5
2EDF
330
2
100
AcDbEntity
  8
0
100
AcDbCircle
 10
541.5462681253057
 20
359.2456345049765
 30
0.0
 40
10.0
100
AcDbArc
 50
180.4774537773237
 51
225.3362138342511
  0
LINE
  5
2EE0
330
2
100
AcDbEntity
  8
0
100
AcDbLine
 10
531.5466153294446
 20
359.1623040650103
 30
0.0
 11
531.1292542424403
 21
409.245634504986
 31
0.0
  0
LINE
  5
2EE1
330
2
100
AcDbEntity
  8
CENTER
100
AcDbLine
 10
734.6292542424489
 20
409.245634504986
 30
0.0
 11
493.629254242445
 21
409.2456345049861
 31
0.0
  0
LINE
  5
2EE2
330
2
100
AcDbEntity
  8
0
100
AcDbLine
 10
663.629254242455
 20
354.2456345049856
 30
0.0
 11
663.6292542424487
 21
464.2456345049854
 31
0.0
  0
LINE
  5
2EE3
330
2
100
AcDbEntity
  8
0
100
AcDbLine
 10
555.1292542424487
 20
469.2456345049858
 30
0.0
 11
555.1292542424451
 21
349.2456345049861
 31
0.0
  0
LINE
  5
2EE4
330
2
100
AcDbEntity
  8
0
100
AcDbLine
 10
677.6292542424491
 20
447.3142569553713
 30
0.0
 11
677.6292542424496
 21
371.1770120546004
 31
0.0
  0
ARC
  5
2EE5
330
2
100
AcDbEntity
  8
0
100
AcDbCircle
 10
675.6292542424496
 20
371.1770120546004
 30
0.0
 40
2.0
100
AcDbArc
 50
271.9999999999775
 51
0.0
  0
ARC
  5
2EE6
330
2
100
AcDbEntity
  8
0
100
AcDbCircle
 10
675.6292542424492
 20
447.3142569553713
 30
0.0
 40
2.0
100
AcDbArc
 50
0.0
 51
87.99999999999636
  0
LINE
  5
2EE8
330
2
100
AcDbEntity
  8
0
100
AcDbLine
 10
675.6990532358543
 20
449.3130386094094
 30
0.0
 11
671.3500582688291
 21
449.4649088601736
 31
0.0
  0
LINE
  5
2EE9
330
2
100
AcDbEntity
  8
0
100
AcDbLine
 10
675.6990532358543
 20
369.1782304005623
 30
0.0
 11
671.350058268835
 21
369.0263601497985
 31
0.0
  0
LINE
  5
2EEA
330
2
100
AcDbEntity
  8
0
100
AcDbLine
 10
555.1292542424455
 20
359.2456345049868
 30
0.0
 11
657.1292542424536
 21
359.2456345049859
 31
0.0
  0
LINE
  5
2EEB
330
2
100
AcDbEntity
  8
0
100
AcDbLine
 10
657.1292542424536
 20
369.2456345049881
 30
0.0
 11
555.1292542424455
 21
369.2456345049881
 31
0.0
  0
LINE
  5
2EEC
330
2
100
AcDbEntity
  8
0
100
AcDbLine
 10
657.1292542424536
 20
389.2470261915698
 30
0.0
 11
555.1292542424464
 21
389.2470261915698
 31
0.0
  0
LINE
  5
2EED
330
2
100
AcDbEntity
  8
0
100
AcDbLine
 10
657.1292542424536
 20
429.2442428183997
 30
0.0
 11
555.1292542424473
 21
429.2442428183997
 31
0.0
  0
LINE
  5
2EEE
330
2
100
AcDbEntity
  8
0
100
AcDbLine
 10
657.1292542424536
 20
449.2456345049836
 30
0.0
 11
555.1292542424477
 21
449.2456345049836
 31
0.0
  0
LINE
  5
2EEF
330
2
100
AcDbEntity
  8
0
100
AcDbLine
 10
657.1292542424536
 20
459.2456345049876
 30
0.0
 11
555.1292542424483
 21
459.2456345049876
 31
0.0
  0
LINE
  5
2EF0
330
2
100
AcDbEntity
  8
0
100
AcDbLine
 10
663.629254242455
 20
354.2456345049856
 30
0.0
 11
658.6292542424482
 21
354.2456345049858
 31
0.0
  0
LINE
  5
2EF1
330
2
100
AcDbEntity
  8
0
 48
0.5
100
AcDbLine
 10
658.6292542424482
 20
350.1532287552251
 30
0.0
 11
658.6292542424482
 21
468.338040254747
 31
0.0
  0
LINE
  5
2EF2
330
2
100
AcDbEntity
  8
0
100
AcDbLine
 10
663.6292542424487
 20
464.2456345049854
 30
0.0
 11
658.6292542424482
 21
464.2456345049854
 31
0.0
  0
ARC
  5
2EF3
330
2
100
AcDbEntity
  8
0
100
AcDbCircle
 10
671.6292542424492
 20
457.4600354763263
 30
0.0
 40
8.0
100
AcDbArc
 50
180.0
 51
267.9999999999963
  0
ARC
  5
2EF4
330
2
100
AcDbEntity
  8
0
100
AcDbCircle
 10
671.6292542424546
 20
361.031233533646
 30
0.0
 40
8.0
100
AcDbArc
 50
92.00000000000365
 51
180.0
  0
LINE
  5
2EF5
330
2
100
AcDbEntity
  8
0
100
AcDbLine
 10
531.6292542424469
 20
446.1682842357963
 30
0.0
 11
531.6292542424469
 21
409.245634504986
 31
0.0
  0
LINE
  5
2EF6
330
2
100
AcDbEntity
  8
0
 48
0.5
100
AcDbLine
 10
540.1292542424469
 20
449.2456345049861
 30
0.0
 11
539.6292542424468
 21
448.7456345049863
 31
0.0
  0
LINE
  5
2EF7
330
2
100
AcDbEntity
  8
0
100
AcDbLine
 10
540.1292542424482
 20
365.7456345049861
 30
0.0
 11
540.1292542424469
 21
452.7456345049861
 31
0.0
  0
ARC
  5
2EF8
330
2
100
AcDbEntity
  8
0
100
AcDbCircle
 10
534.4292542424462
 20
446.3456345049857
 30
0.0
 40
0.3
100
AcDbArc
 50
180.0
 51
270.0
  0
ARC
  5
2EF9
330
2
100
AcDbEntity
  8
0
100
AcDbCircle
 10
535.8292542424463
 20
446.3456345049857
 30
0.0
 40
0.3
100
AcDbArc
 50
270.0
 51
0.0
  0
LINE
  5
2EFA
330
2
100
AcDbEntity
  8
0
 48
0.5
100
AcDbLine
 10
536.1292542424464
 20
446.5456345049858
 30
0.0
 11
536.3292542424463
 21
446.7456345049859
 31
0.0
  0
LINE
  5
2EFB
330
2
100
AcDbEntity
  8
0
 48
0.5
100
AcDbLine
 10
534.4292542424462
 20
446.0456345049858
 30
0.0
 11
535.8292542424463
 21
446.0456345049858
 31
0.0
  0
LINE
  5
2EFC
330
2
100
AcDbEntity
  8
0
100
AcDbLine
 10
532.6292542424464
 20
446.7456345049859
 30
0.0
 11
531.6292542424464
 21
446.1682842357961
 31
0.0
  0
LINE
  5
2EFD
330
2
100
AcDbEntity
  8
0
100
AcDbLine
 10
534.1292542424464
 20
446.4456345049857
 30
0.0
 11
534.1292542424464
 21
372.0456345049865
 31
0.0
  0
ARC
  5
2EFE
330
2
100
AcDbEntity
  8
0
 48
0.5
100
AcDbCircle
 10
533.8292542424462
 20
446.4456345049857
 30
0.0
 40
0.3
100
AcDbArc
 50
0.0
 51
90.0
  0
LINE
  5
2EFF
330
2
100
AcDbEntity
  8
0
 48
0.5
100
AcDbLine
 10
532.629254242446
 20
446.7456345049859
 30
0.0
 11
533.8292542424462
 21
446.7456345049859
 31
0.0
  0
LINE
  5
2F00
330
2
100
AcDbEntity
  8
0
 48
0.5
100
AcDbLine
 10
536.3292542424463
 20
446.7456345049859
 30
0.0
 11
539.6292542424464
 21
446.7456345049859
 31
0.0
  0
LINE
  5
2F01
330
2
100
AcDbEntity
  8
HIDS
  6
SEKKEI_H
 48
0.5
100
AcDbLine
 10
544.5434678048207
 20
461.6598480673599
 30
0.0
 11
540.7150406800753
 21
457.8314209426134
 31
0.0
  0
ARC
  5
2F02
330
2
100
AcDbEntity
  8
HIDS
  6
SEKKEI_H
100
AcDbCircle
 10
542.1292542424482
 20
456.4172073802403
 30
0.0
 40
2.0
100
AcDbArc
 50
135.000000000009
 51
180.0
  0
ARC
  5
2F03
330
2
100
AcDbEntity
  8
HIDS
  6
SEKKEI_H
 48
0.5
100
AcDbCircle
 10
543.1292542424468
 20
463.0740616297332
 30
0.0
 40
2.0
100
AcDbArc
 50
314.9999999999722
 51
0.0
  0
ARC
  5
2F04
330
2
100
AcDbEntity
  8
0
 48
0.3
100
AcDbCircle
 10
547.1292542424468
 20
467.1757434058877
 30
0.0
 40
2.0
100
AcDbArc
 50
90.49999999999155
 51
180.0
  0
LINE
  5
2F05
330
2
100
AcDbEntity
  8
0
100
AcDbLine
 10
547.11180117145
 20
469.1756672520159
 30
0.0
 11
555.1292542424469
 21
469.2456345049858
 31
0.0
  0
LINE
  5
2F06
330
2
100
AcDbEntity
  8
0
100
AcDbLine
 10
531.6292542424469
 20
372.3229847741758
 30
0.0
 11
531.6292542424469
 21
409.245634504986
 31
0.0
  0
LINE
  5
2F07
330
2
100
AcDbEntity
  8
0
 48
0.5
100
AcDbLine
 10
540.1292542424469
 20
369.2456345049861
 30
0.0
 11
539.6292542424468
 21
369.7456345049859
 31
0.0
  0
ARC
  5
2F08
330
2
100
AcDbEntity
  8
0
100
AcDbCircle
 10
534.4292542424462
 20
372.1456345049864
 30
0.0
 40
0.3
100
AcDbArc
 50
90.0
 51
180.0
  0
ARC
  5
2F09
330
2
100
AcDbEntity
  8
0
100
AcDbCircle
 10
535.8292542424463
 20
372.1456345049864
 30
0.0
 40
0.3
100
AcDbArc
 50
0.0
 51
90.0
  0
LINE
  5
2F0A
330
2
100
AcDbEntity
  8
0
100
AcDbLine
 10
536.1292542424464
 20
371.9456345049863
 30
0.0
 11
536.1292542424464
 21
446.5456345049858
 31
0.0
  0
LINE
  5
2F0B
330
2
100
AcDbEntity
  8
0
 48
0.5
100
AcDbLine
 10
536.1292542424464
 20
371.9456345049863
 30
0.0
 11
536.3292542424463
 21
371.7456345049863
 31
0.0
  0
LINE
  5
2F0C
330
2
100
AcDbEntity
  8
0
 48
0.5
100
AcDbLine
 10
534.4292542424462
 20
372.4456345049864
 30
0.0
 11
535.8292542424463
 21
372.4456345049864
 31
0.0
  0
LINE
  5
2F0D
330
2
100
AcDbEntity
  8
0
100
AcDbLine
 10
532.6292542424464
 20
371.7456345049863
 30
0.0
 11
531.6292542424464
 21
372.3229847741761
 31
0.0
  0
ARC
  5
2F0E
330
2
100
AcDbEntity
  8
0
 48
0.5
100
AcDbCircle
 10
533.8292542424462
 20
372.0456345049865
 30
0.0
 40
0.3
100
AcDbArc
 50
270.0
 51
0.0
  0
LINE
  5
2F0F
330
2
100
AcDbEntity
  8
0
 48
0.5
100
AcDbLine
 10
532.629254242446
 20
371.7456345049863
 30
0.0
 11
533.8292542424462
 21
371.7456345049863
 31
0.0
  0
LINE
  5
2F10
330
2
100
AcDbEntity
  8
0
 48
0.5
100
AcDbLine
 10
536.3292542424463
 20
371.7456345049863
 30
0.0
 11
539.6292542424464
 21
371.7456345049863
 31
0.0
  0
LINE
  5
2F11
330
2
100
AcDbEntity
  8
0
100
AcDbLine
 10
555.1292542424469
 20
349.2456345049863
 30
0.0
 11
555.1292542424469
 21
469.2456345049858
 31
0.0
  0
LINE
  5
2F12
330
2
100
AcDbEntity
  8
HIDS
  6
SEKKEI_H
 48
0.5
100
AcDbLine
 10
544.5434678048207
 20
356.8314209426123
 30
0.0
 11
540.7150406800753
 21
360.6598480673588
 31
0.0
  0
ARC
  5
2F13
330
2
100
AcDbEntity
  8
HIDS
  6
SEKKEI_H
100
AcDbCircle
 10
542.1292542424482
 20
362.0740616297319
 30
0.0
 40
2.0
100
AcDbArc
 50
180.0
 51
224.9999999999908
  0
ARC
  5
2F14
330
2
100
AcDbEntity
  8
HIDS
  6
SEKKEI_H
 48
0.5
100
AcDbCircle
 10
543.1292542424468
 20
355.417207380239
 30
0.0
 40
2.0
100
AcDbArc
 50
0.0
 51
45.00000000002772
  0
ARC
  5
2F15
330
2
100
AcDbEntity
  8
0
 48
0.3
100
AcDbCircle
 10
547.1292542424468
 20
351.3155256040845
 30
0.0
 40
2.0
100
AcDbArc
 50
180.0
 51
269.5000000000084
  0
LINE
  5
2F16
330
2
100
AcDbEntity
  8
0
100
AcDbLine
 10
547.11180117145
 20
349.3156017579563
 30
0.0
 11
555.1292542424469
 21
349.2456345049863
 31
0.0
  0
LINE
  5
2F17
330
2
100
AcDbEntity
  8
0
100
AcDbLine
 10
532.629254242446
 20
446.7456345049859
 30
0.0
 11
532.6292542424464
 21
371.7456345049863
 31
0.0
  0
LINE
  5
2F18
330
2
100
AcDbEntity
  8
0
100
AcDbLine
 10
536.3292542424463
 20
446.7456345049859
 30
0.0
 11
536.3292542424463
 21
371.7456345049863
 31
0.0
  0
LINE
  5
2F19
330
2
100
AcDbEntity
  8
0
100
AcDbLine
 10
539.6292542424468
 20
448.7456345049863
 30
0.0
 11
539.6292542424468
 21
369.7456345049861
 31
0.0
  0
LINE
  5
2F1A
330
2
100
AcDbEntity
  8
0
100
AcDbLine
 10
591.6292542424455
 20
348.7456345049862
 30
0.0
 11
541.545923802483
 21
349.1629955919892
 31
0.0
  0
ARC
  5
2F1B
330
2
100
AcDbEntity
  8
0
100
AcDbCircle
 10
541.6292542424492
 20
359.1626483878505
 30
0.0
 40
10.0
100
AcDbArc
 50
180.0
 51
269.5225462226892
  0
LINE
  5
2F1C
330
2
100
AcDbEntity
  8
0
100
AcDbLine
 10
531.6292542424491
 20
359.1626483878505
 30
0.0
 11
531.6292542424491
 21
459.328620622122
 31
0.0
  0
LINE
  5
2F1D
330
2
100
AcDbEntity
  8
0
100
AcDbLine
 10
591.6292542424455
 20
348.7456345049862
 30
0.0
 11
641.7125846824076
 21
349.1629955919894
 31
0.0
  0
ARC
  5
2F1E
330
2
100
AcDbEntity
  8
0
100
AcDbCircle
 10
641.6292542424419
 20
359.1626483878507
 30
0.0
 40
10.0
100
AcDbArc
 50
270.4774537773107
 51
294.1885688072112
  0
LINE
  5
2F1F
330
2
100
AcDbEntity
  8
0
100
AcDbLine
 10
591.6292542424455
 20
469.7456345049862
 30
0.0
 11
541.545923802483
 21
469.3282734179832
 31
0.0
  0
ARC
  5
2F20
330
2
100
AcDbEntity
  8
0
100
AcDbCircle
 10
541.6292542424492
 20
459.328620622122
 30
0.0
 40
10.0
100
AcDbArc
 50
90.47745377731077
 51
180.0
  0
LINE
  5
2F21
330
2
100
AcDbEntity
  8
0
100
AcDbLine
 10
591.6292542424455
 20
469.7456345049862
 30
0.0
 11
641.7125846824076
 21
469.3282734179832
 31
0.0
  0
ARC
  5
2F22
330
2
100
AcDbEntity
  8
0
100
AcDbCircle
 10
641.6292542424419
 20
459.328620622122
 30
0.0
 40
10.0
100
AcDbArc
 50
65.81143119278829
 51
89.52254622268922
  0
LINE
  5
2F23
330
2
100
AcDbEntity
  8
0
100
AcDbLine
 10
546.6292542424469
 20
459.2456345049876
 30
0.0
 11
555.1292542424469
 21
459.2456345049876
 31
0.0
  0
LINE
  5
2F24
330
2
100
AcDbEntity
  8
0
100
AcDbLine
 10
546.6292542424469
 20
449.2456345049836
 30
0.0
 11
555.1292542424477
 21
449.2456345049836
 31
0.0
  0
LINE
  5
2F25
330
2
100
AcDbEntity
  8
0
100
AcDbLine
 10
546.6292542424469
 20
429.2442428183997
 30
0.0
 11
555.1292542424473
 21
429.2442428183997
 31
0.0
  0
LINE
  5
2F26
330
2
100
AcDbEntity
  8
0
100
AcDbLine
 10
546.6292542424469
 20
389.2470261915698
 30
0.0
 11
555.1292542424464
 21
389.2470261915698
 31
0.0
  0
LINE
  5
2F27
330
2
100
AcDbEntity
  8
0
100
AcDbLine
 10
546.6292542424469
 20
369.2456345049881
 30
0.0
 11
555.1292542424455
 21
369.2456345049881
 31
0.0
  0
LINE
  5
2F28
330
2
100
AcDbEntity
  8
0
100
AcDbLine
 10
546.6292542424469
 20
359.2456345049868
 30
0.0
 11
555.1292542424455
 21
359.2456345049868
 31
0.0
  0
LINE
  5
2F29
330
2
100
AcDbEntity
  8
0
 48
0.3
100
AcDbLine
 10
535.6292542424468
 20
465.7456345049861
 30
0.0
 11
535.6292542424468
 21
452.7456345049861
 31
0.0
  0
LINE
  5
2F2A
330
2
100
AcDbEntity
  8
0
 48
0.3
100
AcDbLine
 10
535.1292542424468
 20
464.8796091012002
 30
0.0
 11
535.1292542424468
 21
453.6116599087706
 31
0.0
  0
LINE
  5
2F2B
330
2
100
AcDbEntity
  8
CENTER
 48
0.5
100
AcDbLine
 10
532.1292542424469
 20
459.245634504986
 30
0.0
 11
551.1292542424468
 21
459.245634504986
 31
0.0
  0
LINE
  5
2F2C
330
2
100
AcDbEntity
  8
0
 48
0.3
100
AcDbLine
 10
535.6292542424468
 20
452.7456345049861
 30
0.0
 11
535.1292542424468
 21
453.6116599087706
 31
0.0
  0
LINE
  5
2F2D
330
2
100
AcDbEntity
  8
0
 48
0.3
100
AcDbLine
 10
535.6292542424468
 20
452.7456345049861
 30
0.0
 11
543.1292542424468
 21
452.7456345049861
 31
0.0
  0
LINE
  5
2F2E
330
2
100
AcDbEntity
  8
0
 48
0.3
100
AcDbLine
 10
535.6292542424474
 20
465.7456345049856
 30
0.0
 11
535.1292542424473
 21
464.8796091012013
 31
0.0
  0
LINE
  5
2F2F
330
2
100
AcDbEntity
  8
0
 48
0.3
100
AcDbLine
 10
535.6292542424478
 20
465.7456345049861
 30
0.0
 11
543.1292542424468
 21
465.7456345049861
 31
0.0
  0
LINE
  5
2F30
330
2
100
AcDbEntity
  8
0
 48
0.3
100
AcDbLine
 10
535.6292542424468
 20
365.7456345049861
 30
0.0
 11
535.6292542424468
 21
352.7456345049861
 31
0.0
  0
LINE
  5
2F31
330
2
100
AcDbEntity
  8
0
 48
0.3
100
AcDbLine
 10
535.1292542424468
 20
364.8796091012002
 30
0.0
 11
535.1292542424468
 21
353.6116599087706
 31
0.0
  0
LINE
  5
2F32
330
2
100
AcDbEntity
  8
CENTER
 48
0.5
100
AcDbLine
 10
532.1292542424469
 20
359.2456345049861
 30
0.0
 11
551.1292542424468
 21
359.2456345049861
 31
0.0
  0
LINE
  5
2F33
330
2
100
AcDbEntity
  8
0
 48
0.3
100
AcDbLine
 10
535.6292542424468
 20
352.7456345049861
 30
0.0
 11
535.1292542424468
 21
353.6116599087706
 31
0.0
  0
LINE
  5
2F34
330
2
100
AcDbEntity
  8
0
 48
0.3
100
AcDbLine
 10
535.6292542424468
 20
352.7456345049861
 30
0.0
 11
543.1292542424468
 21
352.7456345049861
 31
0.0
  0
LINE
  5
2F35
330
2
100
AcDbEntity
  8
0
 48
0.3
100
AcDbLine
 10
535.6292542424474
 20
365.7456345049856
 30
0.0
 11
535.1292542424473
 21
364.8796091012013
 31
0.0
  0
LINE
  5
2F36
330
2
100
AcDbEntity
  8
0
 48
0.3
100
AcDbLine
 10
535.6292542424478
 20
365.7456345049861
 30
0.0
 11
543.1292542424468
 21
365.7456345049861
 31
0.0
  0
LINE
  5
2F37
330
2
100
AcDbEntity
  8
HIDS
  6
SEKKEI_H
100
AcDbLine
 10
540.1292542424482
 20
456.4172073802403
 30
0.0
 11
540.1292542424469
 21
452.7456345049861
 31
0.0
  0
LINE
  5
2F38
330
2
100
AcDbEntity
  8
HIDS
  6
SEKKEI_H
100
AcDbLine
 10
540.1292542424482
 20
365.7456345049861
 30
0.0
 11
540.1292542424482
 21
362.0740616297319
 31
0.0
  0
LINE
  5
2F39
330
2
100
AcDbEntity
  8
0
 48
0.3
100
AcDbLine
 10
545.1292542424469
 20
451.9956345049861
 30
0.0
 11
545.1292542424469
 21
466.4956345049861
 31
0.0
  0
LINE
  5
2F3A
330
2
100
AcDbEntity
  8
0
 48
0.3
100
AcDbLine
 10
545.1292542424469
 20
466.4956345049861
 30
0.0
 11
543.1292542424468
 21
466.4956345049861
 31
0.0
  0
LINE
  5
2F3B
330
2
100
AcDbEntity
  8
0
 48
0.3
100
AcDbLine
 10
545.1292542424469
 20
451.9956345049861
 30
0.0
 11
543.1292542424468
 21
451.9956345049861
 31
0.0
  0
LINE
  5
2F3C
330
2
100
AcDbEntity
  8
0
100
AcDbLine
 10
543.1292542424468
 20
451.9956345049861
 30
0.0
 11
543.1292542424468
 21
466.4956345049861
 31
0.0
  0
LINE
  5
2F3D
330
2
100
AcDbEntity
  8
0
 48
0.3
100
AcDbLine
 10
545.1292542424469
 20
351.9956345049861
 30
0.0
 11
545.1292542424469
 21
366.4956345049861
 31
0.0
  0
LINE
  5
2F3E
330
2
100
AcDbEntity
  8
0
 48
0.3
100
AcDbLine
 10
545.1292542424469
 20
366.4956345049861
 30
0.0
 11
543.1292542424468
 21
366.4956345049861
 31
0.0
  0
LINE
  5
2F3F
330
2
100
AcDbEntity
  8
0
 48
0.3
100
AcDbLine
 10
545.1292542424469
 20
351.9956345049861
 30
0.0
 11
543.1292542424468
 21
351.9956345049861
 31
0.0
  0
LINE
  5
2F40
330
2
100
AcDbEntity
  8
0
100
AcDbLine
 10
543.1292542424468
 20
351.9956345049861
 30
0.0
 11
543.1292542424468
 21
366.4956345049861
 31
0.0
  0
LINE
  5
2F41
330
2
100
AcDbEntity
  8
0
 48
0.3
100
AcDbLine
 10
545.1292542424469
 20
351.3155256040845
 30
0.0
 11
545.1292542424491
 21
467.1757434058876
 31
0.0
  0
LINE
  5
2F42
330
2
100
AcDbEntity
  8
0
100
AcDbLine
 10
658.6292542424482
 20
350.1532287552251
 30
0.0
 11
555.1292542424451
 21
349.2499979388817
 31
0.0
  0
LINE
  5
2F43
330
2
100
AcDbEntity
  8
0
100
AcDbLine
 10
658.6292542424482
 20
468.338040254747
 30
0.0
 11
555.1292542424451
 21
469.2412710710905
 31
0.0
  0
LINE
  5
2F48
330
2
100
AcDbEntity
  8
0
100
AcDbLine
 10
679.6292542424489
 20
394.2456345049863
 30
0.0
 11
679.6292542424493
 21
424.2456345049861
 31
0.0
  0
LINE
  5
2F49
330
2
100
AcDbEntity
  8
0
100
AcDbLine
 10
678.6292542424489
 20
424.8229847741761
 30
0.0
 11
679.6292542424489
 21
424.2456345049864
 31
0.0
  0
LINE
  5
2F4A
330
2
100
AcDbEntity
  8
0
100
AcDbLine
 10
679.6292542424493
 20
423.2456345049861
 30
0.0
 11
724.6292542424491
 21
423.245634504985
 31
0.0
  0
LINE
  5
2F4B
330
2
100
AcDbEntity
  8
0
100
AcDbLine
 10
679.6292542424489
 20
395.2456345049863
 30
0.0
 11
724.6292542424489
 21
395.2456345049865
 31
0.0
  0
LINE
  5
2F4C
330
2
100
AcDbEntity
  8
0
100
AcDbLine
 10
724.6292542424489
 20
395.2456345049867
 30
0.0
 11
724.6292542424491
 21
423.245634504985
 31
0.0
  0
LINE
  5
2F4D
330
2
100
AcDbEntity
  8
0
100
AcDbLine
 10
678.6292542424489
 20
430.4569593703911
 30
0.0
 11
678.6292542424489
 21
388.0343096395812
 31
0.0
  0
LINE
  5
2F4E
330
2
100
AcDbEntity
  8
0
100
AcDbLine
 10
678.6292542424489
 20
393.6682842357959
 30
0.0
 11
679.6292542424489
 21
394.2456345049859
 31
0.0
  0
LINE
  5
2F4F
330
2
100
AcDbEntity
  8
0
100
AcDbLine
 10
678.3792542424489
 20
430.8899720722832
 30
0.0
 11
678.2273304538025
 21
430.9776853125548
 31
0.0
  0
ARC
  5
2F50
330
2
100
AcDbEntity
  8
0
100
AcDbCircle
 10
678.1292542424489
 20
430.4569593703911
 30
0.0
 40
0.5
100
AcDbArc
 50
0.0
 51
59.99999999999952
  0
ARC
  5
2F51
330
2
100
AcDbEntity
  8
0
100
AcDbCircle
 10
677.2273304538025
 20
429.2456345049859
 30
0.0
 40
2.0
100
AcDbArc
 50
59.99999999999952
 51
78.40678637648896
  0
LINE
  5
2F52
330
2
100
AcDbEntity
  8
0
100
AcDbLine
 10
678.3792542424489
 20
387.6012969376889
 30
0.0
 11
678.2273304538025
 21
387.5135836974175
 31
0.0
  0
ARC
  5
2F53
330
2
100
AcDbEntity
  8
0
100
AcDbCircle
 10
678.1292542424489
 20
388.0343096395812
 30
0.0
 40
0.5
100
AcDbArc
 50
300.0000000000004
 51
0.0
  0
ARC
  5
2F54
330
2
100
AcDbEntity
  8
0
100
AcDbCircle
 10
677.2273304538025
 20
389.2456345049864
 30
0.0
 40
2.0
100
AcDbArc
 50
281.5932136234973
 51
300.0000000000004
  0
LINE
  5
2F55
330
2
100
AcDbEntity
  8
0
100
AcDbLine
 10
724.6292542424489
 20
413.2456345049861
 30
0.0
 11
688.6292542424489
 21
413.2456345049861
 31
0.0
  0
LINE
  5
2F56
330
2
100
AcDbEntity
  8
0
100
AcDbLine
 10
724.6292542424489
 20
405.2456345049863
 30
0.0
 11
688.6292542424489
 21
405.245634504986
 31
0.0
  0
ARC
  5
2F57
330
2
100
AcDbEntity
  8
0
100
AcDbCircle
 10
688.6292542424489
 20
409.245634504986
 30
0.0
 40
4.0
100
AcDbArc
 50
90.0
 51
270.0
  0
LINE
  5
3106
330
2
100
AcDbEntity
  8
CENTER
100
AcDbLine
 10
644.8256468379902
 20
409.2456344740701
 30
0.0
 11
635.8256468379902
 21
409.2456344740701
 31
0.0
  0
LINE
  5
3107
330
2
100
AcDbEntity
  8
CENTER
100
AcDbLine
 10
547.4328616159843
 20
409.245634504986
 30
0.0
 11
538.4328616159844
 21
409.245634504986
 31
0.0
  0
LINE
  5
3534
330
2
100
AcDbEntity
  8
0
100
AcDbLine
 10
1053.559171748527
 20
469.2456345049861
 30
0.0
 11
1053.559171748527
 21
349.2456345049861
 31
0.0
  0
LINE
  5
3721
330
2
100
AcDbEntity
  8
0
100
AcDbLine
 10
1053.559171748527
 20
469.2456345049861
 30
0.0
 11
1053.559171748527
 21
349.2456345049861
 31
0.0
  0
LINE
  5
3880
330
2
100
AcDbEntity
  8
CENTER
100
AcDbLine
 10
1517.57752768158
 20
409.2456345049857
 30
0.0
 11
1269.577527681575
 21
409.245634504986
 31
0.0
  0
LINE
  5
38B2
330
2
100
AcDbEntity
  8
0
100
AcDbLine
 10
1324.577527681576
 20
424.2456345049857
 30
0.0
 11
1324.577527681576
 21
394.245634504986
 31
0.0
  0
LINE
  5
38B3
330
2
100
AcDbEntity
  8
0
100
AcDbLine
 10
1324.621234439185
 20
394.2204003967142
 30
0.0
 11
1324.577527681576
 21
394.2456345049857
 31
0.0
  0
LINE
  5
38B4
330
2
100
AcDbEntity
  8
0
100
AcDbLine
 10
1324.577527681576
 20
395.245634504986
 30
0.0
 11
1279.577527681575
 21
395.2456345049872
 31
0.0
  0
LINE
  5
38B5
330
2
100
AcDbEntity
  8
0
100
AcDbLine
 10
1324.577527681576
 20
423.2456345049858
 30
0.0
 11
1279.577527681576
 21
423.2456345049855
 31
0.0
  0
LINE
  5
38B6
330
2
100
AcDbEntity
  8
0
100
AcDbLine
 10
1279.577527681576
 20
423.2456345049855
 30
0.0
 11
1279.577527681576
 21
395.2456345049872
 31
0.0
  0
LINE
  5
38B8
330
2
100
AcDbEntity
  8
0
100
AcDbLine
 10
1324.621234439185
 20
424.2708686132576
 30
0.0
 11
1324.577527681576
 21
424.2456345049862
 31
0.0
  0
LINE
  5
3A3C
330
2
100
AcDbEntity
  8
0
100
AcDbLine
 10
1053.559171748527
 20
469.2456345049861
 30
0.0
 11
1053.559171748527
 21
349.2456345049861
 31
0.0
  0
LINE
  5
3AE2
330
2
100
AcDbEntity
  8
CENTER
100
AcDbLine
 10
644.8256468379902
 20
409.2456345049856
 30
0.0
 11
635.8256468379902
 21
409.2456345049856
 31
0.0
  0
LINE
  5
3AEC
330
2
100
AcDbEntity
  8
0
100
AcDbLine
 10
230.3079721591984
 20
469.2456345049861
 30
0.0
 11
230.3079721591984
 21
349.2456345049861
 31
0.0
  0
LINE
  5
3E6E
330
2
100
AcDbEntity
  8
0
100
AcDbLine
 10
1053.559171748526
 20
349.2456345049861
 30
0.0
 11
1053.559171748527
 21
469.2456345049861
 31
0.0
  0
LINE
  5
3E71
330
2
100
AcDbEntity
  8
0
100
AcDbLine
 10
1053.559171748526
 20
349.2456345049861
 30
0.0
 11
1053.559171748527
 21
469.2456345049863
 31
0.0
  0
LINE
  5
3E99
330
2
100
AcDbEntity
  8
0
100
AcDbLine
 10
1053.559171748527
 20
878.0907772041945
 30
0.0
 11
1053.559171748526
 21
757.0907772041946
 31
0.0
  0
LINE
  5
3F23
330
2
100
AcDbEntity
  8
0
100
AcDbLine
 10
230.3079721591982
 20
349.2456345049861
 30
0.0
 11
230.3079721591984
 21
469.2456345049863
 31
0.0
  0
LINE
  5
3F26
330
2
100
AcDbEntity
  8
0
100
AcDbLine
 10
230.3079721591982
 20
349.2456345049861
 30
0.0
 11
230.3079721591986
 21
469.2456345049863
 31
0.0
  0
LINE
  5
4318
330
2
100
AcDbEntity
  8
0
100
AcDbLine
 10
1122.72600223445
 20
468.2456345049838
 30
0.0
 11
1068.352737345975
 21
468.2456345049835
 31
0.0
  0
ARC
  5
4319
330
2
100
AcDbEntity
  8
0
100
AcDbCircle
 10
1122.72600223445
 20
478.2456345049838
 30
0.0
 40
10.0
100
AcDbArc
 50
270.0
 51
358.9999999999982
  0
ARC
  5
431A
330
2
100
AcDbEntity
  8
0
100
AcDbCircle
 10
1120.481642361297
 20
465.2456345049836
 30
0.0
 40
3.0
100
AcDbArc
 50
90.0
 51
178.4999999999973
  0
LINE
  5
431B
330
2
100
AcDbEntity
  8
0
100
AcDbLine
 10
1053.559171748526
 20
349.2456345049861
 30
0.0
 11
1064.611079959179
 21
349.2456345049861
 31
0.0
  0
ARC
  5
431C
330
2
100
AcDbEntity
  8
0
100
AcDbCircle
 10
1064.611079959179
 20
352.2456345049861
 30
0.0
 40
3.0
100
AcDbArc
 50
270.0
 51
358.9999999999982
  0
ARC
  5
431D
330
2
100
AcDbEntity
  8
0
100
AcDbCircle
 10
1068.352737345953
 20
345.7456345049861
 30
0.0
 40
4.5
100
AcDbArc
 50
90.0
 51
119.9264348666192
  0
LINE
  5
431E
330
2
100
AcDbEntity
  8
0
100
AcDbLine
 10
1068.352737345952
 20
350.2456345049861
 30
0.0
 11
1122.726002234455
 21
350.245634504987
 31
0.0
  0
LINE
  5
431F
330
2
100
AcDbEntity
  8
0
100
AcDbLine
 10
1133.00772045241
 20
324.1932772856746
 30
0.0
 11
1131.523126034839
 21
409.2456345049863
 31
0.0
  0
ARC
  5
4320
330
2
100
AcDbEntity
  8
0
100
AcDbCircle
 10
1128.636126972741
 20
402.7456345049863
 30
0.0
 40
3.0
100
AcDbArc
 50
1.000000000001761
 51
90.0
  0
ARC
  5
4321
330
2
100
AcDbEntity
  8
0
100
AcDbCircle
 10
1122.726002234455
 20
340.245634504987
 30
0.0
 40
10.0
100
AcDbArc
 50
1.000000000001761
 51
90.0
  0
LINE
  5
4322
330
2
100
AcDbEntity
  8
0
100
AcDbLine
 10
1148.059171748531
 20
321.2456345049861
 30
0.0
 11
1148.059171748531
 21
497.2456345049883
 31
0.0
  0
LINE
  5
4323
330
2
100
AcDbEntity
  8
CENTER
100
AcDbLine
 10
1129.559171748531
 20
457.6896382136744
 30
0.0
 11
1129.559171748531
 21
477.3279312630964
 31
0.0
  0
LINE
  5
4324
330
2
100
AcDbEntity
  8
0
100
AcDbLine
 10
1117.296956724046
 20
458.232046715306
 30
0.0
 11
1117.48267038637
 21
465.3241653499073
 31
0.0
  0
LINE
  5
4325
330
2
100
AcDbEntity
  8
0
100
AcDbLine
 10
1108.559171748531
 20
405.7456345049861
 30
0.0
 11
1108.559171748531
 21
409.2456345049866
 31
0.0
  0
LINE
  5
4326
330
2
100
AcDbEntity
  8
0
100
AcDbLine
 10
1067.610623044648
 20
352.1932772856741
 30
0.0
 11
1068.606475644219
 21
409.2456345049863
 31
0.0
  0
LINE
  5
4327
330
2
100
AcDbEntity
  8
0
100
AcDbLine
 10
1053.559171748527
 20
349.2456345049861
 30
0.0
 11
1053.559171748526
 21
469.2456345049861
 31
0.0
  0
LINE
  5
4328
330
2
100
AcDbEntity
  8
0
100
AcDbLine
 10
1148.059171748531
 20
321.2456345049861
 30
0.0
 11
1136.007263537879
 21
321.2456345049865
 31
0.0
  0
ARC
  5
4329
330
2
100
AcDbEntity
  8
0
100
AcDbCircle
 10
1136.007263537879
 20
324.2456345049865
 30
0.0
 40
3.0
100
AcDbArc
 50
181.0000000000017
 51
270.0
  0
LINE
  5
432A
330
2
100
AcDbEntity
  8
0
100
AcDbLine
 10
1128.636126972741
 20
405.7456345049863
 30
0.0
 11
1111.559171748531
 21
405.7456345049861
 31
0.0
  0
ARC
  5
432B
330
2
100
AcDbEntity
  8
0
100
AcDbCircle
 10
1111.559171748531
 20
402.7456345049861
 30
0.0
 40
3.0
100
AcDbArc
 50
90.0
 51
180.0
  0
LINE
  5
432C
330
2
100
AcDbEntity
  8
0
100
AcDbLine
 10
1109.437851404971
 20
349.3669548485463
 30
0.0
 11
1132.122159490307
 21
326.6826467632095
 31
0.0
  0
LINE
  5
432D
330
2
100
AcDbEntity
  8
0
100
AcDbLine
 10
1108.559171748531
 20
409.2456345049866
 30
0.0
 11
1108.559171748531
 21
405.7456345049879
 31
0.0
  0
LINE
  5
432E
330
2
100
AcDbEntity
  8
0
100
AcDbLine
 10
1148.059171748531
 20
497.2456345049882
 30
0.0
 11
1136.007263537873
 21
497.2456345049879
 31
0.0
  0
ARC
  5
432F
330
2
100
AcDbEntity
  8
0
100
AcDbCircle
 10
1136.007263537873
 20
494.2456345049879
 30
0.0
 40
3.0
100
AcDbArc
 50
90.0
 51
178.9999999999982
  0
LINE
  5
4330
330
2
100
AcDbEntity
  8
0
100
AcDbLine
 10
1053.559171748526
 20
469.2456345049879
 30
0.0
 11
1064.611079959193
 21
469.2456345049879
 31
0.0
  0
LINE
  5
4331
330
2
100
AcDbEntity
  8
0
100
AcDbLine
 10
1053.559171748527
 20
409.245634504986
 30
0.0
 11
1148.059171748531
 21
409.2456345049863
 31
0.0
  0
LINE
  5
4332
330
2
100
AcDbEntity
  8
0
100
AcDbLine
 10
1067.610623044662
 20
466.2979917242998
 30
0.0
 11
1068.131656392882
 21
436.4480111963194
 31
0.0
  0
ARC
  5
4333
330
2
100
AcDbEntity
  8
0
100
AcDbCircle
 10
1064.611079959193
 20
466.2456345049879
 30
0.0
 40
3.0
100
AcDbArc
 50
1.000000000001761
 51
90.0
  0
ARC
  5
4334
330
2
100
AcDbEntity
  8
0
100
AcDbCircle
 10
1068.352737345974
 20
472.7456345049836
 30
0.0
 40
4.5
100
AcDbArc
 50
240.073565133321
 51
270.0
  0
LINE
  5
4335
330
2
100
AcDbEntity
  8
0
100
AcDbLine
 10
1133.007720452404
 20
494.2979917242999
 30
0.0
 11
1132.524645490411
 21
466.6226456870318
 31
0.0
  0
LINE
  5
4337
330
2
100
AcDbEntity
  8
0
100
AcDbLine
 10
1128.698341613551
 20
455.3105775602291
 30
0.0
 11
1114.297984749119
 21
455.3105775602291
 31
0.0
  0
ARC
  5
4338
330
2
100
AcDbEntity
  8
0
100
AcDbCircle
 10
1114.297984749119
 20
458.3105775602291
 30
0.0
 40
3.0
100
AcDbArc
 50
270.0
 51
358.5000000000103
  0
ARC
  5
4339
330
2
100
AcDbEntity
  8
0
100
AcDbCircle
 10
1107.316531061412
 20
347.2456345049865
 30
0.0
 40
3.0
100
AcDbArc
 50
44.99999999999078
 51
90.0
  0
ARC
  5
433A
330
2
100
AcDbEntity
  8
0
100
AcDbCircle
 10
1130.000839146748
 20
324.5613264196497
 30
0.0
 40
3.0
100
AcDbArc
 50
1.000000000001761
 51
44.99999999999078
  0
LINE
  5
433B
330
2
100
AcDbEntity
  8
0
100
AcDbLine
 10
1109.437851404972
 20
469.124314161427
 30
0.0
 11
1132.122159490309
 21
491.8086222467634
 31
0.0
  0
ARC
  5
433C
330
2
100
AcDbEntity
  8
0
100
AcDbCircle
 10
1107.316531061413
 20
471.2456345049865
 30
0.0
 40
3.0
100
AcDbArc
 50
270.0
 51
315.0000000000092
  0
ARC
  5
433D
330
2
100
AcDbEntity
  8
0
100
AcDbCircle
 10
1130.000839146749
 20
493.929942590323
 30
0.0
 40
3.0
100
AcDbArc
 50
315.0000000000092
 51
358.9999999999852
  0
LINE
  5
433F
330
2
100
AcDbEntity
  8
0
100
AcDbLine
 10
1123.05917174853
 20
876.5907772041977
 30
0.0
 11
1068.30082913531
 21
876.5907772042
 31
0.0
  0
LINE
  5
4340
330
2
100
AcDbEntity
  8
0
100
AcDbLine
 10
1068.300829135308
 20
758.5907772041982
 30
0.0
 11
1123.059171748531
 21
758.5907772042004
 31
0.0
  0
LINE
  5
4341
330
2
100
AcDbEntity
  8
0
100
AcDbLine
 10
1133.059171748531
 20
732.5907772041992
 30
0.0
 11
1133.05917174853
 21
779.5722713695924
 31
0.0
  0
ARC
  5
4342
330
2
100
AcDbEntity
  8
0
100
AcDbCircle
 10
1130.05917174853
 20
778.0907772041993
 30
0.0
 40
3.0
100
AcDbArc
 50
0.0
 51
90.0
  0
LINE
  5
4343
330
2
100
AcDbEntity
  8
0
100
AcDbLine
 10
1133.05917174853
 20
806.6092830388061
 30
0.0
 11
1133.05917174853
 21
902.5907772042002
 31
0.0
  0
ARC
  5
4344
330
2
100
AcDbEntity
  8
0
100
AcDbCircle
 10
1130.059171748531
 20
824.090777204201
 30
0.0
 40
3.0
100
AcDbArc
 50
270.0
 51
0.0
  0
ARC
  5
4345
330
2
100
AcDbEntity
  8
0
100
AcDbCircle
 10
1130.059171748531
 20
811.0907772041993
 30
0.0
 40
3.0
100
AcDbArc
 50
0.0
 51
90.0
  0
ARC
  5
4346
330
2
100
AcDbEntity
  8
0
100
AcDbCircle
 10
1123.059171748531
 20
748.5907772042004
 30
0.0
 40
10.0
100
AcDbArc
 50
0.0
 51
90.0
  0
ARC
  5
4347
330
2
100
AcDbEntity
  8
0
100
AcDbCircle
 10
1123.059171748531
 20
886.5907772041976
 30
0.0
 40
10.0
100
AcDbArc
 50
270.0
 51
0.0
  0
LINE
  5
4348
330
2
100
AcDbEntity
  8
0
100
AcDbLine
 10
1148.059171748531
 20
729.5907772041986
 30
0.0
 11
1148.059171748531
 21
905.5907772042003
 31
0.0
  0
LINE
  5
4349
330
2
100
AcDbEntity
  8
0
100
AcDbLine
 10
1108.559171748531
 20
814.0907772041986
 30
0.0
 11
1108.559171748531
 21
821.0907772041986
 31
0.0
  0
LINE
  5
434A
330
2
100
AcDbEntity
  8
0
100
AcDbLine
 10
1067.559171748527
 20
760.0907772041963
 30
0.0
 11
1067.559171748527
 21
874.5907772042036
 31
0.0
  0
ARC
  5
434B
330
2
100
AcDbEntity
  8
0
100
AcDbCircle
 10
1064.559171748527
 20
760.5907772041945
 30
0.0
 40
3.0
100
AcDbArc
 50
270.0
 51
0.0
  0
ARC
  5
434C
330
2
100
AcDbEntity
  8
0
100
AcDbCircle
 10
1068.300829135308
 20
754.0907772041991
 30
0.0
 40
4.5
100
AcDbArc
 50
90.0
 51
119.9264348666789
  0
LINE
  5
434D
330
2
100
AcDbEntity
  8
0
100
AcDbLine
 10
1053.559171748527
 20
757.0907772042
 30
0.0
 11
1053.559171748527
 21
878.0907772042009
 31
0.0
  0
LINE
  5
434E
330
2
100
AcDbEntity
  8
0
100
AcDbLine
 10
1148.059171748531
 20
729.5907772041985
 30
0.0
 11
1136.059171748531
 21
729.5907772041992
 31
0.0
  0
ARC
  5
434F
330
2
100
AcDbEntity
  8
0
100
AcDbCircle
 10
1136.059171748531
 20
732.5907772041992
 30
0.0
 40
3.0
100
AcDbArc
 50
180.0
 51
270.0
  0
LINE
  5
4350
330
2
100
AcDbEntity
  8
0
100
AcDbLine
 10
1130.059171748531
 20
814.0907772041993
 30
0.0
 11
1111.559171748531
 21
814.0907772041986
 31
0.0
  0
ARC
  5
4351
330
2
100
AcDbEntity
  8
0
100
AcDbCircle
 10
1114.559171748554
 20
811.0907772041986
 30
0.0
 40
3.0
100
AcDbArc
 50
0.0
 51
90.0
  0
ARC
  5
4352
330
2
100
AcDbEntity
  8
0
100
AcDbCircle
 10
1111.559171748531
 20
811.0907772041986
 30
0.0
 40
3.0
100
AcDbArc
 50
90.0
 51
180.0
  0
LINE
  5
4353
330
2
100
AcDbEntity
  8
0
100
AcDbLine
 10
1108.559171748531
 20
821.0907772042004
 30
0.0
 11
1108.559171748531
 21
814.0907772042003
 31
0.0
  0
LINE
  5
4354
330
2
100
AcDbEntity
  8
0
100
AcDbLine
 10
1148.059171748531
 20
905.5907772042003
 30
0.0
 11
1136.059171748531
 21
905.5907772042003
 31
0.0
  0
ARC
  5
4355
330
2
100
AcDbEntity
  8
0
100
AcDbCircle
 10
1136.059171748531
 20
902.5907772042002
 30
0.0
 40
3.0
100
AcDbArc
 50
90.0
 51
180.0
  0
LINE
  5
4356
330
2
100
AcDbEntity
  8
0
100
AcDbLine
 10
1130.059171748531
 20
821.0907772042011
 30
0.0
 11
1111.559171748531
 21
821.0907772042004
 31
0.0
  0
ARC
  5
4357
330
2
100
AcDbEntity
  8
0
100
AcDbCircle
 10
1111.559171748531
 20
824.0907772042003
 30
0.0
 40
3.0
100
AcDbArc
 50
180.0
 51
270.0
  0
LINE
  5
4358
330
2
100
AcDbEntity
  8
0
100
AcDbLine
 10
1109.437851404969
 20
877.4694568606387
 30
0.0
 11
1132.180492092091
 21
900.2120975477636
 31
0.0
  0
LINE
  5
4359
330
2
100
AcDbEntity
  8
0
100
AcDbLine
 10
1053.559171748527
 20
877.590777204201
 30
0.0
 11
1064.559171748526
 21
877.5907772042035
 31
0.0
  0
ARC
  5
435A
330
2
100
AcDbEntity
  8
0
100
AcDbCircle
 10
1064.559171748527
 20
874.5907772042036
 30
0.0
 40
3.0
100
AcDbArc
 50
0.0
 51
90.0
  0
ARC
  5
435B
330
2
100
AcDbEntity
  8
0
100
AcDbCircle
 10
1068.30082913531
 20
881.0907772041982
 30
0.0
 40
4.5
100
AcDbArc
 50
240.073565133321
 51
270.0
  0
LINE
  5
435C
330
2
100
AcDbEntity
  8
0
100
AcDbLine
 10
1053.559171748527
 20
878.0907772042011
 30
0.0
 11
1064.559171748526
 21
878.0907772042036
 31
0.0
  0
ARC
  5
435D
330
2
100
AcDbEntity
  8
0
100
AcDbCircle
 10
1064.559171748527
 20
875.0907772042037
 30
0.0
 40
3.0
100
AcDbArc
 50
53.13010235406478
 51
90.0
  0
ARC
  5
435E
330
2
100
AcDbEntity
  8
0
100
AcDbCircle
 10
1069.059171748532
 20
881.0907772041991
 30
0.0
 40
4.5
100
AcDbArc
 50
233.1301023541299
 51
270.0
  0
LINE
  5
435F
330
2
100
AcDbEntity
  8
0
100
AcDbLine
 10
1053.559171748527
 20
757.5907772041991
 30
0.0
 11
1064.559171748526
 21
757.5907772041944
 31
0.0
  0
LINE
  5
4360
330
2
100
AcDbEntity
  8
0
100
AcDbLine
 10
1053.559171748527
 20
757.0907772041991
 30
0.0
 11
1064.559171748526
 21
757.0907772041963
 31
0.0
  0
ARC
  5
4361
330
2
100
AcDbEntity
  8
0
100
AcDbCircle
 10
1064.559171748527
 20
760.0907772041963
 30
0.0
 40
3.0
100
AcDbArc
 50
270.0
 51
306.86989764587
  0
ARC
  5
4362
330
2
100
AcDbEntity
  8
0
100
AcDbCircle
 10
1069.059171748531
 20
754.0907772041997
 30
0.0
 40
4.5
100
AcDbArc
 50
90.0
 51
126.86989764587
  0
LINE
  5
4363
330
2
100
AcDbEntity
  8
0
100
AcDbLine
 10
1120.559171748554
 20
781.0907772041995
 30
0.0
 11
1130.05917174853
 21
781.0907772041993
 31
0.0
  0
LINE
  5
4364
330
2
100
AcDbEntity
  8
CENTER
100
AcDbLine
 10
1118.809171748554
 20
793.0907772041995
 30
0.0
 11
1140.309171748554
 21
793.0907772041993
 31
0.0
  0
LINE
  5
4365
330
2
100
AcDbEntity
  8
CENTER
100
AcDbLine
 10
1129.559171748554
 20
782.3407772041993
 30
0.0
 11
1129.559171748554
 21
803.8407772041992
 31
0.0
  0
LINE
  5
4366
330
2
100
AcDbEntity
  8
0
100
AcDbLine
 10
1117.559171748554
 20
784.0907772041995
 30
0.0
 11
1117.559171748554
 21
811.0907772041986
 31
0.0
  0
ARC
  5
4367
330
2
100
AcDbEntity
  8
0
100
AcDbCircle
 10
1120.559171748554
 20
784.0907772041995
 30
0.0
 40
3.0
100
AcDbArc
 50
180.0
 51
270.0
  0
ARC
  5
4368
330
2
100
AcDbEntity
  8
0
100
AcDbCircle
 10
1129.559171748554
 20
793.0907772041993
 30
0.0
 40
12.0
100
AcDbArc
 50
295.6792886193456
 51
64.32071138065437
  0
ARC
  5
4369
330
2
100
AcDbEntity
  8
0
100
AcDbCircle
 10
1136.059171748531
 20
806.6092830388061
 30
0.0
 40
3.0
100
AcDbArc
 50
180.0
 51
244.3207113806543
  0
ARC
  5
436A
330
2
100
AcDbEntity
  8
0
100
AcDbCircle
 10
1136.05917174853
 20
779.5722713695924
 30
0.0
 40
3.0
100
AcDbArc
 50
115.6792886193456
 51
180.0
  0
ARC
  5
436B
330
2
100
AcDbEntity
  8
0
100
AcDbCircle
 10
1107.316531061409
 20
879.5907772041982
 30
0.0
 40
3.0
100
AcDbArc
 50
270.0
 51
315.0000000000093
  0
ARC
  5
436C
330
2
100
AcDbEntity
  8
0
100
AcDbCircle
 10
1130.05917174853
 20
902.3334178913231
 30
0.0
 40
3.0
100
AcDbArc
 50
315.0000000000093
 51
0.0
  0
LINE
  5
436D
330
2
100
AcDbEntity
  8
0
100
AcDbLine
 10
1109.437851404967
 20
757.7120975477592
 30
0.0
 11
1132.180492092088
 21
734.9694568606336
 31
0.0
  0
ARC
  5
436E
330
2
100
AcDbEntity
  8
0
100
AcDbCircle
 10
1107.316531061407
 20
755.5907772041997
 30
0.0
 40
3.0
100
AcDbArc
 50
44.99999999999099
 51
90.0
  0
ARC
  5
436F
330
2
100
AcDbEntity
  8
0
100
AcDbCircle
 10
1130.059171748528
 20
732.8481365170743
 30
0.0
 40
3.0
100
AcDbArc
 50
0.0
 51
44.99999999999099
  0
LINE
  5
4370
330
2
100
AcDbEntity
  8
CENTER
100
AcDbLine
 10
1412.577527681581
 20
304.2456345049858
 30
0.0
 11
1412.577527681579
 21
514.2456345049858
 31
0.0
  0
LINE
  5
4371
330
2
100
AcDbEntity
  8
0
100
AcDbLine
 10
1416.077527681579
 20
475.5779230227343
 30
0.0
 11
1416.077527681579
 21
487.2456345049853
 31
0.0
  0
LINE
  5
4372
330
2
100
AcDbEntity
  8
0
100
AcDbLine
 10
1409.077527681579
 20
475.5779230227356
 30
0.0
 11
1409.077527681579
 21
487.2456345049857
 31
0.0
  0
ARC
  5
4373
330
2
100
AcDbEntity
  8
0
100
AcDbCircle
 10
1406.077527681579
 20
487.2456345049857
 30
0.0
 40
3.0
100
AcDbArc
 50
0.0
 51
90.0
  0
LINE
  5
4375
330
2
100
AcDbEntity
  8
0
100
AcDbLine
 10
1490.350591930746
 20
321.2456345049866
 30
0.0
 11
1334.804463432401
 21
321.2456345049839
 31
0.0
  0
ARC
  5
4376
330
2
100
AcDbEntity
  8
0
100
AcDbCircle
 10
1334.804463432401
 20
331.2456345049838
 30
0.0
 40
10.0
100
AcDbArc
 50
180.1666666666621
 51
270.0
  0
LINE
  5
4377
330
2
100
AcDbEntity
  8
0
100
AcDbLine
 10
1490.350591930744
 20
497.2456345049848
 30
0.0
 11
1334.804463432401
 21
497.2456345049848
 31
0.0
  0
ARC
  5
4378
330
2
100
AcDbEntity
  8
0
100
AcDbCircle
 10
1490.350591930744
 20
487.2456345049847
 30
0.0
 40
10.0
100
AcDbArc
 50
0.1666666666621019
 51
90.0
  0
LINE
  5
4379
330
2
100
AcDbEntity
  8
CENTER
100
AcDbLine
 10
1472.28820580023
 20
338.5349563863336
 30
0.0
 11
1494.28820580023
 21
338.5349563863336
 31
0.0
  0
LINE
  5
437A
330
2
100
AcDbEntity
  8
CENTER
100
AcDbLine
 10
1483.28820580023
 20
349.5349563863281
 30
0.0
 11
1483.28820580023
 21
327.5349563863281
 31
0.0
  0
LINE
  5
437B
330
2
100
AcDbEntity
  8
CENTER
100
AcDbLine
 10
1483.288205800231
 20
468.9563126236369
 30
0.0
 11
1483.288205800231
 21
490.956312623637
 31
0.0
  0
LINE
  5
437C
330
2
100
AcDbEntity
  8
CENTER
100
AcDbLine
 10
1472.288205800237
 20
479.9563126236369
 30
0.0
 11
1494.288205800237
 21
479.9563126236369
 31
0.0
  0
LINE
  5
437D
330
2
100
AcDbEntity
  8
CENTER
100
AcDbLine
 10
1352.866849562927
 20
479.9563126236387
 30
0.0
 11
1330.866849562927
 21
479.9563126236387
 31
0.0
  0
LINE
  5
437E
330
2
100
AcDbEntity
  8
CENTER
100
AcDbLine
 10
1341.866849562927
 20
468.9563126236442
 30
0.0
 11
1341.866849562927
 21
490.9563126236442
 31
0.0
  0
LINE
  5
437F
330
2
100
AcDbEntity
  8
CENTER
100
AcDbLine
 10
1341.866849562926
 20
349.5349563863354
 30
0.0
 11
1341.866849562926
 21
327.5349563863354
 31
0.0
  0
LINE
  5
4380
330
2
100
AcDbEntity
  8
CENTER
100
AcDbLine
 10
1352.86684956292
 20
338.5349563863353
 30
0.0
 11
1330.86684956292
 21
338.5349563863353
 31
0.0
  0
ARC
  5
4381
330
2
100
AcDbEntity
  8
0
100
AcDbCircle
 10
1412.577527681573
 20
409.2456345049711
 30
0.0
 40
63.650000000006
100
AcDbArc
 50
322.1562536252283
 51
37.84374637478075
  0
ARC
  5
4382
330
2
100
AcDbEntity
  8
0
100
AcDbCircle
 10
1412.577527681573
 20
409.2456345049711
 30
0.0
 40
63.650000000006
100
AcDbArc
 50
52.15625362520043
 51
127.8437463747507
  0
ARC
  5
4383
330
2
100
AcDbEntity
  8
0
100
AcDbCircle
 10
1412.577527681573
 20
409.2456345049711
 30
0.0
 40
63.650000000006
100
AcDbArc
 50
142.1562536252049
 51
217.843746374769
  0
ARC
  5
4384
330
2
100
AcDbEntity
  8
0
100
AcDbCircle
 10
1412.577527681573
 20
409.2456345049711
 30
0.0
 40
63.650000000006
100
AcDbArc
 50
232.1562536252004
 51
307.8437463747832
  0
ARC
  5
4385
330
2
100
AcDbEntity
  8
0
100
AcDbCircle
 10
1403.150224149237
 20
475.2255439328648
 30
0.0
 40
3.0
100
AcDbArc
 50
180.0
 51
278.1314658326824
  0
ARC
  5
4386
330
2
100
AcDbEntity
  8
0
100
AcDbCircle
 10
1419.077527681579
 20
475.5779230227343
 30
0.0
 40
3.0
100
AcDbArc
 50
180.0
 51
264.403368941405
  0
ARC
  5
4387
330
2
100
AcDbEntity
  8
0
100
AcDbCircle
 10
1406.077527681578
 20
475.5779230227356
 30
0.0
 40
3.0
100
AcDbArc
 50
275.596631058595
 51
0.0
  0
ARC
  5
4388
330
2
100
AcDbEntity
  8
0
100
AcDbCircle
 10
1341.866849562927
 20
338.5349563863363
 30
0.0
 40
12.5
100
AcDbArc
 50
331.9476024175647
 51
118.0523975824643
  0
ARC
  5
4389
330
2
100
AcDbEntity
  8
0
100
AcDbCircle
 10
1334.577527681579
 20
352.213983636477
 30
0.0
 40
3.0
100
AcDbArc
 50
180.0
 51
298.0523975824643
  0
LINE
  5
438A
330
2
100
AcDbEntity
  8
0
100
AcDbLine
 10
1331.577527681578
 20
466.2772853734944
 30
0.0
 11
1331.577527681578
 21
352.213983636477
 31
0.0
  0
ARC
  5
438B
330
2
100
AcDbEntity
  8
0
100
AcDbCircle
 10
1355.545876813069
 20
331.2456345049866
 30
0.0
 40
3.0
100
AcDbArc
 50
151.9476024175356
 51
270.0
  0
LINE
  5
438C
330
2
100
AcDbEntity
  8
0
100
AcDbLine
 10
1469.609178550067
 20
328.2456345049848
 30
0.0
 11
1355.545876813069
 21
328.2456345049866
 31
0.0
  0
ARC
  5
438D
330
2
100
AcDbEntity
  8
0
100
AcDbCircle
 10
1483.288205800208
 20
338.5349563863254
 30
0.0
 40
12.5
100
AcDbArc
 50
61.94760241753566
 51
208.0523975824643
  0
ARC
  5
438E
330
2
100
AcDbEntity
  8
0
100
AcDbCircle
 10
1469.609178550067
 20
331.2456345049766
 30
0.0
 40
3.0
100
AcDbArc
 50
270.0
 51
28.05239758246432
  0
ARC
  5
438F
330
2
100
AcDbEntity
  8
0
100
AcDbCircle
 10
1490.577527681557
 20
352.2139836364666
 30
0.0
 40
3.0
100
AcDbArc
 50
241.9476024175356
 51
0.0
  0
LINE
  5
4390
330
2
100
AcDbEntity
  8
0
100
AcDbLine
 10
1493.577527681561
 20
466.2772853735071
 30
0.0
 11
1493.577527681557
 21
352.2139836364666
 31
0.0
  0
ARC
  5
4391
330
2
100
AcDbEntity
  8
0
100
AcDbCircle
 10
1341.866849562927
 20
479.9563126236351
 30
0.0
 40
12.5
100
AcDbArc
 50
241.9476024175356
 51
28.05239758246432
  0
ARC
  5
4392
330
2
100
AcDbEntity
  8
0
100
AcDbCircle
 10
1334.577527681579
 20
466.2772853734944
 30
0.0
 40
3.0
100
AcDbArc
 50
61.94760241753566
 51
180.0
  0
ARC
  5
4393
330
2
100
AcDbEntity
  8
0
100
AcDbCircle
 10
1355.545876813069
 20
487.2456345049847
 30
0.0
 40
3.0
100
AcDbArc
 50
90.0
 51
208.0523975824643
  0
LINE
  5
4394
330
2
100
AcDbEntity
  8
0
100
AcDbLine
 10
1469.609178550067
 20
490.2456345049857
 30
0.0
 11
1355.545876813069
 21
490.2456345049848
 31
0.0
  0
ARC
  5
4395
330
2
100
AcDbEntity
  8
0
100
AcDbCircle
 10
1403.150224149237
 20
487.2456345049853
 30
0.0
 40
3.0
100
AcDbArc
 50
90.0
 51
180.0
  0
ARC
  5
4396
330
2
100
AcDbEntity
  8
0
100
AcDbCircle
 10
1373.00483121394
 20
487.2456345049847
 30
0.0
 40
3.0
100
AcDbArc
 50
0.0
 51
90.0
  0
ARC
  5
4397
330
2
100
AcDbEntity
  8
0
100
AcDbCircle
 10
1419.077527681579
 20
487.2456345049853
 30
0.0
 40
3.0
100
AcDbArc
 50
90.0
 51
180.0
  0
ARC
  5
4398
330
2
100
AcDbEntity
  8
0
100
AcDbCircle
 10
1483.288205800208
 20
479.956312623646
 30
0.0
 40
12.5
100
AcDbArc
 50
151.9476024175356
 51
298.0523975824643
  0
ARC
  5
4399
330
2
100
AcDbEntity
  8
0
100
AcDbCircle
 10
1490.57752768156
 20
466.2772853735071
 30
0.0
 40
3.0
100
AcDbArc
 50
0.0
 51
118.0523975824643
  0
ARC
  5
439A
330
2
100
AcDbEntity
  8
0
100
AcDbCircle
 10
1469.609178550067
 20
487.2456345049948
 30
0.0
 40
3.0
100
AcDbArc
 50
331.9476024175356
 51
90.0
  0
LINE
  5
439B
330
2
100
AcDbEntity
  8
0
100
AcDbLine
 10
1346.245239163831
 20
412.7456345049848
 30
0.0
 11
1334.57752768158
 21
412.7456345049848
 31
0.0
  0
LINE
  5
439C
330
2
100
AcDbEntity
  8
0
100
AcDbLine
 10
1346.24523916383
 20
405.7456345049839
 30
0.0
 11
1334.57752768158
 21
405.7456345049839
 31
0.0
  0
ARC
  5
439D
330
2
100
AcDbEntity
  8
0
100
AcDbCircle
 10
1334.57752768158
 20
402.7456345049839
 30
0.0
 40
3.0
100
AcDbArc
 50
90.0
 51
180.0
  0
ARC
  5
439E
330
2
100
AcDbEntity
  8
0
100
AcDbCircle
 10
1346.245239163831
 20
415.7456345049848
 30
0.0
 40
3.0
100
AcDbArc
 50
270.0
 51
354.4033689414049
  0
ARC
  5
439F
330
2
100
AcDbEntity
  8
0
100
AcDbCircle
 10
1346.24523916383
 20
402.745634504983
 30
0.0
 40
3.0
100
AcDbArc
 50
5.59663105859507
 51
90.0
  0
ARC
  5
43A0
330
2
100
AcDbEntity
  8
0
100
AcDbCircle
 10
1334.57752768158
 20
415.7456345049848
 30
0.0
 40
3.0
100
AcDbArc
 50
180.0
 51
270.0
  0
LINE
  5
43A1
330
2
100
AcDbEntity
  8
0
100
AcDbLine
 10
1409.077527681581
 20
342.9133459872371
 30
0.0
 11
1409.077527681581
 21
331.2456345049862
 31
0.0
  0
LINE
  5
43A2
330
2
100
AcDbEntity
  8
0
100
AcDbLine
 10
1416.077527681582
 20
342.9133459872362
 30
0.0
 11
1416.077527681582
 21
331.2456345049857
 31
0.0
  0
ARC
  5
43A3
330
2
100
AcDbEntity
  8
0
100
AcDbCircle
 10
1419.077527681582
 20
331.2456345049857
 30
0.0
 40
3.0
100
AcDbArc
 50
180.0
 51
270.0
  0
ARC
  5
43A4
330
2
100
AcDbEntity
  8
0
100
AcDbCircle
 10
1406.077527681581
 20
342.9133459872371
 30
0.0
 40
3.0
100
AcDbArc
 50
0.0
 51
84.40336894140502
  0
ARC
  5
43A5
330
2
100
AcDbEntity
  8
0
100
AcDbCircle
 10
1419.077527681583
 20
342.9133459872362
 30
0.0
 40
3.0
100
AcDbArc
 50
95.59663105859497
 51
180.0
  0
ARC
  5
43A6
330
2
100
AcDbEntity
  8
0
100
AcDbCircle
 10
1406.077527681581
 20
331.2456345049862
 30
0.0
 40
3.0
100
AcDbArc
 50
270.0
 51
0.0
  0
LINE
  5
43A7
330
2
100
AcDbEntity
  8
0
100
AcDbLine
 10
1478.90981619933
 20
405.7456345049866
 30
0.0
 11
1490.57752768158
 21
405.7456345049866
 31
0.0
  0
LINE
  5
43A8
330
2
100
AcDbEntity
  8
0
100
AcDbLine
 10
1478.909816199331
 20
412.7456345049875
 30
0.0
 11
1490.57752768158
 21
412.7456345049875
 31
0.0
  0
ARC
  5
43A9
330
2
100
AcDbEntity
  8
0
100
AcDbCircle
 10
1490.57752768158
 20
415.7456345049875
 30
0.0
 40
3.0
100
AcDbArc
 50
270.0
 51
0.0
  0
ARC
  5
43AA
330
2
100
AcDbEntity
  8
0
100
AcDbCircle
 10
1478.90981619933
 20
402.7456345049866
 30
0.0
 40
3.0
100
AcDbArc
 50
90.0
 51
174.4033689414049
  0
ARC
  5
43AB
330
2
100
AcDbEntity
  8
0
100
AcDbCircle
 10
1478.909816199331
 20
415.7456345049884
 30
0.0
 40
3.0
100
AcDbArc
 50
185.596631058595
 51
270.0
  0
ARC
  5
43AC
330
2
100
AcDbEntity
  8
0
100
AcDbCircle
 10
1490.57752768158
 20
402.7456345049866
 30
0.0
 40
3.0
100
AcDbArc
 50
0.0
 51
90.0
  0
LINE
  5
43AD
330
2
100
AcDbEntity
  8
0
100
AcDbLine
 10
1500.350549622799
 20
487.2747232848271
 30
0.0
 11
1500.577527681581
 21
409.2456345049857
 31
0.0
  0
LINE
  5
43AE
330
2
100
AcDbEntity
  8
0
100
AcDbLine
 10
1500.350549622801
 20
331.2165457251442
 30
0.0
 11
1500.577527681581
 21
409.2456345049857
 31
0.0
  0
ARC
  5
43AF
330
2
100
AcDbEntity
  8
0
100
AcDbCircle
 10
1490.350591930746
 20
331.2456345049866
 30
0.0
 40
10.0
100
AcDbArc
 50
270.0
 51
359.8333333333378
  0
LINE
  5
43B0
330
2
100
AcDbEntity
  8
0
100
AcDbLine
 10
1324.804505740347
 20
487.2747232848276
 30
0.0
 11
1324.577527681565
 21
409.2456345049859
 31
0.0
  0
ARC
  5
43B1
330
2
100
AcDbEntity
  8
0
100
AcDbCircle
 10
1334.804463432401
 20
487.2456345049847
 30
0.0
 40
10.0
100
AcDbArc
 50
90.0
 51
179.8333333333378
  0
LINE
  5
43B2
330
2
100
AcDbEntity
  8
0
100
AcDbLine
 10
1324.804505740346
 20
331.216545725141
 30
0.0
 11
1324.577527681565
 21
409.2456345049859
 31
0.0
  0
CIRCLE
  5
43B3
330
2
100
AcDbEntity
  8
HIDS
  6
SEKKEI_H
100
AcDbCircle
 10
1412.577527681576
 20
409.2456345049602
 30
0.0
 40
59.00000000733051
  0
LINE
  5
43B4
330
2
100
AcDbEntity
  8
0
100
AcDbLine
 10
1400.150224149238
 20
487.2456345049853
 30
0.0
 11
1400.150224149237
 21
475.2255439328654
 31
0.0
  0
CIRCLE
  5
43B5
330
2
100
AcDbEntity
  8
0
100
AcDbCircle
 10
1461.721448974042
 20
360.1017132125087
 30
0.0
 40
5.5
  0
CIRCLE
  5
43B6
330
2
100
AcDbEntity
  8
0
100
AcDbCircle
 10
1461.721448974035
 20
458.38955579744
 30
0.0
 40
5.5
  0
CIRCLE
  5
43B7
330
2
100
AcDbEntity
  8
0
100
AcDbCircle
 10
1363.433606389104
 20
458.3895557974336
 30
0.0
 40
5.5
  0
CIRCLE
  5
43B8
330
2
100
AcDbEntity
  8
0
100
AcDbCircle
 10
1363.433606389111
 20
360.1017132125023
 30
0.0
 40
5.5
  0
LINE
  5
43B9
330
2
100
AcDbEntity
  8
CENTER
100
AcDbLine
 10
1461.72144897403
 20
450.628474191001
 30
0.0
 11
1461.72144897403
 21
466.1506374038788
 31
0.0
  0
LINE
  5
43BA
330
2
100
AcDbEntity
  8
CENTER
100
AcDbLine
 10
1453.960367367597
 20
458.38955579744
 30
0.0
 11
1469.482530580474
 21
458.38955579744
 31
0.0
  0
CIRCLE
  5
43BB
330
2
100
AcDbEntity
  8
HOJO
100
AcDbCircle
 10
1483.288205800231
 20
479.9563126236369
 30
0.0
 40
6.0
  0
CIRCLE
  5
43BC
330
2
100
AcDbEntity
  8
0
100
AcDbCircle
 10
1483.288205800231
 20
479.9563126236369
 30
0.0
 40
5.15
  0
CIRCLE
  5
43BD
330
2
100
AcDbEntity
  8
HOJO
100
AcDbCircle
 10
1341.866849562936
 20
479.9563126236387
 30
0.0
 40
6.0
  0
CIRCLE
  5
43BE
330
2
100
AcDbEntity
  8
0
100
AcDbCircle
 10
1341.866849562936
 20
479.9563126236387
 30
0.0
 40
5.15
  0
CIRCLE
  5
43BF
330
2
100
AcDbEntity
  8
HOJO
100
AcDbCircle
 10
1341.866849562925
 20
338.5349563863336
 30
0.0
 40
6.0
  0
CIRCLE
  5
43C0
330
2
100
AcDbEntity
  8
0
100
AcDbCircle
 10
1341.866849562925
 20
338.5349563863336
 30
0.0
 40
5.15
  0
CIRCLE
  5
43C1
330
2
100
AcDbEntity
  8
HOJO
100
AcDbCircle
 10
1483.288205800229
 20
338.5349563863272
 30
0.0
 40
6.0
  0
CIRCLE
  5
43C2
330
2
100
AcDbEntity
  8
0
100
AcDbCircle
 10
1483.288205800229
 20
338.5349563863272
 30
0.0
 40
5.15
  0
CIRCLE
  5
43C3
330
2
100
AcDbEntity
  8
0
100
AcDbCircle
 10
1412.57752768158
 20
409.2456345049875
 30
0.0
 40
57.14999999998963
  0
CIRCLE
  5
43C4
330
2
100
AcDbEntity
  8
CENTER
100
AcDbCircle
 10
1412.577527681578
 20
409.2456345049857
 30
0.0
 40
99.99999999999339
  0
LINE
  5
43C5
330
2
100
AcDbEntity
  8
0
100
AcDbLine
 10
1357.380772342168
 20
349.0991316972666
 30
0.0
 11
1354.291597668148
 21
346.0099570232467
 31
0.0
  0
LINE
  5
43C6
330
2
100
AcDbEntity
  8
0
100
AcDbLine
 10
1352.431024873863
 20
354.0488791655726
 30
0.0
 11
1349.341850199843
 21
350.9597044915536
 31
0.0
  0
ARC
  5
43C7
330
2
100
AcDbEntity
  8
0
100
AcDbCircle
 10
1373.004831213943
 20
462.8760754343946
 30
0.0
 40
3.0
100
AcDbArc
 50
306.4227819605219
 51
0.0
  0
ARC
  5
43C8
330
2
100
AcDbEntity
  8
0
100
AcDbCircle
 10
1449.786919658068
 20
361.3511290921308
 30
0.0
 40
3.0
100
AcDbArc
 50
307.8437463747832
 51
354.023523082027
  0
ARC
  5
43C9
330
2
100
AcDbEntity
  8
0
100
AcDbCircle
 10
1356.412918011708
 20
343.8886366796872
 30
0.0
 40
3.0
100
AcDbArc
 50
135.0000000000091
 51
200.206137536943
  0
ARC
  5
43CA
330
2
100
AcDbEntity
  8
0
100
AcDbCircle
 10
1347.220529856283
 20
353.0810248351131
 30
0.0
 40
3.0
100
AcDbArc
 50
249.7938624630321
 51
315.0000000000091
  0
LINE
  5
43CB
330
2
100
AcDbEntity
  8
0
100
AcDbLine
 10
1472.724030489284
 20
354.0488791655587
 30
0.0
 11
1475.813205163297
 21
350.9597044915425
 31
0.0
  0
LINE
  5
43CC
330
2
100
AcDbEntity
  8
0
100
AcDbLine
 10
1467.774283020976
 20
349.0991316972525
 30
0.0
 11
1470.86345769499
 21
346.0099570232376
 31
0.0
  0
ARC
  5
43CD
330
2
100
AcDbEntity
  8
0
100
AcDbCircle
 10
1477.934525506856
 20
353.0810248351024
 30
0.0
 40
3.0
100
AcDbArc
 50
224.9999999999908
 51
290.2061375369678
  0
ARC
  5
43CE
330
2
100
AcDbEntity
  8
0
100
AcDbCircle
 10
1468.742137351431
 20
343.8886366796776
 30
0.0
 40
3.0
100
AcDbArc
 50
339.793862463031
 51
44.99999999999085
  0
LINE
  5
43CF
330
2
100
AcDbEntity
  8
0
100
AcDbLine
 10
1357.380772342167
 20
469.3921373127018
 30
0.0
 11
1354.291597668148
 21
472.4813119867211
 31
0.0
  0
LINE
  5
43D0
330
2
100
AcDbEntity
  8
0
100
AcDbLine
 10
1352.43102487386
 20
464.4423898443977
 30
0.0
 11
1349.341850199843
 21
467.5315645184144
 31
0.0
  0
ARC
  5
43D1
330
2
100
AcDbEntity
  8
0
100
AcDbCircle
 10
1356.412918011708
 20
474.6026323302806
 30
0.0
 40
3.0
100
AcDbArc
 50
159.7938624630569
 51
224.9999999999908
  0
ARC
  5
43D2
330
2
100
AcDbEntity
  8
0
100
AcDbCircle
 10
1347.220529856283
 20
465.4102441748548
 30
0.0
 40
3.0
100
AcDbArc
 50
44.99999999999085
 51
110.2061375369678
  0
LINE
  5
43D3
330
2
100
AcDbEntity
  8
0
100
AcDbLine
 10
1472.724030489283
 20
464.4423898444132
 30
0.0
 11
1475.813205163297
 21
467.5315645184253
 31
0.0
  0
LINE
  5
43D4
330
2
100
AcDbEntity
  8
0
100
AcDbLine
 10
1467.774283020979
 20
469.3921373127194
 30
0.0
 11
1470.86345769499
 21
472.4813119867302
 31
0.0
  0
ARC
  5
43D5
330
2
100
AcDbEntity
  8
0
100
AcDbCircle
 10
1477.934525506856
 20
465.4102441748653
 30
0.0
 40
3.0
100
AcDbArc
 50
69.79386246303215
 51
135.0000000000091
  0
ARC
  5
43D6
330
2
100
AcDbEntity
  8
0
100
AcDbCircle
 10
1468.742137351431
 20
474.6026323302902
 30
0.0
 40
3.0
100
AcDbArc
 50
315.0000000000091
 51
20.20613753696895
  0
LINE
  5
43D7
330
2
100
AcDbEntity
  8
0
100
AcDbLine
 10
1376.004831213942
 20
487.245634504983
 30
0.0
 11
1376.004831213943
 21
462.8760754343946
 31
0.0
  0
ARC
  5
43D8
330
2
100
AcDbEntity
  8
0
100
AcDbCircle
 10
1461.721448974044
 20
360.1017132125073
 30
0.0
 40
8.999751248844436
100
AcDbArc
 50
95.97647691799922
 51
174.0235230820269
  0
ARC
  5
43D9
330
2
100
AcDbEntity
  8
0
100
AcDbCircle
 10
1460.472033094418
 20
372.036242528483
 30
0.0
 40
3.0
100
AcDbArc
 50
275.9764769179992
 51
322.156253625214
  0
LINE
  5
43DA
330
2
100
AcDbEntity
  8
0
100
AcDbLine
 10
1470.602710145727
 20
356.1701995091183
 30
0.0
 11
1465.652962677419
 21
351.2204520408079
 31
0.0
  0
ARC
  5
43DB
330
2
100
AcDbEntity
  8
0
100
AcDbCircle
 10
1474.845350832844
 20
356.1701995091171
 30
0.0
 40
3.0
100
AcDbArc
 50
135.0000000000091
 51
224.9999999999908
  0
ARC
  5
43DC
330
2
100
AcDbEntity
  8
0
100
AcDbCircle
 10
1465.652962677416
 20
346.9778113536925
 30
0.0
 40
3.0
100
AcDbArc
 50
44.99999999999085
 51
135.0000000000091
  0
LINE
  5
43DD
330
2
100
AcDbEntity
  8
0
100
AcDbLine
 10
1465.652962677448
 20
467.2708169691321
 30
0.0
 11
1470.602710145759
 21
462.3210695008245
 31
0.0
  0
ARC
  5
43DE
330
2
100
AcDbEntity
  8
0
100
AcDbCircle
 10
1465.652962677449
 20
471.5134576562493
 30
0.0
 40
3.0
100
AcDbArc
 50
224.9999999999908
 51
315.0000000000091
  0
ARC
  5
43DF
330
2
100
AcDbEntity
  8
0
100
AcDbCircle
 10
1474.845350832873
 20
462.3210695008218
 30
0.0
 40
3.0
100
AcDbArc
 50
135.0000000000091
 51
224.9999999999908
  0
LINE
  5
43E0
330
2
100
AcDbEntity
  8
0
100
AcDbLine
 10
1354.552345217434
 20
462.3210695008536
 30
0.0
 11
1359.502092685741
 21
467.2708169691637
 31
0.0
  0
ARC
  5
43E1
330
2
100
AcDbEntity
  8
0
100
AcDbCircle
 10
1350.309704530317
 20
462.3210695008545
 30
0.0
 40
3.0
100
AcDbArc
 50
315.0000000000091
 51
44.99999999999085
  0
ARC
  5
43E2
330
2
100
AcDbEntity
  8
0
100
AcDbCircle
 10
1359.502092685744
 20
471.5134576562792
 30
0.0
 40
3.0
100
AcDbArc
 50
224.9999999999908
 51
315.0000000000091
  0
LINE
  5
43E3
330
2
100
AcDbEntity
  8
0
100
AcDbLine
 10
1359.502092685712
 20
351.2204520408393
 30
0.0
 11
1354.552345217402
 21
356.1701995091469
 31
0.0
  0
ARC
  5
43E4
330
2
100
AcDbEntity
  8
0
100
AcDbCircle
 10
1359.502092685711
 20
346.977811353722
 30
0.0
 40
3.0
100
AcDbArc
 50
44.99999999999085
 51
135.0000000000091
  0
ARC
  5
43E5
330
2
100
AcDbEntity
  8
0
100
AcDbCircle
 10
1350.309704530287
 20
356.1701995091496
 30
0.0
 40
3.0
100
AcDbArc
 50
315.0000000000091
 51
44.99999999999085
  0
ARC
  5
43E6
330
2
100
AcDbEntity
  8
0
100
AcDbCircle
 10
1460.472033094436
 20
446.4550264814731
 30
0.0
 40
3.0
100
AcDbArc
 50
37.84374637479502
 51
84.02352308205298
  0
ARC
  5
43E7
330
2
100
AcDbEntity
  8
0
100
AcDbCircle
 10
1461.721448974059
 20
458.389555797449
 30
0.0
 40
8.999751248844436
100
AcDbArc
 50
185.9764769179996
 51
264.0235230820529
  0
ARC
  5
43E8
330
2
100
AcDbEntity
  8
0
100
AcDbCircle
 10
1449.786919658083
 20
457.1401399178237
 30
0.0
 40
3.0
100
AcDbArc
 50
5.976476917999605
 51
52.15625362521466
  0
ARC
  5
43E9
330
2
100
AcDbEntity
  8
0
100
AcDbCircle
 10
1375.368135705093
 20
457.1401399178411
 30
0.0
 40
3.0
100
AcDbArc
 50
127.8437463748505
 51
174.0235230820133
  0
ARC
  5
43EA
330
2
100
AcDbEntity
  8
0
100
AcDbCircle
 10
1363.433606389117
 20
458.3895557974645
 30
0.0
 40
8.999751248844436
100
AcDbArc
 50
275.976476917947
 51
354.0235230820133
  0
ARC
  5
43EB
330
2
100
AcDbEntity
  8
0
100
AcDbCircle
 10
1364.683022268742
 20
446.4550264814887
 30
0.0
 40
3.0
100
AcDbArc
 50
95.97647691794703
 51
142.156253625214
  0
ARC
  5
43EC
330
2
100
AcDbEntity
  8
0
100
AcDbCircle
 10
1364.683022268725
 20
372.0362425284982
 30
0.0
 40
3.0
100
AcDbArc
 50
217.8437463747859
 51
264.0235230820529
  0
ARC
  5
43ED
330
2
100
AcDbEntity
  8
0
100
AcDbCircle
 10
1363.433606389102
 20
360.1017132125223
 30
0.0
 40
8.999751248844436
100
AcDbArc
 50
5.976476917999605
 51
84.02352308205298
  0
ARC
  5
43EE
330
2
100
AcDbEntity
  8
0
100
AcDbCircle
 10
1375.368135705077
 20
361.3511290921477
 30
0.0
 40
3.0
100
AcDbArc
 50
185.9764769179996
 51
232.1562536252146
  0
LINE
  5
43F0
330
2
100
AcDbEntity
  8
0
100
AcDbLine
 10
161.1411416732746
 20
468.2456345049839
 30
0.0
 11
215.5144065617498
 21
468.2456345049836
 31
0.0
  0
ARC
  5
43F1
330
2
100
AcDbEntity
  8
0
100
AcDbCircle
 10
161.1411416732746
 20
478.2456345049839
 30
0.0
 40
10.0
100
AcDbArc
 50
181.0000000000017
 51
270.0
  0
LINE
  5
43F2
330
2
100
AcDbEntity
  8
0
100
AcDbLine
 10
230.3079721591986
 20
349.2456345049861
 30
0.0
 11
219.2560639485457
 21
349.2456345049861
 31
0.0
  0
ARC
  5
43F3
330
2
100
AcDbEntity
  8
0
100
AcDbCircle
 10
219.2560639485457
 20
352.2456345049862
 30
0.0
 40
3.0
100
AcDbArc
 50
181.0000000000017
 51
270.0
  0
ARC
  5
43F4
330
2
100
AcDbEntity
  8
0
100
AcDbCircle
 10
215.5144065617716
 20
345.7456345049862
 30
0.0
 40
4.5
100
AcDbArc
 50
60.07356513338103
 51
90.0
  0
LINE
  5
43F5
330
2
100
AcDbEntity
  8
0
100
AcDbLine
 10
215.5144065617725
 20
350.2456345049862
 30
0.0
 11
161.1411416732701
 21
350.245634504987
 31
0.0
  0
LINE
  5
43F6
330
2
100
AcDbEntity
  8
0
100
AcDbLine
 10
150.8594234553149
 20
324.1932772856746
 30
0.0
 11
152.3440178728853
 21
409.2456345049864
 31
0.0
  0
ARC
  5
43F7
330
2
100
AcDbEntity
  8
0
100
AcDbCircle
 10
155.2310169349841
 20
402.7456345049864
 30
0.0
 40
3.0
100
AcDbArc
 50
90.0
 51
178.9999999999851
  0
ARC
  5
43F8
330
2
100
AcDbEntity
  8
0
100
AcDbCircle
 10
161.1411416732701
 20
340.245634504987
 30
0.0
 40
10.0
100
AcDbArc
 50
90.0
 51
178.9999999999982
  0
LINE
  5
43F9
330
2
100
AcDbEntity
  8
0
100
AcDbLine
 10
135.8079721591934
 20
321.2456345049861
 30
0.0
 11
135.8079721591941
 21
497.2456345049883
 31
0.0
  0
LINE
  5
43FA
330
2
100
AcDbEntity
  8
0
100
AcDbLine
 10
175.3079721591941
 20
405.7456345049861
 30
0.0
 11
175.3079721591941
 21
412.7456345049862
 31
0.0
  0
LINE
  5
43FB
330
2
100
AcDbEntity
  8
0
100
AcDbLine
 10
216.2565208630769
 20
352.1932772856742
 30
0.0
 11
215.2606682635062
 21
409.2456345049864
 31
0.0
  0
LINE
  5
43FC
330
2
100
AcDbEntity
  8
0
100
AcDbLine
 10
230.3079721591978
 20
349.2456345049861
 30
0.0
 11
230.3079721591986
 21
469.2456345049861
 31
0.0
  0
LINE
  5
43FD
330
2
100
AcDbEntity
  8
0
100
AcDbLine
 10
135.8079721591934
 20
321.2456345049861
 30
0.0
 11
147.8598803698462
 21
321.2456345049866
 31
0.0
  0
ARC
  5
43FE
330
2
100
AcDbEntity
  8
0
100
AcDbCircle
 10
147.8598803698462
 20
324.2456345049866
 30
0.0
 40
3.0
100
AcDbArc
 50
270.0
 51
358.9999999999982
  0
LINE
  5
43FF
330
2
100
AcDbEntity
  8
0
100
AcDbLine
 10
155.2310169349841
 20
405.7456345049864
 30
0.0
 11
172.3079721591941
 21
405.7456345049861
 31
0.0
  0
ARC
  5
4400
330
2
100
AcDbEntity
  8
0
100
AcDbCircle
 10
172.3079721591941
 20
402.7456345049861
 30
0.0
 40
3.0
100
AcDbArc
 50
0.0
 51
90.0
  0
LINE
  5
4401
330
2
100
AcDbEntity
  8
0
100
AcDbLine
 10
174.4292925027534
 20
349.3669548485464
 30
0.0
 11
151.7449844174175
 21
326.6826467632095
 31
0.0
  0
LINE
  5
4402
330
2
100
AcDbEntity
  8
0
100
AcDbLine
 10
175.3079721591941
 20
412.7456345049879
 30
0.0
 11
175.3079721591941
 21
405.745634504988
 31
0.0
  0
LINE
  5
4403
330
2
100
AcDbEntity
  8
0
100
AcDbLine
 10
135.8079721591941
 20
497.2456345049883
 30
0.0
 11
147.8598803698516
 21
497.245634504988
 31
0.0
  0
ARC
  5
4404
330
2
100
AcDbEntity
  8
0
100
AcDbCircle
 10
147.8598803698516
 20
494.245634504988
 30
0.0
 40
3.0
100
AcDbArc
 50
1.000000000001763
 51
90.0
  0
LINE
  5
4405
330
2
100
AcDbEntity
  8
0
100
AcDbLine
 10
155.2310169349832
 20
412.7456345049879
 30
0.0
 11
172.3079721591941
 21
412.7456345049879
 31
0.0
  0
ARC
  5
4406
330
2
100
AcDbEntity
  8
0
100
AcDbCircle
 10
172.3079721591941
 20
415.745634504988
 30
0.0
 40
3.0
100
AcDbArc
 50
270.0
 51
0.0
  0
LINE
  5
4407
330
2
100
AcDbEntity
  8
0
100
AcDbLine
 10
230.3079721591986
 20
469.245634504988
 30
0.0
 11
219.256063948532
 21
469.245634504988
 31
0.0
  0
LINE
  5
4408
330
2
100
AcDbEntity
  8
0
100
AcDbLine
 10
230.3079721591982
 20
409.2456345049861
 30
0.0
 11
135.8079721591936
 21
409.2456345049864
 31
0.0
  0
LINE
  5
4409
330
2
100
AcDbEntity
  8
0
100
AcDbLine
 10
216.2565208630633
 20
466.2979917242999
 30
0.0
 11
215.2606682634943
 21
409.2456345049679
 31
0.0
  0
ARC
  5
440A
330
2
100
AcDbEntity
  8
0
100
AcDbCircle
 10
219.256063948532
 20
466.2456345049879
 30
0.0
 40
3.0
100
AcDbArc
 50
90.0
 51
178.9999999999982
  0
ARC
  5
440B
330
2
100
AcDbEntity
  8
0
100
AcDbCircle
 10
215.5144065617507
 20
472.7456345049836
 30
0.0
 40
4.5
100
AcDbArc
 50
270.0
 51
299.926434866679
  0
LINE
  5
440C
330
2
100
AcDbEntity
  8
0
100
AcDbLine
 10
150.8594234553204
 20
494.2979917243
 30
0.0
 11
152.3440178728872
 21
409.2456345049864
 31
0.0
  0
ARC
  5
440D
330
2
100
AcDbEntity
  8
0
100
AcDbCircle
 10
155.2310169349832
 20
415.745634504988
 30
0.0
 40
3.0
100
AcDbArc
 50
181.0000000000017
 51
270.0
  0
ARC
  5
440E
330
2
100
AcDbEntity
  8
0
100
AcDbCircle
 10
176.5506128463132
 20
347.2456345049866
 30
0.0
 40
3.0
100
AcDbArc
 50
90.0
 51
135.000000000009
  0
ARC
  5
440F
330
2
100
AcDbEntity
  8
0
100
AcDbCircle
 10
153.866304760977
 20
324.5613264196498
 30
0.0
 40
3.0
100
AcDbArc
 50
135.000000000009
 51
178.9999999999982
  0
LINE
  5
4410
330
2
100
AcDbEntity
  8
0
100
AcDbLine
 10
174.4292925027525
 20
469.1243141614271
 30
0.0
 11
151.7449844174161
 21
491.8086222467635
 31
0.0
  0
ARC
  5
4411
330
2
100
AcDbEntity
  8
0
100
AcDbCircle
 10
176.5506128463121
 20
471.2456345049866
 30
0.0
 40
3.0
100
AcDbArc
 50
224.9999999999908
 51
270.0
  0
ARC
  5
4412
330
2
100
AcDbEntity
  8
0
100
AcDbCircle
 10
153.8663047609757
 20
493.929942590323
 30
0.0
 40
3.0
100
AcDbArc
 50
181.0000000000017
 51
224.9999999999908
  0
LINE
  5
4414
330
2
100
AcDbEntity
  8
0
100
AcDbLine
 10
1067.84904350533
 20
452.6395557975709
 30
0.0
 11
1069.349043505331
 21
452.6395557975709
 31
0.0
  0
LINE
  5
4415
330
2
100
AcDbEntity
  8
0
100
AcDbLine
 10
1067.849043505331
 20
464.1395557975709
 30
0.0
 11
1069.349043505331
 21
464.1395557975709
 31
0.0
  0
LINE
  5
4416
330
2
100
AcDbEntity
  8
0
100
AcDbLine
 10
1074.949043505331
 20
453.3895557975706
 30
0.0
 11
1075.34904350533
 21
454.0823761205979
 31
0.0
  0
LINE
  5
4417
330
2
100
AcDbEntity
  8
0
100
AcDbLine
 10
1069.349043505331
 20
452.6395557975709
 30
0.0
 11
1069.349043505331
 21
464.1395557975709
 31
0.0
  0
LINE
  5
4418
330
2
100
AcDbEntity
  8
0
100
AcDbLine
 10
1074.949043505331
 20
453.3895557975706
 30
0.0
 11
1074.949043505331
 21
463.3895557975706
 31
0.0
  0
LINE
  5
4419
330
2
100
AcDbEntity
  8
0
100
AcDbLine
 10
1069.349043505331
 20
453.3895557975709
 30
0.0
 11
1074.949043505331
 21
453.3895557975706
 31
0.0
  0
LINE
  5
441A
330
2
100
AcDbEntity
  8
0
100
AcDbLine
 10
1069.349043505331
 20
463.3895557975709
 30
0.0
 11
1074.949043505331
 21
463.3895557975706
 31
0.0
  0
LINE
  5
441B
330
2
100
AcDbEntity
  8
0
100
AcDbLine
 10
1074.949043505331
 20
463.3895557975706
 30
0.0
 11
1075.349043505331
 21
462.6967354745434
 31
0.0
  0
LINE
  5
441C
330
2
100
AcDbEntity
  8
0
100
AcDbLine
 10
1075.34904350533
 20
454.0823761205979
 30
0.0
 11
1075.349043505331
 21
462.6967354745434
 31
0.0
  0
LINE
  5
441D
330
2
100
AcDbEntity
  8
0
 48
12.0
100
AcDbLine
 10
1067.849043505331
 20
464.1395557975709
 30
0.0
 11
1067.84904350533
 21
452.6395557975709
 31
0.0
  0
LINE
  5
441E
330
2
100
AcDbEntity
  8
0
100
AcDbLine
 10
1067.559171748527
 20
860.984698496663
 30
0.0
 11
1069.059171748527
 21
860.984698496663
 31
0.0
  0
LINE
  5
441F
330
2
100
AcDbEntity
  8
0
100
AcDbLine
 10
1067.559171748527
 20
872.484698496663
 30
0.0
 11
1069.059171748528
 21
872.484698496663
 31
0.0
  0
LINE
  5
4420
330
2
100
AcDbEntity
  8
0
100
AcDbLine
 10
1074.659171748527
 20
861.7346984966628
 30
0.0
 11
1075.059171748526
 21
862.42751881969
 31
0.0
  0
LINE
  5
4421
330
2
100
AcDbEntity
  8
0
100
AcDbLine
 10
1069.059171748527
 20
860.984698496663
 30
0.0
 11
1069.059171748528
 21
872.484698496663
 31
0.0
  0
LINE
  5
4422
330
2
100
AcDbEntity
  8
0
100
AcDbLine
 10
1074.659171748527
 20
861.7346984966628
 30
0.0
 11
1074.659171748527
 21
871.7346984966628
 31
0.0
  0
LINE
  5
4423
330
2
100
AcDbEntity
  8
0
100
AcDbLine
 10
1069.059171748527
 20
861.734698496663
 30
0.0
 11
1074.659171748527
 21
861.7346984966628
 31
0.0
  0
LINE
  5
4424
330
2
100
AcDbEntity
  8
0
100
AcDbLine
 10
1069.059171748528
 20
871.734698496663
 30
0.0
 11
1074.659171748527
 21
871.7346984966628
 31
0.0
  0
LINE
  5
4425
330
2
100
AcDbEntity
  8
0
100
AcDbLine
 10
1074.659171748527
 20
871.7346984966628
 30
0.0
 11
1075.059171748527
 21
871.0418781736354
 31
0.0
  0
LINE
  5
4426
330
2
100
AcDbEntity
  8
0
100
AcDbLine
 10
1075.059171748526
 20
862.42751881969
 30
0.0
 11
1075.059171748527
 21
871.0418781736354
 31
0.0
  0
LINE
  5
4427
330
2
100
AcDbEntity
  8
0
 48
12.0
100
AcDbLine
 10
1067.559171748527
 20
872.484698496663
 30
0.0
 11
1067.559171748527
 21
860.984698496663
 31
0.0
  0
LINE
  5
4428
330
2
100
AcDbEntity
  8
0
100
AcDbLine
 10
216.0181235519046
 20
365.851050095612
 30
0.0
 11
214.5181235519042
 21
365.851050095612
 31
0.0
  0
LINE
  5
4429
330
2
100
AcDbEntity
  8
0
100
AcDbLine
 10
216.0181235519043
 20
354.351050095612
 30
0.0
 11
214.5181235519037
 21
354.351050095612
 31
0.0
  0
LINE
  5
442A
330
2
100
AcDbEntity
  8
0
100
AcDbLine
 10
208.9181235519042
 20
365.1010500956122
 30
0.0
 11
208.5181235519046
 21
364.408229772585
 31
0.0
  0
LINE
  5
442B
330
2
100
AcDbEntity
  8
0
100
AcDbLine
 10
214.5181235519042
 20
365.851050095612
 30
0.0
 11
214.5181235519037
 21
354.351050095612
 31
0.0
  0
LINE
  5
442C
330
2
100
AcDbEntity
  8
0
100
AcDbLine
 10
208.9181235519042
 20
365.1010500956122
 30
0.0
 11
208.918123551904
 21
355.1010500956122
 31
0.0
  0
LINE
  5
442D
330
2
100
AcDbEntity
  8
0
100
AcDbLine
 10
214.5181235519042
 20
365.101050095612
 30
0.0
 11
208.9181235519042
 21
365.1010500956122
 31
0.0
  0
LINE
  5
442E
330
2
100
AcDbEntity
  8
0
100
AcDbLine
 10
214.5181235519037
 20
355.101050095612
 30
0.0
 11
208.918123551904
 21
355.1010500956122
 31
0.0
  0
LINE
  5
442F
330
2
100
AcDbEntity
  8
0
100
AcDbLine
 10
208.918123551904
 20
355.1010500956122
 30
0.0
 11
208.5181235519044
 21
355.7938704186395
 31
0.0
  0
LINE
  5
4430
330
2
100
AcDbEntity
  8
0
100
AcDbLine
 10
208.5181235519046
 20
364.408229772585
 30
0.0
 11
208.5181235519044
 21
355.7938704186395
 31
0.0
  0
LINE
  5
4431
330
2
100
AcDbEntity
  8
0
 48
12.0
100
AcDbLine
 10
216.0181235519043
 20
354.351050095612
 30
0.0
 11
216.0181235519046
 21
365.851050095612
 31
0.0
  0
LINE
  5
4432
330
2
100
AcDbEntity
  8
0
100
AcDbLine
 10
216.0181004023943
 20
464.1388926805451
 30
0.0
 11
214.5181004023938
 21
464.1388926805451
 31
0.0
  0
LINE
  5
4433
330
2
100
AcDbEntity
  8
0
100
AcDbLine
 10
216.0181004023943
 20
452.638892680545
 30
0.0
 11
214.5181004023934
 21
452.638892680545
 31
0.0
  0
LINE
  5
4434
330
2
100
AcDbEntity
  8
0
100
AcDbLine
 10
208.9181004023939
 20
463.3888926805453
 30
0.0
 11
208.5181004023943
 21
462.696072357518
 31
0.0
  0
LINE
  5
4435
330
2
100
AcDbEntity
  8
0
100
AcDbLine
 10
214.5181004023938
 20
464.1388926805451
 30
0.0
 11
214.5181004023934
 21
452.638892680545
 31
0.0
  0
LINE
  5
4436
330
2
100
AcDbEntity
  8
0
100
AcDbLine
 10
208.9181004023939
 20
463.3888926805453
 30
0.0
 11
208.9181004023939
 21
453.3888926805452
 31
0.0
  0
LINE
  5
4437
330
2
100
AcDbEntity
  8
0
100
AcDbLine
 10
214.5181004023938
 20
463.388892680545
 30
0.0
 11
208.9181004023939
 21
463.3888926805453
 31
0.0
  0
LINE
  5
4438
330
2
100
AcDbEntity
  8
0
100
AcDbLine
 10
214.5181004023934
 20
453.3888926805451
 30
0.0
 11
208.9181004023939
 21
453.3888926805452
 31
0.0
  0
LINE
  5
4439
330
2
100
AcDbEntity
  8
0
100
AcDbLine
 10
208.9181004023939
 20
453.3888926805452
 30
0.0
 11
208.5181004023943
 21
454.0817130035725
 31
0.0
  0
LINE
  5
443A
330
2
100
AcDbEntity
  8
0
100
AcDbLine
 10
208.5181004023943
 20
462.696072357518
 30
0.0
 11
208.5181004023943
 21
454.0817130035725
 31
0.0
  0
LINE
  5
443B
330
2
100
AcDbEntity
  8
0
 48
12.0
100
AcDbLine
 10
216.0181004023943
 20
452.638892680545
 30
0.0
 11
216.0181004023943
 21
464.1388926805451
 31
0.0
  0
CIRCLE
  5
443C
330
2
100
AcDbEntity
  8
0
100
AcDbCircle
 10
1129.559171748554
 20
793.0907772041993
 30
0.0
 40
9.0
  0
LINE
  5
443D
330
2
100
AcDbEntity
  8
0
100
AcDbLine
 10
1130.72600223445
 20
472.2456345049834
 30
0.0
 11
1124.559171748531
 21
472.2456345049834
 31
0.0
  0
ARC
  5
443E
330
2
100
AcDbEntity
  8
0
100
AcDbCircle
 10
1124.559171748531
 20
468.2456345049834
 30
0.0
 40
4.0
100
AcDbArc
 50
90.0
 51
180.0
  0
LINE
  5
443F
330
2
100
AcDbEntity
  8
0
100
AcDbLine
 10
1118.059171748531
 20
409.2456345049863
 30
0.0
 11
1118.059171748532
 21
436.3032088918151
 31
0.0
  0
LINE
  5
4440
330
2
100
AcDbEntity
  8
0
100
AcDbLine
 10
1140.059171748531
 20
409.2456345049863
 30
0.0
 11
1140.059171748531
 21
441.2456345049865
 31
0.0
  0
LINE
  5
4441
330
2
100
AcDbEntity
  8
0
100
AcDbLine
 10
1138.059171748531
 20
409.2456345049863
 30
0.0
 11
1138.059171748531
 21
426.7456345049866
 31
0.0
  0
LINE
  5
4442
330
2
100
AcDbEntity
  8
0
100
AcDbLine
 10
1120.059171748531
 20
409.2456345049863
 30
0.0
 11
1120.059171748531
 21
436.5629449132605
 31
0.0
  0
LINE
  5
4443
330
2
100
AcDbEntity
  8
0
100
AcDbLine
 10
1125.826668127951
 20
441.2456345049865
 30
0.0
 11
1140.059171748531
 21
441.2456345049865
 31
0.0
  0
LINE
  5
4444
330
2
100
AcDbEntity
  8
0
100
AcDbLine
 10
1066.559171748531
 20
409.2456345049863
 30
0.0
 11
1066.559171748531
 21
427.2456345049861
 31
0.0
  0
LINE
  5
4445
330
2
100
AcDbEntity
  8
0
 48
0.3
100
AcDbLine
 10
1086.559171748531
 20
426.7456345049861
 30
0.0
 11
1118.059171748531
 21
426.7456345049861
 31
0.0
  0
LINE
  5
4446
330
2
100
AcDbEntity
  8
0
 48
0.3
100
AcDbLine
 10
1120.059171748531
 20
426.7456345049866
 30
0.0
 11
1138.059171748531
 21
426.7456345049866
 31
0.0
  0
LINE
  5
4447
330
2
100
AcDbEntity
  8
0
100
AcDbLine
 10
1086.559171748531
 20
409.2456345049863
 30
0.0
 11
1086.559171748531
 21
427.2456345049861
 31
0.0
  0
LINE
  5
4448
330
2
100
AcDbEntity
  8
0
100
AcDbLine
 10
1066.559171748531
 20
426.245634504986
 30
0.0
 11
1056.744217172308
 21
409.2456345049866
 31
0.0
  0
LINE
  5
4449
330
2
100
AcDbEntity
  8
0
100
AcDbLine
 10
1086.559171748531
 20
427.2456345049861
 30
0.0
 11
1066.559171748531
 21
427.2456345049861
 31
0.0
  0
LINE
  5
444A
330
2
100
AcDbEntity
  8
0
100
AcDbLine
 10
1138.059171748531
 20
426.7456345049866
 30
0.0
 11
1140.059171748531
 21
427.9003350433659
 31
0.0
  0
LINE
  5
444B
330
2
100
AcDbEntity
  8
0
100
AcDbLine
 10
1141.059171748536
 20
466.3956345049871
 30
0.0
 11
1141.059171748531
 21
409.2456345049868
 31
0.0
  0
LINE
  5
444C
330
2
100
AcDbEntity
  8
0
100
AcDbLine
 10
1140.559171748532
 20
464.4956345049872
 30
0.0
 11
1140.559171748529
 21
409.245634504986
 31
0.0
  0
LINE
  5
444D
330
2
100
AcDbEntity
  8
0
100
AcDbLine
 10
1136.344741611744
 20
458.8817103391477
 30
0.0
 11
1138.080116281533
 21
459.1877037150693
 31
0.0
  0
ARC
  5
444E
330
2
100
AcDbEntity
  8
0
100
AcDbCircle
 10
1137.559171748532
 20
462.1421269741061
 30
0.0
 40
3.0
100
AcDbArc
 50
280.000000000005
 51
0.0
  0
LINE
  5
444F
330
2
100
AcDbEntity
  8
0
100
AcDbLine
 10
1141.059171748536
 20
464.9956345049885
 30
0.0
 11
1140.559171748532
 21
464.4956345049872
 31
0.0
  0
LINE
  5
4450
330
2
100
AcDbEntity
  8
0
100
AcDbLine
 10
1148.059171748531
 20
466.3956345049869
 30
0.0
 11
1141.059171748536
 21
466.3956345049871
 31
0.0
  0
LINE
  5
4452
330
2
100
AcDbEntity
  8
CENTER
100
AcDbLine
 10
1388.07752768158
 20
386.3710484168173
 30
0.0
 11
1388.077527681589
 21
502.2456345049848
 31
0.0
  0
LINE
  5
4453
330
2
100
AcDbEntity
  8
HIDS
  6
SEKKEI_H
100
AcDbLine
 10
1382.180159374448
 20
419.2456345050048
 30
0.0
 11
1395.827527681573
 21
419.2456345050043
 31
0.0
  0
LINE
  5
4454
330
2
100
AcDbEntity
  8
HIDS
  6
SEKKEI_H
100
AcDbLine
 10
1395.827527681573
 20
419.2456345050043
 30
0.0
 11
1395.827527681573
 21
436.5116848240248
 31
0.0
  0
LINE
  5
4455
330
2
100
AcDbEntity
  8
HIDS
  6
SEKKEI_H
100
AcDbLine
 10
1392.577527681573
 20
409.9956345050016
 30
0.0
 11
1392.577527681573
 21
419.2456345050046
 31
0.0
  0
LINE
  5
4459
330
2
100
AcDbEntity
  8
0
100
AcDbLine
 10
1380.586317951414
 20
408.4956345050016
 30
0.0
 11
1395.093606496681
 21
408.4956345050016
 31
0.0
  0
LINE
  5
445A
330
2
100
AcDbEntity
  8
0
100
AcDbLine
 10
1430.061448866495
 20
408.4956345050016
 30
0.0
 11
1442.663649325975
 21
408.4956345050021
 31
0.0
  0
LINE
  5
445B
330
2
100
AcDbEntity
  8
0
100
AcDbLine
 10
1380.586317951414
 20
409.9956345050016
 30
0.0
 11
1395.093606496682
 21
409.9956345050016
 31
0.0
  0
LINE
  5
445C
330
2
100
AcDbEntity
  8
0
100
AcDbLine
 10
1430.061448866494
 20
409.9956345050021
 30
0.0
 11
1442.663649325975
 21
409.9956345050016
 31
0.0
  0
LINE
  5
445E
330
2
100
AcDbEntity
  8
HIDS
  6
SEKKEI_H
100
AcDbLine
 10
1383.577527681588
 20
409.9956345050016
 30
0.0
 11
1383.577527681588
 21
419.2456345050046
 31
0.0
  0
LINE
  5
445F
330
2
100
AcDbEntity
  8
0
100
AcDbLine
 10
1442.663649325975
 20
408.4956345050021
 30
0.0
 11
1442.663649325975
 21
409.9956345050016
 31
0.0
  0
ARC
  5
4460
330
2
100
AcDbEntity
  8
0
100
AcDbCircle
 10
1412.57752768158
 20
409.2456345049857
 30
0.0
 40
18.65470053837964
100
AcDbArc
 50
182.3041602576043
 51
357.6958397423956
  0
ARC
  5
4461
330
2
100
AcDbEntity
  8
0
100
AcDbCircle
 10
1412.57752768158
 20
409.2456345049857
 30
0.0
 40
18.65470053837964
100
AcDbArc
 50
2.304160257695486
 51
177.6958397423045
  0
CIRCLE
  5
4462
330
2
100
AcDbEntity
  8
0
100
AcDbCircle
 10
1412.57752768158
 20
409.2456345049857
 30
0.0
 40
17.50000000000857
  0
CIRCLE
  5
4463
330
2
100
AcDbEntity
  8
0
100
AcDbCircle
 10
1412.57752768158
 20
409.2456345049857
 30
0.0
 40
31.99999999999173
  0
LINE
  5
4464
330
2
100
AcDbEntity
  8
HIDS
  6
SEKKEI_H
100
AcDbLine
 10
1394.577527681583
 20
428.7456345050048
 30
0.0
 11
1387.205298768875
 21
428.745634505005
 31
0.0
  0
LINE
  5
4465
330
2
100
AcDbEntity
  8
HIDS
  6
SEKKEI_H
100
AcDbLine
 10
1393.711502277797
 20
429.2456345050048
 30
0.0
 11
1387.597535688013
 21
429.2456345050048
 31
0.0
  0
LINE
  5
4466
330
2
100
AcDbEntity
  8
HIDS
  6
SEKKEI_H
100
AcDbLine
 10
1395.327527681583
 20
421.2456345050048
 30
0.0
 11
1382.912733733214
 21
421.2456345050048
 31
0.0
  0
LINE
  5
4469
330
2
100
AcDbEntity
  8
0
 48
0.3
100
AcDbLine
 10
1380.827527681583
 20
421.2456345050045
 30
0.0
 11
1380.827527681583
 21
419.2456345050046
 31
0.0
  0
LINE
  5
446A
330
2
100
AcDbEntity
  8
0
 48
0.3
100
AcDbLine
 10
1381.577527681582
 20
428.7456345050046
 30
0.0
 11
1382.443553085367
 21
429.2456345050045
 31
0.0
  0
LINE
  5
446B
330
2
100
AcDbEntity
  8
0
 48
0.3
100
AcDbLine
 10
1381.577527681582
 20
428.7456345050046
 30
0.0
 11
1381.577527681582
 21
421.2456345050045
 31
0.0
  0
LINE
  5
446C
330
2
100
AcDbEntity
  8
HIDS
  6
SEKKEI_H
100
AcDbLine
 10
1395.327527681583
 20
421.2456345050048
 30
0.0
 11
1395.327527681583
 21
419.2456345050048
 31
0.0
  0
LINE
  5
446D
330
2
100
AcDbEntity
  8
HIDS
  6
SEKKEI_H
100
AcDbLine
 10
1394.577527681582
 20
428.7456345050041
 30
0.0
 11
1393.711502277798
 21
429.2456345050044
 31
0.0
  0
LINE
  5
446E
330
2
100
AcDbEntity
  8
HIDS
  6
SEKKEI_H
100
AcDbLine
 10
1394.577527681583
 20
428.7456345050038
 30
0.0
 11
1394.577527681583
 21
421.2456345050048
 31
0.0
  0
LINE
  5
446F
330
2
100
AcDbEntity
  8
0
100
AcDbLine
 10
1387.597535688013
 20
429.2456345050048
 30
0.0
 11
1382.443553085367
 21
429.2456345050045
 31
0.0
  0
LINE
  5
4470
330
2
100
AcDbEntity
  8
0
100
AcDbLine
 10
1387.205298768875
 20
428.7456345050048
 30
0.0
 11
1381.577527681582
 21
428.7456345050046
 31
0.0
  0
LINE
  5
4471
330
2
100
AcDbEntity
  8
0
100
AcDbLine
 10
1382.912733733214
 20
421.2456345050045
 30
0.0
 11
1380.827527681583
 21
421.2456345050045
 31
0.0
  0
LINE
  5
4472
330
2
100
AcDbEntity
  8
0
100
AcDbLine
 10
1382.180159374454
 20
419.2456345050048
 30
0.0
 11
1380.827527681583
 21
419.2456345050046
 31
0.0
  0
LINE
  5
4474
330
2
100
AcDbEntity
  8
HIDS
  6
SEKKEI_H
100
AcDbLine
 10
1382.997655273608
 20
419.2456345050046
 30
0.0
 11
1395.327527681583
 21
419.2456345050048
 31
0.0
  0
LINE
  5
4475
330
2
100
AcDbEntity
  8
HOJO
100
AcDbLine
 10
1384.677527681576
 20
408.4956345050016
 30
0.0
 11
1384.677527681576
 21
409.9956345050016
 31
0.0
  0
LINE
  5
4476
330
2
100
AcDbEntity
  8
0
100
AcDbLine
 10
1384.077527681576
 20
408.4956345050021
 30
0.0
 11
1384.077527681576
 21
409.9956345050016
 31
0.0
  0
LINE
  5
4477
330
2
100
AcDbEntity
  8
HOJO
100
AcDbLine
 10
1391.477527681575
 20
408.4956345050021
 30
0.0
 11
1391.477527681575
 21
409.9956345050016
 31
0.0
  0
LINE
  5
4478
330
2
100
AcDbEntity
  8
0
100
AcDbLine
 10
1392.077527681576
 20
408.4956345050021
 30
0.0
 11
1392.077527681576
 21
409.9956345050016
 31
0.0
  0
LINE
  5
4479
330
2
100
AcDbEntity
  8
HIDS
  6
SEKKEI_H
100
AcDbLine
 10
1392.077527681576
 20
409.9956345050016
 30
0.0
 11
1392.077527681576
 21
419.2456345050043
 31
0.0
  0
LINE
  5
447A
330
2
100
AcDbEntity
  8
HIDS
  6
SEKKEI_H
100
AcDbLine
 10
1391.477527681575
 20
409.9956345050016
 30
0.0
 11
1391.477527681575
 21
419.2456345050043
 31
0.0
  0
LINE
  5
447B
330
2
100
AcDbEntity
  8
HIDS
  6
SEKKEI_H
100
AcDbLine
 10
1384.677527681576
 20
409.9956345050016
 30
0.0
 11
1384.677527681576
 21
419.2456345050048
 31
0.0
  0
LINE
  5
447C
330
2
100
AcDbEntity
  8
HIDS
  6
SEKKEI_H
100
AcDbLine
 10
1384.077527681576
 20
409.9956345050016
 30
0.0
 11
1384.077527681576
 21
419.2456345050048
 31
0.0
  0
LINE
  5
4482
330
2
100
AcDbEntity
  8
CENTER
100
AcDbLine
 10
591.6292542424464
 20
311.2456345050989
 30
0.0
 11
591.6292542424437
 21
507.2456345050984
 31
0.0
  0
LINE
  5
4484
330
2
100
AcDbEntity
  8
CENTER
100
AcDbLine
 10
616.1292542424498
 20
459.8766044925802
 30
0.0
 11
616.1292542424498
 21
502.2456345050984
 31
0.0
  0
LINE
  5
4485
330
2
100
AcDbEntity
  8
CENTER
100
AcDbLine
 10
531.918576123795
 20
338.534956386449
 30
0.0
 11
509.918576123795
 21
338.534956386449
 31
0.0
  0
LINE
  5
4486
330
2
100
AcDbEntity
  8
CENTER
100
AcDbLine
 10
520.9185761237949
 20
349.5349563864436
 30
0.0
 11
520.9185761237949
 21
327.5349563864435
 31
0.0
  0
LINE
  5
4487
330
2
100
AcDbEntity
  8
CENTER
100
AcDbLine
 10
520.9185761237931
 20
468.9563126237524
 30
0.0
 11
520.9185761237931
 21
490.9563126237523
 31
0.0
  0
LINE
  5
4488
330
2
100
AcDbEntity
  8
CENTER
100
AcDbLine
 10
531.9185761237877
 20
479.9563126237524
 30
0.0
 11
509.9185761237877
 21
479.9563126237524
 31
0.0
  0
LINE
  5
4489
330
2
100
AcDbEntity
  8
CENTER
100
AcDbLine
 10
651.3399323610975
 20
479.9563126237542
 30
0.0
 11
673.3399323610974
 21
479.9563126237542
 31
0.0
  0
LINE
  5
448A
330
2
100
AcDbEntity
  8
CENTER
100
AcDbLine
 10
662.3399323610974
 20
468.9563126237596
 30
0.0
 11
662.3399323610974
 21
490.9563126237596
 31
0.0
  0
LINE
  5
448B
330
2
100
AcDbEntity
  8
CENTER
100
AcDbLine
 10
662.3399323610993
 20
349.5349563864508
 30
0.0
 11
662.3399323610993
 21
327.5349563864508
 31
0.0
  0
LINE
  5
448C
330
2
100
AcDbEntity
  8
CENTER
100
AcDbLine
 10
651.3399323611047
 20
338.5349563864508
 30
0.0
 11
673.3399323611047
 21
338.5349563864508
 31
0.0
  0
ARC
  5
4496
330
2
100
AcDbEntity
  8
0
100
AcDbCircle
 10
585.2020816177383
 20
470.9116012368351
 30
0.0
 40
3.0
100
AcDbArc
 50
336.4926257977113
 51
358.5000000000102
  0
ARC
  5
4498
330
2
100
AcDbEntity
  8
0
100
AcDbCircle
 10
598.04767989838
 20
471.2456344977611
 30
0.0
 40
3.0
100
AcDbArc
 50
181.5000000000157
 51
210.7080767026722
  0
LINE
  5
449A
330
2
100
AcDbEntity
  8
0
100
AcDbLine
 10
669.4023184916241
 20
321.2456345051002
 30
0.0
 11
513.8561899932783
 21
321.2456345050975
 31
0.0
  0
ARC
  5
449B
330
2
100
AcDbEntity
  8
0
100
AcDbCircle
 10
669.4023184916241
 20
331.2456345051002
 30
0.0
 40
10.0
100
AcDbArc
 50
270.0
 51
359.8333333333378
  0
LINE
  5
449C
330
2
100
AcDbEntity
  8
0
100
AcDbLine
 10
669.4023184916241
 20
497.2456345050984
 30
0.0
 11
513.8561899024962
 21
497.2456345050984
 31
0.0
  0
ARC
  5
449D
330
2
100
AcDbEntity
  8
0
100
AcDbCircle
 10
669.4023184916241
 20
487.2456345050984
 30
0.0
 40
10.0
100
AcDbArc
 50
0.166666666662103
 51
90.0
  0
LINE
  5
44A5
330
2
100
AcDbEntity
  8
0
100
AcDbLine
 10
503.6292542424444
 20
409.2456345049292
 30
0.0
 11
531.1292542424462
 21
409.245634505098
 31
0.0
  0
LINE
  5
44AC
330
2
100
AcDbEntity
  8
0
100
AcDbLine
 10
594.1279280714816
 20
493.2456345051102
 30
0.0
 11
589.1279280714816
 21
493.2456345051102
 31
0.0
  0
LINE
  5
44AD
330
2
100
AcDbEntity
  8
0
100
AcDbLine
 10
588.7073330714438
 20
490.1671036601872
 30
0.0
 11
588.2010535926647
 21
470.8330703919111
 31
0.0
  0
LINE
  5
44AE
330
2
100
AcDbEntity
  8
0
100
AcDbLine
 10
594.551175413444
 20
490.1671036601867
 30
0.0
 11
595.057454892224
 21
470.8330703919116
 31
0.0
  0
ARC
  5
44AF
330
2
100
AcDbEntity
  8
0
100
AcDbCircle
 10
597.5501473883705
 20
490.2456345051112
 30
0.0
 40
3.0
100
AcDbArc
 50
90.0
 51
181.5000000000158
  0
ARC
  5
44B0
330
2
100
AcDbEntity
  8
0
100
AcDbCircle
 10
585.7083610965155
 20
490.2456345051112
 30
0.0
 40
3.000000000000001
100
AcDbArc
 50
358.4999999999841
 51
90.0
  0
ARC
  5
44B1
330
2
100
AcDbEntity
  8
0
100
AcDbCircle
 10
598.0564268671487
 20
470.9116012368351
 30
0.0
 40
3.0
100
AcDbArc
 50
181.4999999999898
 51
203.5073742022875
  0
ARC
  5
44B2
330
2
100
AcDbEntity
  8
0
100
AcDbCircle
 10
598.0564268671542
 20
347.5796677733672
 30
0.0
 40
3.0
100
AcDbArc
 50
156.4926258025169
 51
178.4999999999841
  0
LINE
  5
44B3
330
2
100
AcDbEntity
  8
0
100
AcDbLine
 10
589.1305804134108
 20
325.245634505092
 30
0.0
 11
594.1305804134108
 21
325.245634505092
 31
0.0
  0
LINE
  5
44B4
330
2
100
AcDbEntity
  8
0
100
AcDbLine
 10
594.5511754134486
 20
328.3241653500151
 30
0.0
 11
595.0574548922276
 21
347.6581986182911
 31
0.0
  0
LINE
  5
44B5
330
2
100
AcDbEntity
  8
0
100
AcDbLine
 10
588.7073330714484
 20
328.3241653500156
 30
0.0
 11
588.2010535926683
 21
347.6581986182907
 31
0.0
  0
ARC
  5
44B6
330
2
100
AcDbEntity
  8
0
100
AcDbCircle
 10
585.7083610965219
 20
328.2456345050911
 30
0.0
 40
3.0
100
AcDbArc
 50
270.0
 51
1.500000000015842
  0
ARC
  5
44B7
330
2
100
AcDbEntity
  8
0
100
AcDbCircle
 10
597.5501473883769
 20
328.2456345050911
 30
0.0
 40
3.000000000000001
100
AcDbArc
 50
178.4999999999841
 51
270.0
  0
ARC
  5
44B8
330
2
100
AcDbEntity
  8
0
100
AcDbCircle
 10
585.2020816177437
 20
347.5796677733672
 30
0.0
 40
3.0
100
AcDbArc
 50
1.500000000015842
 51
23.50737419748306
  0
LINE
  5
44B9
330
2
100
AcDbEntity
  8
0
100
AcDbLine
 10
503.8562323012238
 20
487.2747232849367
 30
0.0
 11
503.6292542424005
 21
409.2456344903519
 31
0.0
  0
ARC
  5
44BA
330
2
100
AcDbEntity
  8
0
100
AcDbCircle
 10
513.8561899932438
 20
487.2456345050993
 30
0.0
 40
10.0
100
AcDbArc
 50
90.0
 51
179.8333333333639
  0
LINE
  5
44BB
330
2
100
AcDbEntity
  8
0
100
AcDbLine
 10
503.8562323012238
 20
331.2165457252551
 30
0.0
 11
503.6292542424864
 21
409.2456344903516
 31
0.0
  0
ARC
  5
44BC
330
2
100
AcDbEntity
  8
0
100
AcDbCircle
 10
513.8561899932783
 20
331.2456345050975
 30
0.0
 40
10.0
100
AcDbArc
 50
180.1666666666621
 51
270.0
  0
LINE
  5
44BD
330
2
100
AcDbEntity
  8
0
100
AcDbLine
 10
679.4022761836786
 20
487.2747232849408
 30
0.0
 11
679.5855474848399
 21
424.2708686132572
 31
0.0
  0
LINE
  5
44BE
330
2
100
AcDbEntity
  8
0
100
AcDbLine
 10
679.4022761836786
 20
331.2165457252579
 30
0.0
 11
679.5855474848393
 21
394.2204003967145
 31
0.0
  0
CIRCLE
  5
44C1
330
2
100
AcDbEntity
  8
HOJO
100
AcDbCircle
 10
662.339932361097
 20
479.956312623754
 30
0.0
 40
6.0
  0
CIRCLE
  5
44C2
330
2
100
AcDbEntity
  8
0
100
AcDbCircle
 10
662.339932361097
 20
479.956312623754
 30
0.0
 40
5.15
  0
CIRCLE
  5
44C3
330
2
100
AcDbEntity
  8
HOJO
100
AcDbCircle
 10
520.9185761237927
 20
479.9563126237521
 30
0.0
 40
6.0
  0
CIRCLE
  5
44C4
330
2
100
AcDbEntity
  8
0
100
AcDbCircle
 10
520.9185761237927
 20
479.9563126237521
 30
0.0
 40
5.15
  0
CIRCLE
  5
44C5
330
2
100
AcDbEntity
  8
HOJO
100
AcDbCircle
 10
520.9185761237945
 20
338.5349563864437
 30
0.0
 40
6.0
  0
CIRCLE
  5
44C6
330
2
100
AcDbEntity
  8
0
100
AcDbCircle
 10
520.9185761237945
 20
338.5349563864437
 30
0.0
 40
5.15
  0
CIRCLE
  5
44C7
330
2
100
AcDbEntity
  8
HOJO
100
AcDbCircle
 10
662.3399323610988
 20
338.5349563864507
 30
0.0
 40
6.0
  0
CIRCLE
  5
44C8
330
2
100
AcDbEntity
  8
0
100
AcDbCircle
 10
662.3399323610988
 20
338.5349563864507
 30
0.0
 40
5.15
  0
ARC
  5
44D1
330
2
100
AcDbEntity
  8
0
100
AcDbCircle
 10
529.9736976183176
 20
415.741245799733
 30
0.0
 40
3.0
100
AcDbArc
 50
270.0040782805166
 51
293.3646506109867
  0
LINE
  5
44D2
330
2
100
AcDbEntity
  8
0
100
AcDbLine
 10
510.6322439831417
 20
412.7398690786224
 30
0.0
 11
529.9739111565862
 21
412.7412458073329
 31
0.0
  0
ARC
  5
44D3
330
2
100
AcDbEntity
  8
0
100
AcDbCircle
 10
510.6320304448729
 20
415.7398690710217
 30
0.0
 40
3.0
100
AcDbArc
 50
180.0040782801648
 51
270.004078280217
  0
ARC
  5
44D4
330
2
100
AcDbEntity
  8
0
100
AcDbCircle
 10
529.974622854155
 20
402.7425720559917
 30
0.0
 40
3.0
100
AcDbArc
 50
66.64350593013519
 51
90.00407826059754
  0
LINE
  5
44D5
330
2
100
AcDbEntity
  8
0
100
AcDbLine
 10
510.6327421434846
 20
405.7411953264077
 30
0.0
 11
529.9744093169299
 21
405.742572048392
 31
0.0
  0
ARC
  5
44D6
330
2
100
AcDbEntity
  8
0
100
AcDbCircle
 10
510.6329556807102
 20
402.7411953340082
 30
0.0
 40
3.0
100
AcDbArc
 50
90.00407826091018
 51
180.0040782609557
  0
LINE
  5
44D7
330
2
100
AcDbEntity
  8
0
100
AcDbLine
 10
507.6292542424351
 20
411.7443083341345
 30
0.0
 11
507.6292542424351
 21
406.7443083341345
 31
0.0
  0
ARC
  5
44D8
330
2
100
AcDbEntity
  8
0
100
AcDbCircle
 10
600.447391903991
 20
494.2456345050984
 30
0.0
 40
3.0
100
AcDbArc
 50
1.499999999996312
 51
90.0
  0
LINE
  5
44D9
330
2
100
AcDbEntity
  8
0
100
AcDbLine
 10
604.0926950822757
 20
469.6417724979869
 30
0.0
 11
603.4463638789183
 21
494.3241653500215
 31
0.0
  0
ARC
  5
44DA
330
2
100
AcDbEntity
  8
0
100
AcDbCircle
 10
631.811101979023
 20
494.245076881557
 30
0.0
 40
3.000000000000001
100
AcDbArc
 50
90.0
 51
178.5000000000036
  0
LINE
  5
44DB
330
2
100
AcDbEntity
  8
0
100
AcDbLine
 10
628.1605614087872
 20
469.4412069452643
 30
0.0
 11
628.8121300040966
 21
494.3236077264803
 31
0.0
  0
LINE
  5
44DC
330
2
100
AcDbEntity
  8
0
100
AcDbLine
 10
621.1292542424498
 20
472.2456345049823
 30
0.0
 11
611.1292542424498
 21
472.2456345049823
 31
0.0
  0
ARC
  5
44DD
330
2
100
AcDbEntity
  8
0
100
AcDbCircle
 10
611.1292542424498
 20
468.2456345049823
 30
0.0
 40
4.0
100
AcDbArc
 50
90.0
 51
159.9887155235539
  0
ARC
  5
44DE
330
2
100
AcDbEntity
  8
0
100
AcDbCircle
 10
621.1292542424498
 20
468.2456345049823
 30
0.0
 40
4.0
100
AcDbArc
 50
17.79468733515957
 51
90.0
  0
LINE
  5
44DF
330
2
100
AcDbEntity
  8
0
100
AcDbLine
 10
1067.559171748525
 20
774.1968559117362
 30
0.0
 11
1069.059171748526
 21
774.1968559117361
 31
0.0
  0
LINE
  5
44E0
330
2
100
AcDbEntity
  8
0
100
AcDbLine
 10
1067.559171748525
 20
762.6968559117361
 30
0.0
 11
1069.059171748526
 21
762.6968559117361
 31
0.0
  0
LINE
  5
44E1
330
2
100
AcDbEntity
  8
0
100
AcDbLine
 10
1074.659171748525
 20
773.4468559117361
 30
0.0
 11
1075.059171748525
 21
772.7540355887088
 31
0.0
  0
LINE
  5
44E2
330
2
100
AcDbEntity
  8
0
100
AcDbLine
 10
1069.059171748526
 20
774.1968559117361
 30
0.0
 11
1069.059171748526
 21
762.6968559117361
 31
0.0
  0
LINE
  5
44E3
330
2
100
AcDbEntity
  8
0
100
AcDbLine
 10
1074.659171748525
 20
773.4468559117361
 30
0.0
 11
1074.659171748525
 21
763.4468559117362
 31
0.0
  0
LINE
  5
44E4
330
2
100
AcDbEntity
  8
0
100
AcDbLine
 10
1069.059171748526
 20
773.446855911736
 30
0.0
 11
1074.659171748525
 21
773.4468559117361
 31
0.0
  0
LINE
  5
44E5
330
2
100
AcDbEntity
  8
0
100
AcDbLine
 10
1069.059171748526
 20
763.446855911736
 30
0.0
 11
1074.659171748525
 21
763.4468559117362
 31
0.0
  0
LINE
  5
44E6
330
2
100
AcDbEntity
  8
0
100
AcDbLine
 10
1074.659171748525
 20
763.4468559117362
 30
0.0
 11
1075.059171748525
 21
764.1396762347634
 31
0.0
  0
LINE
  5
44E7
330
2
100
AcDbEntity
  8
0
100
AcDbLine
 10
1075.059171748525
 20
772.7540355887088
 30
0.0
 11
1075.059171748525
 21
764.1396762347634
 31
0.0
  0
LINE
  5
44E8
330
2
100
AcDbEntity
  8
0
 48
12.0
100
AcDbLine
 10
1067.559171748525
 20
762.6968559117361
 30
0.0
 11
1067.559171748525
 21
774.1968559117362
 31
0.0
  0
LINE
  5
44E9
330
2
100
AcDbEntity
  8
0
100
AcDbLine
 10
1067.84904350533
 20
365.8517132124027
 30
0.0
 11
1069.34904350533
 21
365.8517132124027
 31
0.0
  0
LINE
  5
44EA
330
2
100
AcDbEntity
  8
0
100
AcDbLine
 10
1067.84904350533
 20
354.3517132124027
 30
0.0
 11
1069.34904350533
 21
354.3517132124027
 31
0.0
  0
LINE
  5
44EB
330
2
100
AcDbEntity
  8
0
100
AcDbLine
 10
1074.94904350533
 20
365.1017132124028
 30
0.0
 11
1075.34904350533
 21
364.4088928893755
 31
0.0
  0
LINE
  5
44EC
330
2
100
AcDbEntity
  8
0
100
AcDbLine
 10
1069.34904350533
 20
365.8517132124027
 30
0.0
 11
1069.34904350533
 21
354.3517132124027
 31
0.0
  0
LINE
  5
44ED
330
2
100
AcDbEntity
  8
0
100
AcDbLine
 10
1074.94904350533
 20
365.1017132124028
 30
0.0
 11
1074.94904350533
 21
355.1017132124028
 31
0.0
  0
LINE
  5
44EE
330
2
100
AcDbEntity
  8
0
100
AcDbLine
 10
1069.34904350533
 20
365.1017132124027
 30
0.0
 11
1074.94904350533
 21
365.1017132124028
 31
0.0
  0
LINE
  5
44EF
330
2
100
AcDbEntity
  8
0
100
AcDbLine
 10
1069.34904350533
 20
355.1017132124027
 30
0.0
 11
1074.94904350533
 21
355.1017132124028
 31
0.0
  0
LINE
  5
44F0
330
2
100
AcDbEntity
  8
0
100
AcDbLine
 10
1074.94904350533
 20
355.1017132124028
 30
0.0
 11
1075.34904350533
 21
355.79453353543
 31
0.0
  0
LINE
  5
44F1
330
2
100
AcDbEntity
  8
0
100
AcDbLine
 10
1075.34904350533
 20
364.4088928893755
 30
0.0
 11
1075.34904350533
 21
355.79453353543
 31
0.0
  0
LINE
  5
44F2
330
2
100
AcDbEntity
  8
0
 48
12.0
100
AcDbLine
 10
1067.84904350533
 20
354.3517132124027
 30
0.0
 11
1067.84904350533
 21
365.8517132124027
 31
0.0
  0
LINE
  5
44F3
330
2
100
AcDbEntity
  8
CENTER
  6
CENTERX2
100
AcDbLine
 10
1064.559171748527
 20
866.7346984966632
 30
0.0
 11
1078.059171748528
 21
866.7346984966627
 31
0.0
  0
LINE
  5
44F4
330
2
100
AcDbEntity
  8
CENTER
  6
CENTERX2
100
AcDbLine
 10
1064.559171748525
 20
768.4468559117365
 30
0.0
 11
1078.059171748526
 21
768.4468559117361
 31
0.0
  0
LINE
  5
44F5
330
2
100
AcDbEntity
  8
CENTER
  6
CENTERX2
100
AcDbLine
 10
1064.849043505331
 20
458.3895557975712
 30
0.0
 11
1078.349043505332
 21
458.3895557975707
 31
0.0
  0
LINE
  5
44F6
330
2
100
AcDbEntity
  8
CENTER
  6
CENTERX2
100
AcDbLine
 10
1064.84904350533
 20
360.1017132124033
 30
0.0
 11
1078.349043505331
 21
360.1017132124028
 31
0.0
  0
LINE
  5
44F7
330
2
100
AcDbEntity
  8
CENTER
  6
CENTERX2
100
AcDbLine
 10
219.0181004023943
 20
458.3888926805456
 30
0.0
 11
205.5119911296685
 21
458.3888926805454
 31
0.0
  0
LINE
  5
44F8
330
2
100
AcDbEntity
  8
CENTER
  6
CENTERX2
100
AcDbLine
 10
219.0181235519046
 20
360.1010500956125
 30
0.0
 11
205.5120142791788
 21
360.1010500956123
 31
0.0
  0
CIRCLE
  5
44F9
330
2
100
AcDbEntity
  8
0
100
AcDbCircle
 10
1412.57752768158
 20
409.2456345049858
 30
0.0
 40
45.99999999998874
  0
CIRCLE
  5
44FA
330
2
100
AcDbEntity
  8
0
100
AcDbCircle
 10
1412.57752768158
 20
409.2456345049858
 30
0.0
 40
46.4999999999892
  0
CIRCLE
  5
44FB
330
2
100
AcDbEntity
  8
0
100
AcDbCircle
 10
1412.57752768158
 20
409.2456345049858
 30
0.0
 40
50.37919357557564
  0
CIRCLE
  5
44FC
330
2
100
AcDbEntity
  8
0
100
AcDbCircle
 10
1412.57752768158
 20
409.2456345049858
 30
0.0
 40
55.24999999998965
  0
CIRCLE
  5
44FD
330
2
100
AcDbEntity
  8
0
100
AcDbCircle
 10
1412.57752768158
 20
409.2456345049858
 30
0.0
 40
55.74999999999104
  0
LINE
  5
44FE
330
2
100
AcDbEntity
  8
CENTER
100
AcDbLine
 10
1363.433606389104
 20
450.6284741909947
 30
0.0
 11
1363.433606389104
 21
466.1506374038725
 31
0.0
  0
LINE
  5
44FF
330
2
100
AcDbEntity
  8
CENTER
100
AcDbLine
 10
1355.672524782671
 20
458.3895557974336
 30
0.0
 11
1371.194687995549
 21
458.3895557974336
 31
0.0
  0
LINE
  5
4500
330
2
100
AcDbEntity
  8
CENTER
100
AcDbLine
 10
1363.433606389111
 20
352.3406316060635
 30
0.0
 11
1363.433606389111
 21
367.8627948189412
 31
0.0
  0
LINE
  5
4501
330
2
100
AcDbEntity
  8
CENTER
100
AcDbLine
 10
1355.672524782677
 20
360.1017132125023
 30
0.0
 11
1371.194687995555
 21
360.1017132125023
 31
0.0
  0
LINE
  5
4502
330
2
100
AcDbEntity
  8
CENTER
100
AcDbLine
 10
1461.721448974042
 20
352.3406316060698
 30
0.0
 11
1461.721448974042
 21
367.8627948189476
 31
0.0
  0
LINE
  5
4503
330
2
100
AcDbEntity
  8
CENTER
100
AcDbLine
 10
1453.960367367608
 20
360.1017132125087
 30
0.0
 11
1469.482530580486
 21
360.1017132125087
 31
0.0
  0
LINE
  5
493E
330
2
100
AcDbEntity
  8
CENTER
100
AcDbLine
 10
1158.059171748531
 20
409.2456345049856
 30
0.0
 11
873.0591717485301
 21
409.2456345049862
 31
0.0
  0
LINE
  5
493F
330
2
100
AcDbEntity
  8
CENTER
100
AcDbLine
 10
948.0591717485301
 20
484.2456345049862
 30
0.0
 11
948.0591717485301
 21
334.2456345049863
 31
0.0
  0
LINE
  5
49AB
330
2
100
AcDbEntity
  8
HIDS
  6
SEKKEI_H
100
AcDbLine
 10
1392.077527681574
 20
384.6743097544024
 30
0.0
 11
1392.077527681574
 21
408.4956345050021
 31
0.0
  0
LINE
  5
49AC
330
2
100
AcDbEntity
  8
HIDS
  6
SEKKEI_H
100
AcDbLine
 10
1391.477527681574
 20
385.1875797208056
 30
0.0
 11
1391.477527681574
 21
408.4956345050021
 31
0.0
  0
LINE
  5
49AD
330
2
100
AcDbEntity
  8
HIDS
  6
SEKKEI_H
100
AcDbLine
 10
1384.077527681573
 20
394.6940022941621
 30
0.0
 11
1384.077527681576
 21
408.4956345050016
 31
0.0
  0
LINE
  5
49AE
330
2
100
AcDbEntity
  8
HIDS
  6
SEKKEI_H
100
AcDbLine
 10
1384.677527681576
 20
408.4956345050016
 30
0.0
 11
1384.677527681587
 21
393.5743231367613
 31
0.0
  0
LINE
  5
49AF
330
2
100
AcDbEntity
  8
HIDS
  6
SEKKEI_H
100
AcDbLine
 10
1390.87752768159
 20
396.2456345050048
 30
0.0
 11
1385.277527681576
 21
396.2456345050048
 31
0.0
  0
LINE
  5
49B0
330
2
100
AcDbEntity
  8
HIDS
  6
SEKKEI_H
100
AcDbLine
 10
1392.077527681577
 20
397.4456345050049
 30
0.0
 11
1384.077527681576
 21
397.4456345050047
 31
0.0
  0
LINE
  5
49B1
330
2
100
AcDbEntity
  8
HIDS
  6
SEKKEI_H
100
AcDbLine
 10
1384.077527681576
 20
397.4456345050047
 30
0.0
 11
1385.277527681576
 21
396.2456345050048
 31
0.0
  0
LINE
  5
49B2
330
2
100
AcDbEntity
  8
HIDS
  6
SEKKEI_H
100
AcDbLine
 10
1392.07752768159
 20
397.4456345050047
 30
0.0
 11
1390.87752768159
 21
396.2456345050048
 31
0.0
  0
LINE
  5
4AA5
330
2
100
AcDbEntity
  8
0
100
AcDbLine
 10
1129.24570837761
 20
457.6299592430181
 30
0.0
 11
1138.080116281533
 21
459.1877037150631
 31
0.0
  0
SPLINE
  5
4AEC
330
2
100
AcDbEntity
  8
HOJO
100
AcDbSpline
210
0.0
220
0.0
230
1.0
 70
     8
 71
     3
 72
    21
 73
    17
 74
    15
 42
0.0000000001
 43
0.0000000001
 44
0.0000000001
 40
0.0
 40
0.0
 40
0.0
 40
0.0
 40
11.84760766693552
 40
18.78531051602199
 40
28.42159443070293
 40
36.39266888998788
 40
46.87254341091952
 40
55.62486901788679
 40
69.37115671396411
 40
82.48145467499201
 40
94.19303705359993
 40
101.3401488282336
 40
107.5663613402155
 40
116.0848412511585
 40
121.2961227435062
 40
135.1532661939815
 40
135.1532661939815
 40
135.1532661939815
 40
135.1532661939815
 10
1148.059171748531
 20
472.480294060346
 30
0.0
 10
1143.849969726623
 20
472.5230168265578
 30
0.0
 10
1137.175950023314
 20
472.5907571207971
 30
0.0
 10
1130.663000972614
 20
464.7695488603249
 30
0.0
 10
1129.13513920797
 20
456.5503510616143
 30
0.0
 10
1126.681310221304
 20
447.9238555191638
 30
0.0
 10
1126.244772626405
 20
436.9512941607736
 30
0.0
 10
1113.380627981011
 20
435.700964868854
 30
0.0
 10
1102.247389297584
 20
437.6943589592726
 30
0.0
 10
1089.140581421737
 20
434.5783676721298
 30
0.0
 10
1078.862963057218
 20
437.5973996946511
 30
0.0
 10
1070.181660706441
 20
437.9997440432216
 30
0.0
 10
1063.810683333969
 20
433.851808939019
 30
0.0
 10
1059.744290796091
 20
428.4440705981448
 30
0.0
 10
1056.297257822111
 20
419.8849721087475
 30
0.0
 10
1054.711530032769
 20
413.7233348025877
 30
0.0
 10
1053.559171748527
 20
409.2456345049869
 30
0.0
 11
1148.059171748531
 21
472.480294060346
 31
0.0
 11
1136.373975154721
 21
470.5253035249104
 31
0.0
 11
1131.766102930368
 21
465.3388563415044
 31
0.0
 11
1128.899020265315
 21
456.1389756533601
 31
0.0
 11
1127.14608010914
 21
448.3630365560977
 31
0.0
 11
1124.081109605955
 21
438.3413737305443
 31
0.0
 11
1115.592268897492
 21
436.2099922638149
 31
0.0
 11
1101.857297226988
 21
436.7676468466777
 31
0.0
 11
1088.792298792452
 21
435.6787352191854
 31
0.0
 11
1077.216701828319
 21
437.4582623290873
 31
0.0
 11
1070.07325117822
 21
437.2295277040008
 31
0.0
 11
1064.707180927608
 21
434.0718367264262
 31
0.0
 11
1059.486949214538
 21
427.3402930063727
 31
0.0
 11
1057.437094184334
 21
422.5490980460695
 31
0.0
 11
1053.559171748527
 21
409.2456345049869
 31
0.0
  0
ENDSEC
  0
SECTION
  2
OBJECTS
  0
DICTIONARY
  5
7
330
0
100
AcDbDictionary
  3
ACAD_COLOR
350
832
  3
ACAD_GROUP
350
75
  3
ACAD_LAYOUT
350
61
  3
ACAD_MATERIAL
350
808
  3
ACAD_MLEADERSTYLE
350
857
  3
ACAD_MLINESTYLE
350
76
  3
ACAD_PLOTSETTINGS
350
77
  3
ACAD_PLOTSTYLENAME
350
6
  3
ACAD_SCALELIST
350
835
  3
ACAD_TABLESTYLE
350
833
  3
ACAD_VISUALSTYLE
350
821
  3
ACADDIM
350
480
  3
ACDB_RECOMPOSE_DATA
350
88E
  3
ACDBHEADERROUNDTRIPXREC
350
4B18
  3
ACDBVARIABLEDICTIONARY
350
102
  3
DWGPROPS
350
4AEE
  0
DICTIONARY
  5
1E6F
330
6E
100
AcDbDictionary
280
     1
  3
ACAD_XREC_ROUNDTRIP
360
4AF2
  0
DICTIONARY
  5
86B
330
66
100
AcDbDictionary
280
     1
  3
ACAD_LAYERSTATES
360
86C
  0
DICTIONARY
  5
158C
330
5E
100
AcDbDictionary
280
     1
  3
ADSK_XREC_LAYER_RECONCILED
360
158D
  0
DICTIONARY
  5
158E
330
3E
100
AcDbDictionary
280
     1
  3
ADSK_XREC_LAYER_RECONCILED
360
158F
  0
DICTIONARY
  5
1594
330
2B5
100
AcDbDictionary
280
     1
  3
ADSK_XREC_LAYER_RECONCILED
360
1595
  0
DICTIONARY
  5
1596
330
2BA
100
AcDbDictionary
280
     1
  3
ADSK_XREC_LAYER_RECONCILED
360
1597
  0
DICTIONARY
  5
159A
330
3FA
100
AcDbDictionary
280
     1
  3
ADSK_XREC_LAYER_RECONCILED
360
159B
  0
DICTIONARY
  5
2D5C
330
2
100
AcDbDictionary
280
     1
  3
ACAD_LAYOUTSELFREF
360
4B39
  3
ACAD_SORTENTS
360
2D5D
  0
DICTIONARY
  5
4B3A
330
4B12
100
AcDbDictionary
280
     1
  3
ACAD_LAYOUTSELFREF
360
4B3B
  0
DICTIONARY
  5
832
102
{ACAD_REACTORS
330
7
102
}
330
7
100
AcDbDictionary
  0
DICTIONARY
  5
75
102
{ACAD_REACTORS
330
7
102
}
330
7
100
AcDbDictionary
  0
DICTIONARY
  5
61
102
{ACAD_REACTORS
330
7
102
}
330
7
100
AcDbDictionary
  0
DICTIONARY
  5
808
102
{ACAD_REACTORS
330
7
102
}
330
7
100
AcDbDictionary
  3
BYBLOCK
350
811
  3
BYLAYER
350
809
  3
GLOBAL
350
819
  0
DICTIONARY
  5
857
102
{ACAD_REACTORS
330
7
102
}
330
7
100
AcDbDictionary
  3
STANDARD
350
858
  0
DICTIONARY
  5
76
102
{ACAD_REACTORS
330
7
102
}
330
7
100
AcDbDictionary
  3
STANDARD
350
78
  0
DICTIONARY
  5
77
102
{ACAD_REACTORS
330
7
102
}
330
7
100
AcDbDictionary
  0
ACDBDICTIONARYWDFLT
  5
6
102
{ACAD_REACTORS
330
7
102
}
330
7
100
AcDbDictionary
281
     1
  3
Normal
350
5
100
AcDbDictionaryWithDefault
340
5
  0
DICTIONARY
  5
835
102
{ACAD_REACTORS
330
7
102
}
330
7
100
AcDbDictionary
  3
A0
350
836
  3
A1
350
837
  3
A2
350
838
  3
A3
350
839
  3
A4
350
83A
  3
A5
350
83B
  3
A6
350
83C
  3
A7
350
83D
  3
A8
350
83E
  3
A9
350
83F
  3
B0
350
840
  3
B1
350
841
  3
B2
350
842
  3
B3
350
843
  3
B4
350
844
  3
B5
350
845
  3
B6
350
846
  3
B7
350
847
  3
B8
350
848
  3
B9
350
849
  3
C0
350
84A
  3
C1
350
84B
  3
C2
350
84C
  3
C3
350
84D
  3
C4
350
84E
  3
C5
350
84F
  3
C6
350
850
  3
C7
350
851
  3
C8
350
852
  3
C9
350
853
  3
D0
350
854
  3
D1
350
855
  3
D2
350
856
  0
DICTIONARY
  5
833
102
{ACAD_REACTORS
330
7
102
}
330
7
100
AcDbDictionary
  3
STANDARD
350
834
  0
DICTIONARY
  5
821
102
{ACAD_REACTORS
330
7
102
}
330
7
100
AcDbDictionary
  3
2DWIREFRAME
350
827
  3
3D_HIDDEN
350
829
  3
3DWIREFRAME
350
828
  3
BASIC
350
826
  3
BRIGHTEN
350
82D
  3
COLORCHANGE
350
831
  3
CONCEPTUAL
350
82A
  3
DIM
350
82C
  3
FACEPATTERN
350
830
  3
FLAT
350
822
  3
FLATWITHEDGES
350
823
  3
GOURAUD
350
824
  3
GOURAUDWITHEDGES
350
825
  3
LINEPATTERN
350
82F
  3
REALISTIC
350
82B
  3
THICKEN
350
82E
  0
XRECORD
  5
480
102
{ACAD_REACTORS
330
7
102
}
330
7
100
AcDbXrecord
 90
   990106
  3

 60
     0
 61
     0
 62
     1
 63
     3
 64
     1
 65
     0
 66
     0
 67
     3
 68
     1
 69
     0
 70
     0
 71
     0
 72
     0
 40
0.0
170
     2
340
0
  0
XRECORD
  5
88E
102
{ACAD_REACTORS
330
7
102
}
330
7
100
AcDbXrecord
 90
        1
330
834
  0
DICTIONARY
  5
4B18
102
{ACAD_REACTORS
330
7
102
}
330
7
100
AcDbDictionary
  3
CEPSNTYPE
350
4B22
  3
DIMSTYLEDATA
350
4B26
  3
FINGERPRINTGUID
350
4B23
  3
HYPERLINKBASE
350
4B1B
  3
INSUNITS
350
4B21
  3
LAYOUTDICT
350
4B1D
  3
LWETCUNION
350
4B20
  3
PLOTSETDICT
350
4B1E
  3
PLOTSTYLNAMDICT
350
4B1F
  3
PSVPSCALE
350
4B25
  3
PUCSBASE
350
4B29
  3
PUCSORGBACK
350
4B2F
  3
PUCSORGBOTTOM
350
4B2B
  3
PUCSORGFRONT
350
4B2E
  3
PUCSORGLEFT
350
4B2C
  3
PUCSORGRIGHT
350
4B2D
  3
PUCSORGTOP
350
4B2A
  3
PUCSORTHOREF
350
4B27
  3
PUCSORTHOVIEW
350
4B28
  3
STYLESHEET
350
4B1C
  3
TSTACKALIGN
350
4B19
  3
TSTACKSIZE
350
4B1A
  3
UCSBASE
350
4B32
  3
UCSORGBACK
350
4B38
  3
UCSORGBOTTOM
350
4B34
  3
UCSORGFRONT
350
4B37
  3
UCSORGLEFT
350
4B35
  3
UCSORGRIGHT
350
4B36
  3
UCSORGTOP
350
4B33
  3
UCSORTHOREF
350
4B30
  3
UCSORTHOVIEW
350
4B31
  3
VERSIONGUID
350
4B24
  0
DICTIONARY
  5
102
102
{ACAD_REACTORS
330
7
102
}
330
7
100
AcDbDictionary
  3
CANNOSCALE
350
892
  3
CMLEADERSTYLE
350
890
  3
CTABLESTYLE
350
88F
  3
DIMASSOC
350
103
  3
INDEXCTL
350
1E7C
  3
LIGHTINGUNITS
350
893
  3
MSLTSCALE
350
891
  3
SORTENTS
350
549
  0
XRECORD
  5
4AEE
102
{ACAD_REACTORS
330
7
102
}
330
7
100
AcDbXrecord
  1
DWGPROPS COOKIE
  2

  3

  4

  6

  7

  8
knsuzuki
  9

300
=
301
=
302
=
303
=
304
=
305
=
306
=
307
=
308
=
309
=
 40
0.1939986921296296
 41
2454889.364024514
 42
2454904.650272164
  1

 90
        0
  0
XRECORD
  5
4AF2
102
{ACAD_REACTORS
330
1E6F
102
}
330
1E6F
100
AcDbXrecord
102
VTR_0.000_0.000_1.000_1.000_VISUALSTYLE
340
827
102
VTR_0.000_0.000_1.000_1.000_GRIDDISPLAY
 70
     3
102
VTR_0.000_0.000_1.000_1.000_GRIDMAJOR
 70
     5
102
VTR_0.000_0.000_1.000_1.000_DEFAULTLIGHTING
280
     1
102
VTR_0.000_0.000_1.000_1.000_DEFAULTLIGHTINGTYPE
 70
     1
102
VTR_0.000_0.000_1.000_1.000_BRIGHTNESS
141
0.0
102
VTR_0.000_0.000_1.000_1.000_CONTRAST
142
0.0
  0
DICTIONARY
  5
86C
102
{ACAD_REACTORS
330
86B
102
}
330
86B
100
AcDbDictionary
  0
XRECORD
  5
158D
102
{ACAD_REACTORS
330
158C
102
}
330
158C
100
AcDbXrecord
290
     1
  0
XRECORD
  5
158F
102
{ACAD_REACTORS
330
158E
102
}
330
158E
100
AcDbXrecord
290
     1
  0
XRECORD
  5
1595
102
{ACAD_REACTORS
330
1594
102
}
330
1594
100
AcDbXrecord
290
     1
  0
XRECORD
  5
1597
102
{ACAD_REACTORS
330
1596
102
}
330
1596
100
AcDbXrecord
290
     1
  0
XRECORD
  5
159B
102
{ACAD_REACTORS
330
159A
102
}
330
159A
100
AcDbXrecord
290
     1
  0
XRECORD
  5
4B39
102
{ACAD_REACTORS
330
2D5C
102
}
330
2D5C
100
AcDbXrecord
340
2
  0
SORTENTSTABLE
  5
2D5D
102
{ACAD_REACTORS
330
2D5C
102
}
330
2D5C
100
AcDbSortentsTable
330
2
331
F8F
  5
F8F
331
44F5
  5
44FB
331
44D6
  5
44DC
331
F51
  5
F51
331
F70
  5
F70
331
F90
  5
F90
331
F71
  5
F71
331
44F6
  5
44FC
331
44D7
  5
44DD
331
F52
  5
F52
331
F91
  5
F91
331
44F7
  5
44FD
331
F53
  5
F53
331
F72
  5
F72
331
F92
  5
F92
331
A65
  5
A65
331
F73
  5
F73
331
F93
  5
F93
331
F55
  5
F55
331
F74
  5
F74
331
F94
  5
F94
331
493E
  5
4974
331
F56
  5
F56
331
F75
  5
F75
331
F95
  5
F95
331
493F
  5
4987
331
F57
  5
F57
331
F76
  5
F76
331
2EE0
  5
2EE0
331
F96
  5
F96
331
F58
  5
F58
331
F77
  5
F77
331
2EE1
  5
2EE1
331
2F00
  5
2F00
331
F78
  5
F78
331
F59
  5
F59
331
F97
  5
F97
331
2EE2
  5
2EE2
331
2F01
  5
2F01
331
2F20
  5
2F20
331
F79
  5
F79
331
F5A
  5
F5A
331
2A85
  5
2A86
331
2EE3
  5
2EE3
331
2F02
  5
2F02
331
2F21
  5
2F21
331
2F40
  5
2F40
331
2F58
  5
2F58
331
F7A
  5
F7A
331
F5B
  5
F5B
331
2D6D
  5
2D6D
331
2EE4
  5
2EE4
331
2F03
  5
2F03
331
2F22
  5
2F22
331
2F41
  5
2F41
331
2F59
  5
2F59
331
F7B
  5
F7B
331
F5C
  5
F5C
331
B2D
  5
B2D
331
1E89
  5
1E8A
331
2D6E
  5
2D6E
331
2EE5
  5
2EE5
331
2F04
  5
2F04
331
2F23
  5
2F23
331
2F42
  5
2F42
331
2F5A
  5
2F5A
331
F7C
  5
F7C
331
F5D
  5
F5D
331
1E8A
  5
2130
331
2D6F
  5
2D6F
331
2EE6
  5
2EE6
331
2F05
  5
2F05
331
2F24
  5
2F24
331
2F43
  5
2F43
331
2F5B
  5
2F5B
331
F7D
  5
F7D
331
F5E
  5
F5E
331
2D49
  5
2D4A
331
2D70
  5
2D70
331
2F06
  5
2F06
331
2F25
  5
2F25
331
2F44
  5
2F44
331
F7E
  5
F7E
331
F5F
  5
F5F
331
2D4A
  5
2D4B
331
2D71
  5
2D71
331
2EE8
  5
2EE8
331
2F07
  5
2F07
331
2F26
  5
2F26
331
2F45
  5
2F45
331
2F5C
  5
2F5C
331
2F5D
  5
2F5D
331
2D72
  5
2D72
331
F7F
  5
F7F
331
2D4B
  5
2D4C
331
2EE9
  5
2EE9
331
2F08
  5
2F08
331
2F27
  5
2F27
331
2F46
  5
2F46
331
2F5E
  5
2F5E
331
242D
  5
2687
331
2D4C
  5
2D4D
331
2D73
  5
2D73
331
2EEA
  5
2EEA
331
2F09
  5
2F09
331
2F28
  5
2F28
331
2F47
  5
2F47
331
3880
  5
3880
331
2D4D
  5
2D4F
331
2D74
  5
2D74
331
2EEB
  5
2EEB
331
2F0A
  5
2F0A
331
2F29
  5
2F29
331
2F48
  5
2F48
331
2F5F
  5
2F5F
331
2130
  5
242D
331
2D4E
  5
2D50
331
2EEC
  5
2EEC
331
2F0B
  5
2F0B
331
2F2A
  5
2F2A
331
2F49
  5
2F49
331
2F60
  5
2F60
331
F98
  5
F98
331
2D4F
  5
2D51
331
2EED
  5
2EED
331
2F0C
  5
2F0C
331
2F2B
  5
2F2B
331
2F4A
  5
2F4A
331
2F61
  5
2F61
331
FB8
  5
FB8
331
F99
  5
F99
331
2D50
  5
2D52
331
2EEE
  5
2EEE
331
2F0D
  5
2F0D
331
2F2C
  5
2F2C
331
2F4B
  5
2F4B
331
2F62
  5
2F62
331
4318
  5
431A
331
FD8
  5
FD8
331
F9A
  5
F9A
331
FB9
  5
FB9
331
2F4C
  5
2F4C
331
2D51
  5
2D53
331
2EEF
  5
2EEF
331
2F0E
  5
2F0E
331
2F2D
  5
2F2D
331
312E
  5
312E
331
4338
  5
433B
331
4319
  5
431B
331
FF8
  5
FF8
331
FBA
  5
FBA
331
F9B
  5
F9B
331
FD9
  5
FD9
331
2F4D
  5
2F4D
331
2D52
  5
2D54
331
2EF0
  5
2EF0
331
2F0F
  5
2F0F
331
2F2E
  5
2F2E
331
4350
  5
4353
331
4339
  5
433C
331
1050
  5
1050
331
431A
  5
431C
331
FDA
  5
FDA
331
3A3C
  5
3AED
331
F9C
  5
F9C
331
FBB
  5
FBB
331
FF9
  5
FF9
331
2F4E
  5
2F4E
331
2F10
  5
2F10
331
2D53
  5
2D55
331
2EF1
  5
2EF1
331
2F2F
  5
2F2F
331
4370
  5
4376
331
4351
  5
4354
331
433A
  5
433D
331
1051
  5
1051
331
431B
  5
431D
331
FFA
  5
FFA
331
F9D
  5
F9D
331
FBC
  5
FBC
331
FDB
  5
FDB
331
1070
  5
1070
331
2D54
  5
2D56
331
2EF2
  5
2EF2
331
2F11
  5
2F11
331
2F30
  5
2F30
331
2F4F
  5
2F4F
331
1090
  5
1090
331
4390
  5
4395
331
1071
  5
1071
331
4371
  5
4377
331
1052
  5
1052
331
4352
  5
4355
331
FFB
  5
FFB
331
FDC
  5
FDC
331
F9E
  5
F9E
331
FBD
  5
FBD
331
431C
  5
431E
331
433B
  5
433F
331
2D55
  5
2D57
331
2EF3
  5
2EF3
331
2F12
  5
2F12
331
2F31
  5
2F31
331
2F50
  5
2F50
331
10D8
  5
10D9
331
1091
  5
1091
331
4391
  5
4396
331
1072
  5
1072
331
4372
  5
4378
331
1053
  5
1053
331
4353
  5
4356
331
FFC
  5
FFC
331
FDD
  5
FDD
331
F9F
  5
F9F
331
FBE
  5
FBE
331
3E6E
  5
3E99
331
431D
  5
431F
331
433C
  5
4340
331
43B0
  5
43B5
331
2F32
  5
2F32
331
2EF4
  5
2EF4
331
2F13
  5
2F13
331
2687
  5
280A
331
2D56
  5
2D58
331
2EDD
  5
2EDD
331
2F51
  5
2F51
331
43C8
  5
43CD
331
10D9
  5
10DA
331
1092
  5
1092
331
4392
  5
4397
331
1073
  5
1073
331
4373
  5
4379
331
1054
  5
1054
331
4354
  5
4357
331
FFD
  5
FFD
331
FBF
  5
FBF
331
FA0
  5
FA0
331
FDE
  5
FDE
331
431E
  5
4320
331
433D
  5
4341
331
43B1
  5
43B6
331
38B2
  5
38B5
331
2EF5
  5
2EF5
331
2F14
  5
2F14
331
2F33
  5
2F33
331
29B8
  5
29B9
331
2D57
  5
2D59
331
2EDE
  5
2EDE
331
2F52
  5
2F52
331
43E8
  5
43ED
331
43C9
  5
43CE
331
10DA
  5
10DB
331
1074
  5
1074
331
1093
  5
1093
331
4393
  5
4398
331
1055
  5
1055
331
FFE
  5
FFE
331
4355
  5
4358
331
FA1
  5
FA1
331
FC0
  5
FC0
331
FDF
  5
FDF
331
431F
  5
4321
331
43B2
  5
43B7
331
38B3
  5
38B6
331
2F15
  5
2F15
331
2EF6
  5
2EF6
331
2F34
  5
2F34
331
2D58
  5
2D5A
331
2EDF
  5
2EDF
331
2F53
  5
2F53
331
1138
  5
1139
331
4408
  5
440D
331
43E9
  5
43EE
331
43CA
  5
43CF
331
10DB
  5
10DC
331
1094
  5
1094
331
4394
  5
4399
331
1075
  5
1075
331
4375
  5
437A
331
1056
  5
1056
331
4356
  5
4359
331
FFF
  5
FFF
331
FE0
  5
FE0
331
FC1
  5
FC1
331
3E71
  5
3F23
331
FA2
  5
FA2
331
3AE2
  5
3E6E
331
4320
  5
4322
331
433F
  5
4342
331
43B3
  5
43B8
331
38B4
  5
38B7
331
2F16
  5
2F16
331
2D59
  5
2D5B
331
2EF7
  5
2EF7
331
2F35
  5
2F35
331
2F54
  5
2F54
331
1158
  5
1159
331
4428
  5
442D
331
1139
  5
113A
331
4409
  5
440E
331
111A
  5
111B
331
43EA
  5
43EF
331
10DC
  5
10DD
331
43B4
  5
43B9
331
1095
  5
1095
331
4395
  5
439A
331
1076
  5
1076
331
1057
  5
1057
331
4340
  5
4343
331
FE1
  5
FE1
331
FA3
  5
FA3
331
FC2
  5
FC2
331
4321
  5
4323
331
4357
  5
435A
331
4376
  5
437B
331
43CB
  5
43D0
331
38B5
  5
38B9
331
2D5A
  5
2D5E
331
2EF8
  5
2EF8
331
2F17
  5
2F17
331
2F36
  5
2F36
331
2F55
  5
2F55
331
1258
  5
1259
331
1159
  5
115A
331
4429
  5
442E
331
113A
  5
113B
331
440A
  5
440F
331
111B
  5
1120
331
43EB
  5
43F1
331
10F4
  5
10F5
331
10DD
  5
10DE
331
43B5
  5
43BA
331
1096
  5
1096
331
1077
  5
1077
331
4377
  5
437C
331
1058
  5
1058
331
4341
  5
4344
331
FC3
  5
FC3
331
FA4
  5
FA4
331
FE2
  5
FE2
331
4322
  5
4324
331
4358
  5
435B
331
4396
  5
439B
331
43CC
  5
43D1
331
4440
  5
4445
331
38B6
  5
3A3D
331
3148
  5
3148
331
2F37
  5
2F37
331
2F56
  5
2F56
331
2EF9
  5
2EF9
331
2F18
  5
2F18
331
4460
  5
4465
331
1259
  5
125A
331
115A
  5
115B
331
442A
  5
442F
331
113B
  5
113C
331
440B
  5
4410
331
43EC
  5
43F2
331
10F5
  5
10F6
331
10DE
  5
10DF
331
43B6
  5
43BB
331
1097
  5
1097
331
4397
  5
439C
331
1078
  5
1078
331
1059
  5
1059
331
4342
  5
4345
331
FE3
  5
FE3
331
FA5
  5
FA5
331
FC4
  5
FC4
331
4323
  5
4326
331
4359
  5
435C
331
4378
  5
437D
331
43CD
  5
43D2
331
4441
  5
4446
331
16D2
  5
16FD
331
1634
  5
164A
331
2F57
  5
2F57
331
2EFA
  5
2EFA
331
2F19
  5
2F19
331
2F38
  5
2F38
331
4461
  5
4466
331
125A
  5
125B
331
115B
  5
115C
331
442B
  5
4430
331
113C
  5
113D
331
440C
  5
4411
331
43ED
  5
43F3
331
10F6
  5
10F7
331
10DF
  5
10E0
331
43B7
  5
43BC
331
1098
  5
1098
331
1079
  5
1079
331
4379
  5
437E
331
105A
  5
105A
331
4343
  5
4346
331
FC5
  5
FC5
331
FA6
  5
FA6
331
FE4
  5
FE4
331
4324
  5
4327
331
435A
  5
435D
331
4398
  5
439D
331
43CE
  5
43D3
331
4442
  5
4447
331
38B8
  5
3AEB
331
2EFB
  5
2EFB
331
2F1A
  5
2F1A
331
2F39
  5
2F39
331
4462
  5
4467
331
125B
  5
125C
331
115C
  5
115D
331
442C
  5
4431
331
113D
  5
113E
331
440D
  5
4412
331
10F7
  5
10F8
331
10E0
  5
10E1
331
43B8
  5
43BD
331
1099
  5
1099
331
4399
  5
439E
331
107A
  5
107A
331
105B
  5
105B
331
4344
  5
4347
331
FE5
  5
FE5
331
FA7
  5
FA7
331
FC6
  5
FC6
331
4325
  5
4328
331
435B
  5
435E
331
437A
  5
437F
331
43CF
  5
43D4
331
43EE
  5
43F4
331
4443
  5
4448
331
44B8
  5
44BE
331
2EFC
  5
2EFC
331
2F1B
  5
2F1B
331
2F3A
  5
2F3A
331
4482
  5
4489
331
4463
  5
4468
331
125C
  5
125D
331
115D
  5
115E
331
442D
  5
4432
331
113E
  5
113F
331
440E
  5
4413
331
10F8
  5
10F9
331
10E1
  5
10E2
331
43B9
  5
43BE
331
439A
  5
439F
331
107B
  5
107B
331
105C
  5
105C
331
4345
  5
4348
331
FC7
  5
FC7
331
FA8
  5
FA8
331
FE6
  5
FE6
331
4326
  5
4329
331
435C
  5
435F
331
437B
  5
4380
331
43D0
  5
43D5
331
4444
  5
4449
331
44D8
  5
44DE
331
44B9
  5
44C1
331
2EFD
  5
2EFD
331
2F1C
  5
2F1C
331
2F3B
  5
2F3B
331
4464
  5
4469
331
125D
  5
125E
331
115E
  5
115F
331
442E
  5
4433
331
113F
  5
1140
331
440F
  5
4415
331
1120
  5
1121
331
43F0
  5
43F5
331
10F9
  5
10FA
331
10E2
  5
10E3
331
43BA
  5
43BF
331
107C
  5
107C
331
437C
  5
4381
331
105D
  5
105D
331
4346
  5
4349
331
FE7
  5
FE7
331
FA9
  5
FA9
331
FC8
  5
FC8
331
4327
  5
432A
331
435D
  5
4360
331
439B
  5
43A0
331
43D1
  5
43D6
331
4445
  5
444A
331
44F8
  5
44FE
331
44D9
  5
44DF
331
44BA
  5
44C2
331
3534
  5
3534
331
2EFE
  5
2EFE
331
2F1D
  5
2F1D
331
2F3C
  5
2F3C
331
4484
  5
448A
331
4465
  5
446A
331
125E
  5
125F
331
115F
  5
1160
331
442F
  5
4434
331
1140
  5
1141
331
4410
  5
4416
331
1121
  5
1122
331
43F1
  5
43F6
331
10FA
  5
10FB
331
10E3
  5
10E4
331
43BB
  5
43C0
331
107D
  5
107D
331
437D
  5
4382
331
105E
  5
105E
331
1047
  5
1047
331
FE8
  5
FE8
331
4328
  5
432B
331
FC9
  5
FC9
331
FAA
  5
FAA
331
3E99
  5
3F26
331
4347
  5
434A
331
435E
  5
4361
331
439C
  5
43A1
331
43D2
  5
43D7
331
4446
  5
444B
331
44F9
  5
44FF
331
44DA
  5
44E0
331
44BB
  5
44C3
331
2F3D
  5
2F3D
331
2EFF
  5
2EFF
331
2F1E
  5
2F1E
331
4485
  5
448B
331
4466
  5
446B
331
125F
  5
1260
331
1160
  5
1161
331
4430
  5
4435
331
1141
  5
1142
331
4411
  5
4417
331
1122
  5
1123
331
10FB
  5
10FC
331
10E4
  5
10E5
331
43BC
  5
43C1
331
107E
  5
107E
331
437E
  5
4383
331
4348
  5
434B
331
105F
  5
105F
331
1048
  5
1048
331
FE9
  5
FE9
331
FAB
  5
FAB
331
FCA
  5
FCA
331
4329
  5
432C
331
435F
  5
4362
331
439D
  5
43A2
331
43D3
  5
43D8
331
43F2
  5
43F7
331
4447
  5
444C
331
44FA
  5
4500
331
44DB
  5
44E1
331
44BC
  5
44C4
331
1727
  5
1743
331
164A
  5
1660
331
18FD
  5
18FE
331
2F1F
  5
2F1F
331
2F3E
  5
2F3E
331
4486
  5
448C
331
1260
  5
1261
331
1161
  5
1162
331
4431
  5
4436
331
1142
  5
1143
331
4412
  5
4418
331
1123
  5
1124
331
43F3
  5
43F8
331
10FC
  5
10FD
331
10E5
  5
10E6
331
43BD
  5
43C2
331
439E
  5
43A3
331
107F
  5
107F
331
4349
  5
434C
331
1060
  5
1060
331
1049
  5
1049
331
4360
  5
4363
331
FCB
  5
FCB
331
FEA
  5
FEA
331
432A
  5
432D
331
FAC
  5
FAC
331
3AEC
  5
3E71
331
437F
  5
4384
331
43D4
  5
43D9
331
4448
  5
444D
331
44A5
  5
44B1
331
44FB
  5
4501
331
44DC
  5
44E2
331
44BD
  5
44C5
331
18FE
  5
18FF
331
2F3F
  5
2F3F
331
4487
  5
4496
331
1261
  5
1262
331
1162
  5
1163
331
1143
  5
114C
331
4432
  5
4437
331
1124
  5
1125
331
43F4
  5
43F9
331
10FD
  5
10FE
331
10E6
  5
10E7
331
43BE
  5
43C3
331
1080
  5
1080
331
4380
  5
4385
331
434A
  5
434D
331
1061
  5
1061
331
104A
  5
104A
331
FEB
  5
FEB
331
FAD
  5
FAD
331
FCC
  5
FCC
331
432B
  5
432E
331
4361
  5
4364
331
439F
  5
43A4
331
43D5
  5
43DA
331
4449
  5
444E
331
44FC
  5
4502
331
44DD
  5
44E3
331
15ED
  5
1612
331
18FF
  5
1E89
331
44BE
  5
44C6
331
4488
  5
4498
331
4469
  5
446E
331
1262
  5
1263
331
1163
  5
1164
331
4433
  5
4438
331
4414
  5
4419
331
1125
  5
1126
331
43F5
  5
43FA
331
10FE
  5
10FF
331
10E7
  5
10E8
331
10C8
  5
10C8
331
43A0
  5
43A5
331
1081
  5
1081
331
4381
  5
4386
331
434B
  5
434E
331
1062
  5
1062
331
104B
  5
104B
331
4362
  5
4365
331
FAE
  5
FAE
331
FCD
  5
FCD
331
FEC
  5
FEC
331
432C
  5
432F
331
43BF
  5
43C4
331
43D6
  5
43DB
331
444A
  5
444F
331
44FD
  5
4503
331
168C
  5
16A2
331
17D1
  5
1809
331
44DE
  5
44E4
331
3721
  5
3721
331
4489
  5
449A
331
446A
  5
446F
331
1263
  5
1264
331
1164
  5
1165
331
4434
  5
4439
331
4415
  5
441A
331
1126
  5
1127
331
43F6
  5
43FB
331
43C0
  5
43C5
331
10FF
  5
1100
331
10E8
  5
10E9
331
10C9
  5
10C9
331
43A1
  5
43A6
331
1082
  5
1082
331
4382
  5
4387
331
434C
  5
434F
331
1063
  5
1063
331
104C
  5
104C
331
FED
  5
FED
331
FAF
  5
FAF
331
FCE
  5
FCE
331
432D
  5
4330
331
4363
  5
4366
331
43D7
  5
43DC
331
444B
  5
4450
331
44FE
  5
4504
331
44DF
  5
44E5
331
448A
  5
449B
331
446B
  5
4470
331
1264
  5
15BF
331
1165
  5
1166
331
4435
  5
443A
331
4416
  5
441B
331
1127
  5
1128
331
43C1
  5
43C6
331
1100
  5
1101
331
10E9
  5
10EA
331
10CA
  5
10CA
331
43A2
  5
43A7
331
1083
  5
1083
331
4383
  5
4388
331
434D
  5
4350
331
1064
  5
1064
331
104D
  5
104D
331
4364
  5
4367
331
FCF
  5
FCF
331
FEE
  5
FEE
331
FB0
  5
FB0
331
432E
  5
4331
331
43D8
  5
43DD
331
43F7
  5
43FC
331
444C
  5
4451
331
44FF
  5
4505
331
44E0
  5
44E6
331
16FD
  5
1711
331
44C1
  5
44C7
331
448B
  5
449C
331
446C
  5
4471
331
1166
  5
1252
331
4436
  5
443B
331
1128
  5
1129
331
43F8
  5
43FD
331
43C2
  5
43C7
331
1101
  5
1102
331
10EA
  5
10EB
331
43D9
  5
43DE
331
10CB
  5
10CC
331
43A3
  5
43A8
331
1084
  5
1084
331
4384
  5
4389
331
434E
  5
4351
331
1065
  5
1065
331
104E
  5
104E
331
FEF
  5
FEF
331
FD0
  5
FD0
331
FB1
  5
FB1
331
432F
  5
4332
331
4365
  5
4368
331
4417
  5
441C
331
444D
  5
4452
331
4500
  5
4745
331
44E1
  5
44E7
331
1660
  5
1676
331
44C2
  5
44C8
331
3106
  5
3106
331
448C
  5
449D
331
446D
  5
4472
331
4418
  5
441D
331
1129
  5
112A
331
43F9
  5
43FE
331
43C3
  5
43C8
331
1102
  5
1103
331
10EB
  5
10EC
331
43DA
  5
43DF
331
10CC
  5
10CD
331
43A4
  5
43A9
331
1085
  5
1085
331
4385
  5
438A
331
434F
  5
4352
331
1066
  5
1066
331
4330
  5
4333
331
104F
  5
104F
331
FB2
  5
FB2
331
FD1
  5
FD1
331
FF0
  5
FF0
331
4366
  5
4369
331
4437
  5
443C
331
444E
  5
4453
331
4501
  5
479D
331
44E2
  5
44E8
331
44C3
  5
44D1
331
3107
  5
3107
331
44AC
  5
44B2
331
446E
  5
4473
331
4438
  5
443D
331
4419
  5
441E
331
112A
  5
112B
331
43FA
  5
43FF
331
43C4
  5
43C9
331
1103
  5
1104
331
10EC
  5
10ED
331
43DB
  5
43E0
331
10CD
  5
10CE
331
43A5
  5
43AA
331
1086
  5
1086
331
4386
  5
438B
331
1067
  5
1067
331
4331
  5
4334
331
FD2
  5
FD2
331
FB3
  5
FB3
331
FF1
  5
FF1
331
4367
  5
436A
331
444F
  5
4454
331
479D
  5
4973
331
4502
  5
493E
331
44E3
  5
44E9
331
44C4
  5
44D2
331
44AD
  5
44B3
331
4439
  5
443E
331
4450
  5
4455
331
441A
  5
441F
331
112B
  5
112C
331
43FB
  5
4400
331
43C5
  5
43CA
331
1104
  5
1105
331
10ED
  5
10F4
331
43DC
  5
43E1
331
10CE
  5
10CF
331
43A6
  5
43AB
331
1087
  5
1087
331
4368
  5
436B
331
4332
  5
4335
331
1068
  5
1068
331
3F23
  5
4318
331
FF2
  5
FF2
331
FB4
  5
FB4
331
FD3
  5
FD3
331
4387
  5
438C
331
446F
  5
4474
331
4503
  5
493F
331
44E4
  5
44EA
331
16A2
  5
16B8
331
44C5
  5
44D3
331
4470
  5
4475
331
44AE
  5
44B4
331
1252
  5
1253
331
441B
  5
4420
331
112C
  5
112D
331
43FC
  5
4401
331
1105
  5
1106
331
43DD
  5
43E2
331
443A
  5
443F
331
10CF
  5
10D0
331
4388
  5
438D
331
4369
  5
436C
331
4333
  5
4336
331
FD4
  5
FD4
331
FB5
  5
FB5
331
FF3
  5
FF3
331
1069
  5
1069
331
1088
  5
1088
331
43A7
  5
43AC
331
43C6
  5
43CB
331
F60
  5
F60
331
44E5
  5
44EB
331
44C6
  5
44D4
331
4471
  5
4476
331
4452
  5
4457
331
44AF
  5
44B5
331
1253
  5
1254
331
441C
  5
4421
331
443B
  5
4440
331
43FD
  5
4402
331
43DE
  5
43E3
331
112D
  5
112E
331
43A8
  5
43AD
331
4389
  5
438E
331
436A
  5
436D
331
4334
  5
4337
331
106A
  5
106A
331
FF4
  5
FF4
331
FB6
  5
FB6
331
FD5
  5
FD5
331
1089
  5
1089
331
10D0
  5
10D1
331
43C7
  5
43CC
331
1106
  5
1107
331
114C
  5
114D
331
F80
  5
F80
331
F61
  5
F61
331
F42
  5
F42
331
44E6
  5
44EC
331
44C7
  5
44D5
331
1809
  5
1850
331
15BF
  5
15ED
331
44B0
  5
44B6
331
4472
  5
4477
331
4453
  5
4458
331
1254
  5
1255
331
441D
  5
4422
331
443C
  5
4441
331
43FE
  5
4403
331
114D
  5
114E
331
43DF
  5
43E4
331
112E
  5
112F
331
43A9
  5
43AE
331
438A
  5
438F
331
436B
  5
436E
331
4335
  5
4338
331
3F26
  5
4319
331
FD6
  5
FD6
331
FB7
  5
FB7
331
FF5
  5
FF5
331
106B
  5
106B
331
108A
  5
108A
331
10D1
  5
10D2
331
1107
  5
1116
331
F81
  5
F81
331
F62
  5
F62
331
F43
  5
F43
331
44E7
  5
44ED
331
44C8
  5
44D6
331
1743
  5
1744
331
44B1
  5
44B7
331
4454
  5
4459
331
1255
  5
1256
331
441E
  5
4423
331
443D
  5
4442
331
43FF
  5
4404
331
43E0
  5
43E5
331
43AA
  5
43AF
331
438B
  5
4390
331
436C
  5
436F
331
FF6
  5
FF6
331
FD7
  5
FD7
331
106C
  5
106C
331
108B
  5
108B
331
10D2
  5
10D3
331
112F
  5
1130
331
114E
  5
114F
331
F82
  5
F82
331
F63
  5
F63
331
F44
  5
F44
331
44E8
  5
44EE
331
1744
  5
174B
331
44B2
  5
44B8
331
4474
  5
4479
331
4455
  5
445A
331
1256
  5
1257
331
441F
  5
4424
331
443E
  5
4443
331
4400
  5
4405
331
43E1
  5
43E6
331
43AB
  5
43B0
331
438C
  5
4391
331
436D
  5
4370
331
4337
  5
433A
331
FF7
  5
FF7
331
106D
  5
106D
331
108C
  5
108C
331
10D3
  5
10D4
331
1130
  5
1131
331
114F
  5
1150
331
F83
  5
F83
331
F64
  5
F64
331
F45
  5
F45
331
44E9
  5
44EF
331
44B3
  5
44B9
331
4475
  5
447A
331
4420
  5
4425
331
1257
  5
1258
331
4401
  5
4406
331
43E2
  5
43E7
331
43AC
  5
43B1
331
1131
  5
1132
331
438D
  5
4392
331
436E
  5
4372
331
106E
  5
106E
331
108D
  5
108D
331
10D4
  5
10D5
331
1150
  5
1151
331
443F
  5
4444
331
F84
  5
F84
331
F65
  5
F65
331
F46
  5
F46
331
1612
  5
1634
331
44EA
  5
44F0
331
44B4
  5
44BA
331
4421
  5
4426
331
4402
  5
4407
331
1151
  5
1152
331
43E3
  5
43E8
331
43AD
  5
43B2
331
438E
  5
4393
331
436F
  5
4373
331
106F
  5
106F
331
108E
  5
108E
331
10D5
  5
10D6
331
1132
  5
1133
331
4476
  5
447B
331
F85
  5
F85
331
F66
  5
F66
331
F47
  5
F47
331
44EB
  5
44F1
331
44B5
  5
44BB
331
4496
  5
44A5
331
4422
  5
4427
331
4403
  5
4408
331
43E4
  5
43E9
331
43AE
  5
43B3
331
1133
  5
1134
331
438F
  5
4394
331
108F
  5
108F
331
10D6
  5
10D7
331
1152
  5
1153
331
4477
  5
447C
331
F86
  5
F86
331
F67
  5
F67
331
F48
  5
F48
331
1711
  5
1727
331
44EC
  5
44F2
331
44B6
  5
44BC
331
4478
  5
447D
331
4459
  5
445E
331
1153
  5
1157
331
1134
  5
1135
331
4404
  5
4409
331
43E5
  5
43EA
331
10D7
  5
10D8
331
43AF
  5
43B4
331
4423
  5
4428
331
F87
  5
F87
331
F68
  5
F68
331
F49
  5
F49
331
44ED
  5
44F3
331
44B7
  5
44BD
331
4479
  5
447E
331
445A
  5
445F
331
1135
  5
1136
331
4405
  5
440A
331
1116
  5
1117
331
43E6
  5
43EB
331
4424
  5
4429
331
4498
  5
44AC
331
F88
  5
F88
331
F69
  5
F69
331
F4A
  5
F4A
331
44EE
  5
44F4
331
447A
  5
447F
331
445B
  5
4460
331
1136
  5
1137
331
4406
  5
440B
331
1117
  5
111A
331
43E7
  5
43EC
331
4425
  5
442A
331
F89
  5
F89
331
F4B
  5
F4B
331
F6A
  5
F6A
331
1676
  5
168C
331
44EF
  5
44F5
331
447B
  5
4480
331
445C
  5
4461
331
1137
  5
1138
331
4407
  5
440C
331
4426
  5
442B
331
449A
  5
44AD
331
F8A
  5
F8A
331
F6B
  5
F6B
331
F4C
  5
F4C
331
44F0
  5
44F6
331
44D1
  5
44D7
331
1883
  5
18FD
331
447C
  5
4481
331
1157
  5
1158
331
4427
  5
442C
331
449B
  5
44AE
331
F8B
  5
F8B
331
F4D
  5
F4D
331
F6C
  5
F6C
331
44F1
  5
44F7
331
44D2
  5
44D8
331
1775
  5
17D1
331
445E
  5
4463
331
449C
  5
44AF
331
F8C
  5
F8C
331
F6D
  5
F6D
331
F4E
  5
F4E
331
44F2
  5
44F8
331
44D3
  5
44D9
331
4745
  5
496C
331
445F
  5
4464
331
449D
  5
44B0
331
F8D
  5
F8D
331
F4F
  5
F4F
331
F6E
  5
F6E
331
44F3
  5
44F9
331
44D4
  5
44DA
331
F6F
  5
F6F
331
F50
  5
F50
331
F8E
  5
F8E
331
44F4
  5
44FA
331
44D5
  5
44DB
  0
XRECORD
  5
4B3B
102
{ACAD_REACTORS
330
4B3A
102
}
330
4B3A
100
AcDbXrecord
340
4B12
  0
ACAD_PROXY_OBJECT
  5
811
102
{ACAD_XDICTIONARY
360
812
102
}
102
{ACAD_REACTORS
330
808
102
}
330
808
100
AcDbProxyObject
 90
      499
 91
      512
 93
     1340
310
42109E509B1BD8DAC02004014080404555555555555953FAA155555555555654FEA9AA400014080404555555555555953FAA155555555555654FEA9AA400000000000000E03F4080404555555555555953FAA155555555555654FEA9AA4014080404555555555555953FAA155555555555654FEA9AA4010201011555555555
310
55654FEA8555555555555953FAA6A9005020101155555555555654FEA8555555555555953FAA6A9000
 94
        0
1001
ACAD
1000
AcadProxyRoundTripData
1071
      504
1071
   851991
1070
     0
  0
ACAD_PROXY_OBJECT
  5
809
102
{ACAD_XDICTIONARY
360
80A
102
}
102
{ACAD_REACTORS
330
808
102
}
330
808
100
AcDbProxyObject
 90
      499
 91
      512
 93
     1340
310
42109E53185E595C802004014080404555555555555953FAA155555555555654FEA9AA400014080404555555555555953FAA155555555555654FEA9AA400000000000000E03F4080404555555555555953FAA155555555555654FEA9AA4014080404555555555555953FAA155555555555654FEA9AA4010201011555555555
310
55654FEA8555555555555953FAA6A9005020101155555555555654FEA8555555555555953FAA6A9000
 94
        0
1001
ACAD
1000
AcadProxyRoundTripData
1071
      504
1071
   851991
1070
     0
  0
ACAD_PROXY_OBJECT
  5
819
102
{ACAD_XDICTIONARY
360
81A
102
}
102
{ACAD_REACTORS
330
808
102
}
330
808
100
AcDbProxyObject
 90
      499
 91
      512
 93
     1332
310
41D1DB1BD8985B002004014080404555555555555953FAA155555555555654FEA9AA400014080404555555555555953FAA155555555555654FEA9AA400000000000000E03F4080404555555555555953FAA155555555555654FEA9AA4014080404555555555555953FAA155555555555654FEA9AA401020101155555555555
310
654FEA8555555555555953FAA6A9005020101155555555555654FEA8555555555555953FAA6A9000
 94
        0
1001
ACAD
1000
AcadProxyRoundTripData
1071
      504
1071
   851991
1070
     0
  0
ACAD_PROXY_OBJECT
  5
858
102
{ACAD_REACTORS
330
857
102
}
330
857
100
AcDbProxyObject
 90
      499
 91
      512
 93
      618
310
40901902A4063FBFFFFFE056BD1B81E855B9FC0AD7A3703D0AD73F4254DD185B99185C990000AD7A3703D0AC73F90141901A02B5E8DC0F42B1CFC02B5E8DC0F42B1CFE5764000000000000300FC6
340
6A
340
0
340
16
340
0
 94
        0
1001
ACAD_MLEADERVER
1070
     2
1001
ACAD
1000
AcadProxyRoundTripData
1071
      508
1071
   851991
1070
     0
  0
MLINESTYLE
  5
78
102
{ACAD_REACTORS
330
76
102
}
330
76
100
AcDbMlineStyle
  2
STANDARD
 70
     0
  3

 62
     0
 51
90.0
 52
90.0
 71
     2
 49
0.5
 62
   256
  6
BYLAYER
 49
-0.5
 62
   256
  6
BYLAYER
  0
ACDBPLACEHOLDER
  5
5
102
{ACAD_REACTORS
330
6
102
}
330
6
100
AcDbPlaceHolder
280
     0
  0
ACAD_PROXY_OBJECT
  5
836
102
{ACAD_REACTORS
330
835
102
}
330
835
100
AcDbProxyObject
 90
      499
 91
      512
 93
       49
310
904313A3100598
 94
        0
1001
ACAD
1000
AcadProxyRoundTripData
1071
      507
1071
   851991
1070
     0
  0
ACAD_PROXY_OBJECT
  5
837
102
{ACAD_REACTORS
330
835
102
}
330
835
100
AcDbProxyObject
 90
      499
 91
      512
 93
      113
310
904313A3200400000000000000406B
 94
        0
1001
ACAD
1000
AcadProxyRoundTripData
1071
      507
1071
   851991
1070
     0
  0
ACAD_PROXY_OBJECT
  5
838
102
{ACAD_REACTORS
330
835
102
}
330
835
100
AcDbProxyObject
 90
      499
 91
      512
 93
      113
310
904313A3400400000000000010406B
 94
        0
1001
ACAD
1000
AcadProxyRoundTripData
1071
      507
1071
   851991
1070
     0
  0
ACAD_PROXY_OBJECT
  5
839
102
{ACAD_REACTORS
330
835
102
}
330
835
100
AcDbProxyObject
 90
      499
 91
      512
 93
      113
310
904313A3500400000000000014406B
 94
        0
1001
ACAD
1000
AcadProxyRoundTripData
1071
      507
1071
   851991
1070
     0
  0
ACAD_PROXY_OBJECT
  5
83A
102
{ACAD_REACTORS
330
835
102
}
330
835
100
AcDbProxyObject
 90
      499
 91
      512
 93
      113
310
904313A3800400000000000020406B
 94
        0
1001
ACAD
1000
AcadProxyRoundTripData
1071
      507
1071
   851991
1070
     0
  0
ACAD_PROXY_OBJECT
  5
83B
102
{ACAD_REACTORS
330
835
102
}
330
835
100
AcDbProxyObject
 90
      499
 91
      512
 93
      121
310
905313A3130004000000000000244051
 94
        0
1001
ACAD
1000
AcadProxyRoundTripData
1071
      507
1071
   851991
1070
     0
  0
ACAD_PROXY_OBJECT
  5
83C
102
{ACAD_REACTORS
330
835
102
}
330
835
100
AcDbProxyObject
 90
      499
 91
      512
 93
      121
310
905313A3136004000000000000304051
 94
        0
1001
ACAD
1000
AcadProxyRoundTripData
1071
      507
1071
   851991
1070
     0
  0
ACAD_PROXY_OBJECT
  5
83D
102
{ACAD_REACTORS
330
835
102
}
330
835
100
AcDbProxyObject
 90
      499
 91
      512
 93
      121
310
905313A3230004000000000000344051
 94
        0
1001
ACAD
1000
AcadProxyRoundTripData
1071
      507
1071
   851991
1070
     0
  0
ACAD_PROXY_OBJECT
  5
83E
102
{ACAD_REACTORS
330
835
102
}
330
835
100
AcDbProxyObject
 90
      499
 91
      512
 93
      121
310
905313A33300040000000000003E4051
 94
        0
1001
ACAD
1000
AcadProxyRoundTripData
1071
      507
1071
   851991
1070
     0
  0
ACAD_PROXY_OBJECT
  5
83F
102
{ACAD_REACTORS
330
835
102
}
330
835
100
AcDbProxyObject
 90
      499
 91
      512
 93
      121
310
905313A3430004000000000000444051
 94
        0
1001
ACAD
1000
AcadProxyRoundTripData
1071
      507
1071
   851991
1070
     0
  0
ACAD_PROXY_OBJECT
  5
840
102
{ACAD_REACTORS
330
835
102
}
330
835
100
AcDbProxyObject
 90
      499
 91
      512
 93
      121
310
905313A3530004000000000000494051
 94
        0
1001
ACAD
1000
AcadProxyRoundTripData
1071
      507
1071
   851991
1070
     0
  0
ACAD_PROXY_OBJECT
  5
841
102
{ACAD_REACTORS
330
835
102
}
330
835
100
AcDbProxyObject
 90
      499
 91
      512
 93
      129
310
906313A313030004000000000000594038
 94
        0
1001
ACAD
1000
AcadProxyRoundTripData
1071
      507
1071
   851991
1070
     0
  0
ACAD_PROXY_OBJECT
  5
842
102
{ACAD_REACTORS
330
835
102
}
330
835
100
AcDbProxyObject
 90
      499
 91
      512
 93
      113
310
904323A31000000000000000010159
 94
        0
1001
ACAD
1000
AcadProxyRoundTripData
1071
      507
1071
   851991
1070
     0
  0
ACAD_PROXY_OBJECT
  5
843
102
{ACAD_REACTORS
330
835
102
}
330
835
100
AcDbProxyObject
 90
      499
 91
      512
 93
      113
310
904343A31000000000000000410159
 94
        0
1001
ACAD
1000
AcadProxyRoundTripData
1071
      507
1071
   851991
1070
     0
  0
ACAD_PROXY_OBJECT
  5
844
102
{ACAD_REACTORS
330
835
102
}
330
835
100
AcDbProxyObject
 90
      499
 91
      512
 93
      113
310
904383A31000000000000000810159
 94
        0
1001
ACAD
1000
AcadProxyRoundTripData
1071
      507
1071
   851991
1070
     0
  0
ACAD_PROXY_OBJECT
  5
845
102
{ACAD_REACTORS
330
835
102
}
330
835
100
AcDbProxyObject
 90
      499
 91
      512
 93
      121
310
90531303A31000000000000000910140
 94
        0
1001
ACAD
1000
AcadProxyRoundTripData
1071
      507
1071
   851991
1070
     0
  0
ACAD_PROXY_OBJECT
  5
846
102
{ACAD_REACTORS
330
835
102
}
330
835
100
AcDbProxyObject
 90
      499
 91
      512
 93
      129
310
9063130303A31000000000000001650138
 94
        0
1001
ACAD
1000
AcadProxyRoundTripData
1071
      507
1071
   851991
1070
     0
  0
ACAD_PROXY_OBJECT
  5
847
102
{ACAD_REACTORS
330
835
102
}
330
835
100
AcDbProxyObject
 90
      499
 91
      512
 93
      265
310
90F312F31323822203D2031272D302200000000000000200FC00000000000028402B
 94
        0
1001
ACAD
1000
AcadProxyRoundTripData
1071
      507
1071
   851991
1070
     0
  0
ACAD_PROXY_OBJECT
  5
848
102
{ACAD_REACTORS
330
835
102
}
330
835
100
AcDbProxyObject
 90
      499
 91
      512
 93
      257
310
90E312F363422203D2031272D302200000000000000240FC000000000000284040
 94
        0
1001
ACAD
1000
AcadProxyRoundTripData
1071
      507
1071
   851991
1070
     0
  0
ACAD_PROXY_OBJECT
  5
849
102
{ACAD_REACTORS
330
835
102
}
330
835
100
AcDbProxyObject
 90
      499
 91
      512
 93
      257
310
90E312F333222203D2031272D302200000000000000280FC000000000000284040
 94
        0
1001
ACAD
1000
AcadProxyRoundTripData
1071
      507
1071
   851991
1070
     0
  0
ACAD_PROXY_OBJECT
  5
84A
102
{ACAD_REACTORS
330
835
102
}
330
835
100
AcDbProxyObject
 90
      499
 91
      512
 93
      257
310
90E312F313622203D2031272D3022000000000000002C0FC000000000000284040
 94
        0
1001
ACAD
1000
AcadProxyRoundTripData
1071
      507
1071
   851991
1070
     0
  0
ACAD_PROXY_OBJECT
  5
84B
102
{ACAD_REACTORS
330
835
102
}
330
835
100
AcDbProxyObject
 90
      499
 91
      512
 93
      257
310
90E332F333222203D2031272D3022000000000000002E0FC000000000000284040
 94
        0
1001
ACAD
1000
AcadProxyRoundTripData
1071
      507
1071
   851991
1070
     0
  0
ACAD_PROXY_OBJECT
  5
84C
102
{ACAD_REACTORS
330
835
102
}
330
835
100
AcDbProxyObject
 90
      499
 91
      512
 93
      249
310
90D312F3822203D2031272D302200000000000000300FC000000000000284040
 94
        0
1001
ACAD
1000
AcadProxyRoundTripData
1071
      507
1071
   851991
1070
     0
  0
ACAD_PROXY_OBJECT
  5
84D
102
{ACAD_REACTORS
330
835
102
}
330
835
100
AcDbProxyObject
 90
      499
 91
      512
 93
      257
310
90E332F313622203D2031272D302200000000000000320FC000000000000284040
 94
        0
1001
ACAD
1000
AcadProxyRoundTripData
1071
      507
1071
   851991
1070
     0
  0
ACAD_PROXY_OBJECT
  5
84E
102
{ACAD_REACTORS
330
835
102
}
330
835
100
AcDbProxyObject
 90
      499
 91
      512
 93
      249
310
90D312F3422203D2031272D302200000000000000340FC000000000000284040
 94
        0
1001
ACAD
1000
AcadProxyRoundTripData
1071
      507
1071
   851991
1070
     0
  0
ACAD_PROXY_OBJECT
  5
84F
102
{ACAD_REACTORS
330
835
102
}
330
835
100
AcDbProxyObject
 90
      499
 91
      512
 93
      249
310
90D332F3822203D2031272D302200000000000000360FC000000000000284040
 94
        0
1001
ACAD
1000
AcadProxyRoundTripData
1071
      507
1071
   851991
1070
     0
  0
ACAD_PROXY_OBJECT
  5
850
102
{ACAD_REACTORS
330
835
102
}
330
835
100
AcDbProxyObject
 90
      499
 91
      512
 93
      249
310
90D312F3222203D2031272D302200000000000000380FC000000000000284040
 94
        0
1001
ACAD
1000
AcadProxyRoundTripData
1071
      507
1071
   851991
1070
     0
  0
ACAD_PROXY_OBJECT
  5
851
102
{ACAD_REACTORS
330
835
102
}
330
835
100
AcDbProxyObject
 90
      499
 91
      512
 93
      249
310
90D332F3422203D2031272D3022000000000000003A0FC000000000000284040
 94
        0
1001
ACAD
1000
AcadProxyRoundTripData
1071
      507
1071
   851991
1070
     0
  0
ACAD_PROXY_OBJECT
  5
852
102
{ACAD_REACTORS
330
835
102
}
330
835
100
AcDbProxyObject
 90
      499
 91
      512
 93
      169
310
90B3122203D2031272D3022004000000000000284020
 94
        0
1001
ACAD
1000
AcadProxyRoundTripData
1071
      507
1071
   851991
1070
     0
  0
ACAD_PROXY_OBJECT
  5
853
102
{ACAD_REACTORS
330
835
102
}
330
835
100
AcDbProxyObject
 90
      499
 91
      512
 93
      265
310
90F312D312F3222203D2031272D3022000000000000003E0FC00000000000028402B
 94
        0
1001
ACAD
1000
AcadProxyRoundTripData
1071
      507
1071
   851991
1070
     0
  0
ACAD_PROXY_OBJECT
  5
854
102
{ACAD_REACTORS
330
835
102
}
330
835
100
AcDbProxyObject
 90
      499
 91
      512
 93
      233
310
90B3322203D2031272D30220000000000000002100000000000000284000
 94
        0
1001
ACAD
1000
AcadProxyRoundTripData
1071
      507
1071
   851991
1070
     0
  0
ACAD_PROXY_OBJECT
  5
855
102
{ACAD_REACTORS
330
835
102
}
330
835
100
AcDbProxyObject
 90
      499
 91
      512
 93
      233
310
90B3622203D2031272D30220000000000000006100000000000000284000
 94
        0
1001
ACAD
1000
AcadProxyRoundTripData
1071
      507
1071
   851991
1070
     0
  0
ACAD_PROXY_OBJECT
  5
856
102
{ACAD_REACTORS
330
835
102
}
330
835
100
AcDbProxyObject
 90
      499
 91
      512
 93
      257
310
90E31272D3022203D2031272D3022000000000000000A100000000000000284040
 94
        0
1001
ACAD
1000
AcadProxyRoundTripData
1071
      507
1071
   851991
1070
     0
  0
ACAD_PROXY_OBJECT
  5
834
102
{ACAD_XDICTIONARY
360
88C
102
}
102
{ACAD_REACTORS
330
833
102
}
330
833
100
AcDbProxyObject
 90
      499
 91
      512
 93
     1849
310
4254DD185B99185C990028B81E85EB51B8AE3F2E07A17AD46E2B8FC02B5E8DC0F42B1CFD028000000C1008070000C3001FDFF8000000C1003FBFF000000182007F7FE00000030400FEFFC00000060801FDFF8000000C1003FBFF00000018200000000000000681FA0B0000001820100E000186003FBFF000000182007F7FE0
310
0000030400FEFFC00000060801FDFF8000000C1003FBFF000000182007F7FE000000304000AD7A3703D0AC73F4160000003040201C00030C007F7FE00000030400FEFFC00000060801FDFF8000000C1003FBFF000000182007F7FE00000030400FEFFC000000608056
340
16
340
16
340
16
 94
        0
1001
ACAD
1000
AcadProxyRoundTripData
1071
      506
1071
   851991
1070
     0
  0
ACAD_PROXY_OBJECT
  5
827
102
{ACAD_REACTORS
330
821
102
}
330
821
100
AcDbProxyObject
 90
      499
 91
      512
 93
      444
310
430C9915DA5C99599C985B59401049028333333333333E3BF0000000000000FB0107901411070040501600405405064090741402480A0340
 94
        0
1001
ACAD
1000
AcDbSavedByObjectVersion
1070
     0
1000
AcadProxyRoundTripData
1071
      505
1071
   851991
1070
     0
  0
ACAD_PROXY_OBJECT
  5
829
102
{ACAD_REACTORS
330
821
102
}
330
821
100
AcDbProxyObject
 90
      499
 91
      512
 93
      508
310
428CD108121A5919195B8010640502408333333333333E3BF0000000000000FB01079024090700405020000000000001110200405405064090740C02480A0340
 94
        0
1001
ACAD
1000
AcDbSavedByObjectVersion
1070
     0
1000
AcadProxyRoundTripData
1071
      505
1071
   851991
1070
     0
  0
ACAD_PROXY_OBJECT
  5
828
102
{ACAD_REACTORS
330
821
102
}
330
821
100
AcDbProxyObject
 90
      499
 91
      512
 93
      444
310
430CD915DA5C99599C985B59401059028333333333333E3BF0000000000000FB0107901411070040501600405405064090741402480A0340
 94
        0
1001
ACAD
1000
AcDbSavedByObjectVersion
1070
     0
1000
AcadProxyRoundTripData
1071
      505
1071
   851991
1070
     0
  0
ACAD_PROXY_OBJECT
  5
826
102
{ACAD_REACTORS
330
821
102
}
330
821
100
AcDbProxyObject
 90
      499
 91
      512
 93
      396
310
4190985CDA58C0107406404333333333333E3BF0000000000000FB0107A41107004050150841D405064090741402480A0356
 94
        0
1001
ACAD
1000
AcDbSavedByObjectVersion
1070
     0
1000
AcadProxyRoundTripData
1071
      505
1071
   851991
1070
     0
  0
ACAD_PROXY_OBJECT
  5
82D
102
{ACAD_REACTORS
330
821
102
}
330
821
100
AcDbProxyObject
 90
      499
 91
      512
 93
      436
310
42509C9A59DA1D195B8010C409028333333333333E3BF0000000000000FB010790141107004050150841D405064090741402480A029956
 94
        0
1001
ACAD
1000
AcDbSavedByObjectVersion
1070
     0
1000
AcadProxyRoundTripData
1071
      505
1071
   851991
1070
     0
  0
ACAD_PROXY_OBJECT
  5
831
102
{ACAD_REACTORS
330
821
102
}
330
821
100
AcDbProxyObject
 90
      499
 91
      512
 93
      460
310
4310DBDB1BDC90DA185B99D9401104090240C333333333333E3BF0000000000000FB0108901411070040501508421405064090741402480A0354
 94
        0
1001
ACAD
1000
AcDbSavedByObjectVersion
1070
     0
1000
AcadProxyRoundTripData
1071
      505
1071
   851991
1070
     0
  0
ACAD_PROXY_OBJECT
  5
82A
102
{ACAD_REACTORS
330
821
102
}
330
821
100
AcDbProxyObject
 90
      499
 91
      512
 93
      508
310
42D0DBDB98D95C1D1D585B0010940D028333333333333E3BF0000000000000FB0107902409070040501000000000000111010841D405064090740C02480A0340
 94
        0
1001
ACAD
1000
AcDbSavedByObjectVersion
1070
     0
1000
AcadProxyRoundTripData
1071
      505
1071
   851991
1070
     0
  0
ACAD_PROXY_OBJECT
  5
82C
102
{ACAD_REACTORS
330
821
102
}
330
821
100
AcDbProxyObject
 90
      499
 91
      512
 93
      420
310
41111A5B4010B409028333333333333E3BF0000000000000FB010790141107004050150841D405064090741402480A02677FFFFFDB
 94
        0
1001
ACAD
1000
AcDbSavedByObjectVersion
1070
     0
1000
AcadProxyRoundTripData
1071
      505
1071
   851991
1070
     0
  0
ACAD_PROXY_OBJECT
  5
830
102
{ACAD_REACTORS
330
821
102
}
330
821
100
AcDbProxyObject
 90
      499
 91
      512
 93
      452
310
43119858D95C185D1D195C9B8010F409028333333333333E3BF0000000000000FB010790141107004050150841D405064090741402480A0350
 94
        0
1001
ACAD
1000
AcDbSavedByObjectVersion
1070
     0
1000
AcadProxyRoundTripData
1071
      505
1071
   851991
1070
     0
  0
ACAD_PROXY_OBJECT
  5
822
102
{ACAD_REACTORS
330
821
102
}
330
821
100
AcDbProxyObject
 90
      499
 91
      512
 93
      396
310
41519B185D00240901404333333333333E3BF0000000000000F9010740A41107004050150841D405064090741402480A1B55
 94
        0
1001
ACAD
1000
AcDbSavedByObjectVersion
1070
     0
1000
AcadProxyRoundTripData
1071
      505
1071
   851991
1070
     0
  0
ACAD_PROXY_OBJECT
  5
823
102
{ACAD_REACTORS
330
821
102
}
330
821
100
AcDbProxyObject
 90
      499
 91
      512
 93
      484
310
43919B185D15DA5D1A115919D95CC010140901404333333333333E3BF0000000000000F9010740901411070040501600405405064090741402480A1B50
 94
        0
1001
ACAD
1000
AcDbSavedByObjectVersion
1070
     0
1000
AcadProxyRoundTripData
1071
      505
1071
   851991
1070
     0
  0
ACAD_PROXY_OBJECT
  5
824
102
{ACAD_REACTORS
330
821
102
}
330
821
100
AcDbProxyObject
 90
      499
 91
      512
 93
      420
310
4211DBDD5C985D590010240902404333333333333E3BF0000000000000F9010740A411070040501641D405064090741402480A1B50
 94
        0
1001
ACAD
1000
AcDbSavedByObjectVersion
1070
     0
1000
AcadProxyRoundTripData
1071
      505
1071
   851991
1070
     0
  0
ACAD_PROXY_OBJECT
  5
825
102
{ACAD_REACTORS
330
821
102
}
330
821
100
AcDbProxyObject
 90
      499
 91
      512
 93
      508
310
4451DBDD5C985D5915DA5D1A115919D95CC010340902404333333333333E3BF0000000000000F9010740901411070040501600405405064090741402480A1B50
 94
        0
1001
ACAD
1000
AcDbSavedByObjectVersion
1070
     0
1000
AcadProxyRoundTripData
1071
      505
1071
   851991
1070
     0
  0
ACAD_PROXY_OBJECT
  5
82F
102
{ACAD_REACTORS
330
821
102
}
330
821
100
AcDbProxyObject
 90
      499
 91
      512
 93
      452
310
43131A5B995C185D1D195C9B8010E409028333333333333E3BF0000000000000FB010790141107004050750841D405064090741402483A0350
 94
        0
1001
ACAD
1000
AcDbSavedByObjectVersion
1070
     0
1000
AcadProxyRoundTripData
1071
      505
1071
   851991
1070
     0
  0
ACAD_PROXY_OBJECT
  5
82B
102
{ACAD_REACTORS
330
821
102
}
330
821
100
AcDbProxyObject
 90
      499
 91
      512
 93
      428
310
429499585B1A5CDD1A58C0108409028333333333333E3BF0000000000000FB01079019070040501508421405064090741402480A1B45
 94
        0
1001
ACAD
1000
AcDbSavedByObjectVersion
1070
     0
1000
AcadProxyRoundTripData
1071
      505
1071
   851991
1070
     0
  0
ACAD_PROXY_OBJECT
  5
82E
102
{ACAD_REACTORS
330
821
102
}
330
821
100
AcDbProxyObject
 90
      499
 91
      512
 93
      420
310
42151A1A58DAD95B8010D409028333333333333E3BF0000000000000FB010790141107004050150C41D405064090741402480A0352
 94
        0
1001
ACAD
1000
AcDbSavedByObjectVersion
1070
     0
1000
AcadProxyRoundTripData
1071
      505
1071
   851991
1070
     0
  0
XRECORD
  5
4B22
102
{ACAD_REACTORS
330
4B18
102
}
330
4B18
100
AcDbXrecord
 90
        0
  0
XRECORD
  5
4B26
102
{ACAD_REACTORS
330
4B18
102
}
330
4B18
100
AcDbXrecord
1000
DSTYLE
1002
{
1070
   179
 70
     2
1070
   277
 70
     6
1002
}
  0
XRECORD
  5
4B23
102
{ACAD_REACTORS
330
4B18
102
}
330
4B18
100
AcDbXrecord
  1
{472D1F85-08F4-40FF-8A32-FC4D8F4268D4}
  0
XRECORD
  5
4B1B
102
{ACAD_REACTORS
330
4B18
102
}
330
4B18
100
AcDbXrecord
  1

  0
XRECORD
  5
4B21
102
{ACAD_REACTORS
330
4B18
102
}
330
4B18
100
AcDbXrecord
 90
        0
  0
XRECORD
  5
4B1D
102
{ACAD_REACTORS
330
4B18
102
}
330
4B18
100
AcDbXrecord
340
61
  0
XRECORD
  5
4B20
102
{ACAD_REACTORS
330
4B18
102
}
330
4B18
100
AcDbXrecord
 90
    10781
  0
XRECORD
  5
4B1E
102
{ACAD_REACTORS
330
4B18
102
}
330
4B18
100
AcDbXrecord
340
77
  0
XRECORD
  5
4B1F
102
{ACAD_REACTORS
330
4B18
102
}
330
4B18
100
AcDbXrecord
340
6
  0
XRECORD
  5
4B25
102
{ACAD_REACTORS
330
4B18
102
}
330
4B18
100
AcDbXrecord
 40
0.0
  0
XRECORD
  5
4B29
102
{ACAD_REACTORS
330
4B18
102
}
330
4B18
100
AcDbXrecord
340
0
  0
XRECORD
  5
4B2F
102
{ACAD_REACTORS
330
4B18
102
}
330
4B18
100
AcDbXrecord
 10
0.0
 20
0.0
 30
0.0
  0
XRECORD
  5
4B2B
102
{ACAD_REACTORS
330
4B18
102
}
330
4B18
100
AcDbXrecord
 10
0.0
 20
0.0
 30
0.0
  0
XRECORD
  5
4B2E
102
{ACAD_REACTORS
330
4B18
102
}
330
4B18
100
AcDbXrecord
 10
0.0
 20
0.0
 30
0.0
  0
XRECORD
  5
4B2C
102
{ACAD_REACTORS
330
4B18
102
}
330
4B18
100
AcDbXrecord
 10
0.0
 20
0.0
 30
0.0
  0
XRECORD
  5
4B2D
102
{ACAD_REACTORS
330
4B18
102
}
330
4B18
100
AcDbXrecord
 10
0.0
 20
0.0
 30
0.0
  0
XRECORD
  5
4B2A
102
{ACAD_REACTORS
330
4B18
102
}
330
4B18
100
AcDbXrecord
 10
0.0
 20
0.0
 30
0.0
  0
XRECORD
  5
4B27
102
{ACAD_REACTORS
330
4B18
102
}
330
4B18
100
AcDbXrecord
340
0
  0
XRECORD
  5
4B28
102
{ACAD_REACTORS
330
4B18
102
}
330
4B18
100
AcDbXrecord
 70
     0
  0
XRECORD
  5
4B1C
102
{ACAD_REACTORS
330
4B18
102
}
330
4B18
100
AcDbXrecord
  1
Sekkei.ctb
  0
XRECORD
  5
4B19
102
{ACAD_REACTORS
330
4B18
102
}
330
4B18
100
AcDbXrecord
 90
        1
  0
XRECORD
  5
4B1A
102
{ACAD_REACTORS
330
4B18
102
}
330
4B18
100
AcDbXrecord
 90
       70
  0
XRECORD
  5
4B32
102
{ACAD_REACTORS
330
4B18
102
}
330
4B18
100
AcDbXrecord
340
0
  0
XRECORD
  5
4B38
102
{ACAD_REACTORS
330
4B18
102
}
330
4B18
100
AcDbXrecord
 10
0.0
 20
0.0
 30
0.0
  0
XRECORD
  5
4B34
102
{ACAD_REACTORS
330
4B18
102
}
330
4B18
100
AcDbXrecord
 10
0.0
 20
0.0
 30
0.0
  0
XRECORD
  5
4B37
102
{ACAD_REACTORS
330
4B18
102
}
330
4B18
100
AcDbXrecord
 10
0.0
 20
0.0
 30
0.0
  0
XRECORD
  5
4B35
102
{ACAD_REACTORS
330
4B18
102
}
330
4B18
100
AcDbXrecord
 10
0.0
 20
0.0
 30
0.0
  0
XRECORD
  5
4B36
102
{ACAD_REACTORS
330
4B18
102
}
330
4B18
100
AcDbXrecord
 10
0.0
 20
0.0
 30
0.0
  0
XRECORD
  5
4B33
102
{ACAD_REACTORS
330
4B18
102
}
330
4B18
100
AcDbXrecord
 10
0.0
 20
0.0
 30
0.0
  0
XRECORD
  5
4B30
102
{ACAD_REACTORS
330
4B18
102
}
330
4B18
100
AcDbXrecord
340
0
  0
XRECORD
  5
4B31
102
{ACAD_REACTORS
330
4B18
102
}
330
4B18
100
AcDbXrecord
 70
     0
  0
XRECORD
  5
4B24
102
{ACAD_REACTORS
330
4B18
102
}
330
4B18
100
AcDbXrecord
  1
{E1862641-B77A-4B18-A88B-27FA36F87AD2}
  0
DICTIONARYVAR
  5
892
102
{ACAD_REACTORS
330
102
102
}
330
102
100
DictionaryVariables
280
     0
  1
1:1
  0
DICTIONARYVAR
  5
890
102
{ACAD_REACTORS
330
102
102
}
330
102
100
DictionaryVariables
280
     0
  1
STANDARD
  0
DICTIONARYVAR
  5
88F
102
{ACAD_REACTORS
330
102
102
}
330
102
100
DictionaryVariables
280
     0
  1
STANDARD
  0
DICTIONARYVAR
  5
103
102
{ACAD_REACTORS
330
102
102
}
330
102
100
DictionaryVariables
280
     0
  1
1
  0
DICTIONARYVAR
  5
1E7C
102
{ACAD_REACTORS
330
102
102
}
330
102
100
DictionaryVariables
280
     0
  1
0
  0
DICTIONARYVAR
  5
893
102
{ACAD_REACTORS
330
102
102
}
330
102
100
DictionaryVariables
280
     0
  1
0
  0
DICTIONARYVAR
  5
891
102
{ACAD_REACTORS
330
102
102
}
330
102
100
DictionaryVariables
280
     0
  1
0
  0
DICTIONARYVAR
  5
549
102
{ACAD_REACTORS
330
102
102
}
330
102
100
DictionaryVariables
280
     0
  1
96
  0
DICTIONARY
  5
812
330
811
100
AcDbDictionary
280
     1
  3
ACAD_XREC_ROUNDTRIP
360
4AF6
  3
BUMPTILE
360
814
  3
DIFFUSETILE
360
813
  3
OPACITYTILE
360
817
  3
REFLECTIONTILE
360
816
  3
REFRACTIONTILE
360
818
  3
SPECULARTILE
360
815
  0
DICTIONARY
  5
80A
330
809
100
AcDbDictionary
280
     1
  3
ACAD_XREC_ROUNDTRIP
360
4AF5
  3
BUMPTILE
360
80C
  3
DIFFUSETILE
360
80B
  3
OPACITYTILE
360
80F
  3
REFLECTIONTILE
360
80E
  3
REFRACTIONTILE
360
810
  3
SPECULARTILE
360
80D
  0
DICTIONARY
  5
81A
330
819
100
AcDbDictionary
280
     1
  3
ACAD_XREC_ROUNDTRIP
360
4AF7
  3
BUMPTILE
360
81C
  3
DIFFUSETILE
360
81B
  3
OPACITYTILE
360
81F
  3
REFLECTIONTILE
360
81E
  3
REFRACTIONTILE
360
820
  3
SPECULARTILE
360
81D
  0
DICTIONARY
  5
88C
330
834
100
AcDbDictionary
280
     1
  3
ACAD_ROUNDTRIP_2008_TABLES
360
4AED
  3
ACAD_XREC_ROUNDTRIP
360
4AF8
  0
XRECORD
  5
4AF6
102
{ACAD_REACTORS
330
812
102
}
330
812
100
AcDbXrecord
102
MATERIAL
148
0.0
149
0.0
149
0.0
 93
        0
 94
      127
282
     0
 72
     0
 77
     0
171
     0
175
     0
179
     0
273
     0
  0
XRECORD
  5
814
102
{ACAD_REACTORS
330
812
102
}
330
812
100
AcDbXrecord
270
     1
271
     1
  0
XRECORD
  5
813
102
{ACAD_REACTORS
330
812
102
}
330
812
100
AcDbXrecord
270
     1
271
     1
  0
XRECORD
  5
817
102
{ACAD_REACTORS
330
812
102
}
330
812
100
AcDbXrecord
270
     1
271
     1
  0
XRECORD
  5
816
102
{ACAD_REACTORS
330
812
102
}
330
812
100
AcDbXrecord
270
     1
271
     1
  0
XRECORD
  5
818
102
{ACAD_REACTORS
330
812
102
}
330
812
100
AcDbXrecord
270
     1
271
     1
  0
XRECORD
  5
815
102
{ACAD_REACTORS
330
812
102
}
330
812
100
AcDbXrecord
270
     1
271
     1
  0
XRECORD
  5
4AF5
102
{ACAD_REACTORS
330
80A
102
}
330
80A
100
AcDbXrecord
102
MATERIAL
148
0.0
149
0.0
149
0.0
 93
        0
 94
      127
282
     0
 72
     0
 77
     0
171
     0
175
     0
179
     0
273
     0
  0
XRECORD
  5
80C
102
{ACAD_REACTORS
330
80A
102
}
330
80A
100
AcDbXrecord
270
     1
271
     1
  0
XRECORD
  5
80B
102
{ACAD_REACTORS
330
80A
102
}
330
80A
100
AcDbXrecord
270
     1
271
     1
  0
XRECORD
  5
80F
102
{ACAD_REACTORS
330
80A
102
}
330
80A
100
AcDbXrecord
270
     1
271
     1
  0
XRECORD
  5
80E
102
{ACAD_REACTORS
330
80A
102
}
330
80A
100
AcDbXrecord
270
     1
271
     1
  0
XRECORD
  5
810
102
{ACAD_REACTORS
330
80A
102
}
330
80A
100
AcDbXrecord
270
     1
271
     1
  0
XRECORD
  5
80D
102
{ACAD_REACTORS
330
80A
102
}
330
80A
100
AcDbXrecord
270
     1
271
     1
  0
XRECORD
  5
4AF7
102
{ACAD_REACTORS
330
81A
102
}
330
81A
100
AcDbXrecord
102
MATERIAL
148
0.0
149
0.0
149
0.0
 93
        0
 94
      127
282
     0
 72
     0
 77
     0
171
     0
175
     0
179
     0
273
     0
  0
XRECORD
  5
81C
102
{ACAD_REACTORS
330
81A
102
}
330
81A
100
AcDbXrecord
270
     1
271
     1
  0
XRECORD
  5
81B
102
{ACAD_REACTORS
330
81A
102
}
330
81A
100
AcDbXrecord
270
     1
271
     1
  0
XRECORD
  5
81F
102
{ACAD_REACTORS
330
81A
102
}
330
81A
100
AcDbXrecord
270
     1
271
     1
  0
XRECORD
  5
81E
102
{ACAD_REACTORS
330
81A
102
}
330
81A
100
AcDbXrecord
270
     1
271
     1
  0
XRECORD
  5
820
102
{ACAD_REACTORS
330
81A
102
}
330
81A
100
AcDbXrecord
270
     1
271
     1
  0
XRECORD
  5
81D
102
{ACAD_REACTORS
330
81A
102
}
330
81A
100
AcDbXrecord
270
     1
271
     1
  0
ACAD_PROXY_OBJECT
  5
4AED
102
{ACAD_REACTORS
330
88C
102
}
330
88C
100
AcDbProxyObject
 90
      499
 91
      512
 93
     1044
310
40D054060020000020000003200101A000080002A5058000000C100000000000000340FE901405075F5449544C450041501A8000000C800406800020000A9416000000304000AD7A3703D0AC73FA409014217D2115051115480105406A0000003200101A000080002A5028000000C10002B5E8DC0F42B1CFE903409065F444
310
15441000
340
16
340
16
340
16
 94
        0
1001
ACAD
1000
AcadProxyRoundTripData
1071
      510
1071
   851991
1070
     0
  0
XRECORD
  5
4AF8
102
{ACAD_REACTORS
330
88C
102
}
330
88C
100
AcDbXrecord
102
ACAD_ROUNDTRIP_PRE2007_TABLESTYLE
 90
      512
 91
        0
  1

 92
      512
 93
        0
  2

 94
      512
 95
        0
  3

  0
ENDSEC
  0
EOF
