  0
SECTION
  2
HEADER
  9
$ACADVER
  1
AC1014
  9
$ACADMAINTVER
 70
     9
  9
$DWGCODEPAGE
  3
ANSI_932
  9
$INSBASE
 10
0.0
 20
0.0
 30
0.0
  9
$EXTMIN
 10
334.9035125457667
 20
93.19184883765728
 30
0.0
  9
$EXTMAX
 10
1420.634306364158
 20
793.7425856632549
 30
0.0
  9
$LIMMIN
 10
0.0
 20
0.0
  9
$LIMMAX
 10
297.0
 20
210.0
  9
$ORTHOMODE
 70
     0
  9
$REGENMODE
 70
     1
  9
$FILLMODE
 70
     1
  9
$QTEXTMODE
 70
     0
  9
$MIRRTEXT
 70
     0
  9
$DRAGMODE
 70
     2
  9
$LTSCALE
 40
3.0
  9
$OSMODE
 70
    37
  9
$ATTMODE
 70
     1
  9
$TEXTSIZE
 40
2.0
  9
$TRACEWID
 40
1.0
  9
$TEXTSTYLE
  7
STANDARD
  9
$CLAYER
  8
0
  9
$CELTYPE
  6
BYLAYER
  9
$CECOLOR
 62
   256
  9
$CELTSCALE
 40
1.0
  9
$DELOBJ
 70
     1
  9
$DISPSILH
 70
     0
  9
$DIMSCALE
 40
3.0
  9
$DIMASZ
 40
1.8
  9
$DIMEXO
 40
0.625
  9
$DIMDLI
 40
3.75
  9
$DIMRND
 40
0.0
  9
$DIMDLE
 40
0.0
  9
$DIMEXE
 40
0.8
  9
$DIMTP
 40
0.0
  9
$DIMTM
 40
0.0
  9
$DIMTXT
 40
1.8
  9
$DIMCEN
 40
2.5
  9
$DIMTSZ
 40
0.0
  9
$DIMTOL
 70
     0
  9
$DIMLIM
 70
     0
  9
$DIMTIH
 70
     0
  9
$DIMTOH
 70
     0
  9
$DIMSE1
 70
     0
  9
$DIMSE2
 70
     0
  9
$DIMTAD
 70
     1
  9
$DIMZIN
 70
     8
  9
$DIMBLK
  1

  9
$DIMASO
 70
     1
  9
$DIMSHO
 70
     1
  9
$DIMPOST
  1

  9
$DIMAPOST
  1

  9
$DIMALT
 70
     0
  9
$DIMALTD
 70
     4
  9
$DIMALTF
 40
0.0394
  9
$DIMLFAC
 40
1.0
  9
$DIMTOFL
 70
     1
  9
$DIMTVP
 40
0.0
  9
$DIMTIX
 70
     0
  9
$DIMSOXD
 70
     0
  9
$DIMSAH
 70
     0
  9
$DIMBLK1
  1

  9
$DIMBLK2
  1

  9
$DIMSTYLE
  2
STANDARD
  9
$DIMCLRD
 70
     0
  9
$DIMCLRE
 70
     0
  9
$DIMCLRT
 70
     0
  9
$DIMTFAC
 40
1.0
  9
$DIMGAP
 40
0.75
  9
$DIMJUST
 70
     0
  9
$DIMSD1
 70
     0
  9
$DIMSD2
 70
     0
  9
$DIMTOLJ
 70
     1
  9
$DIMTZIN
 70
     0
  9
$DIMALTZ
 70
     0
  9
$DIMALTTZ
 70
     0
  9
$DIMFIT
 70
     3
  9
$DIMUPT
 70
     0
  9
$DIMUNIT
 70
     8
  9
$DIMDEC
 70
     2
  9
$DIMTDEC
 70
     2
  9
$DIMALTU
 70
     8
  9
$DIMALTTD
 70
     4
  9
$DIMTXSTY
  7
STANDARD
  9
$DIMAUNIT
 70
     0
  9
$LUNITS
 70
     2
  9
$LUPREC
 70
     3
  9
$SKETCHINC
 40
1.0
  9
$FILLETRAD
 40
10.0
  9
$AUNITS
 70
     0
  9
$AUPREC
 70
     2
  9
$MENU
  1
.
  9
$ELEVATION
 40
0.0
  9
$PELEVATION
 40
0.0
  9
$THICKNESS
 40
0.0
  9
$LIMCHECK
 70
     0
  9
$BLIPMODE
 70
     0
  9
$CHAMFERA
 40
0.0
  9
$CHAMFERB
 40
0.0
  9
$CHAMFERC
 40
20.0
  9
$CHAMFERD
 40
0.0
  9
$SKPOLY
 70
     0
  9
$TDCREATE
 40
2454889.364024514
  9
$TDUPDATE
 40
2454909.814548460
  9
$TDINDWG
 40
0.1654805324
  9
$TDUSRTIMER
 40
0.1654805324
  9
$USRTIMER
 70
     1
  9
$ANGBASE
 50
0.0
  9
$ANGDIR
 70
     0
  9
$PDMODE
 70
     0
  9
$PDSIZE
 40
-10.0
  9
$PLINEWID
 40
0.0
  9
$COORDS
 70
     1
  9
$SPLFRAME
 70
     0
  9
$SPLINETYPE
 70
     6
  9
$SPLINESEGS
 70
     8
  9
$ATTDIA
 70
     0
  9
$ATTREQ
 70
     1
  9
$HANDLING
 70
 22529
  9
$HANDSEED
  5
3E35
  9
$SURFTAB1
 70
     6
  9
$SURFTAB2
 70
     6
  9
$SURFTYPE
 70
     6
  9
$SURFU
 70
     6
  9
$SURFV
 70
     6
  9
$UCSNAME
  2

  9
$UCSORG
 10
0.0
 20
0.0
 30
0.0
  9
$UCSXDIR
 10
1.0
 20
0.0
 30
0.0
  9
$UCSYDIR
 10
0.0
 20
1.0
 30
0.0
  9
$PUCSNAME
  2

  9
$PUCSORG
 10
0.0
 20
0.0
 30
0.0
  9
$PUCSXDIR
 10
1.0
 20
0.0
 30
0.0
  9
$PUCSYDIR
 10
0.0
 20
1.0
 30
0.0
  9
$USERI1
 70
     0
  9
$USERI2
 70
     0
  9
$USERI3
 70
     0
  9
$USERI4
 70
     0
  9
$USERI5
 70
     0
  9
$USERR1
 40
0.0
  9
$USERR2
 40
0.0
  9
$USERR3
 40
0.0
  9
$USERR4
 40
0.0
  9
$USERR5
 40
0.0
  9
$WORLDVIEW
 70
     1
  9
$SHADEDGE
 70
     3
  9
$SHADEDIF
 70
    70
  9
$TILEMODE
 70
     1
  9
$MAXACTVP
 70
    48
  9
$PINSBASE
 10
0.0
 20
0.0
 30
0.0
  9
$PLIMCHECK
 70
     0
  9
$PEXTMIN
 10
0.0
 20
0.0
 30
0.0
  9
$PEXTMAX
 10
0.0
 20
0.0
 30
0.0
  9
$PLIMMIN
 10
0.0
 20
0.0
  9
$PLIMMAX
 10
12.0
 20
9.0
  9
$UNITMODE
 70
     0
  9
$VISRETAIN
 70
     1
  9
$PLINEGEN
 70
     0
  9
$PSLTSCALE
 70
     1
  9
$TREEDEPTH
 70
  3020
  9
$PICKSTYLE
 70
     1
  9
$CMLSTYLE
  2
STANDARD
  9
$CMLJUST
 70
     0
  9
$CMLSCALE
 40
1.0
  9
$PROXYGRAPHICS
 70
     1
  9
$MEASUREMENT
 70
     0
  0
ENDSEC
  0
SECTION
  2
CLASSES
  0
CLASS
  1
DICTIONARYVAR
  2
AcDbDictionaryVar
  3
AutoCAD 2000
 90
        0
280
     0
281
     0
  0
CLASS
  1
ACDBDICTIONARYWDFLT
  2
AcDbDictionaryWithDefault
  3
AutoCAD 2000
 90
        0
280
     0
281
     0
  0
CLASS
  1
ACDBPLACEHOLDER
  2
AcDbPlaceHolder
  3
AutoCAD 2000
 90
        0
280
     0
281
     0
  0
CLASS
  1
LAYOUT
  2
AcDbLayout
  3
AutoCAD 2000
 90
        0
280
     0
281
     0
  0
CLASS
  1
MATERIAL
  2
AcDbMaterial
  3
ObjectDBX Classes
 90
     1153
280
     0
281
     0
  0
CLASS
  1
VISUALSTYLE
  2
AcDbVisualStyle
  3
ObjectDBX Classes
 90
     4095
280
     0
281
     0
  0
CLASS
  1
TABLESTYLE
  2
AcDbTableStyle
  3
ObjectDBX Classes
 90
     4095
280
     0
281
     0
  0
CLASS
  1
SCALE
  2
AcDbScale
  3
ObjectDBX Classes
 90
     1153
280
     0
281
     0
  0
CLASS
  1
MLEADERSTYLE
  2
AcDbMLeaderStyle
  3
ACDB_MLEADERSTYLE_CLASS
 90
     4095
280
     0
281
     0
  0
CLASS
  1
PLOTSETTINGS
  2
AcDbPlotSettings
  3
AutoCAD 2000
 90
        0
280
     0
281
     0
  0
CLASS
  1
CELLSTYLEMAP
  2
AcDbCellStyleMap
  3
ObjectDBX Classes
 90
     1152
280
     0
281
     0
  0
CLASS
  1
SORTENTSTABLE
  2
AcDbSortentsTable
  3
AutoCAD 2000
 90
        0
280
     0
281
     0
  0
CLASS
  1
ACAD_PROXY_OBJECT_WRAPPER
  2
AcDbProxyObjectWrapper
  3
AutoCAD 2000
 90
        0
280
     0
281
     0
  0
CLASS
  1
LONG_TRANSACTION
  2
AcDbLongTransaction
  3
AutoCAD 2000
 90
        0
280
     0
281
     0
  0
CLASS
  1
LWPOLYLINE
  2
AcDbPolyline
  3
AutoCAD 2000
 90
        0
280
     0
281
     1
  0
CLASS
  1
HATCH
  2
AcDbHatch
  3
AutoCAD 2000
 90
        0
280
     0
281
     1
  0
CLASS
  1
XRECORD
  2
AcDbXrecord
  3
AutoCAD 2000
 90
        0
280
     0
281
     0
  0
ENDSEC
  0
SECTION
  2
TABLES
  0
TABLE
  2
VPORT
  5
6E
102
{ACAD_XDICTIONARY
360
1E6F
102
}
330
0
100
AcDbSymbolTable
 70
     2
  0
VPORT
  5
3E10
330
6E
100
AcDbSymbolTableRecord
100
AcDbViewportTableRecord
  2
*ACTIVE
 70
     0
 10
0.0
 20
0.0
 11
1.0
 21
1.0
 12
925.1140517976566
 22
429.2394139218685
 13
0.0
 23
0.0
 14
10.0
 24
10.0
 15
10.0
 25
10.0
 16
0.0
 26
0.0
 36
1.0
 17
0.0
 27
0.0
 37
0.0
 40
743.7093278508206
 41
1.593429158110883
 42
50.0
 43
0.0
 44
0.0
 50
0.0
 51
0.0
 71
     0
 72
   100
 73
     1
 74
     3
 75
     0
 76
     0
 77
     0
 78
     0
  0
ENDTAB
  0
TABLE
  2
LTYPE
  5
69
330
0
100
AcDbSymbolTable
 70
     8
  0
LTYPE
  5
6A
330
69
100
AcDbSymbolTableRecord
100
AcDbLinetypeTableRecord
  2
BYBLOCK
 70
     0
  3

 72
    65
 73
     0
 40
0.0
  0
LTYPE
  5
6B
330
69
100
AcDbSymbolTableRecord
100
AcDbLinetypeTableRecord
  2
BYLAYER
 70
     0
  3

 72
    65
 73
     0
 40
0.0
  0
LTYPE
  5
8
330
69
100
AcDbSymbolTableRecord
100
AcDbLinetypeTableRecord
  2
CONTINUOUS
 70
     0
  3
Solid line
 72
    65
 73
     0
 40
0.0
  0
LTYPE
  5
27C
330
69
100
AcDbSymbolTableRecord
100
AcDbLinetypeTableRecord
  2
SEKKEI_A2_
 70
     0
  3
center(A2)  ____ _ ____ _ ____ _ ____ _ ____ _ 
 72
    65
 73
     4
 40
14.28749999999999
 49
9.525
 74
     0
 49
-1.587499999999999
 74
     0
 49
1.587499999999999
 74
     0
 49
-1.587499999999999
 74
     0
  0
LTYPE
  5
2B4
330
69
100
AcDbSymbolTableRecord
100
AcDbLinetypeTableRecord
  2
HIDDEN2
 70
     0
  3
Hidden (.5x) _ _ _ _ _ _ _ _ _ _ _ _ _ _ _ _ _
 72
    65
 73
     2
 40
4.762499999999999
 49
3.174999999999999
 74
     0
 49
-1.587499999999999
 74
     0
  0
LTYPE
  5
477
330
69
100
AcDbSymbolTableRecord
100
AcDbLinetypeTableRecord
  2
SEKKEI-P_A4_
 70
     0
  3
Phantom(A4)  ____ _ _ ____ _ _ ____ _ _ _____
 72
    65
 73
     6
 40
15.0
 49
7.5
 74
     0
 49
-1.5
 74
     0
 49
1.5
 74
     0
 49
-1.5
 74
     0
 49
1.5
 74
     0
 49
-1.5
 74
     0
  0
LTYPE
  5
48F
330
69
100
AcDbSymbolTableRecord
100
AcDbLinetypeTableRecord
  2
SEKKEI_H
 70
     0
  3
Hidden-S _ _ _ _ _ _ _ _ _ _ _ _ _ _ _ _ _
 72
    65
 73
     2
 40
2.381249999999999
 49
1.587499999999999
 74
     0
 49
-0.79375
 74
     0
  0
LTYPE
  5
54A
330
69
100
AcDbSymbolTableRecord
100
AcDbLinetypeTableRecord
  2
CENTERX2
 70
     0
  3
Center (2x) ________  __  ________  __  _____
 72
    65
 73
     4
 40
4.0
 49
2.5
 74
     0
 49
-0.5
 74
     0
 49
0.5
 74
     0
 49
-0.5
 74
     0
  0
LTYPE
  5
353F
330
69
100
AcDbSymbolTableRecord
100
AcDbLinetypeTableRecord
  2
CENTER_小_
 70
     0
  3
Center  _______  __  ________  __  _____
 72
    65
 73
     4
 40
8.8
 49
5.5
 74
     0
 49
-1.1
 74
     0
 49
1.1
 74
     0
 49
-1.1
 74
     0
  0
ENDTAB
  0
TABLE
  2
LAYER
  5
66
102
{ACAD_XDICTIONARY
360
86B
102
}
330
0
100
AcDbSymbolTable
 70
    10
  0
LAYER
  5
5E
102
{ACAD_XDICTIONARY
360
158C
102
}
330
66
100
AcDbSymbolTableRecord
100
AcDbLayerTableRecord
  2
0
 70
     0
 62
     7
  6
CONTINUOUS
  0
LAYER
  5
3E
102
{ACAD_XDICTIONARY
360
158E
102
}
330
66
100
AcDbSymbolTableRecord
100
AcDbLayerTableRecord
  2
CENTER
 70
     0
 62
     3
  6
SEKKEI_A2_
  0
LAYER
  5
2B5
102
{ACAD_XDICTIONARY
360
1594
102
}
330
66
100
AcDbSymbolTableRecord
100
AcDbLayerTableRecord
  2
HIDS
 70
     0
 62
     1
  6
HIDDEN2
  0
LAYER
  5
2BA
102
{ACAD_XDICTIONARY
360
1596
102
}
330
66
100
AcDbSymbolTableRecord
100
AcDbLayerTableRecord
  2
HOJO
 70
     0
 62
     4
  6
CONTINUOUS
  0
LAYER
  5
3FA
102
{ACAD_XDICTIONARY
360
159A
102
}
330
66
100
AcDbSymbolTableRecord
100
AcDbLayerTableRecord
  2
TITLE
 70
     0
 62
     4
  6
CONTINUOUS
  0
LAYER
  5
478
102
{ACAD_XDICTIONARY
360
159C
102
}
330
66
100
AcDbSymbolTableRecord
100
AcDbLayerTableRecord
  2
PHAS
 70
     0
 62
     2
  6
SEKKEI-P_A4_
  0
ENDTAB
  0
TABLE
  2
STYLE
  5
67
330
0
100
AcDbSymbolTable
 70
     3
  0
STYLE
  5
16
330
67
100
AcDbSymbolTableRecord
100
AcDbTextStyleTableRecord
  2
STANDARD
 70
     0
 40
0.0
 41
1.0
 50
0.0
 71
     0
 42
2.0
  3
simplex.shx
  4
extfont.shx
  0
ENDTAB
  0
TABLE
  2
VIEW
  5
6C
330
0
100
AcDbSymbolTable
 70
     0
  0
ENDTAB
  0
TABLE
  2
UCS
  5
6D
330
0
100
AcDbSymbolTable
 70
     0
  0
ENDTAB
  0
TABLE
  2
APPID
  5
70
330
0
100
AcDbSymbolTable
 70
     7
  0
APPID
  5
71
330
70
100
AcDbSymbolTableRecord
100
AcDbRegAppTableRecord
  2
ACAD
 70
     0
  0
APPID
  5
859
330
70
100
AcDbSymbolTableRecord
100
AcDbRegAppTableRecord
  2
ACAD_MLEADERVER
 70
     0
  0
APPID
  5
866
330
70
100
AcDbSymbolTableRecord
100
AcDbRegAppTableRecord
  2
ACAD_PSEXT
 70
     0
  0
APPID
  5
15AD
330
70
100
AcDbSymbolTableRecord
100
AcDbRegAppTableRecord
  2
ACAD_EXEMPT_FROM_CAD_STANDARDS
 70
     0
  0
APPID
  5
15D5
330
70
100
AcDbSymbolTableRecord
100
AcDbRegAppTableRecord
  2
ACAD_DSTYLE_DIMJAG
 70
     0
  0
APPID
  5
15D6
330
70
100
AcDbSymbolTableRecord
100
AcDbRegAppTableRecord
  2
ACAD_DSTYLE_DIMTALN
 70
     0
  0
APPID
  5
16FC
330
70
100
AcDbSymbolTableRecord
100
AcDbRegAppTableRecord
  2
ACAD_DSTYLE_DIMRADIAL_EXTENSION
 70
     0
  0
ENDTAB
  0
TABLE
  2
DIMSTYLE
  5
72
330
0
100
AcDbSymbolTable
 70
     1
  0
DIMSTYLE
105
73
330
72
100
AcDbSymbolTableRecord
100
AcDbDimStyleTableRecord
  2
STANDARD
 70
     0
  3

  4

  5

  6

  7

 40
3.0
 41
1.8
 42
0.625
 43
3.75
 44
0.8
 45
0.0
 46
0.0
 47
0.0
 48
0.0
140
1.8
141
2.5
142
0.0
143
0.0394
144
1.0
145
0.0
146
1.0
147
0.75
 71
     0
 72
     0
 73
     0
 74
     0
 75
     0
 76
     0
 77
     1
 78
     8
170
     0
171
     4
172
     1
173
     0
174
     0
175
     0
176
     0
177
     0
178
     0
270
     8
271
     2
272
     2
273
     8
274
     4
340
16
275
     0
280
     0
281
     0
282
     0
283
     1
284
     0
285
     0
286
     0
287
     3
288
     0
1001
ACAD_DSTYLE_DIMJAG
1070
   388
1040
1.5
1001
ACAD_DSTYLE_DIMTALN
1070
   392
1070
     0
  0
ENDTAB
  0
TABLE
  2
BLOCK_RECORD
  5
1
330
0
100
AcDbSymbolTable
 70
    58
  0
BLOCK_RECORD
  5
2
102
{ACAD_XDICTIONARY
360
33EF
102
}
330
1
100
AcDbSymbolTableRecord
100
AcDbBlockTableRecord
  2
*MODEL_SPACE
  0
BLOCK_RECORD
  5
3E0B
102
{ACAD_XDICTIONARY
360
3E33
102
}
330
1
100
AcDbSymbolTableRecord
100
AcDbBlockTableRecord
  2
*PAPER_SPACE
  0
ENDTAB
  0
ENDSEC
  0
SECTION
  2
BLOCKS
  0
BLOCK
  5
5D
330
2
100
AcDbEntity
  8
0
100
AcDbBlockBegin
  2
*MODEL_SPACE
 70
     0
 10
0.0
 20
0.0
 30
0.0
  3
*MODEL_SPACE
  1

  0
ENDBLK
  5
5F
330
2
100
AcDbEntity
  8
0
100
AcDbBlockEnd
  0
BLOCK
  5
3E0D
330
3E0B
100
AcDbEntity
 67
     1
  8
0
100
AcDbBlockBegin
  2
*PAPER_SPACE
 70
     0
 10
0.0
 20
0.0
 30
0.0
  3
*PAPER_SPACE
  1

  0
ENDBLK
  5
3E0E
330
3E0B
100
AcDbEntity
 67
     1
  8
0
100
AcDbBlockEnd
  0
ENDSEC
  0
SECTION
  2
ENTITIES
  0
LINE
  5
A65
330
2
100
AcDbEntity
  8
0
100
AcDbLine
 10
1053.559171748526
 20
469.2456345049879
 30
0.0
 11
1053.559171748526
 21
349.2456345049861
 31
0.0
  0
LINE
  5
B2D
330
2
100
AcDbEntity
  8
0
100
AcDbLine
 10
429.4035125457653
 20
469.245634504988
 30
0.0
 11
429.4035125457653
 21
349.2456345049861
 31
0.0
  0
LINE
  5
FA8
330
2
100
AcDbEntity
  8
CENTER
100
AcDbLine
 10
948.0591717485292
 20
612.7425856632553
 30
0.0
 11
948.0591717485301
 21
793.7425856632549
 31
0.0
  0
LINE
  5
FA9
330
2
100
AcDbEntity
  8
0
100
AcDbLine
 10
888.9667659987688
 20
654.7425856632449
 30
0.0
 11
888.0635351824254
 21
758.2425856632482
 31
0.0
  0
LINE
  5
FAA
330
2
100
AcDbEntity
  8
0
100
AcDbLine
 10
893.0591717485297
 20
649.7425856632385
 30
0.0
 11
1003.059171748529
 21
649.7425856632447
 31
0.0
  0
LINE
  5
FAB
330
2
100
AcDbEntity
  8
0
100
AcDbLine
 10
1039.507485490373
 20
781.7425856632446
 30
0.0
 11
1053.559171748527
 21
781.7425856632445
 31
0.0
  0
ARC
  5
FAC
330
2
100
AcDbEntity
  8
0
100
AcDbCircle
 10
1039.507485490373
 20
779.7425856632446
 30
0.0
 40
2.0
100
AcDbArc
 50
90.0
 51
178.4999999999972
  0
LINE
  5
FAD
330
2
100
AcDbEntity
  8
0
100
AcDbLine
 10
1037.508170840422
 20
779.7949395598601
 30
0.0
 11
1035.98801645439
 21
721.7425856632446
 31
0.0
  0
ARC
  5
FAE
330
2
100
AcDbEntity
  8
0
100
AcDbCircle
 10
1033.144103606332
 20
727.7425856632467
 30
0.0
 40
3.0
100
AcDbArc
 50
270.0
 51
358.5000000000103
  0
LINE
  5
FAF
330
2
100
AcDbEntity
  8
0
100
AcDbLine
 10
1007.417746965909
 20
758.2425856632449
 30
0.0
 11
888.0635351824254
 21
758.2425856632482
 31
0.0
  0
LINE
  5
FB0
330
2
100
AcDbEntity
  8
0
100
AcDbLine
 10
986.1277941989149
 20
635.7425856632444
 30
0.0
 11
909.9905492981445
 21
635.7425856632437
 31
0.0
  0
ARC
  5
FB1
330
2
100
AcDbEntity
  8
0
100
AcDbCircle
 10
909.9905492981445
 20
637.7425856632437
 30
0.0
 40
2.0
100
AcDbArc
 50
181.9999999999914
 51
270.0
  0
ARC
  5
FB2
330
2
100
AcDbEntity
  8
0
100
AcDbCircle
 10
986.1277941989149
 20
637.7425856632441
 30
0.0
 40
2.0
100
AcDbArc
 50
270.0
 51
357.9999999999955
  0
LINE
  5
FB3
330
2
100
AcDbEntity
  8
CENTER
100
AcDbLine
 10
878.381685072931
 20
721.7425856632482
 30
0.0
 11
1148.059171748525
 21
721.7425856632482
 31
0.0
  0
LINE
  5
FB4
330
2
100
AcDbEntity
  8
0
100
AcDbLine
 10
1007.15157749829
 20
654.7425856632448
 30
0.0
 11
1007.73627764027
 21
721.7425856632473
 31
0.0
  0
ARC
  5
FB5
330
2
100
AcDbEntity
  8
0
100
AcDbCircle
 10
1010.684030668684
 20
715.742585663246
 30
0.0
 40
3.0
100
AcDbArc
 50
90.0
 51
179.4999999999954
  0
LINE
  5
FB6
330
2
100
AcDbEntity
  8
0
100
AcDbLine
 10
988.1265758529533
 20
637.6727866698392
 30
0.0
 11
988.2784461037173
 21
642.0217816368643
 31
0.0
  0
LINE
  5
FB7
330
2
100
AcDbEntity
  8
0
100
AcDbLine
 10
907.9917676441061
 20
637.6727866698388
 30
0.0
 11
907.8398973933419
 21
642.0217816368582
 31
0.0
  0
LINE
  5
FB8
330
2
100
AcDbEntity
  8
0
100
AcDbLine
 10
1007.417746965909
 20
758.2425856632449
 30
0.0
 11
1007.736277640273
 21
721.7425856632472
 31
0.0
  0
LINE
  5
FB9
330
2
100
AcDbEntity
  8
0
100
AcDbLine
 10
1039.507485490373
 20
661.7425856632519
 30
0.0
 11
1053.559171748527
 21
661.7425856632519
 31
0.0
  0
ARC
  5
FBA
330
2
100
AcDbEntity
  8
0
100
AcDbCircle
 10
1039.507485490373
 20
663.7425856632519
 30
0.0
 40
2.0
100
AcDbArc
 50
181.4999999999896
 51
270.0
  0
LINE
  5
FBB
330
2
100
AcDbEntity
  8
0
100
AcDbLine
 10
1037.508170840422
 20
663.6902317666367
 30
0.0
 11
1035.988016454391
 21
721.7425856632446
 31
0.0
  0
ARC
  5
FBC
330
2
100
AcDbEntity
  8
0
100
AcDbCircle
 10
1033.144103606332
 20
715.742585663246
 30
0.0
 40
3.0
100
AcDbArc
 50
1.499999999989688
 51
90.0
  0
LINE
  5
FBD
330
2
100
AcDbEntity
  8
0
100
AcDbLine
 10
898.0591717485307
 20
758.2425856632466
 30
0.0
 11
898.0591717485296
 21
656.2425856632394
 31
0.0
  0
LINE
  5
FBE
330
2
100
AcDbEntity
  8
0
100
AcDbLine
 10
988.0722647093119
 20
758.2425856632455
 30
0.0
 11
989.0025503925333
 21
722.7164087149406
 31
0.0
  0
LINE
  5
FBF
330
2
100
AcDbEntity
  8
0
100
AcDbLine
 10
1010.684030668683
 20
724.7425856632465
 30
0.0
 11
1033.144103606332
 21
724.7425856632465
 31
0.0
  0
ARC
  5
FC0
330
2
100
AcDbEntity
  8
0
100
AcDbCircle
 10
1010.684030668683
 20
727.7425856632464
 30
0.0
 40
3.0
100
AcDbArc
 50
180.4999999999915
 51
270.0
  0
LINE
  5
FC1
330
2
100
AcDbEntity
  8
0
100
AcDbLine
 10
1010.684030668684
 20
718.742585663246
 30
0.0
 11
1033.144103606332
 21
718.742585663246
 31
0.0
  0
LINE
  5
FC2
330
2
100
AcDbEntity
  8
0
100
AcDbLine
 10
990.0022077175087
 20
721.7425856632488
 30
0.0
 11
1053.559171748527
 21
721.7425856632431
 31
0.0
  0
ARC
  5
FC3
330
2
100
AcDbEntity
  8
0
100
AcDbCircle
 10
990.0022077175087
 20
722.7425856632483
 30
0.0
 40
1.0
100
AcDbArc
 50
181.5000000000027
 51
269.9999999999739
  0
LINE
  5
FC4
330
2
100
AcDbEntity
  8
0
100
AcDbLine
 10
908.0591717485319
 20
656.2425856632396
 30
0.0
 11
908.0591717485324
 21
758.2425856632466
 31
0.0
  0
LINE
  5
FC5
330
2
100
AcDbEntity
  8
0
100
AcDbLine
 10
928.0605634351134
 20
656.2425856632394
 30
0.0
 11
928.0605634351134
 21
758.2425856632466
 31
0.0
  0
LINE
  5
FC6
330
2
100
AcDbEntity
  8
0
100
AcDbLine
 10
968.0577800619433
 20
656.2425856632394
 30
0.0
 11
968.0577800619433
 21
758.2425856632466
 31
0.0
  0
LINE
  5
FC7
330
2
100
AcDbEntity
  8
0
100
AcDbLine
 10
988.0591717485273
 20
656.2425856632396
 30
0.0
 11
988.0591717485273
 21
721.7425856632482
 31
0.0
  0
LINE
  5
FC8
330
2
100
AcDbEntity
  8
0
100
AcDbLine
 10
998.0591717485316
 20
656.2425856632394
 30
0.0
 11
998.0591717485319
 21
758.2425856632466
 31
0.0
  0
LINE
  5
FC9
330
2
100
AcDbEntity
  8
0
100
AcDbLine
 10
1053.559171748527
 20
661.7425856632519
 30
0.0
 11
1053.559171748527
 21
781.7425856632444
 31
0.0
  0
LINE
  5
FCA
330
2
100
AcDbEntity
  8
0
100
AcDbLine
 10
893.0591717485297
 20
649.7425856632385
 30
0.0
 11
893.0591717485297
 21
654.7425856632449
 31
0.0
  0
LINE
  5
FCB
330
2
100
AcDbEntity
  8
0
 48
0.5
100
AcDbLine
 10
888.9667659987688
 20
654.7425856632448
 30
0.0
 11
1007.15157749829
 21
654.7425856632449
 31
0.0
  0
LINE
  5
FCC
330
2
100
AcDbEntity
  8
0
100
AcDbLine
 10
1003.059171748529
 20
649.7425856632447
 30
0.0
 11
1003.059171748529
 21
654.7425856632449
 31
0.0
  0
LINE
  5
FCD
330
2
100
AcDbEntity
  8
0
100
AcDbLine
 10
1033.084642467661
 20
672.3148174378565
 30
0.0
 11
1008.91510416014
 21
661.0443766309891
 31
0.0
  0
ARC
  5
FCE
330
2
100
AcDbEntity
  8
0
100
AcDbCircle
 10
1010.182958945362
 20
658.3254532698791
 30
0.0
 40
3.0
100
AcDbArc
 50
114.9999999999782
 51
179.5000000000019
  0
ARC
  5
FCF
330
2
100
AcDbEntity
  8
0
100
AcDbCircle
 10
1034.352497252883
 20
669.5958940767466
 30
0.0
 40
3.0
100
AcDbArc
 50
1.499999999989688
 51
115.000000000007
  0
LINE
  5
FD0
330
2
100
AcDbEntity
  8
0
100
AcDbLine
 10
1011.926691591296
 20
754.6326469553068
 30
0.0
 11
1035.776855140292
 21
768.402545300537
 31
0.0
  0
ARC
  5
FD1
330
2
100
AcDbEntity
  8
0
100
AcDbCircle
 10
1034.276855140292
 20
771.0006215118901
 30
0.0
 40
3.0
100
AcDbArc
 50
300.0
 51
358.5000000000103
  0
ARC
  5
FD2
330
2
100
AcDbEntity
  8
0
100
AcDbCircle
 10
1010.426691591296
 20
757.2307231666602
 30
0.0
 40
3.0
100
AcDbArc
 50
180.499999999998
 51
300.0
  0
ARC
  5
FD3
330
2
100
AcDbEntity
  8
0
100
AcDbCircle
 10
996.2735727198699
 20
641.7425856632445
 30
0.0
 40
8.0
100
AcDbArc
 50
90.0
 51
178.000000000002
  0
ARC
  5
FD4
330
2
100
AcDbEntity
  8
0
100
AcDbCircle
 10
899.8447707771894
 20
641.7425856632387
 30
0.0
 40
8.0
100
AcDbArc
 50
1.999999999997947
 51
90.0
  0
LINE
  5
FD5
330
2
100
AcDbEntity
  8
CENTER
100
AcDbLine
 10
334.9035125457667
 20
409.2456345049861
 30
0.0
 11
604.9035125457623
 21
409.245634504986
 31
0.0
  0
LINE
  5
FD6
330
2
100
AcDbEntity
  8
0
100
AcDbLine
 10
443.4035125457651
 20
469.2456345049861
 30
0.0
 11
429.4035125457655
 21
469.2456345049861
 31
0.0
  0
LINE
  5
FD7
330
2
100
AcDbEntity
  8
0
100
AcDbLine
 10
429.4035125457655
 20
469.7456345049857
 30
0.0
 11
429.4035125457651
 21
348.7456345049866
 31
0.0
  0
LINE
  5
FD8
330
2
100
AcDbEntity
  8
0
100
AcDbLine
 10
445.4035125457656
 20
467.7456345049858
 30
0.0
 11
445.4035125457651
 21
350.7456345049865
 31
0.0
  0
ARC
  5
FD9
330
2
100
AcDbEntity
  8
0
100
AcDbCircle
 10
453.4035125457651
 20
367.2456345049822
 30
0.0
 40
8.0
100
AcDbArc
 50
90.0
 51
180.0
  0
ARC
  5
FDA
330
2
100
AcDbEntity
  8
0
100
AcDbCircle
 10
448.403512545765
 20
460.3208952827688
 30
0.0
 40
3.0
100
AcDbArc
 50
180.0
 51
280.0000000000051
  0
ARC
  5
FDB
330
2
100
AcDbEntity
  8
0
100
AcDbCircle
 10
448.403512545765
 20
358.1703737272034
 30
0.0
 40
3.0
100
AcDbArc
 50
79.99999999999484
 51
180.0
  0
ARC
  5
FDC
330
2
100
AcDbEntity
  8
0
100
AcDbCircle
 10
443.4035125457651
 20
467.2456345049861
 30
0.0
 40
2.0
100
AcDbArc
 50
0.0
 51
90.0
  0
ARC
  5
FDD
330
2
100
AcDbEntity
  8
0
100
AcDbCircle
 10
443.4035125457651
 20
351.2456345049861
 30
0.0
 40
2.0
100
AcDbArc
 50
270.0
 51
0.0
  0
LINE
  5
FDE
330
2
100
AcDbEntity
  8
0
100
AcDbLine
 10
443.4035125457651
 20
349.2456345049861
 30
0.0
 11
429.4035125457651
 21
349.245634504986
 31
0.0
  0
LINE
  5
FDF
330
2
100
AcDbEntity
  8
0
100
AcDbLine
 10
448.9244570787657
 20
361.1247969862402
 30
0.0
 11
473.9636275129803
 21
356.7097156641309
 31
0.0
  0
LINE
  5
FE0
330
2
100
AcDbEntity
  8
0
100
AcDbLine
 10
448.9244570787661
 20
457.366472023732
 30
0.0
 11
473.9636275129807
 21
461.7815533458412
 31
0.0
  0
LINE
  5
FE1
330
2
100
AcDbEntity
  8
CENTER
100
AcDbLine
 10
534.9035125457624
 20
479.2456345049865
 30
0.0
 11
534.9035125457624
 21
339.2456345049854
 31
0.0
  0
LINE
  5
FE2
330
2
100
AcDbEntity
  8
0
100
AcDbLine
 10
458.9035125457651
 20
440.2456345049893
 30
0.0
 11
458.9035125457651
 21
415.2456345049861
 31
0.0
  0
LINE
  5
FE3
330
2
100
AcDbEntity
  8
0
100
AcDbLine
 10
458.9035125457651
 20
403.2456345049854
 30
0.0
 11
458.9035125457651
 21
378.2456345049829
 31
0.0
  0
ARC
  5
FE4
330
2
100
AcDbEntity
  8
0
100
AcDbCircle
 10
461.9035125457651
 20
415.2456345049861
 30
0.0
 40
3.0
100
AcDbArc
 50
180.0
 51
270.0
  0
LINE
  5
FE5
330
2
100
AcDbEntity
  8
0
100
AcDbLine
 10
453.4035125457632
 20
375.2456345049822
 30
0.0
 11
455.9035125457646
 21
375.2456345049829
 31
0.0
  0
LINE
  5
FE6
330
2
100
AcDbEntity
  8
0
100
AcDbLine
 10
461.9035125457637
 20
381.2456345049829
 30
0.0
 11
472.2264066540217
 21
381.2456345049831
 31
0.0
  0
ARC
  5
FE7
330
2
100
AcDbEntity
  8
0
100
AcDbCircle
 10
472.2264066540217
 20
378.2456345049831
 30
0.0
 40
3.0
100
AcDbArc
 50
0.0
 51
90.0
  0
ARC
  5
FE8
330
2
100
AcDbEntity
  8
0
100
AcDbCircle
 10
461.9035125457637
 20
378.2456345049829
 30
0.0
 40
3.0
100
AcDbArc
 50
90.0
 51
180.0
  0
LINE
  5
FE9
330
2
100
AcDbEntity
  8
0
100
AcDbLine
 10
458.9035125457638
 20
378.2456345049829
 30
0.0
 11
458.9035125457638
 21
378.2456345049829
 31
0.0
  0
ARC
  5
FEA
330
2
100
AcDbEntity
  8
0
100
AcDbCircle
 10
455.9035125457637
 20
378.2456345049829
 30
0.0
 40
3.0
100
AcDbArc
 50
270.0
 51
0.0
  0
LINE
  5
FEB
330
2
100
AcDbEntity
  8
0
100
AcDbLine
 10
453.4035125457632
 20
443.2456345049899
 30
0.0
 11
455.9035125457651
 21
443.2456345049892
 31
0.0
  0
LINE
  5
FEC
330
2
100
AcDbEntity
  8
0
100
AcDbLine
 10
461.9035125457641
 20
437.2456345049893
 30
0.0
 11
472.2264066540212
 21
437.245634504989
 31
0.0
  0
ARC
  5
FED
330
2
100
AcDbEntity
  8
0
100
AcDbCircle
 10
472.2264066540212
 20
440.245634504989
 30
0.0
 40
3.0
100
AcDbArc
 50
270.0
 51
0.0
  0
ARC
  5
FEE
330
2
100
AcDbEntity
  8
0
100
AcDbCircle
 10
461.9035125457641
 20
440.2456345049893
 30
0.0
 40
3.0
100
AcDbArc
 50
180.0
 51
270.0
  0
LINE
  5
FEF
330
2
100
AcDbEntity
  8
0
100
AcDbLine
 10
458.9035125457642
 20
440.2456345049893
 30
0.0
 11
458.9035125457642
 21
440.2456345049893
 31
0.0
  0
ARC
  5
FF0
330
2
100
AcDbEntity
  8
0
100
AcDbCircle
 10
455.9035125457642
 20
440.2456345049893
 30
0.0
 40
3.0
100
AcDbArc
 50
0.0
 51
89.99999999997395
  0
ARC
  5
FF1
330
2
100
AcDbEntity
  8
0
100
AcDbCircle
 10
453.4035125457656
 20
451.24563450499
 30
0.0
 40
8.0
100
AcDbArc
 50
180.0
 51
269.9999999999739
  0
LINE
  5
FF2
330
2
100
AcDbEntity
  8
0
100
AcDbLine
 10
485.2264066540217
 20
349.2456345049847
 30
0.0
 11
485.5435125457168
 21
349.2456345049847
 31
0.0
  0
LINE
  5
FF3
330
2
100
AcDbEntity
  8
0
100
AcDbLine
 10
485.2264066540222
 20
469.2456345049879
 30
0.0
 11
485.543512545809
 21
469.2456345049879
 31
0.0
  0
LINE
  5
FF4
330
2
100
AcDbEntity
  8
0
100
AcDbLine
 10
475.2264066540212
 20
459.2456345049879
 30
0.0
 11
475.2264066540212
 21
359.2456345049847
 31
0.0
  0
ARC
  5
FF5
330
2
100
AcDbEntity
  8
0
100
AcDbCircle
 10
485.2264066540217
 20
359.2456345049847
 30
0.0
 40
10.0
100
AcDbArc
 50
180.0
 51
270.0
  0
ARC
  5
FF6
330
2
100
AcDbEntity
  8
0
100
AcDbCircle
 10
473.4426829799797
 20
353.7552924050944
 30
0.0
 40
3.0
100
AcDbArc
 50
24.98203108537679
 51
79.99999999999484
  0
ARC
  5
FF7
330
2
100
AcDbEntity
  8
0
100
AcDbCircle
 10
485.2264066540217
 20
459.2456345049879
 30
0.0
 40
10.0
100
AcDbArc
 50
90.0
 51
180.0
  0
ARC
  5
FF8
330
2
100
AcDbEntity
  8
0
100
AcDbCircle
 10
473.4426829799797
 20
464.7359766048777
 30
0.0
 40
3.0
100
AcDbArc
 50
280.0000000000051
 51
335.017968914623
  0
ARC
  5
FF9
330
2
100
AcDbEntity
  8
0
100
AcDbCircle
 10
448.4035125457656
 20
415.2456345049862
 30
0.0
 40
3.0
100
AcDbArc
 50
180.0
 51
270.0
  0
ARC
  5
FFA
330
2
100
AcDbEntity
  8
0
100
AcDbCircle
 10
448.4035125457656
 20
403.2456345049845
 30
0.0
 40
3.0
100
AcDbArc
 50
90.0
 51
180.0
  0
LINE
  5
FFB
330
2
100
AcDbEntity
  8
0
100
AcDbLine
 10
472.2264066540212
 20
406.2456345049861
 30
0.0
 11
448.403512545765
 21
406.2456345049845
 31
0.0
  0
ARC
  5
FFC
330
2
100
AcDbEntity
  8
0
100
AcDbCircle
 10
461.9035125457651
 20
403.2456345049854
 30
0.0
 40
3.0
100
AcDbArc
 50
90.0
 51
180.0
  0
ARC
  5
FFD
330
2
100
AcDbEntity
  8
0
100
AcDbCircle
 10
472.2264066540212
 20
403.2456345049861
 30
0.0
 40
3.0
100
AcDbArc
 50
0.0
 51
90.0
  0
LINE
  5
FFE
330
2
100
AcDbEntity
  8
0
100
AcDbLine
 10
472.2264066540212
 20
412.245634504986
 30
0.0
 11
448.4035125457656
 21
412.2456345049862
 31
0.0
  0
ARC
  5
FFF
330
2
100
AcDbEntity
  8
0
100
AcDbCircle
 10
472.2264066540212
 20
415.245634504986
 30
0.0
 40
3.0
100
AcDbArc
 50
270.0
 51
0.0
  0
LINE
  5
1033
330
2
100
AcDbEntity
  8
CENTER
100
AcDbLine
 10
830.7310437748681
 20
409.245634504986
 30
0.0
 11
629.7310437748758
 21
409.245634504986
 31
0.0
  0
LINE
  5
1034
330
2
100
AcDbEntity
  8
0
100
AcDbLine
 10
793.7310437748858
 20
354.2456345049856
 30
0.0
 11
793.7310437748794
 21
464.2456345049855
 31
0.0
  0
LINE
  5
1035
330
2
100
AcDbEntity
  8
0
100
AcDbLine
 10
685.2310437748794
 20
469.2456345049858
 30
0.0
 11
685.2310437748758
 21
349.2456345049861
 31
0.0
  0
LINE
  5
1036
330
2
100
AcDbEntity
  8
0
100
AcDbLine
 10
807.7310437748799
 20
447.3142569553713
 30
0.0
 11
807.7310437748803
 21
371.1770120546004
 31
0.0
  0
ARC
  5
1037
330
2
100
AcDbEntity
  8
0
100
AcDbCircle
 10
805.7310437748803
 20
371.1770120546004
 30
0.0
 40
2.0
100
AcDbArc
 50
271.9999999999775
 51
0.0
  0
ARC
  5
1038
330
2
100
AcDbEntity
  8
0
100
AcDbCircle
 10
805.73104377488
 20
447.3142569553713
 30
0.0
 40
2.0
100
AcDbArc
 50
0.0
 51
87.99999999999636
  0
LINE
  5
103A
330
2
100
AcDbEntity
  8
0
100
AcDbLine
 10
805.800842768285
 20
449.3130386094094
 30
0.0
 11
801.4518478012599
 21
449.4649088601736
 31
0.0
  0
LINE
  5
103B
330
2
100
AcDbEntity
  8
0
100
AcDbLine
 10
805.800842768285
 20
369.1782304005623
 30
0.0
 11
801.4518478012657
 21
369.0263601497985
 31
0.0
  0
LINE
  5
103C
330
2
100
AcDbEntity
  8
0
100
AcDbLine
 10
685.2310437748762
 20
359.2456345049868
 30
0.0
 11
787.2310437748844
 21
359.2456345049859
 31
0.0
  0
LINE
  5
103D
330
2
100
AcDbEntity
  8
0
100
AcDbLine
 10
787.2310437748844
 20
369.2456345049881
 30
0.0
 11
685.2310437748762
 21
369.2456345049881
 31
0.0
  0
LINE
  5
103E
330
2
100
AcDbEntity
  8
0
100
AcDbLine
 10
787.2310437748844
 20
389.2470261915698
 30
0.0
 11
685.2310437748772
 21
389.2470261915698
 31
0.0
  0
LINE
  5
103F
330
2
100
AcDbEntity
  8
0
100
AcDbLine
 10
787.2310437748844
 20
429.2442428183997
 30
0.0
 11
685.2310437748781
 21
429.2442428183997
 31
0.0
  0
LINE
  5
1040
330
2
100
AcDbEntity
  8
0
100
AcDbLine
 10
787.2310437748844
 20
449.2456345049836
 30
0.0
 11
685.2310437748785
 21
449.2456345049836
 31
0.0
  0
LINE
  5
1041
330
2
100
AcDbEntity
  8
0
100
AcDbLine
 10
787.2310437748844
 20
459.2456345049876
 30
0.0
 11
685.231043774879
 21
459.2456345049876
 31
0.0
  0
LINE
  5
1042
330
2
100
AcDbEntity
  8
0
100
AcDbLine
 10
793.7310437748858
 20
354.2456345049856
 30
0.0
 11
788.731043774879
 21
354.2456345049858
 31
0.0
  0
LINE
  5
1043
330
2
100
AcDbEntity
  8
0
 48
0.5
100
AcDbLine
 10
788.731043774879
 20
350.1532287552251
 30
0.0
 11
788.731043774879
 21
468.3380402547469
 31
0.0
  0
LINE
  5
1044
330
2
100
AcDbEntity
  8
0
100
AcDbLine
 10
793.7310437748794
 20
464.2456345049854
 30
0.0
 11
788.731043774879
 21
464.2456345049854
 31
0.0
  0
ARC
  5
1045
330
2
100
AcDbEntity
  8
0
100
AcDbCircle
 10
801.7310437748799
 20
457.4600354763263
 30
0.0
 40
8.0
100
AcDbArc
 50
180.0
 51
267.9999999999963
  0
ARC
  5
1046
330
2
100
AcDbEntity
  8
0
100
AcDbCircle
 10
801.7310437748854
 20
361.031233533646
 30
0.0
 40
8.0
100
AcDbArc
 50
92.00000000000365
 51
180.0
  0
LINE
  5
1047
330
2
100
AcDbEntity
  8
CENTER
100
AcDbLine
 10
534.9035125456983
 20
339.2456345049188
 30
0.0
 11
534.9035125458242
 21
476.1486799437851
 31
0.0
  0
LINE
  5
1048
330
2
100
AcDbEntity
  8
0
100
AcDbLine
 10
475.5435125457163
 20
359.2456345049735
 30
0.0
 11
475.5435125458086
 21
459.2456345049765
 31
0.0
  0
ARC
  5
1049
330
2
100
AcDbEntity
  8
0
100
AcDbCircle
 10
485.5435125458086
 20
459.2456345049673
 30
0.0
 40
10.0
100
AcDbArc
 50
89.99999999994789
 51
179.9999999999479
  0
LINE
  5
104A
330
2
100
AcDbEntity
  8
0
100
AcDbLine
 10
481.9035125457382
 20
382.7775970734651
 30
0.0
 11
481.9035125457869
 21
435.7136719365705
 31
0.0
  0
ARC
  5
104B
330
2
100
AcDbEntity
  8
0
100
AcDbCircle
 10
494.9035125457869
 20
435.7136719365585
 30
0.0
 40
13.0
100
AcDbArc
 50
134.9999999999359
 51
179.9999999999479
  0
LINE
  5
104C
330
2
100
AcDbEntity
  8
0
100
AcDbLine
 10
486.9035125457383
 20
382.7775970734606
 30
0.0
 11
486.9035125457869
 21
435.7136719365659
 31
0.0
  0
ARC
  5
104D
330
2
100
AcDbEntity
  8
0
100
AcDbCircle
 10
494.9035125457383
 20
382.7775970734531
 30
0.0
 40
8.0
100
AcDbArc
 50
179.9999999999479
 51
224.9999999999537
  0
CIRCLE
  5
104E
330
2
100
AcDbEntity
  8
0
100
AcDbCircle
 10
534.9035125457624
 20
409.2456345049217
 30
0.0
 40
32.50000000000008
  0
CIRCLE
  5
104F
330
2
100
AcDbEntity
  8
0
100
AcDbCircle
 10
534.9035125457624
 20
409.2456345049218
 30
0.0
 40
33.07735026918965
  0
CIRCLE
  5
1050
330
2
100
AcDbEntity
  8
0
100
AcDbCircle
 10
534.9035125457624
 20
409.2456345049217
 30
0.0
 40
36.92264973081032
  0
CIRCLE
  5
1051
330
2
100
AcDbEntity
  8
0
100
AcDbCircle
 10
534.9035125457624
 20
409.2456345049217
 30
0.0
 40
37.50000000000008
  0
CIRCLE
  5
1052
330
2
100
AcDbEntity
  8
0
100
AcDbCircle
 10
534.9035125457624
 20
409.2456345049217
 30
0.0
 40
39.50000000000031
  0
CIRCLE
  5
1053
330
2
100
AcDbEntity
  8
0
100
AcDbCircle
 10
534.9035125457624
 20
409.2456345049218
 30
0.0
 40
40.00000000000034
  0
LINE
  5
1054
330
2
100
AcDbEntity
  8
CENTER
100
AcDbLine
 10
474.9240135603956
 20
459.2456345049774
 30
0.0
 11
494.883011531235
 21
459.2456345049589
 31
0.0
  0
LINE
  5
1055
330
2
100
AcDbEntity
  8
CENTER
100
AcDbLine
 10
484.9035125457996
 20
449.2661355195484
 30
0.0
 11
484.9035125458178
 21
469.2251334903879
 31
0.0
  0
LINE
  5
1056
330
2
100
AcDbEntity
  8
0
100
AcDbLine
 10
561.371549977189
 20
361.2456345048967
 30
0.0
 11
508.4354751142229
 21
361.2456345049455
 31
0.0
  0
ARC
  5
1057
330
2
100
AcDbEntity
  8
0
100
AcDbCircle
 10
561.3715499771963
 20
369.2456345048967
 30
0.0
 40
8.0
100
AcDbArc
 50
269.9999999999478
 51
314.9999999999359
  0
LINE
  5
1058
330
2
100
AcDbEntity
  8
0
100
AcDbLine
 10
561.3715499771835
 20
356.245634504896
 30
0.0
 11
508.4354751142188
 21
356.2456345049449
 31
0.0
  0
ARC
  5
1059
330
2
100
AcDbEntity
  8
0
100
AcDbCircle
 10
508.4354751142306
 20
369.2456345049449
 30
0.0
 40
13.0
100
AcDbArc
 50
224.9999999999537
 51
269.9999999999478
  0
LINE
  5
105A
330
2
100
AcDbEntity
  8
0
100
AcDbLine
 10
561.3715499773722
 20
457.2456345048975
 30
0.0
 11
508.435475114207
 21
457.2456345049462
 31
0.0
  0
ARC
  5
105B
330
2
100
AcDbEntity
  8
0
100
AcDbCircle
 10
508.4354751141997
 20
449.2456345049462
 30
0.0
 40
8.0
100
AcDbArc
 50
89.99999999994789
 51
134.9999999999359
  0
LINE
  5
105C
330
2
100
AcDbEntity
  8
0
100
AcDbLine
 10
561.3715499773768
 20
462.2456345048973
 30
0.0
 11
508.4354751142115
 21
462.2456345049461
 31
0.0
  0
ARC
  5
105D
330
2
100
AcDbEntity
  8
0
100
AcDbCircle
 10
561.371549977365
 20
449.2456345048973
 30
0.0
 40
13.0
100
AcDbArc
 50
44.99999999995376
 51
89.99999999994789
  0
LINE
  5
105E
330
2
100
AcDbEntity
  8
0
100
AcDbLine
 10
587.9035125457383
 20
382.7775970734017
 30
0.0
 11
587.9035125457869
 21
435.7136719364475
 31
0.0
  0
ARC
  5
105F
330
2
100
AcDbEntity
  8
0
100
AcDbCircle
 10
574.9035125457383
 20
382.7775970734137
 30
0.0
 40
13.0
100
AcDbArc
 50
314.9999999999359
 51
359.9999999999478
  0
LINE
  5
1060
330
2
100
AcDbEntity
  8
0
100
AcDbLine
 10
582.9035125457383
 20
382.7775970734063
 30
0.0
 11
582.903512545787
 21
435.7136719364521
 31
0.0
  0
ARC
  5
1061
330
2
100
AcDbEntity
  8
0
100
AcDbCircle
 10
574.9035125457869
 20
435.7136719364595
 30
0.0
 40
8.0
100
AcDbArc
 50
359.9999999999478
 51
44.99999999995376
  0
LINE
  5
1062
330
2
100
AcDbEntity
  8
CENTER
100
AcDbLine
 10
597.1744246035162
 20
471.5165465626245
 30
0.0
 11
472.6326004879795
 21
346.9747224473179
 31
0.0
  0
LINE
  5
1063
330
2
100
AcDbEntity
  8
0
100
AcDbLine
 10
502.7786208647127
 20
454.9024887544438
 30
0.0
 11
489.2466582963
 21
441.3705261860561
 31
0.0
  0
LINE
  5
1064
330
2
100
AcDbEntity
  8
0
100
AcDbLine
 10
499.2430869587831
 20
458.4380226603797
 30
0.0
 11
485.7111243903703
 21
444.9060600919921
 31
0.0
  0
ARC
  5
1065
330
2
100
AcDbEntity
  8
0
100
AcDbCircle
 10
508.4354751141997
 20
449.245634504946
 30
0.0
 40
13.0
100
AcDbArc
 50
89.99999999994789
 51
134.9999999999359
  0
ARC
  5
1066
330
2
100
AcDbEntity
  8
0
100
AcDbCircle
 10
494.9035125457869
 20
435.7136719365585
 30
0.0
 40
8.0
100
AcDbArc
 50
134.9999999999359
 51
179.9999999999479
  0
LINE
  5
1067
330
2
100
AcDbEntity
  8
0
100
AcDbLine
 10
580.5603667952253
 20
377.1207428239161
 30
0.0
 11
567.0284042266833
 21
363.5887802553992
 31
0.0
  0
LINE
  5
1068
330
2
100
AcDbEntity
  8
0
100
AcDbLine
 10
584.0959007011549
 20
373.5852089179801
 30
0.0
 11
570.563938132612
 21
360.0532463494624
 31
0.0
  0
ARC
  5
1069
330
2
100
AcDbEntity
  8
0
100
AcDbCircle
 10
561.3715499771954
 20
369.245634504896
 30
0.0
 40
13.0
100
AcDbArc
 50
269.9999999999478
 51
314.9999999999359
  0
ARC
  5
106A
330
2
100
AcDbEntity
  8
0
100
AcDbCircle
 10
574.9035125457383
 20
382.7775970734137
 30
0.0
 40
8.0
100
AcDbArc
 50
314.9999999999359
 51
359.9999999999478
  0
LINE
  5
106B
330
2
100
AcDbEntity
  8
CENTER
100
AcDbLine
 10
472.6326004880582
 20
471.5165465627331
 30
0.0
 11
597.1744246034075
 21
346.974722447239
 31
0.0
  0
LINE
  5
106C
330
2
100
AcDbEntity
  8
0
100
AcDbLine
 10
567.0284042268606
 20
454.9024887543865
 30
0.0
 11
580.5603667952826
 21
441.3705261859486
 31
0.0
  0
LINE
  5
106D
330
2
100
AcDbEntity
  8
0
100
AcDbLine
 10
570.5639381327953
 20
458.4380226603171
 30
0.0
 11
584.0959007012172
 21
444.9060600918793
 31
0.0
  0
ARC
  5
106E
330
2
100
AcDbEntity
  8
0
100
AcDbCircle
 10
574.9035125457869
 20
435.7136719364595
 30
0.0
 40
13.0
100
AcDbArc
 50
359.9999999999478
 51
44.99999999995376
  0
ARC
  5
106F
330
2
100
AcDbEntity
  8
0
100
AcDbCircle
 10
561.371549977365
 20
449.2456345048974
 30
0.0
 40
8.0
100
AcDbArc
 50
44.99999999995376
 51
89.99999999994789
  0
LINE
  5
1070
330
2
100
AcDbEntity
  8
0
100
AcDbLine
 10
489.2466582962426
 20
377.1207428239641
 30
0.0
 11
502.7786208647346
 21
363.5887802554564
 31
0.0
  0
LINE
  5
1071
330
2
100
AcDbEntity
  8
0
100
AcDbLine
 10
485.7111243903079
 20
373.5852089180333
 30
0.0
 11
499.2430869588003
 21
360.0532463495251
 31
0.0
  0
ARC
  5
1072
330
2
100
AcDbEntity
  8
0
100
AcDbCircle
 10
494.9035125457383
 20
382.7775970734531
 30
0.0
 40
13.0
100
AcDbArc
 50
179.9999999999479
 51
224.9999999999537
  0
ARC
  5
1073
330
2
100
AcDbEntity
  8
0
100
AcDbCircle
 10
508.4354751142302
 20
369.2456345049455
 30
0.0
 40
8.0
100
AcDbArc
 50
224.9999999999537
 51
269.9999999999478
  0
LINE
  5
1074
330
2
100
AcDbEntity
  8
0
100
AcDbLine
 10
566.3464345979307
 20
357.2352005822447
 30
0.0
 11
564.43301743611
 21
361.8545982448036
 31
0.0
  0
LINE
  5
1075
330
2
100
AcDbEntity
  8
0
100
AcDbLine
 10
586.9139464683805
 20
377.8027124526565
 30
0.0
 11
582.2945488058255
 21
379.7161296144862
 31
0.0
  0
CIRCLE
  5
1076
330
2
100
AcDbEntity
  8
HOJO
100
AcDbCircle
 10
587.4035125457514
 20
370.7456345049619
 30
0.0
 40
2.5
  0
CIRCLE
  5
1077
330
2
100
AcDbEntity
  8
0
100
AcDbCircle
 10
587.4035125457514
 20
370.7456345049619
 30
0.0
 40
2.0
  0
CIRCLE
  5
1078
330
2
100
AcDbEntity
  8
HOJO
100
AcDbCircle
 10
482.4035125458242
 20
447.7456345050611
 30
0.0
 40
2.5
  0
CIRCLE
  5
1079
330
2
100
AcDbEntity
  8
0
100
AcDbCircle
 10
482.4035125458242
 20
447.7456345050611
 30
0.0
 40
2.0
  0
LINE
  5
107A
330
2
100
AcDbEntity
  8
CENTER
100
AcDbLine
 10
482.4035125458192
 20
442.083841703871
 30
0.0
 11
482.4035125458297
 21
453.4074273062511
 31
0.0
  0
LINE
  5
107B
330
2
100
AcDbEntity
  8
CENTER
100
AcDbLine
 10
488.0653053470143
 20
447.7456345050558
 30
0.0
 11
476.7417197446341
 21
447.7456345050662
 31
0.0
  0
LINE
  5
107C
330
2
100
AcDbEntity
  8
0
100
AcDbLine
 10
586.9139464683751
 20
440.6885565571542
 30
0.0
 11
582.2945488058165
 21
438.7751393953337
 31
0.0
  0
LINE
  5
107D
330
2
100
AcDbEntity
  8
0
100
AcDbLine
 10
566.3464345979634
 20
461.2560684276039
 30
0.0
 11
564.4330174361336
 21
456.6366707650492
 31
0.0
  0
LINE
  5
107E
330
2
100
AcDbEntity
  8
0
100
AcDbLine
 10
503.4605904934657
 20
461.2560684275988
 30
0.0
 11
505.3740076552864
 21
456.6366707650399
 31
0.0
  0
LINE
  5
107F
330
2
100
AcDbEntity
  8
0
100
AcDbLine
 10
482.8930786230159
 20
440.6885565571871
 30
0.0
 11
487.5124762855709
 21
438.7751393953573
 31
0.0
  0
LINE
  5
1080
330
2
100
AcDbEntity
  8
0
100
AcDbLine
 10
482.8930786230209
 20
377.8027124526894
 30
0.0
 11
487.5124762855801
 21
379.7161296145099
 31
0.0
  0
LINE
  5
1081
330
2
100
AcDbEntity
  8
0
100
AcDbLine
 10
503.4605904934331
 20
357.2352005822396
 30
0.0
 11
505.3740076552624
 21
361.8545982447944
 31
0.0
  0
ARC
  5
1082
330
2
100
AcDbEntity
  8
0
100
AcDbCircle
 10
534.9035125458765
 20
599.2456345049188
 30
0.0
 40
250.0
100
AcDbArc
 50
265.4117542407429
 51
274.5882457591524
  0
ARC
  5
1083
330
2
100
AcDbEntity
  8
0
 48
0.5
100
AcDbCircle
 10
584.9035125456559
 20
359.2456345048725
 30
0.0
 40
10.0
100
AcDbArc
 50
269.9999999999478
 51
359.9999999999478
  0
LINE
  5
1084
330
2
100
AcDbEntity
  8
0
 48
0.5
100
AcDbLine
 10
584.9035125456468
 20
349.2456345048724
 30
0.0
 11
574.9035125456423
 21
349.2456345048818
 31
0.0
  0
ARC
  5
1085
330
2
100
AcDbEntity
  8
0
100
AcDbCircle
 10
574.90351254565
 20
357.2456345048822
 30
0.0
 40
8.0
100
AcDbArc
 50
261.1083543197433
 51
269.9999999999478
  0
ARC
  5
1086
330
2
100
AcDbEntity
  8
0
100
AcDbCircle
 10
561.3016755192245
 20
270.3031821038452
 30
0.0
 40
80.0
100
AcDbArc
 50
81.10835431974335
 51
94.58824575915246
  0
LINE
  5
1087
330
2
100
AcDbEntity
  8
0
 48
0.5
100
AcDbLine
 10
594.903512545656
 20
359.2456345048633
 30
0.0
 11
594.903512545665
 21
369.2456345048674
 31
0.0
  0
ARC
  5
1088
330
2
100
AcDbEntity
  8
0
100
AcDbCircle
 10
586.9035125456646
 20
369.2456345048747
 30
0.0
 40
8.0
100
AcDbArc
 50
359.9999999999478
 51
8.891645680153603
  0
ARC
  5
1089
330
2
100
AcDbEntity
  8
0
100
AcDbCircle
 10
673.8459649467265
 20
382.8474715311399
 30
0.0
 40
80.0
100
AcDbArc
 50
175.4117542407342
 51
188.8916456801535
  0
LINE
  5
108A
330
2
100
AcDbEntity
  8
0
 48
0.5
100
AcDbLine
 10
485.5435125457072
 20
349.2456345049642
 30
0.0
 11
494.9035125456468
 21
349.2456345049556
 31
0.0
  0
ARC
  5
108B
330
2
100
AcDbEntity
  8
0
 48
0.5
100
AcDbCircle
 10
485.5435125457163
 20
359.2456345049642
 30
0.0
 40
10.0
100
AcDbArc
 50
179.9999999999479
 51
269.9999999999478
  0
ARC
  5
108C
330
2
100
AcDbEntity
  8
0
100
AcDbCircle
 10
494.9035125456545
 20
357.2456345049559
 30
0.0
 40
8.0
100
AcDbArc
 50
269.9999999999478
 51
278.891645680151
  0
ARC
  5
108D
330
2
100
AcDbEntity
  8
0
100
AcDbCircle
 10
508.5053495719192
 20
270.303182103894
 30
0.0
 40
80.0
100
AcDbArc
 50
85.41175424074296
 51
98.89164568015118
  0
ARC
  5
108E
330
2
100
AcDbEntity
  8
0
 48
0.5
100
AcDbCircle
 10
584.9035125457483
 20
459.2456345048756
 30
0.0
 40
10.0
100
AcDbArc
 50
359.9999999999478
 51
89.99999999994789
  0
LINE
  5
108F
330
2
100
AcDbEntity
  8
0
 48
0.5
100
AcDbLine
 10
584.9035125457573
 20
469.2456345048756
 30
0.0
 11
574.9035125457533
 21
469.2456345048847
 31
0.0
  0
ARC
  5
1090
330
2
100
AcDbEntity
  8
0
100
AcDbCircle
 10
574.903512545746
 20
461.2456345048843
 30
0.0
 40
8.0
100
AcDbArc
 50
89.99999999994789
 51
98.89164568015118
  0
ARC
  5
1091
330
2
100
AcDbEntity
  8
0
100
AcDbCircle
 10
561.301675519481
 20
548.1880869059464
 30
0.0
 40
80.0
100
AcDbArc
 50
265.4117542407429
 51
278.891645680151
  0
LINE
  5
1092
330
2
100
AcDbEntity
  8
0
 48
0.5
100
AcDbLine
 10
594.9035125457482
 20
459.2456345048662
 30
0.0
 11
594.9035125457387
 21
449.2456345048622
 31
0.0
  0
ARC
  5
1093
330
2
100
AcDbEntity
  8
0
100
AcDbCircle
 10
586.9035125457383
 20
449.2456345048696
 30
0.0
 40
8.0
100
AcDbArc
 50
351.1083543197522
 51
359.9999999999478
  0
ARC
  5
1094
330
2
100
AcDbEntity
  8
0
100
AcDbCircle
 10
673.8459649467752
 20
435.643797478444
 30
0.0
 40
80.0
100
AcDbArc
 50
171.1083543197401
 51
184.5882457591504
  0
LINE
  5
1095
330
2
100
AcDbEntity
  8
0
 48
0.5
100
AcDbLine
 10
485.5435125458182
 20
469.2456345049673
 30
0.0
 11
494.9035125457578
 21
469.2456345049585
 31
0.0
  0
ARC
  5
1096
330
2
100
AcDbEntity
  8
0
100
AcDbCircle
 10
494.9035125457506
 20
461.2456345049582
 30
0.0
 40
8.0
100
AcDbArc
 50
81.10835431974335
 51
89.99999999994789
  0
ARC
  5
1097
330
2
100
AcDbEntity
  8
0
100
AcDbCircle
 10
508.5053495721756
 20
548.188086905995
 30
0.0
 40
80.0
100
AcDbArc
 50
261.1083543197433
 51
274.5882457591524
  0
ARC
  5
1098
330
2
100
AcDbEntity
  8
0
100
AcDbCircle
 10
344.9035125457014
 20
409.2456345050967
 30
0.0
 40
250.0
100
AcDbArc
 50
355.4117542407341
 51
4.588245759156936
  0
ARC
  5
1099
330
2
100
AcDbEntity
  8
0
100
AcDbCircle
 10
534.9035125455259
 20
219.2456345049216
 30
0.0
 40
250.0
100
AcDbArc
 50
85.41175424074296
 51
94.58824575915246
  0
LINE
  5
109A
330
2
100
AcDbEntity
  8
0
100
AcDbLine
 10
661.7310437748776
 20
446.1682842357964
 30
0.0
 11
661.7310437748776
 21
409.245634504986
 31
0.0
  0
LINE
  5
109B
330
2
100
AcDbEntity
  8
0
 48
0.5
100
AcDbLine
 10
670.2310437748776
 20
449.2456345049861
 30
0.0
 11
669.7310437748776
 21
448.7456345049863
 31
0.0
  0
LINE
  5
109C
330
2
100
AcDbEntity
  8
0
100
AcDbLine
 10
670.231043774879
 20
365.7456345049861
 30
0.0
 11
670.2310437748776
 21
452.7456345049861
 31
0.0
  0
ARC
  5
109D
330
2
100
AcDbEntity
  8
0
100
AcDbCircle
 10
664.5310437748769
 20
446.3456345049857
 30
0.0
 40
0.3
100
AcDbArc
 50
180.0
 51
270.0
  0
ARC
  5
109E
330
2
100
AcDbEntity
  8
0
100
AcDbCircle
 10
665.931043774877
 20
446.3456345049857
 30
0.0
 40
0.3
100
AcDbArc
 50
270.0
 51
0.0
  0
LINE
  5
109F
330
2
100
AcDbEntity
  8
0
 48
0.5
100
AcDbLine
 10
666.2310437748772
 20
446.5456345049858
 30
0.0
 11
666.431043774877
 21
446.7456345049859
 31
0.0
  0
LINE
  5
10A0
330
2
100
AcDbEntity
  8
0
 48
0.5
100
AcDbLine
 10
664.5310437748769
 20
446.0456345049858
 30
0.0
 11
665.931043774877
 21
446.0456345049858
 31
0.0
  0
LINE
  5
10A1
330
2
100
AcDbEntity
  8
0
100
AcDbLine
 10
662.7310437748771
 20
446.7456345049859
 30
0.0
 11
661.7310437748772
 21
446.1682842357961
 31
0.0
  0
LINE
  5
10A2
330
2
100
AcDbEntity
  8
0
100
AcDbLine
 10
664.2310437748772
 20
446.4456345049857
 30
0.0
 11
664.2310437748772
 21
372.0456345049865
 31
0.0
  0
ARC
  5
10A3
330
2
100
AcDbEntity
  8
0
 48
0.5
100
AcDbCircle
 10
663.931043774877
 20
446.4456345049857
 30
0.0
 40
0.3
100
AcDbArc
 50
0.0
 51
90.0
  0
LINE
  5
10A4
330
2
100
AcDbEntity
  8
0
 48
0.5
100
AcDbLine
 10
662.7310437748767
 20
446.7456345049859
 30
0.0
 11
663.931043774877
 21
446.7456345049859
 31
0.0
  0
LINE
  5
10A5
330
2
100
AcDbEntity
  8
0
 48
0.5
100
AcDbLine
 10
666.431043774877
 20
446.7456345049859
 30
0.0
 11
669.7310437748772
 21
446.7456345049859
 31
0.0
  0
LINE
  5
10A6
330
2
100
AcDbEntity
  8
HIDS
  6
SEKKEI_H
 48
0.5
100
AcDbLine
 10
674.6452573372514
 20
461.6598480673598
 30
0.0
 11
670.8168302125061
 21
457.8314209426134
 31
0.0
  0
ARC
  5
10A7
330
2
100
AcDbEntity
  8
HIDS
  6
SEKKEI_H
100
AcDbCircle
 10
672.231043774879
 20
456.4172073802403
 30
0.0
 40
2.0
100
AcDbArc
 50
135.000000000009
 51
180.0
  0
ARC
  5
10A8
330
2
100
AcDbEntity
  8
HIDS
  6
SEKKEI_H
 48
0.5
100
AcDbCircle
 10
673.2310437748776
 20
463.0740616297331
 30
0.0
 40
2.0
100
AcDbArc
 50
314.9999999999728
 51
0.0
  0
ARC
  5
10A9
330
2
100
AcDbEntity
  8
0
 48
0.3
100
AcDbCircle
 10
677.2310437748776
 20
467.1757434058876
 30
0.0
 40
2.0
100
AcDbArc
 50
90.49999999999155
 51
180.0
  0
LINE
  5
10AA
330
2
100
AcDbEntity
  8
0
100
AcDbLine
 10
677.2135907038808
 20
469.175667252016
 30
0.0
 11
685.2310437748776
 21
469.2456345049858
 31
0.0
  0
LINE
  5
10AB
330
2
100
AcDbEntity
  8
0
100
AcDbLine
 10
661.7310437748776
 20
372.3229847741758
 30
0.0
 11
661.7310437748776
 21
409.245634504986
 31
0.0
  0
LINE
  5
10AC
330
2
100
AcDbEntity
  8
0
 48
0.5
100
AcDbLine
 10
670.2310437748776
 20
369.2456345049861
 30
0.0
 11
669.7310437748776
 21
369.7456345049859
 31
0.0
  0
ARC
  5
10AD
330
2
100
AcDbEntity
  8
0
100
AcDbCircle
 10
664.5310437748769
 20
372.1456345049864
 30
0.0
 40
0.3
100
AcDbArc
 50
90.0
 51
180.0
  0
ARC
  5
10AE
330
2
100
AcDbEntity
  8
0
100
AcDbCircle
 10
665.931043774877
 20
372.1456345049864
 30
0.0
 40
0.3
100
AcDbArc
 50
0.0
 51
90.0
  0
LINE
  5
10AF
330
2
100
AcDbEntity
  8
0
100
AcDbLine
 10
666.2310437748772
 20
371.9456345049863
 30
0.0
 11
666.2310437748772
 21
446.5456345049858
 31
0.0
  0
LINE
  5
10B0
330
2
100
AcDbEntity
  8
0
 48
0.5
100
AcDbLine
 10
666.2310437748772
 20
371.9456345049863
 30
0.0
 11
666.431043774877
 21
371.7456345049863
 31
0.0
  0
LINE
  5
10B1
330
2
100
AcDbEntity
  8
0
 48
0.5
100
AcDbLine
 10
664.5310437748769
 20
372.4456345049864
 30
0.0
 11
665.931043774877
 21
372.4456345049864
 31
0.0
  0
LINE
  5
10B2
330
2
100
AcDbEntity
  8
0
100
AcDbLine
 10
662.7310437748771
 20
371.7456345049863
 30
0.0
 11
661.7310437748772
 21
372.3229847741761
 31
0.0
  0
ARC
  5
10B3
330
2
100
AcDbEntity
  8
0
 48
0.5
100
AcDbCircle
 10
663.931043774877
 20
372.0456345049865
 30
0.0
 40
0.3
100
AcDbArc
 50
270.0
 51
0.0
  0
LINE
  5
10B4
330
2
100
AcDbEntity
  8
0
 48
0.5
100
AcDbLine
 10
662.7310437748767
 20
371.7456345049863
 30
0.0
 11
663.931043774877
 21
371.7456345049863
 31
0.0
  0
LINE
  5
10B5
330
2
100
AcDbEntity
  8
0
 48
0.5
100
AcDbLine
 10
666.431043774877
 20
371.7456345049863
 30
0.0
 11
669.7310437748772
 21
371.7456345049863
 31
0.0
  0
LINE
  5
10B6
330
2
100
AcDbEntity
  8
0
100
AcDbLine
 10
685.2310437748776
 20
349.2456345049863
 30
0.0
 11
685.2310437748776
 21
469.2456345049858
 31
0.0
  0
LINE
  5
10B7
330
2
100
AcDbEntity
  8
HIDS
  6
SEKKEI_H
 48
0.5
100
AcDbLine
 10
674.6452573372514
 20
356.8314209426123
 30
0.0
 11
670.8168302125061
 21
360.6598480673588
 31
0.0
  0
ARC
  5
10B8
330
2
100
AcDbEntity
  8
HIDS
  6
SEKKEI_H
100
AcDbCircle
 10
672.231043774879
 20
362.0740616297319
 30
0.0
 40
2.0
100
AcDbArc
 50
180.0
 51
224.9999999999908
  0
ARC
  5
10B9
330
2
100
AcDbEntity
  8
HIDS
  6
SEKKEI_H
 48
0.5
100
AcDbCircle
 10
673.2310437748776
 20
355.417207380239
 30
0.0
 40
2.0
100
AcDbArc
 50
0.0
 51
45.00000000002716
  0
ARC
  5
10BA
330
2
100
AcDbEntity
  8
0
 48
0.3
100
AcDbCircle
 10
677.2310437748776
 20
351.3155256040846
 30
0.0
 40
2.0
100
AcDbArc
 50
180.0
 51
269.5000000000084
  0
LINE
  5
10BB
330
2
100
AcDbEntity
  8
0
100
AcDbLine
 10
677.2135907038808
 20
349.3156017579562
 30
0.0
 11
685.2310437748776
 21
349.2456345049863
 31
0.0
  0
LINE
  5
10BC
330
2
100
AcDbEntity
  8
0
100
AcDbLine
 10
662.7310437748767
 20
446.7456345049859
 30
0.0
 11
662.7310437748771
 21
371.7456345049863
 31
0.0
  0
LINE
  5
10BD
330
2
100
AcDbEntity
  8
0
100
AcDbLine
 10
666.431043774877
 20
446.7456345049859
 30
0.0
 11
666.431043774877
 21
371.7456345049863
 31
0.0
  0
LINE
  5
10BE
330
2
100
AcDbEntity
  8
0
100
AcDbLine
 10
669.7310437748776
 20
448.7456345049863
 30
0.0
 11
669.7310437748776
 21
369.7456345049861
 31
0.0
  0
LINE
  5
10BF
330
2
100
AcDbEntity
  8
0
100
AcDbLine
 10
721.7310437748762
 20
348.7456345049862
 30
0.0
 11
671.6477133349137
 21
349.1629955919892
 31
0.0
  0
ARC
  5
10C0
330
2
100
AcDbEntity
  8
0
100
AcDbCircle
 10
671.7310437748799
 20
359.1626483878505
 30
0.0
 40
10.0
100
AcDbArc
 50
180.0
 51
269.5225462226892
  0
LINE
  5
10C1
330
2
100
AcDbEntity
  8
0
100
AcDbLine
 10
661.7310437748799
 20
359.1626483878505
 30
0.0
 11
661.7310437748799
 21
459.328620622122
 31
0.0
  0
LINE
  5
10C2
330
2
100
AcDbEntity
  8
0
100
AcDbLine
 10
721.7310437748762
 20
348.7456345049862
 30
0.0
 11
771.8143742148384
 21
349.1629955919894
 31
0.0
  0
ARC
  5
10C3
330
2
100
AcDbEntity
  8
0
100
AcDbCircle
 10
771.7310437748726
 20
359.1626483878507
 30
0.0
 40
10.0
100
AcDbArc
 50
270.4774537773107
 51
294.188568807211
  0
LINE
  5
10C4
330
2
100
AcDbEntity
  8
0
100
AcDbLine
 10
721.7310437748762
 20
469.7456345049862
 30
0.0
 11
671.6477133349137
 21
469.3282734179832
 31
0.0
  0
ARC
  5
10C5
330
2
100
AcDbEntity
  8
0
100
AcDbCircle
 10
671.7310437748799
 20
459.328620622122
 30
0.0
 40
10.0
100
AcDbArc
 50
90.47745377731077
 51
180.0
  0
LINE
  5
10C6
330
2
100
AcDbEntity
  8
0
100
AcDbLine
 10
721.7310437748762
 20
469.7456345049862
 30
0.0
 11
771.8143742148384
 21
469.3282734179832
 31
0.0
  0
ARC
  5
10C7
330
2
100
AcDbEntity
  8
0
100
AcDbCircle
 10
771.7310437748726
 20
459.328620622122
 30
0.0
 40
10.0
100
AcDbArc
 50
65.81143119278873
 51
89.52254622268922
  0
LINE
  5
10C8
330
2
100
AcDbEntity
  8
0
100
AcDbLine
 10
1007.419171748529
 20
758.2425856632466
 30
0.0
 11
1007.34920449556
 21
766.2600387342431
 31
0.0
  0
ARC
  5
10C9
330
2
100
AcDbEntity
  8
0
100
AcDbCircle
 10
1005.349280649432
 20
766.2425856632465
 30
0.0
 40
2.0
100
AcDbArc
 50
0.499999999998063
 51
90.0
  0
LINE
  5
10CA
330
2
100
AcDbEntity
  8
0
100
AcDbLine
 10
984.9818214793401
 20
781.7425856632467
 30
0.0
 11
948.0591717485296
 21
781.7425856632467
 31
0.0
  0
LINE
  5
10CB
330
2
100
AcDbEntity
  8
0
 48
0.5
100
AcDbLine
 10
988.0591717485296
 20
773.2425856632467
 30
0.0
 11
987.5591717485301
 21
773.7425856632466
 31
0.0
  0
LINE
  5
10CC
330
2
100
AcDbEntity
  8
0
100
AcDbLine
 10
904.5591717485297
 20
773.2425856632452
 30
0.0
 11
991.5591717485296
 21
773.2425856632464
 31
0.0
  0
ARC
  5
10CD
330
2
100
AcDbEntity
  8
0
100
AcDbCircle
 10
985.1591717485296
 20
778.9425856632472
 30
0.0
 40
0.3
100
AcDbArc
 50
90.0
 51
180.0
  0
ARC
  5
10CE
330
2
100
AcDbEntity
  8
0
100
AcDbCircle
 10
985.1591717485296
 20
777.5425856632472
 30
0.0
 40
0.3
100
AcDbArc
 50
180.0
 51
270.0
  0
LINE
  5
10CF
330
2
100
AcDbEntity
  8
0
 48
0.5
100
AcDbLine
 10
985.3591717485299
 20
777.2425856632471
 30
0.0
 11
985.5591717485296
 21
777.0425856632471
 31
0.0
  0
LINE
  5
10D0
330
2
100
AcDbEntity
  8
0
 48
0.5
100
AcDbLine
 10
984.8591717485298
 20
778.9425856632472
 30
0.0
 11
984.8591717485298
 21
777.5425856632472
 31
0.0
  0
LINE
  5
10D1
330
2
100
AcDbEntity
  8
0
100
AcDbLine
 10
985.5591717485296
 20
780.7425856632471
 30
0.0
 11
984.9818214793398
 21
781.7425856632471
 31
0.0
  0
LINE
  5
10D2
330
2
100
AcDbEntity
  8
0
100
AcDbLine
 10
985.2591717485294
 20
779.2425856632471
 30
0.0
 11
910.8591717485303
 21
779.2425856632473
 31
0.0
  0
ARC
  5
10D3
330
2
100
AcDbEntity
  8
0
 48
0.5
100
AcDbCircle
 10
985.2591717485294
 20
779.5425856632472
 30
0.0
 40
0.3
100
AcDbArc
 50
270.0
 51
0.0
  0
LINE
  5
10D4
330
2
100
AcDbEntity
  8
0
 48
0.5
100
AcDbLine
 10
985.5591717485296
 20
780.7425856632472
 30
0.0
 11
985.5591717485296
 21
779.5425856632472
 31
0.0
  0
LINE
  5
10D5
330
2
100
AcDbEntity
  8
0
 48
0.5
100
AcDbLine
 10
985.5591717485296
 20
777.0425856632471
 30
0.0
 11
985.5591717485296
 21
773.7425856632471
 31
0.0
  0
LINE
  5
10D6
330
2
100
AcDbEntity
  8
HIDS
  6
SEKKEI_H
 48
0.5
100
AcDbLine
 10
1000.473385310904
 20
768.8283721008728
 30
0.0
 11
996.6449581861573
 21
772.6567992256182
 31
0.0
  0
ARC
  5
10D7
330
2
100
AcDbEntity
  8
HIDS
  6
SEKKEI_H
100
AcDbCircle
 10
995.2307446237838
 20
771.242585663245
 30
0.0
 40
2.0
100
AcDbArc
 50
44.99999999999073
 51
90.0
  0
ARC
  5
10D8
330
2
100
AcDbEntity
  8
HIDS
  6
SEKKEI_H
 48
0.5
100
AcDbCircle
 10
1001.887598873277
 20
770.2425856632465
 30
0.0
 40
2.0
100
AcDbArc
 50
224.9999999999895
 51
270.0
  0
LINE
  5
10D9
330
2
100
AcDbEntity
  8
0
100
AcDbLine
 10
911.1365220177196
 20
781.7425856632467
 30
0.0
 11
948.0591717485296
 21
781.7425856632467
 31
0.0
  0
LINE
  5
10DA
330
2
100
AcDbEntity
  8
0
 48
0.5
100
AcDbLine
 10
908.0591717485297
 20
773.2425856632467
 30
0.0
 11
908.5591717485296
 21
773.7425856632466
 31
0.0
  0
ARC
  5
10DB
330
2
100
AcDbEntity
  8
0
100
AcDbCircle
 10
910.9591717485303
 20
778.9425856632472
 30
0.0
 40
0.3
100
AcDbArc
 50
0.0
 51
90.0
  0
ARC
  5
10DC
330
2
100
AcDbEntity
  8
0
100
AcDbCircle
 10
910.9591717485303
 20
777.5425856632472
 30
0.0
 40
0.3
100
AcDbArc
 50
270.0
 51
0.0
  0
LINE
  5
10DD
330
2
100
AcDbEntity
  8
0
100
AcDbLine
 10
910.7591717485304
 20
777.2425856632471
 30
0.0
 11
985.3591717485299
 21
777.2425856632471
 31
0.0
  0
LINE
  5
10DE
330
2
100
AcDbEntity
  8
0
 48
0.5
100
AcDbLine
 10
910.7591717485304
 20
777.2425856632471
 30
0.0
 11
910.5591717485301
 21
777.0425856632471
 31
0.0
  0
LINE
  5
10DF
330
2
100
AcDbEntity
  8
0
 48
0.5
100
AcDbLine
 10
911.2591717485305
 20
778.9425856632472
 30
0.0
 11
911.2591717485305
 21
777.5425856632472
 31
0.0
  0
LINE
  5
10E0
330
2
100
AcDbEntity
  8
0
100
AcDbLine
 10
910.5591717485301
 20
780.7425856632471
 30
0.0
 11
911.1365220177196
 21
781.7425856632471
 31
0.0
  0
ARC
  5
10E1
330
2
100
AcDbEntity
  8
0
 48
0.5
100
AcDbCircle
 10
910.8591717485303
 20
779.5425856632472
 30
0.0
 40
0.3
100
AcDbArc
 50
180.0
 51
270.0
  0
LINE
  5
10E2
330
2
100
AcDbEntity
  8
0
 48
0.5
100
AcDbLine
 10
910.5591717485301
 20
780.7425856632472
 30
0.0
 11
910.5591717485301
 21
779.5425856632472
 31
0.0
  0
LINE
  5
10E3
330
2
100
AcDbEntity
  8
0
 48
0.5
100
AcDbLine
 10
910.5591717485301
 20
777.0425856632471
 30
0.0
 11
910.5591717485301
 21
773.7425856632471
 31
0.0
  0
LINE
  5
10E4
330
2
100
AcDbEntity
  8
0
 48
0.3
100
AcDbLine
 10
890.0591717485307
 20
768.2425856632464
 30
0.0
 11
1005.349280649432
 21
768.2425856632464
 31
0.0
  0
LINE
  5
10E5
330
2
100
AcDbEntity
  8
0
100
AcDbLine
 10
888.0591717485302
 20
758.2425856632466
 30
0.0
 11
1007.419171748529
 21
758.2425856632466
 31
0.0
  0
LINE
  5
10E6
330
2
100
AcDbEntity
  8
HIDS
  6
SEKKEI_H
 48
0.5
100
AcDbLine
 10
895.6449581861564
 20
768.8283721008728
 30
0.0
 11
899.4733853109025
 21
772.6567992256182
 31
0.0
  0
ARC
  5
10E7
330
2
100
AcDbEntity
  8
HIDS
  6
SEKKEI_H
100
AcDbCircle
 10
900.8875988732754
 20
771.242585663245
 30
0.0
 40
2.0
100
AcDbArc
 50
90.0
 51
135.0000000000092
  0
ARC
  5
10E8
330
2
100
AcDbEntity
  8
HIDS
  6
SEKKEI_H
 48
0.5
100
AcDbCircle
 10
894.230744623783
 20
770.2425856632465
 30
0.0
 40
2.0
100
AcDbArc
 50
270.0
 51
315.0000000000104
  0
ARC
  5
10E9
330
2
100
AcDbEntity
  8
0
 48
0.3
100
AcDbCircle
 10
890.1290628476283
 20
766.2425856632465
 30
0.0
 40
2.0
100
AcDbArc
 50
90.0
 51
179.4999999999954
  0
LINE
  5
10EA
330
2
100
AcDbEntity
  8
0
100
AcDbLine
 10
888.1291390015
 20
766.2600387342433
 30
0.0
 11
888.0591717485302
 21
758.2425856632466
 31
0.0
  0
LINE
  5
10EB
330
2
100
AcDbEntity
  8
0
100
AcDbLine
 10
985.5591717485296
 20
780.7425856632472
 30
0.0
 11
910.5591717485301
 21
780.7425856632471
 31
0.0
  0
LINE
  5
10EC
330
2
100
AcDbEntity
  8
0
100
AcDbLine
 10
985.5591717485296
 20
777.0425856632471
 30
0.0
 11
910.5591717485301
 21
777.0425856632471
 31
0.0
  0
LINE
  5
10ED
330
2
100
AcDbEntity
  8
0
100
AcDbLine
 10
987.5591717485301
 20
773.7425856632466
 30
0.0
 11
908.5591717485296
 21
773.7425856632467
 31
0.0
  0
LINE
  5
10EE
330
2
100
AcDbEntity
  8
0
100
AcDbLine
 10
676.7310437748776
 20
459.2456345049876
 30
0.0
 11
685.2310437748776
 21
459.2456345049876
 31
0.0
  0
LINE
  5
10EF
330
2
100
AcDbEntity
  8
0
100
AcDbLine
 10
676.7310437748776
 20
449.2456345049836
 30
0.0
 11
685.2310437748785
 21
449.2456345049836
 31
0.0
  0
LINE
  5
10F0
330
2
100
AcDbEntity
  8
0
100
AcDbLine
 10
676.7310437748776
 20
429.2442428183997
 30
0.0
 11
685.2310437748781
 21
429.2442428183997
 31
0.0
  0
LINE
  5
10F1
330
2
100
AcDbEntity
  8
0
100
AcDbLine
 10
676.7310437748776
 20
389.2470261915698
 30
0.0
 11
685.2310437748772
 21
389.2470261915698
 31
0.0
  0
LINE
  5
10F2
330
2
100
AcDbEntity
  8
0
100
AcDbLine
 10
676.7310437748776
 20
369.2456345049881
 30
0.0
 11
685.2310437748762
 21
369.2456345049882
 31
0.0
  0
LINE
  5
10F3
330
2
100
AcDbEntity
  8
0
100
AcDbLine
 10
676.7310437748776
 20
359.2456345049868
 30
0.0
 11
685.2310437748762
 21
359.2456345049868
 31
0.0
  0
LINE
  5
10F4
330
2
100
AcDbEntity
  8
0
100
AcDbLine
 10
898.0591717485307
 20
766.7425856632465
 30
0.0
 11
898.0591717485307
 21
758.2425856632478
 31
0.0
  0
LINE
  5
10F5
330
2
100
AcDbEntity
  8
0
100
AcDbLine
 10
908.0591717485319
 20
766.7425856632465
 30
0.0
 11
908.0591717485319
 21
758.2425856632475
 31
0.0
  0
LINE
  5
10F6
330
2
100
AcDbEntity
  8
0
100
AcDbLine
 10
928.0605634351134
 20
766.7425856632465
 30
0.0
 11
928.0605634351134
 21
758.242585663247
 31
0.0
  0
LINE
  5
10F7
330
2
100
AcDbEntity
  8
0
100
AcDbLine
 10
968.0577800619433
 20
766.7425856632465
 30
0.0
 11
968.0577800619433
 21
758.2425856632458
 31
0.0
  0
LINE
  5
10F8
330
2
100
AcDbEntity
  8
0
100
AcDbLine
 10
988.0591717485273
 20
766.7425856632465
 30
0.0
 11
988.0591717485273
 21
758.2425856632453
 31
0.0
  0
LINE
  5
10F9
330
2
100
AcDbEntity
  8
0
100
AcDbLine
 10
998.0591717485316
 20
766.7425856632465
 30
0.0
 11
998.0591717485316
 21
758.242585663245
 31
0.0
  0
LINE
  5
10FA
330
2
100
AcDbEntity
  8
0
 48
0.3
100
AcDbLine
 10
904.5591717485297
 20
777.7425856632464
 30
0.0
 11
891.5591717485296
 21
777.7425856632464
 31
0.0
  0
LINE
  5
10FB
330
2
100
AcDbEntity
  8
0
 48
0.3
100
AcDbLine
 10
903.6931463447437
 20
778.2425856632465
 30
0.0
 11
892.4251971523146
 21
778.2425856632465
 31
0.0
  0
LINE
  5
10FC
330
2
100
AcDbEntity
  8
0
 48
0.3
100
AcDbLine
 10
891.5591717485296
 20
777.7425856632464
 30
0.0
 11
892.4251971523146
 21
778.2425856632465
 31
0.0
  0
LINE
  5
10FD
330
2
100
AcDbEntity
  8
0
 48
0.3
100
AcDbLine
 10
891.5591717485296
 20
777.7425856632464
 30
0.0
 11
891.5591717485296
 21
770.2425856632465
 31
0.0
  0
LINE
  5
10FE
330
2
100
AcDbEntity
  8
0
 48
0.3
100
AcDbLine
 10
904.5591717485297
 20
777.7425856632458
 30
0.0
 11
903.6931463447452
 21
778.242585663246
 31
0.0
  0
LINE
  5
10FF
330
2
100
AcDbEntity
  8
0
 48
0.3
100
AcDbLine
 10
904.5591717485297
 20
777.7425856632455
 30
0.0
 11
904.5591717485297
 21
770.2425856632465
 31
0.0
  0
LINE
  5
1100
330
2
100
AcDbEntity
  8
0
 48
0.3
100
AcDbLine
 10
1004.559171748529
 20
777.7425856632464
 30
0.0
 11
991.5591717485296
 21
777.7425856632464
 31
0.0
  0
LINE
  5
1101
330
2
100
AcDbEntity
  8
0
 48
0.3
100
AcDbLine
 10
1003.693146344743
 20
778.2425856632465
 30
0.0
 11
992.4251971523146
 21
778.2425856632465
 31
0.0
  0
LINE
  5
1102
330
2
100
AcDbEntity
  8
0
 48
0.3
100
AcDbLine
 10
991.5591717485296
 20
777.7425856632464
 30
0.0
 11
992.4251971523146
 21
778.2425856632465
 31
0.0
  0
LINE
  5
1103
330
2
100
AcDbEntity
  8
0
 48
0.3
100
AcDbLine
 10
991.5591717485296
 20
777.7425856632464
 30
0.0
 11
991.5591717485296
 21
770.2425856632465
 31
0.0
  0
LINE
  5
1104
330
2
100
AcDbEntity
  8
0
 48
0.3
100
AcDbLine
 10
1004.559171748529
 20
777.7425856632458
 30
0.0
 11
1003.693146344745
 21
778.242585663246
 31
0.0
  0
LINE
  5
1105
330
2
100
AcDbEntity
  8
0
 48
0.3
100
AcDbLine
 10
1004.559171748529
 20
777.7425856632455
 30
0.0
 11
1004.559171748529
 21
770.2425856632465
 31
0.0
  0
LINE
  5
1106
330
2
100
AcDbEntity
  8
CENTER
 48
0.5
100
AcDbLine
 10
898.0591717485296
 20
781.2425856632464
 30
0.0
 11
898.0591717485296
 21
762.2425856632465
 31
0.0
  0
LINE
  5
1107
330
2
100
AcDbEntity
  8
CENTER
 48
0.5
100
AcDbLine
 10
998.0591717485296
 20
781.2425856632464
 30
0.0
 11
998.0591717485296
 21
762.2425856632465
 31
0.0
  0
LINE
  5
1108
330
2
100
AcDbEntity
  8
0
 48
0.3
100
AcDbLine
 10
665.7310437748776
 20
465.7456345049861
 30
0.0
 11
665.7310437748776
 21
452.7456345049861
 31
0.0
  0
LINE
  5
1109
330
2
100
AcDbEntity
  8
0
 48
0.3
100
AcDbLine
 10
665.2310437748776
 20
464.8796091012002
 30
0.0
 11
665.2310437748776
 21
453.6116599087706
 31
0.0
  0
LINE
  5
110A
330
2
100
AcDbEntity
  8
CENTER
 48
0.5
100
AcDbLine
 10
662.2310437748776
 20
459.245634504986
 30
0.0
 11
681.2310437748776
 21
459.245634504986
 31
0.0
  0
LINE
  5
110B
330
2
100
AcDbEntity
  8
0
 48
0.3
100
AcDbLine
 10
665.7310437748776
 20
452.7456345049861
 30
0.0
 11
665.2310437748776
 21
453.6116599087706
 31
0.0
  0
LINE
  5
110C
330
2
100
AcDbEntity
  8
0
 48
0.3
100
AcDbLine
 10
665.7310437748776
 20
452.7456345049861
 30
0.0
 11
673.2310437748776
 21
452.7456345049861
 31
0.0
  0
LINE
  5
110D
330
2
100
AcDbEntity
  8
0
 48
0.3
100
AcDbLine
 10
665.7310437748781
 20
465.7456345049856
 30
0.0
 11
665.2310437748781
 21
464.8796091012013
 31
0.0
  0
LINE
  5
110E
330
2
100
AcDbEntity
  8
0
 48
0.3
100
AcDbLine
 10
665.7310437748785
 20
465.7456345049861
 30
0.0
 11
673.2310437748776
 21
465.7456345049861
 31
0.0
  0
LINE
  5
110F
330
2
100
AcDbEntity
  8
0
 48
0.3
100
AcDbLine
 10
665.7310437748776
 20
365.7456345049861
 30
0.0
 11
665.7310437748776
 21
352.7456345049861
 31
0.0
  0
LINE
  5
1110
330
2
100
AcDbEntity
  8
0
 48
0.3
100
AcDbLine
 10
665.2310437748776
 20
364.8796091012002
 30
0.0
 11
665.2310437748776
 21
353.6116599087706
 31
0.0
  0
LINE
  5
1111
330
2
100
AcDbEntity
  8
CENTER
 48
0.5
100
AcDbLine
 10
662.2310437748776
 20
359.2456345049861
 30
0.0
 11
681.2310437748776
 21
359.2456345049861
 31
0.0
  0
LINE
  5
1112
330
2
100
AcDbEntity
  8
0
 48
0.3
100
AcDbLine
 10
665.7310437748776
 20
352.7456345049861
 30
0.0
 11
665.2310437748776
 21
353.6116599087706
 31
0.0
  0
LINE
  5
1113
330
2
100
AcDbEntity
  8
0
 48
0.3
100
AcDbLine
 10
665.7310437748776
 20
352.7456345049861
 30
0.0
 11
673.2310437748776
 21
352.7456345049861
 31
0.0
  0
LINE
  5
1114
330
2
100
AcDbEntity
  8
0
 48
0.3
100
AcDbLine
 10
665.7310437748781
 20
365.7456345049856
 30
0.0
 11
665.2310437748781
 21
364.8796091012013
 31
0.0
  0
LINE
  5
1115
330
2
100
AcDbEntity
  8
0
 48
0.3
100
AcDbLine
 10
665.7310437748785
 20
365.7456345049861
 30
0.0
 11
673.2310437748776
 21
365.7456345049861
 31
0.0
  0
LINE
  5
1118
330
2
100
AcDbEntity
  8
HIDS
  6
SEKKEI_H
100
AcDbLine
 10
670.231043774879
 20
456.4172073802403
 30
0.0
 11
670.2310437748776
 21
452.7456345049861
 31
0.0
  0
LINE
  5
1119
330
2
100
AcDbEntity
  8
HIDS
  6
SEKKEI_H
100
AcDbLine
 10
670.231043774879
 20
365.7456345049861
 30
0.0
 11
670.231043774879
 21
362.0740616297319
 31
0.0
  0
LINE
  5
111A
330
2
100
AcDbEntity
  8
HIDS
  6
SEKKEI_H
100
AcDbLine
 10
900.8875988732754
 20
773.2425856632451
 30
0.0
 11
904.5591717485297
 21
773.2425856632452
 31
0.0
  0
LINE
  5
111B
330
2
100
AcDbEntity
  8
HIDS
  6
SEKKEI_H
100
AcDbLine
 10
991.5591717485296
 20
773.2425856632464
 30
0.0
 11
995.2307446237838
 21
773.2425856632451
 31
0.0
  0
LINE
  5
1120
330
2
100
AcDbEntity
  8
0
100
AcDbLine
 10
584.9035125458088
 20
455.7815328897379
 30
0.0
 11
587.9035125458087
 21
457.5135836973068
 31
0.0
  0
LINE
  5
1121
330
2
100
AcDbEntity
  8
0
100
AcDbLine
 10
581.9035125458087
 20
460.9776853124444
 30
0.0
 11
584.9035125458088
 21
462.7097361200133
 31
0.0
  0
CIRCLE
  5
1122
330
2
100
AcDbEntity
  8
0
100
AcDbCircle
 10
584.9035125458088
 20
459.2456345048756
 30
0.0
 40
6.5
  0
LINE
  5
1123
330
2
100
AcDbEntity
  8
0
100
AcDbLine
 10
587.9035125458087
 20
460.9776853124444
 30
0.0
 11
584.9035125458088
 21
462.7097361200132
 31
0.0
  0
LINE
  5
1124
330
2
100
AcDbEntity
  8
0
100
AcDbLine
 10
584.9035125458088
 20
455.781532889738
 30
0.0
 11
581.9035125458087
 21
457.5135836973067
 31
0.0
  0
LINE
  5
1125
330
2
100
AcDbEntity
  8
0
100
AcDbLine
 10
587.9035125458087
 20
457.5135836973069
 30
0.0
 11
587.9035125458087
 21
460.9776853124444
 31
0.0
  0
LINE
  5
1126
330
2
100
AcDbEntity
  8
0
100
AcDbLine
 10
581.9035125458087
 20
457.5135836973066
 30
0.0
 11
581.9035125458087
 21
460.9776853124444
 31
0.0
  0
CIRCLE
  5
1127
330
2
100
AcDbEntity
  8
0
100
AcDbCircle
 10
584.9035125458088
 20
459.2456345048756
 30
0.0
 40
5.633974596215466
  0
CIRCLE
  5
1128
330
2
100
AcDbEntity
  8
0
100
AcDbCircle
 10
584.9035125458088
 20
459.2456345048756
 30
0.0
 40
7.25
  0
LINE
  5
1129
330
2
100
AcDbEntity
  8
0
100
AcDbLine
 10
484.9035125458088
 20
455.7815328898305
 30
0.0
 11
487.9035125458087
 21
457.5135836973995
 31
0.0
  0
LINE
  5
112A
330
2
100
AcDbEntity
  8
0
100
AcDbLine
 10
481.9035125458087
 20
460.977685312537
 30
0.0
 11
484.9035125458088
 21
462.709736120106
 31
0.0
  0
CIRCLE
  5
112B
330
2
100
AcDbEntity
  8
0
100
AcDbCircle
 10
484.9035125458088
 20
459.2456345049682
 30
0.0
 40
6.5
  0
LINE
  5
112C
330
2
100
AcDbEntity
  8
0
100
AcDbLine
 10
487.9035125458087
 20
460.977685312537
 30
0.0
 11
484.9035125458088
 21
462.7097361201059
 31
0.0
  0
LINE
  5
112D
330
2
100
AcDbEntity
  8
0
100
AcDbLine
 10
484.9035125458088
 20
455.7815328898306
 30
0.0
 11
481.9035125458087
 21
457.5135836973993
 31
0.0
  0
LINE
  5
112E
330
2
100
AcDbEntity
  8
0
100
AcDbLine
 10
487.9035125458087
 20
457.5135836973996
 30
0.0
 11
487.9035125458087
 21
460.9776853125372
 31
0.0
  0
LINE
  5
112F
330
2
100
AcDbEntity
  8
0
100
AcDbLine
 10
481.9035125458087
 20
457.5135836973992
 30
0.0
 11
481.9035125458087
 21
460.977685312537
 31
0.0
  0
CIRCLE
  5
1130
330
2
100
AcDbEntity
  8
0
100
AcDbCircle
 10
484.9035125458088
 20
459.2456345049682
 30
0.0
 40
5.633974596215466
  0
CIRCLE
  5
1131
330
2
100
AcDbEntity
  8
0
100
AcDbCircle
 10
484.9035125458088
 20
459.2456345049682
 30
0.0
 40
7.25
  0
LINE
  5
1132
330
2
100
AcDbEntity
  8
0
100
AcDbLine
 10
484.9035125457164
 20
355.7815328898943
 30
0.0
 11
487.903512545716
 21
357.5135836974633
 31
0.0
  0
LINE
  5
1133
330
2
100
AcDbEntity
  8
0
100
AcDbLine
 10
481.9035125457165
 20
360.9776853126009
 30
0.0
 11
484.9035125457164
 21
362.7097361201698
 31
0.0
  0
CIRCLE
  5
1134
330
2
100
AcDbEntity
  8
0
100
AcDbCircle
 10
484.9035125457164
 20
359.245634505032
 30
0.0
 40
6.5
  0
LINE
  5
1135
330
2
100
AcDbEntity
  8
0
100
AcDbLine
 10
487.903512545716
 20
360.9776853126009
 30
0.0
 11
484.9035125457164
 21
362.7097361201697
 31
0.0
  0
LINE
  5
1136
330
2
100
AcDbEntity
  8
0
100
AcDbLine
 10
484.9035125457164
 20
355.7815328898945
 30
0.0
 11
481.9035125457165
 21
357.5135836974632
 31
0.0
  0
LINE
  5
1137
330
2
100
AcDbEntity
  8
0
100
AcDbLine
 10
487.903512545716
 20
357.5135836974634
 30
0.0
 11
487.903512545716
 21
360.977685312601
 31
0.0
  0
LINE
  5
1138
330
2
100
AcDbEntity
  8
0
100
AcDbLine
 10
481.9035125457165
 20
357.5135836974631
 30
0.0
 11
481.9035125457165
 21
360.9776853126009
 31
0.0
  0
CIRCLE
  5
1139
330
2
100
AcDbEntity
  8
0
100
AcDbCircle
 10
484.9035125457164
 20
359.245634505032
 30
0.0
 40
5.633974596215466
  0
CIRCLE
  5
113A
330
2
100
AcDbEntity
  8
0
100
AcDbCircle
 10
484.9035125457164
 20
359.245634505032
 30
0.0
 40
7.25
  0
LINE
  5
113B
330
2
100
AcDbEntity
  8
0
100
AcDbLine
 10
584.9035125457856
 20
355.7815328897377
 30
0.0
 11
587.9035125457851
 21
357.5135836973067
 31
0.0
  0
LINE
  5
113C
330
2
100
AcDbEntity
  8
0
100
AcDbLine
 10
581.9035125457856
 20
360.9776853124443
 30
0.0
 11
584.9035125457856
 21
362.7097361200132
 31
0.0
  0
CIRCLE
  5
113D
330
2
100
AcDbEntity
  8
0
100
AcDbCircle
 10
584.9035125457856
 20
359.2456345048754
 30
0.0
 40
6.5
  0
LINE
  5
113E
330
2
100
AcDbEntity
  8
0
100
AcDbLine
 10
587.9035125457851
 20
360.9776853124443
 30
0.0
 11
584.9035125457856
 21
362.7097361200131
 31
0.0
  0
LINE
  5
113F
330
2
100
AcDbEntity
  8
0
100
AcDbLine
 10
584.9035125457856
 20
355.7815328897378
 30
0.0
 11
581.9035125457856
 21
357.5135836973066
 31
0.0
  0
LINE
  5
1140
330
2
100
AcDbEntity
  8
0
100
AcDbLine
 10
587.9035125457851
 20
357.5135836973068
 30
0.0
 11
587.9035125457851
 21
360.9776853124444
 31
0.0
  0
LINE
  5
1141
330
2
100
AcDbEntity
  8
0
100
AcDbLine
 10
581.9035125457856
 20
357.5135836973065
 30
0.0
 11
581.9035125457856
 21
360.9776853124443
 31
0.0
  0
CIRCLE
  5
1142
330
2
100
AcDbEntity
  8
0
100
AcDbCircle
 10
584.9035125457856
 20
359.2456345048754
 30
0.0
 40
5.633974596215466
  0
CIRCLE
  5
1143
330
2
100
AcDbEntity
  8
0
100
AcDbCircle
 10
584.9035125457856
 20
359.2456345048754
 30
0.0
 40
7.25
  0
LINE
  5
1144
330
2
100
AcDbEntity
  8
0
 48
0.3
100
AcDbLine
 10
675.2310437748776
 20
451.9956345049861
 30
0.0
 11
675.2310437748776
 21
466.4956345049861
 31
0.0
  0
LINE
  5
1145
330
2
100
AcDbEntity
  8
0
 48
0.3
100
AcDbLine
 10
675.2310437748776
 20
466.4956345049861
 30
0.0
 11
673.2310437748776
 21
466.4956345049861
 31
0.0
  0
LINE
  5
1146
330
2
100
AcDbEntity
  8
0
 48
0.3
100
AcDbLine
 10
675.2310437748776
 20
451.9956345049861
 30
0.0
 11
673.2310437748776
 21
451.9956345049861
 31
0.0
  0
LINE
  5
1147
330
2
100
AcDbEntity
  8
0
100
AcDbLine
 10
673.2310437748776
 20
451.9956345049861
 30
0.0
 11
673.2310437748776
 21
466.4956345049861
 31
0.0
  0
LINE
  5
1148
330
2
100
AcDbEntity
  8
0
 48
0.3
100
AcDbLine
 10
675.2310437748776
 20
351.9956345049861
 30
0.0
 11
675.2310437748776
 21
366.4956345049861
 31
0.0
  0
LINE
  5
1149
330
2
100
AcDbEntity
  8
0
 48
0.3
100
AcDbLine
 10
675.2310437748776
 20
366.4956345049861
 30
0.0
 11
673.2310437748776
 21
366.4956345049861
 31
0.0
  0
LINE
  5
114A
330
2
100
AcDbEntity
  8
0
 48
0.3
100
AcDbLine
 10
675.2310437748776
 20
351.9956345049861
 30
0.0
 11
673.2310437748776
 21
351.9956345049861
 31
0.0
  0
LINE
  5
114B
330
2
100
AcDbEntity
  8
0
100
AcDbLine
 10
673.2310437748776
 20
351.9956345049861
 30
0.0
 11
673.2310437748776
 21
366.4956345049861
 31
0.0
  0
LINE
  5
114C
330
2
100
AcDbEntity
  8
0
 48
0.3
100
AcDbLine
 10
905.3091717485298
 20
770.2425856632466
 30
0.0
 11
890.8091717485296
 21
770.2425856632465
 31
0.0
  0
LINE
  5
114D
330
2
100
AcDbEntity
  8
0
 48
0.3
100
AcDbLine
 10
890.8091717485296
 20
770.2425856632465
 30
0.0
 11
890.8091717485296
 21
768.2425856632464
 31
0.0
  0
LINE
  5
114E
330
2
100
AcDbEntity
  8
0
 48
0.3
100
AcDbLine
 10
905.3091717485298
 20
770.2425856632466
 30
0.0
 11
905.3091717485298
 21
768.2425856632465
 31
0.0
  0
LINE
  5
114F
330
2
100
AcDbEntity
  8
0
100
AcDbLine
 10
905.3091717485298
 20
768.2425856632465
 30
0.0
 11
890.8091717485296
 21
768.2425856632464
 31
0.0
  0
LINE
  5
1150
330
2
100
AcDbEntity
  8
0
 48
0.3
100
AcDbLine
 10
1005.309171748529
 20
770.2425856632466
 30
0.0
 11
990.8091717485296
 21
770.2425856632465
 31
0.0
  0
LINE
  5
1151
330
2
100
AcDbEntity
  8
0
 48
0.3
100
AcDbLine
 10
990.8091717485296
 20
770.2425856632465
 30
0.0
 11
990.8091717485296
 21
768.2425856632464
 31
0.0
  0
LINE
  5
1152
330
2
100
AcDbEntity
  8
0
 48
0.3
100
AcDbLine
 10
1005.309171748529
 20
770.2425856632466
 30
0.0
 11
1005.309171748529
 21
768.2425856632465
 31
0.0
  0
LINE
  5
1153
330
2
100
AcDbEntity
  8
0
100
AcDbLine
 10
1005.309171748529
 20
768.2425856632465
 30
0.0
 11
990.8091717485296
 21
768.2425856632464
 31
0.0
  0
LINE
  5
1154
330
2
100
AcDbEntity
  8
0
 48
0.3
100
AcDbLine
 10
675.2310437748776
 20
351.3155256040846
 30
0.0
 11
675.2310437748799
 21
467.1757434058876
 31
0.0
  0
LINE
  5
1155
330
2
100
AcDbEntity
  8
0
100
AcDbLine
 10
788.731043774879
 20
350.1532287552251
 30
0.0
 11
685.2310437748758
 21
349.2499979388817
 31
0.0
  0
LINE
  5
1156
330
2
100
AcDbEntity
  8
0
100
AcDbLine
 10
788.731043774879
 20
468.3380402547469
 30
0.0
 11
685.2310437748758
 21
469.2412710710905
 31
0.0
  0
LINE
  5
1157
330
2
100
AcDbEntity
  8
CENTER
100
AcDbLine
 10
574.9240135603961
 20
459.2456345048847
 30
0.0
 11
594.8830115312355
 21
459.2456345048661
 31
0.0
  0
LINE
  5
1158
330
2
100
AcDbEntity
  8
CENTER
100
AcDbLine
 10
584.9035125457996
 20
449.2661355194557
 30
0.0
 11
584.9035125458183
 21
469.2251334902953
 31
0.0
  0
LINE
  5
1159
330
2
100
AcDbEntity
  8
CENTER
100
AcDbLine
 10
574.9240135603725
 20
359.2456345048846
 30
0.0
 11
594.8830115312119
 21
359.245634504866
 31
0.0
  0
LINE
  5
115A
330
2
100
AcDbEntity
  8
CENTER
100
AcDbLine
 10
584.903512545776
 20
349.2661355194556
 30
0.0
 11
584.9035125457946
 21
369.2251334902951
 31
0.0
  0
LINE
  5
115B
330
2
100
AcDbEntity
  8
CENTER
100
AcDbLine
 10
474.9240135603034
 20
359.2456345050412
 30
0.0
 11
494.8830115311428
 21
359.2456345050226
 31
0.0
  0
LINE
  5
115C
330
2
100
AcDbEntity
  8
CENTER
100
AcDbLine
 10
484.9035125457069
 20
349.2661355196122
 30
0.0
 11
484.9035125457255
 21
369.2251334904517
 31
0.0
  0
LINE
  5
115D
330
2
100
AcDbEntity
  8
CENTER
100
AcDbLine
 10
587.4035125457464
 20
365.0838417037718
 30
0.0
 11
587.4035125457569
 21
376.407427306152
 31
0.0
  0
LINE
  5
115E
330
2
100
AcDbEntity
  8
CENTER
100
AcDbLine
 10
593.0653053469415
 20
370.7456345049567
 30
0.0
 11
581.7417197445613
 21
370.7456345049671
 31
0.0
  0
LINE
  5
115F
330
2
100
AcDbEntity
  8
0
100
AcDbLine
 10
429.4035125457655
 20
469.7456345049857
 30
0.0
 11
443.4035125457655
 21
469.7456345049857
 31
0.0
  0
ARC
  5
1160
330
2
100
AcDbEntity
  8
0
100
AcDbCircle
 10
443.4035125457655
 20
467.7456345049858
 30
0.0
 40
2.0
100
AcDbArc
 50
0.0
 51
90.0
  0
LINE
  5
1161
330
2
100
AcDbEntity
  8
0
100
AcDbLine
 10
429.4035125457655
 20
348.7456345049865
 30
0.0
 11
443.4035125457655
 21
348.7456345049865
 31
0.0
  0
ARC
  5
1162
330
2
100
AcDbEntity
  8
0
100
AcDbCircle
 10
443.4035125457655
 20
350.7456345049865
 30
0.0
 40
2.0
100
AcDbArc
 50
270.0
 51
0.0
  0
LINE
  5
1167
330
2
100
AcDbEntity
  8
CENTER
100
AcDbLine
 10
865.9414797527855
 20
162.8693355132561
 30
0.0
 11
684.9414797527854
 21
162.8693355132561
 31
0.0
  0
LINE
  5
1168
330
2
100
AcDbEntity
  8
0
100
AcDbLine
 10
720.4414797527963
 20
222.8693355132559
 30
0.0
 11
720.4414797527954
 21
182.7156038787113
 31
0.0
  0
LINE
  5
1169
330
2
100
AcDbEntity
  8
0
100
AcDbLine
 10
720.441479752794
 20
143.0230671478009
 30
0.0
 11
720.4414797527927
 21
102.8693355132561
 31
0.0
  0
LINE
  5
116A
330
2
100
AcDbEntity
  8
0
100
AcDbLine
 10
842.9414797527963
 20
200.9379579636413
 30
0.0
 11
842.9414797527968
 21
184.8693355132559
 31
0.0
  0
LINE
  5
116B
330
2
100
AcDbEntity
  8
0
100
AcDbLine
 10
842.9414797527972
 20
140.8693355132561
 30
0.0
 11
842.9414797527972
 21
124.8007130628705
 31
0.0
  0
ARC
  5
116C
330
2
100
AcDbEntity
  8
0
100
AcDbCircle
 10
840.9414797527972
 20
124.8007130628705
 30
0.0
 40
2.0
100
AcDbArc
 50
271.9999999999775
 51
0.0
  0
ARC
  5
116D
330
2
100
AcDbEntity
  8
0
100
AcDbCircle
 10
840.9414797527968
 20
200.9379579636413
 30
0.0
 40
2.0
100
AcDbArc
 50
0.0
 51
87.99999999999636
  0
LINE
  5
116E
330
2
100
AcDbEntity
  8
CENTER
100
AcDbLine
 10
756.9414797527927
 20
93.19184883765728
 30
0.0
 11
756.9414797527927
 21
235.6196036023477
 31
0.0
  0
LINE
  5
116F
330
2
100
AcDbEntity
  8
0
100
AcDbLine
 10
841.0112787462015
 20
202.9367396176794
 30
0.0
 11
836.6622837791767
 21
203.0886098684436
 31
0.0
  0
LINE
  5
1170
330
2
100
AcDbEntity
  8
0
100
AcDbLine
 10
841.0112787462024
 20
122.8019314088323
 30
0.0
 11
836.6622837791826
 21
122.6500611580685
 31
0.0
  0
LINE
  5
1171
330
2
100
AcDbEntity
  8
0
100
AcDbLine
 10
720.4414797527931
 20
112.8693355132568
 30
0.0
 11
822.4414797528018
 21
112.8693355132559
 31
0.0
  0
LINE
  5
1172
330
2
100
AcDbEntity
  8
0
100
AcDbLine
 10
822.4414797528012
 20
122.8693355132582
 30
0.0
 11
720.4414797527931
 21
122.8693355132582
 31
0.0
  0
LINE
  5
1173
330
2
100
AcDbEntity
  8
0
100
AcDbLine
 10
822.4414797528012
 20
202.8693355132536
 30
0.0
 11
720.4414797527963
 21
202.8693355132536
 31
0.0
  0
LINE
  5
1174
330
2
100
AcDbEntity
  8
0
100
AcDbLine
 10
822.4414797528018
 20
212.8693355132577
 30
0.0
 11
720.4414797527959
 21
212.8693355132577
 31
0.0
  0
ARC
  5
1175
330
2
100
AcDbEntity
  8
0
100
AcDbCircle
 10
836.9414797527962
 20
211.0837364845963
 30
0.0
 40
8.0
100
AcDbArc
 50
180.0
 51
267.9999999999963
  0
ARC
  5
1176
330
2
100
AcDbEntity
  8
0
100
AcDbCircle
 10
836.9414797528023
 20
114.654934541916
 30
0.0
 40
8.0
100
AcDbArc
 50
92.00000000000365
 51
180.0
  0
LINE
  5
1177
330
2
100
AcDbEntity
  8
0
100
AcDbLine
 10
696.9414797527945
 20
199.7919852440664
 30
0.0
 11
696.9414797527941
 21
184.8693355132561
 31
0.0
  0
LINE
  5
1178
330
2
100
AcDbEntity
  8
0
 48
0.5
100
AcDbLine
 10
705.4414797527945
 20
202.8693355132561
 30
0.0
 11
704.9414797527945
 21
202.3693355132563
 31
0.0
  0
LINE
  5
1179
330
2
100
AcDbEntity
  8
0
100
AcDbLine
 10
705.4414797527958
 20
119.3693355132561
 30
0.0
 11
705.4414797527958
 21
128.2737344941041
 31
0.0
  0
LINE
  5
117A
330
2
100
AcDbEntity
  8
0
100
AcDbLine
 10
705.4414797527945
 20
197.464945302608
 30
0.0
 11
705.4414797527945
 21
206.3693355132561
 31
0.0
  0
ARC
  5
117B
330
2
100
AcDbEntity
  8
0
100
AcDbCircle
 10
699.7414797527937
 20
199.9693355132558
 30
0.0
 40
0.3
100
AcDbArc
 50
180.0
 51
270.0
  0
ARC
  5
117C
330
2
100
AcDbEntity
  8
0
100
AcDbCircle
 10
701.1414797527939
 20
199.9693355132558
 30
0.0
 40
0.3
100
AcDbArc
 50
270.0
 51
0.0
  0
LINE
  5
117D
330
2
100
AcDbEntity
  8
0
 48
0.5
100
AcDbLine
 10
701.4414797527936
 20
200.1693355132558
 30
0.0
 11
701.6414797527938
 21
200.3693355132559
 31
0.0
  0
LINE
  5
117E
330
2
100
AcDbEntity
  8
0
 48
0.5
100
AcDbLine
 10
699.7414797527937
 20
199.6693355132558
 30
0.0
 11
701.1414797527939
 21
199.6693355132558
 31
0.0
  0
LINE
  5
117F
330
2
100
AcDbEntity
  8
0
100
AcDbLine
 10
697.9414797527936
 20
200.3693355132559
 30
0.0
 11
696.9414797527936
 21
199.7919852440661
 31
0.0
  0
LINE
  5
1180
330
2
100
AcDbEntity
  8
0
100
AcDbLine
 10
699.4414797527936
 20
200.0693355132557
 30
0.0
 11
699.4414797527936
 21
198.1649010436846
 31
0.0
  0
LINE
  5
1181
330
2
100
AcDbEntity
  8
0
100
AcDbLine
 10
699.4414797527936
 20
127.5737673256725
 30
0.0
 11
699.4414797527936
 21
125.6693355132565
 31
0.0
  0
ARC
  5
1182
330
2
100
AcDbEntity
  8
0
 48
0.5
100
AcDbCircle
 10
699.1414797527938
 20
200.0693355132557
 30
0.0
 40
0.3
100
AcDbArc
 50
0.0
 51
90.0
  0
LINE
  5
1183
330
2
100
AcDbEntity
  8
0
 48
0.5
100
AcDbLine
 10
697.9414797527936
 20
200.3693355132559
 30
0.0
 11
699.1414797527938
 21
200.3693355132559
 31
0.0
  0
LINE
  5
1184
330
2
100
AcDbEntity
  8
0
 48
0.5
100
AcDbLine
 10
701.6414797527938
 20
200.3693355132559
 30
0.0
 11
704.9414797527936
 21
200.3693355132559
 31
0.0
  0
LINE
  5
1185
330
2
100
AcDbEntity
  8
HIDS
  6
SEKKEI_H
 48
0.5
100
AcDbLine
 10
709.8556933151683
 20
215.2835490756298
 30
0.0
 11
706.027266190423
 21
211.4551219508835
 31
0.0
  0
ARC
  5
1186
330
2
100
AcDbEntity
  8
HIDS
  6
SEKKEI_H
100
AcDbCircle
 10
707.4414797527959
 20
210.0409083885103
 30
0.0
 40
2.0
100
AcDbArc
 50
135.0000000000094
 51
180.0
  0
ARC
  5
1187
330
2
100
AcDbEntity
  8
HIDS
  6
SEKKEI_H
 48
0.5
100
AcDbCircle
 10
708.4414797527945
 20
216.6977626380031
 30
0.0
 40
2.0
100
AcDbArc
 50
314.9999999999729
 51
0.0
  0
ARC
  5
1188
330
2
100
AcDbEntity
  8
0
 48
0.3
100
AcDbCircle
 10
712.4414797527945
 20
220.7994444141576
 30
0.0
 40
2.0
100
AcDbArc
 50
90.49999999999151
 51
180.0
  0
LINE
  5
1189
330
2
100
AcDbEntity
  8
0
100
AcDbLine
 10
712.4240266817976
 20
222.799368260286
 30
0.0
 11
720.4414797527945
 21
222.8693355132559
 31
0.0
  0
LINE
  5
118A
330
2
100
AcDbEntity
  8
0
100
AcDbLine
 10
696.9414797527945
 20
125.9466857824458
 30
0.0
 11
696.9414797527941
 21
140.8693355132559
 31
0.0
  0
LINE
  5
118B
330
2
100
AcDbEntity
  8
0
 48
0.5
100
AcDbLine
 10
705.4414797527945
 20
122.8693355132561
 30
0.0
 11
704.9414797527945
 21
123.3693355132559
 31
0.0
  0
ARC
  5
118C
330
2
100
AcDbEntity
  8
0
100
AcDbCircle
 10
699.7414797527937
 20
125.7693355132564
 30
0.0
 40
0.3
100
AcDbArc
 50
90.0
 51
180.0
  0
ARC
  5
118D
330
2
100
AcDbEntity
  8
0
100
AcDbCircle
 10
701.1414797527939
 20
125.7693355132564
 30
0.0
 40
0.3
100
AcDbArc
 50
0.0
 51
90.0
  0
LINE
  5
118E
330
2
100
AcDbEntity
  8
0
100
AcDbLine
 10
701.4414797527936
 20
125.5693355132564
 30
0.0
 11
701.4414797527936
 21
127.6733430936301
 31
0.0
  0
LINE
  5
118F
330
2
100
AcDbEntity
  8
0
100
AcDbLine
 10
701.4414797527936
 20
198.0653256675654
 30
0.0
 11
701.4414797527936
 21
200.1693355132558
 31
0.0
  0
LINE
  5
1190
330
2
100
AcDbEntity
  8
0
 48
0.5
100
AcDbLine
 10
701.4414797527936
 20
125.5693355132564
 30
0.0
 11
701.6414797527938
 21
125.3693355132563
 31
0.0
  0
LINE
  5
1191
330
2
100
AcDbEntity
  8
0
 48
0.5
100
AcDbLine
 10
699.7414797527937
 20
126.0693355132564
 30
0.0
 11
701.1414797527939
 21
126.0693355132564
 31
0.0
  0
LINE
  5
1192
330
2
100
AcDbEntity
  8
0
100
AcDbLine
 10
697.9414797527936
 20
125.3693355132563
 30
0.0
 11
696.9414797527936
 21
125.9466857824461
 31
0.0
  0
ARC
  5
1193
330
2
100
AcDbEntity
  8
0
 48
0.5
100
AcDbCircle
 10
699.1414797527938
 20
125.6693355132565
 30
0.0
 40
0.3
100
AcDbArc
 50
270.0
 51
0.0
  0
LINE
  5
1194
330
2
100
AcDbEntity
  8
0
 48
0.5
100
AcDbLine
 10
697.9414797527936
 20
125.3693355132563
 30
0.0
 11
699.1414797527938
 21
125.3693355132563
 31
0.0
  0
LINE
  5
1195
330
2
100
AcDbEntity
  8
0
 48
0.5
100
AcDbLine
 10
701.6414797527938
 20
125.3693355132563
 30
0.0
 11
704.9414797527936
 21
125.3693355132563
 31
0.0
  0
LINE
  5
1196
330
2
100
AcDbEntity
  8
0
 48
0.3
100
AcDbLine
 10
710.4414797527945
 20
104.8693355132569
 30
0.0
 11
710.4414797527945
 21
132.2927940924651
 31
0.0
  0
LINE
  5
1197
330
2
100
AcDbEntity
  8
0
 48
0.3
100
AcDbLine
 10
710.4414797527945
 20
193.4458512822654
 30
0.0
 11
710.4414797527945
 21
220.7994444141576
 31
0.0
  0
LINE
  5
1198
330
2
100
AcDbEntity
  8
0
100
AcDbLine
 10
720.4414797527945
 20
102.8693355132563
 30
0.0
 11
720.4414797527945
 21
143.0230671478009
 31
0.0
  0
LINE
  5
1199
330
2
100
AcDbEntity
  8
0
100
AcDbLine
 10
720.4414797527945
 20
182.7156038787112
 30
0.0
 11
720.4414797527945
 21
222.8693355132559
 31
0.0
  0
LINE
  5
119A
330
2
100
AcDbEntity
  8
HIDS
  6
SEKKEI_H
 48
0.5
100
AcDbLine
 10
709.8556933151683
 20
110.4551219508824
 30
0.0
 11
706.027266190423
 21
114.2835490756288
 31
0.0
  0
ARC
  5
119B
330
2
100
AcDbEntity
  8
HIDS
  6
SEKKEI_H
100
AcDbCircle
 10
707.4414797527959
 20
115.6977626380019
 30
0.0
 40
2.0
100
AcDbArc
 50
180.0
 51
224.9999999999905
  0
ARC
  5
119C
330
2
100
AcDbEntity
  8
HIDS
  6
SEKKEI_H
 48
0.5
100
AcDbCircle
 10
708.4414797527945
 20
109.040908388509
 30
0.0
 40
2.0
100
AcDbArc
 50
0.0
 51
45.00000000002708
  0
ARC
  5
119D
330
2
100
AcDbEntity
  8
0
 48
0.3
100
AcDbCircle
 10
712.4414797527945
 20
104.9392266123546
 30
0.0
 40
2.0
100
AcDbArc
 50
180.0
 51
269.5000000000084
  0
LINE
  5
119E
330
2
100
AcDbEntity
  8
0
100
AcDbLine
 10
712.4240266817976
 20
102.9393027662262
 30
0.0
 11
720.4414797527945
 21
102.8693355132563
 31
0.0
  0
LINE
  5
119F
330
2
100
AcDbEntity
  8
0
100
AcDbLine
 10
697.9414797527931
 20
195.3693355132564
 30
0.0
 11
697.9414797527936
 21
184.8693355132561
 31
0.0
  0
LINE
  5
11A0
330
2
100
AcDbEntity
  8
0
100
AcDbLine
 10
707.9414797527936
 20
195.369335513256
 30
0.0
 11
707.9414797527936
 21
184.8693355132561
 31
0.0
  0
LINE
  5
11A1
330
2
100
AcDbEntity
  8
0
100
AcDbLine
 10
697.9414797527936
 20
140.8693355132559
 30
0.0
 11
697.9414797527936
 21
130.3693355132561
 31
0.0
  0
LINE
  5
11A2
330
2
100
AcDbEntity
  8
0
100
AcDbLine
 10
701.6414797527938
 20
200.3693355132559
 30
0.0
 11
701.6414797527938
 21
198.0495906194216
 31
0.0
  0
LINE
  5
11A3
330
2
100
AcDbEntity
  8
0
100
AcDbLine
 10
701.6414797527938
 20
127.6890783737376
 30
0.0
 11
701.6414797527938
 21
125.3693355132563
 31
0.0
  0
LINE
  5
11A4
330
2
100
AcDbEntity
  8
0
100
AcDbLine
 10
704.9414797527945
 20
202.3693355132563
 30
0.0
 11
704.9414797527945
 21
197.5826382273184
 31
0.0
  0
LINE
  5
11A5
330
2
100
AcDbEntity
  8
0
100
AcDbLine
 10
704.9414797527945
 20
128.1560398426891
 30
0.0
 11
704.9414797527945
 21
123.3693355132561
 31
0.0
  0
LINE
  5
11B0
330
2
100
AcDbEntity
  8
0
100
AcDbLine
 10
711.9414797527944
 20
212.8693355132577
 30
0.0
 11
720.4414797527963
 21
212.8693355132577
 31
0.0
  0
LINE
  5
11B1
330
2
100
AcDbEntity
  8
0
100
AcDbLine
 10
711.9414797527944
 20
202.8693355132536
 30
0.0
 11
720.4414797527959
 21
202.8693355132536
 31
0.0
  0
LINE
  5
11B2
330
2
100
AcDbEntity
  8
0
100
AcDbLine
 10
711.9414797527944
 20
122.8693355132582
 30
0.0
 11
720.4414797527931
 21
122.8693355132582
 31
0.0
  0
LINE
  5
11B3
330
2
100
AcDbEntity
  8
0
100
AcDbLine
 10
711.9414797527944
 20
112.8693355132568
 30
0.0
 11
720.4414797527931
 21
112.8693355132568
 31
0.0
  0
LINE
  5
11B4
330
2
100
AcDbEntity
  8
0
 48
0.3
100
AcDbLine
 10
700.9414797527945
 20
219.3693355132561
 30
0.0
 11
700.9414797527945
 21
206.3693355132561
 31
0.0
  0
LINE
  5
11B5
330
2
100
AcDbEntity
  8
0
 48
0.3
100
AcDbLine
 10
700.4414797527945
 20
218.5033101094702
 30
0.0
 11
700.4414797527945
 21
207.2353609170406
 31
0.0
  0
LINE
  5
11B6
330
2
100
AcDbEntity
  8
CENTER
 48
0.5
100
AcDbLine
 10
697.4414797527945
 20
212.8693355132561
 30
0.0
 11
716.4414797527945
 21
212.8693355132561
 31
0.0
  0
LINE
  5
11B7
330
2
100
AcDbEntity
  8
0
 48
0.3
100
AcDbLine
 10
700.9414797527945
 20
206.3693355132561
 30
0.0
 11
700.4414797527945
 21
207.2353609170406
 31
0.0
  0
LINE
  5
11B8
330
2
100
AcDbEntity
  8
0
 48
0.3
100
AcDbLine
 10
700.9414797527945
 20
206.3693355132561
 30
0.0
 11
708.4414797527945
 21
206.3693355132561
 31
0.0
  0
LINE
  5
11B9
330
2
100
AcDbEntity
  8
0
 48
0.3
100
AcDbLine
 10
700.9414797527949
 20
219.3693355132556
 30
0.0
 11
700.441479752795
 21
218.5033101094713
 31
0.0
  0
LINE
  5
11BA
330
2
100
AcDbEntity
  8
0
 48
0.3
100
AcDbLine
 10
700.9414797527954
 20
219.3693355132561
 30
0.0
 11
708.4414797527945
 21
219.3693355132561
 31
0.0
  0
LINE
  5
11BB
330
2
100
AcDbEntity
  8
0
 48
0.3
100
AcDbLine
 10
700.9414797527945
 20
119.3693355132561
 30
0.0
 11
700.9414797527945
 21
106.3693355132561
 31
0.0
  0
LINE
  5
11BC
330
2
100
AcDbEntity
  8
0
 48
0.3
100
AcDbLine
 10
700.4414797527945
 20
118.5033101094702
 30
0.0
 11
700.4414797527945
 21
107.2353609170406
 31
0.0
  0
LINE
  5
11BD
330
2
100
AcDbEntity
  8
CENTER
 48
0.5
100
AcDbLine
 10
697.4414797527945
 20
112.8693355132561
 30
0.0
 11
716.4414797527945
 21
112.8693355132561
 31
0.0
  0
LINE
  5
11BE
330
2
100
AcDbEntity
  8
0
 48
0.3
100
AcDbLine
 10
700.9414797527945
 20
106.3693355132561
 30
0.0
 11
700.4414797527945
 21
107.2353609170406
 31
0.0
  0
LINE
  5
11BF
330
2
100
AcDbEntity
  8
0
 48
0.3
100
AcDbLine
 10
700.9414797527945
 20
106.3693355132561
 30
0.0
 11
708.4414797527945
 21
106.3693355132561
 31
0.0
  0
LINE
  5
11C0
330
2
100
AcDbEntity
  8
0
 48
0.3
100
AcDbLine
 10
700.9414797527949
 20
119.3693355132557
 30
0.0
 11
700.441479752795
 21
118.5033101094713
 31
0.0
  0
LINE
  5
11C1
330
2
100
AcDbEntity
  8
0
 48
0.3
100
AcDbLine
 10
700.9414797527954
 20
119.3693355132561
 30
0.0
 11
708.4414797527945
 21
119.3693355132561
 31
0.0
  0
LINE
  5
11C2
330
2
100
AcDbEntity
  8
HIDS
  6
SEKKEI_H
100
AcDbLine
 10
705.4414797527958
 20
210.0409083885103
 30
0.0
 11
705.4414797527945
 21
206.3693355132561
 31
0.0
  0
LINE
  5
11C3
330
2
100
AcDbEntity
  8
HIDS
  6
SEKKEI_H
100
AcDbLine
 10
705.4414797527958
 20
119.3693355132561
 30
0.0
 11
705.4414797527958
 21
115.6977626380019
 31
0.0
  0
LINE
  5
11C4
330
2
100
AcDbEntity
  8
0
100
AcDbLine
 10
818.9414797527854
 20
176.8693355132559
 30
0.0
 11
833.9414797527854
 21
176.8693355132559
 31
0.0
  0
LINE
  5
11C5
330
2
100
AcDbEntity
  8
0
 48
0.5
100
AcDbLine
 10
855.9414797527853
 20
140.8693355132559
 30
0.0
 11
829.668972541717
 21
140.8693355132563
 31
0.0
  0
LINE
  5
11C6
330
2
100
AcDbEntity
  8
0
 48
0.5
100
AcDbLine
 10
855.9414797527853
 20
184.8693355132559
 30
0.0
 11
829.668972541717
 21
184.8693355132559
 31
0.0
  0
LINE
  5
11C7
330
2
100
AcDbEntity
  8
0
100
AcDbLine
 10
694.9414797527858
 20
180.1693355132562
 30
0.0
 11
855.9414797527853
 21
180.1693355132558
 31
0.0
  0
LINE
  5
11C8
330
2
100
AcDbEntity
  8
0
100
AcDbLine
 10
833.9414797527854
 20
177.5693355132561
 30
0.0
 11
833.9414797527854
 21
148.1693355132561
 31
0.0
  0
LINE
  5
11C9
330
2
100
AcDbEntity
  8
0
100
AcDbLine
 10
835.2914797527853
 20
177.5693355132561
 30
0.0
 11
835.2914797527853
 21
148.1693355132561
 31
0.0
  0
LINE
  5
11CA
330
2
100
AcDbEntity
  8
0
100
AcDbLine
 10
853.9414797527854
 20
176.8693355132559
 30
0.0
 11
853.9414797527854
 21
148.8693355132559
 31
0.0
  0
LINE
  5
11CB
330
2
100
AcDbEntity
  8
0
100
AcDbLine
 10
844.4414797527853
 20
148.3693355132559
 30
0.0
 11
844.4414797527853
 21
177.3693355132559
 31
0.0
  0
LINE
  5
11CC
330
2
100
AcDbEntity
  8
0
100
AcDbLine
 10
851.4414797527853
 20
148.3693355132559
 30
0.0
 11
851.4414797527853
 21
177.3693355132559
 31
0.0
  0
LINE
  5
11CD
330
2
100
AcDbEntity
  8
0
100
AcDbLine
 10
855.9414797527853
 20
184.8693355132559
 30
0.0
 11
855.9414797527853
 21
140.8693355132556
 31
0.0
  0
LINE
  5
11CE
330
2
100
AcDbEntity
  8
0
100
AcDbLine
 10
851.4414797527853
 20
148.8693355132559
 30
0.0
 11
853.9414797527854
 21
148.8693355132559
 31
0.0
  0
LINE
  5
11CF
330
2
100
AcDbEntity
  8
0
100
AcDbLine
 10
853.9414797527854
 20
148.8693355132559
 30
0.0
 11
855.9414797527853
 21
147.7146349748768
 31
0.0
  0
LINE
  5
11D0
330
2
100
AcDbEntity
  8
0
100
AcDbLine
 10
835.2914797527853
 20
148.8693355132559
 30
0.0
 11
844.4414797527853
 21
148.8693355132559
 31
0.0
  0
LINE
  5
11D1
330
2
100
AcDbEntity
  8
0
100
AcDbLine
 10
844.4414797527853
 20
148.3693355132559
 30
0.0
 11
851.4414797527853
 21
148.3693355132559
 31
0.0
  0
LINE
  5
11D2
330
2
100
AcDbEntity
  8
0
100
AcDbLine
 10
833.9414797527854
 20
148.1693355132561
 30
0.0
 11
835.2914797527853
 21
148.1693355132561
 31
0.0
  0
LINE
  5
11D3
330
2
100
AcDbEntity
  8
0
100
AcDbLine
 10
851.4414797527853
 20
176.8693355132559
 30
0.0
 11
853.9414797527854
 21
176.8693355132559
 31
0.0
  0
LINE
  5
11D4
330
2
100
AcDbEntity
  8
0
100
AcDbLine
 10
853.9414797527854
 20
176.8693355132554
 30
0.0
 11
855.9414797527853
 21
178.0240360516349
 31
0.0
  0
LINE
  5
11D5
330
2
100
AcDbEntity
  8
0
100
AcDbLine
 10
835.2914797527853
 20
176.8693355132559
 30
0.0
 11
844.4414797527853
 21
176.8693355132559
 31
0.0
  0
LINE
  5
11D6
330
2
100
AcDbEntity
  8
0
100
AcDbLine
 10
844.4414797527853
 20
177.3693355132559
 30
0.0
 11
851.4414797527853
 21
177.3693355132559
 31
0.0
  0
LINE
  5
11D7
330
2
100
AcDbEntity
  8
HOJO
100
AcDbLine
 10
850.9413727527855
 20
180.1692925132561
 30
0.0
 11
850.9413727527855
 21
184.8692895132558
 31
0.0
  0
LINE
  5
11D8
330
2
100
AcDbEntity
  8
HOJO
100
AcDbLine
 10
844.9413727527856
 20
180.1692925132561
 30
0.0
 11
844.9413727527856
 21
184.8692895132558
 31
0.0
  0
LINE
  5
11D9
330
2
100
AcDbEntity
  8
CENTER
100
AcDbLine
 10
847.9413727527855
 20
178.3550361370464
 30
0.0
 11
847.9413727527855
 21
186.8165235037715
 31
0.0
  0
LINE
  5
11DA
330
2
100
AcDbEntity
  8
0
100
AcDbLine
 10
845.5413727527854
 20
180.1692925132561
 30
0.0
 11
845.5413727527854
 21
184.8692895132558
 31
0.0
  0
LINE
  5
11DB
330
2
100
AcDbEntity
  8
0
100
AcDbLine
 10
850.3413727527853
 20
180.1692925132561
 30
0.0
 11
850.3413727527853
 21
184.8692895132558
 31
0.0
  0
LINE
  5
11DC
330
2
100
AcDbEntity
  8
0
100
AcDbLine
 10
833.9414797527854
 20
177.5693355132561
 30
0.0
 11
835.2914797527853
 21
177.5693355132561
 31
0.0
  0
LINE
  5
11DD
330
2
100
AcDbEntity
  8
0
100
AcDbLine
 10
724.9414797527858
 20
177.3693355132561
 30
0.0
 11
818.9414797527854
 21
177.3693355132569
 31
0.0
  0
LINE
  5
11DE
330
2
100
AcDbEntity
  8
0
100
AcDbLine
 10
818.9414797527854
 20
177.3693355132559
 30
0.0
 11
818.9414797527854
 21
148.3693355132553
 31
0.0
  0
LINE
  5
11DF
330
2
100
AcDbEntity
  8
0
100
AcDbLine
 10
696.9414797527859
 20
176.8693355132561
 30
0.0
 11
696.9414797527859
 21
148.8693355132556
 31
0.0
  0
LINE
  5
11E0
330
2
100
AcDbEntity
  8
0
100
AcDbLine
 10
710.9414797527858
 20
177.5693355132561
 30
0.0
 11
710.9414797527858
 21
148.1693355132556
 31
0.0
  0
LINE
  5
11E1
330
2
100
AcDbEntity
  8
0
100
AcDbLine
 10
709.591479752786
 20
177.5693355132561
 30
0.0
 11
709.591479752786
 21
148.1693355132556
 31
0.0
  0
LINE
  5
11E2
330
2
100
AcDbEntity
  8
0
100
AcDbLine
 10
724.9414797527858
 20
177.3693355132563
 30
0.0
 11
724.9414797527858
 21
148.369335513256
 31
0.0
  0
LINE
  5
11E3
330
2
100
AcDbEntity
  8
0
100
AcDbLine
 10
694.9414797527858
 20
184.8693355132561
 30
0.0
 11
694.9414797527858
 21
140.8693355132559
 31
0.0
  0
LINE
  5
11E4
330
2
100
AcDbEntity
  8
0
 48
0.5
100
AcDbLine
 10
694.9414797527858
 20
140.8693355132559
 30
0.0
 11
711.7996798068364
 21
140.8693355132559
 31
0.0
  0
LINE
  5
11E5
330
2
100
AcDbEntity
  8
0
100
AcDbLine
 10
696.9414797527859
 20
148.8693355132556
 30
0.0
 11
709.591479752786
 21
148.8693355132559
 31
0.0
  0
LINE
  5
11E6
330
2
100
AcDbEntity
  8
0
100
AcDbLine
 10
709.591479752786
 20
148.1693355132556
 30
0.0
 11
710.9414797527858
 21
148.1693355132556
 31
0.0
  0
LINE
  5
11E7
330
2
100
AcDbEntity
  8
0
100
AcDbLine
 10
696.9414797527859
 20
148.8693355132556
 30
0.0
 11
694.9414797527858
 21
147.7146349748764
 31
0.0
  0
LINE
  5
11E8
330
2
100
AcDbEntity
  8
0
 48
0.5
100
AcDbLine
 10
694.9414797527858
 20
184.8693355132561
 30
0.0
 11
711.7996798068359
 21
184.8693355132561
 31
0.0
  0
LINE
  5
11E9
330
2
100
AcDbEntity
  8
0
100
AcDbLine
 10
696.9414797527859
 20
176.8693355132561
 30
0.0
 11
709.591479752786
 21
176.8693355132561
 31
0.0
  0
LINE
  5
11EA
330
2
100
AcDbEntity
  8
0
100
AcDbLine
 10
710.9414797527858
 20
176.8693355132561
 30
0.0
 11
724.9414797527858
 21
176.8693355132561
 31
0.0
  0
LINE
  5
11EB
330
2
100
AcDbEntity
  8
0
100
AcDbLine
 10
710.9414797527858
 20
176.8693355132563
 30
0.0
 11
724.9414797527858
 21
176.8693355132563
 31
0.0
  0
LINE
  5
11EC
330
2
100
AcDbEntity
  8
0
100
AcDbLine
 10
709.591479752786
 20
177.5693355132561
 30
0.0
 11
710.9414797527858
 21
177.5693355132561
 31
0.0
  0
LINE
  5
11ED
330
2
100
AcDbEntity
  8
0
100
AcDbLine
 10
696.9414797527859
 20
176.8693355132561
 30
0.0
 11
694.9414797527858
 21
178.0240360516354
 31
0.0
  0
LINE
  5
11EE
330
2
100
AcDbEntity
  8
0
100
AcDbLine
 10
818.9414797527854
 20
148.8693355132563
 30
0.0
 11
833.9414797527854
 21
148.8693355132563
 31
0.0
  0
LINE
  5
11EF
330
2
100
AcDbEntity
  8
0
100
AcDbLine
 10
724.9414797527858
 20
148.369335513256
 30
0.0
 11
818.9414797527854
 21
148.3693355132553
 31
0.0
  0
LINE
  5
11F0
330
2
100
AcDbEntity
  8
0
100
AcDbLine
 10
710.9414797527858
 20
148.8693355132558
 30
0.0
 11
724.9414797527858
 21
148.8693355132558
 31
0.0
  0
LINE
  5
11F1
330
2
100
AcDbEntity
  8
0
100
AcDbLine
 10
707.9414797527936
 20
195.3693355132561
 30
0.0
 11
697.9414797527936
 21
184.8693355132561
 31
0.0
  0
LINE
  5
11F2
330
2
100
AcDbEntity
  8
0
100
AcDbLine
 10
697.9414797527936
 20
195.3693355132561
 30
0.0
 11
707.9414797527936
 21
184.8693355132561
 31
0.0
  0
LINE
  5
11F3
330
2
100
AcDbEntity
  8
0
100
AcDbLine
 10
707.9414797527936
 20
130.3693355132561
 30
0.0
 11
697.9414797527931
 21
130.3693355132561
 31
0.0
  0
LINE
  5
11F4
330
2
100
AcDbEntity
  8
0
100
AcDbLine
 10
697.9414797527931
 20
130.3693355132558
 30
0.0
 11
697.9414797527936
 21
140.8693355132561
 31
0.0
  0
LINE
  5
11F5
330
2
100
AcDbEntity
  8
0
100
AcDbLine
 10
707.9414797527936
 20
130.3693355132562
 30
0.0
 11
707.9414797527936
 21
140.8693355132561
 31
0.0
  0
LINE
  5
11F6
330
2
100
AcDbEntity
  8
0
100
AcDbLine
 10
707.9414797527936
 20
130.3693355132561
 30
0.0
 11
697.9414797527936
 21
140.8693355132561
 31
0.0
  0
LINE
  5
11F7
330
2
100
AcDbEntity
  8
0
100
AcDbLine
 10
697.9414797527936
 20
130.3693355132561
 30
0.0
 11
707.9414797527936
 21
140.8693355132561
 31
0.0
  0
LINE
  5
11F8
330
2
100
AcDbEntity
  8
0
100
AcDbLine
 10
697.9414797527936
 20
127.5493547684402
 30
0.0
 11
697.9414797527936
 21
125.3693355132563
 31
0.0
  0
LINE
  5
11F9
330
2
100
AcDbEntity
  8
0
100
AcDbLine
 10
697.9414797527936
 20
198.1893149752062
 30
0.0
 11
697.9414797527936
 21
200.3693355132559
 31
0.0
  0
LINE
  5
11FA
330
2
100
AcDbEntity
  8
0
100
AcDbLine
 10
831.9414797527963
 20
195.3693355132561
 30
0.0
 11
831.9414797527967
 21
184.8693355132559
 31
0.0
  0
LINE
  5
11FB
330
2
100
AcDbEntity
  8
0
100
AcDbLine
 10
841.9414797527968
 20
195.3693355132557
 30
0.0
 11
841.9414797527968
 21
184.8693355132559
 31
0.0
  0
LINE
  5
11FC
330
2
100
AcDbEntity
  8
0
100
AcDbLine
 10
841.9414797527968
 20
195.3693355132559
 30
0.0
 11
831.9414797527967
 21
184.8693355132559
 31
0.0
  0
LINE
  5
11FD
330
2
100
AcDbEntity
  8
0
100
AcDbLine
 10
831.9414797527967
 20
195.3693355132559
 30
0.0
 11
841.9414797527968
 21
184.8693355132559
 31
0.0
  0
LINE
  5
11FE
330
2
100
AcDbEntity
  8
0
100
AcDbLine
 10
841.9414797527968
 20
130.3693355132559
 30
0.0
 11
831.9414797527963
 21
130.3693355132559
 31
0.0
  0
LINE
  5
11FF
330
2
100
AcDbEntity
  8
0
100
AcDbLine
 10
831.9414797527963
 20
130.3693355132556
 30
0.0
 11
831.9414797527967
 21
140.8693355132558
 31
0.0
  0
LINE
  5
1200
330
2
100
AcDbEntity
  8
0
100
AcDbLine
 10
841.9414797527968
 20
130.369335513256
 30
0.0
 11
841.9414797527968
 21
140.8693355132558
 31
0.0
  0
LINE
  5
1201
330
2
100
AcDbEntity
  8
0
100
AcDbLine
 10
841.9414797527968
 20
130.3693355132559
 30
0.0
 11
831.9414797527967
 21
140.8693355132558
 31
0.0
  0
LINE
  5
1202
330
2
100
AcDbEntity
  8
0
100
AcDbLine
 10
831.9414797527967
 20
130.3693355132559
 30
0.0
 11
841.9414797527968
 21
140.8693355132558
 31
0.0
  0
SPLINE
  5
1203
330
2
100
AcDbEntity
  8
HOJO
100
AcDbSpline
210
0.0
220
0.0
230
1.0
 70
     8
 71
     3
 72
    18
 73
    14
 74
    12
 42
0.0000000001
 43
0.0000000001
 44
0.0000000001
 40
0.0
 40
0.0
 40
0.0
 40
0.0
 40
5.809783443223138
 40
13.51477729882347
 40
24.58715504261548
 40
31.45508498458557
 40
40.33886006210784
 40
58.60354852045801
 40
92.26213163444706
 40
121.7748873031241
 40
142.1253298300728
 40
152.1712899157985
 40
165.345901110267
 40
165.345901110267
 40
165.345901110267
 40
165.345901110267
 10
696.9414797527963
 20
198.1944843040476
 30
0.0
 10
698.8194613157411
 20
198.1872049341785
 30
0.0
 10
703.1880411160953
 20
198.1702715899983
 30
0.0
 10
712.8120015553538
 20
195.8521290154194
 30
0.0
 10
709.1828881913316
 20
182.826486095604
 30
0.0
 10
720.217059121985
 20
182.5395037825593
 30
0.0
 10
730.802135336896
 20
183.5252992090968
 30
0.0
 10
751.3592942134398
 20
182.2869827371546
 30
0.0
 10
779.7193077025025
 20
181.4243707461205
 30
0.0
 10
802.8220413674015
 20
185.4772824184334
 30
0.0
 10
833.2189053363549
 20
178.0006412033855
 30
0.0
 10
827.1899753245914
 20
198.4027436462901
 30
0.0
 10
837.2396276817424
 20
198.0163751101203
 30
0.0
 10
842.9414797527968
 20
197.7971619314096
 30
0.0
 11
696.9414797527963
 21
198.1944843040476
 31
0.0
 11
702.7457001807263
 21
197.9403015328964
 31
0.0
 11
709.8089968431825
 21
194.8618651484678
 31
0.0
 11
712.3659876043305
 21
184.0887807642896
 31
0.0
 11
719.0878537265537
 21
182.6798884608408
 31
0.0
 11
727.9612109932288
 21
183.1099936176908
 31
0.0
 11
746.2204353171085
 21
182.6632592773569
 31
0.0
 11
779.8782823455724
 21
182.4406595248222
 31
0.0
 11
809.387551760926
 21
182.8942736021001
 31
0.0
 11
829.6490610469039
 21
184.7947347295314
 31
0.0
 11
830.1052695262871
 21
194.8303307689968
 31
0.0
 11
842.9414797527968
 21
197.7971619314096
 31
0.0
  0
LINE
  5
1204
330
2
100
AcDbEntity
  8
0
 48
0.5
100
AcDbLine
 10
697.9414797527963
 20
195.3693355132559
 30
0.0
 11
707.9414797527963
 21
195.3693355132554
 31
0.0
  0
LINE
  5
1205
330
2
100
AcDbEntity
  8
0
100
AcDbLine
 10
696.9414797527963
 20
195.9466857824454
 30
0.0
 11
697.9414797527963
 21
195.3693355132559
 31
0.0
  0
LINE
  5
1206
330
2
100
AcDbEntity
  8
0
 48
0.5
100
AcDbLine
 10
707.941479752815
 20
195.7471128200364
 30
0.0
 11
709.0009857788166
 21
195.7841115857456
 31
0.0
  0
LINE
  5
1207
330
2
100
AcDbEntity
  8
0
100
AcDbLine
 10
707.941479752815
 20
195.7471128200364
 30
0.0
 11
707.9414797527963
 21
195.3693355132554
 31
0.0
  0
LINE
  5
1208
330
2
100
AcDbEntity
  8
0
100
AcDbLine
 10
831.9414797527963
 20
195.8693355132561
 30
0.0
 11
830.7920492148394
 21
195.8994344111722
 31
0.0
  0
LINE
  5
1209
330
2
100
AcDbEntity
  8
0
 48
0.5
100
AcDbLine
 10
841.9414797527963
 20
195.3693355132561
 30
0.0
 11
831.9414797527963
 21
195.3693355132557
 31
0.0
  0
LINE
  5
120A
330
2
100
AcDbEntity
  8
0
100
AcDbLine
 10
842.9414797527963
 20
195.9466857824456
 30
0.0
 11
841.9414797527963
 21
195.3693355132561
 31
0.0
  0
LINE
  5
120B
330
2
100
AcDbEntity
  8
0
100
AcDbLine
 10
831.9414797527963
 20
195.8693355132561
 30
0.0
 11
831.9414797527963
 21
195.3693355132557
 31
0.0
  0
SPLINE
  5
120C
330
2
100
AcDbEntity
  8
HOJO
100
AcDbSpline
210
0.0
220
0.0
230
1.0
 70
     8
 71
     3
 72
    18
 73
    14
 74
    12
 42
0.0000000001
 43
0.0000000001
 44
0.0000000001
 40
0.0
 40
0.0
 40
0.0
 40
0.0
 40
5.809783443223138
 40
13.51477729882347
 40
24.58715504261548
 40
31.45508498458557
 40
40.33886006210784
 40
58.60354852045801
 40
92.26213163444706
 40
121.7748873031241
 40
142.1253298300728
 40
152.1712899157985
 40
165.345901110267
 40
165.345901110267
 40
165.345901110267
 40
165.345901110267
 10
696.9414797527963
 20
127.5441867224647
 30
0.0
 10
698.8194613157411
 20
127.5514660923338
 30
0.0
 10
703.1880411160953
 20
127.568399436514
 30
0.0
 10
712.8120015553538
 20
129.8865420110927
 30
0.0
 10
709.1828881913316
 20
142.9121849309083
 30
0.0
 10
720.217059121985
 20
143.1991672439528
 30
0.0
 10
730.802135336896
 20
142.2133718174156
 30
0.0
 10
751.3592942134398
 20
143.4516882893575
 30
0.0
 10
779.7193077025025
 20
144.3143002803917
 30
0.0
 10
802.8220413674015
 20
140.2613886080788
 30
0.0
 10
833.2189053363549
 20
147.7380298231267
 30
0.0
 10
827.1899753245914
 20
127.3359273802221
 30
0.0
 10
837.2396276817424
 20
127.7222959163918
 30
0.0
 10
842.9414797527968
 20
127.9415090951026
 30
0.0
 11
696.9414797527963
 21
127.5441867224647
 31
0.0
 11
702.7457001807263
 21
127.7983694936158
 31
0.0
 11
709.8089968431825
 21
130.8768058780444
 31
0.0
 11
712.3659876043305
 21
141.6498902622226
 31
0.0
 11
719.0878537265537
 21
143.0587825656714
 31
0.0
 11
727.9612109932288
 21
142.6286774088214
 31
0.0
 11
746.2204353171085
 21
143.0754117491553
 31
0.0
 11
779.8782823455724
 21
143.2980115016901
 31
0.0
 11
809.387551760926
 21
142.8443974244121
 31
0.0
 11
829.6490610469039
 21
140.9439362969808
 31
0.0
 11
830.1052695262871
 21
130.9083402575154
 31
0.0
 11
842.9414797527968
 21
127.9415090951026
 31
0.0
  0
LINE
  5
120D
330
2
100
AcDbEntity
  8
0
100
AcDbLine
 10
696.9414797527963
 20
129.7919852440668
 30
0.0
 11
697.9414797527963
 21
130.3693355132563
 31
0.0
  0
LINE
  5
120E
330
2
100
AcDbEntity
  8
0
 48
0.5
100
AcDbLine
 10
707.941479752815
 20
129.9915582064758
 30
0.0
 11
709.0009857788166
 21
129.9545594407666
 31
0.0
  0
LINE
  5
120F
330
2
100
AcDbEntity
  8
0
100
AcDbLine
 10
707.941479752815
 20
129.9915582064758
 30
0.0
 11
707.9414797527963
 21
130.3693355132568
 31
0.0
  0
LINE
  5
1210
330
2
100
AcDbEntity
  8
0
100
AcDbLine
 10
831.9414797527963
 20
129.8693355132561
 30
0.0
 11
830.7920492148394
 21
129.83923661534
 31
0.0
  0
LINE
  5
1211
330
2
100
AcDbEntity
  8
0
100
AcDbLine
 10
842.9414797527963
 20
129.7919852440666
 30
0.0
 11
841.9414797527963
 21
130.3693355132561
 31
0.0
  0
LINE
  5
1212
330
2
100
AcDbEntity
  8
0
100
AcDbLine
 10
831.9414797527963
 20
129.8693355132561
 30
0.0
 11
831.9414797527963
 21
130.3693355132566
 31
0.0
  0
LINE
  5
1213
330
2
100
AcDbEntity
  8
0
 48
0.3
100
AcDbLine
 10
710.4414797527945
 20
205.6193355132561
 30
0.0
 11
710.4414797527945
 21
220.1193355132561
 31
0.0
  0
LINE
  5
1214
330
2
100
AcDbEntity
  8
0
 48
0.3
100
AcDbLine
 10
710.4414797527945
 20
220.1193355132561
 30
0.0
 11
708.4414797527945
 21
220.1193355132561
 31
0.0
  0
LINE
  5
1215
330
2
100
AcDbEntity
  8
0
 48
0.3
100
AcDbLine
 10
710.4414797527945
 20
205.6193355132561
 30
0.0
 11
708.4414797527945
 21
205.6193355132561
 31
0.0
  0
LINE
  5
1216
330
2
100
AcDbEntity
  8
0
100
AcDbLine
 10
708.4414797527945
 20
205.6193355132561
 30
0.0
 11
708.4414797527945
 21
220.1193355132561
 31
0.0
  0
LINE
  5
1217
330
2
100
AcDbEntity
  8
0
 48
0.3
100
AcDbLine
 10
710.4414797527945
 20
105.6193355132561
 30
0.0
 11
710.4414797527945
 21
120.1193355132561
 31
0.0
  0
LINE
  5
1218
330
2
100
AcDbEntity
  8
0
 48
0.3
100
AcDbLine
 10
710.4414797527945
 20
120.1193355132561
 30
0.0
 11
708.4414797527945
 21
120.1193355132561
 31
0.0
  0
LINE
  5
1219
330
2
100
AcDbEntity
  8
0
 48
0.3
100
AcDbLine
 10
710.4414797527945
 20
105.6193355132561
 30
0.0
 11
708.4414797527945
 21
105.6193355132561
 31
0.0
  0
LINE
  5
121A
330
2
100
AcDbEntity
  8
0
100
AcDbLine
 10
708.4414797527945
 20
105.6193355132561
 30
0.0
 11
708.4414797527945
 21
120.1193355132561
 31
0.0
  0
LINE
  5
121B
330
2
100
AcDbEntity
  8
0
100
AcDbLine
 10
828.9414797528026
 20
107.8693355132557
 30
0.0
 11
828.9414797528008
 21
142.3683007168441
 31
0.0
  0
LINE
  5
121C
330
2
100
AcDbEntity
  8
0
100
AcDbLine
 10
828.9414797527982
 20
183.3703703096643
 30
0.0
 11
828.9414797527964
 21
217.8693355132555
 31
0.0
  0
LINE
  5
121D
330
2
100
AcDbEntity
  8
0
100
AcDbLine
 10
828.9414797528026
 20
107.8693355132556
 30
0.0
 11
823.9414797527963
 21
107.8693355132559
 31
0.0
  0
LINE
  5
121E
330
2
100
AcDbEntity
  8
0
 48
0.5
100
AcDbLine
 10
823.9414797527963
 20
103.7769297634952
 30
0.0
 11
823.9414797527963
 21
144.3490577927649
 31
0.0
  0
LINE
  5
121F
330
2
100
AcDbEntity
  8
0
 48
0.5
100
AcDbLine
 10
823.9414797527963
 20
181.3896132337472
 30
0.0
 11
823.9414797527963
 21
221.961741263017
 31
0.0
  0
LINE
  5
1220
330
2
100
AcDbEntity
  8
0
100
AcDbLine
 10
828.9414797527964
 20
217.8693355132554
 30
0.0
 11
823.9414797527963
 21
217.8693355132554
 31
0.0
  0
LINE
  5
1221
330
2
100
AcDbEntity
  8
0
100
AcDbLine
 10
823.9414797527958
 20
103.7769297634952
 30
0.0
 11
720.4414797527927
 21
102.8736989471517
 31
0.0
  0
LINE
  5
1222
330
2
100
AcDbEntity
  8
0
100
AcDbLine
 10
823.9414797527958
 20
221.961741263017
 30
0.0
 11
720.4414797527927
 21
222.8649720793605
 31
0.0
  0
CIRCLE
  5
1223
330
2
100
AcDbEntity
  8
0
100
AcDbCircle
 10
534.9035125457624
 20
409.2456345049566
 30
0.0
 40
21.99999999999977
  0
LINE
  5
1224
330
2
100
AcDbEntity
  8
0
100
AcDbLine
 10
530.9035125457619
 20
426.5456345049569
 30
0.0
 11
538.9035125457619
 21
426.5456345049569
 31
0.0
  0
LINE
  5
1225
330
2
100
AcDbEntity
  8
0
100
AcDbLine
 10
530.9035125457619
 20
426.5456345049569
 30
0.0
 11
530.9035125457619
 21
422.6620423699554
 31
0.0
  0
LINE
  5
1226
330
2
100
AcDbEntity
  8
0
100
AcDbLine
 10
538.9035125457619
 20
426.5456345049569
 30
0.0
 11
538.9035125457623
 21
422.6620423699555
 31
0.0
  0
ARC
  5
1227
330
2
100
AcDbEntity
  8
0
100
AcDbCircle
 10
534.9035125457619
 20
409.245634504957
 30
0.0
 40
15.15470053837842
100
AcDbArc
 50
105.3042448177054
 51
74.69575518229453
  0
ARC
  5
1228
330
2
100
AcDbEntity
  8
0
100
AcDbCircle
 10
534.9035125457624
 20
409.2456345049566
 30
0.0
 40
14.00000000000022
100
AcDbArc
 50
106.6015495990163
 51
73.39845040098365
  0
LINE
  5
1229
330
2
100
AcDbEntity
  8
0
 48
0.5
100
AcDbLine
 10
820.7310437741119
 20
431.2456345054331
 30
0.0
 11
807.731043774341
 21
431.2456345049862
 31
0.0
  0
LINE
  5
122A
330
2
100
AcDbEntity
  8
0
 48
0.5
100
AcDbLine
 10
820.7310437756243
 20
387.2456345054331
 30
0.0
 11
807.7310437754174
 21
387.2456345049862
 31
0.0
  0
LINE
  5
122B
330
2
100
AcDbEntity
  8
0
100
AcDbLine
 10
820.7310437756243
 20
387.2456345054331
 30
0.0
 11
820.7310437741119
 21
431.2456345054333
 31
0.0
  0
LINE
  5
122C
330
2
100
AcDbEntity
  8
0
100
AcDbLine
 10
659.7310437756248
 20
387.2456344998992
 30
0.0
 11
659.7310437741123
 21
431.2456344998995
 31
0.0
  0
LINE
  5
122D
330
2
100
AcDbEntity
  8
0
 48
0.5
100
AcDbLine
 10
659.7310437741123
 20
431.2456344998995
 30
0.0
 11
661.7310437742832
 21
431.2456344999682
 31
0.0
  0
LINE
  5
122E
330
2
100
AcDbEntity
  8
0
 48
0.5
100
AcDbLine
 10
659.7310437756248
 20
387.2456344998992
 30
0.0
 11
661.7310437755256
 21
387.245634499968
 31
0.0
  0
LINE
  5
122F
330
2
100
AcDbEntity
  8
CENTER
100
AcDbLine
 10
812.7310437749931
 20
401.9929533379593
 30
0.0
 11
812.7310437747444
 21
416.4540001301771
 31
0.0
  0
LINE
  5
1230
330
2
100
AcDbEntity
  8
PHAS
100
AcDbLine
 10
662.3786865555646
 20
369.8652428451607
 30
0.0
 11
669.2310437748763
 21
369.7456345049861
 31
0.0
  0
LINE
  5
1231
330
2
100
AcDbEntity
  8
PHAS
100
AcDbLine
 10
659.431043774876
 20
372.8647859306304
 30
0.0
 11
659.431043774877
 21
445.6264830793427
 31
0.0
  0
LINE
  5
1232
330
2
100
AcDbEntity
  8
PHAS
100
AcDbLine
 10
639.7310437748763
 20
385.9147741808294
 30
0.0
 11
639.7310437748763
 21
432.5764948291427
 31
0.0
  0
ARC
  5
1233
330
2
100
AcDbEntity
  8
PHAS
100
AcDbCircle
 10
662.4310437748761
 20
372.8647859306304
 30
0.0
 40
3.0
100
AcDbArc
 50
180.0
 51
268.9999999999721
  0
ARC
  5
1234
330
2
100
AcDbEntity
  8
PHAS
100
AcDbCircle
 10
658.4310437748761
 20
377.4065348738088
 30
0.0
 40
1.0
100
AcDbArc
 50
0.0
 51
79.99999999999484
  0
ARC
  5
1235
330
2
100
AcDbEntity
  8
PHAS
100
AcDbCircle
 10
644.7310437748763
 20
385.9147741808294
 30
0.0
 40
5.0
100
AcDbArc
 50
180.0
 51
259.9999999999948
  0
LINE
  5
1236
330
2
100
AcDbEntity
  8
PHAS
100
AcDbLine
 10
643.8628028865411
 20
380.9907354157687
 30
0.0
 11
658.6046919525431
 21
378.3913426268211
 31
0.0
  0
ARC
  5
1237
330
2
100
AcDbEntity
  8
PHAS
100
AcDbCircle
 10
658.4310437748761
 20
441.0847341361634
 30
0.0
 40
1.0
100
AcDbArc
 50
280.0000000000051
 51
0.0
  0
ARC
  5
1238
330
2
100
AcDbEntity
  8
PHAS
100
AcDbCircle
 10
644.7310437748763
 20
432.5764948291427
 30
0.0
 40
5.0
100
AcDbArc
 50
100.0000000000051
 51
180.0
  0
LINE
  5
1239
330
2
100
AcDbEntity
  8
PHAS
100
AcDbLine
 10
643.8628028865411
 20
437.5005335942043
 30
0.0
 11
658.6046919525431
 21
440.099926383152
 31
0.0
  0
LINE
  5
123A
330
2
100
AcDbEntity
  8
PHAS
100
AcDbLine
 10
669.2310437748763
 20
448.7456345049861
 30
0.0
 11
669.2310437748763
 21
369.7456345049861
 31
0.0
  0
LINE
  5
123B
330
2
100
AcDbEntity
  8
PHAS
100
AcDbLine
 10
662.3786865555646
 20
448.6260261648115
 30
0.0
 11
669.2310437748763
 21
448.7456345049861
 31
0.0
  0
ARC
  5
123C
330
2
100
AcDbEntity
  8
PHAS
100
AcDbCircle
 10
662.4310437748761
 20
445.6264830793418
 30
0.0
 40
3.0
100
AcDbArc
 50
91.00000000002784
 51
180.0
  0
LINE
  5
123D
330
2
100
AcDbEntity
  8
0
 48
0.5
100
AcDbLine
 10
970.0591717487535
 20
622.7425856636334
 30
0.0
 11
970.0591717485297
 21
635.7425856634042
 31
0.0
  0
LINE
  5
123E
330
2
100
AcDbEntity
  8
0
 48
0.5
100
AcDbLine
 10
926.0591717487534
 20
622.7425856628772
 30
0.0
 11
926.0591717485301
 21
635.7425856630839
 31
0.0
  0
LINE
  5
123F
330
2
100
AcDbEntity
  8
0
100
AcDbLine
 10
926.0591717487534
 20
622.7425856628772
 30
0.0
 11
970.0591717487535
 21
622.7425856636334
 31
0.0
  0
LINE
  5
1240
330
2
100
AcDbEntity
  8
0
100
AcDbLine
 10
926.0591717459867
 20
783.7425856628767
 30
0.0
 11
970.0591717459868
 21
783.742585663633
 31
0.0
  0
LINE
  5
1241
330
2
100
AcDbEntity
  8
0
 48
0.5
100
AcDbLine
 10
970.0591717459868
 20
783.742585663633
 30
0.0
 11
970.0591717460213
 21
781.7425856634618
 31
0.0
  0
LINE
  5
1242
330
2
100
AcDbEntity
  8
0
 48
0.5
100
AcDbLine
 10
926.0591717459867
 20
783.7425856628767
 30
0.0
 11
926.0591717460208
 21
781.7425856629759
 31
0.0
  0
LINE
  5
1243
330
2
100
AcDbEntity
  8
CENTER
100
AcDbLine
 10
940.8064905814169
 20
630.7425856632549
 30
0.0
 11
955.2675373736349
 21
630.7425856632549
 31
0.0
  0
CIRCLE
  5
1250
330
2
100
AcDbEntity
  8
0
100
AcDbCircle
 10
948.0591717485292
 20
630.7425856632549
 30
0.0
 40
2.39999999999992
  0
CIRCLE
  5
1251
330
2
100
AcDbEntity
  8
0
100
AcDbCircle
 10
812.7310437748686
 20
409.245634504986
 30
0.0
 40
2.39999999999992
  0
ARC
  5
1252
330
2
100
AcDbEntity
  8
0
100
AcDbCircle
 10
1029.085082820361
 20
763.7425856632519
 30
0.0
 40
8.0
100
AcDbArc
 50
270.0
 51
358.5000000000103
  0
LINE
  5
1253
330
2
100
AcDbEntity
  8
0
100
AcDbLine
 10
1029.085082820363
 20
755.7425856632519
 30
0.0
 11
1026.981642361291
 21
755.7425856632514
 31
0.0
  0
ARC
  5
1254
330
2
100
AcDbEntity
  8
0
100
AcDbCircle
 10
1026.981642361291
 20
752.7425856632515
 30
0.0
 40
3.0
100
AcDbArc
 50
90.0
 51
178.5000000000038
  0
LINE
  5
1255
330
2
100
AcDbEntity
  8
0
100
AcDbLine
 10
1020.979585606346
 20
749.7425856632514
 30
0.0
 11
1010.465858973914
 21
749.7425856632512
 31
0.0
  0
ARC
  5
1256
330
2
100
AcDbEntity
  8
0
100
AcDbCircle
 10
1010.465858973914
 20
752.7425856632512
 30
0.0
 40
3.0
100
AcDbArc
 50
180.5000000000045
 51
270.0
  0
LINE
  5
1257
330
2
100
AcDbEntity
  8
0
100
AcDbLine
 10
1024.059171748527
 20
752.7425856632515
 30
0.0
 11
1024.059171748527
 21
752.7425856632515
 31
0.0
  0
LINE
  5
1258
330
2
100
AcDbEntity
  8
0
100
AcDbLine
 10
1024.059171748527
 20
690.7425856632451
 30
0.0
 11
1024.059171748527
 21
690.7425856632451
 31
0.0
  0
LINE
  5
1259
330
2
100
AcDbEntity
  8
0
100
AcDbLine
 10
1023.323909542043
 20
727.6640548183228
 30
0.0
 11
1023.982670386365
 21
752.8211165081749
 31
0.0
  0
ARC
  5
125A
330
2
100
AcDbEntity
  8
0
100
AcDbCircle
 10
1020.979585606346
 20
752.7425856632515
 30
0.0
 40
3.0
100
AcDbArc
 50
270.0
 51
358.5000000000038
  0
ARC
  5
125B
330
2
100
AcDbEntity
  8
0
100
AcDbCircle
 10
1020.324937567116
 20
727.7425856632464
 30
0.0
 40
3.0
100
AcDbArc
 50
270.0
 51
358.5000000000038
  0
ARC
  5
125C
330
2
100
AcDbEntity
  8
0
100
AcDbCircle
 10
1029.085082820361
 20
679.7425856632446
 30
0.0
 40
8.0
100
AcDbArc
 50
1.499999999989688
 51
90.0
  0
LINE
  5
125D
330
2
100
AcDbEntity
  8
0
100
AcDbLine
 10
1029.085082820363
 20
687.7425856632446
 30
0.0
 11
1026.981642361291
 21
687.742585663245
 31
0.0
  0
ARC
  5
125E
330
2
100
AcDbEntity
  8
0
100
AcDbCircle
 10
1026.981642361291
 20
690.7425856632451
 30
0.0
 40
3.0
100
AcDbArc
 50
181.4999999999962
 51
269.9999999999739
  0
LINE
  5
125F
330
2
100
AcDbEntity
  8
0
100
AcDbLine
 10
1020.979585606346
 20
693.7425856632451
 30
0.0
 11
1010.465858973914
 21
693.7425856632453
 31
0.0
  0
ARC
  5
1260
330
2
100
AcDbEntity
  8
0
100
AcDbCircle
 10
1010.465858973914
 20
690.7425856632453
 30
0.0
 40
3.0
100
AcDbArc
 50
90.0
 51
179.4999999999954
  0
LINE
  5
1261
330
2
100
AcDbEntity
  8
0
100
AcDbLine
 10
1024.059171748527
 20
690.7425856632451
 30
0.0
 11
1024.059171748527
 21
690.7425856632451
 31
0.0
  0
LINE
  5
1262
330
2
100
AcDbEntity
  8
0
100
AcDbLine
 10
1023.323909542043
 20
715.8211165081738
 30
0.0
 11
1023.982670386365
 21
690.6640548183215
 31
0.0
  0
ARC
  5
1263
330
2
100
AcDbEntity
  8
0
100
AcDbCircle
 10
1020.979585606346
 20
690.7425856632451
 30
0.0
 40
3.0
100
AcDbArc
 50
1.499999999996204
 51
90.0
  0
ARC
  5
1264
330
2
100
AcDbEntity
  8
0
100
AcDbCircle
 10
1020.324937567116
 20
715.74258566325
 30
0.0
 40
3.0
100
AcDbArc
 50
1.499999999996204
 51
90.0
  0
CIRCLE
  5
191C
330
2
100
AcDbEntity
  8
HOJO
100
AcDbCircle
 10
812.7310437748684
 20
409.245634504986
 30
0.0
 40
2.999999999999857
  0
CIRCLE
  5
1924
330
2
100
AcDbEntity
  8
HOJO
100
AcDbCircle
 10
948.0591717485294
 20
630.7425856632549
 30
0.0
 40
2.999999999999857
  0
TEXT
  5
1E89
330
2
100
AcDbEntity
  8
TITLE
100
AcDbText
 10
664.2034643738786
 20
752.9456148689839
 30
0.0
 40
7.5
  1
AFCZ28S-7.5~10M1000K61
100
AcDbText
  0
TEXT
  5
1E8A
330
2
100
AcDbEntity
  8
TITLE
100
AcDbText
 10
664.2034643738786
 20
740.6775161873622
 30
0.0
 40
7.5
  1
AFCZ28S-7.5~10L1000K61
100
AcDbText
  0
LINE
  5
2130
330
2
100
AcDbEntity
  8
0
100
AcDbLine
 10
1053.559171748527
 20
469.2456345049879
 30
0.0
 11
1053.559171748527
 21
349.2456345049861
 31
0.0
  0
LINE
  5
242D
330
2
100
AcDbEntity
  8
0
100
AcDbLine
 10
1053.559171748527
 20
469.2456345049879
 30
0.0
 11
1053.559171748527
 21
349.2456345049861
 31
0.0
  0
LINE
  5
2687
330
2
100
AcDbEntity
  8
0
100
AcDbLine
 10
1053.559171748527
 20
469.2456345049879
 30
0.0
 11
1053.559171748527
 21
349.2456345049861
 31
0.0
  0
LINE
  5
29B8
330
2
100
AcDbEntity
  8
0
100
AcDbLine
 10
1053.559171748527
 20
469.2456345049861
 30
0.0
 11
1053.559171748527
 21
349.2456345049861
 31
0.0
  0
LINE
  5
2A1D
330
2
100
AcDbEntity
  8
CENTER
100
AcDbLine
 10
721.7310437748758
 20
484.2456345359019
 30
0.0
 11
721.7310437748758
 21
334.2456345359019
 31
0.0
  0
LINE
  5
2A21
330
2
100
AcDbEntity
  8
CENTER
100
AcDbLine
 10
774.927436370421
 20
409.2456345049859
 30
0.0
 11
765.9274363704209
 21
409.2456345049859
 31
0.0
  0
LINE
  5
2A22
330
2
100
AcDbEntity
  8
CENTER
100
AcDbLine
 10
677.5346511484151
 20
409.2456345359019
 30
0.0
 11
668.5346511484151
 21
409.2456345359019
 31
0.0
  0
LINE
  5
2A85
330
2
100
AcDbEntity
  8
0
100
AcDbLine
 10
429.4035125457653
 20
469.2456345049861
 30
0.0
 11
429.4035125457653
 21
349.2456345049861
 31
0.0
  0
LINE
  5
2D9B
330
2
100
AcDbEntity
  8
0
100
AcDbLine
 10
1053.559171748527
 20
469.2456345049861
 30
0.0
 11
1053.559171748527
 21
349.2456345049861
 31
0.0
  0
LINE
  5
2F83
330
2
100
AcDbEntity
  8
0
100
AcDbLine
 10
1053.559171748527
 20
469.2456345049861
 30
0.0
 11
1053.559171748527
 21
349.2456345049861
 31
0.0
  0
LINE
  5
3273
330
2
100
AcDbEntity
  8
0
100
AcDbLine
 10
1053.559171748527
 20
469.2456345049861
 30
0.0
 11
1053.559171748527
 21
349.2456345049861
 31
0.0
  0
LINE
  5
3302
330
2
100
AcDbEntity
  8
0
 48
0.5
100
AcDbLine
 10
661.414377107908
 20
431.2456344999572
 30
0.0
 11
661.6484048618747
 21
459.3289649758742
 31
0.0
  0
ARC
  5
3304
330
2
100
AcDbEntity
  8
0
 48
0.5
100
AcDbCircle
 10
671.6480576577358
 20
459.2456345359084
 30
0.0
 40
10.0
100
AcDbArc
 50
134.6637755567086
 51
179.5225462226892
  0
LINE
  5
3310
330
2
100
AcDbEntity
  8
0
 48
0.5
100
AcDbLine
 10
661.4143771085069
 20
387.245634499957
 30
0.0
 11
661.6484048618747
 21
359.1623040959291
 31
0.0
  0
ARC
  5
3311
330
2
100
AcDbEntity
  8
0
 48
0.5
100
AcDbCircle
 10
671.6480576577358
 20
359.2456345358948
 30
0.0
 40
10.0
100
AcDbArc
 50
180.4774537773107
 51
225.3362032237255
  0
LINE
  5
3319
330
2
100
AcDbEntity
  8
CENTER
100
AcDbLine
 10
774.9274364013379
 20
409.2456345049856
 30
0.0
 11
765.9274364013379
 21
409.2456345049856
 31
0.0
  0
LINE
  5
331A
330
2
100
AcDbEntity
  8
CENTER
100
AcDbLine
 10
677.534651179332
 20
409.2456345359021
 30
0.0
 11
668.534651179332
 21
409.2456345359021
 31
0.0
  0
LINE
  5
3323
330
2
100
AcDbEntity
  8
0
100
AcDbLine
 10
429.4035125457653
 20
469.2456345049861
 30
0.0
 11
429.4035125457653
 21
349.2456345049861
 31
0.0
  0
LINE
  5
3516
330
2
100
AcDbEntity
  8
CENTER
100
AcDbLine
 10
1348.634306364152
 20
479.7696273562847
 30
0.0
 11
1348.634306364151
 21
338.7216416536867
 31
0.0
  0
LINE
  5
3517
330
2
100
AcDbEntity
  8
CENTER
100
AcDbLine
 10
1420.634306364158
 20
409.2456345049857
 30
0.0
 11
1239.634306364158
 21
409.2456345049859
 31
0.0
  0
LINE
  5
3518
330
2
100
AcDbEntity
  8
0
100
AcDbLine
 10
1348.634306364152
 20
469.7456345049856
 30
0.0
 11
1398.717636804114
 21
469.3282734179827
 31
0.0
  0
ARC
  5
351A
330
2
100
AcDbEntity
  8
0
100
AcDbCircle
 10
1398.634306364147
 20
459.3286206221215
 30
0.0
 40
10.0
100
AcDbArc
 50
44.6637836340764
 51
89.52254622268922
  0
LINE
  5
3520
330
2
100
AcDbEntity
  8
0
100
AcDbLine
 10
1281.634306364148
 20
468.3380402547465
 30
0.0
 11
1294.536895895957
 21
468.4506394477488
 31
0.0
  0
ARC
  5
3521
330
2
100
AcDbEntity
  8
0
100
AcDbCircle
 10
1264.634306364147
 20
447.3142569553712
 30
0.0
 40
2.0
100
AcDbArc
 50
92.00000000000361
 51
180.0
  0
LINE
  5
3522
330
2
100
AcDbEntity
  8
0
100
AcDbLine
 10
1264.564507370742
 20
449.3130386094096
 30
0.0
 11
1271.80880384766
 21
449.5660150168095
 31
0.0
  0
ARC
  5
3523
330
2
100
AcDbEntity
  8
0
100
AcDbCircle
 10
1271.634306364148
 20
454.5629691519049
 30
0.0
 40
5.0
100
AcDbArc
 50
271.9999999999775
 51
0.0
  0
LINE
  5
3524
330
2
100
AcDbEntity
  8
0
100
AcDbLine
 10
1281.634306364148
 20
350.1532287552253
 30
0.0
 11
1294.536895895958
 21
350.0406295622223
 31
0.0
  0
LINE
  5
3525
330
2
100
AcDbEntity
  8
0
100
AcDbLine
 10
1276.634306364148
 20
354.2456345049856
 30
0.0
 11
1276.634306364149
 21
464.2456345049863
 31
0.0
  0
ARC
  5
3526
330
2
100
AcDbEntity
  8
0
100
AcDbCircle
 10
1264.634306364147
 20
371.1770120546006
 30
0.0
 40
1.999999999999999
100
AcDbArc
 50
180.0
 51
267.9999999999963
  0
LINE
  5
3527
330
2
100
AcDbEntity
  8
0
100
AcDbLine
 10
1264.564507370742
 20
369.1782304005623
 30
0.0
 11
1271.80880384766
 21
368.9252539931623
 31
0.0
  0
ARC
  5
3528
330
2
100
AcDbEntity
  8
0
100
AcDbCircle
 10
1271.634306364148
 20
363.9282998580669
 30
0.0
 40
4.999999999999999
100
AcDbArc
 50
0.0
 51
87.9999999999964
  0
LINE
  5
3529
330
2
100
AcDbEntity
  8
0
100
AcDbLine
 10
1262.634306364147
 20
447.3142569553712
 30
0.0
 11
1262.634306364147
 21
371.1770120546004
 31
0.0
  0
LINE
  5
352A
330
2
100
AcDbEntity
  8
0
100
AcDbLine
 10
1348.634306364152
 20
469.7456345049856
 30
0.0
 11
1298.550975924189
 21
469.3282734179826
 31
0.0
  0
ARC
  5
352C
330
2
100
AcDbEntity
  8
0
100
AcDbCircle
 10
1298.634306364155
 20
459.3286206221214
 30
0.0
 40
10.0
100
AcDbArc
 50
90.47745377731077
 51
135.3362163658844
  0
LINE
  5
352E
330
2
100
AcDbEntity
  8
0
100
AcDbLine
 10
1348.634306364151
 20
348.7456345049857
 30
0.0
 11
1398.717636804114
 21
349.1629955919886
 31
0.0
  0
ARC
  5
3530
330
2
100
AcDbEntity
  8
0
100
AcDbCircle
 10
1398.634306364147
 20
359.1626483878499
 30
0.0
 40
10.0
100
AcDbArc
 50
270.4774537773107
 51
315.3362113188719
  0
LINE
  5
3532
330
2
100
AcDbEntity
  8
0
100
AcDbLine
 10
1348.634306364151
 20
348.7456345049857
 30
0.0
 11
1298.550975924189
 21
349.1629955919888
 31
0.0
  0
ARC
  5
3534
330
2
100
AcDbEntity
  8
0
100
AcDbCircle
 10
1298.634306364155
 20
359.1626483878501
 30
0.0
 40
10.0
100
AcDbArc
 50
224.663788681324
 51
269.5225462226892
  0
LINE
  5
3536
330
2
100
AcDbEntity
  8
0
100
AcDbLine
 10
1276.634306364149
 20
464.2456345049863
 30
0.0
 11
1281.634306364148
 21
464.245634504986
 31
0.0
  0
LINE
  5
3537
330
2
100
AcDbEntity
  8
0
 48
0.5
100
AcDbLine
 10
1281.634306364148
 20
468.3380402547465
 30
0.0
 11
1281.634306364148
 21
350.1532287552253
 31
0.0
  0
LINE
  5
3538
330
2
100
AcDbEntity
  8
0
100
AcDbLine
 10
1276.634306364148
 20
354.2456345049856
 30
0.0
 11
1281.634306364147
 21
354.2456345049858
 31
0.0
  0
LINE
  5
3539
330
2
100
AcDbEntity
  8
0
 48
0.5
100
AcDbLine
 10
1249.63430636567
 20
387.245634504092
 30
0.0
 11
1262.634306365441
 21
387.2456345049858
 31
0.0
  0
LINE
  5
353A
330
2
100
AcDbEntity
  8
0
 48
0.5
100
AcDbLine
 10
1249.634306362646
 20
431.2456345040921
 30
0.0
 11
1262.634306362853
 21
431.2456345049858
 31
0.0
  0
LINE
  5
353B
330
2
100
AcDbEntity
  8
0
100
AcDbLine
 10
1249.634306362646
 20
431.2456345040921
 30
0.0
 11
1249.63430636567
 21
387.2456345040918
 31
0.0
  0
LINE
  5
353C
330
2
100
AcDbEntity
  8
0
100
AcDbLine
 10
1410.634306362646
 20
431.2456345151596
 30
0.0
 11
1410.63430636567
 21
387.2456345151592
 31
0.0
  0
LINE
  5
353D
330
2
100
AcDbEntity
  8
0
 48
0.5
100
AcDbLine
 10
1410.63430636567
 20
387.2456345151592
 30
0.0
 11
1408.95097303088
 21
387.2456345150436
 31
0.0
  0
LINE
  5
353E
330
2
100
AcDbEntity
  8
0
 48
0.5
100
AcDbLine
 10
1410.634306362646
 20
431.2456345151596
 30
0.0
 11
1408.950973030712
 21
431.2456345150438
 31
0.0
  0
LINE
  5
36B8
330
2
100
AcDbEntity
  8
0
100
AcDbLine
 10
1053.559171748527
 20
349.2456345049861
 30
0.0
 11
1053.559171748527
 21
469.2456345049861
 31
0.0
  0
LINE
  5
36BA
330
2
100
AcDbEntity
  8
0
100
AcDbLine
 10
1053.559171748527
 20
349.2456345049861
 30
0.0
 11
1064.080667171074
 21
349.2456345049856
 31
0.0
  0
LINE
  5
36BB
330
2
100
AcDbEntity
  8
0
100
AcDbLine
 10
1053.559171748526
 20
349.2456345049861
 30
0.0
 11
1053.559171748527
 21
469.2456345049864
 31
0.0
  0
LINE
  5
36BC
330
2
100
AcDbEntity
  8
0
100
AcDbLine
 10
1067.093472612607
 20
351.2107296921114
 30
0.0
 11
1068.106475644205
 21
409.245634504986
 31
0.0
  0
LINE
  5
36BD
330
2
100
AcDbEntity
  8
0
100
AcDbLine
 10
1116.310348806216
 20
366.2107296921113
 30
0.0
 11
1116.012394170885
 21
383.2805393178603
 31
0.0
  0
ARC
  5
36BE
330
2
100
AcDbEntity
  8
0
100
AcDbCircle
 10
1114.012698780573
 20
383.2456345049857
 30
0.0
 40
2.0
100
AcDbArc
 50
1.000000000001761
 51
90.0
  0
LINE
  5
36BF
330
2
100
AcDbEntity
  8
0
100
AcDbLine
 10
1138.059171748526
 20
364.245634504986
 30
0.0
 11
1138.059171748527
 21
454.2456345049858
 31
0.0
  0
LINE
  5
36C0
330
2
100
AcDbEntity
  8
CENTER
100
AcDbLine
 10
1119.559171748526
 20
446.1349420098695
 30
0.0
 11
1119.559171748528
 21
462.7453056412224
 31
0.0
  0
LINE
  5
36C1
330
2
100
AcDbEntity
  8
0
100
AcDbLine
 10
1109.175464976194
 20
385.2456345049858
 30
0.0
 11
1114.012698780573
 21
385.2456345049858
 31
0.0
  0
LINE
  5
36C2
330
2
100
AcDbEntity
  8
0
100
AcDbLine
 10
1107.175769585881
 20
387.2805393178603
 30
0.0
 11
1107.559171748527
 21
409.2456345049859
 31
0.0
  0
ARC
  5
36C3
330
2
100
AcDbEntity
  8
0
100
AcDbCircle
 10
1109.175464976194
 20
387.2456345049858
 30
0.0
 40
2.0
100
AcDbArc
 50
178.9999999999982
 51
270.0
  0
LINE
  5
36C4
330
2
100
AcDbEntity
  8
0
100
AcDbLine
 10
1109.237371010881
 20
364.245634504986
 30
0.0
 11
1138.059171748526
 21
364.2456345049858
 31
0.0
  0
ARC
  5
36C5
330
2
100
AcDbEntity
  8
0
100
AcDbCircle
 10
1118.310044196528
 20
366.2456345049858
 30
0.0
 40
2.0
100
AcDbArc
 50
181.0000000000017
 51
270.0
  0
LINE
  5
36C6
330
2
100
AcDbEntity
  8
0
100
AcDbLine
 10
1075.043651593361
 20
358.2456345049859
 30
0.0
 11
1104.823010601921
 21
358.2456345049858
 31
0.0
  0
ARC
  5
36C7
330
2
100
AcDbEntity
  8
0
100
AcDbCircle
 10
1104.823010601921
 20
360.2456345049858
 30
0.0
 40
2.0
100
AcDbArc
 50
270.0
 51
350.0000000000078
  0
LINE
  5
36C8
330
2
100
AcDbEntity
  8
0
100
AcDbLine
 10
1053.559171748527
 20
349.245634504986
 30
0.0
 11
1065.093777222295
 21
349.2456345049856
 31
0.0
  0
ARC
  5
36C9
330
2
100
AcDbEntity
  8
0
100
AcDbCircle
 10
1065.093777222295
 20
351.2456345049856
 30
0.0
 40
2.0
100
AcDbArc
 50
270.0
 51
354.2608295227382
  0
ARC
  5
36CA
330
2
100
AcDbEntity
  8
0
100
AcDbCircle
 10
1075.043651593361
 20
350.2456345049859
 30
0.0
 40
8.0
100
AcDbArc
 50
90.0
 51
91.39399818465271
  0
ARC
  5
36CB
330
2
100
AcDbEntity
  8
0
100
AcDbCircle
 10
1075.043651593361
 20
350.2456345049859
 30
0.0
 40
8.0
100
AcDbArc
 50
149.1187890573339
 51
174.2608295227383
  0
LINE
  5
36CC
330
2
100
AcDbEntity
  8
0
100
AcDbLine
 10
1138.059171748527
 20
409.2456345049858
 30
0.0
 11
1053.559171748527
 21
409.2456345049861
 31
0.0
  0
LINE
  5
36CD
330
2
100
AcDbEntity
  8
0
100
AcDbLine
 10
1053.559171748527
 20
469.2456345049861
 30
0.0
 11
1065.093777222295
 21
469.2456345049864
 31
0.0
  0
LINE
  5
36CE
330
2
100
AcDbEntity
  8
0
100
AcDbLine
 10
1107.267755504857
 20
362.5929308603197
 30
0.0
 11
1106.792626107945
 21
359.8983381496519
 31
0.0
  0
ARC
  5
36CF
330
2
100
AcDbEntity
  8
0
100
AcDbCircle
 10
1109.237371010881
 20
362.2456345049859
 30
0.0
 40
2.0
100
AcDbArc
 50
90.0
 51
170.0000000000077
  0
LINE
  5
36D0
330
2
100
AcDbEntity
  8
0
100
AcDbLine
 10
1109.175464976194
 20
433.2456345049861
 30
0.0
 11
1114.012698780574
 21
433.2456345049861
 31
0.0
  0
LINE
  5
36D1
330
2
100
AcDbEntity
  8
0
100
AcDbLine
 10
1107.175769585881
 20
431.2107296921115
 30
0.0
 11
1107.184279871742
 21
430.7231757416825
 31
0.0
  0
ARC
  5
36D2
330
2
100
AcDbEntity
  8
0
100
AcDbCircle
 10
1109.175464976194
 20
431.245634504986
 30
0.0
 40
2.0
100
AcDbArc
 50
90.0
 51
181.0000000000017
  0
LINE
  5
36D3
330
2
100
AcDbEntity
  8
0
100
AcDbLine
 10
1109.237371010882
 20
454.2456345049858
 30
0.0
 11
1138.059171748527
 21
454.2456345049858
 31
0.0
  0
LINE
  5
36D4
330
2
100
AcDbEntity
  8
0
100
AcDbLine
 10
1075.043651593361
 20
460.2456345049859
 30
0.0
 11
1104.823010601921
 21
460.245634504986
 31
0.0
  0
ARC
  5
36D5
330
2
100
AcDbEntity
  8
0
100
AcDbCircle
 10
1104.823010601921
 20
458.2456345049861
 30
0.0
 40
2.0
100
AcDbArc
 50
10.00000000000823
 51
90.0
  0
LINE
  5
36D6
330
2
100
AcDbEntity
  8
0
100
AcDbLine
 10
1107.267755504857
 20
455.8983381496521
 30
0.0
 11
1106.792626107946
 21
458.59293086032
 31
0.0
  0
ARC
  5
36D7
330
2
100
AcDbEntity
  8
0
100
AcDbCircle
 10
1109.237371010882
 20
456.2456345049859
 30
0.0
 40
2.0
100
AcDbArc
 50
190.0000000000082
 51
270.0
  0
LINE
  5
36D8
330
2
100
AcDbEntity
  8
0
100
AcDbLine
 10
1067.093472612608
 20
467.280539317861
 30
0.0
 11
1067.788332298717
 21
427.4720545613459
 31
0.0
  0
ARC
  5
36D9
330
2
100
AcDbEntity
  8
0
100
AcDbCircle
 10
1065.093777222295
 20
467.2456345049873
 30
0.0
 40
2.0
100
AcDbArc
 50
5.739170477261705
 51
90.0
  0
ARC
  5
36DA
330
2
100
AcDbEntity
  8
0
100
AcDbCircle
 10
1075.043651593361
 20
468.2456345049866
 30
0.0
 40
8.0
100
AcDbArc
 50
185.7391704772616
 51
210.881210942666
  0
ARC
  5
36DB
330
2
100
AcDbEntity
  8
0
100
AcDbCircle
 10
1075.043651593361
 20
468.2456345049866
 30
0.0
 40
8.0
100
AcDbArc
 50
268.6060018153342
 51
270.0
  0
LINE
  5
36DC
330
2
100
AcDbEntity
  8
0
100
AcDbLine
 10
1116.310348806216
 20
452.2805393178606
 30
0.0
 11
1116.035080792361
 21
436.5104453658995
 31
0.0
  0
ARC
  5
36DD
330
2
100
AcDbEntity
  8
0
100
AcDbCircle
 10
1114.012698780574
 20
435.245634504986
 30
0.0
 40
2.0
100
AcDbArc
 50
270.0
 51
293.3977703760218
  0
ARC
  5
36DE
330
2
100
AcDbEntity
  8
0
100
AcDbCircle
 10
1118.310044196528
 20
452.2456345049859
 30
0.0
 40
2.0
100
AcDbArc
 50
90.0
 51
178.9999999999982
  0
ARC
  5
36DF
330
2
100
AcDbEntity
  8
0
100
AcDbCircle
 10
1109.00748549037
 20
452.2456345049867
 30
0.0
 40
2.0
100
AcDbArc
 50
90.0
 51
178.4999999999973
  0
LINE
  5
36E0
330
2
100
AcDbEntity
  8
0
100
AcDbLine
 10
1105.000615276878
 20
450.0356345049868
 30
0.0
 11
1109.984924284959
 21
450.0356345049866
 31
0.0
  0
ARC
  5
36E1
330
2
100
AcDbEntity
  8
0
100
AcDbCircle
 10
1105.000615276878
 20
452.0356345049863
 30
0.0
 40
2.0
100
AcDbArc
 50
270.0
 51
358.4999999999973
  0
LINE
  5
36E2
330
2
100
AcDbEntity
  8
0
100
AcDbLine
 10
1107.008170840419
 20
452.2979884016026
 30
0.0
 11
1106.999929926829
 21
451.9832806083705
 31
0.0
  0
LINE
  5
36E3
330
2
100
AcDbEntity
  8
0
100
AcDbLine
 10
1053.559171748527
 20
782.2425856632483
 30
0.0
 11
1053.559171748526
 21
661.2425856632483
 31
0.0
  0
LINE
  5
36E4
330
2
100
AcDbEntity
  8
0
100
AcDbLine
 10
1067.059171748554
 20
780.1875462648238
 30
0.0
 11
1067.059171748527
 21
663.2976250615552
 31
0.0
  0
ARC
  5
36E5
330
2
100
AcDbEntity
  8
0
100
AcDbCircle
 10
1075.059171748527
 20
662.7425856632482
 30
0.0
 40
8.0
100
AcDbArc
 50
90.0
 51
93.58332169845889
  0
ARC
  5
36E6
330
2
100
AcDbEntity
  8
0
100
AcDbCircle
 10
1075.059171748527
 20
662.7425856632482
 30
0.0
 40
8.0
100
AcDbArc
 50
142.6263925623617
 51
144.3409123038389
  0
ARC
  5
36E7
330
2
100
AcDbEntity
  8
0
100
AcDbCircle
 10
1075.059171748527
 20
662.7425856632482
 30
0.0
 40
8.0
100
AcDbArc
 50
149.1187890573339
 51
177.1340160174036
  0
ARC
  5
36E8
330
2
100
AcDbEntity
  8
0
100
AcDbCircle
 10
1065.071679570808
 20
663.2425856632482
 30
0.0
 40
2.0
100
AcDbArc
 50
270.0
 51
357.1340160174036
  0
ARC
  5
36E9
330
2
100
AcDbEntity
  8
0
100
AcDbCircle
 10
1065.10929737746
 20
663.7425856632482
 30
0.0
 40
2.0
100
AcDbArc
 50
269.999999999987
 51
354.2608295227253
  0
LINE
  5
36EA
330
2
100
AcDbEntity
  8
0
100
AcDbLine
 10
1138.059171748527
 20
766.7425856632485
 30
0.0
 11
1138.059171748528
 21
676.7425856632483
 31
0.0
  0
ARC
  5
36EB
330
2
100
AcDbEntity
  8
0
100
AcDbCircle
 10
1113.559171748528
 20
689.2425856632483
 30
0.0
 40
2.0
100
AcDbArc
 50
0.0
 51
90.0
  0
LINE
  5
36ED
330
2
100
AcDbEntity
  8
0
100
AcDbLine
 10
1109.559171748527
 20
745.7425856632482
 30
0.0
 11
1113.559171748528
 21
745.7425856632482
 31
0.0
  0
ARC
  5
36EE
330
2
100
AcDbEntity
  8
0
100
AcDbCircle
 10
1109.559171748527
 20
743.7425856632483
 30
0.0
 40
2.0
100
AcDbArc
 50
90.0
 51
180.0
  0
LINE
  5
36EF
330
2
100
AcDbEntity
  8
0
100
AcDbLine
 10
1109.559171748527
 20
691.2425856632482
 30
0.0
 11
1113.559171748528
 21
691.2425856632482
 31
0.0
  0
LINE
  5
36F0
330
2
100
AcDbEntity
  8
0
100
AcDbLine
 10
1053.559171748526
 20
661.7425856632483
 30
0.0
 11
1065.10929737746
 21
661.742585663248
 31
0.0
  0
LINE
  5
36F1
330
2
100
AcDbEntity
  8
0
100
AcDbLine
 10
1053.559171748527
 20
661.2425856632483
 30
0.0
 11
1065.071679570808
 21
661.242585663248
 31
0.0
  0
LINE
  5
36F2
330
2
100
AcDbEntity
  8
0
100
AcDbLine
 10
1107.559171748527
 20
743.7425856632483
 30
0.0
 11
1107.559171748527
 21
693.2425856632483
 31
0.0
  0
ARC
  5
36F3
330
2
100
AcDbEntity
  8
0
100
AcDbCircle
 10
1109.559171748527
 20
693.2425856632483
 30
0.0
 40
2.0
100
AcDbArc
 50
180.0
 51
270.0
  0
LINE
  5
36F4
330
2
100
AcDbEntity
  8
0
100
AcDbLine
 10
1115.559171748528
 20
764.7425856632483
 30
0.0
 11
1115.559171748528
 21
747.7425856632483
 31
0.0
  0
ARC
  5
36F5
330
2
100
AcDbEntity
  8
0
100
AcDbCircle
 10
1117.559171748528
 20
764.7425856632483
 30
0.0
 40
2.0
100
AcDbArc
 50
90.0
 51
180.0
  0
ARC
  5
36F6
330
2
100
AcDbEntity
  8
0
100
AcDbCircle
 10
1113.559171748528
 20
747.7425856632483
 30
0.0
 40
2.0
100
AcDbArc
 50
270.0
 51
0.0
  0
LINE
  5
36F7
330
2
100
AcDbEntity
  8
CENTER
100
AcDbLine
 10
1119.559171748527
 20
712.4925856632478
 30
0.0
 11
1119.559171748527
 21
690.9925856632478
 31
0.0
  0
LINE
  5
36F8
330
2
100
AcDbEntity
  8
CENTER
100
AcDbLine
 10
1108.809171748527
 20
701.7425856632478
 30
0.0
 11
1130.309171748527
 21
701.7425856632478
 31
0.0
  0
ARC
  5
36F9
330
2
100
AcDbEntity
  8
0
100
AcDbCircle
 10
1075.059171748527
 20
780.7425856632483
 30
0.0
 40
8.0
100
AcDbArc
 50
182.8659839825963
 51
210.881210942666
  0
ARC
  5
36FA
330
2
100
AcDbEntity
  8
0
100
AcDbCircle
 10
1075.059171748527
 20
780.7425856632483
 30
0.0
 40
8.0
100
AcDbArc
 50
215.6590876964529
 51
217.3736074376382
  0
ARC
  5
36FB
330
2
100
AcDbEntity
  8
0
100
AcDbCircle
 10
1075.059171748527
 20
780.7425856632483
 30
0.0
 40
8.0
100
AcDbArc
 50
266.4166783017107
 51
270.0
  0
ARC
  5
36FC
330
2
100
AcDbEntity
  8
0
100
AcDbCircle
 10
1065.071679570808
 20
780.2425856632482
 30
0.0
 40
2.0
100
AcDbArc
 50
2.86598398259632
 51
90.0
  0
ARC
  5
36FD
330
2
100
AcDbEntity
  8
0
100
AcDbCircle
 10
1065.10929737746
 20
779.7425856632482
 30
0.0
 40
2.0
100
AcDbArc
 50
5.739170477261705
 51
90.0
  0
LINE
  5
36FE
330
2
100
AcDbEntity
  8
0
100
AcDbLine
 10
1109.559171748527
 20
766.7425856632482
 30
0.0
 11
1138.059171748527
 21
766.7425856632482
 31
0.0
  0
LINE
  5
36FF
330
2
100
AcDbEntity
  8
0
100
AcDbLine
 10
1075.059171748527
 20
772.7425856632483
 30
0.0
 11
1105.559171748527
 21
772.7425856632487
 31
0.0
  0
ARC
  5
3700
330
2
100
AcDbEntity
  8
0
100
AcDbCircle
 10
1105.559171748527
 20
770.7425856632487
 30
0.0
 40
2.0
100
AcDbArc
 50
0.0
 51
90.0
  0
LINE
  5
3701
330
2
100
AcDbEntity
  8
0
100
AcDbLine
 10
1053.559171748527
 20
781.7425856632483
 30
0.0
 11
1065.10929737746
 21
781.7425856632483
 31
0.0
  0
LINE
  5
3702
330
2
100
AcDbEntity
  8
0
100
AcDbLine
 10
1053.559171748527
 20
782.2425856632483
 30
0.0
 11
1065.071679570808
 21
782.2425856632483
 31
0.0
  0
LINE
  5
3703
330
2
100
AcDbEntity
  8
0
100
AcDbLine
 10
1107.559171748527
 20
768.7425856632483
 30
0.0
 11
1107.559171748527
 21
770.7425856632487
 31
0.0
  0
ARC
  5
3704
330
2
100
AcDbEntity
  8
0
100
AcDbCircle
 10
1109.559171748527
 20
768.7425856632483
 30
0.0
 40
2.0
100
AcDbArc
 50
180.0
 51
270.0
  0
LINE
  5
3705
330
2
100
AcDbEntity
  8
0
100
AcDbLine
 10
1115.559171748528
 20
678.7425856632482
 30
0.0
 11
1115.559171748528
 21
689.2425856632483
 31
0.0
  0
ARC
  5
3706
330
2
100
AcDbEntity
  8
0
100
AcDbCircle
 10
1117.559171748528
 20
678.7425856632482
 30
0.0
 40
2.0
100
AcDbArc
 50
180.0
 51
270.0
  0
LINE
  5
3707
330
2
100
AcDbEntity
  8
0
100
AcDbLine
 10
1109.559171748527
 20
676.7425856632483
 30
0.0
 11
1138.059171748528
 21
676.7425856632483
 31
0.0
  0
LINE
  5
3708
330
2
100
AcDbEntity
  8
0
100
AcDbLine
 10
1075.059171748527
 20
670.7425856632482
 30
0.0
 11
1105.559171748527
 21
670.7425856632478
 31
0.0
  0
ARC
  5
3709
330
2
100
AcDbEntity
  8
0
100
AcDbCircle
 10
1105.559171748527
 20
672.7425856632478
 30
0.0
 40
2.0
100
AcDbArc
 50
270.0
 51
0.0
  0
LINE
  5
370A
330
2
100
AcDbEntity
  8
0
100
AcDbLine
 10
1107.559171748527
 20
674.7425856632482
 30
0.0
 11
1107.559171748527
 21
672.7425856632478
 31
0.0
  0
ARC
  5
370B
330
2
100
AcDbEntity
  8
0
100
AcDbCircle
 10
1109.559171748527
 20
674.7425856632482
 30
0.0
 40
2.0
100
AcDbArc
 50
90.0
 51
180.0
  0
LINE
  5
370C
330
2
100
AcDbEntity
  8
CENTER
100
AcDbLine
 10
1419.134653580346
 20
409.2456345049858
 30
0.0
 11
1278.133959147957
 21
409.2456345049858
 31
0.0
  0
LINE
  5
370D
330
2
100
AcDbEntity
  8
0
100
AcDbLine
 10
1387.520834257963
 20
454.245634504986
 30
0.0
 11
1309.747778470339
 21
454.245634504986
 31
0.0
  0
LINE
  5
370E
330
2
100
AcDbEntity
  8
0
100
AcDbLine
 10
1387.520834257963
 20
364.245634504986
 30
0.0
 11
1309.747778470339
 21
364.2456345049858
 31
0.0
  0
LINE
  5
370F
330
2
100
AcDbEntity
  8
CENTER
100
AcDbLine
 10
1348.634306364151
 20
479.2456344976604
 30
0.0
 11
1348.634306364151
 21
339.2456344976552
 31
0.0
  0
LINE
  5
3710
330
2
100
AcDbEntity
  8
0
100
AcDbLine
 10
1398.717292481178
 20
349.2456344976552
 30
0.0
 11
1298.551320247124
 21
349.2456344976552
 31
0.0
  0
ARC
  5
3711
330
2
100
AcDbEntity
  8
0
100
AcDbCircle
 10
1398.717292481178
 20
359.2456344976552
 30
0.0
 40
9.999999999999998
100
AcDbArc
 50
270.0
 51
359.5225462226371
  0
LINE
  5
3712
330
2
100
AcDbEntity
  8
0
100
AcDbLine
 10
1298.551320247002
 20
469.2456344976603
 30
0.0
 11
1398.717292481301
 21
469.2456344976603
 31
0.0
  0
LINE
  5
3713
330
2
100
AcDbEntity
  8
CENTER
100
AcDbLine
 10
1397.778227656617
 20
449.8895557974509
 30
0.0
 11
1397.778227656617
 21
466.8895557974506
 31
0.0
  0
LINE
  5
3714
330
2
100
AcDbEntity
  8
CENTER
100
AcDbLine
 10
1389.278227656617
 20
458.3895557974507
 30
0.0
 11
1406.278227656617
 21
458.3895557974507
 31
0.0
  0
LINE
  5
3715
330
2
100
AcDbEntity
  8
CENTER
100
AcDbLine
 10
1397.778227656617
 20
351.6017132125206
 30
0.0
 11
1397.778227656617
 21
368.6017132125206
 31
0.0
  0
LINE
  5
3716
330
2
100
AcDbEntity
  8
CENTER
100
AcDbLine
 10
1389.278227656617
 20
360.1017132125206
 30
0.0
 11
1406.278227656617
 21
360.1017132125206
 31
0.0
  0
LINE
  5
3717
330
2
100
AcDbEntity
  8
CENTER
100
AcDbLine
 10
1299.490385071686
 20
351.6017132125206
 30
0.0
 11
1299.490385071686
 21
368.6017132125206
 31
0.0
  0
LINE
  5
3718
330
2
100
AcDbEntity
  8
CENTER
100
AcDbLine
 10
1290.990385071686
 20
360.1017132125206
 30
0.0
 11
1307.990385071686
 21
360.1017132125206
 31
0.0
  0
LINE
  5
3719
330
2
100
AcDbEntity
  8
CENTER
100
AcDbLine
 10
1299.490385071686
 20
449.8895557974509
 30
0.0
 11
1299.490385071686
 21
466.8895557974506
 31
0.0
  0
LINE
  5
371A
330
2
100
AcDbEntity
  8
CENTER
100
AcDbLine
 10
1290.990385071686
 20
458.3895557974507
 30
0.0
 11
1307.990385071686
 21
458.3895557974507
 31
0.0
  0
LINE
  5
371B
330
2
100
AcDbEntity
  8
CENTER
  6
CENTER_小_
100
AcDbLine
 10
1383.989645423478
 20
436.1009735643132
 30
0.0
 11
1383.989645423478
 21
453.1009735643132
 31
0.0
  0
LINE
  5
371C
330
2
100
AcDbEntity
  8
CENTER
  6
CENTER_小_
100
AcDbLine
 10
1375.489645423479
 20
444.6009735643132
 30
0.0
 11
1392.489645423478
 21
444.6009735643132
 31
0.0
  0
LINE
  5
371D
330
2
100
AcDbEntity
  8
CENTER
  6
CENTER_小_
100
AcDbLine
 10
1383.989645423478
 20
365.3902954456583
 30
0.0
 11
1383.989645423478
 21
382.3902954456583
 31
0.0
  0
LINE
  5
371E
330
2
100
AcDbEntity
  8
CENTER
  6
CENTER_小_
100
AcDbLine
 10
1375.489645423479
 20
373.8902954456583
 30
0.0
 11
1392.489645423478
 21
373.8902954456583
 31
0.0
  0
LINE
  5
371F
330
2
100
AcDbEntity
  8
CENTER
  6
CENTER_小_
100
AcDbLine
 10
1313.278967304825
 20
365.3902954456583
 30
0.0
 11
1313.278967304825
 21
382.3902954456583
 31
0.0
  0
LINE
  5
3720
330
2
100
AcDbEntity
  8
CENTER
  6
CENTER_小_
100
AcDbLine
 10
1304.778967304824
 20
373.8902954456583
 30
0.0
 11
1321.778967304824
 21
373.8902954456583
 31
0.0
  0
LINE
  5
3721
330
2
100
AcDbEntity
  8
CENTER
  6
CENTER_小_
100
AcDbLine
 10
1313.278967304825
 20
436.1009735643132
 30
0.0
 11
1313.278967304825
 21
453.1009735643132
 31
0.0
  0
LINE
  5
3722
330
2
100
AcDbEntity
  8
CENTER
  6
CENTER_小_
100
AcDbLine
 10
1304.778967304824
 20
444.6009735643132
 30
0.0
 11
1321.778967304824
 21
444.6009735643132
 31
0.0
  0
ARC
  5
3723
330
2
100
AcDbEntity
  8
HIDS
  6
SEKKEI_H
100
AcDbCircle
 10
1348.634306364151
 20
409.2456345049858
 30
0.0
 40
50.99999999999997
100
AcDbArc
 50
106.3235402486149
 51
151.7603918884175
  0
ARC
  5
3724
330
2
100
AcDbEntity
  8
HIDS
  6
SEKKEI_H
100
AcDbCircle
 10
1313.13430636415
 20
452.555564082393
 30
0.0
 40
4.999999999999998
100
AcDbArc
 50
309.3405638356654
 51
357.4623623317994
  0
ARC
  5
3725
330
2
100
AcDbEntity
  8
HIDS
  6
SEKKEI_H
100
AcDbCircle
 10
1320.127441830953
 20
452.2456345049859
 30
0.0
 40
1.999999999999999
100
AcDbArc
 50
90.0
 51
177.4623623317994
  0
ARC
  5
3726
330
2
100
AcDbEntity
  8
HIDS
  6
SEKKEI_H
100
AcDbCircle
 10
1348.634306364151
 20
409.2456345049858
 30
0.0
 40
50.99999999999997
100
AcDbArc
 50
208.2396081115823
 51
241.9275130641455
  0
ARC
  5
3727
330
2
100
AcDbEntity
  8
0
100
AcDbCircle
 10
1348.634306364151
 20
409.2456345049858
 30
0.0
 40
50.99999999999997
100
AcDbArc
 50
241.9275130641455
 51
298.0724869358544
  0
ARC
  5
3728
330
2
100
AcDbEntity
  8
HIDS
  6
SEKKEI_H
100
AcDbCircle
 10
1348.634306364151
 20
409.2456345049858
 30
0.0
 40
50.99999999999997
100
AcDbArc
 50
298.0724869358544
 51
331.7603918884175
  0
ARC
  5
3729
330
2
100
AcDbEntity
  8
0
100
AcDbCircle
 10
1348.634306364151
 20
409.2456345049858
 30
0.0
 40
50.99999999999997
100
AcDbArc
 50
331.7603918884175
 51
28.23960811158241
  0
ARC
  5
372A
330
2
100
AcDbEntity
  8
HIDS
  6
SEKKEI_H
100
AcDbCircle
 10
1348.634306364151
 20
409.2456345049858
 30
0.0
 40
50.99999999999997
100
AcDbArc
 50
28.23960811158241
 51
61.9275130641455
  0
ARC
  5
372B
330
2
100
AcDbEntity
  8
0
100
AcDbCircle
 10
1348.634306364151
 20
409.2456345049858
 30
0.0
 40
50.99999999999997
100
AcDbArc
 50
61.9275130641455
 51
106.3235402486149
  0
ARC
  5
372C
330
2
100
AcDbEntity
  8
0
100
AcDbCircle
 10
1348.634306364151
 20
409.2456345049858
 30
0.0
 40
50.99999999999997
100
AcDbArc
 50
151.7603918884175
 51
208.2396081115823
  0
ARC
  5
372D
330
2
100
AcDbEntity
  8
HIDS
  6
SEKKEI_H
100
AcDbCircle
 10
1384.134306364152
 20
365.9357049275782
 30
0.0
 40
4.999999999999998
100
AcDbArc
 50
129.3405638356654
 51
177.4623623317862
  0
ARC
  5
372E
330
2
100
AcDbEntity
  8
HIDS
  6
SEKKEI_H
100
AcDbCircle
 10
1377.141170897349
 20
366.2456345049853
 30
0.0
 40
1.999999999999999
100
AcDbArc
 50
270.0
 51
357.4623623318124
  0
LINE
  5
372F
330
2
100
AcDbEntity
  8
0
100
AcDbLine
 10
1288.134306364151
 20
409.2456345049858
 30
0.0
 11
1288.551667451141
 21
459.3289649376357
 31
0.0
  0
ARC
  5
3730
330
2
100
AcDbEntity
  8
0
100
AcDbCircle
 10
1298.551320247002
 20
459.24563449766
 30
0.0
 40
9.999999999999998
100
AcDbArc
 50
90.0
 51
179.5225462226371
  0
LINE
  5
3731
330
2
100
AcDbEntity
  8
0
100
AcDbLine
 10
1409.134306364151
 20
409.2456345049858
 30
0.0
 11
1408.716945277162
 21
459.3289649376357
 31
0.0
  0
ARC
  5
3732
330
2
100
AcDbEntity
  8
0
100
AcDbCircle
 10
1398.717292481301
 20
459.24563449766
 30
0.0
 40
9.999999999999998
100
AcDbArc
 50
0.4774537773629072
 51
90.0
  0
LINE
  5
3733
330
2
100
AcDbEntity
  8
0
100
AcDbLine
 10
1288.134306364151
 20
409.2456345049855
 30
0.0
 11
1288.551667451263
 21
359.1623040576797
 31
0.0
  0
ARC
  5
3734
330
2
100
AcDbEntity
  8
0
100
AcDbCircle
 10
1298.551320247124
 20
359.2456344976552
 30
0.0
 40
9.999999999999998
100
AcDbArc
 50
180.4774537773629
 51
270.0
  0
LINE
  5
3735
330
2
100
AcDbEntity
  8
0
100
AcDbLine
 10
1409.134306364151
 20
409.2456345049855
 30
0.0
 11
1408.716945277039
 21
359.1623040576797
 31
0.0
  0
LINE
  5
3736
330
2
100
AcDbEntity
  8
0
100
AcDbLine
 10
1303.634306364152
 20
409.2456345049858
 30
0.0
 11
1288.134306364151
 21
409.2456345049855
 31
0.0
  0
LINE
  5
3737
330
2
100
AcDbEntity
  8
0
100
AcDbLine
 10
1393.634306364151
 20
409.2456345049858
 30
0.0
 11
1409.134306364151
 21
409.2456345049855
 31
0.0
  0
LINE
  5
3738
330
2
100
AcDbEntity
  8
0
100
AcDbLine
 10
1393.520808873195
 20
448.263087772885
 30
0.0
 11
1393.634306364151
 21
409.2456345049858
 31
0.0
  0
ARC
  5
3739
330
2
100
AcDbEntity
  8
0
100
AcDbCircle
 10
1387.520834257963
 20
448.245634504986
 30
0.0
 40
6.0
100
AcDbArc
 50
0.1666666665969645
 51
90.0
  0
LINE
  5
373A
330
2
100
AcDbEntity
  8
0
100
AcDbLine
 10
1303.747803855107
 20
448.263087772885
 30
0.0
 11
1303.634306364152
 21
409.2456345049858
 31
0.0
  0
ARC
  5
373B
330
2
100
AcDbEntity
  8
0
100
AcDbCircle
 10
1309.747778470339
 20
448.245634504986
 30
0.0
 40
6.0
100
AcDbArc
 50
90.0
 51
179.833333333403
  0
LINE
  5
373C
330
2
100
AcDbEntity
  8
0
100
AcDbLine
 10
1393.520808873196
 20
370.2281812370864
 30
0.0
 11
1393.634306364151
 21
409.2456345049858
 31
0.0
  0
ARC
  5
373D
330
2
100
AcDbEntity
  8
0
100
AcDbCircle
 10
1387.520834257963
 20
370.2456345049855
 30
0.0
 40
6.0
100
AcDbArc
 50
270.0
 51
359.8333333333899
  0
LINE
  5
373E
330
2
100
AcDbEntity
  8
0
100
AcDbLine
 10
1303.747803855107
 20
370.2281812370864
 30
0.0
 11
1303.634306364152
 21
409.2456345049858
 31
0.0
  0
ARC
  5
373F
330
2
100
AcDbEntity
  8
0
100
AcDbCircle
 10
1309.747778470339
 20
370.2456345049855
 30
0.0
 40
6.0
100
AcDbArc
 50
180.16666666661
 51
270.0
  0
CIRCLE
  5
3740
330
2
100
AcDbEntity
  8
HOJO
100
AcDbCircle
 10
1383.989645423478
 20
373.8902954456583
 30
0.0
 40
3.0
  0
CIRCLE
  5
3741
330
2
100
AcDbEntity
  8
0
100
AcDbCircle
 10
1383.989645423478
 20
373.8902954456583
 30
0.0
 40
2.5
  0
CIRCLE
  5
3742
330
2
100
AcDbEntity
  8
HOJO
100
AcDbCircle
 10
1383.989645423478
 20
444.6009735643132
 30
0.0
 40
3.0
  0
CIRCLE
  5
3743
330
2
100
AcDbEntity
  8
0
100
AcDbCircle
 10
1383.989645423478
 20
444.6009735643132
 30
0.0
 40
2.5
  0
CIRCLE
  5
3744
330
2
100
AcDbEntity
  8
HOJO
100
AcDbCircle
 10
1313.278967304825
 20
444.6009735643132
 30
0.0
 40
3.0
  0
CIRCLE
  5
3745
330
2
100
AcDbEntity
  8
0
100
AcDbCircle
 10
1313.278967304825
 20
444.6009735643132
 30
0.0
 40
2.5
  0
CIRCLE
  5
3746
330
2
100
AcDbEntity
  8
HOJO
100
AcDbCircle
 10
1313.278967304825
 20
373.8902954456583
 30
0.0
 40
3.0
  0
CIRCLE
  5
3747
330
2
100
AcDbEntity
  8
0
100
AcDbCircle
 10
1313.278967304825
 20
373.8902954456583
 30
0.0
 40
2.5
  0
CIRCLE
  5
3748
330
2
100
AcDbEntity
  8
0
100
AcDbCircle
 10
1348.634306364151
 20
409.2456345049858
 30
0.0
 40
40.00000000000045
  0
ARC
  5
3749
330
2
100
AcDbEntity
  8
HIDS
  6
SEKKEI_H
100
AcDbCircle
 10
1384.134306364152
 20
365.9357049275785
 30
0.0
 40
4.999999999999998
100
AcDbArc
 50
129.3405638356654
 51
177.4623623317994
  0
ARC
  5
374A
330
2
100
AcDbEntity
  8
HIDS
  6
SEKKEI_H
100
AcDbCircle
 10
1377.141170897349
 20
366.2456345049855
 30
0.0
 40
1.999999999999999
100
AcDbArc
 50
270.0
 51
357.4623623317994
  0
CIRCLE
  5
374D
330
2
100
AcDbEntity
  8
CENTER
100
AcDbCircle
 10
1348.634306364151
 20
409.2456345049858
 30
0.0
 40
49.99999999999976
  0
LINE
  5
374E
330
2
100
AcDbEntity
  8
HIDS
  6
SEKKEI_H
100
AcDbLine
 10
1334.259112611055
 20
446.5732891937149
 30
0.0
 11
1334.393033896615
 21
454.245634504986
 31
0.0
  0
LINE
  5
374F
330
2
100
AcDbEntity
  8
HIDS
  6
SEKKEI_H
100
AcDbLine
 10
1323.123285545908
 20
440.0545263515165
 30
0.0
 11
1322.875578831688
 21
454.2456345049859
 31
0.0
  0
LINE
  5
3750
330
2
100
AcDbEntity
  8
CENTER
100
AcDbLine
 10
1348.634306364151
 20
456.4254814440982
 30
0.0
 11
1348.634306364151
 21
447.0657875658734
 31
0.0
  0
LINE
  5
3751
330
2
100
AcDbEntity
  8
0
100
AcDbLine
 10
429.4035125457651
 20
349.2456345049861
 30
0.0
 11
429.4035125457653
 21
469.2456345049863
 31
0.0
  0
LINE
  5
3753
330
2
100
AcDbEntity
  8
0
100
AcDbLine
 10
429.4035125457651
 20
349.2456345049861
 30
0.0
 11
418.8820171232182
 21
349.2456345049857
 31
0.0
  0
LINE
  5
3754
330
2
100
AcDbEntity
  8
0
100
AcDbLine
 10
429.4035125457651
 20
349.2456345049861
 30
0.0
 11
429.4035125457655
 21
469.2456345049863
 31
0.0
  0
LINE
  5
3755
330
2
100
AcDbEntity
  8
0
100
AcDbLine
 10
415.8692116816844
 20
351.2107296921115
 30
0.0
 11
414.8562086500866
 21
409.2456345049859
 31
0.0
  0
LINE
  5
3756
330
2
100
AcDbEntity
  8
0
100
AcDbLine
 10
366.6523354880762
 20
366.2107296921115
 30
0.0
 11
366.9502901234059
 21
383.2805393178606
 31
0.0
  0
ARC
  5
3757
330
2
100
AcDbEntity
  8
0
100
AcDbCircle
 10
368.9499855137189
 20
383.2456345049859
 30
0.0
 40
2.0
100
AcDbArc
 50
90.0
 51
178.9999999999982
  0
LINE
  5
3758
330
2
100
AcDbEntity
  8
0
100
AcDbLine
 10
344.9035125457655
 20
364.2456345049859
 30
0.0
 11
344.9035125457642
 21
454.2456345049862
 31
0.0
  0
LINE
  5
3759
330
2
100
AcDbEntity
  8
CENTER
100
AcDbLine
 10
363.4035125457655
 20
446.1349420098694
 30
0.0
 11
363.4035125457642
 21
462.7453056412222
 31
0.0
  0
LINE
  5
375A
330
2
100
AcDbEntity
  8
0
100
AcDbLine
 10
373.787219318098
 20
385.2456345049859
 30
0.0
 11
368.9499855137189
 21
385.2456345049859
 31
0.0
  0
LINE
  5
375B
330
2
100
AcDbEntity
  8
0
100
AcDbLine
 10
375.7869147084109
 20
387.2805393178606
 30
0.0
 11
375.4035125457651
 21
409.2456345049861
 31
0.0
  0
ARC
  5
375C
330
2
100
AcDbEntity
  8
0
100
AcDbCircle
 10
373.787219318098
 20
387.2456345049859
 30
0.0
 40
2.0
100
AcDbArc
 50
270.0
 51
1.000000000001761
  0
LINE
  5
375D
330
2
100
AcDbEntity
  8
0
100
AcDbLine
 10
373.7253132834105
 20
364.2456345049861
 30
0.0
 11
344.9035125457658
 21
364.2456345049859
 31
0.0
  0
ARC
  5
375E
330
2
100
AcDbEntity
  8
0
100
AcDbCircle
 10
364.6526400977634
 20
366.2456345049861
 30
0.0
 40
2.0
100
AcDbArc
 50
270.0
 51
358.9999999999982
  0
LINE
  5
375F
330
2
100
AcDbEntity
  8
0
100
AcDbLine
 10
407.9190327009312
 20
358.2456345049859
 30
0.0
 11
378.1396736923709
 21
358.2456345049859
 31
0.0
  0
ARC
  5
3760
330
2
100
AcDbEntity
  8
0
100
AcDbCircle
 10
378.1396736923709
 20
360.2456345049859
 30
0.0
 40
2.0
100
AcDbArc
 50
189.999999999989
 51
270.0
  0
LINE
  5
3761
330
2
100
AcDbEntity
  8
0
100
AcDbLine
 10
429.4035125457651
 20
349.2456345049859
 30
0.0
 11
417.8689070719972
 21
349.2456345049855
 31
0.0
  0
ARC
  5
3762
330
2
100
AcDbEntity
  8
0
100
AcDbCircle
 10
417.8689070719972
 20
351.2456345049855
 30
0.0
 40
2.0
100
AcDbArc
 50
185.7391704772616
 51
270.0
  0
ARC
  5
3763
330
2
100
AcDbEntity
  8
0
100
AcDbCircle
 10
407.9190327009312
 20
350.2456345049859
 30
0.0
 40
8.0
100
AcDbArc
 50
5.739170477261707
 51
30.88121094266607
  0
ARC
  5
3764
330
2
100
AcDbEntity
  8
0
100
AcDbCircle
 10
407.9190327009312
 20
350.2456345049859
 30
0.0
 40
8.0
100
AcDbArc
 50
88.60600181533426
 51
90.0
  0
LINE
  5
3765
330
2
100
AcDbEntity
  8
0
100
AcDbLine
 10
344.9035125457646
 20
409.2456345049861
 30
0.0
 11
429.4035125457651
 21
409.2456345049861
 31
0.0
  0
LINE
  5
3766
330
2
100
AcDbEntity
  8
0
100
AcDbLine
 10
429.4035125457655
 20
469.2456345049863
 30
0.0
 11
417.8689070719972
 21
469.2456345049867
 31
0.0
  0
LINE
  5
3767
330
2
100
AcDbEntity
  8
0
100
AcDbLine
 10
375.6949287894351
 20
362.59293086032
 30
0.0
 11
376.1700581863463
 21
359.8983381496521
 31
0.0
  0
ARC
  5
3768
330
2
100
AcDbEntity
  8
0
100
AcDbCircle
 10
373.7253132834105
 20
362.2456345049862
 30
0.0
 40
2.0
100
AcDbArc
 50
9.999999999988997
 51
90.0
  0
LINE
  5
3769
330
2
100
AcDbEntity
  8
0
100
AcDbLine
 10
373.787219318098
 20
433.2456345049862
 30
0.0
 11
368.9499855137187
 21
433.2456345049862
 31
0.0
  0
LINE
  5
376A
330
2
100
AcDbEntity
  8
0
100
AcDbLine
 10
375.7869147084109
 20
431.2107296921118
 30
0.0
 11
375.4035125457651
 21
409.2456345049861
 31
0.0
  0
ARC
  5
376B
330
2
100
AcDbEntity
  8
0
100
AcDbCircle
 10
373.787219318098
 20
431.2456345049861
 30
0.0
 40
2.0
100
AcDbArc
 50
358.9999999999982
 51
90.0
  0
LINE
  5
376C
330
2
100
AcDbEntity
  8
0
100
AcDbLine
 10
373.7253132834105
 20
454.2456345049859
 30
0.0
 11
344.9035125457646
 21
454.2456345049862
 31
0.0
  0
LINE
  5
376D
330
2
100
AcDbEntity
  8
0
100
AcDbLine
 10
407.9190327009312
 20
460.2456345049859
 30
0.0
 11
378.1396736923709
 21
460.2456345049861
 31
0.0
  0
ARC
  5
376E
330
2
100
AcDbEntity
  8
0
100
AcDbCircle
 10
378.1396736923709
 20
458.2456345049862
 30
0.0
 40
2.0
100
AcDbArc
 50
90.0
 51
169.9999999999917
  0
LINE
  5
376F
330
2
100
AcDbEntity
  8
0
100
AcDbLine
 10
375.6949287894351
 20
455.8983381496523
 30
0.0
 11
376.1700581863463
 21
458.5929308603202
 31
0.0
  0
ARC
  5
3770
330
2
100
AcDbEntity
  8
0
100
AcDbCircle
 10
373.7253132834105
 20
456.2456345049861
 30
0.0
 40
2.0
100
AcDbArc
 50
270.0
 51
349.9999999999917
  0
LINE
  5
3771
330
2
100
AcDbEntity
  8
0
100
AcDbLine
 10
415.8692116816844
 20
467.2805393178613
 30
0.0
 11
414.8562086500866
 21
409.2456345049866
 31
0.0
  0
ARC
  5
3772
330
2
100
AcDbEntity
  8
0
100
AcDbCircle
 10
417.8689070719972
 20
467.2456345049872
 30
0.0
 40
2.0
100
AcDbArc
 50
90.0
 51
174.2608295227383
  0
ARC
  5
3773
330
2
100
AcDbEntity
  8
0
100
AcDbCircle
 10
407.9190327009312
 20
468.2456345049867
 30
0.0
 40
8.0
100
AcDbArc
 50
270.0
 51
271.3939981846657
  0
ARC
  5
3774
330
2
100
AcDbEntity
  8
0
100
AcDbCircle
 10
407.9190327009312
 20
468.2456345049867
 30
0.0
 40
8.0
100
AcDbArc
 50
329.1187890573339
 51
354.2608295227382
  0
LINE
  5
3775
330
2
100
AcDbEntity
  8
0
100
AcDbLine
 10
366.6523354880762
 20
452.2805393178607
 30
0.0
 11
366.9502901234059
 21
435.2107296921118
 31
0.0
  0
ARC
  5
3776
330
2
100
AcDbEntity
  8
0
100
AcDbCircle
 10
368.9499855137187
 20
435.2456345049863
 30
0.0
 40
2.0
100
AcDbArc
 50
181.0000000000017
 51
270.0
  0
ARC
  5
3777
330
2
100
AcDbEntity
  8
0
100
AcDbCircle
 10
364.6526400977634
 20
452.2456345049861
 30
0.0
 40
2.0
100
AcDbArc
 50
1.000000000001761
 51
90.0
  0
ARC
  5
3778
330
2
100
AcDbEntity
  8
0
100
AcDbCircle
 10
373.9551988039218
 20
366.2456345049866
 30
0.0
 40
2.0
100
AcDbArc
 50
270.0
 51
358.4999999999973
  0
LINE
  5
3779
330
2
100
AcDbEntity
  8
0
100
AcDbLine
 10
377.9620690174144
 20
368.4556345049866
 30
0.0
 11
372.9777600093327
 21
368.4556345049866
 31
0.0
  0
ARC
  5
377A
330
2
100
AcDbEntity
  8
0
100
AcDbCircle
 10
377.9620690174144
 20
366.4556345049871
 30
0.0
 40
2.0
100
AcDbArc
 50
90.0
 51
178.4999999999973
  0
LINE
  5
377B
330
2
100
AcDbEntity
  8
0
100
AcDbLine
 10
375.9545134538727
 20
366.193280608371
 30
0.0
 11
375.9627543674635
 21
366.5079884016029
 31
0.0
  0
LINE
  5
377D
330
2
100
AcDbEntity
  8
0
100
AcDbLine
 10
1333.634306364151
 20
458.2456345049857
 30
0.0
 11
1323.634306364152
 21
458.2456345049857
 31
0.0
  0
ARC
  5
377E
330
2
100
AcDbEntity
  8
0
100
AcDbCircle
 10
1323.634306364152
 20
454.2456345049857
 30
0.0
 40
4.0
100
AcDbArc
 50
90.0
 51
180.0
  0
ARC
  5
377F
330
2
100
AcDbEntity
  8
0
100
AcDbCircle
 10
1333.634306364151
 20
454.2456345049857
 30
0.0
 40
4.0
100
AcDbArc
 50
0.0
 51
90.0
  0
LINE
  5
3780
330
2
100
AcDbEntity
  8
0
100
AcDbLine
 10
1124.559171748527
 20
458.2456345049855
 30
0.0
 11
1114.559171748527
 21
458.2456345049855
 31
0.0
  0
ARC
  5
3781
330
2
100
AcDbEntity
  8
0
100
AcDbCircle
 10
1114.559171748527
 20
454.2456345049855
 30
0.0
 40
4.0
100
AcDbArc
 50
90.0
 51
180.0
  0
ARC
  5
3782
330
2
100
AcDbEntity
  8
0
100
AcDbCircle
 10
1124.559171748527
 20
454.2456345049855
 30
0.0
 40
4.0
100
AcDbArc
 50
0.0
 51
90.0
  0
LINE
  5
3783
330
2
100
AcDbEntity
  8
0
100
AcDbLine
 10
368.4035125457648
 20
458.2456345049858
 30
0.0
 11
358.4035125457649
 21
458.2456345049858
 31
0.0
  0
ARC
  5
3784
330
2
100
AcDbEntity
  8
0
100
AcDbCircle
 10
358.4035125457649
 20
454.2456345049858
 30
0.0
 40
4.0
100
AcDbArc
 50
90.0
 51
180.0
  0
ARC
  5
3785
330
2
100
AcDbEntity
  8
0
100
AcDbCircle
 10
368.4035125457648
 20
454.2456345049858
 30
0.0
 40
4.0
100
AcDbArc
 50
0.0
 51
90.0
  0
CIRCLE
  5
3786
330
2
100
AcDbEntity
  8
0
100
AcDbCircle
 10
1119.559171748527
 20
701.7425856632478
 30
0.0
 40
9.0
  0
LINE
  5
3787
330
2
100
AcDbEntity
  8
0
100
AcDbLine
 10
415.6136523637265
 20
464.139555797451
 30
0.0
 11
414.113652363726
 21
464.139555797451
 31
0.0
  0
LINE
  5
3788
330
2
100
AcDbEntity
  8
0
100
AcDbLine
 10
415.6136523637262
 20
452.639555797451
 30
0.0
 11
414.1136523637253
 21
452.6395557974513
 31
0.0
  0
LINE
  5
3789
330
2
100
AcDbEntity
  8
0
100
AcDbLine
 10
408.513652363726
 20
463.3895557974516
 30
0.0
 11
408.1136523637264
 21
462.6967354744243
 31
0.0
  0
LINE
  5
378A
330
2
100
AcDbEntity
  8
0
100
AcDbLine
 10
414.113652363726
 20
464.139555797451
 30
0.0
 11
414.1136523637253
 21
452.6395557974513
 31
0.0
  0
LINE
  5
378B
330
2
100
AcDbEntity
  8
0
100
AcDbLine
 10
408.513652363726
 20
463.3895557974516
 30
0.0
 11
408.513652363726
 21
453.3895557974513
 31
0.0
  0
LINE
  5
378C
330
2
100
AcDbEntity
  8
0
100
AcDbLine
 10
414.113652363726
 20
463.389555797451
 30
0.0
 11
408.513652363726
 21
463.3895557974516
 31
0.0
  0
LINE
  5
378D
330
2
100
AcDbEntity
  8
0
100
AcDbLine
 10
414.1136523637255
 20
453.3895557974513
 30
0.0
 11
408.513652363726
 21
453.3895557974513
 31
0.0
  0
LINE
  5
378E
330
2
100
AcDbEntity
  8
0
100
AcDbLine
 10
408.513652363726
 20
453.3895557974513
 30
0.0
 11
408.1136523637264
 21
454.0823761204785
 31
0.0
  0
LINE
  5
378F
330
2
100
AcDbEntity
  8
0
100
AcDbLine
 10
408.1136523637264
 20
462.6967354744243
 30
0.0
 11
408.1136523637264
 21
454.0823761204785
 31
0.0
  0
LINE
  5
3790
330
2
100
AcDbEntity
  8
0
 48
12.0
100
AcDbLine
 10
415.6136523637262
 20
452.639555797451
 30
0.0
 11
415.6136523637265
 21
464.139555797451
 31
0.0
  0
LINE
  5
3791
330
2
100
AcDbEntity
  8
0
100
AcDbLine
 10
1067.059171748551
 20
765.1365069557134
 30
0.0
 11
1068.559171748552
 21
765.1365069557134
 31
0.0
  0
LINE
  5
3792
330
2
100
AcDbEntity
  8
0
100
AcDbLine
 10
1067.059171748551
 20
776.6365069557134
 30
0.0
 11
1068.559171748552
 21
776.6365069557134
 31
0.0
  0
LINE
  5
3793
330
2
100
AcDbEntity
  8
0
100
AcDbLine
 10
1074.159171748552
 20
765.8865069557134
 30
0.0
 11
1074.559171748551
 21
766.5793272787407
 31
0.0
  0
LINE
  5
3794
330
2
100
AcDbEntity
  8
0
100
AcDbLine
 10
1068.559171748552
 20
765.1365069557134
 30
0.0
 11
1068.559171748552
 21
776.6365069557134
 31
0.0
  0
LINE
  5
3795
330
2
100
AcDbEntity
  8
0
100
AcDbLine
 10
1074.159171748552
 20
765.8865069557134
 30
0.0
 11
1074.159171748552
 21
775.8865069557134
 31
0.0
  0
LINE
  5
3796
330
2
100
AcDbEntity
  8
0
100
AcDbLine
 10
1068.559171748552
 20
765.8865069557134
 30
0.0
 11
1074.159171748552
 21
765.8865069557134
 31
0.0
  0
LINE
  5
3797
330
2
100
AcDbEntity
  8
0
100
AcDbLine
 10
1068.559171748552
 20
775.8865069557134
 30
0.0
 11
1074.159171748552
 21
775.8865069557134
 31
0.0
  0
LINE
  5
3798
330
2
100
AcDbEntity
  8
0
100
AcDbLine
 10
1074.159171748552
 20
775.8865069557134
 30
0.0
 11
1074.559171748551
 21
775.1936866326862
 31
0.0
  0
LINE
  5
3799
330
2
100
AcDbEntity
  8
0
100
AcDbLine
 10
1074.559171748551
 20
766.5793272787407
 30
0.0
 11
1074.559171748551
 21
775.1936866326862
 31
0.0
  0
LINE
  5
379A
330
2
100
AcDbEntity
  8
0
 48
12.0
100
AcDbLine
 10
1067.059171748551
 20
776.6365069557134
 30
0.0
 11
1067.059171748551
 21
765.1365069557134
 31
0.0
  0
LINE
  5
379B
330
2
100
AcDbEntity
  8
0
100
AcDbLine
 10
1067.349031930566
 20
354.3517132125211
 30
0.0
 11
1068.849031930566
 21
354.3517132125211
 31
0.0
  0
LINE
  5
379C
330
2
100
AcDbEntity
  8
0
100
AcDbLine
 10
1067.349031930566
 20
365.8517132125211
 30
0.0
 11
1068.849031930567
 21
365.8517132125211
 31
0.0
  0
LINE
  5
379D
330
2
100
AcDbEntity
  8
0
100
AcDbLine
 10
1074.449031930566
 20
355.1017132125209
 30
0.0
 11
1074.849031930566
 21
355.7945335355481
 31
0.0
  0
LINE
  5
379E
330
2
100
AcDbEntity
  8
0
100
AcDbLine
 10
1068.849031930566
 20
354.3517132125211
 30
0.0
 11
1068.849031930567
 21
365.8517132125211
 31
0.0
  0
LINE
  5
379F
330
2
100
AcDbEntity
  8
0
100
AcDbLine
 10
1074.449031930566
 20
355.1017132125209
 30
0.0
 11
1074.449031930566
 21
365.101713212521
 31
0.0
  0
LINE
  5
37A0
330
2
100
AcDbEntity
  8
0
100
AcDbLine
 10
1068.849031930566
 20
355.1017132125211
 30
0.0
 11
1074.449031930566
 21
355.1017132125209
 31
0.0
  0
LINE
  5
37A1
330
2
100
AcDbEntity
  8
0
100
AcDbLine
 10
1068.849031930567
 20
365.1017132125211
 30
0.0
 11
1074.449031930566
 21
365.101713212521
 31
0.0
  0
LINE
  5
37A2
330
2
100
AcDbEntity
  8
0
100
AcDbLine
 10
1074.449031930566
 20
365.101713212521
 30
0.0
 11
1074.849031930566
 21
364.4088928894937
 31
0.0
  0
LINE
  5
37A3
330
2
100
AcDbEntity
  8
0
100
AcDbLine
 10
1074.849031930566
 20
355.7945335355481
 30
0.0
 11
1074.849031930566
 21
364.4088928894937
 31
0.0
  0
LINE
  5
37A4
330
2
100
AcDbEntity
  8
0
 48
12.0
100
AcDbLine
 10
1067.349031930566
 20
365.8517132125211
 30
0.0
 11
1067.349031930566
 21
354.3517132125211
 31
0.0
  0
LINE
  5
37A5
330
2
100
AcDbEntity
  8
0
100
AcDbLine
 10
1067.349031930566
 20
452.6395557974512
 30
0.0
 11
1068.849031930567
 21
452.6395557974512
 31
0.0
  0
LINE
  5
37A6
330
2
100
AcDbEntity
  8
0
100
AcDbLine
 10
1067.349031930566
 20
464.1395557974511
 30
0.0
 11
1068.849031930567
 21
464.1395557974511
 31
0.0
  0
LINE
  5
37A7
330
2
100
AcDbEntity
  8
0
100
AcDbLine
 10
1074.449031930566
 20
453.389555797451
 30
0.0
 11
1074.849031930566
 21
454.0823761204783
 31
0.0
  0
LINE
  5
37A8
330
2
100
AcDbEntity
  8
0
100
AcDbLine
 10
1068.849031930567
 20
452.6395557974512
 30
0.0
 11
1068.849031930567
 21
464.1395557974511
 31
0.0
  0
LINE
  5
37A9
330
2
100
AcDbEntity
  8
0
100
AcDbLine
 10
1074.449031930566
 20
453.389555797451
 30
0.0
 11
1074.449031930566
 21
463.389555797451
 31
0.0
  0
LINE
  5
37AA
330
2
100
AcDbEntity
  8
0
100
AcDbLine
 10
1068.849031930567
 20
453.3895557974512
 30
0.0
 11
1074.449031930566
 21
453.389555797451
 31
0.0
  0
LINE
  5
37AB
330
2
100
AcDbEntity
  8
0
100
AcDbLine
 10
1068.849031930567
 20
463.3895557974512
 30
0.0
 11
1074.449031930566
 21
463.389555797451
 31
0.0
  0
LINE
  5
37AC
330
2
100
AcDbEntity
  8
0
100
AcDbLine
 10
1074.449031930566
 20
463.389555797451
 30
0.0
 11
1074.849031930566
 21
462.6967354744238
 31
0.0
  0
LINE
  5
37AD
330
2
100
AcDbEntity
  8
0
100
AcDbLine
 10
1074.849031930566
 20
454.0823761204783
 30
0.0
 11
1074.849031930566
 21
462.6967354744238
 31
0.0
  0
LINE
  5
37AE
330
2
100
AcDbEntity
  8
0
 48
12.0
100
AcDbLine
 10
1067.349031930566
 20
464.1395557974511
 30
0.0
 11
1067.349031930566
 21
452.6395557974512
 31
0.0
  0
LINE
  5
37AF
330
2
100
AcDbEntity
  8
0
100
AcDbLine
 10
415.6136523637262
 20
365.851713212521
 30
0.0
 11
414.1136523637258
 21
365.851713212521
 31
0.0
  0
LINE
  5
37B0
330
2
100
AcDbEntity
  8
0
100
AcDbLine
 10
415.613652363726
 20
354.351713212521
 30
0.0
 11
414.1136523637251
 21
354.3517132125212
 31
0.0
  0
LINE
  5
37B1
330
2
100
AcDbEntity
  8
0
100
AcDbLine
 10
408.5136523637259
 20
365.1017132125214
 30
0.0
 11
408.1136523637262
 21
364.4088928894942
 31
0.0
  0
LINE
  5
37B2
330
2
100
AcDbEntity
  8
0
100
AcDbLine
 10
414.1136523637258
 20
365.851713212521
 30
0.0
 11
414.1136523637251
 21
354.3517132125212
 31
0.0
  0
LINE
  5
37B3
330
2
100
AcDbEntity
  8
0
100
AcDbLine
 10
408.5136523637259
 20
365.1017132125214
 30
0.0
 11
408.5136523637259
 21
355.1017132125212
 31
0.0
  0
LINE
  5
37B4
330
2
100
AcDbEntity
  8
0
100
AcDbLine
 10
414.1136523637258
 20
365.101713212521
 30
0.0
 11
408.5136523637259
 21
365.1017132125214
 31
0.0
  0
LINE
  5
37B5
330
2
100
AcDbEntity
  8
0
100
AcDbLine
 10
414.1136523637253
 20
355.1017132125212
 30
0.0
 11
408.5136523637259
 21
355.1017132125212
 31
0.0
  0
LINE
  5
37B6
330
2
100
AcDbEntity
  8
0
100
AcDbLine
 10
408.5136523637259
 20
355.1017132125212
 30
0.0
 11
408.1136523637262
 21
355.7945335355485
 31
0.0
  0
LINE
  5
37B7
330
2
100
AcDbEntity
  8
0
100
AcDbLine
 10
408.1136523637262
 20
364.4088928894942
 30
0.0
 11
408.1136523637262
 21
355.7945335355485
 31
0.0
  0
LINE
  5
37B8
330
2
100
AcDbEntity
  8
0
 48
12.0
100
AcDbLine
 10
415.613652363726
 20
354.351713212521
 30
0.0
 11
415.6136523637262
 21
365.851713212521
 31
0.0
  0
CIRCLE
  5
37B9
330
2
100
AcDbEntity
  8
0
100
AcDbCircle
 10
1397.778227656612
 20
458.3895557974507
 30
0.0
 40
5.000000000000113
  0
CIRCLE
  5
37BA
330
2
100
AcDbEntity
  8
0
100
AcDbCircle
 10
1397.778227656612
 20
458.3895557974507
 30
0.0
 40
4.307179676972509
  0
LINE
  5
37BB
330
2
100
AcDbEntity
  8
0
100
AcDbLine
 10
1400.278227656612
 20
459.8329314704248
 30
0.0
 11
1400.278227656612
 21
456.9461801244766
 31
0.0
  0
LINE
  5
37BC
330
2
100
AcDbEntity
  8
0
100
AcDbLine
 10
1397.778227656612
 20
455.5028044515025
 30
0.0
 11
1400.278227656612
 21
456.9461801244766
 31
0.0
  0
LINE
  5
37BD
330
2
100
AcDbEntity
  8
0
100
AcDbLine
 10
1400.278227656612
 20
459.8329314704248
 30
0.0
 11
1397.778227656612
 21
461.2763071433988
 31
0.0
  0
LINE
  5
37BE
330
2
100
AcDbEntity
  8
0
100
AcDbLine
 10
1395.278227656612
 20
459.8329314704248
 30
0.0
 11
1395.278227656612
 21
456.9461801244766
 31
0.0
  0
LINE
  5
37BF
330
2
100
AcDbEntity
  8
0
100
AcDbLine
 10
1397.778227656612
 20
455.5028044515025
 30
0.0
 11
1395.278227656612
 21
456.9461801244766
 31
0.0
  0
LINE
  5
37C0
330
2
100
AcDbEntity
  8
0
100
AcDbLine
 10
1395.278227656612
 20
459.8329314704248
 30
0.0
 11
1397.778227656612
 21
461.2763071433988
 31
0.0
  0
CIRCLE
  5
37C1
330
2
100
AcDbEntity
  8
0
 48
12.0
100
AcDbCircle
 10
1397.778227656617
 20
458.3895557974507
 30
0.0
 40
5.749999999999829
  0
CIRCLE
  5
37C2
330
2
100
AcDbEntity
  8
0
100
AcDbCircle
 10
1299.490385071682
 20
458.3895557974507
 30
0.0
 40
5.000000000000113
  0
CIRCLE
  5
37C3
330
2
100
AcDbEntity
  8
0
100
AcDbCircle
 10
1299.490385071682
 20
458.3895557974507
 30
0.0
 40
4.307179676972509
  0
LINE
  5
37C4
330
2
100
AcDbEntity
  8
0
100
AcDbLine
 10
1301.990385071682
 20
459.8329314704248
 30
0.0
 11
1301.990385071682
 21
456.9461801244766
 31
0.0
  0
LINE
  5
37C5
330
2
100
AcDbEntity
  8
0
100
AcDbLine
 10
1299.490385071682
 20
455.5028044515025
 30
0.0
 11
1301.990385071682
 21
456.9461801244766
 31
0.0
  0
LINE
  5
37C6
330
2
100
AcDbEntity
  8
0
100
AcDbLine
 10
1301.990385071682
 20
459.8329314704248
 30
0.0
 11
1299.490385071682
 21
461.2763071433988
 31
0.0
  0
LINE
  5
37C7
330
2
100
AcDbEntity
  8
0
100
AcDbLine
 10
1296.990385071682
 20
459.8329314704248
 30
0.0
 11
1296.990385071682
 21
456.9461801244766
 31
0.0
  0
LINE
  5
37C8
330
2
100
AcDbEntity
  8
0
100
AcDbLine
 10
1299.490385071682
 20
455.5028044515025
 30
0.0
 11
1296.990385071682
 21
456.9461801244766
 31
0.0
  0
LINE
  5
37C9
330
2
100
AcDbEntity
  8
0
100
AcDbLine
 10
1296.990385071682
 20
459.8329314704248
 30
0.0
 11
1299.490385071682
 21
461.2763071433988
 31
0.0
  0
CIRCLE
  5
37CA
330
2
100
AcDbEntity
  8
0
 48
12.0
100
AcDbCircle
 10
1299.490385071686
 20
458.3895557974507
 30
0.0
 40
5.749999999999829
  0
CIRCLE
  5
37CB
330
2
100
AcDbEntity
  8
0
100
AcDbCircle
 10
1299.490385071682
 20
360.1017132125206
 30
0.0
 40
5.000000000000113
  0
CIRCLE
  5
37CC
330
2
100
AcDbEntity
  8
0
100
AcDbCircle
 10
1299.490385071682
 20
360.1017132125206
 30
0.0
 40
4.307179676972509
  0
LINE
  5
37CD
330
2
100
AcDbEntity
  8
0
100
AcDbLine
 10
1301.990385071682
 20
361.5450888854947
 30
0.0
 11
1301.990385071682
 21
358.6583375395465
 31
0.0
  0
LINE
  5
37CE
330
2
100
AcDbEntity
  8
0
100
AcDbLine
 10
1299.490385071682
 20
357.2149618665724
 30
0.0
 11
1301.990385071682
 21
358.6583375395465
 31
0.0
  0
LINE
  5
37CF
330
2
100
AcDbEntity
  8
0
100
AcDbLine
 10
1301.990385071682
 20
361.5450888854947
 30
0.0
 11
1299.490385071682
 21
362.9884645584687
 31
0.0
  0
LINE
  5
37D0
330
2
100
AcDbEntity
  8
0
100
AcDbLine
 10
1296.990385071682
 20
361.5450888854947
 30
0.0
 11
1296.990385071682
 21
358.6583375395465
 31
0.0
  0
LINE
  5
37D1
330
2
100
AcDbEntity
  8
0
100
AcDbLine
 10
1299.490385071682
 20
357.2149618665724
 30
0.0
 11
1296.990385071682
 21
358.6583375395465
 31
0.0
  0
LINE
  5
37D2
330
2
100
AcDbEntity
  8
0
100
AcDbLine
 10
1296.990385071682
 20
361.5450888854947
 30
0.0
 11
1299.490385071682
 21
362.9884645584687
 31
0.0
  0
CIRCLE
  5
37D3
330
2
100
AcDbEntity
  8
0
 48
12.0
100
AcDbCircle
 10
1299.490385071686
 20
360.1017132125206
 30
0.0
 40
5.749999999999829
  0
CIRCLE
  5
37D4
330
2
100
AcDbEntity
  8
0
100
AcDbCircle
 10
1397.778227656612
 20
360.1017132125206
 30
0.0
 40
5.000000000000113
  0
CIRCLE
  5
37D5
330
2
100
AcDbEntity
  8
0
100
AcDbCircle
 10
1397.778227656612
 20
360.1017132125206
 30
0.0
 40
4.307179676972509
  0
LINE
  5
37D6
330
2
100
AcDbEntity
  8
0
100
AcDbLine
 10
1400.278227656612
 20
361.5450888854947
 30
0.0
 11
1400.278227656612
 21
358.6583375395465
 31
0.0
  0
LINE
  5
37D7
330
2
100
AcDbEntity
  8
0
100
AcDbLine
 10
1397.778227656612
 20
357.2149618665724
 30
0.0
 11
1400.278227656612
 21
358.6583375395465
 31
0.0
  0
LINE
  5
37D8
330
2
100
AcDbEntity
  8
0
100
AcDbLine
 10
1400.278227656612
 20
361.5450888854947
 30
0.0
 11
1397.778227656612
 21
362.9884645584687
 31
0.0
  0
LINE
  5
37D9
330
2
100
AcDbEntity
  8
0
100
AcDbLine
 10
1395.278227656612
 20
361.5450888854947
 30
0.0
 11
1395.278227656612
 21
358.6583375395465
 31
0.0
  0
LINE
  5
37DA
330
2
100
AcDbEntity
  8
0
100
AcDbLine
 10
1397.778227656612
 20
357.2149618665724
 30
0.0
 11
1395.278227656612
 21
358.6583375395465
 31
0.0
  0
LINE
  5
37DB
330
2
100
AcDbEntity
  8
0
100
AcDbLine
 10
1395.278227656612
 20
361.5450888854947
 30
0.0
 11
1397.778227656612
 21
362.9884645584687
 31
0.0
  0
CIRCLE
  5
37DC
330
2
100
AcDbEntity
  8
0
 48
12.0
100
AcDbCircle
 10
1397.778227656617
 20
360.1017132125206
 30
0.0
 40
5.749999999999829
  0
LINE
  5
37DD
330
2
100
AcDbEntity
  8
0
100
AcDbLine
 10
1108.059171748527
 20
430.8859747208644
 30
0.0
 11
1108.059171748527
 21
409.2456345049857
 31
0.0
  0
LINE
  5
37DE
330
2
100
AcDbEntity
  8
0
100
AcDbLine
 10
1130.059171748527
 20
409.2456345049858
 30
0.0
 11
1130.059171748527
 21
436.2456345049882
 31
0.0
  0
LINE
  5
37DF
330
2
100
AcDbEntity
  8
0
100
AcDbLine
 10
1128.059171748527
 20
409.2456345049858
 30
0.0
 11
1128.059171748527
 21
418.745634504988
 31
0.0
  0
LINE
  5
37E0
330
2
100
AcDbEntity
  8
0
100
AcDbLine
 10
1110.059171748527
 20
430.9350427045347
 30
0.0
 11
1110.059171748527
 21
409.2456345049857
 31
0.0
  0
LINE
  5
37E1
330
2
100
AcDbEntity
  8
0
100
AcDbLine
 10
1066.559171748527
 20
409.2456345049853
 30
0.0
 11
1066.559171748527
 21
419.2456345049865
 31
0.0
  0
LINE
  5
37E2
330
2
100
AcDbEntity
  8
0
 48
0.3
100
AcDbLine
 10
1086.559171748528
 20
419.2456345049867
 30
0.0
 11
1066.559171748527
 21
419.2456345049865
 31
0.0
  0
LINE
  5
37E3
330
2
100
AcDbEntity
  8
0
 48
0.3
100
AcDbLine
 10
1086.559171748528
 20
418.7456345049869
 30
0.0
 11
1108.059171748527
 21
418.7456345049872
 31
0.0
  0
LINE
  5
37E4
330
2
100
AcDbEntity
  8
0
100
AcDbLine
 10
1086.559171748528
 20
409.2456345049854
 30
0.0
 11
1086.559171748528
 21
419.2456345049867
 31
0.0
  0
LINE
  5
37E5
330
2
100
AcDbEntity
  8
0
100
AcDbLine
 10
1115.935740321558
 20
436.245634504988
 30
0.0
 11
1130.059171748527
 21
436.2456345049882
 31
0.0
  0
LINE
  5
37E6
330
2
100
AcDbEntity
  8
0
 48
0.3
100
AcDbLine
 10
1110.059171748527
 20
418.7456345049876
 30
0.0
 11
1128.059171748527
 21
418.7456345049881
 31
0.0
  0
LINE
  5
37E7
330
2
100
AcDbEntity
  8
0
 48
0.3
100
AcDbLine
 10
1061.36301932582
 20
409.2456345049858
 30
0.0
 11
1066.559171748527
 21
418.2456345049865
 31
0.0
  0
LINE
  5
37E8
330
2
100
AcDbEntity
  8
0
100
AcDbLine
 10
1128.059171748527
 20
418.7456345049837
 30
0.0
 11
1130.059171748527
 21
419.900335043363
 31
0.0
  0
SPLINE
  5
37E9
330
2
100
AcDbEntity
  8
HOJO
100
AcDbSpline
210
0.0
220
0.0
230
1.0
 70
     8
 71
     3
 72
    20
 73
    16
 74
    14
 42
0.0000000001
 43
0.0000000001
 44
0.0000000001
 40
0.0
 40
0.0
 40
0.0
 40
0.0
 40
11.88038577625062
 40
18.73707816921411
 40
24.41734724586808
 40
34.87250229729273
 40
43.27755328616397
 40
51.78703166082107
 40
60.73164126663911
 40
63.7894130197853
 40
68.17793084021511
 40
75.01035139395199
 40
81.44467981465169
 40
88.61298527674774
 40
97.78032246308722
 40
97.78032246308722
 40
97.78032246308722
 40
97.78032246308722
 10
1055.031367172919
 20
409.2456345049861
 30
0.0
 10
1056.381283331084
 20
412.9798046839581
 30
0.0
 10
1058.510295389597
 20
418.8691284700941
 30
0.0
 10
1063.469341775699
 20
425.5662609345091
 30
0.0
 10
1070.681044776151
 20
429.0713043821331
 30
0.0
 10
1079.046949574285
 20
427.4009112513097
 30
0.0
 10
1088.12757936858
 20
428.4284870821235
 30
0.0
 10
1096.560506984746
 20
430.2864574766349
 30
0.0
 10
1103.594492484321
 20
429.5335151747654
 30
0.0
 10
1108.740333625675
 20
431.3113462990239
 30
0.0
 10
1114.218371061911
 20
430.1109174284528
 30
0.0
 10
1115.959662964306
 20
437.4441372553166
 30
0.0
 10
1119.441735547654
 20
442.7708999893821
 30
0.0
 10
1120.452344418684
 20
451.2085941886931
 30
0.0
 10
1126.092556787142
 20
453.1539356992644
 30
0.0
 10
1129.257766120928
 20
454.2456345049859
 30
0.0
 11
1055.031367172919
 21
409.2456345049861
 31
0.0
 11
1059.755076553618
 21
420.1465581300392
 31
0.0
 11
1064.122890482506
 21
425.4320507328468
 31
0.0
 11
1069.237830827597
 21
427.902443828965
 31
0.0
 11
1079.692945731858
 21
427.8734699090184
 31
0.0
 11
1088.069265012337
 21
428.5678454824658
 31
0.0
 11
1096.488356623058
 21
429.8048251342991
 31
0.0
 11
1105.420061893522
 21
430.2851187549556
 31
0.0
 11
1108.410078816954
 21
430.9252491259997
 31
0.0
 11
1112.791565336879
 21
431.173572576242
 31
0.0
 11
1116.251463169977
 21
437.065183358333
 31
0.0
 11
1118.933136626257
 21
442.9140473248917
 31
0.0
 11
1121.3100757903
 21
449.6767955390687
 31
0.0
 11
1129.257766120928
 21
454.2456345049859
 31
0.0
  0
LINE
  5
37EA
330
2
100
AcDbEntity
  8
0
100
AcDbLine
 10
1131.059171748529
 20
409.2456345049858
 30
0.0
 11
1131.05917174853
 21
449.2456345049864
 31
0.0
  0
LINE
  5
37EB
330
2
100
AcDbEntity
  8
0
100
AcDbLine
 10
1121.041692214275
 20
449.2456345049867
 30
0.0
 11
1138.059171748528
 21
449.2456345049863
 31
0.0
  0
LINE
  5
37EC
330
2
100
AcDbEntity
  8
CENTER
100
AcDbLine
 10
1328.634306364166
 20
386.3710484168131
 30
0.0
 11
1328.634306364166
 21
462.7453056412218
 31
0.0
  0
LINE
  5
37ED
330
2
100
AcDbEntity
  8
HIDS
  6
SEKKEI_H
100
AcDbLine
 10
1323.554433956191
 20
419.2456345050005
 30
0.0
 11
1336.384306364159
 21
419.2456345050003
 31
0.0
  0
LINE
  5
37EE
330
2
100
AcDbEntity
  8
HIDS
  6
SEKKEI_H
100
AcDbLine
 10
1333.134306364159
 20
409.9956345049974
 30
0.0
 11
1333.134306364159
 21
419.2456345050003
 31
0.0
  0
LINE
  5
37EF
330
2
100
AcDbEntity
  8
HIDS
  6
SEKKEI_H
100
AcDbLine
 10
1324.134306364159
 20
409.9956345049974
 30
0.0
 11
1324.134306364159
 21
419.2456345050005
 31
0.0
  0
LINE
  5
37F0
330
2
100
AcDbEntity
  8
HIDS
  6
SEKKEI_H
100
AcDbLine
 10
1325.234306364158
 20
395.7756679126113
 30
0.0
 11
1325.234306364159
 21
408.4956345049976
 31
0.0
  0
LINE
  5
37F1
330
2
100
AcDbEntity
  8
HIDS
  6
SEKKEI_H
100
AcDbLine
 10
1324.634306364159
 20
396.2456345050003
 30
0.0
 11
1324.634306364159
 21
408.4956345049978
 31
0.0
  0
LINE
  5
37F2
330
2
100
AcDbEntity
  8
HIDS
  6
SEKKEI_H
100
AcDbLine
 10
1332.634306364159
 20
387.4970713340654
 30
0.0
 11
1332.634306364159
 21
408.4956345049978
 31
0.0
  0
LINE
  5
37F3
330
2
100
AcDbEntity
  8
HIDS
  6
SEKKEI_H
100
AcDbLine
 10
1332.034306364158
 20
387.9515038582673
 30
0.0
 11
1332.034306364158
 21
408.4956345049978
 31
0.0
  0
LINE
  5
37F4
330
2
100
AcDbEntity
  8
0
100
AcDbLine
 10
1321.644725040989
 20
408.4956345049976
 30
0.0
 11
1339.163957901714
 21
408.4956345049973
 31
0.0
  0
LINE
  5
37F5
330
2
100
AcDbEntity
  8
0
100
AcDbLine
 10
1358.104654826588
 20
408.4956345049973
 30
0.0
 11
1374.643026410206
 21
408.4956345049976
 31
0.0
  0
LINE
  5
37F6
330
2
100
AcDbEntity
  8
0
100
AcDbLine
 10
1321.644725040989
 20
409.9956345049974
 30
0.0
 11
1339.163957901716
 21
409.9956345049975
 31
0.0
  0
LINE
  5
37F7
330
2
100
AcDbEntity
  8
0
100
AcDbLine
 10
1358.104654826586
 20
409.9956345049978
 30
0.0
 11
1374.643026410206
 21
409.9956345049975
 31
0.0
  0
LINE
  5
37F8
330
2
100
AcDbEntity
  8
0
100
AcDbLine
 10
1374.643026410206
 20
409.9956345049975
 30
0.0
 11
1374.643026410206
 21
408.4956345049976
 31
0.0
  0
LINE
  5
37F9
330
2
100
AcDbEntity
  8
HIDS
  6
SEKKEI_H
100
AcDbLine
 10
1335.134306364166
 20
428.7456345050006
 30
0.0
 11
1329.959456967179
 21
428.7456345050003
 31
0.0
  0
LINE
  5
37FA
330
2
100
AcDbEntity
  8
HIDS
  6
SEKKEI_H
100
AcDbLine
 10
1334.26828096038
 20
429.2456345050005
 30
0.0
 11
1330.495949216945
 21
429.2456345050003
 31
0.0
  0
LINE
  5
37FB
330
2
100
AcDbEntity
  8
HIDS
  6
SEKKEI_H
100
AcDbLine
 10
1335.884306364166
 20
421.2456345050005
 30
0.0
 11
1324.447533119264
 21
421.2456345050003
 31
0.0
  0
LINE
  5
37FC
330
2
100
AcDbEntity
  8
HIDS
  6
SEKKEI_H
100
AcDbLine
 10
1331.434306364172
 20
396.2456345050003
 30
0.0
 11
1325.834306364159
 21
396.2456345050003
 31
0.0
  0
LINE
  5
37FD
330
2
100
AcDbEntity
  8
HIDS
  6
SEKKEI_H
100
AcDbLine
 10
1332.634306364159
 20
397.4456345050004
 30
0.0
 11
1324.634306364159
 21
397.4456345050004
 31
0.0
  0
LINE
  5
37FE
330
2
100
AcDbEntity
  8
0
 48
0.3
100
AcDbLine
 10
1321.384306364166
 20
421.2456345050003
 30
0.0
 11
1321.384306364166
 21
419.2456345050003
 31
0.0
  0
LINE
  5
37FF
330
2
100
AcDbEntity
  8
0
 48
0.3
100
AcDbLine
 10
1322.134306364166
 20
428.7456345050003
 30
0.0
 11
1323.00033176795
 21
429.2456345050003
 31
0.0
  0
LINE
  5
3800
330
2
100
AcDbEntity
  8
0
 48
0.3
100
AcDbLine
 10
1322.134306364166
 20
428.7456345050003
 30
0.0
 11
1322.134306364166
 21
421.2456345050003
 31
0.0
  0
LINE
  5
3801
330
2
100
AcDbEntity
  8
HIDS
  6
SEKKEI_H
100
AcDbLine
 10
1335.884306364166
 20
421.2456345050005
 30
0.0
 11
1335.884306364166
 21
419.2456345050005
 31
0.0
  0
LINE
  5
3802
330
2
100
AcDbEntity
  8
HIDS
  6
SEKKEI_H
100
AcDbLine
 10
1335.134306364165
 20
428.7456345049998
 30
0.0
 11
1334.268280960381
 21
429.2456345049998
 31
0.0
  0
LINE
  5
3803
330
2
100
AcDbEntity
  8
HIDS
  6
SEKKEI_H
100
AcDbLine
 10
1335.134306364166
 20
428.7456345049996
 30
0.0
 11
1335.134306364166
 21
421.2456345050005
 31
0.0
  0
LINE
  5
3804
330
2
100
AcDbEntity
  8
HIDS
  6
SEKKEI_H
100
AcDbLine
 10
1336.334306364166
 20
419.2456345050005
 30
0.0
 11
1323.554433956191
 21
419.2456345050003
 31
0.0
  0
LINE
  5
3805
330
2
100
AcDbEntity
  8
HOJO
100
AcDbLine
 10
1325.234306364159
 20
408.4956345049976
 30
0.0
 11
1325.234306364159
 21
409.9956345049974
 31
0.0
  0
LINE
  5
3806
330
2
100
AcDbEntity
  8
0
100
AcDbLine
 10
1324.634306364159
 20
408.4956345049978
 30
0.0
 11
1324.634306364159
 21
409.9956345049974
 31
0.0
  0
LINE
  5
3807
330
2
100
AcDbEntity
  8
HOJO
100
AcDbLine
 10
1332.034306364158
 20
408.4956345049978
 30
0.0
 11
1332.034306364158
 21
409.9956345049974
 31
0.0
  0
LINE
  5
3808
330
2
100
AcDbEntity
  8
0
100
AcDbLine
 10
1332.634306364159
 20
408.4956345049978
 30
0.0
 11
1332.634306364159
 21
409.9956345049974
 31
0.0
  0
LINE
  5
3809
330
2
100
AcDbEntity
  8
HIDS
  6
SEKKEI_H
100
AcDbLine
 10
1332.634306364159
 20
409.9956345049974
 30
0.0
 11
1332.634306364159
 21
419.2456345050003
 31
0.0
  0
LINE
  5
380A
330
2
100
AcDbEntity
  8
HIDS
  6
SEKKEI_H
100
AcDbLine
 10
1332.034306364158
 20
409.9956345049974
 30
0.0
 11
1332.034306364158
 21
419.2456345050003
 31
0.0
  0
LINE
  5
380B
330
2
100
AcDbEntity
  8
HIDS
  6
SEKKEI_H
100
AcDbLine
 10
1325.234306364159
 20
409.9956345049974
 30
0.0
 11
1325.234306364159
 21
419.2456345050003
 31
0.0
  0
LINE
  5
380C
330
2
100
AcDbEntity
  8
HIDS
  6
SEKKEI_H
100
AcDbLine
 10
1324.634306364159
 20
409.9956345049974
 30
0.0
 11
1324.634306364159
 21
419.2456345050005
 31
0.0
  0
LINE
  5
380D
330
2
100
AcDbEntity
  8
0
100
AcDbLine
 10
1330.495949216945
 20
429.2456345050003
 30
0.0
 11
1323.00033176795
 21
429.2456345050003
 31
0.0
  0
LINE
  5
380E
330
2
100
AcDbEntity
  8
0
100
AcDbLine
 10
1329.959456967179
 20
428.7456345050003
 30
0.0
 11
1322.134306364166
 21
428.7456345050003
 31
0.0
  0
LINE
  5
380F
330
2
100
AcDbEntity
  8
0
100
AcDbLine
 10
1324.447533119264
 20
421.2456345050003
 30
0.0
 11
1321.384306364166
 21
421.2456345050003
 31
0.0
  0
LINE
  5
3810
330
2
100
AcDbEntity
  8
0
100
AcDbLine
 10
1323.554433956191
 20
419.2456345050003
 30
0.0
 11
1321.384306364166
 21
419.2456345050003
 31
0.0
  0
LINE
  5
3811
330
2
100
AcDbEntity
  8
HIDS
  6
SEKKEI_H
100
AcDbLine
 10
1324.634306364159
 20
397.4456345050004
 30
0.0
 11
1325.834306364159
 21
396.2456345050003
 31
0.0
  0
LINE
  5
3812
330
2
100
AcDbEntity
  8
HIDS
  6
SEKKEI_H
100
AcDbLine
 10
1332.634306364172
 20
397.4456345050004
 30
0.0
 11
1331.434306364172
 21
396.2456345050003
 31
0.0
  0
CIRCLE
  5
3813
330
2
100
AcDbEntity
  8
0
100
AcDbCircle
 10
1348.634306364151
 20
409.2456345049855
 30
0.0
 40
26.99999999999249
  0
CIRCLE
  5
3814
330
2
100
AcDbEntity
  8
0
100
AcDbCircle
 10
1348.634306364151
 20
409.2456345049855
 30
0.0
 40
9.499999999997783
  0
ARC
  5
3815
330
2
100
AcDbEntity
  8
0
100
AcDbCircle
 10
1348.634306364151
 20
409.2456345049862
 30
0.0
 40
10.6547005383764
100
AcDbArc
 50
4.03647208280233
 51
175.9635279172106
  0
ARC
  5
3816
330
2
100
AcDbEntity
  8
0
100
AcDbCircle
 10
1348.634306364151
 20
409.2456345049862
 30
0.0
 40
10.6547005383764
100
AcDbArc
 50
184.0364720826717
 51
355.9635279173283
  0
LINE
  5
3817
330
2
100
AcDbEntity
  8
HIDS
  6
SEKKEI_H
100
AcDbLine
 10
1336.384306364159
 20
419.2456345050003
 30
0.0
 11
1336.384306364159
 21
433.3067545953007
 31
0.0
  0
LINE
  5
3818
330
2
100
AcDbEntity
  8
0
100
AcDbLine
 10
1067.059171748551
 20
678.3486643707831
 30
0.0
 11
1068.559171748552
 21
678.3486643707831
 31
0.0
  0
LINE
  5
3819
330
2
100
AcDbEntity
  8
0
100
AcDbLine
 10
1067.059171748551
 20
666.8486643707831
 30
0.0
 11
1068.559171748552
 21
666.8486643707831
 31
0.0
  0
LINE
  5
381A
330
2
100
AcDbEntity
  8
0
100
AcDbLine
 10
1074.159171748552
 20
677.5986643707831
 30
0.0
 11
1074.559171748551
 21
676.9058440477558
 31
0.0
  0
LINE
  5
381B
330
2
100
AcDbEntity
  8
0
100
AcDbLine
 10
1068.559171748552
 20
678.3486643707831
 30
0.0
 11
1068.559171748552
 21
666.8486643707831
 31
0.0
  0
LINE
  5
381C
330
2
100
AcDbEntity
  8
0
100
AcDbLine
 10
1074.159171748552
 20
677.5986643707831
 30
0.0
 11
1074.159171748552
 21
667.5986643707831
 31
0.0
  0
LINE
  5
381D
330
2
100
AcDbEntity
  8
0
100
AcDbLine
 10
1068.559171748552
 20
677.5986643707831
 30
0.0
 11
1074.159171748552
 21
677.5986643707831
 31
0.0
  0
LINE
  5
381E
330
2
100
AcDbEntity
  8
0
100
AcDbLine
 10
1068.559171748552
 20
667.5986643707831
 30
0.0
 11
1074.159171748552
 21
667.5986643707831
 31
0.0
  0
LINE
  5
381F
330
2
100
AcDbEntity
  8
0
100
AcDbLine
 10
1074.159171748552
 20
667.5986643707831
 30
0.0
 11
1074.559171748551
 21
668.2914846938103
 31
0.0
  0
LINE
  5
3820
330
2
100
AcDbEntity
  8
0
100
AcDbLine
 10
1074.559171748551
 20
676.9058440477558
 30
0.0
 11
1074.559171748551
 21
668.2914846938103
 31
0.0
  0
LINE
  5
3821
330
2
100
AcDbEntity
  8
0
 48
12.0
100
AcDbLine
 10
1067.059171748551
 20
666.8486643707831
 30
0.0
 11
1067.059171748551
 21
678.3486643707831
 31
0.0
  0
LINE
  5
3822
330
2
100
AcDbEntity
  8
CENTER
  6
CENTERX2
100
AcDbLine
 10
1064.059171748551
 20
770.8865069557139
 30
0.0
 11
1077.559171748552
 21
770.8865069557134
 31
0.0
  0
LINE
  5
3823
330
2
100
AcDbEntity
  8
CENTER
  6
CENTERX2
100
AcDbLine
 10
1064.059171748551
 20
672.5986643707836
 30
0.0
 11
1077.559171748552
 21
672.5986643707831
 31
0.0
  0
LINE
  5
3824
330
2
100
AcDbEntity
  8
CENTER
  6
CENTERX2
100
AcDbLine
 10
1064.349031930566
 20
458.3895557974515
 30
0.0
 11
1077.849031930567
 21
458.3895557974511
 31
0.0
  0
LINE
  5
3825
330
2
100
AcDbEntity
  8
CENTER
  6
CENTERX2
100
AcDbLine
 10
1064.349031930566
 20
360.1017132125214
 30
0.0
 11
1077.849031930567
 21
360.101713212521
 31
0.0
  0
LINE
  5
3826
330
2
100
AcDbEntity
  8
CENTER
  6
CENTERX2
100
AcDbLine
 10
418.6136523637264
 20
458.3895557974518
 30
0.0
 11
405.1075430910007
 21
458.3895557974515
 31
0.0
  0
LINE
  5
3827
330
2
100
AcDbEntity
  8
CENTER
  6
CENTERX2
100
AcDbLine
 10
418.6136523637262
 20
360.1017132125217
 30
0.0
 11
405.1075430910004
 21
360.1017132125214
 31
0.0
  0
LINE
  5
3B87
330
2
100
AcDbEntity
  8
CENTER
100
AcDbLine
 10
1148.059171748518
 20
409.2456345049927
 30
0.0
 11
873.0591717485301
 21
409.2456345049933
 31
0.0
  0
ARC
  5
3B88
330
2
100
AcDbEntity
  8
0
100
AcDbCircle
 10
951.5573282387713
 20
362.5256345049886
 30
0.0
 40
2.720000000003957
100
AcDbArc
 50
307.5189678668038
 51
90.0
  0
LINE
  5
3B89
330
2
100
AcDbEntity
  8
0
100
AcDbLine
 10
944.917400998761
 20
365.2456345049929
 30
0.0
 11
951.5573282387713
 21
365.2456345049929
 31
0.0
  0
LINE
  5
3B8A
330
2
100
AcDbEntity
  8
0
100
AcDbLine
 10
946.4374009987633
 20
357.2456345049811
 30
0.0
 11
948.8373282387666
 21
357.2456345049806
 31
0.0
  0
LINE
  5
3B8B
330
2
100
AcDbEntity
  8
0
100
AcDbLine
 10
946.4374009987633
 20
358.4456345049827
 30
0.0
 11
946.4374009987633
 21
357.2456345049811
 31
0.0
  0
LINE
  5
3B8C
330
2
100
AcDbEntity
  8
0
100
AcDbLine
 10
944.397402240088
 20
358.4456345049832
 30
0.0
 11
946.4374009987633
 21
358.4456345049827
 31
0.0
  0
LINE
  5
3B8D
330
2
100
AcDbEntity
  8
0
100
AcDbLine
 10
944.397402240088
 20
358.4456345049832
 30
0.0
 11
943.7974022400876
 21
357.2456345049811
 31
0.0
  0
LINE
  5
3B8E
330
2
100
AcDbEntity
  8
0
100
AcDbLine
 10
940.9174009987555
 20
357.2456345049815
 30
0.0
 11
943.7974022400876
 21
357.2456345049811
 31
0.0
  0
LINE
  5
3B8F
330
2
100
AcDbEntity
  8
0
100
AcDbLine
 10
945.6774022400905
 20
361.0056345049859
 30
0.0
 11
946.4374009987633
 21
361.0056345049863
 31
0.0
  0
LINE
  5
3B90
330
2
100
AcDbEntity
  8
0
100
AcDbLine
 10
944.917400998761
 20
365.2456345049929
 30
0.0
 11
940.9174009987555
 21
357.2456345049815
 31
0.0
  0
LINE
  5
3B91
330
2
100
AcDbEntity
  8
0
100
AcDbLine
 10
946.4374009987633
 20
362.5256320223322
 30
0.0
 11
945.6774022400905
 21
361.0056345049859
 31
0.0
  0
LINE
  5
3B92
330
2
100
AcDbEntity
  8
0
100
AcDbLine
 10
946.4374009987633
 20
362.5256320223322
 30
0.0
 11
946.4374009987633
 21
361.0056345049863
 31
0.0
  0
ARC
  5
3B93
330
2
100
AcDbEntity
  8
0
100
AcDbCircle
 10
951.3874009987713
 20
362.3556345049885
 30
0.0
 40
0.1700000000002474
100
AcDbArc
 50
270.0
 51
90.0
  0
LINE
  5
3B94
330
2
100
AcDbEntity
  8
0
100
AcDbLine
 10
949.1774009987667
 20
362.1856345049879
 30
0.0
 11
951.3874009987713
 21
362.1856345049879
 31
0.0
  0
LINE
  5
3B95
330
2
100
AcDbEntity
  8
0
100
AcDbLine
 10
948.8373282387666
 20
362.525634504989
 30
0.0
 11
951.3874009987693
 21
362.525634504989
 31
0.0
  0
LINE
  5
3B96
330
2
100
AcDbEntity
  8
0
100
AcDbLine
 10
953.2138736184306
 20
360.3682617033734
 30
0.0
 11
955.2009424982852
 21
357.2456345049815
 31
0.0
  0
LINE
  5
3B97
330
2
100
AcDbEntity
  8
0
100
AcDbLine
 10
952.320941256954
 20
357.2456345049811
 30
0.0
 11
955.2009424982852
 21
357.2456345049815
 31
0.0
  0
LINE
  5
3B98
330
2
100
AcDbEntity
  8
0
100
AcDbLine
 10
948.8373282387666
 20
362.525634504989
 30
0.0
 11
948.8373282387666
 21
357.2456345049806
 31
0.0
  0
LINE
  5
3B99
330
2
100
AcDbEntity
  8
0
100
AcDbLine
 10
949.1774009987667
 20
362.1856345049879
 30
0.0
 11
952.320941256954
 21
357.2456345049811
 31
0.0
  0
LINE
  5
3B9A
330
2
100
AcDbEntity
  8
0
100
AcDbLine
 10
1039.55917174852
 20
349.2456345049927
 30
0.0
 11
1053.55917174852
 21
349.2456345049927
 31
0.0
  0
LINE
  5
3B9B
330
2
100
AcDbEntity
  8
0
100
AcDbLine
 10
1037.55917174852
 20
350.7456345049931
 30
0.0
 11
1037.55917174852
 21
467.7456345049923
 31
0.0
  0
LINE
  5
3B9C
330
2
100
AcDbEntity
  8
0
100
AcDbLine
 10
1024.05917174852
 20
378.2456345049895
 30
0.0
 11
1024.05917174852
 21
403.2456345049925
 31
0.0
  0
LINE
  5
3B9D
330
2
100
AcDbEntity
  8
0
100
AcDbLine
 10
1024.05917174852
 20
415.2456345049929
 30
0.0
 11
1024.05917174852
 21
440.2456345049959
 31
0.0
  0
ARC
  5
3B9E
330
2
100
AcDbEntity
  8
0
100
AcDbCircle
 10
1021.05917174852
 20
403.2456345049925
 30
0.0
 40
3.0
100
AcDbArc
 50
0.0
 51
90.0
  0
ARC
  5
3B9F
330
2
100
AcDbEntity
  8
0
100
AcDbCircle
 10
1021.05917174852
 20
415.2456345049929
 30
0.0
 40
3.0
100
AcDbArc
 50
270.0
 51
0.0
  0
ARC
  5
3BA0
330
2
100
AcDbEntity
  8
0
100
AcDbCircle
 10
1029.55917174852
 20
451.2456345049965
 30
0.0
 40
8.0
100
AcDbArc
 50
270.0
 51
0.0
  0
ARC
  5
3BA1
330
2
100
AcDbEntity
  8
0
100
AcDbCircle
 10
1034.55917174852
 20
403.2456345049925
 30
0.0
 40
3.0
100
AcDbArc
 50
0.0
 51
90.0
  0
ARC
  5
3BA2
330
2
100
AcDbEntity
  8
0
100
AcDbCircle
 10
1034.55917174852
 20
358.17037372721
 30
0.0
 40
3.0
100
AcDbArc
 50
0.0
 51
100.000000000005
  0
ARC
  5
3BA3
330
2
100
AcDbEntity
  8
0
100
AcDbCircle
 10
1034.55917174852
 20
460.3208952827753
 30
0.0
 40
3.0
100
AcDbArc
 50
259.9999999999949
 51
0.0
  0
ARC
  5
3BA4
330
2
100
AcDbEntity
  8
0
100
AcDbCircle
 10
1039.55917174852
 20
351.2456345049927
 30
0.0
 40
2.0
100
AcDbArc
 50
180.0
 51
270.0
  0
ARC
  5
3BA5
330
2
100
AcDbEntity
  8
0
100
AcDbCircle
 10
1039.55917174852
 20
467.2456345049927
 30
0.0
 40
2.0
100
AcDbArc
 50
90.0
 51
180.0
  0
LINE
  5
3BA6
330
2
100
AcDbEntity
  8
0
100
AcDbLine
 10
1039.55917174852
 20
469.2456345049927
 30
0.0
 11
1053.55917174852
 21
469.2456345049927
 31
0.0
  0
LINE
  5
3BA7
330
2
100
AcDbEntity
  8
CENTER
100
AcDbLine
 10
890.2616970654653
 20
359.7481598219344
 30
0.0
 11
906.8616970654648
 21
359.7481598219344
 31
0.0
  0
LINE
  5
3BA8
330
2
100
AcDbEntity
  8
CENTER
100
AcDbLine
 10
898.561697065465
 20
368.0481598219344
 30
0.0
 11
898.561697065465
 21
351.4481598219345
 31
0.0
  0
LINE
  5
3BA9
330
2
100
AcDbEntity
  8
0
100
AcDbLine
 10
1034.03822721552
 20
457.3664720237387
 30
0.0
 11
1009.350637091427
 21
461.7195602512874
 31
0.0
  0
LINE
  5
3BAA
330
2
100
AcDbEntity
  8
0
100
AcDbLine
 10
1034.03822721552
 20
361.1247969862468
 30
0.0
 11
1009.350637091427
 21
356.7717087586979
 31
0.0
  0
LINE
  5
3BAB
330
2
100
AcDbEntity
  8
0
100
AcDbLine
 10
1011.059171748523
 20
412.2456345049926
 30
0.0
 11
1034.55917174852
 21
412.2456345049929
 31
0.0
  0
ARC
  5
3BAC
330
2
100
AcDbEntity
  8
0
100
AcDbCircle
 10
1034.55917174852
 20
415.2456345049929
 30
0.0
 40
3.0
100
AcDbArc
 50
270.0
 51
0.0
  0
LINE
  5
3BAD
330
2
100
AcDbEntity
  8
0
100
AcDbLine
 10
1011.059171748523
 20
406.2456345049924
 30
0.0
 11
1034.55917174852
 21
406.2456345049924
 31
0.0
  0
LINE
  5
3BAE
330
2
100
AcDbEntity
  8
CENTER
100
AcDbLine
 10
989.2566464315818
 20
359.7481598219344
 30
0.0
 11
1005.856646431581
 21
359.7481598219344
 31
0.0
  0
LINE
  5
3BAF
330
2
100
AcDbEntity
  8
CENTER
100
AcDbLine
 10
997.5566464315816
 20
368.0481598219344
 30
0.0
 11
997.5566464315816
 21
351.4481598219345
 31
0.0
  0
LINE
  5
3BB0
330
2
100
AcDbEntity
  8
CENTER
100
AcDbLine
 10
989.2566464315818
 20
458.7431091880512
 30
0.0
 11
1005.856646431581
 21
458.7431091880512
 31
0.0
  0
LINE
  5
3BB1
330
2
100
AcDbEntity
  8
CENTER
100
AcDbLine
 10
997.5566464315816
 20
467.0431091880511
 30
0.0
 11
997.5566464315816
 21
450.4431091880512
 31
0.0
  0
LINE
  5
3BB2
330
2
100
AcDbEntity
  8
CENTER
100
AcDbLine
 10
890.2616970654653
 20
458.7431091880512
 30
0.0
 11
906.8616970654648
 21
458.7431091880512
 31
0.0
  0
LINE
  5
3BB3
330
2
100
AcDbEntity
  8
CENTER
100
AcDbLine
 10
898.561697065465
 20
467.0431091880511
 30
0.0
 11
898.561697065465
 21
450.4431091880512
 31
0.0
  0
LINE
  5
3BB4
330
2
100
AcDbEntity
  8
0
100
AcDbLine
 10
1053.55917174852
 20
348.7456345049931
 30
0.0
 11
1053.55917174852
 21
469.7456345049923
 31
0.0
  0
LINE
  5
3BB5
330
2
100
AcDbEntity
  8
0
100
AcDbLine
 10
1029.559171748523
 20
443.2456345049965
 30
0.0
 11
1027.059171748521
 21
443.2456345049959
 31
0.0
  0
LINE
  5
3BB6
330
2
100
AcDbEntity
  8
0
100
AcDbLine
 10
1021.059171748522
 20
437.2456345049958
 30
0.0
 11
1011.059171748524
 21
437.2456345049958
 31
0.0
  0
ARC
  5
3BB7
330
2
100
AcDbEntity
  8
0
100
AcDbCircle
 10
1011.059171748524
 20
440.2456345049959
 30
0.0
 40
3.0
100
AcDbArc
 50
180.0
 51
270.0
  0
ARC
  5
3BB8
330
2
100
AcDbEntity
  8
0
100
AcDbCircle
 10
1021.059171748522
 20
440.2456345049959
 30
0.0
 40
3.0
100
AcDbArc
 50
270.0
 51
0.0
  0
LINE
  5
3BB9
330
2
100
AcDbEntity
  8
0
100
AcDbLine
 10
1024.059171748522
 20
440.2456345049959
 30
0.0
 11
1024.059171748522
 21
440.2456345049959
 31
0.0
  0
ARC
  5
3BBA
330
2
100
AcDbEntity
  8
0
100
AcDbCircle
 10
1027.059171748522
 20
440.2456345049959
 30
0.0
 40
3.0
100
AcDbArc
 50
90.0
 51
180.0
  0
LINE
  5
3BBB
330
2
100
AcDbEntity
  8
0
100
AcDbLine
 10
1029.559171748523
 20
375.2456345049888
 30
0.0
 11
1027.059171748521
 21
375.2456345049895
 31
0.0
  0
LINE
  5
3BBC
330
2
100
AcDbEntity
  8
0
100
AcDbLine
 10
1021.059171748522
 20
381.2456345049895
 30
0.0
 11
1011.059171748523
 21
381.2456345049897
 31
0.0
  0
ARC
  5
3BBD
330
2
100
AcDbEntity
  8
0
100
AcDbCircle
 10
1021.059171748522
 20
378.2456345049895
 30
0.0
 40
3.0
100
AcDbArc
 50
0.0
 51
90.0
  0
LINE
  5
3BBE
330
2
100
AcDbEntity
  8
0
100
AcDbLine
 10
1024.059171748522
 20
378.2456345049895
 30
0.0
 11
1024.059171748522
 21
378.2456345049895
 31
0.0
  0
ARC
  5
3BBF
330
2
100
AcDbEntity
  8
0
100
AcDbCircle
 10
1027.059171748522
 20
378.2456345049895
 30
0.0
 40
3.0
100
AcDbArc
 50
180.0
 51
269.9999999999739
  0
ARC
  5
3BC0
330
2
100
AcDbEntity
  8
0
100
AcDbCircle
 10
1029.55917174852
 20
367.2456345049888
 30
0.0
 40
8.0
100
AcDbArc
 50
0.0
 51
89.99999999997395
  0
ARC
  5
3BC1
330
2
100
AcDbEntity
  8
0
100
AcDbCircle
 10
948.0591717485221
 20
219.2456345049938
 30
0.0
 40
250.0
100
AcDbArc
 50
85.41175424079517
 51
94.58824575920484
  0
ARC
  5
3BC2
330
2
100
AcDbEntity
  8
0
 48
0.5
100
AcDbCircle
 10
898.0591717485213
 20
459.245634504994
 30
0.0
 40
10.0
100
AcDbArc
 50
90.0
 51
180.0
  0
LINE
  5
3BC3
330
2
100
AcDbEntity
  8
0
 48
0.5
100
AcDbLine
 10
898.0591717485213
 20
469.245634504994
 30
0.0
 11
908.0591717485258
 21
469.2456345049938
 31
0.0
  0
ARC
  5
3BC4
330
2
100
AcDbEntity
  8
0
100
AcDbCircle
 10
908.0591717485258
 20
461.2456345049936
 30
0.0
 40
8.0
100
AcDbArc
 50
81.10835431979607
 51
90.0
  0
ARC
  5
3BC5
330
2
100
AcDbEntity
  8
0
 48
0.5
100
AcDbCircle
 10
998.059171748525
 20
459.245634504994
 30
0.0
 40
10.0
100
AcDbArc
 50
0.0
 51
90.0
  0
ARC
  5
3BC6
330
2
100
AcDbEntity
  8
0
100
AcDbCircle
 10
1009.871581624428
 20
464.673983510324
 30
0.0
 40
3.0
100
AcDbArc
 50
204.6809703631087
 51
259.9999999999949
  0
ARC
  5
3BC7
330
2
100
AcDbEntity
  8
0
100
AcDbCircle
 10
921.6610087748703
 20
548.1880869060431
 30
0.0
 40
80.0
100
AcDbArc
 50
261.1083543197961
 51
274.5882457592048
  0
LINE
  5
3BC8
330
2
100
AcDbEntity
  8
0
 48
0.5
100
AcDbLine
 10
888.0591717485213
 20
459.245634504994
 30
0.0
 11
888.0591717485216
 21
449.24563450499
 31
0.0
  0
ARC
  5
3BC9
330
2
100
AcDbEntity
  8
0
100
AcDbCircle
 10
896.0591717485222
 20
449.24563450499
 30
0.0
 40
8.0
100
AcDbArc
 50
180.0
 51
188.8916456802039
  0
ARC
  5
3BCA
330
2
100
AcDbEntity
  8
0
100
AcDbCircle
 10
809.1167193474726
 20
435.6437974786445
 30
0.0
 40
80.0
100
AcDbArc
 50
355.4117542407789
 51
8.89164568020392
  0
LINE
  5
3BCB
330
2
100
AcDbEntity
  8
0
 48
0.5
100
AcDbLine
 10
998.059171748525
 20
469.245634504994
 30
0.0
 11
988.0591717485213
 21
469.2456345049938
 31
0.0
  0
ARC
  5
3BCC
330
2
100
AcDbEntity
  8
0
100
AcDbCircle
 10
988.0591717485213
 20
461.2456345049936
 30
0.0
 40
8.0
100
AcDbArc
 50
90.0
 51
98.89164568020392
  0
ARC
  5
3BCD
330
2
100
AcDbEntity
  8
0
100
AcDbCircle
 10
974.4573347221757
 20
548.1880869060431
 30
0.0
 40
80.0
100
AcDbArc
 50
265.4117542407951
 51
278.8916456802039
  0
LINE
  5
3BCE
330
2
100
AcDbEntity
  8
0
 48
0.5
100
AcDbLine
 10
1008.059171748525
 20
459.2456345049938
 30
0.0
 11
1008.059171748523
 21
359.2456345049908
 31
0.0
  0
ARC
  5
3BCF
330
2
100
AcDbEntity
  8
0
100
AcDbCircle
 10
1011.059171748523
 20
378.2456345049897
 30
0.0
 40
3.0
100
AcDbArc
 50
90.0
 51
180.0
  0
ARC
  5
3BD0
330
2
100
AcDbEntity
  8
0
100
AcDbCircle
 10
1011.059171748523
 20
403.2456345049925
 30
0.0
 40
3.0
100
AcDbArc
 50
90.0
 51
180.0
  0
ARC
  5
3BD1
330
2
100
AcDbEntity
  8
0
100
AcDbCircle
 10
1011.059171748523
 20
415.2456345049927
 30
0.0
 40
3.0
100
AcDbArc
 50
180.0
 51
270.0
  0
ARC
  5
3BD2
330
2
100
AcDbEntity
  8
0
 48
0.5
100
AcDbCircle
 10
898.0591717485213
 20
359.2456345049908
 30
0.0
 40
10.0
100
AcDbArc
 50
180.0
 51
270.0
  0
LINE
  5
3BD3
330
2
100
AcDbEntity
  8
0
 48
0.5
100
AcDbLine
 10
898.0591717485213
 20
349.2456345049909
 30
0.0
 11
908.0591717485258
 21
349.2456345049911
 31
0.0
  0
ARC
  5
3BD4
330
2
100
AcDbEntity
  8
0
100
AcDbCircle
 10
908.0591717485258
 20
357.2456345049913
 30
0.0
 40
8.0
100
AcDbArc
 50
270.0
 51
278.8916456802039
  0
ARC
  5
3BD5
330
2
100
AcDbEntity
  8
0
 48
0.5
100
AcDbCircle
 10
998.059171748525
 20
359.2456345049908
 30
0.0
 40
10.0
100
AcDbArc
 50
270.0
 51
0.0
  0
ARC
  5
3BD6
330
2
100
AcDbEntity
  8
0
100
AcDbCircle
 10
1009.871581624428
 20
353.8172854996612
 30
0.0
 40
3.0
100
AcDbArc
 50
100.000000000005
 51
155.3190296368912
  0
ARC
  5
3BD7
330
2
100
AcDbEntity
  8
0
100
AcDbCircle
 10
921.6610087748703
 20
270.3031821039419
 30
0.0
 40
80.0
100
AcDbArc
 50
85.41175424079517
 51
98.89164568020392
  0
LINE
  5
3BD8
330
2
100
AcDbEntity
  8
0
 48
0.5
100
AcDbLine
 10
888.0591717485213
 20
359.2456345049908
 30
0.0
 11
888.0591717485216
 21
369.2456345049949
 31
0.0
  0
ARC
  5
3BD9
330
2
100
AcDbEntity
  8
0
100
AcDbCircle
 10
896.0591717485222
 20
369.2456345049949
 30
0.0
 40
8.0
100
AcDbArc
 50
171.108354319796
 51
180.0
  0
ARC
  5
3BDA
330
2
100
AcDbEntity
  8
0
100
AcDbCircle
 10
809.1167193474726
 20
382.8474715313404
 30
0.0
 40
80.0
100
AcDbArc
 50
351.1083543197961
 51
4.588245759201595
  0
LINE
  5
3BDB
330
2
100
AcDbEntity
  8
0
 48
0.5
100
AcDbLine
 10
998.059171748525
 20
349.2456345049909
 30
0.0
 11
988.0591717485213
 21
349.2456345049911
 31
0.0
  0
ARC
  5
3BDC
330
2
100
AcDbEntity
  8
0
100
AcDbCircle
 10
988.0591717485213
 20
357.2456345049913
 30
0.0
 40
8.0
100
AcDbArc
 50
261.1083543197961
 51
270.0
  0
ARC
  5
3BDD
330
2
100
AcDbEntity
  8
0
100
AcDbCircle
 10
974.4573347221757
 20
270.3031821039419
 30
0.0
 40
80.0
100
AcDbArc
 50
81.10835431979607
 51
94.58824575920484
  0
ARC
  5
3BDE
330
2
100
AcDbEntity
  8
0
100
AcDbCircle
 10
1138.059171748522
 20
409.2456345049913
 30
0.0
 40
250.0
100
AcDbArc
 50
175.4117542407789
 51
184.588245759221
  0
ARC
  5
3BDF
330
2
100
AcDbEntity
  8
0
100
AcDbCircle
 10
948.0591717485221
 20
599.2456345049911
 30
0.0
 40
250.0
100
AcDbArc
 50
265.4117542407951
 51
274.5882457592048
  0
CIRCLE
  5
3BE0
330
2
100
AcDbEntity
  8
HOJO
100
AcDbCircle
 10
898.5616970654646
 20
458.7431091880512
 30
0.0
 40
4.0
  0
CIRCLE
  5
3BE1
330
2
100
AcDbEntity
  8
0
100
AcDbCircle
 10
898.5616970654646
 20
458.7431091880512
 30
0.0
 40
3.399999999999999
  0
CIRCLE
  5
3BE2
330
2
100
AcDbEntity
  8
HOJO
100
AcDbCircle
 10
997.5566464315816
 20
458.7431091880512
 30
0.0
 40
4.0
  0
CIRCLE
  5
3BE3
330
2
100
AcDbEntity
  8
0
100
AcDbCircle
 10
997.5566464315816
 20
458.7431091880512
 30
0.0
 40
3.399999999999999
  0
CIRCLE
  5
3BE4
330
2
100
AcDbEntity
  8
HOJO
100
AcDbCircle
 10
997.5566464315816
 20
359.7481598219346
 30
0.0
 40
4.0
  0
CIRCLE
  5
3BE5
330
2
100
AcDbEntity
  8
0
100
AcDbCircle
 10
997.5566464315816
 20
359.7481598219346
 30
0.0
 40
3.399999999999999
  0
CIRCLE
  5
3BE6
330
2
100
AcDbEntity
  8
HOJO
100
AcDbCircle
 10
898.5616970654646
 20
359.7481598219346
 30
0.0
 40
4.0
  0
CIRCLE
  5
3BE7
330
2
100
AcDbEntity
  8
0
100
AcDbCircle
 10
898.5616970654646
 20
359.7481598219346
 30
0.0
 40
3.399999999999999
  0
CIRCLE
  5
3BE8
330
2
100
AcDbEntity
  8
CENTER
100
AcDbCircle
 10
948.059171748523
 20
409.2456345049927
 30
0.0
 40
70.00000000000039
  0
CIRCLE
  5
3BE9
330
2
100
AcDbEntity
  8
0
100
AcDbCircle
 10
948.059171748523
 20
409.2456345049927
 30
0.0
 40
55.00000000000046
  0
CIRCLE
  5
3BEA
330
2
100
AcDbEntity
  8
0
100
AcDbCircle
 10
948.059171748523
 20
409.2456345049927
 30
0.0
 40
39.99999999999932
  0
CIRCLE
  5
3BEB
330
2
100
AcDbEntity
  8
0
100
AcDbCircle
 10
948.059171748523
 20
409.2456345049927
 30
0.0
 40
33.07735026919044
  0
CIRCLE
  5
3BEC
330
2
100
AcDbEntity
  8
0
100
AcDbCircle
 10
948.059171748523
 20
409.2456345049927
 30
0.0
 40
32.50000000000023
  0
LINE
  5
3BED
330
2
100
AcDbEntity
  8
CENTER
100
AcDbLine
 10
1011.767238850129
 20
345.5375674033873
 30
0.0
 11
884.3511046469174
 21
472.953701606598
 31
0.0
  0
LINE
  5
3BEE
330
2
100
AcDbEntity
  8
CENTER
100
AcDbLine
 10
884.3511046469185
 20
345.5375674033867
 30
0.0
 11
1011.767238850128
 21
472.9537016065986
 31
0.0
  0
LINE
  5
3BEF
330
2
100
AcDbEntity
  8
0
100
AcDbLine
 10
1039.55917174852
 20
469.7456345049923
 30
0.0
 11
1053.55917174852
 21
469.7456345049923
 31
0.0
  0
ARC
  5
3BF0
330
2
100
AcDbEntity
  8
0
100
AcDbCircle
 10
1039.55917174852
 20
467.7456345049923
 30
0.0
 40
2.0
100
AcDbArc
 50
90.0
 51
180.0
  0
LINE
  5
3BF1
330
2
100
AcDbEntity
  8
0
100
AcDbLine
 10
1039.55917174852
 20
348.7456345049931
 30
0.0
 11
1053.55917174852
 21
348.745634504993
 31
0.0
  0
ARC
  5
3BF2
330
2
100
AcDbEntity
  8
0
100
AcDbCircle
 10
1039.55917174852
 20
350.7456345049931
 30
0.0
 40
2.0
100
AcDbArc
 50
180.0
 51
270.0
  0
CIRCLE
  5
3BF3
330
2
100
AcDbEntity
  8
0
100
AcDbCircle
 10
948.059171748523
 20
409.2456345049923
 30
0.0
 40
21.99999999999977
  0
LINE
  5
3BF4
330
2
100
AcDbEntity
  8
0
100
AcDbLine
 10
944.0591717485226
 20
426.5456345049926
 30
0.0
 11
952.0591717485226
 21
426.5456345049926
 31
0.0
  0
LINE
  5
3BF5
330
2
100
AcDbEntity
  8
0
100
AcDbLine
 10
944.0591717485226
 20
426.5456345049926
 30
0.0
 11
944.0591717485226
 21
422.6620423699911
 31
0.0
  0
LINE
  5
3BF6
330
2
100
AcDbEntity
  8
0
100
AcDbLine
 10
952.0591717485226
 20
426.5456345049926
 30
0.0
 11
952.0591717485231
 21
422.6620423699912
 31
0.0
  0
ARC
  5
3BF7
330
2
100
AcDbEntity
  8
0
100
AcDbCircle
 10
948.0591717485227
 20
409.2456345049927
 30
0.0
 40
15.15470053837842
100
AcDbArc
 50
105.3042448177051
 51
74.69575518229486
  0
ARC
  5
3BF8
330
2
100
AcDbEntity
  8
0
100
AcDbCircle
 10
948.059171748523
 20
409.2456345049923
 30
0.0
 40
14.00000000000022
100
AcDbArc
 50
106.6015495990162
 51
73.39845040098374
  0
LINE
  5
3BF9
330
2
100
AcDbEntity
  8
CENTER
100
AcDbLine
 10
948.0591717485301
 20
484.2456345049933
 30
0.0
 11
948.0591717485301
 21
334.2456345049934
 31
0.0
  0
ENDSEC
  0
SECTION
  2
OBJECTS
  0
DICTIONARY
  5
7
330
0
100
AcDbDictionary
  3
ACAD_COLOR
350
832
  3
ACAD_GROUP
350
75
  3
ACAD_LAYOUT
350
61
  3
ACAD_MATERIAL
350
808
  3
ACAD_MLEADERSTYLE
350
857
  3
ACAD_MLINESTYLE
350
76
  3
ACAD_PLOTSETTINGS
350
77
  3
ACAD_PLOTSTYLENAME
350
6
  3
ACAD_SCALELIST
350
835
  3
ACAD_TABLESTYLE
350
833
  3
ACAD_VISUALSTYLE
350
821
  3
ACADDIM
350
480
  3
ACDB_RECOMPOSE_DATA
350
88E
  3
ACDBHEADERROUNDTRIPXREC
350
3E11
  3
ACDBVARIABLEDICTIONARY
350
102
  3
DWGPROPS
350
3DE7
  0
DICTIONARY
  5
1E6F
330
6E
100
AcDbDictionary
280
     1
  3
ACAD_XREC_ROUNDTRIP
360
3DEB
  0
DICTIONARY
  5
86B
330
66
100
AcDbDictionary
280
     1
  3
ACAD_LAYERSTATES
360
86C
  0
DICTIONARY
  5
158C
330
5E
100
AcDbDictionary
280
     1
  3
ADSK_XREC_LAYER_RECONCILED
360
158D
  0
DICTIONARY
  5
158E
330
3E
100
AcDbDictionary
280
     1
  3
ADSK_XREC_LAYER_RECONCILED
360
158F
  0
DICTIONARY
  5
1594
330
2B5
100
AcDbDictionary
280
     1
  3
ADSK_XREC_LAYER_RECONCILED
360
1595
  0
DICTIONARY
  5
1596
330
2BA
100
AcDbDictionary
280
     1
  3
ADSK_XREC_LAYER_RECONCILED
360
1597
  0
DICTIONARY
  5
159A
330
3FA
100
AcDbDictionary
280
     1
  3
ADSK_XREC_LAYER_RECONCILED
360
159B
  0
DICTIONARY
  5
159C
330
478
100
AcDbDictionary
280
     1
  3
ADSK_XREC_LAYER_RECONCILED
360
159D
  0
DICTIONARY
  5
33EF
330
2
100
AcDbDictionary
280
     1
  3
ACAD_LAYOUTSELFREF
360
3E32
  3
ACAD_SORTENTS
360
33F0
  0
DICTIONARY
  5
3E33
330
3E0B
100
AcDbDictionary
280
     1
  3
ACAD_LAYOUTSELFREF
360
3E34
  0
DICTIONARY
  5
832
102
{ACAD_REACTORS
330
7
102
}
330
7
100
AcDbDictionary
  0
DICTIONARY
  5
75
102
{ACAD_REACTORS
330
7
102
}
330
7
100
AcDbDictionary
  0
DICTIONARY
  5
61
102
{ACAD_REACTORS
330
7
102
}
330
7
100
AcDbDictionary
  0
DICTIONARY
  5
808
102
{ACAD_REACTORS
330
7
102
}
330
7
100
AcDbDictionary
  3
BYBLOCK
350
811
  3
BYLAYER
350
809
  3
GLOBAL
350
819
  0
DICTIONARY
  5
857
102
{ACAD_REACTORS
330
7
102
}
330
7
100
AcDbDictionary
  3
STANDARD
350
858
  0
DICTIONARY
  5
76
102
{ACAD_REACTORS
330
7
102
}
330
7
100
AcDbDictionary
  3
STANDARD
350
78
  0
DICTIONARY
  5
77
102
{ACAD_REACTORS
330
7
102
}
330
7
100
AcDbDictionary
  0
ACDBDICTIONARYWDFLT
  5
6
102
{ACAD_REACTORS
330
7
102
}
330
7
100
AcDbDictionary
281
     1
  3
Normal
350
5
100
AcDbDictionaryWithDefault
340
5
  0
DICTIONARY
  5
835
102
{ACAD_REACTORS
330
7
102
}
330
7
100
AcDbDictionary
  3
A0
350
836
  3
A1
350
837
  3
A2
350
838
  3
A3
350
839
  3
A4
350
83A
  3
A5
350
83B
  3
A6
350
83C
  3
A7
350
83D
  3
A8
350
83E
  3
A9
350
83F
  3
B0
350
840
  3
B1
350
841
  3
B2
350
842
  3
B3
350
843
  3
B4
350
844
  3
B5
350
845
  3
B6
350
846
  3
B7
350
847
  3
B8
350
848
  3
B9
350
849
  3
C0
350
84A
  3
C1
350
84B
  3
C2
350
84C
  3
C3
350
84D
  3
C4
350
84E
  3
C5
350
84F
  3
C6
350
850
  3
C7
350
851
  3
C8
350
852
  3
C9
350
853
  3
D0
350
854
  3
D1
350
855
  3
D2
350
856
  0
DICTIONARY
  5
833
102
{ACAD_REACTORS
330
7
102
}
330
7
100
AcDbDictionary
  3
STANDARD
350
834
  0
DICTIONARY
  5
821
102
{ACAD_REACTORS
330
7
102
}
330
7
100
AcDbDictionary
  3
2DWIREFRAME
350
827
  3
3D_HIDDEN
350
829
  3
3DWIREFRAME
350
828
  3
BASIC
350
826
  3
BRIGHTEN
350
82D
  3
COLORCHANGE
350
831
  3
CONCEPTUAL
350
82A
  3
DIM
350
82C
  3
FACEPATTERN
350
830
  3
FLAT
350
822
  3
FLATWITHEDGES
350
823
  3
GOURAUD
350
824
  3
GOURAUDWITHEDGES
350
825
  3
LINEPATTERN
350
82F
  3
REALISTIC
350
82B
  3
THICKEN
350
82E
  0
XRECORD
  5
480
102
{ACAD_REACTORS
330
7
102
}
330
7
100
AcDbXrecord
 90
   990106
  3

 60
     0
 61
     0
 62
     1
 63
     3
 64
     1
 65
     0
 66
     0
 67
     3
 68
     1
 69
     0
 70
     0
 71
     0
 72
     0
 40
0.0
170
     2
340
0
  0
XRECORD
  5
88E
102
{ACAD_REACTORS
330
7
102
}
330
7
100
AcDbXrecord
 90
        1
330
834
  0
DICTIONARY
  5
3E11
102
{ACAD_REACTORS
330
7
102
}
330
7
100
AcDbDictionary
  3
CEPSNTYPE
350
3E1B
  3
DIMSTYLEDATA
350
3E1F
  3
FINGERPRINTGUID
350
3E1C
  3
HYPERLINKBASE
350
3E14
  3
INSUNITS
350
3E1A
  3
LAYOUTDICT
350
3E16
  3
LWETCUNION
350
3E19
  3
PLOTSETDICT
350
3E17
  3
PLOTSTYLNAMDICT
350
3E18
  3
PSVPSCALE
350
3E1E
  3
PUCSBASE
350
3E22
  3
PUCSORGBACK
350
3E28
  3
PUCSORGBOTTOM
350
3E24
  3
PUCSORGFRONT
350
3E27
  3
PUCSORGLEFT
350
3E25
  3
PUCSORGRIGHT
350
3E26
  3
PUCSORGTOP
350
3E23
  3
PUCSORTHOREF
350
3E20
  3
PUCSORTHOVIEW
350
3E21
  3
STYLESHEET
350
3E15
  3
TSTACKALIGN
350
3E12
  3
TSTACKSIZE
350
3E13
  3
UCSBASE
350
3E2B
  3
UCSORGBACK
350
3E31
  3
UCSORGBOTTOM
350
3E2D
  3
UCSORGFRONT
350
3E30
  3
UCSORGLEFT
350
3E2E
  3
UCSORGRIGHT
350
3E2F
  3
UCSORGTOP
350
3E2C
  3
UCSORTHOREF
350
3E29
  3
UCSORTHOVIEW
350
3E2A
  3
VERSIONGUID
350
3E1D
  0
DICTIONARY
  5
102
102
{ACAD_REACTORS
330
7
102
}
330
7
100
AcDbDictionary
  3
CANNOSCALE
350
892
  3
CMLEADERSTYLE
350
890
  3
CTABLESTYLE
350
88F
  3
DIMASSOC
350
103
  3
INDEXCTL
350
1E7C
  3
LIGHTINGUNITS
350
893
  3
MSLTSCALE
350
891
  3
SORTENTS
350
549
  0
XRECORD
  5
3DE7
102
{ACAD_REACTORS
330
7
102
}
330
7
100
AcDbXrecord
  1
DWGPROPS COOKIE
  2

  3

  4

  6

  7

  8
knsuzuki
  9

300
=
301
=
302
=
303
=
304
=
305
=
306
=
307
=
308
=
309
=
 40
0.1646050578703704
 41
2454889.364024514
 42
2454904.354944479
  1

 90
        0
  0
XRECORD
  5
3DEB
102
{ACAD_REACTORS
330
1E6F
102
}
330
1E6F
100
AcDbXrecord
102
VTR_0.000_0.000_1.000_1.000_VISUALSTYLE
340
827
102
VTR_0.000_0.000_1.000_1.000_GRIDDISPLAY
 70
     3
102
VTR_0.000_0.000_1.000_1.000_GRIDMAJOR
 70
     5
102
VTR_0.000_0.000_1.000_1.000_DEFAULTLIGHTING
280
     1
102
VTR_0.000_0.000_1.000_1.000_DEFAULTLIGHTINGTYPE
 70
     1
102
VTR_0.000_0.000_1.000_1.000_BRIGHTNESS
141
0.0
102
VTR_0.000_0.000_1.000_1.000_CONTRAST
142
0.0
  0
DICTIONARY
  5
86C
102
{ACAD_REACTORS
330
86B
102
}
330
86B
100
AcDbDictionary
  0
XRECORD
  5
158D
102
{ACAD_REACTORS
330
158C
102
}
330
158C
100
AcDbXrecord
290
     1
  0
XRECORD
  5
158F
102
{ACAD_REACTORS
330
158E
102
}
330
158E
100
AcDbXrecord
290
     1
  0
XRECORD
  5
1595
102
{ACAD_REACTORS
330
1594
102
}
330
1594
100
AcDbXrecord
290
     1
  0
XRECORD
  5
1597
102
{ACAD_REACTORS
330
1596
102
}
330
1596
100
AcDbXrecord
290
     1
  0
XRECORD
  5
159B
102
{ACAD_REACTORS
330
159A
102
}
330
159A
100
AcDbXrecord
290
     1
  0
XRECORD
  5
159D
102
{ACAD_REACTORS
330
159C
102
}
330
159C
100
AcDbXrecord
290
     1
  0
XRECORD
  5
3E32
102
{ACAD_REACTORS
330
33EF
102
}
330
33EF
100
AcDbXrecord
340
2
  0
SORTENTSTABLE
  5
33F0
102
{ACAD_REACTORS
330
33EF
102
}
330
33EF
100
AcDbSortentsTable
330
2
331
123B
  5
123B
331
1850
  5
1850
331
1243
  5
1243
331
1253
  5
1253
331
125B
  5
125B
331
194F
  5
194F
331
1B15
  5
1B15
331
FEE
  5
FEE
331
FAF
  5
FAF
331
FF6
  5
FF6
331
FB7
  5
FB7
331
FBF
  5
FBF
331
FFE
  5
FFE
331
1200
  5
1200
331
11C1
  5
11C1
331
1182
  5
1182
331
1143
  5
1143
331
110C
  5
110C
331
10CD
  5
10CD
331
FC7
  5
FC7
331
1057
  5
1057
331
1096
  5
1096
331
1208
  5
1208
331
11C9
  5
11C9
331
118A
  5
118A
331
114B
  5
114B
331
1114
  5
1114
331
10D5
  5
10D5
331
109E
  5
109E
331
105F
  5
105F
331
1210
  5
1210
331
1192
  5
1192
331
11D1
  5
11D1
331
1153
  5
1153
331
10A6
  5
10A6
331
10DD
  5
10DD
331
1067
  5
1067
331
11D9
  5
11D9
331
106F
  5
106F
331
10E5
  5
10E5
331
115B
  5
115B
331
121C
  5
121C
331
1263
  5
1263
331
1224
  5
1224
331
122C
  5
122C
331
1234
  5
1234
331
17D1
  5
17D1
331
1809
  5
1809
331
FCF
  5
FCF
331
FD7
  5
FD7
331
FDF
  5
FDF
331
11E1
  5
11E1
331
119A
  5
119A
331
1124
  5
1124
331
10AE
  5
10AE
331
1077
  5
1077
331
FE7
  5
FE7
331
1038
  5
1038
331
10ED
  5
10ED
331
3302
  5
3304
331
11E9
  5
11E9
331
11A2
  5
11A2
331
116B
  5
116B
331
112C
  5
112C
331
10F5
  5
10F5
331
10B6
  5
10B6
331
107F
  5
107F
331
1040
  5
1040
331
11F1
  5
11F1
331
11B2
  5
11B2
331
1173
  5
1173
331
1134
  5
1134
331
10FD
  5
10FD
331
10BE
  5
10BE
331
1048
  5
1048
331
1087
  5
1087
331
331A
  5
3323
331
11F9
  5
11F9
331
11BA
  5
11BA
331
117B
  5
117B
331
113C
  5
113C
331
1105
  5
1105
331
10C6
  5
10C6
331
108F
  5
108F
331
123C
  5
123C
331
168C
  5
168C
331
1B9D
  5
1B9D
331
1254
  5
1254
331
125C
  5
125C
331
FA8
  5
FA8
331
FEF
  5
FEF
331
FB0
  5
FB0
331
FF7
  5
FF7
331
FB8
  5
FB8
331
1050
  5
1050
331
FC0
  5
FC0
331
FFF
  5
FFF
331
1201
  5
1201
331
11C2
  5
11C2
331
1183
  5
1183
331
1144
  5
1144
331
110D
  5
110D
331
10CE
  5
10CE
331
1097
  5
1097
331
1058
  5
1058
331
1209
  5
1209
331
2D9B
  5
2D9B
331
11CA
  5
11CA
331
118B
  5
118B
331
114C
  5
114C
331
1115
  5
1115
331
10D6
  5
10D6
331
109F
  5
109F
331
1060
  5
1060
331
1211
  5
1211
331
2F83
  5
2F83
331
1193
  5
1193
331
11D2
  5
11D2
331
1154
  5
1154
331
10A7
  5
10A7
331
1068
  5
1068
331
10DE
  5
10DE
331
11DA
  5
11DA
331
115C
  5
115C
331
10E6
  5
10E6
331
121D
  5
121D
331
1264
  5
1264
331
19B0
  5
19B0
331
1225
  5
1225
331
122D
  5
122D
331
1235
  5
1235
331
FC8
  5
FC8
331
FD0
  5
FD0
331
1AFF
  5
1AFF
331
FD8
  5
FD8
331
1070
  5
1070
331
FE0
  5
FE0
331
3273
  5
3274
331
11E2
  5
11E2
331
119B
  5
119B
331
1125
  5
1125
331
10AF
  5
10AF
331
1078
  5
1078
331
10EE
  5
10EE
331
11EA
  5
11EA
331
11A3
  5
11A3
331
116C
  5
116C
331
112D
  5
112D
331
10F6
  5
10F6
331
10B7
  5
10B7
331
1080
  5
1080
331
1041
  5
1041
331
11F2
  5
11F2
331
11B3
  5
11B3
331
1174
  5
1174
331
1135
  5
1135
331
10FE
  5
10FE
331
1088
  5
1088
331
1049
  5
1049
331
10BF
  5
10BF
331
11BB
  5
11BB
331
117C
  5
117C
331
113D
  5
113D
331
1106
  5
1106
331
10C7
  5
10C7
331
11FA
  5
11FA
331
123D
  5
123D
331
1634
  5
1634
331
1743
  5
1743
331
1B9E
  5
1B9E
331
1255
  5
1255
331
125D
  5
125D
331
FE8
  5
FE8
331
FA9
  5
FA9
331
FF0
  5
FF0
331
FB1
  5
FB1
331
FF8
  5
FF8
331
FB9
  5
FB9
331
1090
  5
1090
331
1051
  5
1051
331
FC1
  5
FC1
331
1202
  5
1202
331
11C3
  5
11C3
331
1184
  5
1184
331
1145
  5
1145
331
110E
  5
110E
331
10CF
  5
10CF
331
1098
  5
1098
331
1059
  5
1059
331
242D
  5
242D
331
3323
  5
3324
331
120A
  5
120A
331
11CB
  5
11CB
331
118C
  5
118C
331
114D
  5
114D
331
10A0
  5
10A0
331
10D7
  5
10D7
331
1061
  5
1061
331
1194
  5
1194
331
11D3
  5
11D3
331
1155
  5
1155
331
1069
  5
1069
331
10DF
  5
10DF
331
1212
  5
1212
331
11DB
  5
11DB
331
115D
  5
115D
331
10E7
  5
10E7
331
2A1D
  5
2A1D
331
121E
  5
121E
331
1AB0
  5
1AB0
331
1226
  5
1226
331
122E
  5
122E
331
1236
  5
1236
331
1676
  5
1676
331
1B57
  5
1B57
331
FC9
  5
FC9
331
FD1
  5
FD1
331
FD9
  5
FD9
331
10A8
  5
10A8
331
1071
  5
1071
331
FE1
  5
FE1
331
11E3
  5
11E3
331
119C
  5
119C
331
1126
  5
1126
331
10EF
  5
10EF
331
10B0
  5
10B0
331
1079
  5
1079
331
103A
  5
103A
331
11EB
  5
11EB
331
11A4
  5
11A4
331
116D
  5
116D
331
112E
  5
112E
331
10F7
  5
10F7
331
10B8
  5
10B8
331
1081
  5
1081
331
1042
  5
1042
331
2A85
  5
2A85
331
3304
  5
3310
331
11F3
  5
11F3
331
11B4
  5
11B4
331
1175
  5
1175
331
1136
  5
1136
331
10C0
  5
10C0
331
1089
  5
1089
331
104A
  5
104A
331
10FF
  5
10FF
331
11FB
  5
11FB
331
11BC
  5
11BC
331
117D
  5
117D
331
113E
  5
113E
331
1107
  5
1107
331
15ED
  5
15ED
331
123E
  5
123E
331
16FD
  5
16FD
331
1744
  5
1744
331
1883
  5
1883
331
1B9F
  5
1B9F
331
1256
  5
1256
331
125E
  5
125E
331
FE9
  5
FE9
331
199A
  5
199A
331
FAA
  5
FAA
331
FF1
  5
FF1
331
FB2
  5
FB2
331
FF9
  5
FF9
331
FBA
  5
FBA
331
10C8
  5
10C8
331
1091
  5
1091
331
1052
  5
1052
331
FC2
  5
FC2
331
1203
  5
1203
331
11C4
  5
11C4
331
1185
  5
1185
331
1146
  5
1146
331
110F
  5
110F
331
10D0
  5
10D0
331
1099
  5
1099
331
105A
  5
105A
331
120B
  5
120B
331
11CC
  5
11CC
331
118D
  5
118D
331
114E
  5
114E
331
10A1
  5
10A1
331
10D8
  5
10D8
331
1062
  5
1062
331
1195
  5
1195
331
11D4
  5
11D4
331
106A
  5
106A
331
10E0
  5
10E0
331
1156
  5
1156
331
1213
  5
1213
331
11DC
  5
11DC
331
115E
  5
115E
331
121F
  5
121F
331
1227
  5
1227
331
122F
  5
122F
331
1237
  5
1237
331
1AE9
  5
1AE9
331
1933
  5
1933
331
FCA
  5
FCA
331
FD2
  5
FD2
331
FDA
  5
FDA
331
10A9
  5
10A9
331
1033
  5
1033
331
1072
  5
1072
331
10E8
  5
10E8
331
FE2
  5
FE2
331
11E4
  5
11E4
331
1127
  5
1127
331
10F0
  5
10F0
331
119D
  5
119D
331
10B1
  5
10B1
331
107A
  5
107A
331
103B
  5
103B
331
1E89
  5
1E89
331
11EC
  5
11EC
331
11A5
  5
11A5
331
116E
  5
116E
331
112F
  5
112F
331
10F8
  5
10F8
331
10B9
  5
10B9
331
1082
  5
1082
331
1043
  5
1043
331
11F4
  5
11F4
331
11B5
  5
11B5
331
1176
  5
1176
331
1137
  5
1137
331
1100
  5
1100
331
10C1
  5
10C1
331
108A
  5
108A
331
104B
  5
104B
331
11FC
  5
11FC
331
11BD
  5
11BD
331
113F
  5
113F
331
117E
  5
117E
331
123F
  5
123F
331
1BA0
  5
1BA0
331
1257
  5
1257
331
125F
  5
125F
331
174D
  5
174D
331
FEA
  5
FEA
331
FAB
  5
FAB
331
FF2
  5
FF2
331
FB3
  5
FB3
331
FFA
  5
FFA
331
FBB
  5
FBB
331
1EC1
  5
1EC1
331
1108
  5
1108
331
10C9
  5
10C9
331
1092
  5
1092
331
FC3
  5
FC3
331
1053
  5
1053
331
1204
  5
1204
331
11C5
  5
11C5
331
1186
  5
1186
331
1F60
  5
1F60
331
1147
  5
1147
331
1110
  5
1110
331
10D1
  5
10D1
331
109A
  5
109A
331
105B
  5
105B
331
120C
  5
120C
331
11CD
  5
11CD
331
2687
  5
2687
331
118E
  5
118E
331
1118
  5
1118
331
114F
  5
114F
331
10A2
  5
10A2
331
10D9
  5
10D9
331
1063
  5
1063
331
1214
  5
1214
331
1196
  5
1196
331
11D5
  5
11D5
331
106B
  5
106B
331
10E1
  5
10E1
331
1157
  5
1157
331
11DD
  5
11DD
331
115F
  5
115F
331
15BF
  5
15BF
331
1218
  5
1218
331
1220
  5
1220
331
1660
  5
1660
331
1775
  5
1775
331
1B41
  5
1B41
331
1228
  5
1228
331
1230
  5
1230
331
191C
  5
191C
331
1ACA
  5
1ACA
331
1924
  5
1924
331
1B71
  5
1B71
331
1934
  5
1934
331
FCB
  5
FCB
331
FD3
  5
FD3
331
FDB
  5
FDB
331
1120
  5
1120
331
10AA
  5
10AA
331
FE3
  5
FE3
331
1034
  5
1034
331
1073
  5
1073
331
10E9
  5
10E9
331
11E5
  5
11E5
331
119E
  5
119E
331
2130
  5
2130
331
1167
  5
1167
331
1128
  5
1128
331
1E8A
  5
1E8A
331
10F1
  5
10F1
331
10B2
  5
10B2
331
107B
  5
107B
331
103C
  5
103C
331
11ED
  5
11ED
331
116F
  5
116F
331
1F41
  5
1F41
331
1130
  5
1130
331
1EA2
  5
1EA2
331
10F9
  5
10F9
331
10BA
  5
10BA
331
1083
  5
1083
331
1044
  5
1044
331
11F5
  5
11F5
331
11B6
  5
11B6
331
1138
  5
1138
331
1101
  5
1101
331
10C2
  5
10C2
331
108B
  5
108B
331
104C
  5
104C
331
1177
  5
1177
331
11FD
  5
11FD
331
11BE
  5
11BE
331
117F
  5
117F
331
1238
  5
1238
331
1240
  5
1240
331
1250
  5
1250
331
1258
  5
1258
331
18FD
  5
18FD
331
1A43
  5
1A43
331
16B8
  5
16B8
331
FEB
  5
FEB
331
FAC
  5
FAC
331
FF3
  5
FF3
331
FB4
  5
FB4
331
FFB
  5
FFB
331
FBC
  5
FBC
331
1109
  5
1109
331
10CA
  5
10CA
331
1093
  5
1093
331
FC4
  5
FC4
331
1054
  5
1054
331
1140
  5
1140
331
1205
  5
1205
331
11C6
  5
11C6
331
1187
  5
1187
331
1148
  5
1148
331
1111
  5
1111
331
10D2
  5
10D2
331
109B
  5
109B
331
105C
  5
105C
331
120D
  5
120D
331
11CE
  5
11CE
331
29B8
  5
29B8
331
118F
  5
118F
331
1EF2
  5
1EF2
331
1119
  5
1119
331
1150
  5
1150
331
10A3
  5
10A3
331
10DA
  5
10DA
331
1064
  5
1064
331
1215
  5
1215
331
1197
  5
1197
331
106C
  5
106C
331
10E2
  5
10E2
331
1158
  5
1158
331
11D6
  5
11D6
331
11DE
  5
11DE
331
1219
  5
1219
331
1260
  5
1260
331
1221
  5
1221
331
1229
  5
1229
331
1727
  5
1727
331
1231
  5
1231
331
FCC
  5
FCC
331
1935
  5
1935
331
19DC
  5
19DC
331
FD4
  5
FD4
331
FDC
  5
FDC
331
A65
  5
A65
331
1F1A
  5
1F1A
331
1121
  5
1121
331
10AB
  5
10AB
331
FE4
  5
FE4
331
B2D
  5
B2D
331
1035
  5
1035
331
1074
  5
1074
331
10EA
  5
10EA
331
1160
  5
1160
331
11E6
  5
11E6
331
119F
  5
119F
331
1168
  5
1168
331
1129
  5
1129
331
10F2
  5
10F2
331
10B3
  5
10B3
331
107C
  5
107C
331
103D
  5
103D
331
11EE
  5
11EE
331
1170
  5
1170
331
1131
  5
1131
331
10FA
  5
10FA
331
10BB
  5
10BB
331
1084
  5
1084
331
1045
  5
1045
331
11F6
  5
11F6
331
1178
  5
1178
331
1139
  5
1139
331
1102
  5
1102
331
10C3
  5
10C3
331
108C
  5
108C
331
104D
  5
104D
331
11B7
  5
11B7
331
11FE
  5
11FE
331
11BF
  5
11BF
331
1239
  5
1239
331
1241
  5
1241
331
1251
  5
1251
331
1259
  5
1259
331
18FE
  5
18FE
331
FEC
  5
FEC
331
FAD
  5
FAD
331
1B2B
  5
1B2B
331
FF4
  5
FF4
331
FB5
  5
FB5
331
FBD
  5
FBD
331
FFC
  5
FFC
331
1180
  5
1180
331
1141
  5
1141
331
10CB
  5
10CB
331
1094
  5
1094
331
FC5
  5
FC5
331
1055
  5
1055
331
110A
  5
110A
331
1206
  5
1206
331
11C7
  5
11C7
331
1188
  5
1188
331
1149
  5
1149
331
1112
  5
1112
331
10D3
  5
10D3
331
109C
  5
109C
331
105D
  5
105D
331
120E
  5
120E
331
1190
  5
1190
331
11CF
  5
11CF
331
111A
  5
111A
331
1151
  5
1151
331
10A4
  5
10A4
331
10DB
  5
10DB
331
1065
  5
1065
331
1216
  5
1216
331
106D
  5
106D
331
10E3
  5
10E3
331
1159
  5
1159
331
11D7
  5
11D7
331
11DF
  5
11DF
331
121A
  5
121A
331
1261
  5
1261
331
164A
  5
164A
331
1222
  5
1222
331
122A
  5
122A
331
1232
  5
1232
331
FCD
  5
FCD
331
FD5
  5
FD5
331
FDD
  5
FDD
331
2A21
  5
2A21
331
1198
  5
1198
331
1122
  5
1122
331
10AC
  5
10AC
331
FE5
  5
FE5
331
1036
  5
1036
331
1075
  5
1075
331
10EB
  5
10EB
331
1161
  5
1161
331
11E7
  5
11E7
331
11A0
  5
11A0
331
1169
  5
1169
331
112A
  5
112A
331
10F3
  5
10F3
331
10B4
  5
10B4
331
107D
  5
107D
331
103E
  5
103E
331
3310
  5
3311
331
11EF
  5
11EF
331
11B0
  5
11B0
331
1171
  5
1171
331
1132
  5
1132
331
10FB
  5
10FB
331
10BC
  5
10BC
331
1085
  5
1085
331
1046
  5
1046
331
11B8
  5
11B8
331
1179
  5
1179
331
113A
  5
113A
331
1103
  5
1103
331
10C4
  5
10C4
331
108D
  5
108D
331
104E
  5
104E
331
11F7
  5
11F7
331
11FF
  5
11FF
331
123A
  5
123A
331
1242
  5
1242
331
1A2D
  5
1A2D
331
1252
  5
1252
331
125A
  5
125A
331
16A2
  5
16A2
331
18FF
  5
18FF
331
FED
  5
FED
331
FAE
  5
FAE
331
FF5
  5
FF5
331
FB6
  5
FB6
331
FBE
  5
FBE
331
FFD
  5
FFD
331
11C0
  5
11C0
331
1181
  5
1181
331
1142
  5
1142
331
110B
  5
110B
331
10CC
  5
10CC
331
1095
  5
1095
331
FC6
  5
FC6
331
1056
  5
1056
331
1207
  5
1207
331
11C8
  5
11C8
331
1189
  5
1189
331
114A
  5
114A
331
1113
  5
1113
331
10D4
  5
10D4
331
109D
  5
109D
331
105E
  5
105E
331
120F
  5
120F
331
1191
  5
1191
331
11D0
  5
11D0
331
111B
  5
111B
331
1152
  5
1152
331
10A5
  5
10A5
331
10DC
  5
10DC
331
1066
  5
1066
331
1217
  5
1217
331
11D8
  5
11D8
331
106E
  5
106E
331
10E4
  5
10E4
331
115A
  5
115A
331
121B
  5
121B
331
1262
  5
1262
331
1711
  5
1711
331
1223
  5
1223
331
122B
  5
122B
331
1233
  5
1233
331
16D2
  5
16D2
331
19C6
  5
19C6
331
FCE
  5
FCE
331
FD6
  5
FD6
331
FDE
  5
FDE
331
2A22
  5
2A22
331
1199
  5
1199
331
1123
  5
1123
331
10AD
  5
10AD
331
FE6
  5
FE6
331
1037
  5
1037
331
1076
  5
1076
331
10EC
  5
10EC
331
1162
  5
1162
331
11E0
  5
11E0
331
11E8
  5
11E8
331
11A1
  5
11A1
331
116A
  5
116A
331
112B
  5
112B
331
10F4
  5
10F4
331
10B5
  5
10B5
331
107E
  5
107E
331
103F
  5
103F
331
3311
  5
3315
331
11F0
  5
11F0
331
11B1
  5
11B1
331
1172
  5
1172
331
1133
  5
1133
331
10FC
  5
10FC
331
10BD
  5
10BD
331
1086
  5
1086
331
1047
  5
1047
331
3319
  5
331A
331
11F8
  5
11F8
331
11B9
  5
11B9
331
117A
  5
117A
331
113B
  5
113B
331
1104
  5
1104
331
10C5
  5
10C5
331
108E
  5
108E
331
104F
  5
104F
  0
XRECORD
  5
3E34
102
{ACAD_REACTORS
330
3E33
102
}
330
3E33
100
AcDbXrecord
340
3E0B
  0
ACAD_PROXY_OBJECT
  5
811
102
{ACAD_XDICTIONARY
360
812
102
}
102
{ACAD_REACTORS
330
808
102
}
330
808
100
AcDbProxyObject
 90
      499
 91
      512
 93
     1340
310
42109E509B1BD8DAC02004014080404555555555555953FAA155555555555654FEA9AA400014080404555555555555953FAA155555555555654FEA9AA400000000000000E03F4080404555555555555953FAA155555555555654FEA9AA4014080404555555555555953FAA155555555555654FEA9AA4010201011555555555
310
55654FEA8555555555555953FAA6A9005020101155555555555654FEA8555555555555953FAA6A9000
 94
        0
1001
ACAD
1000
AcadProxyRoundTripData
1071
      504
1071
   851991
1070
     0
  0
ACAD_PROXY_OBJECT
  5
809
102
{ACAD_XDICTIONARY
360
80A
102
}
102
{ACAD_REACTORS
330
808
102
}
330
808
100
AcDbProxyObject
 90
      499
 91
      512
 93
     1340
310
42109E53185E595C802004014080404555555555555953FAA155555555555654FEA9AA400014080404555555555555953FAA155555555555654FEA9AA400000000000000E03F4080404555555555555953FAA155555555555654FEA9AA4014080404555555555555953FAA155555555555654FEA9AA4010201011555555555
310
55654FEA8555555555555953FAA6A9005020101155555555555654FEA8555555555555953FAA6A9000
 94
        0
1001
ACAD
1000
AcadProxyRoundTripData
1071
      504
1071
   851991
1070
     0
  0
ACAD_PROXY_OBJECT
  5
819
102
{ACAD_XDICTIONARY
360
81A
102
}
102
{ACAD_REACTORS
330
808
102
}
330
808
100
AcDbProxyObject
 90
      499
 91
      512
 93
     1332
310
41D1DB1BD8985B002004014080404555555555555953FAA155555555555654FEA9AA400014080404555555555555953FAA155555555555654FEA9AA400000000000000E03F4080404555555555555953FAA155555555555654FEA9AA4014080404555555555555953FAA155555555555654FEA9AA401020101155555555555
310
654FEA8555555555555953FAA6A9005020101155555555555654FEA8555555555555953FAA6A9000
 94
        0
1001
ACAD
1000
AcadProxyRoundTripData
1071
      504
1071
   851991
1070
     0
  0
ACAD_PROXY_OBJECT
  5
858
102
{ACAD_REACTORS
330
857
102
}
330
857
100
AcDbProxyObject
 90
      499
 91
      512
 93
      618
310
40901902A4063FBFFFFFE056BD1B81E855B9FC0AD7A3703D0AD73F4254DD185B99185C990000AD7A3703D0AC73F90141901A02B5E8DC0F42B1CFC02B5E8DC0F42B1CFE5764000000000000300FC6
340
6A
340
0
340
16
340
0
 94
        0
1001
ACAD_MLEADERVER
1070
     2
1001
ACAD
1000
AcadProxyRoundTripData
1071
      508
1071
   851991
1070
     0
  0
MLINESTYLE
  5
78
102
{ACAD_REACTORS
330
76
102
}
330
76
100
AcDbMlineStyle
  2
STANDARD
 70
     0
  3

 62
     0
 51
90.0
 52
90.0
 71
     2
 49
0.5
 62
   256
  6
BYLAYER
 49
-0.5
 62
   256
  6
BYLAYER
  0
ACDBPLACEHOLDER
  5
5
102
{ACAD_REACTORS
330
6
102
}
330
6
100
AcDbPlaceHolder
280
     0
  0
ACAD_PROXY_OBJECT
  5
836
102
{ACAD_REACTORS
330
835
102
}
330
835
100
AcDbProxyObject
 90
      499
 91
      512
 93
       49
310
904313A3100598
 94
        0
1001
ACAD
1000
AcadProxyRoundTripData
1071
      507
1071
   851991
1070
     0
  0
ACAD_PROXY_OBJECT
  5
837
102
{ACAD_REACTORS
330
835
102
}
330
835
100
AcDbProxyObject
 90
      499
 91
      512
 93
      113
310
904313A3200400000000000000406B
 94
        0
1001
ACAD
1000
AcadProxyRoundTripData
1071
      507
1071
   851991
1070
     0
  0
ACAD_PROXY_OBJECT
  5
838
102
{ACAD_REACTORS
330
835
102
}
330
835
100
AcDbProxyObject
 90
      499
 91
      512
 93
      113
310
904313A3400400000000000010406B
 94
        0
1001
ACAD
1000
AcadProxyRoundTripData
1071
      507
1071
   851991
1070
     0
  0
ACAD_PROXY_OBJECT
  5
839
102
{ACAD_REACTORS
330
835
102
}
330
835
100
AcDbProxyObject
 90
      499
 91
      512
 93
      113
310
904313A3500400000000000014406B
 94
        0
1001
ACAD
1000
AcadProxyRoundTripData
1071
      507
1071
   851991
1070
     0
  0
ACAD_PROXY_OBJECT
  5
83A
102
{ACAD_REACTORS
330
835
102
}
330
835
100
AcDbProxyObject
 90
      499
 91
      512
 93
      113
310
904313A3800400000000000020406B
 94
        0
1001
ACAD
1000
AcadProxyRoundTripData
1071
      507
1071
   851991
1070
     0
  0
ACAD_PROXY_OBJECT
  5
83B
102
{ACAD_REACTORS
330
835
102
}
330
835
100
AcDbProxyObject
 90
      499
 91
      512
 93
      121
310
905313A3130004000000000000244051
 94
        0
1001
ACAD
1000
AcadProxyRoundTripData
1071
      507
1071
   851991
1070
     0
  0
ACAD_PROXY_OBJECT
  5
83C
102
{ACAD_REACTORS
330
835
102
}
330
835
100
AcDbProxyObject
 90
      499
 91
      512
 93
      121
310
905313A3136004000000000000304051
 94
        0
1001
ACAD
1000
AcadProxyRoundTripData
1071
      507
1071
   851991
1070
     0
  0
ACAD_PROXY_OBJECT
  5
83D
102
{ACAD_REACTORS
330
835
102
}
330
835
100
AcDbProxyObject
 90
      499
 91
      512
 93
      121
310
905313A3230004000000000000344051
 94
        0
1001
ACAD
1000
AcadProxyRoundTripData
1071
      507
1071
   851991
1070
     0
  0
ACAD_PROXY_OBJECT
  5
83E
102
{ACAD_REACTORS
330
835
102
}
330
835
100
AcDbProxyObject
 90
      499
 91
      512
 93
      121
310
905313A33300040000000000003E4051
 94
        0
1001
ACAD
1000
AcadProxyRoundTripData
1071
      507
1071
   851991
1070
     0
  0
ACAD_PROXY_OBJECT
  5
83F
102
{ACAD_REACTORS
330
835
102
}
330
835
100
AcDbProxyObject
 90
      499
 91
      512
 93
      121
310
905313A3430004000000000000444051
 94
        0
1001
ACAD
1000
AcadProxyRoundTripData
1071
      507
1071
   851991
1070
     0
  0
ACAD_PROXY_OBJECT
  5
840
102
{ACAD_REACTORS
330
835
102
}
330
835
100
AcDbProxyObject
 90
      499
 91
      512
 93
      121
310
905313A3530004000000000000494051
 94
        0
1001
ACAD
1000
AcadProxyRoundTripData
1071
      507
1071
   851991
1070
     0
  0
ACAD_PROXY_OBJECT
  5
841
102
{ACAD_REACTORS
330
835
102
}
330
835
100
AcDbProxyObject
 90
      499
 91
      512
 93
      129
310
906313A313030004000000000000594038
 94
        0
1001
ACAD
1000
AcadProxyRoundTripData
1071
      507
1071
   851991
1070
     0
  0
ACAD_PROXY_OBJECT
  5
842
102
{ACAD_REACTORS
330
835
102
}
330
835
100
AcDbProxyObject
 90
      499
 91
      512
 93
      113
310
904323A31000000000000000010159
 94
        0
1001
ACAD
1000
AcadProxyRoundTripData
1071
      507
1071
   851991
1070
     0
  0
ACAD_PROXY_OBJECT
  5
843
102
{ACAD_REACTORS
330
835
102
}
330
835
100
AcDbProxyObject
 90
      499
 91
      512
 93
      113
310
904343A31000000000000000410159
 94
        0
1001
ACAD
1000
AcadProxyRoundTripData
1071
      507
1071
   851991
1070
     0
  0
ACAD_PROXY_OBJECT
  5
844
102
{ACAD_REACTORS
330
835
102
}
330
835
100
AcDbProxyObject
 90
      499
 91
      512
 93
      113
310
904383A31000000000000000810159
 94
        0
1001
ACAD
1000
AcadProxyRoundTripData
1071
      507
1071
   851991
1070
     0
  0
ACAD_PROXY_OBJECT
  5
845
102
{ACAD_REACTORS
330
835
102
}
330
835
100
AcDbProxyObject
 90
      499
 91
      512
 93
      121
310
90531303A31000000000000000910140
 94
        0
1001
ACAD
1000
AcadProxyRoundTripData
1071
      507
1071
   851991
1070
     0
  0
ACAD_PROXY_OBJECT
  5
846
102
{ACAD_REACTORS
330
835
102
}
330
835
100
AcDbProxyObject
 90
      499
 91
      512
 93
      129
310
9063130303A31000000000000001650138
 94
        0
1001
ACAD
1000
AcadProxyRoundTripData
1071
      507
1071
   851991
1070
     0
  0
ACAD_PROXY_OBJECT
  5
847
102
{ACAD_REACTORS
330
835
102
}
330
835
100
AcDbProxyObject
 90
      499
 91
      512
 93
      265
310
90F312F31323822203D2031272D302200000000000000200FC00000000000028402B
 94
        0
1001
ACAD
1000
AcadProxyRoundTripData
1071
      507
1071
   851991
1070
     0
  0
ACAD_PROXY_OBJECT
  5
848
102
{ACAD_REACTORS
330
835
102
}
330
835
100
AcDbProxyObject
 90
      499
 91
      512
 93
      257
310
90E312F363422203D2031272D302200000000000000240FC000000000000284040
 94
        0
1001
ACAD
1000
AcadProxyRoundTripData
1071
      507
1071
   851991
1070
     0
  0
ACAD_PROXY_OBJECT
  5
849
102
{ACAD_REACTORS
330
835
102
}
330
835
100
AcDbProxyObject
 90
      499
 91
      512
 93
      257
310
90E312F333222203D2031272D302200000000000000280FC000000000000284040
 94
        0
1001
ACAD
1000
AcadProxyRoundTripData
1071
      507
1071
   851991
1070
     0
  0
ACAD_PROXY_OBJECT
  5
84A
102
{ACAD_REACTORS
330
835
102
}
330
835
100
AcDbProxyObject
 90
      499
 91
      512
 93
      257
310
90E312F313622203D2031272D3022000000000000002C0FC000000000000284040
 94
        0
1001
ACAD
1000
AcadProxyRoundTripData
1071
      507
1071
   851991
1070
     0
  0
ACAD_PROXY_OBJECT
  5
84B
102
{ACAD_REACTORS
330
835
102
}
330
835
100
AcDbProxyObject
 90
      499
 91
      512
 93
      257
310
90E332F333222203D2031272D3022000000000000002E0FC000000000000284040
 94
        0
1001
ACAD
1000
AcadProxyRoundTripData
1071
      507
1071
   851991
1070
     0
  0
ACAD_PROXY_OBJECT
  5
84C
102
{ACAD_REACTORS
330
835
102
}
330
835
100
AcDbProxyObject
 90
      499
 91
      512
 93
      249
310
90D312F3822203D2031272D302200000000000000300FC000000000000284040
 94
        0
1001
ACAD
1000
AcadProxyRoundTripData
1071
      507
1071
   851991
1070
     0
  0
ACAD_PROXY_OBJECT
  5
84D
102
{ACAD_REACTORS
330
835
102
}
330
835
100
AcDbProxyObject
 90
      499
 91
      512
 93
      257
310
90E332F313622203D2031272D302200000000000000320FC000000000000284040
 94
        0
1001
ACAD
1000
AcadProxyRoundTripData
1071
      507
1071
   851991
1070
     0
  0
ACAD_PROXY_OBJECT
  5
84E
102
{ACAD_REACTORS
330
835
102
}
330
835
100
AcDbProxyObject
 90
      499
 91
      512
 93
      249
310
90D312F3422203D2031272D302200000000000000340FC000000000000284040
 94
        0
1001
ACAD
1000
AcadProxyRoundTripData
1071
      507
1071
   851991
1070
     0
  0
ACAD_PROXY_OBJECT
  5
84F
102
{ACAD_REACTORS
330
835
102
}
330
835
100
AcDbProxyObject
 90
      499
 91
      512
 93
      249
310
90D332F3822203D2031272D302200000000000000360FC000000000000284040
 94
        0
1001
ACAD
1000
AcadProxyRoundTripData
1071
      507
1071
   851991
1070
     0
  0
ACAD_PROXY_OBJECT
  5
850
102
{ACAD_REACTORS
330
835
102
}
330
835
100
AcDbProxyObject
 90
      499
 91
      512
 93
      249
310
90D312F3222203D2031272D302200000000000000380FC000000000000284040
 94
        0
1001
ACAD
1000
AcadProxyRoundTripData
1071
      507
1071
   851991
1070
     0
  0
ACAD_PROXY_OBJECT
  5
851
102
{ACAD_REACTORS
330
835
102
}
330
835
100
AcDbProxyObject
 90
      499
 91
      512
 93
      249
310
90D332F3422203D2031272D3022000000000000003A0FC000000000000284040
 94
        0
1001
ACAD
1000
AcadProxyRoundTripData
1071
      507
1071
   851991
1070
     0
  0
ACAD_PROXY_OBJECT
  5
852
102
{ACAD_REACTORS
330
835
102
}
330
835
100
AcDbProxyObject
 90
      499
 91
      512
 93
      169
310
90B3122203D2031272D3022004000000000000284020
 94
        0
1001
ACAD
1000
AcadProxyRoundTripData
1071
      507
1071
   851991
1070
     0
  0
ACAD_PROXY_OBJECT
  5
853
102
{ACAD_REACTORS
330
835
102
}
330
835
100
AcDbProxyObject
 90
      499
 91
      512
 93
      265
310
90F312D312F3222203D2031272D3022000000000000003E0FC00000000000028402B
 94
        0
1001
ACAD
1000
AcadProxyRoundTripData
1071
      507
1071
   851991
1070
     0
  0
ACAD_PROXY_OBJECT
  5
854
102
{ACAD_REACTORS
330
835
102
}
330
835
100
AcDbProxyObject
 90
      499
 91
      512
 93
      233
310
90B3322203D2031272D30220000000000000002100000000000000284000
 94
        0
1001
ACAD
1000
AcadProxyRoundTripData
1071
      507
1071
   851991
1070
     0
  0
ACAD_PROXY_OBJECT
  5
855
102
{ACAD_REACTORS
330
835
102
}
330
835
100
AcDbProxyObject
 90
      499
 91
      512
 93
      233
310
90B3622203D2031272D30220000000000000006100000000000000284000
 94
        0
1001
ACAD
1000
AcadProxyRoundTripData
1071
      507
1071
   851991
1070
     0
  0
ACAD_PROXY_OBJECT
  5
856
102
{ACAD_REACTORS
330
835
102
}
330
835
100
AcDbProxyObject
 90
      499
 91
      512
 93
      257
310
90E31272D3022203D2031272D3022000000000000000A100000000000000284040
 94
        0
1001
ACAD
1000
AcadProxyRoundTripData
1071
      507
1071
   851991
1070
     0
  0
ACAD_PROXY_OBJECT
  5
834
102
{ACAD_XDICTIONARY
360
88C
102
}
102
{ACAD_REACTORS
330
833
102
}
330
833
100
AcDbProxyObject
 90
      499
 91
      512
 93
     1849
310
4254DD185B99185C990028B81E85EB51B8AE3F2E07A17AD46E2B8FC02B5E8DC0F42B1CFD028000000C1008070000C3001FDFF8000000C1003FBFF000000182007F7FE00000030400FEFFC00000060801FDFF8000000C1003FBFF00000018200000000000000681FA0B0000001820100E000186003FBFF000000182007F7FE0
310
0000030400FEFFC00000060801FDFF8000000C1003FBFF000000182007F7FE000000304000AD7A3703D0AC73F4160000003040201C00030C007F7FE00000030400FEFFC00000060801FDFF8000000C1003FBFF000000182007F7FE00000030400FEFFC000000608000
340
16
340
16
340
16
 94
        0
1001
ACAD
1000
AcadProxyRoundTripData
1071
      506
1071
   851991
1070
     0
  0
ACAD_PROXY_OBJECT
  5
827
102
{ACAD_REACTORS
330
821
102
}
330
821
100
AcDbProxyObject
 90
      499
 91
      512
 93
      444
310
430C9915DA5C99599C985B59401049028333333333333E3BF0000000000000FB0107901411070040501600405405064090741402480A0340
 94
        0
1001
ACAD
1000
AcDbSavedByObjectVersion
1070
     0
1000
AcadProxyRoundTripData
1071
      505
1071
   851991
1070
     0
  0
ACAD_PROXY_OBJECT
  5
829
102
{ACAD_REACTORS
330
821
102
}
330
821
100
AcDbProxyObject
 90
      499
 91
      512
 93
      508
310
428CD108121A5919195B8010640502408333333333333E3BF0000000000000FB01079024090700405020000000000001110200405405064090740C02480A0340
 94
        0
1001
ACAD
1000
AcDbSavedByObjectVersion
1070
     0
1000
AcadProxyRoundTripData
1071
      505
1071
   851991
1070
     0
  0
ACAD_PROXY_OBJECT
  5
828
102
{ACAD_REACTORS
330
821
102
}
330
821
100
AcDbProxyObject
 90
      499
 91
      512
 93
      444
310
430CD915DA5C99599C985B59401059028333333333333E3BF0000000000000FB0107901411070040501600405405064090741402480A0340
 94
        0
1001
ACAD
1000
AcDbSavedByObjectVersion
1070
     0
1000
AcadProxyRoundTripData
1071
      505
1071
   851991
1070
     0
  0
ACAD_PROXY_OBJECT
  5
826
102
{ACAD_REACTORS
330
821
102
}
330
821
100
AcDbProxyObject
 90
      499
 91
      512
 93
      396
310
4190985CDA58C0107406404333333333333E3BF0000000000000FB0107A41107004050150841D405064090741402480A0356
 94
        0
1001
ACAD
1000
AcDbSavedByObjectVersion
1070
     0
1000
AcadProxyRoundTripData
1071
      505
1071
   851991
1070
     0
  0
ACAD_PROXY_OBJECT
  5
82D
102
{ACAD_REACTORS
330
821
102
}
330
821
100
AcDbProxyObject
 90
      499
 91
      512
 93
      436
310
42509C9A59DA1D195B8010C409028333333333333E3BF0000000000000FB010790141107004050150841D405064090741402480A029956
 94
        0
1001
ACAD
1000
AcDbSavedByObjectVersion
1070
     0
1000
AcadProxyRoundTripData
1071
      505
1071
   851991
1070
     0
  0
ACAD_PROXY_OBJECT
  5
831
102
{ACAD_REACTORS
330
821
102
}
330
821
100
AcDbProxyObject
 90
      499
 91
      512
 93
      460
310
4310DBDB1BDC90DA185B99D9401104090240C333333333333E3BF0000000000000FB0108901411070040501508421405064090741402480A0354
 94
        0
1001
ACAD
1000
AcDbSavedByObjectVersion
1070
     0
1000
AcadProxyRoundTripData
1071
      505
1071
   851991
1070
     0
  0
ACAD_PROXY_OBJECT
  5
82A
102
{ACAD_REACTORS
330
821
102
}
330
821
100
AcDbProxyObject
 90
      499
 91
      512
 93
      508
310
42D0DBDB98D95C1D1D585B0010940D028333333333333E3BF0000000000000FB0107902409070040501000000000000111010841D405064090740C02480A0340
 94
        0
1001
ACAD
1000
AcDbSavedByObjectVersion
1070
     0
1000
AcadProxyRoundTripData
1071
      505
1071
   851991
1070
     0
  0
ACAD_PROXY_OBJECT
  5
82C
102
{ACAD_REACTORS
330
821
102
}
330
821
100
AcDbProxyObject
 90
      499
 91
      512
 93
      420
310
41111A5B4010B409028333333333333E3BF0000000000000FB010790141107004050150841D405064090741402480A02677FFFFFDB
 94
        0
1001
ACAD
1000
AcDbSavedByObjectVersion
1070
     0
1000
AcadProxyRoundTripData
1071
      505
1071
   851991
1070
     0
  0
ACAD_PROXY_OBJECT
  5
830
102
{ACAD_REACTORS
330
821
102
}
330
821
100
AcDbProxyObject
 90
      499
 91
      512
 93
      452
310
43119858D95C185D1D195C9B8010F409028333333333333E3BF0000000000000FB010790141107004050150841D405064090741402480A0350
 94
        0
1001
ACAD
1000
AcDbSavedByObjectVersion
1070
     0
1000
AcadProxyRoundTripData
1071
      505
1071
   851991
1070
     0
  0
ACAD_PROXY_OBJECT
  5
822
102
{ACAD_REACTORS
330
821
102
}
330
821
100
AcDbProxyObject
 90
      499
 91
      512
 93
      396
310
41519B185D00240901404333333333333E3BF0000000000000F9010740A41107004050150841D405064090741402480A1B55
 94
        0
1001
ACAD
1000
AcDbSavedByObjectVersion
1070
     0
1000
AcadProxyRoundTripData
1071
      505
1071
   851991
1070
     0
  0
ACAD_PROXY_OBJECT
  5
823
102
{ACAD_REACTORS
330
821
102
}
330
821
100
AcDbProxyObject
 90
      499
 91
      512
 93
      484
310
43919B185D15DA5D1A115919D95CC010140901404333333333333E3BF0000000000000F9010740901411070040501600405405064090741402480A1B50
 94
        0
1001
ACAD
1000
AcDbSavedByObjectVersion
1070
     0
1000
AcadProxyRoundTripData
1071
      505
1071
   851991
1070
     0
  0
ACAD_PROXY_OBJECT
  5
824
102
{ACAD_REACTORS
330
821
102
}
330
821
100
AcDbProxyObject
 90
      499
 91
      512
 93
      420
310
4211DBDD5C985D590010240902404333333333333E3BF0000000000000F9010740A411070040501641D405064090741402480A1B50
 94
        0
1001
ACAD
1000
AcDbSavedByObjectVersion
1070
     0
1000
AcadProxyRoundTripData
1071
      505
1071
   851991
1070
     0
  0
ACAD_PROXY_OBJECT
  5
825
102
{ACAD_REACTORS
330
821
102
}
330
821
100
AcDbProxyObject
 90
      499
 91
      512
 93
      508
310
4451DBDD5C985D5915DA5D1A115919D95CC010340902404333333333333E3BF0000000000000F9010740901411070040501600405405064090741402480A1B50
 94
        0
1001
ACAD
1000
AcDbSavedByObjectVersion
1070
     0
1000
AcadProxyRoundTripData
1071
      505
1071
   851991
1070
     0
  0
ACAD_PROXY_OBJECT
  5
82F
102
{ACAD_REACTORS
330
821
102
}
330
821
100
AcDbProxyObject
 90
      499
 91
      512
 93
      452
310
43131A5B995C185D1D195C9B8010E409028333333333333E3BF0000000000000FB010790141107004050750841D405064090741402483A0350
 94
        0
1001
ACAD
1000
AcDbSavedByObjectVersion
1070
     0
1000
AcadProxyRoundTripData
1071
      505
1071
   851991
1070
     0
  0
ACAD_PROXY_OBJECT
  5
82B
102
{ACAD_REACTORS
330
821
102
}
330
821
100
AcDbProxyObject
 90
      499
 91
      512
 93
      428
310
429499585B1A5CDD1A58C0108409028333333333333E3BF0000000000000FB01079019070040501508421405064090741402480A1B45
 94
        0
1001
ACAD
1000
AcDbSavedByObjectVersion
1070
     0
1000
AcadProxyRoundTripData
1071
      505
1071
   851991
1070
     0
  0
ACAD_PROXY_OBJECT
  5
82E
102
{ACAD_REACTORS
330
821
102
}
330
821
100
AcDbProxyObject
 90
      499
 91
      512
 93
      420
310
42151A1A58DAD95B8010D409028333333333333E3BF0000000000000FB010790141107004050150C41D405064090741402480A0352
 94
        0
1001
ACAD
1000
AcDbSavedByObjectVersion
1070
     0
1000
AcadProxyRoundTripData
1071
      505
1071
   851991
1070
     0
  0
XRECORD
  5
3E1B
102
{ACAD_REACTORS
330
3E11
102
}
330
3E11
100
AcDbXrecord
 90
        0
  0
XRECORD
  5
3E1F
102
{ACAD_REACTORS
330
3E11
102
}
330
3E11
100
AcDbXrecord
1000
DSTYLE
1002
{
1070
   179
 70
     2
1070
   277
 70
     6
1002
}
  0
XRECORD
  5
3E1C
102
{ACAD_REACTORS
330
3E11
102
}
330
3E11
100
AcDbXrecord
  1
{472D1F85-08F4-40FF-8A32-FC4D8F4268D4}
  0
XRECORD
  5
3E14
102
{ACAD_REACTORS
330
3E11
102
}
330
3E11
100
AcDbXrecord
  1

  0
XRECORD
  5
3E1A
102
{ACAD_REACTORS
330
3E11
102
}
330
3E11
100
AcDbXrecord
 90
        0
  0
XRECORD
  5
3E16
102
{ACAD_REACTORS
330
3E11
102
}
330
3E11
100
AcDbXrecord
340
61
  0
XRECORD
  5
3E19
102
{ACAD_REACTORS
330
3E11
102
}
330
3E11
100
AcDbXrecord
 90
    10781
  0
XRECORD
  5
3E17
102
{ACAD_REACTORS
330
3E11
102
}
330
3E11
100
AcDbXrecord
340
77
  0
XRECORD
  5
3E18
102
{ACAD_REACTORS
330
3E11
102
}
330
3E11
100
AcDbXrecord
340
6
  0
XRECORD
  5
3E1E
102
{ACAD_REACTORS
330
3E11
102
}
330
3E11
100
AcDbXrecord
 40
0.0
  0
XRECORD
  5
3E22
102
{ACAD_REACTORS
330
3E11
102
}
330
3E11
100
AcDbXrecord
340
0
  0
XRECORD
  5
3E28
102
{ACAD_REACTORS
330
3E11
102
}
330
3E11
100
AcDbXrecord
 10
0.0
 20
0.0
 30
0.0
  0
XRECORD
  5
3E24
102
{ACAD_REACTORS
330
3E11
102
}
330
3E11
100
AcDbXrecord
 10
0.0
 20
0.0
 30
0.0
  0
XRECORD
  5
3E27
102
{ACAD_REACTORS
330
3E11
102
}
330
3E11
100
AcDbXrecord
 10
0.0
 20
0.0
 30
0.0
  0
XRECORD
  5
3E25
102
{ACAD_REACTORS
330
3E11
102
}
330
3E11
100
AcDbXrecord
 10
0.0
 20
0.0
 30
0.0
  0
XRECORD
  5
3E26
102
{ACAD_REACTORS
330
3E11
102
}
330
3E11
100
AcDbXrecord
 10
0.0
 20
0.0
 30
0.0
  0
XRECORD
  5
3E23
102
{ACAD_REACTORS
330
3E11
102
}
330
3E11
100
AcDbXrecord
 10
0.0
 20
0.0
 30
0.0
  0
XRECORD
  5
3E20
102
{ACAD_REACTORS
330
3E11
102
}
330
3E11
100
AcDbXrecord
340
0
  0
XRECORD
  5
3E21
102
{ACAD_REACTORS
330
3E11
102
}
330
3E11
100
AcDbXrecord
 70
     0
  0
XRECORD
  5
3E15
102
{ACAD_REACTORS
330
3E11
102
}
330
3E11
100
AcDbXrecord
  1
Sekkei.ctb
  0
XRECORD
  5
3E12
102
{ACAD_REACTORS
330
3E11
102
}
330
3E11
100
AcDbXrecord
 90
        1
  0
XRECORD
  5
3E13
102
{ACAD_REACTORS
330
3E11
102
}
330
3E11
100
AcDbXrecord
 90
       70
  0
XRECORD
  5
3E2B
102
{ACAD_REACTORS
330
3E11
102
}
330
3E11
100
AcDbXrecord
340
0
  0
XRECORD
  5
3E31
102
{ACAD_REACTORS
330
3E11
102
}
330
3E11
100
AcDbXrecord
 10
0.0
 20
0.0
 30
0.0
  0
XRECORD
  5
3E2D
102
{ACAD_REACTORS
330
3E11
102
}
330
3E11
100
AcDbXrecord
 10
0.0
 20
0.0
 30
0.0
  0
XRECORD
  5
3E30
102
{ACAD_REACTORS
330
3E11
102
}
330
3E11
100
AcDbXrecord
 10
0.0
 20
0.0
 30
0.0
  0
XRECORD
  5
3E2E
102
{ACAD_REACTORS
330
3E11
102
}
330
3E11
100
AcDbXrecord
 10
0.0
 20
0.0
 30
0.0
  0
XRECORD
  5
3E2F
102
{ACAD_REACTORS
330
3E11
102
}
330
3E11
100
AcDbXrecord
 10
0.0
 20
0.0
 30
0.0
  0
XRECORD
  5
3E2C
102
{ACAD_REACTORS
330
3E11
102
}
330
3E11
100
AcDbXrecord
 10
0.0
 20
0.0
 30
0.0
  0
XRECORD
  5
3E29
102
{ACAD_REACTORS
330
3E11
102
}
330
3E11
100
AcDbXrecord
340
0
  0
XRECORD
  5
3E2A
102
{ACAD_REACTORS
330
3E11
102
}
330
3E11
100
AcDbXrecord
 70
     0
  0
XRECORD
  5
3E1D
102
{ACAD_REACTORS
330
3E11
102
}
330
3E11
100
AcDbXrecord
  1
{BA147B3F-A0C9-4889-9392-0F0B96455D18}
  0
DICTIONARYVAR
  5
892
102
{ACAD_REACTORS
330
102
102
}
330
102
100
DictionaryVariables
280
     0
  1
1:1
  0
DICTIONARYVAR
  5
890
102
{ACAD_REACTORS
330
102
102
}
330
102
100
DictionaryVariables
280
     0
  1
STANDARD
  0
DICTIONARYVAR
  5
88F
102
{ACAD_REACTORS
330
102
102
}
330
102
100
DictionaryVariables
280
     0
  1
STANDARD
  0
DICTIONARYVAR
  5
103
102
{ACAD_REACTORS
330
102
102
}
330
102
100
DictionaryVariables
280
     0
  1
1
  0
DICTIONARYVAR
  5
1E7C
102
{ACAD_REACTORS
330
102
102
}
330
102
100
DictionaryVariables
280
     0
  1
0
  0
DICTIONARYVAR
  5
893
102
{ACAD_REACTORS
330
102
102
}
330
102
100
DictionaryVariables
280
     0
  1
0
  0
DICTIONARYVAR
  5
891
102
{ACAD_REACTORS
330
102
102
}
330
102
100
DictionaryVariables
280
     0
  1
0
  0
DICTIONARYVAR
  5
549
102
{ACAD_REACTORS
330
102
102
}
330
102
100
DictionaryVariables
280
     0
  1
96
  0
DICTIONARY
  5
812
330
811
100
AcDbDictionary
280
     1
  3
ACAD_XREC_ROUNDTRIP
360
3DEF
  3
BUMPTILE
360
814
  3
DIFFUSETILE
360
813
  3
OPACITYTILE
360
817
  3
REFLECTIONTILE
360
816
  3
REFRACTIONTILE
360
818
  3
SPECULARTILE
360
815
  0
DICTIONARY
  5
80A
330
809
100
AcDbDictionary
280
     1
  3
ACAD_XREC_ROUNDTRIP
360
3DEE
  3
BUMPTILE
360
80C
  3
DIFFUSETILE
360
80B
  3
OPACITYTILE
360
80F
  3
REFLECTIONTILE
360
80E
  3
REFRACTIONTILE
360
810
  3
SPECULARTILE
360
80D
  0
DICTIONARY
  5
81A
330
819
100
AcDbDictionary
280
     1
  3
ACAD_XREC_ROUNDTRIP
360
3DF0
  3
BUMPTILE
360
81C
  3
DIFFUSETILE
360
81B
  3
OPACITYTILE
360
81F
  3
REFLECTIONTILE
360
81E
  3
REFRACTIONTILE
360
820
  3
SPECULARTILE
360
81D
  0
DICTIONARY
  5
88C
330
834
100
AcDbDictionary
280
     1
  3
ACAD_ROUNDTRIP_2008_TABLES
360
3DE6
  3
ACAD_XREC_ROUNDTRIP
360
3DF1
  0
XRECORD
  5
3DEF
102
{ACAD_REACTORS
330
812
102
}
330
812
100
AcDbXrecord
102
MATERIAL
148
0.0
149
0.0
149
0.0
 93
        0
 94
      127
282
     0
 72
     0
 77
     0
171
     0
175
     0
179
     0
273
     0
  0
XRECORD
  5
814
102
{ACAD_REACTORS
330
812
102
}
330
812
100
AcDbXrecord
270
     1
271
     1
  0
XRECORD
  5
813
102
{ACAD_REACTORS
330
812
102
}
330
812
100
AcDbXrecord
270
     1
271
     1
  0
XRECORD
  5
817
102
{ACAD_REACTORS
330
812
102
}
330
812
100
AcDbXrecord
270
     1
271
     1
  0
XRECORD
  5
816
102
{ACAD_REACTORS
330
812
102
}
330
812
100
AcDbXrecord
270
     1
271
     1
  0
XRECORD
  5
818
102
{ACAD_REACTORS
330
812
102
}
330
812
100
AcDbXrecord
270
     1
271
     1
  0
XRECORD
  5
815
102
{ACAD_REACTORS
330
812
102
}
330
812
100
AcDbXrecord
270
     1
271
     1
  0
XRECORD
  5
3DEE
102
{ACAD_REACTORS
330
80A
102
}
330
80A
100
AcDbXrecord
102
MATERIAL
148
0.0
149
0.0
149
0.0
 93
        0
 94
      127
282
     0
 72
     0
 77
     0
171
     0
175
     0
179
     0
273
     0
  0
XRECORD
  5
80C
102
{ACAD_REACTORS
330
80A
102
}
330
80A
100
AcDbXrecord
270
     1
271
     1
  0
XRECORD
  5
80B
102
{ACAD_REACTORS
330
80A
102
}
330
80A
100
AcDbXrecord
270
     1
271
     1
  0
XRECORD
  5
80F
102
{ACAD_REACTORS
330
80A
102
}
330
80A
100
AcDbXrecord
270
     1
271
     1
  0
XRECORD
  5
80E
102
{ACAD_REACTORS
330
80A
102
}
330
80A
100
AcDbXrecord
270
     1
271
     1
  0
XRECORD
  5
810
102
{ACAD_REACTORS
330
80A
102
}
330
80A
100
AcDbXrecord
270
     1
271
     1
  0
XRECORD
  5
80D
102
{ACAD_REACTORS
330
80A
102
}
330
80A
100
AcDbXrecord
270
     1
271
     1
  0
XRECORD
  5
3DF0
102
{ACAD_REACTORS
330
81A
102
}
330
81A
100
AcDbXrecord
102
MATERIAL
148
0.0
149
0.0
149
0.0
 93
        0
 94
      127
282
     0
 72
     0
 77
     0
171
     0
175
     0
179
     0
273
     0
  0
XRECORD
  5
81C
102
{ACAD_REACTORS
330
81A
102
}
330
81A
100
AcDbXrecord
270
     1
271
     1
  0
XRECORD
  5
81B
102
{ACAD_REACTORS
330
81A
102
}
330
81A
100
AcDbXrecord
270
     1
271
     1
  0
XRECORD
  5
81F
102
{ACAD_REACTORS
330
81A
102
}
330
81A
100
AcDbXrecord
270
     1
271
     1
  0
XRECORD
  5
81E
102
{ACAD_REACTORS
330
81A
102
}
330
81A
100
AcDbXrecord
270
     1
271
     1
  0
XRECORD
  5
820
102
{ACAD_REACTORS
330
81A
102
}
330
81A
100
AcDbXrecord
270
     1
271
     1
  0
XRECORD
  5
81D
102
{ACAD_REACTORS
330
81A
102
}
330
81A
100
AcDbXrecord
270
     1
271
     1
  0
ACAD_PROXY_OBJECT
  5
3DE6
102
{ACAD_REACTORS
330
88C
102
}
330
88C
100
AcDbProxyObject
 90
      499
 91
      512
 93
     1044
310
40D054060020000020000003200101A000080002A5058000000C100000000000000340FE901405075F5449544C450041501A8000000C800406800020000A9416000000304000AD7A3703D0AC73FA409014217D2115051115480105406A0000003200101A000080002A5028000000C10002B5E8DC0F42B1CFE903409065F444
310
15441002
340
16
340
16
340
16
 94
        0
1001
ACAD
1000
AcadProxyRoundTripData
1071
      510
1071
   851991
1070
     0
  0
XRECORD
  5
3DF1
102
{ACAD_REACTORS
330
88C
102
}
330
88C
100
AcDbXrecord
102
ACAD_ROUNDTRIP_PRE2007_TABLESTYLE
 90
      512
 91
        0
  1

 92
      512
 93
        0
  2

 94
      512
 95
        0
  3

  0
ENDSEC
  0
EOF
