  0
SECTION
  2
HEADER
  9
$ACADVER
  1
AC1014
  9
$ACADMAINTVER
 70
     9
  9
$DWGCODEPAGE
  3
ANSI_932
  9
$INSBASE
 10
0.0
 20
0.0
 30
0.0
  9
$EXTMIN
 10
318.8629198943836
 20
93.19184883765728
 30
0.0
  9
$EXTMAX
 10
1425.457231230701
 20
793.7425856632549
 30
0.0
  9
$LIMMIN
 10
0.0
 20
0.0
  9
$LIMMAX
 10
297.0
 20
210.0
  9
$ORTHOMODE
 70
     0
  9
$REGENMODE
 70
     1
  9
$FILLMODE
 70
     1
  9
$QTEXTMODE
 70
     0
  9
$MIRRTEXT
 70
     0
  9
$DRAGMODE
 70
     2
  9
$LTSCALE
 40
3.0
  9
$OSMODE
 70
    37
  9
$ATTMODE
 70
     1
  9
$TEXTSIZE
 40
2.0
  9
$TRACEWID
 40
1.0
  9
$TEXTSTYLE
  7
STANDARD
  9
$CLAYER
  8
0
  9
$CELTYPE
  6
BYLAYER
  9
$CECOLOR
 62
   256
  9
$CELTSCALE
 40
1.0
  9
$DELOBJ
 70
     1
  9
$DISPSILH
 70
     0
  9
$DIMSCALE
 40
3.0
  9
$DIMASZ
 40
1.8
  9
$DIMEXO
 40
0.625
  9
$DIMDLI
 40
3.75
  9
$DIMRND
 40
0.0
  9
$DIMDLE
 40
0.0
  9
$DIMEXE
 40
0.8
  9
$DIMTP
 40
0.0
  9
$DIMTM
 40
0.0
  9
$DIMTXT
 40
1.8
  9
$DIMCEN
 40
2.5
  9
$DIMTSZ
 40
0.0
  9
$DIMTOL
 70
     0
  9
$DIMLIM
 70
     0
  9
$DIMTIH
 70
     0
  9
$DIMTOH
 70
     0
  9
$DIMSE1
 70
     0
  9
$DIMSE2
 70
     0
  9
$DIMTAD
 70
     1
  9
$DIMZIN
 70
     8
  9
$DIMBLK
  1

  9
$DIMASO
 70
     1
  9
$DIMSHO
 70
     1
  9
$DIMPOST
  1

  9
$DIMAPOST
  1

  9
$DIMALT
 70
     0
  9
$DIMALTD
 70
     4
  9
$DIMALTF
 40
0.0394
  9
$DIMLFAC
 40
1.0
  9
$DIMTOFL
 70
     1
  9
$DIMTVP
 40
0.0
  9
$DIMTIX
 70
     0
  9
$DIMSOXD
 70
     0
  9
$DIMSAH
 70
     0
  9
$DIMBLK1
  1

  9
$DIMBLK2
  1

  9
$DIMSTYLE
  2
STANDARD
  9
$DIMCLRD
 70
     0
  9
$DIMCLRE
 70
     0
  9
$DIMCLRT
 70
     0
  9
$DIMTFAC
 40
1.0
  9
$DIMGAP
 40
0.75
  9
$DIMJUST
 70
     0
  9
$DIMSD1
 70
     0
  9
$DIMSD2
 70
     0
  9
$DIMTOLJ
 70
     1
  9
$DIMTZIN
 70
     0
  9
$DIMALTZ
 70
     0
  9
$DIMALTTZ
 70
     0
  9
$DIMFIT
 70
     3
  9
$DIMUPT
 70
     0
  9
$DIMUNIT
 70
     8
  9
$DIMDEC
 70
     2
  9
$DIMTDEC
 70
     2
  9
$DIMALTU
 70
     8
  9
$DIMALTTD
 70
     4
  9
$DIMTXSTY
  7
STANDARD
  9
$DIMAUNIT
 70
     0
  9
$LUNITS
 70
     2
  9
$LUPREC
 70
     3
  9
$SKETCHINC
 40
1.0
  9
$FILLETRAD
 40
10.0
  9
$AUNITS
 70
     0
  9
$AUPREC
 70
     2
  9
$MENU
  1
.
  9
$ELEVATION
 40
0.0
  9
$PELEVATION
 40
0.0
  9
$THICKNESS
 40
0.0
  9
$LIMCHECK
 70
     0
  9
$BLIPMODE
 70
     0
  9
$CHAMFERA
 40
0.0
  9
$CHAMFERB
 40
0.0
  9
$CHAMFERC
 40
20.0
  9
$CHAMFERD
 40
0.0
  9
$SKPOLY
 70
     0
  9
$TDCREATE
 40
2454889.364024514
  9
$TDUPDATE
 40
2454909.815333148
  9
$TDINDWG
 40
0.1313849190
  9
$TDUSRTIMER
 40
0.1313849190
  9
$USRTIMER
 70
     1
  9
$ANGBASE
 50
0.0
  9
$ANGDIR
 70
     0
  9
$PDMODE
 70
     0
  9
$PDSIZE
 40
-10.0
  9
$PLINEWID
 40
0.0
  9
$COORDS
 70
     1
  9
$SPLFRAME
 70
     0
  9
$SPLINETYPE
 70
     6
  9
$SPLINESEGS
 70
     8
  9
$ATTDIA
 70
     0
  9
$ATTREQ
 70
     1
  9
$HANDLING
 70
 22529
  9
$HANDSEED
  5
33CA
  9
$SURFTAB1
 70
     6
  9
$SURFTAB2
 70
     6
  9
$SURFTYPE
 70
     6
  9
$SURFU
 70
     6
  9
$SURFV
 70
     6
  9
$UCSNAME
  2

  9
$UCSORG
 10
0.0
 20
0.0
 30
0.0
  9
$UCSXDIR
 10
1.0
 20
0.0
 30
0.0
  9
$UCSYDIR
 10
0.0
 20
1.0
 30
0.0
  9
$PUCSNAME
  2

  9
$PUCSORG
 10
0.0
 20
0.0
 30
0.0
  9
$PUCSXDIR
 10
1.0
 20
0.0
 30
0.0
  9
$PUCSYDIR
 10
0.0
 20
1.0
 30
0.0
  9
$USERI1
 70
     0
  9
$USERI2
 70
     0
  9
$USERI3
 70
     0
  9
$USERI4
 70
     0
  9
$USERI5
 70
     0
  9
$USERR1
 40
0.0
  9
$USERR2
 40
0.0
  9
$USERR3
 40
0.0
  9
$USERR4
 40
0.0
  9
$USERR5
 40
0.0
  9
$WORLDVIEW
 70
     1
  9
$SHADEDGE
 70
     3
  9
$SHADEDIF
 70
    70
  9
$TILEMODE
 70
     1
  9
$MAXACTVP
 70
    48
  9
$PINSBASE
 10
0.0
 20
0.0
 30
0.0
  9
$PLIMCHECK
 70
     0
  9
$PEXTMIN
 10
0.0
 20
0.0
 30
0.0
  9
$PEXTMAX
 10
0.0
 20
0.0
 30
0.0
  9
$PLIMMIN
 10
0.0
 20
0.0
  9
$PLIMMAX
 10
12.0
 20
9.0
  9
$UNITMODE
 70
     0
  9
$VISRETAIN
 70
     1
  9
$PLINEGEN
 70
     0
  9
$PSLTSCALE
 70
     1
  9
$TREEDEPTH
 70
  3020
  9
$PICKSTYLE
 70
     1
  9
$CMLSTYLE
  2
STANDARD
  9
$CMLJUST
 70
     0
  9
$CMLSCALE
 40
1.0
  9
$PROXYGRAPHICS
 70
     1
  9
$MEASUREMENT
 70
     0
  0
ENDSEC
  0
SECTION
  2
CLASSES
  0
CLASS
  1
DICTIONARYVAR
  2
AcDbDictionaryVar
  3
AutoCAD 2000
 90
        0
280
     0
281
     0
  0
CLASS
  1
ACDBDICTIONARYWDFLT
  2
AcDbDictionaryWithDefault
  3
AutoCAD 2000
 90
        0
280
     0
281
     0
  0
CLASS
  1
ACDBPLACEHOLDER
  2
AcDbPlaceHolder
  3
AutoCAD 2000
 90
        0
280
     0
281
     0
  0
CLASS
  1
LAYOUT
  2
AcDbLayout
  3
AutoCAD 2000
 90
        0
280
     0
281
     0
  0
CLASS
  1
MATERIAL
  2
AcDbMaterial
  3
ObjectDBX Classes
 90
     1153
280
     0
281
     0
  0
CLASS
  1
VISUALSTYLE
  2
AcDbVisualStyle
  3
ObjectDBX Classes
 90
     4095
280
     0
281
     0
  0
CLASS
  1
TABLESTYLE
  2
AcDbTableStyle
  3
ObjectDBX Classes
 90
     4095
280
     0
281
     0
  0
CLASS
  1
SCALE
  2
AcDbScale
  3
ObjectDBX Classes
 90
     1153
280
     0
281
     0
  0
CLASS
  1
MLEADERSTYLE
  2
AcDbMLeaderStyle
  3
ACDB_MLEADERSTYLE_CLASS
 90
     4095
280
     0
281
     0
  0
CLASS
  1
PLOTSETTINGS
  2
AcDbPlotSettings
  3
AutoCAD 2000
 90
        0
280
     0
281
     0
  0
CLASS
  1
CELLSTYLEMAP
  2
AcDbCellStyleMap
  3
ObjectDBX Classes
 90
     1152
280
     0
281
     0
  0
CLASS
  1
SORTENTSTABLE
  2
AcDbSortentsTable
  3
AutoCAD 2000
 90
        0
280
     0
281
     0
  0
CLASS
  1
ACAD_PROXY_OBJECT_WRAPPER
  2
AcDbProxyObjectWrapper
  3
AutoCAD 2000
 90
        0
280
     0
281
     0
  0
CLASS
  1
LONG_TRANSACTION
  2
AcDbLongTransaction
  3
AutoCAD 2000
 90
        0
280
     0
281
     0
  0
CLASS
  1
LWPOLYLINE
  2
AcDbPolyline
  3
AutoCAD 2000
 90
        0
280
     0
281
     1
  0
CLASS
  1
HATCH
  2
AcDbHatch
  3
AutoCAD 2000
 90
        0
280
     0
281
     1
  0
CLASS
  1
XRECORD
  2
AcDbXrecord
  3
AutoCAD 2000
 90
        0
280
     0
281
     0
  0
ENDSEC
  0
SECTION
  2
TABLES
  0
TABLE
  2
VPORT
  5
6E
102
{ACAD_XDICTIONARY
360
1E6F
102
}
330
0
100
AcDbSymbolTable
 70
     2
  0
VPORT
  5
33A4
330
6E
100
AcDbSymbolTableRecord
100
AcDbViewportTableRecord
  2
*ACTIVE
 70
     0
 10
0.0
 20
0.0
 11
1.0
 21
1.0
 12
920.412359620761
 22
429.2394139218686
 13
0.0
 23
0.0
 14
10.0
 24
10.0
 15
10.0
 25
10.0
 16
0.0
 26
0.0
 36
1.0
 17
0.0
 27
0.0
 37
0.0
 40
758.0034685737952
 41
1.593429158110883
 42
50.0
 43
0.0
 44
0.0
 50
0.0
 51
0.0
 71
     0
 72
   100
 73
     1
 74
     3
 75
     0
 76
     0
 77
     0
 78
     0
  0
ENDTAB
  0
TABLE
  2
LTYPE
  5
69
330
0
100
AcDbSymbolTable
 70
     7
  0
LTYPE
  5
6A
330
69
100
AcDbSymbolTableRecord
100
AcDbLinetypeTableRecord
  2
BYBLOCK
 70
     0
  3

 72
    65
 73
     0
 40
0.0
  0
LTYPE
  5
6B
330
69
100
AcDbSymbolTableRecord
100
AcDbLinetypeTableRecord
  2
BYLAYER
 70
     0
  3

 72
    65
 73
     0
 40
0.0
  0
LTYPE
  5
8
330
69
100
AcDbSymbolTableRecord
100
AcDbLinetypeTableRecord
  2
CONTINUOUS
 70
     0
  3
Solid line
 72
    65
 73
     0
 40
0.0
  0
LTYPE
  5
27C
330
69
100
AcDbSymbolTableRecord
100
AcDbLinetypeTableRecord
  2
SEKKEI_A2_
 70
     0
  3
center(A2)  ____ _ ____ _ ____ _ ____ _ ____ _ 
 72
    65
 73
     4
 40
14.28749999999999
 49
9.525
 74
     0
 49
-1.587499999999999
 74
     0
 49
1.587499999999999
 74
     0
 49
-1.587499999999999
 74
     0
  0
LTYPE
  5
2B4
330
69
100
AcDbSymbolTableRecord
100
AcDbLinetypeTableRecord
  2
HIDDEN2
 70
     0
  3
Hidden (.5x) _ _ _ _ _ _ _ _ _ _ _ _ _ _ _ _ _
 72
    65
 73
     2
 40
4.762499999999999
 49
3.174999999999999
 74
     0
 49
-1.587499999999999
 74
     0
  0
LTYPE
  5
477
330
69
100
AcDbSymbolTableRecord
100
AcDbLinetypeTableRecord
  2
SEKKEI-P_A4_
 70
     0
  3
Phantom(A4)  ____ _ _ ____ _ _ ____ _ _ _____
 72
    65
 73
     6
 40
15.0
 49
7.5
 74
     0
 49
-1.5
 74
     0
 49
1.5
 74
     0
 49
-1.5
 74
     0
 49
1.5
 74
     0
 49
-1.5
 74
     0
  0
LTYPE
  5
48F
330
69
100
AcDbSymbolTableRecord
100
AcDbLinetypeTableRecord
  2
SEKKEI_H
 70
     0
  3
Hidden-S _ _ _ _ _ _ _ _ _ _ _ _ _ _ _ _ _
 72
    65
 73
     2
 40
2.381249999999999
 49
1.587499999999999
 74
     0
 49
-0.79375
 74
     0
  0
LTYPE
  5
54A
330
69
100
AcDbSymbolTableRecord
100
AcDbLinetypeTableRecord
  2
CENTERX2
 70
     0
  3
Center (2x) ________  __  ________  __  _____
 72
    65
 73
     4
 40
4.0
 49
2.5
 74
     0
 49
-0.5
 74
     0
 49
0.5
 74
     0
 49
-0.5
 74
     0
  0
ENDTAB
  0
TABLE
  2
LAYER
  5
66
102
{ACAD_XDICTIONARY
360
86B
102
}
330
0
100
AcDbSymbolTable
 70
    10
  0
LAYER
  5
5E
102
{ACAD_XDICTIONARY
360
158C
102
}
330
66
100
AcDbSymbolTableRecord
100
AcDbLayerTableRecord
  2
0
 70
     0
 62
     7
  6
CONTINUOUS
  0
LAYER
  5
3E
102
{ACAD_XDICTIONARY
360
158E
102
}
330
66
100
AcDbSymbolTableRecord
100
AcDbLayerTableRecord
  2
CENTER
 70
     0
 62
     3
  6
SEKKEI_A2_
  0
LAYER
  5
2B5
102
{ACAD_XDICTIONARY
360
1594
102
}
330
66
100
AcDbSymbolTableRecord
100
AcDbLayerTableRecord
  2
HIDS
 70
     0
 62
     1
  6
HIDDEN2
  0
LAYER
  5
2BA
102
{ACAD_XDICTIONARY
360
1596
102
}
330
66
100
AcDbSymbolTableRecord
100
AcDbLayerTableRecord
  2
HOJO
 70
     0
 62
     4
  6
CONTINUOUS
  0
LAYER
  5
3FA
102
{ACAD_XDICTIONARY
360
159A
102
}
330
66
100
AcDbSymbolTableRecord
100
AcDbLayerTableRecord
  2
TITLE
 70
     0
 62
     4
  6
CONTINUOUS
  0
LAYER
  5
478
102
{ACAD_XDICTIONARY
360
159C
102
}
330
66
100
AcDbSymbolTableRecord
100
AcDbLayerTableRecord
  2
PHAS
 70
     0
 62
     2
  6
SEKKEI-P_A4_
  0
ENDTAB
  0
TABLE
  2
STYLE
  5
67
330
0
100
AcDbSymbolTable
 70
     3
  0
STYLE
  5
16
330
67
100
AcDbSymbolTableRecord
100
AcDbTextStyleTableRecord
  2
STANDARD
 70
     0
 40
0.0
 41
1.0
 50
0.0
 71
     0
 42
2.0
  3
simplex.shx
  4
extfont.shx
  0
ENDTAB
  0
TABLE
  2
VIEW
  5
6C
330
0
100
AcDbSymbolTable
 70
     0
  0
ENDTAB
  0
TABLE
  2
UCS
  5
6D
330
0
100
AcDbSymbolTable
 70
     0
  0
ENDTAB
  0
TABLE
  2
APPID
  5
70
330
0
100
AcDbSymbolTable
 70
     7
  0
APPID
  5
71
330
70
100
AcDbSymbolTableRecord
100
AcDbRegAppTableRecord
  2
ACAD
 70
     0
  0
APPID
  5
859
330
70
100
AcDbSymbolTableRecord
100
AcDbRegAppTableRecord
  2
ACAD_MLEADERVER
 70
     0
  0
APPID
  5
866
330
70
100
AcDbSymbolTableRecord
100
AcDbRegAppTableRecord
  2
ACAD_PSEXT
 70
     0
  0
APPID
  5
15AD
330
70
100
AcDbSymbolTableRecord
100
AcDbRegAppTableRecord
  2
ACAD_EXEMPT_FROM_CAD_STANDARDS
 70
     0
  0
APPID
  5
15D5
330
70
100
AcDbSymbolTableRecord
100
AcDbRegAppTableRecord
  2
ACAD_DSTYLE_DIMJAG
 70
     0
  0
APPID
  5
15D6
330
70
100
AcDbSymbolTableRecord
100
AcDbRegAppTableRecord
  2
ACAD_DSTYLE_DIMTALN
 70
     0
  0
APPID
  5
16FC
330
70
100
AcDbSymbolTableRecord
100
AcDbRegAppTableRecord
  2
ACAD_DSTYLE_DIMRADIAL_EXTENSION
 70
     0
  0
ENDTAB
  0
TABLE
  2
DIMSTYLE
  5
72
330
0
100
AcDbSymbolTable
 70
     1
  0
DIMSTYLE
105
73
330
72
100
AcDbSymbolTableRecord
100
AcDbDimStyleTableRecord
  2
STANDARD
 70
     0
  3

  4

  5

  6

  7

 40
3.0
 41
1.8
 42
0.625
 43
3.75
 44
0.8
 45
0.0
 46
0.0
 47
0.0
 48
0.0
140
1.8
141
2.5
142
0.0
143
0.0394
144
1.0
145
0.0
146
1.0
147
0.75
 71
     0
 72
     0
 73
     0
 74
     0
 75
     0
 76
     0
 77
     1
 78
     8
170
     0
171
     4
172
     1
173
     0
174
     0
175
     0
176
     0
177
     0
178
     0
270
     8
271
     2
272
     2
273
     8
274
     4
340
16
275
     0
280
     0
281
     0
282
     0
283
     1
284
     0
285
     0
286
     0
287
     3
288
     0
1001
ACAD_DSTYLE_DIMJAG
1070
   388
1040
1.5
1001
ACAD_DSTYLE_DIMTALN
1070
   392
1070
     0
  0
ENDTAB
  0
TABLE
  2
BLOCK_RECORD
  5
1
330
0
100
AcDbSymbolTable
 70
    55
  0
BLOCK_RECORD
  5
2
102
{ACAD_XDICTIONARY
360
33C6
102
}
330
1
100
AcDbSymbolTableRecord
100
AcDbBlockTableRecord
  2
*MODEL_SPACE
  0
BLOCK_RECORD
  5
339F
102
{ACAD_XDICTIONARY
360
33C8
102
}
330
1
100
AcDbSymbolTableRecord
100
AcDbBlockTableRecord
  2
*PAPER_SPACE
  0
ENDTAB
  0
ENDSEC
  0
SECTION
  2
BLOCKS
  0
BLOCK
  5
5D
330
2
100
AcDbEntity
  8
0
100
AcDbBlockBegin
  2
*MODEL_SPACE
 70
     0
 10
0.0
 20
0.0
 30
0.0
  3
*MODEL_SPACE
  1

  0
ENDBLK
  5
5F
330
2
100
AcDbEntity
  8
0
100
AcDbBlockEnd
  0
BLOCK
  5
33A1
330
339F
100
AcDbEntity
 67
     1
  8
0
100
AcDbBlockBegin
  2
*PAPER_SPACE
 70
     0
 10
0.0
 20
0.0
 30
0.0
  3
*PAPER_SPACE
  1

  0
ENDBLK
  5
33A2
330
339F
100
AcDbEntity
 67
     1
  8
0
100
AcDbBlockEnd
  0
ENDSEC
  0
SECTION
  2
ENTITIES
  0
LINE
  5
A65
330
2
100
AcDbEntity
  8
0
100
AcDbLine
 10
1053.559171748526
 20
469.2456345049879
 30
0.0
 11
1053.559171748526
 21
349.2456345049861
 31
0.0
  0
LINE
  5
B2D
330
2
100
AcDbEntity
  8
0
100
AcDbLine
 10
413.3629198943822
 20
469.245634504988
 30
0.0
 11
413.3629198943822
 21
349.2456345049861
 31
0.0
  0
LINE
  5
FA8
330
2
100
AcDbEntity
  8
CENTER
100
AcDbLine
 10
948.0591717485292
 20
612.7425856632553
 30
0.0
 11
948.0591717485301
 21
793.7425856632549
 31
0.0
  0
LINE
  5
FA9
330
2
100
AcDbEntity
  8
0
100
AcDbLine
 10
888.9667659987688
 20
654.7425856632449
 30
0.0
 11
888.0635351824254
 21
758.2425856632482
 31
0.0
  0
LINE
  5
FAA
330
2
100
AcDbEntity
  8
0
100
AcDbLine
 10
893.0591717485297
 20
649.7425856632385
 30
0.0
 11
1003.059171748529
 21
649.7425856632447
 31
0.0
  0
LINE
  5
FAB
330
2
100
AcDbEntity
  8
0
100
AcDbLine
 10
1039.507485490373
 20
781.7425856632446
 30
0.0
 11
1053.559171748527
 21
781.7425856632445
 31
0.0
  0
ARC
  5
FAC
330
2
100
AcDbEntity
  8
0
100
AcDbCircle
 10
1039.507485490373
 20
779.7425856632446
 30
0.0
 40
2.0
100
AcDbArc
 50
90.0
 51
178.4999999999972
  0
LINE
  5
FAD
330
2
100
AcDbEntity
  8
0
100
AcDbLine
 10
1037.508170840422
 20
779.7949395598601
 30
0.0
 11
1035.98801645439
 21
721.7425856632446
 31
0.0
  0
ARC
  5
FAE
330
2
100
AcDbEntity
  8
0
100
AcDbCircle
 10
1033.144103606332
 20
727.7425856632467
 30
0.0
 40
3.0
100
AcDbArc
 50
270.0
 51
358.5000000000103
  0
LINE
  5
FAF
330
2
100
AcDbEntity
  8
0
100
AcDbLine
 10
1007.417746965909
 20
758.2425856632449
 30
0.0
 11
888.0635351824254
 21
758.2425856632482
 31
0.0
  0
LINE
  5
FB0
330
2
100
AcDbEntity
  8
0
100
AcDbLine
 10
986.1277941989149
 20
635.7425856632444
 30
0.0
 11
909.9905492981445
 21
635.7425856632437
 31
0.0
  0
ARC
  5
FB1
330
2
100
AcDbEntity
  8
0
100
AcDbCircle
 10
909.9905492981445
 20
637.7425856632437
 30
0.0
 40
2.0
100
AcDbArc
 50
181.9999999999914
 51
270.0
  0
ARC
  5
FB2
330
2
100
AcDbEntity
  8
0
100
AcDbCircle
 10
986.1277941989149
 20
637.7425856632441
 30
0.0
 40
2.0
100
AcDbArc
 50
270.0
 51
357.9999999999955
  0
LINE
  5
FB3
330
2
100
AcDbEntity
  8
CENTER
100
AcDbLine
 10
878.381685072931
 20
721.7425856632482
 30
0.0
 11
1148.059171748525
 21
721.7425856632482
 31
0.0
  0
LINE
  5
FB4
330
2
100
AcDbEntity
  8
0
100
AcDbLine
 10
1007.15157749829
 20
654.7425856632448
 30
0.0
 11
1007.73627764027
 21
721.7425856632473
 31
0.0
  0
ARC
  5
FB5
330
2
100
AcDbEntity
  8
0
100
AcDbCircle
 10
1010.684030668684
 20
715.742585663246
 30
0.0
 40
3.0
100
AcDbArc
 50
90.0
 51
179.4999999999954
  0
LINE
  5
FB6
330
2
100
AcDbEntity
  8
0
100
AcDbLine
 10
988.1265758529533
 20
637.6727866698392
 30
0.0
 11
988.2784461037173
 21
642.0217816368643
 31
0.0
  0
LINE
  5
FB7
330
2
100
AcDbEntity
  8
0
100
AcDbLine
 10
907.9917676441061
 20
637.6727866698388
 30
0.0
 11
907.8398973933419
 21
642.0217816368582
 31
0.0
  0
LINE
  5
FB8
330
2
100
AcDbEntity
  8
0
100
AcDbLine
 10
1007.417746965909
 20
758.2425856632449
 30
0.0
 11
1007.736277640273
 21
721.7425856632472
 31
0.0
  0
LINE
  5
FB9
330
2
100
AcDbEntity
  8
0
100
AcDbLine
 10
1039.507485490373
 20
661.7425856632519
 30
0.0
 11
1053.559171748527
 21
661.7425856632519
 31
0.0
  0
ARC
  5
FBA
330
2
100
AcDbEntity
  8
0
100
AcDbCircle
 10
1039.507485490373
 20
663.7425856632519
 30
0.0
 40
2.0
100
AcDbArc
 50
181.4999999999896
 51
270.0
  0
LINE
  5
FBB
330
2
100
AcDbEntity
  8
0
100
AcDbLine
 10
1037.508170840422
 20
663.6902317666367
 30
0.0
 11
1035.988016454391
 21
721.7425856632446
 31
0.0
  0
ARC
  5
FBC
330
2
100
AcDbEntity
  8
0
100
AcDbCircle
 10
1033.144103606332
 20
715.742585663246
 30
0.0
 40
3.0
100
AcDbArc
 50
1.499999999989688
 51
90.0
  0
LINE
  5
FBD
330
2
100
AcDbEntity
  8
0
100
AcDbLine
 10
898.0591717485307
 20
758.2425856632466
 30
0.0
 11
898.0591717485296
 21
656.2425856632394
 31
0.0
  0
LINE
  5
FBE
330
2
100
AcDbEntity
  8
0
100
AcDbLine
 10
988.0722647093119
 20
758.2425856632455
 30
0.0
 11
989.0025503925333
 21
722.7164087149406
 31
0.0
  0
LINE
  5
FBF
330
2
100
AcDbEntity
  8
0
100
AcDbLine
 10
1010.684030668683
 20
724.7425856632465
 30
0.0
 11
1033.144103606332
 21
724.7425856632465
 31
0.0
  0
ARC
  5
FC0
330
2
100
AcDbEntity
  8
0
100
AcDbCircle
 10
1010.684030668683
 20
727.7425856632464
 30
0.0
 40
3.0
100
AcDbArc
 50
180.4999999999915
 51
270.0
  0
LINE
  5
FC1
330
2
100
AcDbEntity
  8
0
100
AcDbLine
 10
1010.684030668684
 20
718.742585663246
 30
0.0
 11
1033.144103606332
 21
718.742585663246
 31
0.0
  0
LINE
  5
FC2
330
2
100
AcDbEntity
  8
0
100
AcDbLine
 10
990.0022077175087
 20
721.7425856632488
 30
0.0
 11
1053.559171748527
 21
721.7425856632431
 31
0.0
  0
ARC
  5
FC3
330
2
100
AcDbEntity
  8
0
100
AcDbCircle
 10
990.0022077175087
 20
722.7425856632483
 30
0.0
 40
1.0
100
AcDbArc
 50
181.5000000000027
 51
269.9999999999739
  0
LINE
  5
FC4
330
2
100
AcDbEntity
  8
0
100
AcDbLine
 10
908.0591717485319
 20
656.2425856632396
 30
0.0
 11
908.0591717485324
 21
758.2425856632466
 31
0.0
  0
LINE
  5
FC5
330
2
100
AcDbEntity
  8
0
100
AcDbLine
 10
928.0605634351134
 20
656.2425856632394
 30
0.0
 11
928.0605634351134
 21
758.2425856632466
 31
0.0
  0
LINE
  5
FC6
330
2
100
AcDbEntity
  8
0
100
AcDbLine
 10
968.0577800619433
 20
656.2425856632394
 30
0.0
 11
968.0577800619433
 21
758.2425856632466
 31
0.0
  0
LINE
  5
FC7
330
2
100
AcDbEntity
  8
0
100
AcDbLine
 10
988.0591717485273
 20
656.2425856632396
 30
0.0
 11
988.0591717485273
 21
721.7425856632482
 31
0.0
  0
LINE
  5
FC8
330
2
100
AcDbEntity
  8
0
100
AcDbLine
 10
998.0591717485316
 20
656.2425856632394
 30
0.0
 11
998.0591717485319
 21
758.2425856632466
 31
0.0
  0
LINE
  5
FC9
330
2
100
AcDbEntity
  8
0
100
AcDbLine
 10
1053.559171748527
 20
661.7425856632519
 30
0.0
 11
1053.559171748527
 21
781.7425856632444
 31
0.0
  0
LINE
  5
FCA
330
2
100
AcDbEntity
  8
0
100
AcDbLine
 10
893.0591717485297
 20
649.7425856632385
 30
0.0
 11
893.0591717485297
 21
654.7425856632449
 31
0.0
  0
LINE
  5
FCB
330
2
100
AcDbEntity
  8
0
 48
0.5
100
AcDbLine
 10
888.9667659987688
 20
654.7425856632448
 30
0.0
 11
1007.15157749829
 21
654.7425856632449
 31
0.0
  0
LINE
  5
FCC
330
2
100
AcDbEntity
  8
0
100
AcDbLine
 10
1003.059171748529
 20
649.7425856632447
 30
0.0
 11
1003.059171748529
 21
654.7425856632449
 31
0.0
  0
LINE
  5
FCD
330
2
100
AcDbEntity
  8
0
100
AcDbLine
 10
1033.084642467661
 20
672.3148174378565
 30
0.0
 11
1008.91510416014
 21
661.0443766309891
 31
0.0
  0
ARC
  5
FCE
330
2
100
AcDbEntity
  8
0
100
AcDbCircle
 10
1010.182958945362
 20
658.3254532698791
 30
0.0
 40
3.0
100
AcDbArc
 50
114.9999999999782
 51
179.5000000000019
  0
ARC
  5
FCF
330
2
100
AcDbEntity
  8
0
100
AcDbCircle
 10
1034.352497252883
 20
669.5958940767466
 30
0.0
 40
3.0
100
AcDbArc
 50
1.499999999989688
 51
115.000000000007
  0
LINE
  5
FD0
330
2
100
AcDbEntity
  8
0
100
AcDbLine
 10
1011.926691591296
 20
754.6326469553068
 30
0.0
 11
1035.776855140292
 21
768.402545300537
 31
0.0
  0
ARC
  5
FD1
330
2
100
AcDbEntity
  8
0
100
AcDbCircle
 10
1034.276855140292
 20
771.0006215118901
 30
0.0
 40
3.0
100
AcDbArc
 50
300.0
 51
358.5000000000103
  0
ARC
  5
FD2
330
2
100
AcDbEntity
  8
0
100
AcDbCircle
 10
1010.426691591296
 20
757.2307231666602
 30
0.0
 40
3.0
100
AcDbArc
 50
180.499999999998
 51
300.0
  0
ARC
  5
FD3
330
2
100
AcDbEntity
  8
0
100
AcDbCircle
 10
996.2735727198699
 20
641.7425856632445
 30
0.0
 40
8.0
100
AcDbArc
 50
90.0
 51
178.000000000002
  0
ARC
  5
FD4
330
2
100
AcDbEntity
  8
0
100
AcDbCircle
 10
899.8447707771894
 20
641.7425856632387
 30
0.0
 40
8.0
100
AcDbArc
 50
1.999999999997947
 51
90.0
  0
LINE
  5
FD5
330
2
100
AcDbEntity
  8
CENTER
100
AcDbLine
 10
318.8629198943836
 20
409.2456345049861
 30
0.0
 11
588.8629198943792
 21
409.245634504986
 31
0.0
  0
LINE
  5
FD6
330
2
100
AcDbEntity
  8
0
100
AcDbLine
 10
427.362919894382
 20
469.2456345049861
 30
0.0
 11
413.3629198943824
 21
469.2456345049861
 31
0.0
  0
LINE
  5
FD7
330
2
100
AcDbEntity
  8
0
100
AcDbLine
 10
413.3629198943824
 20
469.7456345049857
 30
0.0
 11
413.362919894382
 21
348.7456345049866
 31
0.0
  0
LINE
  5
FD8
330
2
100
AcDbEntity
  8
0
100
AcDbLine
 10
429.3629198943825
 20
467.7456345049858
 30
0.0
 11
429.3629198943819
 21
350.7456345049865
 31
0.0
  0
ARC
  5
FD9
330
2
100
AcDbEntity
  8
0
100
AcDbCircle
 10
437.3629198943819
 20
367.2456345049822
 30
0.0
 40
8.0
100
AcDbArc
 50
90.0
 51
180.0
  0
ARC
  5
FDA
330
2
100
AcDbEntity
  8
0
100
AcDbCircle
 10
432.362919894382
 20
460.3208952827688
 30
0.0
 40
3.0
100
AcDbArc
 50
180.0
 51
280.0000000000051
  0
ARC
  5
FDB
330
2
100
AcDbEntity
  8
0
100
AcDbCircle
 10
432.362919894382
 20
358.1703737272034
 30
0.0
 40
3.0
100
AcDbArc
 50
79.99999999999484
 51
180.0
  0
ARC
  5
FDC
330
2
100
AcDbEntity
  8
0
100
AcDbCircle
 10
427.362919894382
 20
467.2456345049861
 30
0.0
 40
2.0
100
AcDbArc
 50
0.0
 51
90.0
  0
ARC
  5
FDD
330
2
100
AcDbEntity
  8
0
100
AcDbCircle
 10
427.362919894382
 20
351.2456345049861
 30
0.0
 40
2.0
100
AcDbArc
 50
270.0
 51
0.0
  0
LINE
  5
FDE
330
2
100
AcDbEntity
  8
0
100
AcDbLine
 10
427.362919894382
 20
349.2456345049861
 30
0.0
 11
413.362919894382
 21
349.245634504986
 31
0.0
  0
LINE
  5
FDF
330
2
100
AcDbEntity
  8
0
100
AcDbLine
 10
432.8838644273826
 20
361.1247969862402
 30
0.0
 11
457.9230348615972
 21
356.7097156641309
 31
0.0
  0
LINE
  5
FE0
330
2
100
AcDbEntity
  8
0
100
AcDbLine
 10
432.883864427383
 20
457.366472023732
 30
0.0
 11
457.9230348615976
 21
461.7815533458412
 31
0.0
  0
LINE
  5
FE1
330
2
100
AcDbEntity
  8
CENTER
100
AcDbLine
 10
518.8629198943792
 20
479.2456345049865
 30
0.0
 11
518.8629198943792
 21
339.2456345049854
 31
0.0
  0
LINE
  5
FE2
330
2
100
AcDbEntity
  8
0
100
AcDbLine
 10
442.862919894382
 20
440.2456345049893
 30
0.0
 11
442.862919894382
 21
415.2456345049861
 31
0.0
  0
LINE
  5
FE3
330
2
100
AcDbEntity
  8
0
100
AcDbLine
 10
442.862919894382
 20
403.2456345049854
 30
0.0
 11
442.862919894382
 21
378.2456345049829
 31
0.0
  0
ARC
  5
FE4
330
2
100
AcDbEntity
  8
0
100
AcDbCircle
 10
445.8629198943819
 20
415.2456345049861
 30
0.0
 40
3.0
100
AcDbArc
 50
180.0
 51
270.0
  0
LINE
  5
FE5
330
2
100
AcDbEntity
  8
0
100
AcDbLine
 10
437.3629198943802
 20
375.2456345049822
 30
0.0
 11
439.8629198943815
 21
375.2456345049829
 31
0.0
  0
LINE
  5
FE6
330
2
100
AcDbEntity
  8
0
100
AcDbLine
 10
445.8629198943806
 20
381.2456345049829
 30
0.0
 11
456.1858140026386
 21
381.2456345049831
 31
0.0
  0
ARC
  5
FE7
330
2
100
AcDbEntity
  8
0
100
AcDbCircle
 10
456.1858140026386
 20
378.2456345049831
 30
0.0
 40
3.0
100
AcDbArc
 50
0.0
 51
90.0
  0
ARC
  5
FE8
330
2
100
AcDbEntity
  8
0
100
AcDbCircle
 10
445.8629198943806
 20
378.2456345049829
 30
0.0
 40
3.0
100
AcDbArc
 50
90.0
 51
180.0
  0
LINE
  5
FE9
330
2
100
AcDbEntity
  8
0
100
AcDbLine
 10
442.8629198943806
 20
378.2456345049829
 30
0.0
 11
442.8629198943806
 21
378.2456345049829
 31
0.0
  0
ARC
  5
FEA
330
2
100
AcDbEntity
  8
0
100
AcDbCircle
 10
439.8629198943806
 20
378.2456345049829
 30
0.0
 40
3.0
100
AcDbArc
 50
270.0
 51
0.0
  0
LINE
  5
FEB
330
2
100
AcDbEntity
  8
0
100
AcDbLine
 10
437.3629198943802
 20
443.2456345049899
 30
0.0
 11
439.862919894382
 21
443.2456345049892
 31
0.0
  0
LINE
  5
FEC
330
2
100
AcDbEntity
  8
0
100
AcDbLine
 10
445.862919894381
 20
437.2456345049893
 30
0.0
 11
456.1858140026381
 21
437.245634504989
 31
0.0
  0
ARC
  5
FED
330
2
100
AcDbEntity
  8
0
100
AcDbCircle
 10
456.1858140026381
 20
440.245634504989
 30
0.0
 40
3.0
100
AcDbArc
 50
270.0
 51
0.0
  0
ARC
  5
FEE
330
2
100
AcDbEntity
  8
0
100
AcDbCircle
 10
445.862919894381
 20
440.2456345049893
 30
0.0
 40
3.0
100
AcDbArc
 50
180.0
 51
270.0
  0
LINE
  5
FEF
330
2
100
AcDbEntity
  8
0
100
AcDbLine
 10
442.862919894381
 20
440.2456345049893
 30
0.0
 11
442.862919894381
 21
440.2456345049893
 31
0.0
  0
ARC
  5
FF0
330
2
100
AcDbEntity
  8
0
100
AcDbCircle
 10
439.8629198943811
 20
440.2456345049893
 30
0.0
 40
3.0
100
AcDbArc
 50
0.0
 51
89.99999999997395
  0
ARC
  5
FF1
330
2
100
AcDbEntity
  8
0
100
AcDbCircle
 10
437.3629198943824
 20
451.24563450499
 30
0.0
 40
8.0
100
AcDbArc
 50
180.0
 51
269.9999999999739
  0
LINE
  5
FF2
330
2
100
AcDbEntity
  8
0
100
AcDbLine
 10
469.1858140026385
 20
349.2456345049847
 30
0.0
 11
469.5029198943337
 21
349.2456345049847
 31
0.0
  0
LINE
  5
FF3
330
2
100
AcDbEntity
  8
0
100
AcDbLine
 10
469.185814002639
 20
469.2456345049879
 30
0.0
 11
469.502919894426
 21
469.2456345049879
 31
0.0
  0
LINE
  5
FF4
330
2
100
AcDbEntity
  8
0
100
AcDbLine
 10
459.1858140026381
 20
459.2456345049879
 30
0.0
 11
459.1858140026381
 21
359.2456345049847
 31
0.0
  0
ARC
  5
FF5
330
2
100
AcDbEntity
  8
0
100
AcDbCircle
 10
469.1858140026385
 20
359.2456345049847
 30
0.0
 40
10.0
100
AcDbArc
 50
180.0
 51
270.0
  0
ARC
  5
FF6
330
2
100
AcDbEntity
  8
0
100
AcDbCircle
 10
457.4020903285965
 20
353.7552924050944
 30
0.0
 40
3.0
100
AcDbArc
 50
24.98203108537682
 51
79.99999999999484
  0
ARC
  5
FF7
330
2
100
AcDbEntity
  8
0
100
AcDbCircle
 10
469.1858140026385
 20
459.2456345049879
 30
0.0
 40
10.0
100
AcDbArc
 50
90.0
 51
180.0
  0
ARC
  5
FF8
330
2
100
AcDbEntity
  8
0
100
AcDbCircle
 10
457.4020903285965
 20
464.7359766048777
 30
0.0
 40
3.0
100
AcDbArc
 50
280.0000000000051
 51
335.017968914623
  0
ARC
  5
FF9
330
2
100
AcDbEntity
  8
0
100
AcDbCircle
 10
432.3629198943824
 20
415.2456345049862
 30
0.0
 40
3.0
100
AcDbArc
 50
180.0
 51
270.0
  0
ARC
  5
FFA
330
2
100
AcDbEntity
  8
0
100
AcDbCircle
 10
432.3629198943824
 20
403.2456345049845
 30
0.0
 40
3.0
100
AcDbArc
 50
90.0
 51
180.0
  0
LINE
  5
FFB
330
2
100
AcDbEntity
  8
0
100
AcDbLine
 10
456.1858140026381
 20
406.2456345049861
 30
0.0
 11
432.362919894382
 21
406.2456345049845
 31
0.0
  0
ARC
  5
FFC
330
2
100
AcDbEntity
  8
0
100
AcDbCircle
 10
445.8629198943819
 20
403.2456345049854
 30
0.0
 40
3.0
100
AcDbArc
 50
90.0
 51
180.0
  0
ARC
  5
FFD
330
2
100
AcDbEntity
  8
0
100
AcDbCircle
 10
456.1858140026381
 20
403.2456345049861
 30
0.0
 40
3.0
100
AcDbArc
 50
0.0
 51
90.0
  0
LINE
  5
FFE
330
2
100
AcDbEntity
  8
0
100
AcDbLine
 10
456.1858140026381
 20
412.245634504986
 30
0.0
 11
432.3629198943824
 21
412.2456345049862
 31
0.0
  0
ARC
  5
FFF
330
2
100
AcDbEntity
  8
0
100
AcDbCircle
 10
456.1858140026381
 20
415.245634504986
 30
0.0
 40
3.0
100
AcDbArc
 50
270.0
 51
0.0
  0
LINE
  5
1033
330
2
100
AcDbEntity
  8
CENTER
100
AcDbLine
 10
824.0112336253403
 20
409.245634504986
 30
0.0
 11
623.011233625348
 21
409.245634504986
 31
0.0
  0
LINE
  5
1034
330
2
100
AcDbEntity
  8
0
100
AcDbLine
 10
787.011233625358
 20
354.2456345049856
 30
0.0
 11
787.0112336253517
 21
464.2456345049855
 31
0.0
  0
LINE
  5
1035
330
2
100
AcDbEntity
  8
0
100
AcDbLine
 10
678.5112336253517
 20
469.2456345049858
 30
0.0
 11
678.511233625348
 21
349.2456345049861
 31
0.0
  0
LINE
  5
1036
330
2
100
AcDbEntity
  8
0
100
AcDbLine
 10
801.0112336253522
 20
447.3142569553713
 30
0.0
 11
801.0112336253525
 21
371.1770120546004
 31
0.0
  0
ARC
  5
1037
330
2
100
AcDbEntity
  8
0
100
AcDbCircle
 10
799.0112336253526
 20
371.1770120546004
 30
0.0
 40
2.0
100
AcDbArc
 50
271.9999999999775
 51
0.0
  0
ARC
  5
1038
330
2
100
AcDbEntity
  8
0
100
AcDbCircle
 10
799.0112336253521
 20
447.3142569553713
 30
0.0
 40
2.0
100
AcDbArc
 50
0.0
 51
87.99999999999636
  0
LINE
  5
103A
330
2
100
AcDbEntity
  8
0
100
AcDbLine
 10
799.0810326187572
 20
449.3130386094094
 30
0.0
 11
794.732037651732
 21
449.4649088601736
 31
0.0
  0
LINE
  5
103B
330
2
100
AcDbEntity
  8
0
100
AcDbLine
 10
799.0810326187572
 20
369.1782304005623
 30
0.0
 11
794.732037651738
 21
369.0263601497985
 31
0.0
  0
LINE
  5
103C
330
2
100
AcDbEntity
  8
0
100
AcDbLine
 10
678.5112336253485
 20
359.2456345049868
 30
0.0
 11
780.5112336253566
 21
359.2456345049859
 31
0.0
  0
LINE
  5
103D
330
2
100
AcDbEntity
  8
0
100
AcDbLine
 10
780.5112336253566
 20
369.2456345049881
 30
0.0
 11
678.5112336253485
 21
369.2456345049881
 31
0.0
  0
LINE
  5
103E
330
2
100
AcDbEntity
  8
0
100
AcDbLine
 10
780.5112336253566
 20
389.2470261915698
 30
0.0
 11
678.5112336253494
 21
389.2470261915698
 31
0.0
  0
LINE
  5
103F
330
2
100
AcDbEntity
  8
0
100
AcDbLine
 10
780.5112336253566
 20
429.2442428183997
 30
0.0
 11
678.5112336253503
 21
429.2442428183997
 31
0.0
  0
LINE
  5
1040
330
2
100
AcDbEntity
  8
0
100
AcDbLine
 10
780.5112336253566
 20
449.2456345049836
 30
0.0
 11
678.5112336253507
 21
449.2456345049836
 31
0.0
  0
LINE
  5
1041
330
2
100
AcDbEntity
  8
0
100
AcDbLine
 10
780.5112336253566
 20
459.2456345049876
 30
0.0
 11
678.5112336253511
 21
459.2456345049876
 31
0.0
  0
LINE
  5
1042
330
2
100
AcDbEntity
  8
0
100
AcDbLine
 10
787.011233625358
 20
354.2456345049856
 30
0.0
 11
782.0112336253512
 21
354.2456345049858
 31
0.0
  0
LINE
  5
1043
330
2
100
AcDbEntity
  8
0
 48
0.5
100
AcDbLine
 10
782.0112336253512
 20
350.1532287552251
 30
0.0
 11
782.0112336253512
 21
468.3380402547469
 31
0.0
  0
LINE
  5
1044
330
2
100
AcDbEntity
  8
0
100
AcDbLine
 10
787.0112336253517
 20
464.2456345049854
 30
0.0
 11
782.0112336253512
 21
464.2456345049854
 31
0.0
  0
ARC
  5
1045
330
2
100
AcDbEntity
  8
0
100
AcDbCircle
 10
795.0112336253521
 20
457.4600354763263
 30
0.0
 40
8.0
100
AcDbArc
 50
180.0
 51
267.9999999999963
  0
ARC
  5
1046
330
2
100
AcDbEntity
  8
0
100
AcDbCircle
 10
795.0112336253575
 20
361.031233533646
 30
0.0
 40
8.0
100
AcDbArc
 50
92.00000000000365
 51
180.0
  0
LINE
  5
1047
330
2
100
AcDbEntity
  8
CENTER
100
AcDbLine
 10
518.8629198943151
 20
339.2456345049188
 30
0.0
 11
518.862919894441
 21
476.1486799437851
 31
0.0
  0
LINE
  5
1048
330
2
100
AcDbEntity
  8
0
100
AcDbLine
 10
459.5029198943332
 20
359.2456345049735
 30
0.0
 11
459.5029198944255
 21
459.2456345049765
 31
0.0
  0
ARC
  5
1049
330
2
100
AcDbEntity
  8
0
100
AcDbCircle
 10
469.5029198944255
 20
459.2456345049673
 30
0.0
 40
10.0
100
AcDbArc
 50
89.99999999994789
 51
179.9999999999479
  0
LINE
  5
104A
330
2
100
AcDbEntity
  8
0
100
AcDbLine
 10
465.8629198943551
 20
382.7775970734651
 30
0.0
 11
465.8629198944038
 21
435.7136719365705
 31
0.0
  0
ARC
  5
104B
330
2
100
AcDbEntity
  8
0
100
AcDbCircle
 10
478.8629198944038
 20
435.7136719365585
 30
0.0
 40
13.0
100
AcDbArc
 50
134.9999999999359
 51
179.9999999999479
  0
LINE
  5
104C
330
2
100
AcDbEntity
  8
0
100
AcDbLine
 10
470.8629198943551
 20
382.7775970734606
 30
0.0
 11
470.8629198944038
 21
435.7136719365659
 31
0.0
  0
ARC
  5
104D
330
2
100
AcDbEntity
  8
0
100
AcDbCircle
 10
478.8629198943551
 20
382.7775970734531
 30
0.0
 40
8.0
100
AcDbArc
 50
179.9999999999479
 51
224.9999999999537
  0
CIRCLE
  5
104E
330
2
100
AcDbEntity
  8
0
100
AcDbCircle
 10
518.8629198943792
 20
409.2456345049217
 30
0.0
 40
32.50000000000008
  0
CIRCLE
  5
104F
330
2
100
AcDbEntity
  8
0
100
AcDbCircle
 10
518.8629198943792
 20
409.2456345049218
 30
0.0
 40
33.07735026918965
  0
CIRCLE
  5
1050
330
2
100
AcDbEntity
  8
0
100
AcDbCircle
 10
518.8629198943792
 20
409.2456345049217
 30
0.0
 40
36.92264973081032
  0
CIRCLE
  5
1051
330
2
100
AcDbEntity
  8
0
100
AcDbCircle
 10
518.8629198943792
 20
409.2456345049217
 30
0.0
 40
37.50000000000008
  0
CIRCLE
  5
1052
330
2
100
AcDbEntity
  8
0
100
AcDbCircle
 10
518.8629198943792
 20
409.2456345049217
 30
0.0
 40
39.50000000000031
  0
CIRCLE
  5
1053
330
2
100
AcDbEntity
  8
0
100
AcDbCircle
 10
518.8629198943792
 20
409.2456345049218
 30
0.0
 40
40.00000000000034
  0
LINE
  5
1054
330
2
100
AcDbEntity
  8
CENTER
100
AcDbLine
 10
458.8834209090125
 20
459.2456345049774
 30
0.0
 11
478.8424188798519
 21
459.2456345049589
 31
0.0
  0
LINE
  5
1055
330
2
100
AcDbEntity
  8
CENTER
100
AcDbLine
 10
468.8629198944165
 20
449.2661355195484
 30
0.0
 11
468.8629198944347
 21
469.2251334903879
 31
0.0
  0
LINE
  5
1056
330
2
100
AcDbEntity
  8
0
100
AcDbLine
 10
545.3309573258059
 20
361.2456345048967
 30
0.0
 11
492.3948824628398
 21
361.2456345049455
 31
0.0
  0
ARC
  5
1057
330
2
100
AcDbEntity
  8
0
100
AcDbCircle
 10
545.3309573258131
 20
369.2456345048967
 30
0.0
 40
8.0
100
AcDbArc
 50
269.9999999999478
 51
314.9999999999359
  0
LINE
  5
1058
330
2
100
AcDbEntity
  8
0
100
AcDbLine
 10
545.3309573258004
 20
356.245634504896
 30
0.0
 11
492.3948824628357
 21
356.2456345049449
 31
0.0
  0
ARC
  5
1059
330
2
100
AcDbEntity
  8
0
100
AcDbCircle
 10
492.3948824628475
 20
369.2456345049449
 30
0.0
 40
13.0
100
AcDbArc
 50
224.9999999999537
 51
269.9999999999478
  0
LINE
  5
105A
330
2
100
AcDbEntity
  8
0
100
AcDbLine
 10
545.3309573259891
 20
457.2456345048975
 30
0.0
 11
492.3948824628239
 21
457.2456345049462
 31
0.0
  0
ARC
  5
105B
330
2
100
AcDbEntity
  8
0
100
AcDbCircle
 10
492.3948824628166
 20
449.2456345049462
 30
0.0
 40
8.0
100
AcDbArc
 50
89.99999999994789
 51
134.9999999999359
  0
LINE
  5
105C
330
2
100
AcDbEntity
  8
0
100
AcDbLine
 10
545.3309573259937
 20
462.2456345048973
 30
0.0
 11
492.3948824628284
 21
462.2456345049461
 31
0.0
  0
ARC
  5
105D
330
2
100
AcDbEntity
  8
0
100
AcDbCircle
 10
545.3309573259819
 20
449.2456345048973
 30
0.0
 40
13.0
100
AcDbArc
 50
44.99999999995376
 51
89.99999999994789
  0
LINE
  5
105E
330
2
100
AcDbEntity
  8
0
100
AcDbLine
 10
571.8629198943552
 20
382.7775970734017
 30
0.0
 11
571.8629198944038
 21
435.7136719364475
 31
0.0
  0
ARC
  5
105F
330
2
100
AcDbEntity
  8
0
100
AcDbCircle
 10
558.8629198943551
 20
382.7775970734137
 30
0.0
 40
13.0
100
AcDbArc
 50
314.9999999999359
 51
359.9999999999478
  0
LINE
  5
1060
330
2
100
AcDbEntity
  8
0
100
AcDbLine
 10
566.8629198943551
 20
382.7775970734063
 30
0.0
 11
566.8629198944038
 21
435.7136719364521
 31
0.0
  0
ARC
  5
1061
330
2
100
AcDbEntity
  8
0
100
AcDbCircle
 10
558.8629198944038
 20
435.7136719364595
 30
0.0
 40
8.0
100
AcDbArc
 50
359.9999999999478
 51
44.99999999995376
  0
LINE
  5
1062
330
2
100
AcDbEntity
  8
CENTER
100
AcDbLine
 10
581.133831952133
 20
471.5165465626245
 30
0.0
 11
456.5920078365963
 21
346.9747224473179
 31
0.0
  0
LINE
  5
1063
330
2
100
AcDbEntity
  8
0
100
AcDbLine
 10
486.7380282133296
 20
454.9024887544438
 30
0.0
 11
473.2060656449168
 21
441.3705261860561
 31
0.0
  0
LINE
  5
1064
330
2
100
AcDbEntity
  8
0
100
AcDbLine
 10
483.2024943073999
 20
458.4380226603797
 30
0.0
 11
469.6705317389871
 21
444.9060600919921
 31
0.0
  0
ARC
  5
1065
330
2
100
AcDbEntity
  8
0
100
AcDbCircle
 10
492.3948824628166
 20
449.245634504946
 30
0.0
 40
13.0
100
AcDbArc
 50
89.99999999994789
 51
134.9999999999359
  0
ARC
  5
1066
330
2
100
AcDbEntity
  8
0
100
AcDbCircle
 10
478.8629198944038
 20
435.7136719365585
 30
0.0
 40
8.0
100
AcDbArc
 50
134.9999999999359
 51
179.9999999999479
  0
LINE
  5
1067
330
2
100
AcDbEntity
  8
0
100
AcDbLine
 10
564.5197741438421
 20
377.1207428239161
 30
0.0
 11
550.9878115753001
 21
363.5887802553992
 31
0.0
  0
LINE
  5
1068
330
2
100
AcDbEntity
  8
0
100
AcDbLine
 10
568.0553080497718
 20
373.5852089179801
 30
0.0
 11
554.5233454812289
 21
360.0532463494624
 31
0.0
  0
ARC
  5
1069
330
2
100
AcDbEntity
  8
0
100
AcDbCircle
 10
545.3309573258122
 20
369.245634504896
 30
0.0
 40
13.0
100
AcDbArc
 50
269.9999999999478
 51
314.9999999999359
  0
ARC
  5
106A
330
2
100
AcDbEntity
  8
0
100
AcDbCircle
 10
558.8629198943551
 20
382.7775970734137
 30
0.0
 40
8.0
100
AcDbArc
 50
314.9999999999359
 51
359.9999999999478
  0
LINE
  5
106B
330
2
100
AcDbEntity
  8
CENTER
100
AcDbLine
 10
456.592007836675
 20
471.5165465627331
 30
0.0
 11
581.1338319520244
 21
346.974722447239
 31
0.0
  0
LINE
  5
106C
330
2
100
AcDbEntity
  8
0
100
AcDbLine
 10
550.9878115754775
 20
454.9024887543865
 30
0.0
 11
564.5197741438994
 21
441.3705261859486
 31
0.0
  0
LINE
  5
106D
330
2
100
AcDbEntity
  8
0
100
AcDbLine
 10
554.5233454814121
 20
458.4380226603171
 30
0.0
 11
568.0553080498341
 21
444.9060600918793
 31
0.0
  0
ARC
  5
106E
330
2
100
AcDbEntity
  8
0
100
AcDbCircle
 10
558.8629198944038
 20
435.7136719364595
 30
0.0
 40
13.0
100
AcDbArc
 50
359.9999999999478
 51
44.99999999995376
  0
ARC
  5
106F
330
2
100
AcDbEntity
  8
0
100
AcDbCircle
 10
545.3309573259819
 20
449.2456345048974
 30
0.0
 40
8.0
100
AcDbArc
 50
44.99999999995376
 51
89.99999999994789
  0
LINE
  5
1070
330
2
100
AcDbEntity
  8
0
100
AcDbLine
 10
473.2060656448595
 20
377.1207428239641
 30
0.0
 11
486.7380282133515
 21
363.5887802554564
 31
0.0
  0
LINE
  5
1071
330
2
100
AcDbEntity
  8
0
100
AcDbLine
 10
469.6705317389248
 20
373.5852089180333
 30
0.0
 11
483.2024943074173
 21
360.0532463495251
 31
0.0
  0
ARC
  5
1072
330
2
100
AcDbEntity
  8
0
100
AcDbCircle
 10
478.8629198943551
 20
382.7775970734531
 30
0.0
 40
13.0
100
AcDbArc
 50
179.9999999999479
 51
224.9999999999537
  0
ARC
  5
1073
330
2
100
AcDbEntity
  8
0
100
AcDbCircle
 10
492.3948824628471
 20
369.2456345049455
 30
0.0
 40
8.0
100
AcDbArc
 50
224.9999999999537
 51
269.9999999999478
  0
LINE
  5
1074
330
2
100
AcDbEntity
  8
0
100
AcDbLine
 10
550.3058419465475
 20
357.2352005822447
 30
0.0
 11
548.3924247847268
 21
361.8545982448036
 31
0.0
  0
LINE
  5
1075
330
2
100
AcDbEntity
  8
0
100
AcDbLine
 10
570.8733538169974
 20
377.8027124526565
 30
0.0
 11
566.2539561544424
 21
379.7161296144862
 31
0.0
  0
CIRCLE
  5
1076
330
2
100
AcDbEntity
  8
HOJO
100
AcDbCircle
 10
571.3629198943683
 20
370.7456345049619
 30
0.0
 40
2.5
  0
CIRCLE
  5
1077
330
2
100
AcDbEntity
  8
0
100
AcDbCircle
 10
571.3629198943683
 20
370.7456345049619
 30
0.0
 40
2.0
  0
CIRCLE
  5
1078
330
2
100
AcDbEntity
  8
HOJO
100
AcDbCircle
 10
466.3629198944411
 20
447.7456345050611
 30
0.0
 40
2.5
  0
CIRCLE
  5
1079
330
2
100
AcDbEntity
  8
0
100
AcDbCircle
 10
466.3629198944411
 20
447.7456345050611
 30
0.0
 40
2.0
  0
LINE
  5
107A
330
2
100
AcDbEntity
  8
CENTER
100
AcDbLine
 10
466.3629198944361
 20
442.083841703871
 30
0.0
 11
466.3629198944465
 21
453.4074273062511
 31
0.0
  0
LINE
  5
107B
330
2
100
AcDbEntity
  8
CENTER
100
AcDbLine
 10
472.0247126956312
 20
447.7456345050558
 30
0.0
 11
460.701127093251
 21
447.7456345050662
 31
0.0
  0
LINE
  5
107C
330
2
100
AcDbEntity
  8
0
100
AcDbLine
 10
570.8733538169919
 20
440.6885565571542
 30
0.0
 11
566.2539561544333
 21
438.7751393953337
 31
0.0
  0
LINE
  5
107D
330
2
100
AcDbEntity
  8
0
100
AcDbLine
 10
550.3058419465803
 20
461.2560684276039
 30
0.0
 11
548.3924247847506
 21
456.6366707650492
 31
0.0
  0
LINE
  5
107E
330
2
100
AcDbEntity
  8
0
100
AcDbLine
 10
487.4199978420826
 20
461.2560684275988
 30
0.0
 11
489.3334150039033
 21
456.6366707650399
 31
0.0
  0
LINE
  5
107F
330
2
100
AcDbEntity
  8
0
100
AcDbLine
 10
466.8524859716328
 20
440.6885565571871
 30
0.0
 11
471.4718836341878
 21
438.7751393953573
 31
0.0
  0
LINE
  5
1080
330
2
100
AcDbEntity
  8
0
100
AcDbLine
 10
466.8524859716378
 20
377.8027124526894
 30
0.0
 11
471.4718836341969
 21
379.7161296145099
 31
0.0
  0
LINE
  5
1081
330
2
100
AcDbEntity
  8
0
100
AcDbLine
 10
487.4199978420499
 20
357.2352005822396
 30
0.0
 11
489.3334150038793
 21
361.8545982447944
 31
0.0
  0
ARC
  5
1082
330
2
100
AcDbEntity
  8
0
100
AcDbCircle
 10
518.8629198944934
 20
599.2456345049188
 30
0.0
 40
250.0
100
AcDbArc
 50
265.4117542407429
 51
274.5882457591524
  0
ARC
  5
1083
330
2
100
AcDbEntity
  8
0
 48
0.5
100
AcDbCircle
 10
568.8629198942728
 20
359.2456345048725
 30
0.0
 40
10.0
100
AcDbArc
 50
269.9999999999478
 51
359.9999999999478
  0
LINE
  5
1084
330
2
100
AcDbEntity
  8
0
 48
0.5
100
AcDbLine
 10
568.8629198942638
 20
349.2456345048724
 30
0.0
 11
558.8629198942592
 21
349.2456345048818
 31
0.0
  0
ARC
  5
1085
330
2
100
AcDbEntity
  8
0
100
AcDbCircle
 10
558.8629198942669
 20
357.2456345048822
 30
0.0
 40
8.0
100
AcDbArc
 50
261.1083543197433
 51
269.9999999999478
  0
ARC
  5
1086
330
2
100
AcDbEntity
  8
0
100
AcDbCircle
 10
545.2610828678414
 20
270.3031821038452
 30
0.0
 40
80.0
100
AcDbArc
 50
81.10835431974335
 51
94.58824575915246
  0
LINE
  5
1087
330
2
100
AcDbEntity
  8
0
 48
0.5
100
AcDbLine
 10
578.8629198942728
 20
359.2456345048633
 30
0.0
 11
578.8629198942819
 21
369.2456345048674
 31
0.0
  0
ARC
  5
1088
330
2
100
AcDbEntity
  8
0
100
AcDbCircle
 10
570.8629198942815
 20
369.2456345048747
 30
0.0
 40
8.0
100
AcDbArc
 50
359.9999999999478
 51
8.891645680153601
  0
ARC
  5
1089
330
2
100
AcDbEntity
  8
0
100
AcDbCircle
 10
657.8053722953434
 20
382.8474715311399
 30
0.0
 40
80.0
100
AcDbArc
 50
175.4117542407342
 51
188.8916456801535
  0
LINE
  5
108A
330
2
100
AcDbEntity
  8
0
 48
0.5
100
AcDbLine
 10
469.5029198943241
 20
349.2456345049642
 30
0.0
 11
478.8629198942637
 21
349.2456345049556
 31
0.0
  0
ARC
  5
108B
330
2
100
AcDbEntity
  8
0
 48
0.5
100
AcDbCircle
 10
469.5029198943331
 20
359.2456345049642
 30
0.0
 40
10.0
100
AcDbArc
 50
179.9999999999479
 51
269.9999999999478
  0
ARC
  5
108C
330
2
100
AcDbEntity
  8
0
100
AcDbCircle
 10
478.8629198942714
 20
357.2456345049559
 30
0.0
 40
8.0
100
AcDbArc
 50
269.9999999999478
 51
278.8916456801511
  0
ARC
  5
108D
330
2
100
AcDbEntity
  8
0
100
AcDbCircle
 10
492.464756920536
 20
270.303182103894
 30
0.0
 40
80.0
100
AcDbArc
 50
85.41175424074296
 51
98.89164568015118
  0
ARC
  5
108E
330
2
100
AcDbEntity
  8
0
 48
0.5
100
AcDbCircle
 10
568.8629198943651
 20
459.2456345048756
 30
0.0
 40
10.0
100
AcDbArc
 50
359.9999999999478
 51
89.99999999994789
  0
LINE
  5
108F
330
2
100
AcDbEntity
  8
0
 48
0.5
100
AcDbLine
 10
568.8629198943742
 20
469.2456345048756
 30
0.0
 11
558.8629198943701
 21
469.2456345048847
 31
0.0
  0
ARC
  5
1090
330
2
100
AcDbEntity
  8
0
100
AcDbCircle
 10
558.8629198943628
 20
461.2456345048843
 30
0.0
 40
8.0
100
AcDbArc
 50
89.99999999994789
 51
98.89164568015118
  0
ARC
  5
1091
330
2
100
AcDbEntity
  8
0
100
AcDbCircle
 10
545.2610828680978
 20
548.1880869059464
 30
0.0
 40
80.0
100
AcDbArc
 50
265.4117542407429
 51
278.8916456801511
  0
LINE
  5
1092
330
2
100
AcDbEntity
  8
0
 48
0.5
100
AcDbLine
 10
578.8629198943652
 20
459.2456345048662
 30
0.0
 11
578.8629198943556
 21
449.2456345048622
 31
0.0
  0
ARC
  5
1093
330
2
100
AcDbEntity
  8
0
100
AcDbCircle
 10
570.8629198943551
 20
449.2456345048696
 30
0.0
 40
8.0
100
AcDbArc
 50
351.1083543197522
 51
359.9999999999478
  0
ARC
  5
1094
330
2
100
AcDbEntity
  8
0
100
AcDbCircle
 10
657.8053722953921
 20
435.643797478444
 30
0.0
 40
80.0
100
AcDbArc
 50
171.1083543197401
 51
184.5882457591504
  0
LINE
  5
1095
330
2
100
AcDbEntity
  8
0
 48
0.5
100
AcDbLine
 10
469.502919894435
 20
469.2456345049673
 30
0.0
 11
478.8629198943747
 21
469.2456345049585
 31
0.0
  0
ARC
  5
1096
330
2
100
AcDbEntity
  8
0
100
AcDbCircle
 10
478.8629198943674
 20
461.2456345049582
 30
0.0
 40
8.0
100
AcDbArc
 50
81.10835431974335
 51
89.99999999994789
  0
ARC
  5
1097
330
2
100
AcDbEntity
  8
0
100
AcDbCircle
 10
492.4647569207925
 20
548.188086905995
 30
0.0
 40
80.0
100
AcDbArc
 50
261.1083543197433
 51
274.5882457591524
  0
ARC
  5
1098
330
2
100
AcDbEntity
  8
0
100
AcDbCircle
 10
328.8629198943183
 20
409.2456345050967
 30
0.0
 40
250.0
100
AcDbArc
 50
355.4117542407341
 51
4.588245759156933
  0
ARC
  5
1099
330
2
100
AcDbEntity
  8
0
100
AcDbCircle
 10
518.8629198941428
 20
219.2456345049216
 30
0.0
 40
250.0
100
AcDbArc
 50
85.41175424074296
 51
94.58824575915246
  0
LINE
  5
109A
330
2
100
AcDbEntity
  8
0
100
AcDbLine
 10
655.0112336253498
 20
446.1682842357964
 30
0.0
 11
655.0112336253498
 21
409.245634504986
 31
0.0
  0
LINE
  5
109B
330
2
100
AcDbEntity
  8
0
 48
0.5
100
AcDbLine
 10
663.5112336253499
 20
449.2456345049861
 30
0.0
 11
663.0112336253498
 21
448.7456345049863
 31
0.0
  0
LINE
  5
109C
330
2
100
AcDbEntity
  8
0
100
AcDbLine
 10
663.5112336253512
 20
365.7456345049861
 30
0.0
 11
663.5112336253499
 21
452.7456345049861
 31
0.0
  0
ARC
  5
109D
330
2
100
AcDbEntity
  8
0
100
AcDbCircle
 10
657.8112336253491
 20
446.3456345049857
 30
0.0
 40
0.3
100
AcDbArc
 50
180.0
 51
270.0
  0
ARC
  5
109E
330
2
100
AcDbEntity
  8
0
100
AcDbCircle
 10
659.2112336253492
 20
446.3456345049857
 30
0.0
 40
0.3
100
AcDbArc
 50
270.0
 51
0.0
  0
LINE
  5
109F
330
2
100
AcDbEntity
  8
0
 48
0.5
100
AcDbLine
 10
659.5112336253493
 20
446.5456345049858
 30
0.0
 11
659.7112336253492
 21
446.7456345049859
 31
0.0
  0
LINE
  5
10A0
330
2
100
AcDbEntity
  8
0
 48
0.5
100
AcDbLine
 10
657.8112336253491
 20
446.0456345049858
 30
0.0
 11
659.2112336253492
 21
446.0456345049858
 31
0.0
  0
LINE
  5
10A1
330
2
100
AcDbEntity
  8
0
100
AcDbLine
 10
656.0112336253494
 20
446.7456345049859
 30
0.0
 11
655.0112336253493
 21
446.1682842357961
 31
0.0
  0
LINE
  5
10A2
330
2
100
AcDbEntity
  8
0
100
AcDbLine
 10
657.5112336253494
 20
446.4456345049857
 30
0.0
 11
657.5112336253494
 21
372.0456345049865
 31
0.0
  0
ARC
  5
10A3
330
2
100
AcDbEntity
  8
0
 48
0.5
100
AcDbCircle
 10
657.2112336253492
 20
446.4456345049857
 30
0.0
 40
0.3
100
AcDbArc
 50
0.0
 51
90.0
  0
LINE
  5
10A4
330
2
100
AcDbEntity
  8
0
 48
0.5
100
AcDbLine
 10
656.0112336253489
 20
446.7456345049859
 30
0.0
 11
657.2112336253492
 21
446.7456345049859
 31
0.0
  0
LINE
  5
10A5
330
2
100
AcDbEntity
  8
0
 48
0.5
100
AcDbLine
 10
659.7112336253492
 20
446.7456345049859
 30
0.0
 11
663.0112336253493
 21
446.7456345049859
 31
0.0
  0
LINE
  5
10A6
330
2
100
AcDbEntity
  8
HIDS
  6
SEKKEI_H
 48
0.5
100
AcDbLine
 10
667.9254471877236
 20
461.6598480673598
 30
0.0
 11
664.0970200629783
 21
457.8314209426134
 31
0.0
  0
ARC
  5
10A7
330
2
100
AcDbEntity
  8
HIDS
  6
SEKKEI_H
100
AcDbCircle
 10
665.5112336253512
 20
456.4172073802403
 30
0.0
 40
2.0
100
AcDbArc
 50
135.000000000009
 51
180.0
  0
ARC
  5
10A8
330
2
100
AcDbEntity
  8
HIDS
  6
SEKKEI_H
 48
0.5
100
AcDbCircle
 10
666.5112336253498
 20
463.0740616297331
 30
0.0
 40
2.0
100
AcDbArc
 50
314.9999999999728
 51
0.0
  0
ARC
  5
10A9
330
2
100
AcDbEntity
  8
0
 48
0.3
100
AcDbCircle
 10
670.5112336253498
 20
467.1757434058876
 30
0.0
 40
2.0
100
AcDbArc
 50
90.49999999999155
 51
180.0
  0
LINE
  5
10AA
330
2
100
AcDbEntity
  8
0
100
AcDbLine
 10
670.4937805543529
 20
469.175667252016
 30
0.0
 11
678.5112336253498
 21
469.2456345049858
 31
0.0
  0
LINE
  5
10AB
330
2
100
AcDbEntity
  8
0
100
AcDbLine
 10
655.0112336253498
 20
372.3229847741758
 30
0.0
 11
655.0112336253498
 21
409.245634504986
 31
0.0
  0
LINE
  5
10AC
330
2
100
AcDbEntity
  8
0
 48
0.5
100
AcDbLine
 10
663.5112336253499
 20
369.2456345049861
 30
0.0
 11
663.0112336253498
 21
369.7456345049859
 31
0.0
  0
ARC
  5
10AD
330
2
100
AcDbEntity
  8
0
100
AcDbCircle
 10
657.8112336253491
 20
372.1456345049864
 30
0.0
 40
0.3
100
AcDbArc
 50
90.0
 51
180.0
  0
ARC
  5
10AE
330
2
100
AcDbEntity
  8
0
100
AcDbCircle
 10
659.2112336253492
 20
372.1456345049864
 30
0.0
 40
0.3
100
AcDbArc
 50
0.0
 51
90.0
  0
LINE
  5
10AF
330
2
100
AcDbEntity
  8
0
100
AcDbLine
 10
659.5112336253493
 20
371.9456345049863
 30
0.0
 11
659.5112336253493
 21
446.5456345049858
 31
0.0
  0
LINE
  5
10B0
330
2
100
AcDbEntity
  8
0
 48
0.5
100
AcDbLine
 10
659.5112336253493
 20
371.9456345049863
 30
0.0
 11
659.7112336253492
 21
371.7456345049863
 31
0.0
  0
LINE
  5
10B1
330
2
100
AcDbEntity
  8
0
 48
0.5
100
AcDbLine
 10
657.8112336253491
 20
372.4456345049864
 30
0.0
 11
659.2112336253492
 21
372.4456345049864
 31
0.0
  0
LINE
  5
10B2
330
2
100
AcDbEntity
  8
0
100
AcDbLine
 10
656.0112336253494
 20
371.7456345049863
 30
0.0
 11
655.0112336253493
 21
372.3229847741761
 31
0.0
  0
ARC
  5
10B3
330
2
100
AcDbEntity
  8
0
 48
0.5
100
AcDbCircle
 10
657.2112336253492
 20
372.0456345049865
 30
0.0
 40
0.3
100
AcDbArc
 50
270.0
 51
0.0
  0
LINE
  5
10B4
330
2
100
AcDbEntity
  8
0
 48
0.5
100
AcDbLine
 10
656.0112336253489
 20
371.7456345049863
 30
0.0
 11
657.2112336253492
 21
371.7456345049863
 31
0.0
  0
LINE
  5
10B5
330
2
100
AcDbEntity
  8
0
 48
0.5
100
AcDbLine
 10
659.7112336253492
 20
371.7456345049863
 30
0.0
 11
663.0112336253493
 21
371.7456345049863
 31
0.0
  0
LINE
  5
10B6
330
2
100
AcDbEntity
  8
0
100
AcDbLine
 10
678.5112336253498
 20
349.2456345049863
 30
0.0
 11
678.5112336253498
 21
469.2456345049858
 31
0.0
  0
LINE
  5
10B7
330
2
100
AcDbEntity
  8
HIDS
  6
SEKKEI_H
 48
0.5
100
AcDbLine
 10
667.9254471877236
 20
356.8314209426123
 30
0.0
 11
664.0970200629783
 21
360.6598480673588
 31
0.0
  0
ARC
  5
10B8
330
2
100
AcDbEntity
  8
HIDS
  6
SEKKEI_H
100
AcDbCircle
 10
665.5112336253512
 20
362.0740616297319
 30
0.0
 40
2.0
100
AcDbArc
 50
180.0
 51
224.9999999999908
  0
ARC
  5
10B9
330
2
100
AcDbEntity
  8
HIDS
  6
SEKKEI_H
 48
0.5
100
AcDbCircle
 10
666.5112336253498
 20
355.417207380239
 30
0.0
 40
2.0
100
AcDbArc
 50
0.0
 51
45.00000000002713
  0
ARC
  5
10BA
330
2
100
AcDbEntity
  8
0
 48
0.3
100
AcDbCircle
 10
670.5112336253498
 20
351.3155256040846
 30
0.0
 40
2.0
100
AcDbArc
 50
180.0
 51
269.5000000000084
  0
LINE
  5
10BB
330
2
100
AcDbEntity
  8
0
100
AcDbLine
 10
670.4937805543529
 20
349.3156017579562
 30
0.0
 11
678.5112336253498
 21
349.2456345049863
 31
0.0
  0
LINE
  5
10BC
330
2
100
AcDbEntity
  8
0
100
AcDbLine
 10
656.0112336253489
 20
446.7456345049859
 30
0.0
 11
656.0112336253494
 21
371.7456345049863
 31
0.0
  0
LINE
  5
10BD
330
2
100
AcDbEntity
  8
0
100
AcDbLine
 10
659.7112336253492
 20
446.7456345049859
 30
0.0
 11
659.7112336253492
 21
371.7456345049863
 31
0.0
  0
LINE
  5
10BE
330
2
100
AcDbEntity
  8
0
100
AcDbLine
 10
663.0112336253498
 20
448.7456345049863
 30
0.0
 11
663.0112336253498
 21
369.7456345049861
 31
0.0
  0
LINE
  5
10BF
330
2
100
AcDbEntity
  8
0
100
AcDbLine
 10
715.0112336253485
 20
348.7456345049862
 30
0.0
 11
664.9279031853859
 21
349.1629955919892
 31
0.0
  0
ARC
  5
10C0
330
2
100
AcDbEntity
  8
0
100
AcDbCircle
 10
665.0112336253521
 20
359.1626483878505
 30
0.0
 40
10.0
100
AcDbArc
 50
180.0
 51
269.5225462226892
  0
LINE
  5
10C1
330
2
100
AcDbEntity
  8
0
100
AcDbLine
 10
655.0112336253521
 20
359.1626483878505
 30
0.0
 11
655.0112336253521
 21
459.328620622122
 31
0.0
  0
LINE
  5
10C2
330
2
100
AcDbEntity
  8
0
100
AcDbLine
 10
715.0112336253485
 20
348.7456345049862
 30
0.0
 11
765.0945640653105
 21
349.1629955919894
 31
0.0
  0
ARC
  5
10C3
330
2
100
AcDbEntity
  8
0
100
AcDbCircle
 10
765.0112336253449
 20
359.1626483878507
 30
0.0
 40
10.0
100
AcDbArc
 50
270.4774537773107
 51
294.188568807211
  0
LINE
  5
10C4
330
2
100
AcDbEntity
  8
0
100
AcDbLine
 10
715.0112336253485
 20
469.7456345049862
 30
0.0
 11
664.9279031853859
 21
469.3282734179832
 31
0.0
  0
ARC
  5
10C5
330
2
100
AcDbEntity
  8
0
100
AcDbCircle
 10
665.0112336253521
 20
459.328620622122
 30
0.0
 40
10.0
100
AcDbArc
 50
90.47745377731077
 51
180.0
  0
LINE
  5
10C6
330
2
100
AcDbEntity
  8
0
100
AcDbLine
 10
715.0112336253485
 20
469.7456345049862
 30
0.0
 11
765.0945640653105
 21
469.3282734179832
 31
0.0
  0
ARC
  5
10C7
330
2
100
AcDbEntity
  8
0
100
AcDbCircle
 10
765.0112336253449
 20
459.328620622122
 30
0.0
 40
10.0
100
AcDbArc
 50
65.81143119278873
 51
89.52254622268922
  0
LINE
  5
10C8
330
2
100
AcDbEntity
  8
0
100
AcDbLine
 10
1007.419171748529
 20
758.2425856632466
 30
0.0
 11
1007.34920449556
 21
766.2600387342431
 31
0.0
  0
ARC
  5
10C9
330
2
100
AcDbEntity
  8
0
100
AcDbCircle
 10
1005.349280649432
 20
766.2425856632465
 30
0.0
 40
2.0
100
AcDbArc
 50
0.499999999998063
 51
90.0
  0
LINE
  5
10CA
330
2
100
AcDbEntity
  8
0
100
AcDbLine
 10
984.9818214793401
 20
781.7425856632467
 30
0.0
 11
948.0591717485296
 21
781.7425856632467
 31
0.0
  0
LINE
  5
10CB
330
2
100
AcDbEntity
  8
0
 48
0.5
100
AcDbLine
 10
988.0591717485296
 20
773.2425856632467
 30
0.0
 11
987.5591717485301
 21
773.7425856632466
 31
0.0
  0
LINE
  5
10CC
330
2
100
AcDbEntity
  8
0
100
AcDbLine
 10
904.5591717485297
 20
773.2425856632452
 30
0.0
 11
991.5591717485296
 21
773.2425856632464
 31
0.0
  0
ARC
  5
10CD
330
2
100
AcDbEntity
  8
0
100
AcDbCircle
 10
985.1591717485296
 20
778.9425856632472
 30
0.0
 40
0.3
100
AcDbArc
 50
90.0
 51
180.0
  0
ARC
  5
10CE
330
2
100
AcDbEntity
  8
0
100
AcDbCircle
 10
985.1591717485296
 20
777.5425856632472
 30
0.0
 40
0.3
100
AcDbArc
 50
180.0
 51
270.0
  0
LINE
  5
10CF
330
2
100
AcDbEntity
  8
0
 48
0.5
100
AcDbLine
 10
985.3591717485299
 20
777.2425856632471
 30
0.0
 11
985.5591717485296
 21
777.0425856632471
 31
0.0
  0
LINE
  5
10D0
330
2
100
AcDbEntity
  8
0
 48
0.5
100
AcDbLine
 10
984.8591717485298
 20
778.9425856632472
 30
0.0
 11
984.8591717485298
 21
777.5425856632472
 31
0.0
  0
LINE
  5
10D1
330
2
100
AcDbEntity
  8
0
100
AcDbLine
 10
985.5591717485296
 20
780.7425856632471
 30
0.0
 11
984.9818214793398
 21
781.7425856632471
 31
0.0
  0
LINE
  5
10D2
330
2
100
AcDbEntity
  8
0
100
AcDbLine
 10
985.2591717485294
 20
779.2425856632471
 30
0.0
 11
910.8591717485303
 21
779.2425856632473
 31
0.0
  0
ARC
  5
10D3
330
2
100
AcDbEntity
  8
0
 48
0.5
100
AcDbCircle
 10
985.2591717485294
 20
779.5425856632472
 30
0.0
 40
0.3
100
AcDbArc
 50
270.0
 51
0.0
  0
LINE
  5
10D4
330
2
100
AcDbEntity
  8
0
 48
0.5
100
AcDbLine
 10
985.5591717485296
 20
780.7425856632472
 30
0.0
 11
985.5591717485296
 21
779.5425856632472
 31
0.0
  0
LINE
  5
10D5
330
2
100
AcDbEntity
  8
0
 48
0.5
100
AcDbLine
 10
985.5591717485296
 20
777.0425856632471
 30
0.0
 11
985.5591717485296
 21
773.7425856632471
 31
0.0
  0
LINE
  5
10D6
330
2
100
AcDbEntity
  8
HIDS
  6
SEKKEI_H
 48
0.5
100
AcDbLine
 10
1000.473385310904
 20
768.8283721008728
 30
0.0
 11
996.6449581861573
 21
772.6567992256182
 31
0.0
  0
ARC
  5
10D7
330
2
100
AcDbEntity
  8
HIDS
  6
SEKKEI_H
100
AcDbCircle
 10
995.2307446237838
 20
771.242585663245
 30
0.0
 40
2.0
100
AcDbArc
 50
44.99999999999073
 51
90.0
  0
ARC
  5
10D8
330
2
100
AcDbEntity
  8
HIDS
  6
SEKKEI_H
 48
0.5
100
AcDbCircle
 10
1001.887598873277
 20
770.2425856632465
 30
0.0
 40
2.0
100
AcDbArc
 50
224.9999999999895
 51
270.0
  0
LINE
  5
10D9
330
2
100
AcDbEntity
  8
0
100
AcDbLine
 10
911.1365220177196
 20
781.7425856632467
 30
0.0
 11
948.0591717485296
 21
781.7425856632467
 31
0.0
  0
LINE
  5
10DA
330
2
100
AcDbEntity
  8
0
 48
0.5
100
AcDbLine
 10
908.0591717485297
 20
773.2425856632467
 30
0.0
 11
908.5591717485296
 21
773.7425856632466
 31
0.0
  0
ARC
  5
10DB
330
2
100
AcDbEntity
  8
0
100
AcDbCircle
 10
910.9591717485303
 20
778.9425856632472
 30
0.0
 40
0.3
100
AcDbArc
 50
0.0
 51
90.0
  0
ARC
  5
10DC
330
2
100
AcDbEntity
  8
0
100
AcDbCircle
 10
910.9591717485303
 20
777.5425856632472
 30
0.0
 40
0.3
100
AcDbArc
 50
270.0
 51
0.0
  0
LINE
  5
10DD
330
2
100
AcDbEntity
  8
0
100
AcDbLine
 10
910.7591717485304
 20
777.2425856632471
 30
0.0
 11
985.3591717485299
 21
777.2425856632471
 31
0.0
  0
LINE
  5
10DE
330
2
100
AcDbEntity
  8
0
 48
0.5
100
AcDbLine
 10
910.7591717485304
 20
777.2425856632471
 30
0.0
 11
910.5591717485301
 21
777.0425856632471
 31
0.0
  0
LINE
  5
10DF
330
2
100
AcDbEntity
  8
0
 48
0.5
100
AcDbLine
 10
911.2591717485305
 20
778.9425856632472
 30
0.0
 11
911.2591717485305
 21
777.5425856632472
 31
0.0
  0
LINE
  5
10E0
330
2
100
AcDbEntity
  8
0
100
AcDbLine
 10
910.5591717485301
 20
780.7425856632471
 30
0.0
 11
911.1365220177196
 21
781.7425856632471
 31
0.0
  0
ARC
  5
10E1
330
2
100
AcDbEntity
  8
0
 48
0.5
100
AcDbCircle
 10
910.8591717485303
 20
779.5425856632472
 30
0.0
 40
0.3
100
AcDbArc
 50
180.0
 51
270.0
  0
LINE
  5
10E2
330
2
100
AcDbEntity
  8
0
 48
0.5
100
AcDbLine
 10
910.5591717485301
 20
780.7425856632472
 30
0.0
 11
910.5591717485301
 21
779.5425856632472
 31
0.0
  0
LINE
  5
10E3
330
2
100
AcDbEntity
  8
0
 48
0.5
100
AcDbLine
 10
910.5591717485301
 20
777.0425856632471
 30
0.0
 11
910.5591717485301
 21
773.7425856632471
 31
0.0
  0
LINE
  5
10E4
330
2
100
AcDbEntity
  8
0
 48
0.3
100
AcDbLine
 10
890.0591717485307
 20
768.2425856632464
 30
0.0
 11
1005.349280649432
 21
768.2425856632464
 31
0.0
  0
LINE
  5
10E5
330
2
100
AcDbEntity
  8
0
100
AcDbLine
 10
888.0591717485302
 20
758.2425856632466
 30
0.0
 11
1007.419171748529
 21
758.2425856632466
 31
0.0
  0
LINE
  5
10E6
330
2
100
AcDbEntity
  8
HIDS
  6
SEKKEI_H
 48
0.5
100
AcDbLine
 10
895.6449581861564
 20
768.8283721008728
 30
0.0
 11
899.4733853109025
 21
772.6567992256182
 31
0.0
  0
ARC
  5
10E7
330
2
100
AcDbEntity
  8
HIDS
  6
SEKKEI_H
100
AcDbCircle
 10
900.8875988732754
 20
771.242585663245
 30
0.0
 40
2.0
100
AcDbArc
 50
90.0
 51
135.0000000000092
  0
ARC
  5
10E8
330
2
100
AcDbEntity
  8
HIDS
  6
SEKKEI_H
 48
0.5
100
AcDbCircle
 10
894.230744623783
 20
770.2425856632465
 30
0.0
 40
2.0
100
AcDbArc
 50
270.0
 51
315.0000000000104
  0
ARC
  5
10E9
330
2
100
AcDbEntity
  8
0
 48
0.3
100
AcDbCircle
 10
890.1290628476283
 20
766.2425856632465
 30
0.0
 40
2.0
100
AcDbArc
 50
90.0
 51
179.4999999999954
  0
LINE
  5
10EA
330
2
100
AcDbEntity
  8
0
100
AcDbLine
 10
888.1291390015
 20
766.2600387342433
 30
0.0
 11
888.0591717485302
 21
758.2425856632466
 31
0.0
  0
LINE
  5
10EB
330
2
100
AcDbEntity
  8
0
100
AcDbLine
 10
985.5591717485296
 20
780.7425856632472
 30
0.0
 11
910.5591717485301
 21
780.7425856632471
 31
0.0
  0
LINE
  5
10EC
330
2
100
AcDbEntity
  8
0
100
AcDbLine
 10
985.5591717485296
 20
777.0425856632471
 30
0.0
 11
910.5591717485301
 21
777.0425856632471
 31
0.0
  0
LINE
  5
10ED
330
2
100
AcDbEntity
  8
0
100
AcDbLine
 10
987.5591717485301
 20
773.7425856632466
 30
0.0
 11
908.5591717485296
 21
773.7425856632467
 31
0.0
  0
LINE
  5
10EE
330
2
100
AcDbEntity
  8
0
100
AcDbLine
 10
670.0112336253498
 20
459.2456345049876
 30
0.0
 11
678.5112336253498
 21
459.2456345049876
 31
0.0
  0
LINE
  5
10EF
330
2
100
AcDbEntity
  8
0
100
AcDbLine
 10
670.0112336253498
 20
449.2456345049836
 30
0.0
 11
678.5112336253507
 21
449.2456345049836
 31
0.0
  0
LINE
  5
10F0
330
2
100
AcDbEntity
  8
0
100
AcDbLine
 10
670.0112336253498
 20
429.2442428183997
 30
0.0
 11
678.5112336253503
 21
429.2442428183997
 31
0.0
  0
LINE
  5
10F1
330
2
100
AcDbEntity
  8
0
100
AcDbLine
 10
670.0112336253498
 20
389.2470261915698
 30
0.0
 11
678.5112336253494
 21
389.2470261915698
 31
0.0
  0
LINE
  5
10F2
330
2
100
AcDbEntity
  8
0
100
AcDbLine
 10
670.0112336253498
 20
369.2456345049881
 30
0.0
 11
678.5112336253485
 21
369.2456345049882
 31
0.0
  0
LINE
  5
10F3
330
2
100
AcDbEntity
  8
0
100
AcDbLine
 10
670.0112336253498
 20
359.2456345049868
 30
0.0
 11
678.5112336253485
 21
359.2456345049868
 31
0.0
  0
LINE
  5
10F4
330
2
100
AcDbEntity
  8
0
100
AcDbLine
 10
898.0591717485307
 20
766.7425856632465
 30
0.0
 11
898.0591717485307
 21
758.2425856632478
 31
0.0
  0
LINE
  5
10F5
330
2
100
AcDbEntity
  8
0
100
AcDbLine
 10
908.0591717485319
 20
766.7425856632465
 30
0.0
 11
908.0591717485319
 21
758.2425856632475
 31
0.0
  0
LINE
  5
10F6
330
2
100
AcDbEntity
  8
0
100
AcDbLine
 10
928.0605634351134
 20
766.7425856632465
 30
0.0
 11
928.0605634351134
 21
758.242585663247
 31
0.0
  0
LINE
  5
10F7
330
2
100
AcDbEntity
  8
0
100
AcDbLine
 10
968.0577800619433
 20
766.7425856632465
 30
0.0
 11
968.0577800619433
 21
758.2425856632458
 31
0.0
  0
LINE
  5
10F8
330
2
100
AcDbEntity
  8
0
100
AcDbLine
 10
988.0591717485273
 20
766.7425856632465
 30
0.0
 11
988.0591717485273
 21
758.2425856632453
 31
0.0
  0
LINE
  5
10F9
330
2
100
AcDbEntity
  8
0
100
AcDbLine
 10
998.0591717485316
 20
766.7425856632465
 30
0.0
 11
998.0591717485316
 21
758.242585663245
 31
0.0
  0
LINE
  5
10FA
330
2
100
AcDbEntity
  8
0
 48
0.3
100
AcDbLine
 10
904.5591717485297
 20
777.7425856632464
 30
0.0
 11
891.5591717485296
 21
777.7425856632464
 31
0.0
  0
LINE
  5
10FB
330
2
100
AcDbEntity
  8
0
 48
0.3
100
AcDbLine
 10
903.6931463447437
 20
778.2425856632465
 30
0.0
 11
892.4251971523146
 21
778.2425856632465
 31
0.0
  0
LINE
  5
10FC
330
2
100
AcDbEntity
  8
0
 48
0.3
100
AcDbLine
 10
891.5591717485296
 20
777.7425856632464
 30
0.0
 11
892.4251971523146
 21
778.2425856632465
 31
0.0
  0
LINE
  5
10FD
330
2
100
AcDbEntity
  8
0
 48
0.3
100
AcDbLine
 10
891.5591717485296
 20
777.7425856632464
 30
0.0
 11
891.5591717485296
 21
770.2425856632465
 31
0.0
  0
LINE
  5
10FE
330
2
100
AcDbEntity
  8
0
 48
0.3
100
AcDbLine
 10
904.5591717485297
 20
777.7425856632458
 30
0.0
 11
903.6931463447452
 21
778.242585663246
 31
0.0
  0
LINE
  5
10FF
330
2
100
AcDbEntity
  8
0
 48
0.3
100
AcDbLine
 10
904.5591717485297
 20
777.7425856632455
 30
0.0
 11
904.5591717485297
 21
770.2425856632465
 31
0.0
  0
LINE
  5
1100
330
2
100
AcDbEntity
  8
0
 48
0.3
100
AcDbLine
 10
1004.559171748529
 20
777.7425856632464
 30
0.0
 11
991.5591717485296
 21
777.7425856632464
 31
0.0
  0
LINE
  5
1101
330
2
100
AcDbEntity
  8
0
 48
0.3
100
AcDbLine
 10
1003.693146344743
 20
778.2425856632465
 30
0.0
 11
992.4251971523146
 21
778.2425856632465
 31
0.0
  0
LINE
  5
1102
330
2
100
AcDbEntity
  8
0
 48
0.3
100
AcDbLine
 10
991.5591717485296
 20
777.7425856632464
 30
0.0
 11
992.4251971523146
 21
778.2425856632465
 31
0.0
  0
LINE
  5
1103
330
2
100
AcDbEntity
  8
0
 48
0.3
100
AcDbLine
 10
991.5591717485296
 20
777.7425856632464
 30
0.0
 11
991.5591717485296
 21
770.2425856632465
 31
0.0
  0
LINE
  5
1104
330
2
100
AcDbEntity
  8
0
 48
0.3
100
AcDbLine
 10
1004.559171748529
 20
777.7425856632458
 30
0.0
 11
1003.693146344745
 21
778.242585663246
 31
0.0
  0
LINE
  5
1105
330
2
100
AcDbEntity
  8
0
 48
0.3
100
AcDbLine
 10
1004.559171748529
 20
777.7425856632455
 30
0.0
 11
1004.559171748529
 21
770.2425856632465
 31
0.0
  0
LINE
  5
1106
330
2
100
AcDbEntity
  8
CENTER
 48
0.5
100
AcDbLine
 10
898.0591717485296
 20
781.2425856632464
 30
0.0
 11
898.0591717485296
 21
762.2425856632465
 31
0.0
  0
LINE
  5
1107
330
2
100
AcDbEntity
  8
CENTER
 48
0.5
100
AcDbLine
 10
998.0591717485296
 20
781.2425856632464
 30
0.0
 11
998.0591717485296
 21
762.2425856632465
 31
0.0
  0
LINE
  5
1108
330
2
100
AcDbEntity
  8
0
 48
0.3
100
AcDbLine
 10
659.0112336253498
 20
465.7456345049861
 30
0.0
 11
659.0112336253498
 21
452.7456345049861
 31
0.0
  0
LINE
  5
1109
330
2
100
AcDbEntity
  8
0
 48
0.3
100
AcDbLine
 10
658.5112336253498
 20
464.8796091012002
 30
0.0
 11
658.5112336253498
 21
453.6116599087706
 31
0.0
  0
LINE
  5
110A
330
2
100
AcDbEntity
  8
CENTER
 48
0.5
100
AcDbLine
 10
655.5112336253499
 20
459.245634504986
 30
0.0
 11
674.5112336253498
 21
459.245634504986
 31
0.0
  0
LINE
  5
110B
330
2
100
AcDbEntity
  8
0
 48
0.3
100
AcDbLine
 10
659.0112336253498
 20
452.7456345049861
 30
0.0
 11
658.5112336253498
 21
453.6116599087706
 31
0.0
  0
LINE
  5
110C
330
2
100
AcDbEntity
  8
0
 48
0.3
100
AcDbLine
 10
659.0112336253498
 20
452.7456345049861
 30
0.0
 11
666.5112336253498
 21
452.7456345049861
 31
0.0
  0
LINE
  5
110D
330
2
100
AcDbEntity
  8
0
 48
0.3
100
AcDbLine
 10
659.0112336253503
 20
465.7456345049856
 30
0.0
 11
658.5112336253502
 21
464.8796091012013
 31
0.0
  0
LINE
  5
110E
330
2
100
AcDbEntity
  8
0
 48
0.3
100
AcDbLine
 10
659.0112336253508
 20
465.7456345049861
 30
0.0
 11
666.5112336253498
 21
465.7456345049861
 31
0.0
  0
LINE
  5
110F
330
2
100
AcDbEntity
  8
0
 48
0.3
100
AcDbLine
 10
659.0112336253498
 20
365.7456345049861
 30
0.0
 11
659.0112336253498
 21
352.7456345049861
 31
0.0
  0
LINE
  5
1110
330
2
100
AcDbEntity
  8
0
 48
0.3
100
AcDbLine
 10
658.5112336253498
 20
364.8796091012002
 30
0.0
 11
658.5112336253498
 21
353.6116599087706
 31
0.0
  0
LINE
  5
1111
330
2
100
AcDbEntity
  8
CENTER
 48
0.5
100
AcDbLine
 10
655.5112336253499
 20
359.2456345049861
 30
0.0
 11
674.5112336253498
 21
359.2456345049861
 31
0.0
  0
LINE
  5
1112
330
2
100
AcDbEntity
  8
0
 48
0.3
100
AcDbLine
 10
659.0112336253498
 20
352.7456345049861
 30
0.0
 11
658.5112336253498
 21
353.6116599087706
 31
0.0
  0
LINE
  5
1113
330
2
100
AcDbEntity
  8
0
 48
0.3
100
AcDbLine
 10
659.0112336253498
 20
352.7456345049861
 30
0.0
 11
666.5112336253498
 21
352.7456345049861
 31
0.0
  0
LINE
  5
1114
330
2
100
AcDbEntity
  8
0
 48
0.3
100
AcDbLine
 10
659.0112336253503
 20
365.7456345049856
 30
0.0
 11
658.5112336253502
 21
364.8796091012013
 31
0.0
  0
LINE
  5
1115
330
2
100
AcDbEntity
  8
0
 48
0.3
100
AcDbLine
 10
659.0112336253508
 20
365.7456345049861
 30
0.0
 11
666.5112336253498
 21
365.7456345049861
 31
0.0
  0
LINE
  5
1118
330
2
100
AcDbEntity
  8
HIDS
  6
SEKKEI_H
100
AcDbLine
 10
663.5112336253512
 20
456.4172073802403
 30
0.0
 11
663.5112336253499
 21
452.7456345049861
 31
0.0
  0
LINE
  5
1119
330
2
100
AcDbEntity
  8
HIDS
  6
SEKKEI_H
100
AcDbLine
 10
663.5112336253512
 20
365.7456345049861
 30
0.0
 11
663.5112336253512
 21
362.0740616297319
 31
0.0
  0
LINE
  5
111A
330
2
100
AcDbEntity
  8
HIDS
  6
SEKKEI_H
100
AcDbLine
 10
900.8875988732754
 20
773.2425856632451
 30
0.0
 11
904.5591717485297
 21
773.2425856632452
 31
0.0
  0
LINE
  5
111B
330
2
100
AcDbEntity
  8
HIDS
  6
SEKKEI_H
100
AcDbLine
 10
991.5591717485296
 20
773.2425856632464
 30
0.0
 11
995.2307446237838
 21
773.2425856632451
 31
0.0
  0
LINE
  5
1120
330
2
100
AcDbEntity
  8
0
100
AcDbLine
 10
568.8629198944256
 20
455.7815328897379
 30
0.0
 11
571.8629198944256
 21
457.5135836973068
 31
0.0
  0
LINE
  5
1121
330
2
100
AcDbEntity
  8
0
100
AcDbLine
 10
565.8629198944256
 20
460.9776853124444
 30
0.0
 11
568.8629198944256
 21
462.7097361200133
 31
0.0
  0
CIRCLE
  5
1122
330
2
100
AcDbEntity
  8
0
100
AcDbCircle
 10
568.8629198944256
 20
459.2456345048756
 30
0.0
 40
6.5
  0
LINE
  5
1123
330
2
100
AcDbEntity
  8
0
100
AcDbLine
 10
571.8629198944256
 20
460.9776853124444
 30
0.0
 11
568.8629198944256
 21
462.7097361200132
 31
0.0
  0
LINE
  5
1124
330
2
100
AcDbEntity
  8
0
100
AcDbLine
 10
568.8629198944256
 20
455.781532889738
 30
0.0
 11
565.8629198944256
 21
457.5135836973067
 31
0.0
  0
LINE
  5
1125
330
2
100
AcDbEntity
  8
0
100
AcDbLine
 10
571.8629198944256
 20
457.5135836973069
 30
0.0
 11
571.8629198944256
 21
460.9776853124444
 31
0.0
  0
LINE
  5
1126
330
2
100
AcDbEntity
  8
0
100
AcDbLine
 10
565.8629198944256
 20
457.5135836973066
 30
0.0
 11
565.8629198944256
 21
460.9776853124444
 31
0.0
  0
CIRCLE
  5
1127
330
2
100
AcDbEntity
  8
0
100
AcDbCircle
 10
568.8629198944256
 20
459.2456345048756
 30
0.0
 40
5.633974596215466
  0
CIRCLE
  5
1128
330
2
100
AcDbEntity
  8
0
100
AcDbCircle
 10
568.8629198944256
 20
459.2456345048756
 30
0.0
 40
7.25
  0
LINE
  5
1129
330
2
100
AcDbEntity
  8
0
100
AcDbLine
 10
468.8629198944256
 20
455.7815328898305
 30
0.0
 11
471.8629198944256
 21
457.5135836973995
 31
0.0
  0
LINE
  5
112A
330
2
100
AcDbEntity
  8
0
100
AcDbLine
 10
465.8629198944256
 20
460.977685312537
 30
0.0
 11
468.8629198944256
 21
462.709736120106
 31
0.0
  0
CIRCLE
  5
112B
330
2
100
AcDbEntity
  8
0
100
AcDbCircle
 10
468.8629198944256
 20
459.2456345049682
 30
0.0
 40
6.5
  0
LINE
  5
112C
330
2
100
AcDbEntity
  8
0
100
AcDbLine
 10
471.8629198944256
 20
460.977685312537
 30
0.0
 11
468.8629198944256
 21
462.7097361201059
 31
0.0
  0
LINE
  5
112D
330
2
100
AcDbEntity
  8
0
100
AcDbLine
 10
468.8629198944256
 20
455.7815328898306
 30
0.0
 11
465.8629198944256
 21
457.5135836973993
 31
0.0
  0
LINE
  5
112E
330
2
100
AcDbEntity
  8
0
100
AcDbLine
 10
471.8629198944256
 20
457.5135836973996
 30
0.0
 11
471.8629198944256
 21
460.9776853125372
 31
0.0
  0
LINE
  5
112F
330
2
100
AcDbEntity
  8
0
100
AcDbLine
 10
465.8629198944256
 20
457.5135836973992
 30
0.0
 11
465.8629198944256
 21
460.977685312537
 31
0.0
  0
CIRCLE
  5
1130
330
2
100
AcDbEntity
  8
0
100
AcDbCircle
 10
468.8629198944256
 20
459.2456345049682
 30
0.0
 40
5.633974596215466
  0
CIRCLE
  5
1131
330
2
100
AcDbEntity
  8
0
100
AcDbCircle
 10
468.8629198944256
 20
459.2456345049682
 30
0.0
 40
7.25
  0
LINE
  5
1132
330
2
100
AcDbEntity
  8
0
100
AcDbLine
 10
468.8629198943333
 20
355.7815328898943
 30
0.0
 11
471.8629198943329
 21
357.5135836974633
 31
0.0
  0
LINE
  5
1133
330
2
100
AcDbEntity
  8
0
100
AcDbLine
 10
465.8629198943333
 20
360.9776853126009
 30
0.0
 11
468.8629198943333
 21
362.7097361201698
 31
0.0
  0
CIRCLE
  5
1134
330
2
100
AcDbEntity
  8
0
100
AcDbCircle
 10
468.8629198943333
 20
359.245634505032
 30
0.0
 40
6.5
  0
LINE
  5
1135
330
2
100
AcDbEntity
  8
0
100
AcDbLine
 10
471.8629198943329
 20
360.9776853126009
 30
0.0
 11
468.8629198943333
 21
362.7097361201697
 31
0.0
  0
LINE
  5
1136
330
2
100
AcDbEntity
  8
0
100
AcDbLine
 10
468.8629198943333
 20
355.7815328898945
 30
0.0
 11
465.8629198943333
 21
357.5135836974632
 31
0.0
  0
LINE
  5
1137
330
2
100
AcDbEntity
  8
0
100
AcDbLine
 10
471.8629198943329
 20
357.5135836974634
 30
0.0
 11
471.8629198943329
 21
360.977685312601
 31
0.0
  0
LINE
  5
1138
330
2
100
AcDbEntity
  8
0
100
AcDbLine
 10
465.8629198943333
 20
357.5135836974631
 30
0.0
 11
465.8629198943333
 21
360.9776853126009
 31
0.0
  0
CIRCLE
  5
1139
330
2
100
AcDbEntity
  8
0
100
AcDbCircle
 10
468.8629198943333
 20
359.245634505032
 30
0.0
 40
5.633974596215466
  0
CIRCLE
  5
113A
330
2
100
AcDbEntity
  8
0
100
AcDbCircle
 10
468.8629198943333
 20
359.245634505032
 30
0.0
 40
7.25
  0
LINE
  5
113B
330
2
100
AcDbEntity
  8
0
100
AcDbLine
 10
568.8629198944024
 20
355.7815328897377
 30
0.0
 11
571.862919894402
 21
357.5135836973067
 31
0.0
  0
LINE
  5
113C
330
2
100
AcDbEntity
  8
0
100
AcDbLine
 10
565.8629198944025
 20
360.9776853124443
 30
0.0
 11
568.8629198944024
 21
362.7097361200132
 31
0.0
  0
CIRCLE
  5
113D
330
2
100
AcDbEntity
  8
0
100
AcDbCircle
 10
568.8629198944024
 20
359.2456345048754
 30
0.0
 40
6.5
  0
LINE
  5
113E
330
2
100
AcDbEntity
  8
0
100
AcDbLine
 10
571.862919894402
 20
360.9776853124443
 30
0.0
 11
568.8629198944024
 21
362.7097361200131
 31
0.0
  0
LINE
  5
113F
330
2
100
AcDbEntity
  8
0
100
AcDbLine
 10
568.8629198944024
 20
355.7815328897378
 30
0.0
 11
565.8629198944025
 21
357.5135836973066
 31
0.0
  0
LINE
  5
1140
330
2
100
AcDbEntity
  8
0
100
AcDbLine
 10
571.862919894402
 20
357.5135836973068
 30
0.0
 11
571.862919894402
 21
360.9776853124444
 31
0.0
  0
LINE
  5
1141
330
2
100
AcDbEntity
  8
0
100
AcDbLine
 10
565.8629198944025
 20
357.5135836973065
 30
0.0
 11
565.8629198944025
 21
360.9776853124443
 31
0.0
  0
CIRCLE
  5
1142
330
2
100
AcDbEntity
  8
0
100
AcDbCircle
 10
568.8629198944024
 20
359.2456345048754
 30
0.0
 40
5.633974596215466
  0
CIRCLE
  5
1143
330
2
100
AcDbEntity
  8
0
100
AcDbCircle
 10
568.8629198944024
 20
359.2456345048754
 30
0.0
 40
7.25
  0
LINE
  5
1144
330
2
100
AcDbEntity
  8
0
 48
0.3
100
AcDbLine
 10
668.5112336253498
 20
451.9956345049861
 30
0.0
 11
668.5112336253498
 21
466.4956345049861
 31
0.0
  0
LINE
  5
1145
330
2
100
AcDbEntity
  8
0
 48
0.3
100
AcDbLine
 10
668.5112336253498
 20
466.4956345049861
 30
0.0
 11
666.5112336253498
 21
466.4956345049861
 31
0.0
  0
LINE
  5
1146
330
2
100
AcDbEntity
  8
0
 48
0.3
100
AcDbLine
 10
668.5112336253498
 20
451.9956345049861
 30
0.0
 11
666.5112336253498
 21
451.9956345049861
 31
0.0
  0
LINE
  5
1147
330
2
100
AcDbEntity
  8
0
100
AcDbLine
 10
666.5112336253498
 20
451.9956345049861
 30
0.0
 11
666.5112336253498
 21
466.4956345049861
 31
0.0
  0
LINE
  5
1148
330
2
100
AcDbEntity
  8
0
 48
0.3
100
AcDbLine
 10
668.5112336253498
 20
351.9956345049861
 30
0.0
 11
668.5112336253498
 21
366.4956345049861
 31
0.0
  0
LINE
  5
1149
330
2
100
AcDbEntity
  8
0
 48
0.3
100
AcDbLine
 10
668.5112336253498
 20
366.4956345049861
 30
0.0
 11
666.5112336253498
 21
366.4956345049861
 31
0.0
  0
LINE
  5
114A
330
2
100
AcDbEntity
  8
0
 48
0.3
100
AcDbLine
 10
668.5112336253498
 20
351.9956345049861
 30
0.0
 11
666.5112336253498
 21
351.9956345049861
 31
0.0
  0
LINE
  5
114B
330
2
100
AcDbEntity
  8
0
100
AcDbLine
 10
666.5112336253498
 20
351.9956345049861
 30
0.0
 11
666.5112336253498
 21
366.4956345049861
 31
0.0
  0
LINE
  5
114C
330
2
100
AcDbEntity
  8
0
 48
0.3
100
AcDbLine
 10
905.3091717485298
 20
770.2425856632466
 30
0.0
 11
890.8091717485296
 21
770.2425856632465
 31
0.0
  0
LINE
  5
114D
330
2
100
AcDbEntity
  8
0
 48
0.3
100
AcDbLine
 10
890.8091717485296
 20
770.2425856632465
 30
0.0
 11
890.8091717485296
 21
768.2425856632464
 31
0.0
  0
LINE
  5
114E
330
2
100
AcDbEntity
  8
0
 48
0.3
100
AcDbLine
 10
905.3091717485298
 20
770.2425856632466
 30
0.0
 11
905.3091717485298
 21
768.2425856632465
 31
0.0
  0
LINE
  5
114F
330
2
100
AcDbEntity
  8
0
100
AcDbLine
 10
905.3091717485298
 20
768.2425856632465
 30
0.0
 11
890.8091717485296
 21
768.2425856632464
 31
0.0
  0
LINE
  5
1150
330
2
100
AcDbEntity
  8
0
 48
0.3
100
AcDbLine
 10
1005.309171748529
 20
770.2425856632466
 30
0.0
 11
990.8091717485296
 21
770.2425856632465
 31
0.0
  0
LINE
  5
1151
330
2
100
AcDbEntity
  8
0
 48
0.3
100
AcDbLine
 10
990.8091717485296
 20
770.2425856632465
 30
0.0
 11
990.8091717485296
 21
768.2425856632464
 31
0.0
  0
LINE
  5
1152
330
2
100
AcDbEntity
  8
0
 48
0.3
100
AcDbLine
 10
1005.309171748529
 20
770.2425856632466
 30
0.0
 11
1005.309171748529
 21
768.2425856632465
 31
0.0
  0
LINE
  5
1153
330
2
100
AcDbEntity
  8
0
100
AcDbLine
 10
1005.309171748529
 20
768.2425856632465
 30
0.0
 11
990.8091717485296
 21
768.2425856632464
 31
0.0
  0
LINE
  5
1154
330
2
100
AcDbEntity
  8
0
 48
0.3
100
AcDbLine
 10
668.5112336253498
 20
351.3155256040846
 30
0.0
 11
668.5112336253521
 21
467.1757434058876
 31
0.0
  0
LINE
  5
1155
330
2
100
AcDbEntity
  8
0
100
AcDbLine
 10
782.0112336253512
 20
350.1532287552251
 30
0.0
 11
678.511233625348
 21
349.2499979388817
 31
0.0
  0
LINE
  5
1156
330
2
100
AcDbEntity
  8
0
100
AcDbLine
 10
782.0112336253512
 20
468.3380402547469
 30
0.0
 11
678.511233625348
 21
469.2412710710905
 31
0.0
  0
LINE
  5
1157
330
2
100
AcDbEntity
  8
CENTER
100
AcDbLine
 10
558.883420909013
 20
459.2456345048847
 30
0.0
 11
578.8424188798524
 21
459.2456345048661
 31
0.0
  0
LINE
  5
1158
330
2
100
AcDbEntity
  8
CENTER
100
AcDbLine
 10
568.8629198944165
 20
449.2661355194557
 30
0.0
 11
568.8629198944352
 21
469.2251334902953
 31
0.0
  0
LINE
  5
1159
330
2
100
AcDbEntity
  8
CENTER
100
AcDbLine
 10
558.8834209089894
 20
359.2456345048846
 30
0.0
 11
578.8424188798287
 21
359.245634504866
 31
0.0
  0
LINE
  5
115A
330
2
100
AcDbEntity
  8
CENTER
100
AcDbLine
 10
568.8629198943929
 20
349.2661355194556
 30
0.0
 11
568.8629198944116
 21
369.2251334902951
 31
0.0
  0
LINE
  5
115B
330
2
100
AcDbEntity
  8
CENTER
100
AcDbLine
 10
458.8834209089202
 20
359.2456345050412
 30
0.0
 11
478.8424188797596
 21
359.2456345050226
 31
0.0
  0
LINE
  5
115C
330
2
100
AcDbEntity
  8
CENTER
100
AcDbLine
 10
468.8629198943238
 20
349.2661355196122
 30
0.0
 11
468.8629198943424
 21
369.2251334904517
 31
0.0
  0
LINE
  5
115D
330
2
100
AcDbEntity
  8
CENTER
100
AcDbLine
 10
571.3629198943634
 20
365.0838417037718
 30
0.0
 11
571.3629198943737
 21
376.407427306152
 31
0.0
  0
LINE
  5
115E
330
2
100
AcDbEntity
  8
CENTER
100
AcDbLine
 10
577.0247126955585
 20
370.7456345049567
 30
0.0
 11
565.7011270931782
 21
370.7456345049671
 31
0.0
  0
LINE
  5
115F
330
2
100
AcDbEntity
  8
0
100
AcDbLine
 10
413.3629198943824
 20
469.7456345049857
 30
0.0
 11
427.3629198943824
 21
469.7456345049857
 31
0.0
  0
ARC
  5
1160
330
2
100
AcDbEntity
  8
0
100
AcDbCircle
 10
427.3629198943824
 20
467.7456345049858
 30
0.0
 40
2.0
100
AcDbArc
 50
0.0
 51
90.0
  0
LINE
  5
1161
330
2
100
AcDbEntity
  8
0
100
AcDbLine
 10
413.3629198943824
 20
348.7456345049865
 30
0.0
 11
427.3629198943824
 21
348.7456345049865
 31
0.0
  0
ARC
  5
1162
330
2
100
AcDbEntity
  8
0
100
AcDbCircle
 10
427.3629198943824
 20
350.7456345049865
 30
0.0
 40
2.0
100
AcDbArc
 50
270.0
 51
0.0
  0
LINE
  5
1167
330
2
100
AcDbEntity
  8
CENTER
100
AcDbLine
 10
865.9414797527855
 20
162.8693355132561
 30
0.0
 11
684.9414797527854
 21
162.8693355132561
 31
0.0
  0
LINE
  5
1168
330
2
100
AcDbEntity
  8
0
100
AcDbLine
 10
720.4414797527963
 20
222.8693355132559
 30
0.0
 11
720.4414797527954
 21
182.7156038787113
 31
0.0
  0
LINE
  5
1169
330
2
100
AcDbEntity
  8
0
100
AcDbLine
 10
720.441479752794
 20
143.0230671478009
 30
0.0
 11
720.4414797527927
 21
102.8693355132561
 31
0.0
  0
LINE
  5
116A
330
2
100
AcDbEntity
  8
0
100
AcDbLine
 10
842.9414797527963
 20
200.9379579636413
 30
0.0
 11
842.9414797527968
 21
184.8693355132559
 31
0.0
  0
LINE
  5
116B
330
2
100
AcDbEntity
  8
0
100
AcDbLine
 10
842.9414797527972
 20
140.8693355132561
 30
0.0
 11
842.9414797527972
 21
124.8007130628705
 31
0.0
  0
ARC
  5
116C
330
2
100
AcDbEntity
  8
0
100
AcDbCircle
 10
840.9414797527972
 20
124.8007130628705
 30
0.0
 40
2.0
100
AcDbArc
 50
271.9999999999775
 51
0.0
  0
ARC
  5
116D
330
2
100
AcDbEntity
  8
0
100
AcDbCircle
 10
840.9414797527968
 20
200.9379579636413
 30
0.0
 40
2.0
100
AcDbArc
 50
0.0
 51
87.99999999999636
  0
LINE
  5
116E
330
2
100
AcDbEntity
  8
CENTER
100
AcDbLine
 10
756.9414797527927
 20
93.19184883765728
 30
0.0
 11
756.9414797527927
 21
235.6196036023477
 31
0.0
  0
LINE
  5
116F
330
2
100
AcDbEntity
  8
0
100
AcDbLine
 10
841.0112787462015
 20
202.9367396176794
 30
0.0
 11
836.6622837791767
 21
203.0886098684436
 31
0.0
  0
LINE
  5
1170
330
2
100
AcDbEntity
  8
0
100
AcDbLine
 10
841.0112787462024
 20
122.8019314088323
 30
0.0
 11
836.6622837791826
 21
122.6500611580685
 31
0.0
  0
LINE
  5
1171
330
2
100
AcDbEntity
  8
0
100
AcDbLine
 10
720.4414797527931
 20
112.8693355132568
 30
0.0
 11
822.4414797528018
 21
112.8693355132559
 31
0.0
  0
LINE
  5
1172
330
2
100
AcDbEntity
  8
0
100
AcDbLine
 10
822.4414797528012
 20
122.8693355132582
 30
0.0
 11
720.4414797527931
 21
122.8693355132582
 31
0.0
  0
LINE
  5
1173
330
2
100
AcDbEntity
  8
0
100
AcDbLine
 10
822.4414797528012
 20
202.8693355132536
 30
0.0
 11
720.4414797527963
 21
202.8693355132536
 31
0.0
  0
LINE
  5
1174
330
2
100
AcDbEntity
  8
0
100
AcDbLine
 10
822.4414797528018
 20
212.8693355132577
 30
0.0
 11
720.4414797527959
 21
212.8693355132577
 31
0.0
  0
ARC
  5
1175
330
2
100
AcDbEntity
  8
0
100
AcDbCircle
 10
836.9414797527962
 20
211.0837364845963
 30
0.0
 40
8.0
100
AcDbArc
 50
180.0
 51
267.9999999999963
  0
ARC
  5
1176
330
2
100
AcDbEntity
  8
0
100
AcDbCircle
 10
836.9414797528023
 20
114.654934541916
 30
0.0
 40
8.0
100
AcDbArc
 50
92.00000000000365
 51
180.0
  0
LINE
  5
1177
330
2
100
AcDbEntity
  8
0
100
AcDbLine
 10
696.9414797527945
 20
199.7919852440664
 30
0.0
 11
696.9414797527941
 21
184.8693355132561
 31
0.0
  0
LINE
  5
1178
330
2
100
AcDbEntity
  8
0
 48
0.5
100
AcDbLine
 10
705.4414797527945
 20
202.8693355132561
 30
0.0
 11
704.9414797527945
 21
202.3693355132563
 31
0.0
  0
LINE
  5
1179
330
2
100
AcDbEntity
  8
0
100
AcDbLine
 10
705.4414797527958
 20
119.3693355132561
 30
0.0
 11
705.4414797527958
 21
128.2737344941041
 31
0.0
  0
LINE
  5
117A
330
2
100
AcDbEntity
  8
0
100
AcDbLine
 10
705.4414797527945
 20
197.464945302608
 30
0.0
 11
705.4414797527945
 21
206.3693355132561
 31
0.0
  0
ARC
  5
117B
330
2
100
AcDbEntity
  8
0
100
AcDbCircle
 10
699.7414797527937
 20
199.9693355132558
 30
0.0
 40
0.3
100
AcDbArc
 50
180.0
 51
270.0
  0
ARC
  5
117C
330
2
100
AcDbEntity
  8
0
100
AcDbCircle
 10
701.1414797527939
 20
199.9693355132558
 30
0.0
 40
0.3
100
AcDbArc
 50
270.0
 51
0.0
  0
LINE
  5
117D
330
2
100
AcDbEntity
  8
0
 48
0.5
100
AcDbLine
 10
701.4414797527936
 20
200.1693355132558
 30
0.0
 11
701.6414797527938
 21
200.3693355132559
 31
0.0
  0
LINE
  5
117E
330
2
100
AcDbEntity
  8
0
 48
0.5
100
AcDbLine
 10
699.7414797527937
 20
199.6693355132558
 30
0.0
 11
701.1414797527939
 21
199.6693355132558
 31
0.0
  0
LINE
  5
117F
330
2
100
AcDbEntity
  8
0
100
AcDbLine
 10
697.9414797527936
 20
200.3693355132559
 30
0.0
 11
696.9414797527936
 21
199.7919852440661
 31
0.0
  0
LINE
  5
1180
330
2
100
AcDbEntity
  8
0
100
AcDbLine
 10
699.4414797527936
 20
200.0693355132557
 30
0.0
 11
699.4414797527936
 21
198.1649010436846
 31
0.0
  0
LINE
  5
1181
330
2
100
AcDbEntity
  8
0
100
AcDbLine
 10
699.4414797527936
 20
127.5737673256725
 30
0.0
 11
699.4414797527936
 21
125.6693355132565
 31
0.0
  0
ARC
  5
1182
330
2
100
AcDbEntity
  8
0
 48
0.5
100
AcDbCircle
 10
699.1414797527938
 20
200.0693355132557
 30
0.0
 40
0.3
100
AcDbArc
 50
0.0
 51
90.0
  0
LINE
  5
1183
330
2
100
AcDbEntity
  8
0
 48
0.5
100
AcDbLine
 10
697.9414797527936
 20
200.3693355132559
 30
0.0
 11
699.1414797527938
 21
200.3693355132559
 31
0.0
  0
LINE
  5
1184
330
2
100
AcDbEntity
  8
0
 48
0.5
100
AcDbLine
 10
701.6414797527938
 20
200.3693355132559
 30
0.0
 11
704.9414797527936
 21
200.3693355132559
 31
0.0
  0
LINE
  5
1185
330
2
100
AcDbEntity
  8
HIDS
  6
SEKKEI_H
 48
0.5
100
AcDbLine
 10
709.8556933151683
 20
215.2835490756298
 30
0.0
 11
706.027266190423
 21
211.4551219508835
 31
0.0
  0
ARC
  5
1186
330
2
100
AcDbEntity
  8
HIDS
  6
SEKKEI_H
100
AcDbCircle
 10
707.4414797527959
 20
210.0409083885103
 30
0.0
 40
2.0
100
AcDbArc
 50
135.0000000000094
 51
180.0
  0
ARC
  5
1187
330
2
100
AcDbEntity
  8
HIDS
  6
SEKKEI_H
 48
0.5
100
AcDbCircle
 10
708.4414797527945
 20
216.6977626380031
 30
0.0
 40
2.0
100
AcDbArc
 50
314.9999999999729
 51
0.0
  0
ARC
  5
1188
330
2
100
AcDbEntity
  8
0
 48
0.3
100
AcDbCircle
 10
712.4414797527945
 20
220.7994444141576
 30
0.0
 40
2.0
100
AcDbArc
 50
90.49999999999151
 51
180.0
  0
LINE
  5
1189
330
2
100
AcDbEntity
  8
0
100
AcDbLine
 10
712.4240266817976
 20
222.799368260286
 30
0.0
 11
720.4414797527945
 21
222.8693355132559
 31
0.0
  0
LINE
  5
118A
330
2
100
AcDbEntity
  8
0
100
AcDbLine
 10
696.9414797527945
 20
125.9466857824458
 30
0.0
 11
696.9414797527941
 21
140.8693355132559
 31
0.0
  0
LINE
  5
118B
330
2
100
AcDbEntity
  8
0
 48
0.5
100
AcDbLine
 10
705.4414797527945
 20
122.8693355132561
 30
0.0
 11
704.9414797527945
 21
123.3693355132559
 31
0.0
  0
ARC
  5
118C
330
2
100
AcDbEntity
  8
0
100
AcDbCircle
 10
699.7414797527937
 20
125.7693355132564
 30
0.0
 40
0.3
100
AcDbArc
 50
90.0
 51
180.0
  0
ARC
  5
118D
330
2
100
AcDbEntity
  8
0
100
AcDbCircle
 10
701.1414797527939
 20
125.7693355132564
 30
0.0
 40
0.3
100
AcDbArc
 50
0.0
 51
90.0
  0
LINE
  5
118E
330
2
100
AcDbEntity
  8
0
100
AcDbLine
 10
701.4414797527936
 20
125.5693355132564
 30
0.0
 11
701.4414797527936
 21
127.6733430936301
 31
0.0
  0
LINE
  5
118F
330
2
100
AcDbEntity
  8
0
100
AcDbLine
 10
701.4414797527936
 20
198.0653256675654
 30
0.0
 11
701.4414797527936
 21
200.1693355132558
 31
0.0
  0
LINE
  5
1190
330
2
100
AcDbEntity
  8
0
 48
0.5
100
AcDbLine
 10
701.4414797527936
 20
125.5693355132564
 30
0.0
 11
701.6414797527938
 21
125.3693355132563
 31
0.0
  0
LINE
  5
1191
330
2
100
AcDbEntity
  8
0
 48
0.5
100
AcDbLine
 10
699.7414797527937
 20
126.0693355132564
 30
0.0
 11
701.1414797527939
 21
126.0693355132564
 31
0.0
  0
LINE
  5
1192
330
2
100
AcDbEntity
  8
0
100
AcDbLine
 10
697.9414797527936
 20
125.3693355132563
 30
0.0
 11
696.9414797527936
 21
125.9466857824461
 31
0.0
  0
ARC
  5
1193
330
2
100
AcDbEntity
  8
0
 48
0.5
100
AcDbCircle
 10
699.1414797527938
 20
125.6693355132565
 30
0.0
 40
0.3
100
AcDbArc
 50
270.0
 51
0.0
  0
LINE
  5
1194
330
2
100
AcDbEntity
  8
0
 48
0.5
100
AcDbLine
 10
697.9414797527936
 20
125.3693355132563
 30
0.0
 11
699.1414797527938
 21
125.3693355132563
 31
0.0
  0
LINE
  5
1195
330
2
100
AcDbEntity
  8
0
 48
0.5
100
AcDbLine
 10
701.6414797527938
 20
125.3693355132563
 30
0.0
 11
704.9414797527936
 21
125.3693355132563
 31
0.0
  0
LINE
  5
1196
330
2
100
AcDbEntity
  8
0
 48
0.3
100
AcDbLine
 10
710.4414797527945
 20
104.8693355132569
 30
0.0
 11
710.4414797527945
 21
132.2927940924651
 31
0.0
  0
LINE
  5
1197
330
2
100
AcDbEntity
  8
0
 48
0.3
100
AcDbLine
 10
710.4414797527945
 20
193.4458512822654
 30
0.0
 11
710.4414797527945
 21
220.7994444141576
 31
0.0
  0
LINE
  5
1198
330
2
100
AcDbEntity
  8
0
100
AcDbLine
 10
720.4414797527945
 20
102.8693355132563
 30
0.0
 11
720.4414797527945
 21
143.0230671478009
 31
0.0
  0
LINE
  5
1199
330
2
100
AcDbEntity
  8
0
100
AcDbLine
 10
720.4414797527945
 20
182.7156038787112
 30
0.0
 11
720.4414797527945
 21
222.8693355132559
 31
0.0
  0
LINE
  5
119A
330
2
100
AcDbEntity
  8
HIDS
  6
SEKKEI_H
 48
0.5
100
AcDbLine
 10
709.8556933151683
 20
110.4551219508824
 30
0.0
 11
706.027266190423
 21
114.2835490756288
 31
0.0
  0
ARC
  5
119B
330
2
100
AcDbEntity
  8
HIDS
  6
SEKKEI_H
100
AcDbCircle
 10
707.4414797527959
 20
115.6977626380019
 30
0.0
 40
2.0
100
AcDbArc
 50
180.0
 51
224.9999999999905
  0
ARC
  5
119C
330
2
100
AcDbEntity
  8
HIDS
  6
SEKKEI_H
 48
0.5
100
AcDbCircle
 10
708.4414797527945
 20
109.040908388509
 30
0.0
 40
2.0
100
AcDbArc
 50
0.0
 51
45.00000000002708
  0
ARC
  5
119D
330
2
100
AcDbEntity
  8
0
 48
0.3
100
AcDbCircle
 10
712.4414797527945
 20
104.9392266123546
 30
0.0
 40
2.0
100
AcDbArc
 50
180.0
 51
269.5000000000084
  0
LINE
  5
119E
330
2
100
AcDbEntity
  8
0
100
AcDbLine
 10
712.4240266817976
 20
102.9393027662262
 30
0.0
 11
720.4414797527945
 21
102.8693355132563
 31
0.0
  0
LINE
  5
119F
330
2
100
AcDbEntity
  8
0
100
AcDbLine
 10
697.9414797527931
 20
195.3693355132564
 30
0.0
 11
697.9414797527936
 21
184.8693355132561
 31
0.0
  0
LINE
  5
11A0
330
2
100
AcDbEntity
  8
0
100
AcDbLine
 10
707.9414797527936
 20
195.369335513256
 30
0.0
 11
707.9414797527936
 21
184.8693355132561
 31
0.0
  0
LINE
  5
11A1
330
2
100
AcDbEntity
  8
0
100
AcDbLine
 10
697.9414797527936
 20
140.8693355132559
 30
0.0
 11
697.9414797527936
 21
130.3693355132561
 31
0.0
  0
LINE
  5
11A2
330
2
100
AcDbEntity
  8
0
100
AcDbLine
 10
701.6414797527938
 20
200.3693355132559
 30
0.0
 11
701.6414797527938
 21
198.0495906194216
 31
0.0
  0
LINE
  5
11A3
330
2
100
AcDbEntity
  8
0
100
AcDbLine
 10
701.6414797527938
 20
127.6890783737376
 30
0.0
 11
701.6414797527938
 21
125.3693355132563
 31
0.0
  0
LINE
  5
11A4
330
2
100
AcDbEntity
  8
0
100
AcDbLine
 10
704.9414797527945
 20
202.3693355132563
 30
0.0
 11
704.9414797527945
 21
197.5826382273184
 31
0.0
  0
LINE
  5
11A5
330
2
100
AcDbEntity
  8
0
100
AcDbLine
 10
704.9414797527945
 20
128.1560398426891
 30
0.0
 11
704.9414797527945
 21
123.3693355132561
 31
0.0
  0
LINE
  5
11B0
330
2
100
AcDbEntity
  8
0
100
AcDbLine
 10
711.9414797527944
 20
212.8693355132577
 30
0.0
 11
720.4414797527963
 21
212.8693355132577
 31
0.0
  0
LINE
  5
11B1
330
2
100
AcDbEntity
  8
0
100
AcDbLine
 10
711.9414797527944
 20
202.8693355132536
 30
0.0
 11
720.4414797527959
 21
202.8693355132536
 31
0.0
  0
LINE
  5
11B2
330
2
100
AcDbEntity
  8
0
100
AcDbLine
 10
711.9414797527944
 20
122.8693355132582
 30
0.0
 11
720.4414797527931
 21
122.8693355132582
 31
0.0
  0
LINE
  5
11B3
330
2
100
AcDbEntity
  8
0
100
AcDbLine
 10
711.9414797527944
 20
112.8693355132568
 30
0.0
 11
720.4414797527931
 21
112.8693355132568
 31
0.0
  0
LINE
  5
11B4
330
2
100
AcDbEntity
  8
0
 48
0.3
100
AcDbLine
 10
700.9414797527945
 20
219.3693355132561
 30
0.0
 11
700.9414797527945
 21
206.3693355132561
 31
0.0
  0
LINE
  5
11B5
330
2
100
AcDbEntity
  8
0
 48
0.3
100
AcDbLine
 10
700.4414797527945
 20
218.5033101094702
 30
0.0
 11
700.4414797527945
 21
207.2353609170406
 31
0.0
  0
LINE
  5
11B6
330
2
100
AcDbEntity
  8
CENTER
 48
0.5
100
AcDbLine
 10
697.4414797527945
 20
212.8693355132561
 30
0.0
 11
716.4414797527945
 21
212.8693355132561
 31
0.0
  0
LINE
  5
11B7
330
2
100
AcDbEntity
  8
0
 48
0.3
100
AcDbLine
 10
700.9414797527945
 20
206.3693355132561
 30
0.0
 11
700.4414797527945
 21
207.2353609170406
 31
0.0
  0
LINE
  5
11B8
330
2
100
AcDbEntity
  8
0
 48
0.3
100
AcDbLine
 10
700.9414797527945
 20
206.3693355132561
 30
0.0
 11
708.4414797527945
 21
206.3693355132561
 31
0.0
  0
LINE
  5
11B9
330
2
100
AcDbEntity
  8
0
 48
0.3
100
AcDbLine
 10
700.9414797527949
 20
219.3693355132556
 30
0.0
 11
700.441479752795
 21
218.5033101094713
 31
0.0
  0
LINE
  5
11BA
330
2
100
AcDbEntity
  8
0
 48
0.3
100
AcDbLine
 10
700.9414797527954
 20
219.3693355132561
 30
0.0
 11
708.4414797527945
 21
219.3693355132561
 31
0.0
  0
LINE
  5
11BB
330
2
100
AcDbEntity
  8
0
 48
0.3
100
AcDbLine
 10
700.9414797527945
 20
119.3693355132561
 30
0.0
 11
700.9414797527945
 21
106.3693355132561
 31
0.0
  0
LINE
  5
11BC
330
2
100
AcDbEntity
  8
0
 48
0.3
100
AcDbLine
 10
700.4414797527945
 20
118.5033101094702
 30
0.0
 11
700.4414797527945
 21
107.2353609170406
 31
0.0
  0
LINE
  5
11BD
330
2
100
AcDbEntity
  8
CENTER
 48
0.5
100
AcDbLine
 10
697.4414797527945
 20
112.8693355132561
 30
0.0
 11
716.4414797527945
 21
112.8693355132561
 31
0.0
  0
LINE
  5
11BE
330
2
100
AcDbEntity
  8
0
 48
0.3
100
AcDbLine
 10
700.9414797527945
 20
106.3693355132561
 30
0.0
 11
700.4414797527945
 21
107.2353609170406
 31
0.0
  0
LINE
  5
11BF
330
2
100
AcDbEntity
  8
0
 48
0.3
100
AcDbLine
 10
700.9414797527945
 20
106.3693355132561
 30
0.0
 11
708.4414797527945
 21
106.3693355132561
 31
0.0
  0
LINE
  5
11C0
330
2
100
AcDbEntity
  8
0
 48
0.3
100
AcDbLine
 10
700.9414797527949
 20
119.3693355132557
 30
0.0
 11
700.441479752795
 21
118.5033101094713
 31
0.0
  0
LINE
  5
11C1
330
2
100
AcDbEntity
  8
0
 48
0.3
100
AcDbLine
 10
700.9414797527954
 20
119.3693355132561
 30
0.0
 11
708.4414797527945
 21
119.3693355132561
 31
0.0
  0
LINE
  5
11C2
330
2
100
AcDbEntity
  8
HIDS
  6
SEKKEI_H
100
AcDbLine
 10
705.4414797527958
 20
210.0409083885103
 30
0.0
 11
705.4414797527945
 21
206.3693355132561
 31
0.0
  0
LINE
  5
11C3
330
2
100
AcDbEntity
  8
HIDS
  6
SEKKEI_H
100
AcDbLine
 10
705.4414797527958
 20
119.3693355132561
 30
0.0
 11
705.4414797527958
 21
115.6977626380019
 31
0.0
  0
LINE
  5
11C4
330
2
100
AcDbEntity
  8
0
100
AcDbLine
 10
818.9414797527854
 20
176.8693355132559
 30
0.0
 11
833.9414797527854
 21
176.8693355132559
 31
0.0
  0
LINE
  5
11C5
330
2
100
AcDbEntity
  8
0
 48
0.5
100
AcDbLine
 10
855.9414797527853
 20
140.8693355132559
 30
0.0
 11
829.668972541717
 21
140.8693355132563
 31
0.0
  0
LINE
  5
11C6
330
2
100
AcDbEntity
  8
0
 48
0.5
100
AcDbLine
 10
855.9414797527853
 20
184.8693355132559
 30
0.0
 11
829.668972541717
 21
184.8693355132559
 31
0.0
  0
LINE
  5
11C7
330
2
100
AcDbEntity
  8
0
100
AcDbLine
 10
694.9414797527858
 20
180.1693355132562
 30
0.0
 11
855.9414797527853
 21
180.1693355132558
 31
0.0
  0
LINE
  5
11C8
330
2
100
AcDbEntity
  8
0
100
AcDbLine
 10
833.9414797527854
 20
177.5693355132561
 30
0.0
 11
833.9414797527854
 21
148.1693355132561
 31
0.0
  0
LINE
  5
11C9
330
2
100
AcDbEntity
  8
0
100
AcDbLine
 10
835.2914797527853
 20
177.5693355132561
 30
0.0
 11
835.2914797527853
 21
148.1693355132561
 31
0.0
  0
LINE
  5
11CA
330
2
100
AcDbEntity
  8
0
100
AcDbLine
 10
853.9414797527854
 20
176.8693355132559
 30
0.0
 11
853.9414797527854
 21
148.8693355132559
 31
0.0
  0
LINE
  5
11CB
330
2
100
AcDbEntity
  8
0
100
AcDbLine
 10
844.4414797527853
 20
148.3693355132559
 30
0.0
 11
844.4414797527853
 21
177.3693355132559
 31
0.0
  0
LINE
  5
11CC
330
2
100
AcDbEntity
  8
0
100
AcDbLine
 10
851.4414797527853
 20
148.3693355132559
 30
0.0
 11
851.4414797527853
 21
177.3693355132559
 31
0.0
  0
LINE
  5
11CD
330
2
100
AcDbEntity
  8
0
100
AcDbLine
 10
855.9414797527853
 20
184.8693355132559
 30
0.0
 11
855.9414797527853
 21
140.8693355132556
 31
0.0
  0
LINE
  5
11CE
330
2
100
AcDbEntity
  8
0
100
AcDbLine
 10
851.4414797527853
 20
148.8693355132559
 30
0.0
 11
853.9414797527854
 21
148.8693355132559
 31
0.0
  0
LINE
  5
11CF
330
2
100
AcDbEntity
  8
0
100
AcDbLine
 10
853.9414797527854
 20
148.8693355132559
 30
0.0
 11
855.9414797527853
 21
147.7146349748768
 31
0.0
  0
LINE
  5
11D0
330
2
100
AcDbEntity
  8
0
100
AcDbLine
 10
835.2914797527853
 20
148.8693355132559
 30
0.0
 11
844.4414797527853
 21
148.8693355132559
 31
0.0
  0
LINE
  5
11D1
330
2
100
AcDbEntity
  8
0
100
AcDbLine
 10
844.4414797527853
 20
148.3693355132559
 30
0.0
 11
851.4414797527853
 21
148.3693355132559
 31
0.0
  0
LINE
  5
11D2
330
2
100
AcDbEntity
  8
0
100
AcDbLine
 10
833.9414797527854
 20
148.1693355132561
 30
0.0
 11
835.2914797527853
 21
148.1693355132561
 31
0.0
  0
LINE
  5
11D3
330
2
100
AcDbEntity
  8
0
100
AcDbLine
 10
851.4414797527853
 20
176.8693355132559
 30
0.0
 11
853.9414797527854
 21
176.8693355132559
 31
0.0
  0
LINE
  5
11D4
330
2
100
AcDbEntity
  8
0
100
AcDbLine
 10
853.9414797527854
 20
176.8693355132554
 30
0.0
 11
855.9414797527853
 21
178.0240360516349
 31
0.0
  0
LINE
  5
11D5
330
2
100
AcDbEntity
  8
0
100
AcDbLine
 10
835.2914797527853
 20
176.8693355132559
 30
0.0
 11
844.4414797527853
 21
176.8693355132559
 31
0.0
  0
LINE
  5
11D6
330
2
100
AcDbEntity
  8
0
100
AcDbLine
 10
844.4414797527853
 20
177.3693355132559
 30
0.0
 11
851.4414797527853
 21
177.3693355132559
 31
0.0
  0
LINE
  5
11D7
330
2
100
AcDbEntity
  8
HOJO
100
AcDbLine
 10
850.9413727527855
 20
180.1692925132561
 30
0.0
 11
850.9413727527855
 21
184.8692895132558
 31
0.0
  0
LINE
  5
11D8
330
2
100
AcDbEntity
  8
HOJO
100
AcDbLine
 10
844.9413727527856
 20
180.1692925132561
 30
0.0
 11
844.9413727527856
 21
184.8692895132558
 31
0.0
  0
LINE
  5
11D9
330
2
100
AcDbEntity
  8
CENTER
100
AcDbLine
 10
847.9413727527855
 20
178.3550361370464
 30
0.0
 11
847.9413727527855
 21
186.8165235037715
 31
0.0
  0
LINE
  5
11DA
330
2
100
AcDbEntity
  8
0
100
AcDbLine
 10
845.5413727527854
 20
180.1692925132561
 30
0.0
 11
845.5413727527854
 21
184.8692895132558
 31
0.0
  0
LINE
  5
11DB
330
2
100
AcDbEntity
  8
0
100
AcDbLine
 10
850.3413727527853
 20
180.1692925132561
 30
0.0
 11
850.3413727527853
 21
184.8692895132558
 31
0.0
  0
LINE
  5
11DC
330
2
100
AcDbEntity
  8
0
100
AcDbLine
 10
833.9414797527854
 20
177.5693355132561
 30
0.0
 11
835.2914797527853
 21
177.5693355132561
 31
0.0
  0
LINE
  5
11DD
330
2
100
AcDbEntity
  8
0
100
AcDbLine
 10
724.9414797527858
 20
177.3693355132561
 30
0.0
 11
818.9414797527854
 21
177.3693355132569
 31
0.0
  0
LINE
  5
11DE
330
2
100
AcDbEntity
  8
0
100
AcDbLine
 10
818.9414797527854
 20
177.3693355132559
 30
0.0
 11
818.9414797527854
 21
148.3693355132553
 31
0.0
  0
LINE
  5
11DF
330
2
100
AcDbEntity
  8
0
100
AcDbLine
 10
696.9414797527859
 20
176.8693355132561
 30
0.0
 11
696.9414797527859
 21
148.8693355132556
 31
0.0
  0
LINE
  5
11E0
330
2
100
AcDbEntity
  8
0
100
AcDbLine
 10
710.9414797527858
 20
177.5693355132561
 30
0.0
 11
710.9414797527858
 21
148.1693355132556
 31
0.0
  0
LINE
  5
11E1
330
2
100
AcDbEntity
  8
0
100
AcDbLine
 10
709.591479752786
 20
177.5693355132561
 30
0.0
 11
709.591479752786
 21
148.1693355132556
 31
0.0
  0
LINE
  5
11E2
330
2
100
AcDbEntity
  8
0
100
AcDbLine
 10
724.9414797527858
 20
177.3693355132563
 30
0.0
 11
724.9414797527858
 21
148.369335513256
 31
0.0
  0
LINE
  5
11E3
330
2
100
AcDbEntity
  8
0
100
AcDbLine
 10
694.9414797527858
 20
184.8693355132561
 30
0.0
 11
694.9414797527858
 21
140.8693355132559
 31
0.0
  0
LINE
  5
11E4
330
2
100
AcDbEntity
  8
0
 48
0.5
100
AcDbLine
 10
694.9414797527858
 20
140.8693355132559
 30
0.0
 11
711.7996798068364
 21
140.8693355132559
 31
0.0
  0
LINE
  5
11E5
330
2
100
AcDbEntity
  8
0
100
AcDbLine
 10
696.9414797527859
 20
148.8693355132556
 30
0.0
 11
709.591479752786
 21
148.8693355132559
 31
0.0
  0
LINE
  5
11E6
330
2
100
AcDbEntity
  8
0
100
AcDbLine
 10
709.591479752786
 20
148.1693355132556
 30
0.0
 11
710.9414797527858
 21
148.1693355132556
 31
0.0
  0
LINE
  5
11E7
330
2
100
AcDbEntity
  8
0
100
AcDbLine
 10
696.9414797527859
 20
148.8693355132556
 30
0.0
 11
694.9414797527858
 21
147.7146349748764
 31
0.0
  0
LINE
  5
11E8
330
2
100
AcDbEntity
  8
0
 48
0.5
100
AcDbLine
 10
694.9414797527858
 20
184.8693355132561
 30
0.0
 11
711.7996798068359
 21
184.8693355132561
 31
0.0
  0
LINE
  5
11E9
330
2
100
AcDbEntity
  8
0
100
AcDbLine
 10
696.9414797527859
 20
176.8693355132561
 30
0.0
 11
709.591479752786
 21
176.8693355132561
 31
0.0
  0
LINE
  5
11EA
330
2
100
AcDbEntity
  8
0
100
AcDbLine
 10
710.9414797527858
 20
176.8693355132561
 30
0.0
 11
724.9414797527858
 21
176.8693355132561
 31
0.0
  0
LINE
  5
11EB
330
2
100
AcDbEntity
  8
0
100
AcDbLine
 10
710.9414797527858
 20
176.8693355132563
 30
0.0
 11
724.9414797527858
 21
176.8693355132563
 31
0.0
  0
LINE
  5
11EC
330
2
100
AcDbEntity
  8
0
100
AcDbLine
 10
709.591479752786
 20
177.5693355132561
 30
0.0
 11
710.9414797527858
 21
177.5693355132561
 31
0.0
  0
LINE
  5
11ED
330
2
100
AcDbEntity
  8
0
100
AcDbLine
 10
696.9414797527859
 20
176.8693355132561
 30
0.0
 11
694.9414797527858
 21
178.0240360516354
 31
0.0
  0
LINE
  5
11EE
330
2
100
AcDbEntity
  8
0
100
AcDbLine
 10
818.9414797527854
 20
148.8693355132563
 30
0.0
 11
833.9414797527854
 21
148.8693355132563
 31
0.0
  0
LINE
  5
11EF
330
2
100
AcDbEntity
  8
0
100
AcDbLine
 10
724.9414797527858
 20
148.369335513256
 30
0.0
 11
818.9414797527854
 21
148.3693355132553
 31
0.0
  0
LINE
  5
11F0
330
2
100
AcDbEntity
  8
0
100
AcDbLine
 10
710.9414797527858
 20
148.8693355132558
 30
0.0
 11
724.9414797527858
 21
148.8693355132558
 31
0.0
  0
LINE
  5
11F1
330
2
100
AcDbEntity
  8
0
100
AcDbLine
 10
707.9414797527936
 20
195.3693355132561
 30
0.0
 11
697.9414797527936
 21
184.8693355132561
 31
0.0
  0
LINE
  5
11F2
330
2
100
AcDbEntity
  8
0
100
AcDbLine
 10
697.9414797527936
 20
195.3693355132561
 30
0.0
 11
707.9414797527936
 21
184.8693355132561
 31
0.0
  0
LINE
  5
11F3
330
2
100
AcDbEntity
  8
0
100
AcDbLine
 10
707.9414797527936
 20
130.3693355132561
 30
0.0
 11
697.9414797527931
 21
130.3693355132561
 31
0.0
  0
LINE
  5
11F4
330
2
100
AcDbEntity
  8
0
100
AcDbLine
 10
697.9414797527931
 20
130.3693355132558
 30
0.0
 11
697.9414797527936
 21
140.8693355132561
 31
0.0
  0
LINE
  5
11F5
330
2
100
AcDbEntity
  8
0
100
AcDbLine
 10
707.9414797527936
 20
130.3693355132562
 30
0.0
 11
707.9414797527936
 21
140.8693355132561
 31
0.0
  0
LINE
  5
11F6
330
2
100
AcDbEntity
  8
0
100
AcDbLine
 10
707.9414797527936
 20
130.3693355132561
 30
0.0
 11
697.9414797527936
 21
140.8693355132561
 31
0.0
  0
LINE
  5
11F7
330
2
100
AcDbEntity
  8
0
100
AcDbLine
 10
697.9414797527936
 20
130.3693355132561
 30
0.0
 11
707.9414797527936
 21
140.8693355132561
 31
0.0
  0
LINE
  5
11F8
330
2
100
AcDbEntity
  8
0
100
AcDbLine
 10
697.9414797527936
 20
127.5493547684402
 30
0.0
 11
697.9414797527936
 21
125.3693355132563
 31
0.0
  0
LINE
  5
11F9
330
2
100
AcDbEntity
  8
0
100
AcDbLine
 10
697.9414797527936
 20
198.1893149752062
 30
0.0
 11
697.9414797527936
 21
200.3693355132559
 31
0.0
  0
LINE
  5
11FA
330
2
100
AcDbEntity
  8
0
100
AcDbLine
 10
831.9414797527963
 20
195.3693355132561
 30
0.0
 11
831.9414797527967
 21
184.8693355132559
 31
0.0
  0
LINE
  5
11FB
330
2
100
AcDbEntity
  8
0
100
AcDbLine
 10
841.9414797527968
 20
195.3693355132557
 30
0.0
 11
841.9414797527968
 21
184.8693355132559
 31
0.0
  0
LINE
  5
11FC
330
2
100
AcDbEntity
  8
0
100
AcDbLine
 10
841.9414797527968
 20
195.3693355132559
 30
0.0
 11
831.9414797527967
 21
184.8693355132559
 31
0.0
  0
LINE
  5
11FD
330
2
100
AcDbEntity
  8
0
100
AcDbLine
 10
831.9414797527967
 20
195.3693355132559
 30
0.0
 11
841.9414797527968
 21
184.8693355132559
 31
0.0
  0
LINE
  5
11FE
330
2
100
AcDbEntity
  8
0
100
AcDbLine
 10
841.9414797527968
 20
130.3693355132559
 30
0.0
 11
831.9414797527963
 21
130.3693355132559
 31
0.0
  0
LINE
  5
11FF
330
2
100
AcDbEntity
  8
0
100
AcDbLine
 10
831.9414797527963
 20
130.3693355132556
 30
0.0
 11
831.9414797527967
 21
140.8693355132558
 31
0.0
  0
LINE
  5
1200
330
2
100
AcDbEntity
  8
0
100
AcDbLine
 10
841.9414797527968
 20
130.369335513256
 30
0.0
 11
841.9414797527968
 21
140.8693355132558
 31
0.0
  0
LINE
  5
1201
330
2
100
AcDbEntity
  8
0
100
AcDbLine
 10
841.9414797527968
 20
130.3693355132559
 30
0.0
 11
831.9414797527967
 21
140.8693355132558
 31
0.0
  0
LINE
  5
1202
330
2
100
AcDbEntity
  8
0
100
AcDbLine
 10
831.9414797527967
 20
130.3693355132559
 30
0.0
 11
841.9414797527968
 21
140.8693355132558
 31
0.0
  0
SPLINE
  5
1203
330
2
100
AcDbEntity
  8
HOJO
100
AcDbSpline
210
0.0
220
0.0
230
1.0
 70
     8
 71
     3
 72
    18
 73
    14
 74
    12
 42
0.0000000001
 43
0.0000000001
 44
0.0000000001
 40
0.0
 40
0.0
 40
0.0
 40
0.0
 40
5.809783443223138
 40
13.51477729882347
 40
24.58715504261548
 40
31.45508498458557
 40
40.33886006210784
 40
58.60354852045801
 40
92.26213163444706
 40
121.7748873031241
 40
142.1253298300728
 40
152.1712899157985
 40
165.345901110267
 40
165.345901110267
 40
165.345901110267
 40
165.345901110267
 10
696.9414797527963
 20
198.1944843040476
 30
0.0
 10
698.8194613157411
 20
198.1872049341785
 30
0.0
 10
703.1880411160953
 20
198.1702715899983
 30
0.0
 10
712.8120015553538
 20
195.8521290154194
 30
0.0
 10
709.1828881913316
 20
182.826486095604
 30
0.0
 10
720.217059121985
 20
182.5395037825593
 30
0.0
 10
730.802135336896
 20
183.5252992090968
 30
0.0
 10
751.3592942134398
 20
182.2869827371546
 30
0.0
 10
779.7193077025025
 20
181.4243707461205
 30
0.0
 10
802.8220413674015
 20
185.4772824184334
 30
0.0
 10
833.2189053363549
 20
178.0006412033855
 30
0.0
 10
827.1899753245914
 20
198.4027436462901
 30
0.0
 10
837.2396276817424
 20
198.0163751101203
 30
0.0
 10
842.9414797527968
 20
197.7971619314096
 30
0.0
 11
696.9414797527963
 21
198.1944843040476
 31
0.0
 11
702.7457001807263
 21
197.9403015328964
 31
0.0
 11
709.8089968431825
 21
194.8618651484678
 31
0.0
 11
712.3659876043305
 21
184.0887807642896
 31
0.0
 11
719.0878537265537
 21
182.6798884608408
 31
0.0
 11
727.9612109932288
 21
183.1099936176908
 31
0.0
 11
746.2204353171085
 21
182.6632592773569
 31
0.0
 11
779.8782823455724
 21
182.4406595248222
 31
0.0
 11
809.387551760926
 21
182.8942736021001
 31
0.0
 11
829.6490610469039
 21
184.7947347295314
 31
0.0
 11
830.1052695262871
 21
194.8303307689968
 31
0.0
 11
842.9414797527968
 21
197.7971619314096
 31
0.0
  0
LINE
  5
1204
330
2
100
AcDbEntity
  8
0
 48
0.5
100
AcDbLine
 10
697.9414797527963
 20
195.3693355132559
 30
0.0
 11
707.9414797527963
 21
195.3693355132554
 31
0.0
  0
LINE
  5
1205
330
2
100
AcDbEntity
  8
0
100
AcDbLine
 10
696.9414797527963
 20
195.9466857824454
 30
0.0
 11
697.9414797527963
 21
195.3693355132559
 31
0.0
  0
LINE
  5
1206
330
2
100
AcDbEntity
  8
0
 48
0.5
100
AcDbLine
 10
707.941479752815
 20
195.7471128200364
 30
0.0
 11
709.0009857788166
 21
195.7841115857456
 31
0.0
  0
LINE
  5
1207
330
2
100
AcDbEntity
  8
0
100
AcDbLine
 10
707.941479752815
 20
195.7471128200364
 30
0.0
 11
707.9414797527963
 21
195.3693355132554
 31
0.0
  0
LINE
  5
1208
330
2
100
AcDbEntity
  8
0
100
AcDbLine
 10
831.9414797527963
 20
195.8693355132561
 30
0.0
 11
830.7920492148394
 21
195.8994344111722
 31
0.0
  0
LINE
  5
1209
330
2
100
AcDbEntity
  8
0
 48
0.5
100
AcDbLine
 10
841.9414797527963
 20
195.3693355132561
 30
0.0
 11
831.9414797527963
 21
195.3693355132557
 31
0.0
  0
LINE
  5
120A
330
2
100
AcDbEntity
  8
0
100
AcDbLine
 10
842.9414797527963
 20
195.9466857824456
 30
0.0
 11
841.9414797527963
 21
195.3693355132561
 31
0.0
  0
LINE
  5
120B
330
2
100
AcDbEntity
  8
0
100
AcDbLine
 10
831.9414797527963
 20
195.8693355132561
 30
0.0
 11
831.9414797527963
 21
195.3693355132557
 31
0.0
  0
SPLINE
  5
120C
330
2
100
AcDbEntity
  8
HOJO
100
AcDbSpline
210
0.0
220
0.0
230
1.0
 70
     8
 71
     3
 72
    18
 73
    14
 74
    12
 42
0.0000000001
 43
0.0000000001
 44
0.0000000001
 40
0.0
 40
0.0
 40
0.0
 40
0.0
 40
5.809783443223138
 40
13.51477729882347
 40
24.58715504261548
 40
31.45508498458557
 40
40.33886006210784
 40
58.60354852045801
 40
92.26213163444706
 40
121.7748873031241
 40
142.1253298300728
 40
152.1712899157985
 40
165.345901110267
 40
165.345901110267
 40
165.345901110267
 40
165.345901110267
 10
696.9414797527963
 20
127.5441867224647
 30
0.0
 10
698.8194613157411
 20
127.5514660923338
 30
0.0
 10
703.1880411160953
 20
127.568399436514
 30
0.0
 10
712.8120015553538
 20
129.8865420110927
 30
0.0
 10
709.1828881913316
 20
142.9121849309083
 30
0.0
 10
720.217059121985
 20
143.1991672439528
 30
0.0
 10
730.802135336896
 20
142.2133718174156
 30
0.0
 10
751.3592942134398
 20
143.4516882893575
 30
0.0
 10
779.7193077025025
 20
144.3143002803917
 30
0.0
 10
802.8220413674015
 20
140.2613886080788
 30
0.0
 10
833.2189053363549
 20
147.7380298231267
 30
0.0
 10
827.1899753245914
 20
127.3359273802221
 30
0.0
 10
837.2396276817424
 20
127.7222959163918
 30
0.0
 10
842.9414797527968
 20
127.9415090951026
 30
0.0
 11
696.9414797527963
 21
127.5441867224647
 31
0.0
 11
702.7457001807263
 21
127.7983694936158
 31
0.0
 11
709.8089968431825
 21
130.8768058780444
 31
0.0
 11
712.3659876043305
 21
141.6498902622226
 31
0.0
 11
719.0878537265537
 21
143.0587825656714
 31
0.0
 11
727.9612109932288
 21
142.6286774088214
 31
0.0
 11
746.2204353171085
 21
143.0754117491553
 31
0.0
 11
779.8782823455724
 21
143.2980115016901
 31
0.0
 11
809.387551760926
 21
142.8443974244121
 31
0.0
 11
829.6490610469039
 21
140.9439362969808
 31
0.0
 11
830.1052695262871
 21
130.9083402575154
 31
0.0
 11
842.9414797527968
 21
127.9415090951026
 31
0.0
  0
LINE
  5
120D
330
2
100
AcDbEntity
  8
0
100
AcDbLine
 10
696.9414797527963
 20
129.7919852440668
 30
0.0
 11
697.9414797527963
 21
130.3693355132563
 31
0.0
  0
LINE
  5
120E
330
2
100
AcDbEntity
  8
0
 48
0.5
100
AcDbLine
 10
707.941479752815
 20
129.9915582064758
 30
0.0
 11
709.0009857788166
 21
129.9545594407666
 31
0.0
  0
LINE
  5
120F
330
2
100
AcDbEntity
  8
0
100
AcDbLine
 10
707.941479752815
 20
129.9915582064758
 30
0.0
 11
707.9414797527963
 21
130.3693355132568
 31
0.0
  0
LINE
  5
1210
330
2
100
AcDbEntity
  8
0
100
AcDbLine
 10
831.9414797527963
 20
129.8693355132561
 30
0.0
 11
830.7920492148394
 21
129.83923661534
 31
0.0
  0
LINE
  5
1211
330
2
100
AcDbEntity
  8
0
100
AcDbLine
 10
842.9414797527963
 20
129.7919852440666
 30
0.0
 11
841.9414797527963
 21
130.3693355132561
 31
0.0
  0
LINE
  5
1212
330
2
100
AcDbEntity
  8
0
100
AcDbLine
 10
831.9414797527963
 20
129.8693355132561
 30
0.0
 11
831.9414797527963
 21
130.3693355132566
 31
0.0
  0
LINE
  5
1213
330
2
100
AcDbEntity
  8
0
 48
0.3
100
AcDbLine
 10
710.4414797527945
 20
205.6193355132561
 30
0.0
 11
710.4414797527945
 21
220.1193355132561
 31
0.0
  0
LINE
  5
1214
330
2
100
AcDbEntity
  8
0
 48
0.3
100
AcDbLine
 10
710.4414797527945
 20
220.1193355132561
 30
0.0
 11
708.4414797527945
 21
220.1193355132561
 31
0.0
  0
LINE
  5
1215
330
2
100
AcDbEntity
  8
0
 48
0.3
100
AcDbLine
 10
710.4414797527945
 20
205.6193355132561
 30
0.0
 11
708.4414797527945
 21
205.6193355132561
 31
0.0
  0
LINE
  5
1216
330
2
100
AcDbEntity
  8
0
100
AcDbLine
 10
708.4414797527945
 20
205.6193355132561
 30
0.0
 11
708.4414797527945
 21
220.1193355132561
 31
0.0
  0
LINE
  5
1217
330
2
100
AcDbEntity
  8
0
 48
0.3
100
AcDbLine
 10
710.4414797527945
 20
105.6193355132561
 30
0.0
 11
710.4414797527945
 21
120.1193355132561
 31
0.0
  0
LINE
  5
1218
330
2
100
AcDbEntity
  8
0
 48
0.3
100
AcDbLine
 10
710.4414797527945
 20
120.1193355132561
 30
0.0
 11
708.4414797527945
 21
120.1193355132561
 31
0.0
  0
LINE
  5
1219
330
2
100
AcDbEntity
  8
0
 48
0.3
100
AcDbLine
 10
710.4414797527945
 20
105.6193355132561
 30
0.0
 11
708.4414797527945
 21
105.6193355132561
 31
0.0
  0
LINE
  5
121A
330
2
100
AcDbEntity
  8
0
100
AcDbLine
 10
708.4414797527945
 20
105.6193355132561
 30
0.0
 11
708.4414797527945
 21
120.1193355132561
 31
0.0
  0
LINE
  5
121B
330
2
100
AcDbEntity
  8
0
100
AcDbLine
 10
828.9414797528026
 20
107.8693355132557
 30
0.0
 11
828.9414797528008
 21
142.3683007168441
 31
0.0
  0
LINE
  5
121C
330
2
100
AcDbEntity
  8
0
100
AcDbLine
 10
828.9414797527982
 20
183.3703703096643
 30
0.0
 11
828.9414797527964
 21
217.8693355132555
 31
0.0
  0
LINE
  5
121D
330
2
100
AcDbEntity
  8
0
100
AcDbLine
 10
828.9414797528026
 20
107.8693355132556
 30
0.0
 11
823.9414797527963
 21
107.8693355132559
 31
0.0
  0
LINE
  5
121E
330
2
100
AcDbEntity
  8
0
 48
0.5
100
AcDbLine
 10
823.9414797527963
 20
103.7769297634952
 30
0.0
 11
823.9414797527963
 21
144.3490577927649
 31
0.0
  0
LINE
  5
121F
330
2
100
AcDbEntity
  8
0
 48
0.5
100
AcDbLine
 10
823.9414797527963
 20
181.3896132337472
 30
0.0
 11
823.9414797527963
 21
221.961741263017
 31
0.0
  0
LINE
  5
1220
330
2
100
AcDbEntity
  8
0
100
AcDbLine
 10
828.9414797527964
 20
217.8693355132554
 30
0.0
 11
823.9414797527963
 21
217.8693355132554
 31
0.0
  0
LINE
  5
1221
330
2
100
AcDbEntity
  8
0
100
AcDbLine
 10
823.9414797527958
 20
103.7769297634952
 30
0.0
 11
720.4414797527927
 21
102.8736989471517
 31
0.0
  0
LINE
  5
1222
330
2
100
AcDbEntity
  8
0
100
AcDbLine
 10
823.9414797527958
 20
221.961741263017
 30
0.0
 11
720.4414797527927
 21
222.8649720793605
 31
0.0
  0
CIRCLE
  5
1223
330
2
100
AcDbEntity
  8
0
100
AcDbCircle
 10
518.8629198943792
 20
409.2456345049566
 30
0.0
 40
21.99999999999977
  0
LINE
  5
1224
330
2
100
AcDbEntity
  8
0
100
AcDbLine
 10
514.8629198943788
 20
426.5456345049569
 30
0.0
 11
522.8629198943788
 21
426.5456345049569
 31
0.0
  0
LINE
  5
1225
330
2
100
AcDbEntity
  8
0
100
AcDbLine
 10
514.8629198943788
 20
426.5456345049569
 30
0.0
 11
514.8629198943788
 21
422.6620423699554
 31
0.0
  0
LINE
  5
1226
330
2
100
AcDbEntity
  8
0
100
AcDbLine
 10
522.8629198943788
 20
426.5456345049569
 30
0.0
 11
522.8629198943792
 21
422.6620423699555
 31
0.0
  0
ARC
  5
1227
330
2
100
AcDbEntity
  8
0
100
AcDbCircle
 10
518.8629198943788
 20
409.245634504957
 30
0.0
 40
15.15470053837842
100
AcDbArc
 50
105.3042448177054
 51
74.69575518229453
  0
ARC
  5
1228
330
2
100
AcDbEntity
  8
0
100
AcDbCircle
 10
518.8629198943792
 20
409.2456345049566
 30
0.0
 40
14.00000000000022
100
AcDbArc
 50
106.6015495990163
 51
73.39845040098365
  0
LINE
  5
1229
330
2
100
AcDbEntity
  8
0
 48
0.5
100
AcDbLine
 10
814.011233624584
 20
431.2456345054331
 30
0.0
 11
801.0112336248132
 21
431.2456345049862
 31
0.0
  0
LINE
  5
122A
330
2
100
AcDbEntity
  8
0
 48
0.5
100
AcDbLine
 10
814.0112336260965
 20
387.2456345054331
 30
0.0
 11
801.0112336258895
 21
387.2456345049862
 31
0.0
  0
LINE
  5
122B
330
2
100
AcDbEntity
  8
0
100
AcDbLine
 10
814.0112336260965
 20
387.2456345054331
 30
0.0
 11
814.011233624584
 21
431.2456345054333
 31
0.0
  0
LINE
  5
122C
330
2
100
AcDbEntity
  8
0
100
AcDbLine
 10
653.011233626097
 20
387.2456344998992
 30
0.0
 11
653.0112336245845
 21
431.2456344998995
 31
0.0
  0
LINE
  5
122D
330
2
100
AcDbEntity
  8
0
 48
0.5
100
AcDbLine
 10
653.0112336245845
 20
431.2456344998995
 30
0.0
 11
655.0112336247555
 21
431.2456344999682
 31
0.0
  0
LINE
  5
122E
330
2
100
AcDbEntity
  8
0
 48
0.5
100
AcDbLine
 10
653.011233626097
 20
387.2456344998992
 30
0.0
 11
655.0112336259978
 21
387.245634499968
 31
0.0
  0
LINE
  5
122F
330
2
100
AcDbEntity
  8
CENTER
100
AcDbLine
 10
806.0112336254654
 20
401.9929533379593
 30
0.0
 11
806.0112336252165
 21
416.4540001301771
 31
0.0
  0
LINE
  5
1230
330
2
100
AcDbEntity
  8
PHAS
100
AcDbLine
 10
655.6588764060368
 20
369.8652428451607
 30
0.0
 11
662.5112336253485
 21
369.7456345049861
 31
0.0
  0
LINE
  5
1231
330
2
100
AcDbEntity
  8
PHAS
100
AcDbLine
 10
652.7112336253483
 20
372.8647859306304
 30
0.0
 11
652.7112336253492
 21
445.6264830793427
 31
0.0
  0
LINE
  5
1232
330
2
100
AcDbEntity
  8
PHAS
100
AcDbLine
 10
633.0112336253485
 20
385.9147741808294
 30
0.0
 11
633.0112336253485
 21
432.5764948291427
 31
0.0
  0
ARC
  5
1233
330
2
100
AcDbEntity
  8
PHAS
100
AcDbCircle
 10
655.7112336253482
 20
372.8647859306304
 30
0.0
 40
3.0
100
AcDbArc
 50
180.0
 51
268.9999999999721
  0
ARC
  5
1234
330
2
100
AcDbEntity
  8
PHAS
100
AcDbCircle
 10
651.7112336253482
 20
377.4065348738088
 30
0.0
 40
1.0
100
AcDbArc
 50
0.0
 51
79.99999999999484
  0
ARC
  5
1235
330
2
100
AcDbEntity
  8
PHAS
100
AcDbCircle
 10
638.0112336253485
 20
385.9147741808294
 30
0.0
 40
5.0
100
AcDbArc
 50
180.0
 51
259.9999999999948
  0
LINE
  5
1236
330
2
100
AcDbEntity
  8
PHAS
100
AcDbLine
 10
637.1429927370134
 20
380.9907354157687
 30
0.0
 11
651.8848818030153
 21
378.3913426268211
 31
0.0
  0
ARC
  5
1237
330
2
100
AcDbEntity
  8
PHAS
100
AcDbCircle
 10
651.7112336253482
 20
441.0847341361634
 30
0.0
 40
1.0
100
AcDbArc
 50
280.0000000000051
 51
0.0
  0
ARC
  5
1238
330
2
100
AcDbEntity
  8
PHAS
100
AcDbCircle
 10
638.0112336253485
 20
432.5764948291427
 30
0.0
 40
5.0
100
AcDbArc
 50
100.0000000000051
 51
180.0
  0
LINE
  5
1239
330
2
100
AcDbEntity
  8
PHAS
100
AcDbLine
 10
637.1429927370134
 20
437.5005335942043
 30
0.0
 11
651.8848818030153
 21
440.099926383152
 31
0.0
  0
LINE
  5
123A
330
2
100
AcDbEntity
  8
PHAS
100
AcDbLine
 10
662.5112336253485
 20
448.7456345049861
 30
0.0
 11
662.5112336253485
 21
369.7456345049861
 31
0.0
  0
LINE
  5
123B
330
2
100
AcDbEntity
  8
PHAS
100
AcDbLine
 10
655.6588764060368
 20
448.6260261648115
 30
0.0
 11
662.5112336253485
 21
448.7456345049861
 31
0.0
  0
ARC
  5
123C
330
2
100
AcDbEntity
  8
PHAS
100
AcDbCircle
 10
655.7112336253482
 20
445.6264830793418
 30
0.0
 40
3.0
100
AcDbArc
 50
91.00000000002784
 51
180.0
  0
LINE
  5
123D
330
2
100
AcDbEntity
  8
0
 48
0.5
100
AcDbLine
 10
970.0591717487535
 20
622.7425856636334
 30
0.0
 11
970.0591717485297
 21
635.7425856634042
 31
0.0
  0
LINE
  5
123E
330
2
100
AcDbEntity
  8
0
 48
0.5
100
AcDbLine
 10
926.0591717487534
 20
622.7425856628772
 30
0.0
 11
926.0591717485301
 21
635.7425856630839
 31
0.0
  0
LINE
  5
123F
330
2
100
AcDbEntity
  8
0
100
AcDbLine
 10
926.0591717487534
 20
622.7425856628772
 30
0.0
 11
970.0591717487535
 21
622.7425856636334
 31
0.0
  0
LINE
  5
1240
330
2
100
AcDbEntity
  8
0
100
AcDbLine
 10
926.0591717459867
 20
783.7425856628767
 30
0.0
 11
970.0591717459868
 21
783.742585663633
 31
0.0
  0
LINE
  5
1241
330
2
100
AcDbEntity
  8
0
 48
0.5
100
AcDbLine
 10
970.0591717459868
 20
783.742585663633
 30
0.0
 11
970.0591717460213
 21
781.7425856634618
 31
0.0
  0
LINE
  5
1242
330
2
100
AcDbEntity
  8
0
 48
0.5
100
AcDbLine
 10
926.0591717459867
 20
783.7425856628767
 30
0.0
 11
926.0591717460208
 21
781.7425856629759
 31
0.0
  0
LINE
  5
1243
330
2
100
AcDbEntity
  8
CENTER
100
AcDbLine
 10
940.8064905814169
 20
630.7425856632549
 30
0.0
 11
955.2675373736349
 21
630.7425856632549
 31
0.0
  0
CIRCLE
  5
1250
330
2
100
AcDbEntity
  8
0
100
AcDbCircle
 10
948.0591717485292
 20
630.7425856632549
 30
0.0
 40
2.39999999999992
  0
CIRCLE
  5
1251
330
2
100
AcDbEntity
  8
0
100
AcDbCircle
 10
806.0112336253407
 20
409.245634504986
 30
0.0
 40
2.39999999999992
  0
ARC
  5
1252
330
2
100
AcDbEntity
  8
0
100
AcDbCircle
 10
1029.085082820361
 20
763.7425856632519
 30
0.0
 40
8.0
100
AcDbArc
 50
270.0
 51
358.5000000000103
  0
LINE
  5
1253
330
2
100
AcDbEntity
  8
0
100
AcDbLine
 10
1029.085082820363
 20
755.7425856632519
 30
0.0
 11
1026.981642361291
 21
755.7425856632514
 31
0.0
  0
ARC
  5
1254
330
2
100
AcDbEntity
  8
0
100
AcDbCircle
 10
1026.981642361291
 20
752.7425856632515
 30
0.0
 40
3.0
100
AcDbArc
 50
90.0
 51
178.5000000000038
  0
LINE
  5
1255
330
2
100
AcDbEntity
  8
0
100
AcDbLine
 10
1020.979585606346
 20
749.7425856632514
 30
0.0
 11
1010.465858973914
 21
749.7425856632512
 31
0.0
  0
ARC
  5
1256
330
2
100
AcDbEntity
  8
0
100
AcDbCircle
 10
1010.465858973914
 20
752.7425856632512
 30
0.0
 40
3.0
100
AcDbArc
 50
180.5000000000045
 51
270.0
  0
LINE
  5
1257
330
2
100
AcDbEntity
  8
0
100
AcDbLine
 10
1024.059171748527
 20
752.7425856632515
 30
0.0
 11
1024.059171748527
 21
752.7425856632515
 31
0.0
  0
LINE
  5
1258
330
2
100
AcDbEntity
  8
0
100
AcDbLine
 10
1024.059171748527
 20
690.7425856632451
 30
0.0
 11
1024.059171748527
 21
690.7425856632451
 31
0.0
  0
LINE
  5
1259
330
2
100
AcDbEntity
  8
0
100
AcDbLine
 10
1023.323909542043
 20
727.6640548183228
 30
0.0
 11
1023.982670386365
 21
752.8211165081749
 31
0.0
  0
ARC
  5
125A
330
2
100
AcDbEntity
  8
0
100
AcDbCircle
 10
1020.979585606346
 20
752.7425856632515
 30
0.0
 40
3.0
100
AcDbArc
 50
270.0
 51
358.5000000000038
  0
ARC
  5
125B
330
2
100
AcDbEntity
  8
0
100
AcDbCircle
 10
1020.324937567116
 20
727.7425856632464
 30
0.0
 40
3.0
100
AcDbArc
 50
270.0
 51
358.5000000000038
  0
ARC
  5
125C
330
2
100
AcDbEntity
  8
0
100
AcDbCircle
 10
1029.085082820361
 20
679.7425856632446
 30
0.0
 40
8.0
100
AcDbArc
 50
1.499999999989688
 51
90.0
  0
LINE
  5
125D
330
2
100
AcDbEntity
  8
0
100
AcDbLine
 10
1029.085082820363
 20
687.7425856632446
 30
0.0
 11
1026.981642361291
 21
687.742585663245
 31
0.0
  0
ARC
  5
125E
330
2
100
AcDbEntity
  8
0
100
AcDbCircle
 10
1026.981642361291
 20
690.7425856632451
 30
0.0
 40
3.0
100
AcDbArc
 50
181.4999999999962
 51
269.9999999999739
  0
LINE
  5
125F
330
2
100
AcDbEntity
  8
0
100
AcDbLine
 10
1020.979585606346
 20
693.7425856632451
 30
0.0
 11
1010.465858973914
 21
693.7425856632453
 31
0.0
  0
ARC
  5
1260
330
2
100
AcDbEntity
  8
0
100
AcDbCircle
 10
1010.465858973914
 20
690.7425856632453
 30
0.0
 40
3.0
100
AcDbArc
 50
90.0
 51
179.4999999999954
  0
LINE
  5
1261
330
2
100
AcDbEntity
  8
0
100
AcDbLine
 10
1024.059171748527
 20
690.7425856632451
 30
0.0
 11
1024.059171748527
 21
690.7425856632451
 31
0.0
  0
LINE
  5
1262
330
2
100
AcDbEntity
  8
0
100
AcDbLine
 10
1023.323909542043
 20
715.8211165081738
 30
0.0
 11
1023.982670386365
 21
690.6640548183215
 31
0.0
  0
ARC
  5
1263
330
2
100
AcDbEntity
  8
0
100
AcDbCircle
 10
1020.979585606346
 20
690.7425856632451
 30
0.0
 40
3.0
100
AcDbArc
 50
1.499999999996204
 51
90.0
  0
ARC
  5
1264
330
2
100
AcDbEntity
  8
0
100
AcDbCircle
 10
1020.324937567116
 20
715.74258566325
 30
0.0
 40
3.0
100
AcDbArc
 50
1.499999999996204
 51
90.0
  0
CIRCLE
  5
191C
330
2
100
AcDbEntity
  8
HOJO
100
AcDbCircle
 10
806.0112336253407
 20
409.245634504986
 30
0.0
 40
2.999999999999857
  0
CIRCLE
  5
1924
330
2
100
AcDbEntity
  8
HOJO
100
AcDbCircle
 10
948.0591717485294
 20
630.7425856632549
 30
0.0
 40
2.999999999999857
  0
TEXT
  5
1E89
330
2
100
AcDbEntity
  8
TITLE
100
AcDbText
 10
664.2034643738786
 20
752.9456148689839
 30
0.0
 40
7.5
  1
AFCZ28S-3~5M2000K33
100
AcDbText
  0
TEXT
  5
1E8A
330
2
100
AcDbEntity
  8
TITLE
100
AcDbText
 10
664.2034643738786
 20
740.6775161873622
 30
0.0
 40
7.5
  1
AFCZ28S-3~5L2000K33
100
AcDbText
  0
LINE
  5
2130
330
2
100
AcDbEntity
  8
0
100
AcDbLine
 10
1053.559171748527
 20
469.2456345049879
 30
0.0
 11
1053.559171748527
 21
349.2456345049861
 31
0.0
  0
LINE
  5
242D
330
2
100
AcDbEntity
  8
0
100
AcDbLine
 10
1053.559171748527
 20
469.2456345049879
 30
0.0
 11
1053.559171748527
 21
349.2456345049861
 31
0.0
  0
LINE
  5
2687
330
2
100
AcDbEntity
  8
0
100
AcDbLine
 10
1053.559171748527
 20
469.2456345049879
 30
0.0
 11
1053.559171748527
 21
349.2456345049861
 31
0.0
  0
LINE
  5
280A
330
2
100
AcDbEntity
  8
CENTER
100
AcDbLine
 10
1425.457231230701
 20
409.2456345049858
 30
0.0
 11
1239.634306364159
 21
409.245634504986
 31
0.0
  0
LINE
  5
2813
330
2
100
AcDbEntity
  8
0
100
AcDbLine
 10
1281.634306364149
 20
468.3380402547466
 30
0.0
 11
1284.084455094109
 21
468.3594223787805
 31
0.0
  0
ARC
  5
2814
330
2
100
AcDbEntity
  8
0
100
AcDbCircle
 10
1264.634306364148
 20
447.3142569553713
 30
0.0
 40
2.0
100
AcDbArc
 50
92.00000000000361
 51
180.0
  0
LINE
  5
2815
330
2
100
AcDbEntity
  8
0
100
AcDbLine
 10
1264.564507370743
 20
449.3130386094096
 30
0.0
 11
1271.808803847661
 21
449.5660150168096
 31
0.0
  0
ARC
  5
2816
330
2
100
AcDbEntity
  8
0
100
AcDbCircle
 10
1271.634306364149
 20
454.5629691519049
 30
0.0
 40
5.0
100
AcDbArc
 50
271.9999999999775
 51
0.0
  0
LINE
  5
2817
330
2
100
AcDbEntity
  8
0
100
AcDbLine
 10
1281.634306364149
 20
350.1532287552254
 30
0.0
 11
1284.084455094109
 21
350.1318466311913
 31
0.0
  0
LINE
  5
2818
330
2
100
AcDbEntity
  8
0
100
AcDbLine
 10
1276.634306364148
 20
354.2456345049857
 30
0.0
 11
1276.63430636415
 21
464.2456345049863
 31
0.0
  0
ARC
  5
2819
330
2
100
AcDbEntity
  8
0
100
AcDbCircle
 10
1264.634306364148
 20
371.1770120546006
 30
0.0
 40
1.999999999999999
100
AcDbArc
 50
180.0
 51
267.9999999999963
  0
LINE
  5
281A
330
2
100
AcDbEntity
  8
0
100
AcDbLine
 10
1264.564507370743
 20
369.1782304005623
 30
0.0
 11
1271.808803847661
 21
368.9252539931624
 31
0.0
  0
ARC
  5
281B
330
2
100
AcDbEntity
  8
0
100
AcDbCircle
 10
1271.634306364149
 20
363.928299858067
 30
0.0
 40
4.999999999999999
100
AcDbArc
 50
0.0
 51
87.9999999999964
  0
LINE
  5
281C
330
2
100
AcDbEntity
  8
0
100
AcDbLine
 10
1262.634306364148
 20
447.3142569553713
 30
0.0
 11
1262.634306364148
 21
371.1770120546004
 31
0.0
  0
LINE
  5
2829
330
2
100
AcDbEntity
  8
0
100
AcDbLine
 10
1276.63430636415
 20
464.2456345049863
 30
0.0
 11
1281.634306364149
 21
464.2456345049861
 31
0.0
  0
LINE
  5
282A
330
2
100
AcDbEntity
  8
0
 48
0.5
100
AcDbLine
 10
1281.634306364149
 20
468.3380402547465
 30
0.0
 11
1281.634306364149
 21
350.1532287552254
 31
0.0
  0
LINE
  5
282B
330
2
100
AcDbEntity
  8
0
100
AcDbLine
 10
1276.634306364148
 20
354.2456345049857
 30
0.0
 11
1281.634306364148
 21
354.2456345049858
 31
0.0
  0
LINE
  5
282C
330
2
100
AcDbEntity
  8
0
 48
0.5
100
AcDbLine
 10
1249.634306365671
 20
387.2456345040921
 30
0.0
 11
1262.634306365442
 21
387.2456345049858
 31
0.0
  0
LINE
  5
282D
330
2
100
AcDbEntity
  8
0
 48
0.5
100
AcDbLine
 10
1249.634306362647
 20
431.2456345040921
 30
0.0
 11
1262.634306362854
 21
431.2456345049858
 31
0.0
  0
LINE
  5
282E
330
2
100
AcDbEntity
  8
0
100
AcDbLine
 10
1249.634306362647
 20
431.2456345040921
 30
0.0
 11
1249.634306365671
 21
387.2456345040919
 31
0.0
  0
LINE
  5
29B8
330
2
100
AcDbEntity
  8
0
100
AcDbLine
 10
1053.559171748527
 20
469.2456345049861
 30
0.0
 11
1053.559171748527
 21
349.2456345049861
 31
0.0
  0
LINE
  5
29D9
330
2
100
AcDbEntity
  8
0
100
AcDbLine
 10
1053.559171748527
 20
661.2425856632435
 30
0.0
 11
1053.559171748526
 21
782.242585663243
 31
0.0
  0
LINE
  5
29DA
330
2
100
AcDbEntity
  8
0
100
AcDbLine
 10
1067.559171748526
 20
663.7425856632425
 30
0.0
 11
1067.559171748526
 21
779.742585663244
 31
0.0
  0
LINE
  5
29DB
330
2
100
AcDbEntity
  8
0
100
AcDbLine
 10
1125.05917174853
 20
786.7425856632426
 30
0.0
 11
1138.05917174853
 21
786.742585663243
 31
0.0
  0
LINE
  5
29DC
330
2
100
AcDbEntity
  8
0
100
AcDbLine
 10
1125.059171748527
 20
656.742585663243
 30
0.0
 11
1138.05917174853
 21
656.7425856632437
 31
0.0
  0
LINE
  5
29DD
330
2
100
AcDbEntity
  8
0
100
AcDbLine
 10
1112.05917174853
 20
691.242585663243
 30
0.0
 11
1118.059171748527
 21
691.2425856632435
 31
0.0
  0
ARC
  5
29DE
330
2
100
AcDbEntity
  8
0
100
AcDbCircle
 10
1112.05917174853
 20
694.242585663243
 30
0.0
 40
3.0
100
AcDbArc
 50
180.0
 51
270.0
  0
LINE
  5
29DF
330
2
100
AcDbEntity
  8
0
100
AcDbLine
 10
1075.357130719659
 20
669.2425856632439
 30
0.0
 11
1113.059171748527
 21
669.2425856632435
 31
0.0
  0
ARC
  5
29E0
330
2
100
AcDbEntity
  8
0
100
AcDbCircle
 10
1113.059171748527
 20
659.2425856632435
 30
0.0
 40
10.0
100
AcDbArc
 50
0.0
 51
90.0
  0
LINE
  5
29E1
330
2
100
AcDbEntity
  8
0
100
AcDbLine
 10
1053.559171748527
 20
661.7425856632426
 30
0.0
 11
1065.559171748526
 21
661.7425856632439
 31
0.0
  0
LINE
  5
29E2
330
2
100
AcDbEntity
  8
0
100
AcDbLine
 10
1053.559171748527
 20
661.2425856632426
 30
0.0
 11
1065.559171748526
 21
661.2425856632439
 31
0.0
  0
LINE
  5
29E3
330
2
100
AcDbEntity
  8
0
100
AcDbLine
 10
1053.559171748527
 20
781.7425856632426
 30
0.0
 11
1065.559171748526
 21
781.7425856632439
 31
0.0
  0
ARC
  5
29E4
330
2
100
AcDbEntity
  8
0
100
AcDbCircle
 10
1065.559171748526
 20
779.742585663244
 30
0.0
 40
2.0
100
AcDbArc
 50
0.0
 51
90.0
  0
ARC
  5
29E5
330
2
100
AcDbEntity
  8
0
100
AcDbCircle
 10
1075.241630114045
 20
782.2425856632421
 30
0.0
 40
8.0
100
AcDbArc
 50
194.4775121859168
 51
232.6089831347626
  0
ARC
  5
29E6
330
2
100
AcDbEntity
  8
0
100
AcDbCircle
 10
1075.241630114045
 20
782.2425856632421
 30
0.0
 40
8.0
100
AcDbArc
 50
268.6931248980347
 51
270.0
  0
LINE
  5
29E7
330
2
100
AcDbEntity
  8
0
100
AcDbLine
 10
1053.559171748527
 20
782.242585663243
 30
0.0
 11
1065.559171748526
 21
782.2425856632435
 31
0.0
  0
ARC
  5
29E8
330
2
100
AcDbEntity
  8
0
100
AcDbCircle
 10
1065.559171748526
 20
780.2425856632435
 30
0.0
 40
2.0
100
AcDbArc
 50
11.5369590327913
 51
90.0
  0
ARC
  5
29E9
330
2
100
AcDbEntity
  8
0
100
AcDbCircle
 10
1075.357130719659
 20
782.2425856632426
 30
0.0
 40
8.0
100
AcDbArc
 50
191.5369590328047
 51
232.6089831347651
  0
ARC
  5
29EA
330
2
100
AcDbEntity
  8
0
100
AcDbCircle
 10
1075.357130719659
 20
782.2425856632426
 30
0.0
 40
8.0
100
AcDbArc
 50
267.8655323847083
 51
270.0
  0
LINE
  5
29EB
330
2
100
AcDbEntity
  8
0
100
AcDbLine
 10
1075.357130719659
 20
774.2425856632426
 30
0.0
 11
1113.05917174853
 21
774.2425856632421
 31
0.0
  0
ARC
  5
29EC
330
2
100
AcDbEntity
  8
0
100
AcDbCircle
 10
1113.05917174853
 20
784.2425856632421
 30
0.0
 40
10.0
100
AcDbArc
 50
270.0
 51
0.0
  0
LINE
  5
29ED
330
2
100
AcDbEntity
  8
0
100
AcDbLine
 10
1138.05917174853
 20
786.742585663243
 30
0.0
 11
1138.05917174853
 21
656.7425856632437
 31
0.0
  0
LINE
  5
29EE
330
2
100
AcDbEntity
  8
0
100
AcDbLine
 10
1123.059171748531
 20
784.7425856632426
 30
0.0
 11
1123.059171748524
 21
714.6169788528295
 31
0.0
  0
ARC
  5
29EF
330
2
100
AcDbEntity
  8
0
100
AcDbCircle
 10
1125.05917174853
 20
784.7425856632426
 30
0.0
 40
2.0
100
AcDbArc
 50
90.0
 51
180.0
  0
LINE
  5
29F0
330
2
100
AcDbEntity
  8
0
100
AcDbLine
 10
1112.05917174853
 20
721.7425856632431
 30
0.0
 11
1121.059171748527
 21
721.7425856632431
 31
0.0
  0
ARC
  5
29F1
330
2
100
AcDbEntity
  8
0
100
AcDbCircle
 10
1121.059171748527
 20
723.742585663243
 30
0.0
 40
2.0
100
AcDbArc
 50
270.0
 51
0.0
  0
LINE
  5
29F2
330
2
100
AcDbEntity
  8
0
100
AcDbLine
 10
1109.05917174853
 20
718.742585663243
 30
0.0
 11
1109.05917174853
 21
694.242585663243
 31
0.0
  0
ARC
  5
29F3
330
2
100
AcDbEntity
  8
0
100
AcDbCircle
 10
1112.05917174853
 20
718.742585663243
 30
0.0
 40
3.0
100
AcDbArc
 50
90.0
 51
180.0
  0
LINE
  5
29F4
330
2
100
AcDbEntity
  8
CENTER
100
AcDbLine
 10
1105.809171748532
 20
701.7425856632431
 30
0.0
 11
1133.309171748531
 21
701.7425856632431
 31
0.0
  0
LINE
  5
29F5
330
2
100
AcDbEntity
  8
CENTER
100
AcDbLine
 10
1119.55917174853
 20
687.992585663243
 30
0.0
 11
1119.559171748532
 21
715.4925856632431
 31
0.0
  0
ARC
  5
29F6
330
2
100
AcDbEntity
  8
0
100
AcDbCircle
 10
1119.559171748532
 20
701.7425856632431
 30
0.0
 40
11.99999999999818
100
AcDbArc
 50
293.1323963992815
 51
66.86760360071845
  0
ARC
  5
29F7
330
2
100
AcDbEntity
  8
0
100
AcDbCircle
 10
1125.059171748527
 20
688.8681924736574
 30
0.0
 40
2.0
100
AcDbArc
 50
113.1323963992815
 51
180.0
  0
ARC
  5
29F8
330
2
100
AcDbEntity
  8
0
100
AcDbCircle
 10
1125.059171748524
 20
714.6169788528299
 30
0.0
 40
2.0
100
AcDbArc
 50
180.000000000013
 51
246.8676036007184
  0
ARC
  5
29F9
330
2
100
AcDbEntity
  8
0
100
AcDbCircle
 10
1065.559171748526
 20
663.7425856632425
 30
0.0
 40
2.0
100
AcDbArc
 50
270.0
 51
0.0
  0
ARC
  5
29FA
330
2
100
AcDbEntity
  8
0
100
AcDbCircle
 10
1075.241630114045
 20
661.2425856632435
 30
0.0
 40
8.0
100
AcDbArc
 50
90.0
 51
91.30687510196528
  0
ARC
  5
29FB
330
2
100
AcDbEntity
  8
0
100
AcDbCircle
 10
1075.241630114045
 20
661.2425856632435
 30
0.0
 40
8.0
100
AcDbArc
 50
127.3910168652348
 51
165.5224878140697
  0
ARC
  5
29FC
330
2
100
AcDbEntity
  8
0
100
AcDbCircle
 10
1065.559171748526
 20
663.2425856632425
 30
0.0
 40
2.0
100
AcDbArc
 50
270.0
 51
348.4630409671952
  0
ARC
  5
29FD
330
2
100
AcDbEntity
  8
0
100
AcDbCircle
 10
1075.357130719659
 20
661.2425856632435
 30
0.0
 40
8.0
100
AcDbArc
 50
90.0
 51
92.13446761529167
  0
ARC
  5
29FE
330
2
100
AcDbEntity
  8
0
100
AcDbCircle
 10
1075.357130719659
 20
661.2425856632435
 30
0.0
 40
8.0
100
AcDbArc
 50
127.3910168652348
 51
168.4630409671952
  0
LINE
  5
29FF
330
2
100
AcDbEntity
  8
0
100
AcDbLine
 10
1123.059171748527
 20
688.8681924736574
 30
0.0
 11
1123.059171748527
 21
658.742585663243
 31
0.0
  0
ARC
  5
2A00
330
2
100
AcDbEntity
  8
0
100
AcDbCircle
 10
1118.059171748527
 20
686.242585663243
 30
0.0
 40
5.0
100
AcDbArc
 50
0.0
 51
90.0
  0
ARC
  5
2A01
330
2
100
AcDbEntity
  8
0
100
AcDbCircle
 10
1125.059171748527
 20
658.742585663243
 30
0.0
 40
2.0
100
AcDbArc
 50
180.0
 51
270.0
  0
LINE
  5
2A02
330
2
100
AcDbEntity
  8
0
 48
0.5
100
AcDbLine
 10
654.6945669274633
 20
431.2456344999572
 30
0.0
 11
654.92859468143
 21
459.3289649758739
 31
0.0
  0
LINE
  5
2A04
330
2
100
AcDbEntity
  8
0
100
AcDbLine
 10
658.1770741808961
 20
344.2456345359019
 30
0.0
 11
771.8453930079651
 21
344.2456345359019
 31
0.0
  0
ARC
  5
2A05
330
2
100
AcDbEntity
  8
0
100
AcDbCircle
 10
771.8453930079651
 20
352.2456345359019
 30
0.0
 40
8.0
100
AcDbArc
 50
270.0
 51
344.6791825495251
  0
ARC
  5
2A07
330
2
100
AcDbEntity
  8
0
 48
0.5
100
AcDbCircle
 10
664.928247477291
 20
459.2456345359082
 30
0.0
 40
10.0
100
AcDbArc
 50
134.6637648212395
 51
179.5225462226892
  0
LINE
  5
2A0B
330
2
100
AcDbEntity
  8
0
100
AcDbLine
 10
658.1770741808961
 20
474.2456345359023
 30
0.0
 11
771.8453930079651
 21
474.2456345359016
 31
0.0
  0
ARC
  5
2A0C
330
2
100
AcDbEntity
  8
0
100
AcDbCircle
 10
771.8453930079651
 20
466.2456345359014
 30
0.0
 40
8.0
100
AcDbArc
 50
15.32081699022373
 51
90.0
  0
ARC
  5
2A10
330
2
100
AcDbEntity
  8
0
100
AcDbCircle
 10
658.1770741808961
 20
466.2456345359014
 30
0.0
 40
7.999999999999998
100
AcDbArc
 50
90.0
 51
179.833333340008
  0
LINE
  5
2A11
330
2
100
AcDbEntity
  8
0
100
AcDbLine
 10
650.0112335944361
 20
409.2456345359014
 30
0.0
 11
650.1771080272495
 21
466.2689055588443
 31
0.0
  0
ARC
  5
2A13
330
2
100
AcDbEntity
  8
0
100
AcDbCircle
 10
658.1770741808961
 20
352.2456345359023
 30
0.0
 40
7.999999999999998
100
AcDbArc
 50
180.166666660018
 51
270.0
  0
LINE
  5
2A14
330
2
100
AcDbEntity
  8
0
100
AcDbLine
 10
650.0112335944361
 20
409.2456345359023
 30
0.0
 11
650.1771080272512
 21
352.2223635129589
 31
0.0
  0
LINE
  5
2A15
330
2
100
AcDbEntity
  8
0
 48
0.5
100
AcDbLine
 10
654.6945669280622
 20
387.2456344999571
 30
0.0
 11
654.92859468143
 21
359.1623040959293
 31
0.0
  0
ARC
  5
2A16
330
2
100
AcDbEntity
  8
0
 48
0.5
100
AcDbCircle
 10
664.928247477291
 20
359.245634535895
 30
0.0
 40
10.0
100
AcDbArc
 50
180.4774537773107
 51
225.3362139591951
  0
LINE
  5
2A1D
330
2
100
AcDbEntity
  8
CENTER
100
AcDbLine
 10
715.011233625348
 20
484.2456345359019
 30
0.0
 11
715.011233625348
 21
334.2456345359019
 31
0.0
  0
LINE
  5
2A1E
330
2
100
AcDbEntity
  8
CENTER
100
AcDbLine
 10
735.0112335944325
 20
461.6917382416341
 30
0.0
 11
735.0112335944325
 21
476.9092002212564
 31
0.0
  0
ARC
  5
2A1F
330
2
100
AcDbEntity
  8
0
100
AcDbCircle
 10
748.9549961725654
 20
472.2456345359018
 30
0.0
 40
2.000000000000001
100
AcDbArc
 50
90.0
 51
178.9999999999721
  0
LINE
  5
2A20
330
2
100
AcDbEntity
  8
0
100
AcDbLine
 10
746.9553007822526
 20
472.2805393487779
 30
0.0
 11
746.9064144165185
 21
469.4798413317244
 31
0.0
  0
LINE
  5
2A21
330
2
100
AcDbEntity
  8
CENTER
100
AcDbLine
 10
768.2076262208932
 20
409.2456345049859
 30
0.0
 11
759.2076262208932
 21
409.2456345049859
 31
0.0
  0
LINE
  5
2A22
330
2
100
AcDbEntity
  8
CENTER
100
AcDbLine
 10
670.8148409988873
 20
409.2456345359019
 30
0.0
 11
661.8148409988873
 21
409.2456345359019
 31
0.0
  0
ARC
  5
2A23
330
2
100
AcDbEntity
  8
0
100
AcDbCircle
 10
721.0674710162995
 20
472.2456345359018
 30
0.0
 40
2.000000000000001
100
AcDbArc
 50
1.000000000027812
 51
90.0
  0
LINE
  5
2A24
330
2
100
AcDbEntity
  8
0
100
AcDbLine
 10
723.0671664066123
 20
472.2805393487779
 30
0.0
 11
723.1125917496833
 21
469.6781231872829
 31
0.0
  0
LINE
  5
2A85
330
2
100
AcDbEntity
  8
0
100
AcDbLine
 10
413.3629198943822
 20
469.2456345049861
 30
0.0
 11
413.3629198943822
 21
349.2456345049861
 31
0.0
  0
LINE
  5
2A86
330
2
100
AcDbEntity
  8
0
100
AcDbLine
 10
398.3156159986897
 20
409.245634504986
 30
0.0
 11
399.3286190303019
 21
351.2107296921115
 31
0.0
  0
LINE
  5
2A87
330
2
100
AcDbEntity
  8
0
100
AcDbLine
 10
341.897525368146
 20
344.2456345049865
 30
0.0
 11
328.8629198943786
 21
344.2456345049856
 31
0.0
  0
LINE
  5
2A88
330
2
100
AcDbEntity
  8
0
100
AcDbLine
 10
391.6458560550959
 20
461.7456345049861
 30
0.0
 11
359.8981346803243
 21
461.7456345049861
 31
0.0
  0
LINE
  5
2A89
330
2
100
AcDbEntity
  8
0
100
AcDbLine
 10
359.8981346803243
 20
461.745634504987
 30
0.0
 11
353.9080808371395
 21
461.7456345049861
 31
0.0
  0
ARC
  5
2A8A
330
2
100
AcDbEntity
  8
0
100
AcDbCircle
 10
359.8981346803243
 20
463.745634504987
 30
0.0
 40
2.0
100
AcDbArc
 50
181.0000000000668
 51
270.0
  0
LINE
  5
2A8B
330
2
100
AcDbEntity
  8
0
100
AcDbLine
 10
413.3629198943822
 20
349.2456345049865
 30
0.0
 11
401.3283144206147
 21
349.2456345049856
 31
0.0
  0
ARC
  5
2A8C
330
2
100
AcDbEntity
  8
0
100
AcDbCircle
 10
401.3283144206147
 20
351.2456345049861
 30
0.0
 40
2.0
100
AcDbArc
 50
194.4775121859294
 51
270.0
  0
ARC
  5
2A8D
330
2
100
AcDbEntity
  8
0
100
AcDbCircle
 10
391.6458560550959
 20
348.7456345049865
 30
0.0
 40
8.0
100
AcDbArc
 50
14.47751218592945
 51
52.6089827676681
  0
LINE
  5
2A8E
330
2
100
AcDbEntity
  8
0
100
AcDbLine
 10
391.6458560550959
 20
356.7456345049865
 30
0.0
 11
353.9080808371386
 21
356.7456345049865
 31
0.0
  0
ARC
  5
2A8F
330
2
100
AcDbEntity
  8
0
100
AcDbCircle
 10
353.9080808371386
 20
346.7456345049861
 30
0.0
 40
10.0
100
AcDbArc
 50
90.0
 51
178.9999999999982
  0
LINE
  5
2A90
330
2
100
AcDbEntity
  8
0
100
AcDbLine
 10
328.862919894379
 20
344.2456345049854
 30
0.0
 11
328.8629198943781
 21
474.245634504987
 31
0.0
  0
LINE
  5
2A91
330
2
100
AcDbEntity
  8
0
100
AcDbLine
 10
343.8972207584606
 20
346.2107296921114
 30
0.0
 11
344.9974991147151
 21
409.2456345049866
 31
0.0
  0
ARC
  5
2A92
330
2
100
AcDbEntity
  8
0
100
AcDbCircle
 10
341.897525368146
 20
346.2456345049861
 30
0.0
 40
2.0
100
AcDbArc
 50
270.0
 51
358.9999999999982
  0
LINE
  5
2A93
330
2
100
AcDbEntity
  8
0
100
AcDbLine
 10
328.8629198943786
 20
409.245634504986
 30
0.0
 11
413.3629198943822
 21
409.245634504986
 31
0.0
  0
LINE
  5
2A94
330
2
100
AcDbEntity
  8
CENTER
100
AcDbLine
 10
347.3629198943795
 20
457.6980521614712
 30
0.0
 11
347.3629198943795
 21
476.9092001903406
 31
0.0
  0
LINE
  5
2A95
330
2
100
AcDbEntity
  8
0
100
AcDbLine
 10
357.8984392900106
 20
463.710729692116
 30
0.0
 11
357.8972207584606
 21
463.7805393178608
 31
0.0
  0
ARC
  5
2A96
330
2
100
AcDbEntity
  8
0
 48
0.5
100
AcDbCircle
 10
355.8975253681478
 20
463.7456345049861
 30
0.0
 40
1.999999999999999
100
AcDbArc
 50
1.000000000001761
 51
90.0
  0
LINE
  5
2A97
330
2
100
AcDbEntity
  8
0
100
AcDbLine
 10
346.4247660635905
 20
465.7456345049865
 30
0.0
 11
355.8975253681478
 21
465.7456345049861
 31
0.0
  0
LINE
  5
2A98
330
2
100
AcDbEntity
  8
0
100
AcDbLine
 10
341.897525368146
 20
474.2456345049856
 30
0.0
 11
328.8629198943786
 21
474.245634504987
 31
0.0
  0
LINE
  5
2A99
330
2
100
AcDbEntity
  8
0
100
AcDbLine
 10
413.3629198943822
 20
469.2456345049861
 30
0.0
 11
401.3283144206147
 21
469.2456345049865
 31
0.0
  0
ARC
  5
2A9A
330
2
100
AcDbEntity
  8
0
100
AcDbCircle
 10
401.3283144206156
 20
467.245634504987
 30
0.0
 40
2.0
100
AcDbArc
 50
90.0
 51
178.9999999999982
  0
ARC
  5
2A9B
330
2
100
AcDbEntity
  8
0
100
AcDbCircle
 10
401.3283144206147
 20
467.2456345049865
 30
0.0
 40
2.0
100
AcDbArc
 50
90.0
 51
165.5224878140705
  0
ARC
  5
2A9C
330
2
100
AcDbEntity
  8
0
100
AcDbCircle
 10
391.6458560550959
 20
469.7456345049856
 30
0.0
 40
8.0
100
AcDbArc
 50
307.3910165006013
 51
345.5224878140705
  0
LINE
  5
2A9D
330
2
100
AcDbEntity
  8
0
100
AcDbLine
 10
343.8972207584606
 20
472.2805393178608
 30
0.0
 11
344.9974991147151
 21
409.245634504986
 31
0.0
  0
ARC
  5
2A9E
330
2
100
AcDbEntity
  8
0
100
AcDbCircle
 10
341.897525368146
 20
472.2456345049861
 30
0.0
 40
2.0
100
AcDbArc
 50
1.000000000001761
 51
90.0
  0
LINE
  5
2A9F
330
2
100
AcDbEntity
  8
0
100
AcDbLine
 10
398.3156159986897
 20
409.245634504986
 30
0.0
 11
399.3286190303019
 21
467.2805393178612
 31
0.0
  0
ARC
  5
2AA0
330
2
100
AcDbEntity
  8
0
100
AcDbCircle
 10
353.9080808371386
 20
471.7456345049856
 30
0.0
 40
10.0
100
AcDbArc
 50
181.0000000000017
 51
213.7489885959046
  0
ARC
  5
2AA1
330
2
100
AcDbEntity
  8
0
100
AcDbCircle
 10
353.9080808371386
 20
471.7456345049856
 30
0.0
 40
10.0
100
AcDbArc
 50
213.7489885959046
 51
270.0
  0
ARC
  5
2AA2
330
2
100
AcDbEntity
  8
0
100
AcDbCircle
 10
346.4247660635905
 20
466.7456345049861
 30
0.0
 40
1.0
100
AcDbArc
 50
213.7489885959046
 51
269.9999999999478
  0
LINE
  5
2AA6
330
2
100
AcDbEntity
  8
0
100
AcDbLine
 10
352.3629198943794
 20
469.7456345049861
 30
0.0
 11
344.1101218660064
 21
469.7456345049861
 31
0.0
  0
ARC
  5
2AA7
330
2
100
AcDbEntity
  8
0
100
AcDbCircle
 10
352.3629198943794
 20
465.7456345049861
 30
0.0
 40
4.0
100
AcDbArc
 50
0.0
 51
90.0
  0
LINE
  5
2AAB
330
2
100
AcDbEntity
  8
0
100
AcDbLine
 10
740.0112335944324
 20
469.7456345359019
 30
0.0
 11
730.0112335944325
 21
469.7456345359019
 31
0.0
  0
ARC
  5
2AAC
330
2
100
AcDbEntity
  8
0
100
AcDbCircle
 10
730.0112335944325
 20
465.7456345359019
 30
0.0
 40
4.0
100
AcDbArc
 50
90.0
 51
103.8918271038371
  0
ARC
  5
2AAD
330
2
100
AcDbEntity
  8
0
100
AcDbCircle
 10
740.0112335944324
 20
465.7456345359019
 30
0.0
 40
4.0
100
AcDbArc
 50
70.94327574381215
 51
90.0
  0
CIRCLE
  5
2AAE
330
2
100
AcDbEntity
  8
0
100
AcDbCircle
 10
1119.559171748532
 20
701.7425856632431
 30
0.0
 40
9.0
  0
LINE
  5
2AB0
330
2
100
AcDbEntity
  8
0
100
AcDbLine
 10
356.3629198943794
 20
465.7456345049861
 30
0.0
 11
355.8975253681478
 21
465.7456345049861
 31
0.0
  0
LINE
  5
2AC5
330
2
100
AcDbEntity
  8
0
100
AcDbLine
 10
1067.559171748526
 20
765.1365069563505
 30
0.0
 11
1069.059171748527
 21
765.1365069563505
 31
0.0
  0
LINE
  5
2AC6
330
2
100
AcDbEntity
  8
0
100
AcDbLine
 10
1067.559171748526
 20
776.6365069563505
 30
0.0
 11
1069.059171748527
 21
776.6365069563505
 31
0.0
  0
LINE
  5
2AC7
330
2
100
AcDbEntity
  8
0
100
AcDbLine
 10
1074.659171748526
 20
765.8865069563505
 30
0.0
 11
1075.059171748526
 21
766.5793272793778
 31
0.0
  0
LINE
  5
2AC8
330
2
100
AcDbEntity
  8
0
100
AcDbLine
 10
1069.059171748527
 20
765.1365069563505
 30
0.0
 11
1069.059171748527
 21
776.6365069563505
 31
0.0
  0
LINE
  5
2AC9
330
2
100
AcDbEntity
  8
0
100
AcDbLine
 10
1074.659171748526
 20
765.8865069563505
 30
0.0
 11
1074.659171748526
 21
775.8865069563506
 31
0.0
  0
LINE
  5
2ACA
330
2
100
AcDbEntity
  8
0
100
AcDbLine
 10
1069.059171748527
 20
765.8865069563505
 30
0.0
 11
1074.659171748526
 21
765.8865069563505
 31
0.0
  0
LINE
  5
2ACB
330
2
100
AcDbEntity
  8
0
100
AcDbLine
 10
1069.059171748527
 20
775.8865069563506
 30
0.0
 11
1074.659171748526
 21
775.8865069563506
 31
0.0
  0
LINE
  5
2ACC
330
2
100
AcDbEntity
  8
0
100
AcDbLine
 10
1074.659171748526
 20
775.8865069563506
 30
0.0
 11
1075.059171748526
 21
775.1936866333233
 31
0.0
  0
LINE
  5
2ACD
330
2
100
AcDbEntity
  8
0
100
AcDbLine
 10
1075.059171748526
 20
766.5793272793778
 30
0.0
 11
1075.059171748526
 21
775.1936866333233
 31
0.0
  0
LINE
  5
2ACE
330
2
100
AcDbEntity
  8
0
 48
12.0
100
AcDbLine
 10
1067.559171748526
 20
776.6365069563505
 30
0.0
 11
1067.559171748526
 21
765.1365069563505
 31
0.0
  0
LINE
  5
2ACF
330
2
100
AcDbEntity
  8
0
100
AcDbLine
 10
399.0730597128944
 20
365.8517131807532
 30
0.0
 11
397.5730597128945
 21
365.8517131807532
 31
0.0
  0
LINE
  5
2AD0
330
2
100
AcDbEntity
  8
0
100
AcDbLine
 10
399.0730597128944
 20
354.3517131807532
 30
0.0
 11
397.5730597128936
 21
354.3517131807532
 31
0.0
  0
LINE
  5
2AD1
330
2
100
AcDbEntity
  8
0
100
AcDbLine
 10
391.9730597128941
 20
365.1017131807536
 30
0.0
 11
391.5730597128945
 21
364.4088928577264
 31
0.0
  0
LINE
  5
2AD2
330
2
100
AcDbEntity
  8
0
100
AcDbLine
 10
397.5730597128945
 20
365.8517131807532
 30
0.0
 11
397.5730597128936
 21
354.3517131807532
 31
0.0
  0
LINE
  5
2AD3
330
2
100
AcDbEntity
  8
0
100
AcDbLine
 10
391.9730597128941
 20
365.1017131807536
 30
0.0
 11
391.9730597128941
 21
355.1017131807536
 31
0.0
  0
LINE
  5
2AD4
330
2
100
AcDbEntity
  8
0
100
AcDbLine
 10
397.5730597128945
 20
365.1017131807532
 30
0.0
 11
391.9730597128941
 21
365.1017131807536
 31
0.0
  0
LINE
  5
2AD5
330
2
100
AcDbEntity
  8
0
100
AcDbLine
 10
397.5730597128936
 20
355.1017131807532
 30
0.0
 11
391.9730597128941
 21
355.1017131807536
 31
0.0
  0
LINE
  5
2AD6
330
2
100
AcDbEntity
  8
0
100
AcDbLine
 10
391.9730597128941
 20
355.1017131807536
 30
0.0
 11
391.5730597128945
 21
355.7945335037809
 31
0.0
  0
LINE
  5
2AD7
330
2
100
AcDbEntity
  8
0
100
AcDbLine
 10
391.5730597128945
 20
364.4088928577264
 30
0.0
 11
391.5730597128945
 21
355.7945335037809
 31
0.0
  0
LINE
  5
2AD8
330
2
100
AcDbEntity
  8
0
 48
12.0
100
AcDbLine
 10
399.0730597128944
 20
354.3517131807532
 30
0.0
 11
399.0730597128944
 21
365.8517131807532
 31
0.0
  0
LINE
  5
2AD9
330
2
100
AcDbEntity
  8
0
100
AcDbLine
 10
399.0730597118122
 20
464.1395557671769
 30
0.0
 11
397.5730597118113
 21
464.1395557671769
 31
0.0
  0
LINE
  5
2ADA
330
2
100
AcDbEntity
  8
0
100
AcDbLine
 10
399.0730597118122
 20
452.6395557671769
 30
0.0
 11
397.5730597118113
 21
452.6395557671769
 31
0.0
  0
LINE
  5
2ADB
330
2
100
AcDbEntity
  8
0
100
AcDbLine
 10
391.9730597118118
 20
463.3895557671774
 30
0.0
 11
391.5730597118122
 21
462.6967354441501
 31
0.0
  0
LINE
  5
2ADC
330
2
100
AcDbEntity
  8
0
100
AcDbLine
 10
397.5730597118113
 20
464.1395557671769
 30
0.0
 11
397.5730597118113
 21
452.6395557671769
 31
0.0
  0
LINE
  5
2ADD
330
2
100
AcDbEntity
  8
0
100
AcDbLine
 10
391.9730597118118
 20
463.3895557671774
 30
0.0
 11
391.9730597118118
 21
453.3895557671773
 31
0.0
  0
LINE
  5
2ADE
330
2
100
AcDbEntity
  8
0
100
AcDbLine
 10
397.5730597118113
 20
463.3895557671769
 30
0.0
 11
391.9730597118118
 21
463.3895557671774
 31
0.0
  0
LINE
  5
2ADF
330
2
100
AcDbEntity
  8
0
100
AcDbLine
 10
397.5730597118113
 20
453.3895557671769
 30
0.0
 11
391.9730597118118
 21
453.3895557671773
 31
0.0
  0
LINE
  5
2AE0
330
2
100
AcDbEntity
  8
0
100
AcDbLine
 10
391.9730597118118
 20
453.3895557671773
 30
0.0
 11
391.5730597118122
 21
454.0823760902046
 31
0.0
  0
LINE
  5
2AE1
330
2
100
AcDbEntity
  8
0
100
AcDbLine
 10
391.5730597118122
 20
462.6967354441501
 30
0.0
 11
391.5730597118122
 21
454.0823760902046
 31
0.0
  0
LINE
  5
2AE2
330
2
100
AcDbEntity
  8
0
 48
12.0
100
AcDbLine
 10
399.0730597118122
 20
452.6395557671769
 30
0.0
 11
399.0730597118122
 21
464.1395557671769
 31
0.0
  0
LINE
  5
2B22
330
2
100
AcDbEntity
  8
0
100
AcDbLine
 10
1067.559171748526
 20
678.3486643701356
 30
0.0
 11
1069.059171748527
 21
678.3486643701356
 31
0.0
  0
LINE
  5
2B23
330
2
100
AcDbEntity
  8
0
100
AcDbLine
 10
1067.559171748526
 20
666.8486643701355
 30
0.0
 11
1069.059171748527
 21
666.8486643701355
 31
0.0
  0
LINE
  5
2B24
330
2
100
AcDbEntity
  8
0
100
AcDbLine
 10
1074.659171748526
 20
677.5986643701355
 30
0.0
 11
1075.059171748526
 21
676.9058440471082
 31
0.0
  0
LINE
  5
2B25
330
2
100
AcDbEntity
  8
0
100
AcDbLine
 10
1069.059171748527
 20
678.3486643701356
 30
0.0
 11
1069.059171748527
 21
666.8486643701355
 31
0.0
  0
LINE
  5
2B26
330
2
100
AcDbEntity
  8
0
100
AcDbLine
 10
1074.659171748526
 20
677.5986643701355
 30
0.0
 11
1074.659171748526
 21
667.5986643701356
 31
0.0
  0
LINE
  5
2B27
330
2
100
AcDbEntity
  8
0
100
AcDbLine
 10
1069.059171748527
 20
677.5986643701355
 30
0.0
 11
1074.659171748526
 21
677.5986643701355
 31
0.0
  0
LINE
  5
2B28
330
2
100
AcDbEntity
  8
0
100
AcDbLine
 10
1069.059171748527
 20
667.5986643701356
 30
0.0
 11
1074.659171748526
 21
667.5986643701356
 31
0.0
  0
LINE
  5
2B29
330
2
100
AcDbEntity
  8
0
100
AcDbLine
 10
1074.659171748526
 20
667.5986643701356
 30
0.0
 11
1075.059171748526
 21
668.2914846931628
 31
0.0
  0
LINE
  5
2B2A
330
2
100
AcDbEntity
  8
0
100
AcDbLine
 10
1075.059171748526
 20
676.9058440471082
 30
0.0
 11
1075.059171748526
 21
668.2914846931628
 31
0.0
  0
LINE
  5
2B2B
330
2
100
AcDbEntity
  8
0
 48
12.0
100
AcDbLine
 10
1067.559171748526
 20
666.8486643701355
 30
0.0
 11
1067.559171748526
 21
678.3486643701356
 31
0.0
  0
LINE
  5
2B2C
330
2
100
AcDbEntity
  8
CENTER
  6
CENTERX2
100
AcDbLine
 10
1064.559171748526
 20
770.8865069563509
 30
0.0
 11
1078.059171748527
 21
770.8865069563505
 31
0.0
  0
LINE
  5
2B2D
330
2
100
AcDbEntity
  8
CENTER
  6
CENTERX2
100
AcDbLine
 10
1064.559171748526
 20
672.598664370136
 30
0.0
 11
1078.059171748527
 21
672.5986643701356
 31
0.0
  0
LINE
  5
2B30
330
2
100
AcDbEntity
  8
CENTER
  6
CENTERX2
100
AcDbLine
 10
402.0730597118122
 20
458.3895557671776
 30
0.0
 11
388.5669504390866
 21
458.3895557671773
 31
0.0
  0
LINE
  5
2B31
330
2
100
AcDbEntity
  8
CENTER
  6
CENTERX2
100
AcDbLine
 10
402.0730597128944
 20
360.1017131807539
 30
0.0
 11
388.5669504401689
 21
360.1017131807537
 31
0.0
  0
LINE
  5
2D9B
330
2
100
AcDbEntity
  8
0
100
AcDbLine
 10
1053.559171748527
 20
469.2456345049861
 30
0.0
 11
1053.559171748527
 21
349.2456345049861
 31
0.0
  0
LINE
  5
2DB8
330
2
100
AcDbEntity
  8
CENTER
100
AcDbLine
 10
1348.634306364153
 20
334.2456345049859
 30
0.0
 11
1348.634306364151
 21
484.2456345049859
 31
0.0
  0
LINE
  5
2F83
330
2
100
AcDbEntity
  8
0
100
AcDbLine
 10
1053.559171748527
 20
469.2456345049861
 30
0.0
 11
1053.559171748527
 21
349.2456345049861
 31
0.0
  0
LINE
  5
2F84
330
2
100
AcDbEntity
  8
0
100
AcDbLine
 10
1068.606475644219
 20
409.245634504986
 30
0.0
 11
1067.593472612607
 21
351.2107296921115
 31
0.0
  0
LINE
  5
2F85
330
2
100
AcDbEntity
  8
0
100
AcDbLine
 10
1125.024566274763
 20
344.2456345049865
 30
0.0
 11
1138.059171748531
 21
344.2456345049861
 31
0.0
  0
LINE
  5
2F86
330
2
100
AcDbEntity
  8
0
100
AcDbLine
 10
1075.349031931096
 20
461.7456345049861
 30
0.0
 11
1107.023956962585
 21
461.7456345049861
 31
0.0
  0
LINE
  5
2F87
330
2
100
AcDbEntity
  8
0
100
AcDbLine
 10
1107.023956962585
 20
461.745634504987
 30
0.0
 11
1108.98935148882
 21
461.7456345049865
 31
0.0
  0
ARC
  5
2F88
330
2
100
AcDbEntity
  8
0
100
AcDbCircle
 10
1107.023956962585
 20
463.745634504987
 30
0.0
 40
2.0
100
AcDbArc
 50
270.0
 51
358.9999999999331
  0
LINE
  5
2F89
330
2
100
AcDbEntity
  8
0
100
AcDbLine
 10
1053.559171748527
 20
349.2456345049865
 30
0.0
 11
1065.593777222294
 21
349.2456345049856
 31
0.0
  0
ARC
  5
2F8A
330
2
100
AcDbEntity
  8
0
100
AcDbCircle
 10
1065.593777222294
 20
351.2456345049861
 30
0.0
 40
2.0
100
AcDbArc
 50
270.0
 51
345.5224878140642
  0
ARC
  5
2F8B
330
2
100
AcDbEntity
  8
0
100
AcDbCircle
 10
1075.276235587813
 20
348.7456345049865
 30
0.0
 40
8.0
100
AcDbArc
 50
127.3910172323318
 51
165.5224878140642
  0
LINE
  5
2F8C
330
2
100
AcDbEntity
  8
0
100
AcDbLine
 10
1075.349031930014
 20
356.7456345049865
 30
0.0
 11
1113.01401080577
 21
356.7456345049865
 31
0.0
  0
ARC
  5
2F8D
330
2
100
AcDbEntity
  8
0
100
AcDbCircle
 10
1113.01401080577
 20
346.7456345049861
 30
0.0
 40
10.0
100
AcDbArc
 50
1.000000000001761
 51
90.0
  0
LINE
  5
2F8E
330
2
100
AcDbEntity
  8
0
100
AcDbLine
 10
1138.059171748531
 20
344.2456345049861
 30
0.0
 11
1138.059171748529
 21
474.2456345049865
 31
0.0
  0
LINE
  5
2F8F
330
2
100
AcDbEntity
  8
0
100
AcDbLine
 10
1123.024870884448
 20
346.2107296921114
 30
0.0
 11
1121.924592528194
 21
409.2456345049866
 31
0.0
  0
ARC
  5
2F90
330
2
100
AcDbEntity
  8
0
100
AcDbCircle
 10
1125.024566274763
 20
346.2456345049861
 30
0.0
 40
2.0
100
AcDbArc
 50
181.0000000000017
 51
270.0
  0
LINE
  5
2F91
330
2
100
AcDbEntity
  8
0
100
AcDbLine
 10
1138.05917174853
 20
409.245634504986
 30
0.0
 11
1053.559171748527
 21
409.245634504986
 31
0.0
  0
LINE
  5
2F92
330
2
100
AcDbEntity
  8
CENTER
100
AcDbLine
 10
1119.559171748529
 20
459.300238867632
 30
0.0
 11
1119.559171748529
 21
476.9092001903406
 31
0.0
  0
LINE
  5
2F93
330
2
100
AcDbEntity
  8
0
100
AcDbLine
 10
1108.850149007533
 20
453.770729692115
 30
0.0
 11
1109.023652352897
 21
463.7107296921165
 31
0.0
  0
LINE
  5
2F94
330
2
100
AcDbEntity
  8
0
100
AcDbLine
 10
1109.023652352898
 20
463.710729692116
 30
0.0
 11
1109.024870884448
 21
463.7805393178608
 31
0.0
  0
ARC
  5
2F95
330
2
100
AcDbEntity
  8
0
 48
0.5
100
AcDbCircle
 10
1111.024566274761
 20
463.7456345049861
 30
0.0
 40
1.999999999999999
100
AcDbArc
 50
90.0
 51
178.9999999999982
  0
LINE
  5
2F96
330
2
100
AcDbEntity
  8
0
100
AcDbLine
 10
1120.497325579318
 20
465.7456345049865
 30
0.0
 11
1111.024566274761
 21
465.7456345049861
 31
0.0
  0
LINE
  5
2F97
330
2
100
AcDbEntity
  8
0
100
AcDbLine
 10
1112.660536031436
 20
451.8056345049855
 30
0.0
 11
1106.85045361722
 21
451.8056345049851
 31
0.0
  0
ARC
  5
2F98
330
2
100
AcDbEntity
  8
0
100
AcDbCircle
 10
1106.85045361722
 20
453.8056345049851
 30
0.0
 40
2.0
100
AcDbArc
 50
270.0
 51
359.0000000001285
  0
LINE
  5
2F99
330
2
100
AcDbEntity
  8
0
100
AcDbLine
 10
1125.024566274763
 20
474.2456345049856
 30
0.0
 11
1138.059171748529
 21
474.2456345049865
 31
0.0
  0
LINE
  5
2F9A
330
2
100
AcDbEntity
  8
0
100
AcDbLine
 10
1053.559171748527
 20
469.2456345049861
 30
0.0
 11
1065.593777222294
 21
469.2456345049865
 31
0.0
  0
ARC
  5
2F9B
330
2
100
AcDbEntity
  8
0
100
AcDbCircle
 10
1065.593777222293
 20
467.245634504987
 30
0.0
 40
2.0
100
AcDbArc
 50
1.000000000001761
 51
90.0
  0
ARC
  5
2F9C
330
2
100
AcDbEntity
  8
0
100
AcDbCircle
 10
1065.593777222294
 20
467.2456345049865
 30
0.0
 40
2.0
100
AcDbArc
 50
14.47751218593576
 51
90.0
  0
ARC
  5
2F9D
330
2
100
AcDbEntity
  8
0
100
AcDbCircle
 10
1075.276235587813
 20
469.7456345049856
 30
0.0
 40
8.0
100
AcDbArc
 50
194.4775121859326
 51
232.6089834994149
  0
LINE
  5
2F9E
330
2
100
AcDbEntity
  8
0
100
AcDbLine
 10
1123.024870884448
 20
472.2805393178608
 30
0.0
 11
1122.893372370893
 21
464.7469945218079
 31
0.0
  0
ARC
  5
2F9F
330
2
100
AcDbEntity
  8
0
100
AcDbCircle
 10
1125.024566274763
 20
472.2456345049861
 30
0.0
 40
2.0
100
AcDbArc
 50
90.0
 51
178.9999999999982
  0
LINE
  5
2FA0
330
2
100
AcDbEntity
  8
0
100
AcDbLine
 10
1068.233999170793
 20
430.5847973759429
 30
0.0
 11
1067.593472612607
 21
467.2805393178612
 31
0.0
  0
ARC
  5
2FA1
330
2
100
AcDbEntity
  8
0
100
AcDbCircle
 10
1113.01401080577
 20
471.7456345049856
 30
0.0
 40
10.0
100
AcDbArc
 50
326.2510114040953
 51
358.9999999999982
  0
ARC
  5
2FA2
330
2
100
AcDbEntity
  8
0
100
AcDbCircle
 10
1120.497325579318
 20
466.7456345049861
 30
0.0
 40
1.0
100
AcDbArc
 50
270.0000000000521
 51
326.2510114040953
  0
LINE
  5
2FA5
330
2
100
AcDbEntity
  8
0
100
AcDbLine
 10
1405.468465777687
 20
344.2456345049858
 30
0.0
 11
1291.800146950618
 21
344.2456345049858
 31
0.0
  0
LINE
  5
2FA6
330
2
100
AcDbEntity
  8
HIDS
  6
SEKKEI_H
100
AcDbLine
 10
1346.668911837922
 20
465.7456345049922
 30
0.0
 11
1317.787003627263
 21
465.7456345049922
 31
0.0
  0
ARC
  5
2FA7
330
2
100
AcDbEntity
  8
HIDS
  6
SEKKEI_H
100
AcDbCircle
 10
1317.787003627263
 20
466.7456345049922
 30
0.0
 40
1.0
100
AcDbArc
 50
181.0000000000799
 51
270.0
  0
ARC
  5
2FA8
330
2
100
AcDbEntity
  8
HIDS
  6
SEKKEI_H
100
AcDbCircle
 10
1346.668911837922
 20
463.7456345049923
 30
0.0
 40
2.0
100
AcDbArc
 50
1.00000000005392
 51
90.0
  0
ARC
  5
2FA9
330
2
100
AcDbEntity
  8
HIDS
  6
SEKKEI_H
100
AcDbCircle
 10
1320.099700883062
 20
463.745634497669
 30
0.0
 40
1.999999999999999
100
AcDbArc
 50
90.0
 51
179.0000000000242
  0
CIRCLE
  5
2FAA
330
2
100
AcDbEntity
  8
0
100
AcDbCircle
 10
1399.899548000524
 20
357.9803928686096
 30
0.0
 40
3.299999999999999
  0
LINE
  5
2FAB
330
2
100
AcDbEntity
  8
CENTER
100
AcDbLine
 10
1390.649548000524
 20
357.9803928686096
 30
0.0
 11
1409.149548000524
 21
357.9803928686096
 31
0.0
  0
LINE
  5
2FAC
330
2
100
AcDbEntity
  8
CENTER
100
AcDbLine
 10
1399.899548000524
 20
348.7303928686096
 30
0.0
 11
1399.899548000524
 21
367.2303928686096
 31
0.0
  0
LINE
  5
2FAD
330
2
100
AcDbEntity
  8
0
100
AcDbLine
 10
1405.468465777687
 20
474.2456345049858
 30
0.0
 11
1291.800146950618
 21
474.2456345049858
 31
0.0
  0
CIRCLE
  5
2FAE
330
2
100
AcDbEntity
  8
HIDS
  6
SEKKEI_H
100
AcDbCircle
 10
1348.634306348693
 20
409.2456344895281
 30
0.0
 40
52.49999999999999
  0
ARC
  5
2FAF
330
2
100
AcDbEntity
  8
HIDS
  6
SEKKEI_H
100
AcDbCircle
 10
1312.934118854715
 20
454.3205345215292
 30
0.0
 40
5.0
100
AcDbArc
 50
308.3799009024193
 51
358.9999999999982
  0
LINE
  5
2FB0
330
2
100
AcDbEntity
  8
CENTER
100
AcDbLine
 10
1399.899547993206
 20
451.2608761340325
 30
0.0
 11
1399.899547993206
 21
469.7608761340325
 31
0.0
  0
LINE
  5
2FB1
330
2
100
AcDbEntity
  8
CENTER
100
AcDbLine
 10
1409.149547993206
 20
460.5108761340325
 30
0.0
 11
1390.649547993206
 21
460.5108761340325
 31
0.0
  0
LINE
  5
2FB2
330
2
100
AcDbEntity
  8
CENTER
100
AcDbLine
 10
1306.619064727782
 20
460.5108761267138
 30
0.0
 11
1288.119064727782
 21
460.5108761267138
 31
0.0
  0
LINE
  5
2FB3
330
2
100
AcDbEntity
  8
CENTER
100
AcDbLine
 10
1297.369064727782
 20
469.7608761267138
 30
0.0
 11
1297.369064727782
 21
451.2608761267138
 31
0.0
  0
LINE
  5
2FB4
330
2
100
AcDbEntity
  8
CENTER
100
AcDbLine
 10
1297.3690647351
 20
367.2303928612909
 30
0.0
 11
1297.3690647351
 21
348.7303928612909
 31
0.0
  0
LINE
  5
2FB5
330
2
100
AcDbEntity
  8
CENTER
100
AcDbLine
 10
1288.1190647351
 20
357.9803928612909
 30
0.0
 11
1306.6190647351
 21
357.9803928612909
 31
0.0
  0
LINE
  5
2FB6
330
2
100
AcDbEntity
  8
0
100
AcDbLine
 10
1405.468465777687
 20
474.2456345049864
 30
0.0
 11
1291.800146950618
 21
474.2456345049854
 31
0.0
  0
ARC
  5
2FB7
330
2
100
AcDbEntity
  8
HIDS
  6
SEKKEI_H
100
AcDbCircle
 10
1342.578068942285
 20
472.2456345049859
 30
0.0
 40
2.0
100
AcDbArc
 50
90.0
 51
178.9999999999721
  0
ARC
  5
2FB8
330
2
100
AcDbEntity
  8
0
100
AcDbCircle
 10
1291.800146950618
 20
466.2456345049854
 30
0.0
 40
8.0
100
AcDbArc
 50
90.0
 51
179.833333340008
  0
LINE
  5
2FB9
330
2
100
AcDbEntity
  8
0
100
AcDbLine
 10
1283.634306364158
 20
409.2456345049854
 30
0.0
 11
1283.800180796971
 21
466.2689055279283
 31
0.0
  0
ARC
  5
2FBA
330
2
100
AcDbEntity
  8
0
100
AcDbCircle
 10
1405.468465777687
 20
466.2456345049854
 30
0.0
 40
7.999999999999998
100
AcDbArc
 50
0.1666666599919667
 51
90.0
  0
LINE
  5
2FBB
330
2
100
AcDbEntity
  8
0
100
AcDbLine
 10
1413.634306364147
 20
409.2456345049854
 30
0.0
 11
1413.468431931333
 21
466.2689055279283
 31
0.0
  0
ARC
  5
2FBC
330
2
100
AcDbEntity
  8
0
100
AcDbCircle
 10
1291.800146950618
 20
352.2456345049863
 30
0.0
 40
8.0
100
AcDbArc
 50
180.166666660018
 51
270.0
  0
LINE
  5
2FBD
330
2
100
AcDbEntity
  8
0
100
AcDbLine
 10
1283.634306364158
 20
409.2456345049863
 30
0.0
 11
1283.800180796971
 21
352.2223634820434
 31
0.0
  0
ARC
  5
2FBE
330
2
100
AcDbEntity
  8
0
100
AcDbCircle
 10
1405.468465777687
 20
352.2456345049863
 30
0.0
 40
7.999999999999998
100
AcDbArc
 50
270.0
 51
359.8333333399819
  0
LINE
  5
2FBF
330
2
100
AcDbEntity
  8
0
100
AcDbLine
 10
1413.634306364147
 20
409.2456345049863
 30
0.0
 11
1413.468431931331
 21
352.2223634820429
 31
0.0
  0
CIRCLE
  5
2FC0
330
2
100
AcDbEntity
  8
HOJO
100
AcDbCircle
 10
1399.899548000524
 20
357.9803928686096
 30
0.0
 40
4.0
  0
CIRCLE
  5
2FC1
330
2
100
AcDbEntity
  8
HOJO
100
AcDbCircle
 10
1399.899547993206
 20
460.5108761340325
 30
0.0
 40
4.0
  0
CIRCLE
  5
2FC2
330
2
100
AcDbEntity
  8
HOJO
100
AcDbCircle
 10
1297.369064727782
 20
460.5108761267138
 30
0.0
 40
4.0
  0
CIRCLE
  5
2FC3
330
2
100
AcDbEntity
  8
HOJO
100
AcDbCircle
 10
1297.3690647351
 20
357.9803928612909
 30
0.0
 40
4.0
  0
CIRCLE
  5
2FC4
330
2
100
AcDbEntity
  8
0
100
AcDbCircle
 10
1297.3690647351
 20
357.9803928612909
 30
0.0
 40
3.299999999999999
  0
CIRCLE
  5
2FC5
330
2
100
AcDbEntity
  8
0
100
AcDbCircle
 10
1297.369064727782
 20
460.5108761267138
 30
0.0
 40
3.299999999999999
  0
CIRCLE
  5
2FC6
330
2
100
AcDbEntity
  8
0
100
AcDbCircle
 10
1399.899547993206
 20
460.5108761340325
 30
0.0
 40
3.299999999999999
  0
LINE
  5
2FC7
330
2
100
AcDbEntity
  8
HIDS
  6
SEKKEI_H
100
AcDbLine
 10
1340.578373551975
 20
472.2805393178628
 30
0.0
 11
1340.481456796199
 21
466.7281820985535
 31
0.0
  0
ARC
  5
2FC8
330
2
100
AcDbEntity
  8
HIDS
  6
SEKKEI_H
100
AcDbCircle
 10
1339.481609101042
 20
466.7456345049922
 30
0.0
 40
1.0
100
AcDbArc
 50
270.0
 51
358.99999999992
  0
ARC
  5
2FC9
330
2
100
AcDbEntity
  8
HIDS
  6
SEKKEI_H
100
AcDbCircle
 10
1314.690543786019
 20
472.2456345049859
 30
0.0
 40
2.0
100
AcDbArc
 50
1.000000000027812
 51
90.0
  0
LINE
  5
2FCA
330
2
100
AcDbEntity
  8
HIDS
  6
SEKKEI_H
100
AcDbLine
 10
1316.690239176331
 20
472.2805393178628
 30
0.0
 11
1316.787155932107
 21
466.7281820985535
 31
0.0
  0
LINE
  5
2FCB
330
2
100
AcDbEntity
  8
HIDS
  6
SEKKEI_H
100
AcDbLine
 10
1318.100005492748
 20
463.7805393105436
 30
0.0
 11
1317.933357330498
 21
454.2332724893426
 31
0.0
  0
CIRCLE
  5
2FCC
330
2
100
AcDbEntity
  8
CENTER
100
AcDbCircle
 10
1348.634306364152
 20
409.2456345049859
 30
0.0
 40
72.49999999013503
  0
LINE
  5
2FCD
330
2
100
AcDbEntity
  8
HIDS
  6
SEKKEI_H
100
AcDbLine
 10
1334.102083853113
 20
451.6136753407054
 30
0.0
 11
1334.396059581329
 21
465.745634504992
 31
0.0
  0
LINE
  5
2FCE
330
2
100
AcDbEntity
  8
HIDS
  6
SEKKEI_H
100
AcDbLine
 10
1323.279776182379
 20
446.1696669855955
 30
0.0
 11
1322.872553146973
 21
465.745634504992
 31
0.0
  0
CIRCLE
  5
2FCF
330
2
100
AcDbEntity
  8
0
100
AcDbCircle
 10
1348.634306364152
 20
409.2456345049859
 30
0.0
 40
40.49999999186812
  0
CIRCLE
  5
2FD0
330
2
100
AcDbEntity
  8
0
100
AcDbCircle
 10
1348.634306364152
 20
409.2456345049859
 30
0.0
 40
40.99999999186638
  0
CIRCLE
  5
2FD1
330
2
100
AcDbEntity
  8
0
100
AcDbCircle
 10
1348.634306364152
 20
409.2456345049859
 30
0.0
 40
44.79103007709847
  0
CIRCLE
  5
2FD2
330
2
100
AcDbEntity
  8
0
100
AcDbCircle
 10
1348.634306364152
 20
409.2456345049859
 30
0.0
 40
52.64999999186921
  0
CIRCLE
  5
2FD3
330
2
100
AcDbEntity
  8
0
100
AcDbCircle
 10
1348.634306364152
 20
409.2456345049859
 30
0.0
 40
53.64999999186636
  0
LINE
  5
2FD4
330
2
100
AcDbEntity
  8
0
100
AcDbLine
 10
1392.507455573646
 20
349.2456345049859
 30
0.0
 11
1369.085467750789
 21
349.2456345049859
 31
0.0
  0
LINE
  5
2FD5
330
2
100
AcDbEntity
  8
0
100
AcDbLine
 10
1328.183144946597
 20
349.2456345049863
 30
0.0
 11
1304.761157123739
 21
349.2456345049859
 31
0.0
  0
ARC
  5
2FD6
330
2
100
AcDbEntity
  8
0
100
AcDbCircle
 10
1348.634306348692
 20
409.2456344895281
 30
0.0
 40
59.50000000732598
100
AcDbArc
 50
289.4229678492027
 51
308.2936690126922
  0
ARC
  5
2FD7
330
2
100
AcDbEntity
  8
0
100
AcDbCircle
 10
1369.085467750789
 20
351.2456345049859
 30
0.0
 40
2.0
100
AcDbArc
 50
109.4229678492027
 51
270.0
  0
LINE
  5
2FD8
330
2
100
AcDbEntity
  8
0
100
AcDbLine
 10
1392.507455601814
 20
469.2456345049863
 30
0.0
 11
1369.085467663111
 21
469.2456345049858
 31
0.0
  0
ARC
  5
2FD9
330
2
100
AcDbEntity
  8
0
100
AcDbCircle
 10
1348.634306348692
 20
409.2456344895281
 30
0.0
 40
59.50000000732598
100
AcDbArc
 50
51.70633098730779
 51
70.57703223738201
  0
ARC
  5
2FDA
330
2
100
AcDbEntity
  8
0
100
AcDbCircle
 10
1387.984768223116
 20
459.0832824195813
 30
0.0
 40
4.0
100
AcDbArc
 50
231.7063309873077
 51
6.832439436223524
  0
ARC
  5
2FDB
330
2
100
AcDbEntity
  8
0
100
AcDbCircle
 10
1369.085467663111
 20
467.2456345049863
 30
0.0
 40
2.0
100
AcDbArc
 50
90.0
 51
250.577032237382
  0
ARC
  5
2FDC
330
2
100
AcDbEntity
  8
0
100
AcDbCircle
 10
1348.634306348693
 20
409.2456344895277
 30
0.0
 40
59.50000000732598
100
AcDbArc
 50
141.7063309709922
 51
160.4095951499888
  0
ARC
  5
2FDD
330
2
100
AcDbEntity
  8
0
100
AcDbCircle
 10
1290.694318918943
 20
429.8662032872598
 30
0.0
 40
2.0
100
AcDbArc
 50
179.8333333399819
 51
340.4095951499888
  0
LINE
  5
2FDE
330
2
100
AcDbEntity
  8
0
100
AcDbLine
 10
1288.694327380532
 20
429.8720210429955
 30
0.0
 11
1288.76163490468
 21
453.0105790849761
 31
0.0
  0
ARC
  5
2FDF
330
2
100
AcDbEntity
  8
0
100
AcDbCircle
 10
1348.634306348692
 20
409.245634489529
 30
0.0
 40
59.50000000732598
100
AcDbArc
 50
231.7063309873077
 51
250.5770321507972
  0
ARC
  5
2FE0
330
2
100
AcDbEntity
  8
0
100
AcDbCircle
 10
1328.183144946597
 20
351.2456345049863
 30
0.0
 40
2.0
100
AcDbArc
 50
270.0
 51
70.57703215079726
  0
ARC
  5
2FE1
330
2
100
AcDbEntity
  8
0
100
AcDbCircle
 10
1348.634306348692
 20
409.245634489529
 30
0.0
 40
59.50000000732598
100
AcDbArc
 50
199.5904048502314
 51
218.2936690290076
  0
ARC
  5
2FE2
330
2
100
AcDbEntity
  8
0
100
AcDbCircle
 10
1290.694318919034
 20
388.625065691539
 30
0.0
 40
2.0
100
AcDbArc
 50
19.59040485022119
 51
180.1666666599919
  0
LINE
  5
2FE3
330
2
100
AcDbEntity
  8
0
100
AcDbLine
 10
1288.694327380622
 20
388.6192479358028
 30
0.0
 11
1288.761634904771
 21
365.4806898940801
 31
0.0
  0
ARC
  5
2FE4
330
2
100
AcDbEntity
  8
0
100
AcDbCircle
 10
1297.3690647351
 20
357.9803928612909
 30
0.0
 40
8.0
100
AcDbArc
 50
83.1675605801414
 51
131.3566261312232
  0
ARC
  5
2FE5
330
2
100
AcDbEntity
  8
0
100
AcDbCircle
 10
1298.796658429881
 20
369.8951726008672
 30
0.0
 40
4.0
100
AcDbArc
 50
263.1675605801414
 51
38.29366902900771
  0
ARC
  5
2FE6
330
2
100
AcDbEntity
  8
0
100
AcDbCircle
 10
1297.3690647351
 20
357.9803928612909
 30
0.0
 40
8.0
100
AcDbArc
 50
317.6640983538037
 51
6.832439436236846
  0
ARC
  5
2FE7
330
2
100
AcDbEntity
  8
0
100
AcDbCircle
 10
1309.283844474269
 20
359.4079865594762
 30
0.0
 40
4.0
100
AcDbArc
 50
51.70633098730779
 51
186.8324394362368
  0
ARC
  5
2FE8
330
2
100
AcDbEntity
  8
0
100
AcDbCircle
 10
1290.761626443184
 20
365.4865076498162
 30
0.0
 40
2.0
100
AcDbArc
 50
180.1666666600049
 51
311.3566261312232
  0
ARC
  5
2FE9
330
2
100
AcDbEntity
  8
0
100
AcDbCircle
 10
1304.761157123739
 20
351.2456345049859
 30
0.0
 40
2.0
100
AcDbArc
 50
137.6640983538036
 51
270.0
  0
ARC
  5
2FEA
330
2
100
AcDbEntity
  8
0
100
AcDbCircle
 10
1399.899547962285
 20
357.9803928612909
 30
0.0
 40
8.0
100
AcDbArc
 50
173.1675605637631
 51
222.3359016461963
  0
ARC
  5
2FEB
330
2
100
AcDbEntity
  8
0
100
AcDbCircle
 10
1387.984768223116
 20
359.4079865594762
 30
0.0
 40
4.0
100
AcDbArc
 50
353.1675605637631
 51
128.2936690126922
  0
ARC
  5
2FEC
330
2
100
AcDbEntity
  8
0
100
AcDbCircle
 10
1392.507455573646
 20
351.2456345049859
 30
0.0
 40
2.0
100
AcDbArc
 50
270.0
 51
42.33590164619631
  0
ARC
  5
2FED
330
2
100
AcDbEntity
  8
0
100
AcDbCircle
 10
1297.3690647351
 20
460.5108761177652
 30
0.0
 40
8.0
100
AcDbArc
 50
228.6433738687767
 51
276.8324394198586
  0
ARC
  5
2FEE
330
2
100
AcDbEntity
  8
0
100
AcDbCircle
 10
1298.796658429881
 20
448.596096378189
 30
0.0
 40
4.0
100
AcDbArc
 50
321.7063309709922
 51
96.83243941985859
  0
ARC
  5
2FEF
330
2
100
AcDbEntity
  8
0
100
AcDbCircle
 10
1290.761626443184
 20
453.0047613292399
 30
0.0
 40
2.0
100
AcDbArc
 50
48.64337386870751
 51
179.8333333399819
  0
ARC
  5
2FF0
330
2
100
AcDbEntity
  8
0
100
AcDbCircle
 10
1399.899547962285
 20
460.5108761177652
 30
0.0
 40
8.0
100
AcDbArc
 50
137.6640981141743
 51
186.8324394362235
  0
ARC
  5
2FF1
330
2
100
AcDbEntity
  8
0
100
AcDbCircle
 10
1392.507455601813
 20
467.2456345049863
 30
0.0
 40
2.0
100
AcDbArc
 50
317.6640981141742
 51
89.99999999994789
  0
LINE
  5
2FF3
330
2
100
AcDbEntity
  8
0
100
AcDbLine
 10
1122.811969776903
 20
469.7456345049861
 30
0.0
 11
1114.559171748529
 21
469.7456345049861
 31
0.0
  0
ARC
  5
2FF4
330
2
100
AcDbEntity
  8
0
100
AcDbCircle
 10
1114.559171748529
 20
465.7456345049861
 30
0.0
 40
4.0
100
AcDbArc
 50
90.0
 51
180.0
  0
LINE
  5
2FF5
330
2
100
AcDbEntity
  8
HIDS
  6
SEKKEI_H
100
AcDbLine
 10
1333.634306364153
 20
469.7456345049922
 30
0.0
 11
1323.634306364153
 21
469.7456345049922
 31
0.0
  0
ARC
  5
2FF6
330
2
100
AcDbEntity
  8
HIDS
  6
SEKKEI_H
100
AcDbCircle
 10
1323.634306364153
 20
465.7456345049922
 30
0.0
 40
4.0
100
AcDbArc
 50
90.0
 51
180.0
  0
ARC
  5
2FF7
330
2
100
AcDbEntity
  8
HIDS
  6
SEKKEI_H
100
AcDbCircle
 10
1333.634306364153
 20
465.7456345049922
 30
0.0
 40
4.0
100
AcDbArc
 50
0.0
 51
90.0
  0
LINE
  5
2FF8
330
2
100
AcDbEntity
  8
0
100
AcDbLine
 10
1110.559171748529
 20
465.7456345049861
 30
0.0
 11
1111.024566274761
 21
465.7456345049861
 31
0.0
  0
LINE
  5
2FF9
330
2
100
AcDbEntity
  8
0
100
AcDbLine
 10
1067.849031931097
 20
452.6395557671769
 30
0.0
 11
1069.349031931098
 21
452.6395557671769
 31
0.0
  0
LINE
  5
2FFA
330
2
100
AcDbEntity
  8
0
100
AcDbLine
 10
1067.849031931097
 20
464.1395557671769
 30
0.0
 11
1069.349031931098
 21
464.1395557671769
 31
0.0
  0
LINE
  5
2FFB
330
2
100
AcDbEntity
  8
0
100
AcDbLine
 10
1074.949031931097
 20
453.3895557671769
 30
0.0
 11
1075.349031931096
 21
454.0823760902042
 31
0.0
  0
LINE
  5
2FFC
330
2
100
AcDbEntity
  8
0
100
AcDbLine
 10
1069.349031931098
 20
452.6395557671769
 30
0.0
 11
1069.349031931098
 21
464.1395557671769
 31
0.0
  0
LINE
  5
2FFD
330
2
100
AcDbEntity
  8
0
100
AcDbLine
 10
1074.949031931097
 20
453.3895557671769
 30
0.0
 11
1074.949031931097
 21
463.3895557671769
 31
0.0
  0
LINE
  5
2FFE
330
2
100
AcDbEntity
  8
0
100
AcDbLine
 10
1069.349031931098
 20
453.3895557671769
 30
0.0
 11
1074.949031931097
 21
453.3895557671769
 31
0.0
  0
LINE
  5
2FFF
330
2
100
AcDbEntity
  8
0
100
AcDbLine
 10
1069.349031931098
 20
463.3895557671769
 30
0.0
 11
1074.949031931097
 21
463.3895557671769
 31
0.0
  0
LINE
  5
3000
330
2
100
AcDbEntity
  8
0
100
AcDbLine
 10
1074.949031931097
 20
463.3895557671769
 30
0.0
 11
1075.349031931096
 21
462.6967354441497
 31
0.0
  0
LINE
  5
3001
330
2
100
AcDbEntity
  8
0
100
AcDbLine
 10
1075.349031931096
 20
454.0823760902042
 30
0.0
 11
1075.349031931096
 21
462.6967354441497
 31
0.0
  0
LINE
  5
3002
330
2
100
AcDbEntity
  8
0
 48
12.0
100
AcDbLine
 10
1067.849031931097
 20
464.1395557671769
 30
0.0
 11
1067.849031931097
 21
452.6395557671769
 31
0.0
  0
LINE
  5
3003
330
2
100
AcDbEntity
  8
0
100
AcDbLine
 10
1067.849031930014
 20
354.3517131807532
 30
0.0
 11
1069.349031930014
 21
354.3517131807532
 31
0.0
  0
LINE
  5
3004
330
2
100
AcDbEntity
  8
0
100
AcDbLine
 10
1067.849031930014
 20
365.8517131807532
 30
0.0
 11
1069.349031930015
 21
365.8517131807532
 31
0.0
  0
LINE
  5
3005
330
2
100
AcDbEntity
  8
0
100
AcDbLine
 10
1074.949031930015
 20
355.1017131807532
 30
0.0
 11
1075.349031930014
 21
355.7945335037804
 31
0.0
  0
LINE
  5
3006
330
2
100
AcDbEntity
  8
0
100
AcDbLine
 10
1069.349031930014
 20
354.3517131807532
 30
0.0
 11
1069.349031930015
 21
365.8517131807532
 31
0.0
  0
LINE
  5
3007
330
2
100
AcDbEntity
  8
0
100
AcDbLine
 10
1074.949031930015
 20
355.1017131807532
 30
0.0
 11
1074.949031930015
 21
365.1017131807532
 31
0.0
  0
LINE
  5
3008
330
2
100
AcDbEntity
  8
0
100
AcDbLine
 10
1069.349031930014
 20
355.1017131807532
 30
0.0
 11
1074.949031930015
 21
355.1017131807532
 31
0.0
  0
LINE
  5
3009
330
2
100
AcDbEntity
  8
0
100
AcDbLine
 10
1069.349031930015
 20
365.1017131807532
 30
0.0
 11
1074.949031930015
 21
365.1017131807532
 31
0.0
  0
LINE
  5
300A
330
2
100
AcDbEntity
  8
0
100
AcDbLine
 10
1074.949031930015
 20
365.1017131807532
 30
0.0
 11
1075.349031930014
 21
364.4088928577259
 31
0.0
  0
LINE
  5
300B
330
2
100
AcDbEntity
  8
0
100
AcDbLine
 10
1075.349031930014
 20
355.7945335037804
 30
0.0
 11
1075.349031930014
 21
364.4088928577259
 31
0.0
  0
LINE
  5
300C
330
2
100
AcDbEntity
  8
0
 48
12.0
100
AcDbLine
 10
1067.849031930014
 20
365.8517131807532
 30
0.0
 11
1067.849031930014
 21
354.3517131807532
 31
0.0
  0
LINE
  5
300D
330
2
100
AcDbEntity
  8
0
100
AcDbLine
 10
1108.059171748524
 20
431.9859890840899
 30
0.0
 11
1108.059171748524
 21
409.245634504986
 31
0.0
  0
LINE
  5
300E
330
2
100
AcDbEntity
  8
0
100
AcDbLine
 10
1130.059171748524
 20
409.245634504986
 30
0.0
 11
1130.059171748524
 21
436.2456345049884
 31
0.0
  0
LINE
  5
300F
330
2
100
AcDbEntity
  8
0
100
AcDbLine
 10
1128.059171748524
 20
409.245634504986
 30
0.0
 11
1128.059171748525
 21
421.2456345049884
 31
0.0
  0
LINE
  5
3010
330
2
100
AcDbEntity
  8
0
100
AcDbLine
 10
1110.059171748524
 20
432.4139047509056
 30
0.0
 11
1110.059171748524
 21
409.245634504986
 31
0.0
  0
LINE
  5
3011
330
2
100
AcDbEntity
  8
0
100
AcDbLine
 10
1066.559171748524
 20
409.2456345049856
 30
0.0
 11
1066.559171748525
 21
421.745634504987
 31
0.0
  0
LINE
  5
3012
330
2
100
AcDbEntity
  8
0
 48
0.3
100
AcDbLine
 10
1086.559171748525
 20
421.745634504987
 30
0.0
 11
1066.559171748524
 21
421.745634504987
 31
0.0
  0
LINE
  5
3013
330
2
100
AcDbEntity
  8
0
 48
0.3
100
AcDbLine
 10
1086.559171748525
 20
421.2456345049875
 30
0.0
 11
1108.059171748524
 21
421.2456345049875
 31
0.0
  0
LINE
  5
3014
330
2
100
AcDbEntity
  8
0
100
AcDbLine
 10
1086.559171748525
 20
409.2456345049856
 30
0.0
 11
1086.559171748525
 21
421.745634504987
 31
0.0
  0
LINE
  5
3015
330
2
100
AcDbEntity
  8
0
100
AcDbLine
 10
1114.34287813445
 20
436.2456345049884
 30
0.0
 11
1130.059171748524
 21
436.2456345049884
 31
0.0
  0
LINE
  5
3016
330
2
100
AcDbEntity
  8
0
 48
0.3
100
AcDbLine
 10
1110.059171748524
 20
421.2456345049879
 30
0.0
 11
1128.059171748524
 21
421.2456345049884
 31
0.0
  0
LINE
  5
3017
330
2
100
AcDbEntity
  8
0
 48
0.3
100
AcDbLine
 10
1059.919643652843
 20
409.245634504986
 30
0.0
 11
1066.559171748524
 21
420.745634504987
 31
0.0
  0
LINE
  5
3018
330
2
100
AcDbEntity
  8
0
100
AcDbLine
 10
1128.059171748524
 20
421.2456345049843
 30
0.0
 11
1130.059171748524
 21
422.4003350433633
 31
0.0
  0
LINE
  5
3019
330
2
100
AcDbEntity
  8
0
100
AcDbLine
 10
1131.05917174853
 20
409.245634504986
 30
0.0
 11
1131.059171748533
 21
464.2456345049861
 31
0.0
  0
LINE
  5
301A
330
2
100
AcDbEntity
  8
0
100
AcDbLine
 10
1131.059171748531
 20
464.2456345049861
 30
0.0
 11
1138.05917174853
 21
464.2456345049859
 31
0.0
  0
LINE
  5
301B
330
2
100
AcDbEntity
  8
0
100
AcDbLine
 10
1130.059171748533
 20
409.245634504986
 30
0.0
 11
1130.059171748535
 21
461.8956345049875
 31
0.0
  0
LINE
  5
301C
330
2
100
AcDbEntity
  8
0
100
AcDbLine
 10
1125.896692182321
 20
453.3027071360453
 30
0.0
 11
1125.927412636864
 21
453.308123981041
 31
0.0
  0
ARC
  5
301D
330
2
100
AcDbEntity
  8
0
100
AcDbCircle
 10
1125.059171748529
 20
458.2321627461022
 30
0.0
 40
5.0
100
AcDbArc
 50
280.000000000005
 51
0.0
  0
LINE
  5
301E
330
2
100
AcDbEntity
  8
0
100
AcDbLine
 10
1130.059171748534
 20
461.8956345049857
 30
0.0
 11
1131.059171748532
 21
462.8956345049844
 31
0.0
  0
LINE
  5
301F
330
2
100
AcDbEntity
  8
CENTER
100
AcDbLine
 10
1328.634306364167
 20
386.3710484168136
 30
0.0
 11
1328.634306364167
 21
476.9092001903405
 31
0.0
  0
LINE
  5
3020
330
2
100
AcDbEntity
  8
HIDS
  6
SEKKEI_H
100
AcDbLine
 10
1323.554433956192
 20
419.2456345050013
 30
0.0
 11
1336.38430636416
 21
419.2456345050008
 31
0.0
  0
LINE
  5
3021
330
2
100
AcDbEntity
  8
HIDS
  6
SEKKEI_H
100
AcDbLine
 10
1333.13430636416
 20
409.9956345049982
 30
0.0
 11
1333.13430636416
 21
419.2456345050008
 31
0.0
  0
LINE
  5
3022
330
2
100
AcDbEntity
  8
HIDS
  6
SEKKEI_H
100
AcDbLine
 10
1324.13430636416
 20
409.9956345049982
 30
0.0
 11
1324.13430636416
 21
419.2456345050013
 31
0.0
  0
LINE
  5
3023
330
2
100
AcDbEntity
  8
HIDS
  6
SEKKEI_H
100
AcDbLine
 10
1325.23430636416
 20
395.7756679126118
 30
0.0
 11
1325.23430636416
 21
408.4956345049981
 31
0.0
  0
LINE
  5
3024
330
2
100
AcDbEntity
  8
HIDS
  6
SEKKEI_H
100
AcDbLine
 10
1324.63430636416
 20
396.2456345050009
 30
0.0
 11
1324.63430636416
 21
408.4956345049986
 31
0.0
  0
LINE
  5
3025
330
2
100
AcDbEntity
  8
HIDS
  6
SEKKEI_H
100
AcDbLine
 10
1332.63430636416
 20
387.4970713340662
 30
0.0
 11
1332.63430636416
 21
408.4956345049986
 31
0.0
  0
LINE
  5
3026
330
2
100
AcDbEntity
  8
HIDS
  6
SEKKEI_H
100
AcDbLine
 10
1332.03430636416
 20
387.9515038582681
 30
0.0
 11
1332.03430636416
 21
408.4956345049986
 31
0.0
  0
LINE
  5
3027
330
2
100
AcDbEntity
  8
HIDS
  6
SEKKEI_H
100
AcDbLine
 10
1335.134306364166
 20
428.7456345050014
 30
0.0
 11
1329.959456967179
 21
428.7456345050009
 31
0.0
  0
LINE
  5
3028
330
2
100
AcDbEntity
  8
HIDS
  6
SEKKEI_H
100
AcDbLine
 10
1334.26828096038
 20
429.2456345050013
 30
0.0
 11
1330.495949216946
 21
429.2456345050009
 31
0.0
  0
LINE
  5
3029
330
2
100
AcDbEntity
  8
HIDS
  6
SEKKEI_H
100
AcDbLine
 10
1335.884306364166
 20
421.2456345050013
 30
0.0
 11
1324.447533119266
 21
421.2456345050009
 31
0.0
  0
LINE
  5
302A
330
2
100
AcDbEntity
  8
HIDS
  6
SEKKEI_H
100
AcDbLine
 10
1331.434306364174
 20
396.2456345050009
 30
0.0
 11
1325.83430636416
 21
396.2456345050009
 31
0.0
  0
LINE
  5
302B
330
2
100
AcDbEntity
  8
HIDS
  6
SEKKEI_H
100
AcDbLine
 10
1332.63430636416
 20
397.4456345050012
 30
0.0
 11
1324.63430636416
 21
397.4456345050012
 31
0.0
  0
LINE
  5
302C
330
2
100
AcDbEntity
  8
0
 48
0.3
100
AcDbLine
 10
1321.384306364167
 20
421.2456345050009
 30
0.0
 11
1321.384306364167
 21
419.2456345050008
 31
0.0
  0
LINE
  5
302D
330
2
100
AcDbEntity
  8
0
 48
0.3
100
AcDbLine
 10
1322.134306364167
 20
428.7456345050009
 30
0.0
 11
1323.000331767951
 21
429.2456345050009
 31
0.0
  0
LINE
  5
302E
330
2
100
AcDbEntity
  8
0
 48
0.3
100
AcDbLine
 10
1322.134306364167
 20
428.7456345050009
 30
0.0
 11
1322.134306364167
 21
421.2456345050009
 31
0.0
  0
LINE
  5
302F
330
2
100
AcDbEntity
  8
HIDS
  6
SEKKEI_H
100
AcDbLine
 10
1335.884306364166
 20
421.2456345050013
 30
0.0
 11
1335.884306364166
 21
419.2456345050013
 31
0.0
  0
LINE
  5
3030
330
2
100
AcDbEntity
  8
HIDS
  6
SEKKEI_H
100
AcDbLine
 10
1335.134306364166
 20
428.7456345050004
 30
0.0
 11
1334.268280960381
 21
429.2456345050005
 31
0.0
  0
LINE
  5
3031
330
2
100
AcDbEntity
  8
HIDS
  6
SEKKEI_H
100
AcDbLine
 10
1335.134306364166
 20
428.7456345050004
 30
0.0
 11
1335.134306364166
 21
421.2456345050013
 31
0.0
  0
LINE
  5
3032
330
2
100
AcDbEntity
  8
HIDS
  6
SEKKEI_H
100
AcDbLine
 10
1336.334306364166
 20
419.2456345050013
 30
0.0
 11
1323.554433956191
 21
419.2456345050008
 31
0.0
  0
LINE
  5
3033
330
2
100
AcDbEntity
  8
HOJO
100
AcDbLine
 10
1325.23430636416
 20
408.4956345049981
 30
0.0
 11
1325.23430636416
 21
409.9956345049982
 31
0.0
  0
LINE
  5
3034
330
2
100
AcDbEntity
  8
0
100
AcDbLine
 10
1324.63430636416
 20
408.4956345049986
 30
0.0
 11
1324.63430636416
 21
409.9956345049982
 31
0.0
  0
LINE
  5
3035
330
2
100
AcDbEntity
  8
HOJO
100
AcDbLine
 10
1332.03430636416
 20
408.4956345049986
 30
0.0
 11
1332.03430636416
 21
409.9956345049982
 31
0.0
  0
LINE
  5
3036
330
2
100
AcDbEntity
  8
0
100
AcDbLine
 10
1332.63430636416
 20
408.4956345049986
 30
0.0
 11
1332.63430636416
 21
409.9956345049982
 31
0.0
  0
LINE
  5
3037
330
2
100
AcDbEntity
  8
HIDS
  6
SEKKEI_H
100
AcDbLine
 10
1332.63430636416
 20
409.9956345049982
 30
0.0
 11
1332.63430636416
 21
419.2456345050008
 31
0.0
  0
LINE
  5
3038
330
2
100
AcDbEntity
  8
HIDS
  6
SEKKEI_H
100
AcDbLine
 10
1332.03430636416
 20
409.9956345049982
 30
0.0
 11
1332.03430636416
 21
419.2456345050008
 31
0.0
  0
LINE
  5
3039
330
2
100
AcDbEntity
  8
HIDS
  6
SEKKEI_H
100
AcDbLine
 10
1325.23430636416
 20
409.9956345049982
 30
0.0
 11
1325.23430636416
 21
419.2456345050008
 31
0.0
  0
LINE
  5
303A
330
2
100
AcDbEntity
  8
HIDS
  6
SEKKEI_H
100
AcDbLine
 10
1324.63430636416
 20
409.9956345049982
 30
0.0
 11
1324.63430636416
 21
419.2456345050013
 31
0.0
  0
LINE
  5
303B
330
2
100
AcDbEntity
  8
0
100
AcDbLine
 10
1330.495949216946
 20
429.2456345050009
 30
0.0
 11
1323.000331767951
 21
429.2456345050009
 31
0.0
  0
LINE
  5
303C
330
2
100
AcDbEntity
  8
0
100
AcDbLine
 10
1329.959456967179
 20
428.7456345050009
 30
0.0
 11
1322.134306364167
 21
428.7456345050009
 31
0.0
  0
LINE
  5
303D
330
2
100
AcDbEntity
  8
0
100
AcDbLine
 10
1324.447533119266
 20
421.2456345050009
 30
0.0
 11
1321.384306364167
 21
421.2456345050009
 31
0.0
  0
LINE
  5
303E
330
2
100
AcDbEntity
  8
0
100
AcDbLine
 10
1323.554433956191
 20
419.2456345050008
 30
0.0
 11
1321.384306364167
 21
419.2456345050008
 31
0.0
  0
LINE
  5
303F
330
2
100
AcDbEntity
  8
HIDS
  6
SEKKEI_H
100
AcDbLine
 10
1324.63430636416
 20
397.4456345050012
 30
0.0
 11
1325.83430636416
 21
396.2456345050009
 31
0.0
  0
LINE
  5
3040
330
2
100
AcDbEntity
  8
HIDS
  6
SEKKEI_H
100
AcDbLine
 10
1332.634306364174
 20
397.4456345050012
 30
0.0
 11
1331.434306364174
 21
396.2456345050009
 31
0.0
  0
CIRCLE
  5
3041
330
2
100
AcDbEntity
  8
0
100
AcDbCircle
 10
1348.634306364152
 20
409.2456345049863
 30
0.0
 40
26.99999999999249
  0
LINE
  5
3042
330
2
100
AcDbEntity
  8
0
100
AcDbLine
 10
1321.644725040989
 20
408.4956345049977
 30
0.0
 11
1336.657766797156
 21
408.4956345049977
 31
0.0
  0
LINE
  5
3043
330
2
100
AcDbEntity
  8
0
100
AcDbLine
 10
1360.610845931164
 20
408.4956345049977
 30
0.0
 11
1374.643026410208
 21
408.4956345049981
 31
0.0
  0
LINE
  5
3044
330
2
100
AcDbEntity
  8
0
100
AcDbLine
 10
1321.644725040989
 20
409.9956345049977
 30
0.0
 11
1336.657766797156
 21
409.9956345049977
 31
0.0
  0
LINE
  5
3045
330
2
100
AcDbEntity
  8
0
100
AcDbLine
 10
1360.610845931164
 20
409.9956345049982
 30
0.0
 11
1374.643026410208
 21
409.9956345049977
 31
0.0
  0
LINE
  5
3046
330
2
100
AcDbEntity
  8
0
100
AcDbLine
 10
1374.643026410208
 20
409.9956345049977
 30
0.0
 11
1374.643026410208
 21
408.4956345049981
 31
0.0
  0
ARC
  5
3047
330
2
100
AcDbEntity
  8
0
100
AcDbCircle
 10
1348.634306364152
 20
409.2456345049859
 30
0.0
 40
13.15470053837729
100
AcDbArc
 50
183.2684247869237
 51
356.7315752130762
  0
ARC
  5
3048
330
2
100
AcDbEntity
  8
0
100
AcDbCircle
 10
1348.634306364152
 20
409.2456345049859
 30
0.0
 40
13.15470053837729
100
AcDbArc
 50
3.268424787028164
 51
176.7315752129718
  0
CIRCLE
  5
3049
330
2
100
AcDbEntity
  8
0
100
AcDbCircle
 10
1348.634306364152
 20
409.2456345049859
 30
0.0
 40
12.00000000001165
  0
LINE
  5
304A
330
2
100
AcDbEntity
  8
HIDS
  6
SEKKEI_H
100
AcDbLine
 10
1336.38430636416
 20
419.2456345050008
 30
0.0
 11
1336.38430636416
 21
433.3067545953013
 31
0.0
  0
LINE
  5
304B
330
2
100
AcDbEntity
  8
CENTER
  6
CENTERX2
100
AcDbLine
 10
1064.559171748526
 20
458.3895557671773
 30
0.0
 11
1078.059171748527
 21
458.3895557671771
 31
0.0
  0
LINE
  5
304C
330
2
100
AcDbEntity
  8
CENTER
  6
CENTERX2
100
AcDbLine
 10
1064.849031930013
 20
360.1017131807534
 30
0.0
 11
1078.349031930014
 21
360.1017131807532
 31
0.0
  0
CIRCLE
  5
304D
330
2
100
AcDbEntity
  8
0
100
AcDbCircle
 10
1348.634306364154
 20
409.2456345049892
 30
0.0
 40
54.99999999999658
  0
ARC
  5
304E
330
2
100
AcDbEntity
  8
HIDS
  6
SEKKEI_H
100
AcDbCircle
 10
1350.670185123319
 20
463.7075955046777
 30
0.0
 40
2.0
100
AcDbArc
 50
181.0000000000539
 51
267.8591851842378
  0
LINE
  5
304F
330
2
100
AcDbEntity
  8
HIDS
  6
SEKKEI_H
100
AcDbLine
 10
1348.668607228362
 20
463.7805392574696
 30
0.0
 11
1348.670489733005
 21
463.672690638707
 31
0.0
  0
LINE
  5
3102
330
2
100
AcDbEntity
  8
0
100
AcDbLine
 10
653.0112336253406
 20
409.2456345151403
 30
0.0
 11
650.0112335944361
 21
409.2456345359023
 31
0.0
  0
LINE
  5
31A8
330
2
100
AcDbEntity
  8
CENTER
100
AcDbLine
 10
1148.059171748518
 20
409.2456345049923
 30
0.0
 11
873.0591717485296
 21
409.2456345049929
 31
0.0
  0
ARC
  5
31A9
330
2
100
AcDbEntity
  8
0
100
AcDbCircle
 10
951.5573282387709
 20
362.5256345049881
 30
0.0
 40
2.720000000003957
100
AcDbArc
 50
307.5189678668038
 51
90.0
  0
LINE
  5
31AA
330
2
100
AcDbEntity
  8
0
100
AcDbLine
 10
944.9174009987604
 20
365.2456345049925
 30
0.0
 11
951.5573282387709
 21
365.2456345049925
 31
0.0
  0
LINE
  5
31AB
330
2
100
AcDbEntity
  8
0
100
AcDbLine
 10
946.4374009987627
 20
357.2456345049806
 30
0.0
 11
948.837328238766
 21
357.2456345049802
 31
0.0
  0
LINE
  5
31AC
330
2
100
AcDbEntity
  8
0
100
AcDbLine
 10
946.4374009987627
 20
358.4456345049823
 30
0.0
 11
946.4374009987627
 21
357.2456345049806
 31
0.0
  0
LINE
  5
31AD
330
2
100
AcDbEntity
  8
0
100
AcDbLine
 10
944.3974022400876
 20
358.4456345049827
 30
0.0
 11
946.4374009987627
 21
358.4456345049823
 31
0.0
  0
LINE
  5
31AE
330
2
100
AcDbEntity
  8
0
100
AcDbLine
 10
944.3974022400876
 20
358.4456345049827
 30
0.0
 11
943.7974022400872
 21
357.2456345049806
 31
0.0
  0
LINE
  5
31AF
330
2
100
AcDbEntity
  8
0
100
AcDbLine
 10
940.917400998755
 20
357.2456345049811
 30
0.0
 11
943.7974022400872
 21
357.2456345049806
 31
0.0
  0
LINE
  5
31B0
330
2
100
AcDbEntity
  8
0
100
AcDbLine
 10
945.67740224009
 20
361.0056345049854
 30
0.0
 11
946.4374009987627
 21
361.0056345049859
 31
0.0
  0
LINE
  5
31B1
330
2
100
AcDbEntity
  8
0
100
AcDbLine
 10
944.9174009987604
 20
365.2456345049925
 30
0.0
 11
940.917400998755
 21
357.2456345049811
 31
0.0
  0
LINE
  5
31B2
330
2
100
AcDbEntity
  8
0
100
AcDbLine
 10
946.4374009987627
 20
362.5256320223318
 30
0.0
 11
945.67740224009
 21
361.0056345049854
 31
0.0
  0
LINE
  5
31B3
330
2
100
AcDbEntity
  8
0
100
AcDbLine
 10
946.4374009987627
 20
362.5256320223318
 30
0.0
 11
946.4374009987627
 21
361.0056345049859
 31
0.0
  0
ARC
  5
31B4
330
2
100
AcDbEntity
  8
0
100
AcDbCircle
 10
951.3874009987707
 20
362.355634504988
 30
0.0
 40
0.1700000000002474
100
AcDbArc
 50
270.0
 51
90.0
  0
LINE
  5
31B5
330
2
100
AcDbEntity
  8
0
100
AcDbLine
 10
949.1774009987661
 20
362.1856345049875
 30
0.0
 11
951.3874009987707
 21
362.1856345049875
 31
0.0
  0
LINE
  5
31B6
330
2
100
AcDbEntity
  8
0
100
AcDbLine
 10
948.837328238766
 20
362.5256345049886
 30
0.0
 11
951.387400998769
 21
362.5256345049886
 31
0.0
  0
LINE
  5
31B7
330
2
100
AcDbEntity
  8
0
100
AcDbLine
 10
953.2138736184302
 20
360.368261703373
 30
0.0
 11
955.2009424982848
 21
357.2456345049811
 31
0.0
  0
LINE
  5
31B8
330
2
100
AcDbEntity
  8
0
100
AcDbLine
 10
952.3209412569535
 20
357.2456345049806
 30
0.0
 11
955.2009424982848
 21
357.2456345049811
 31
0.0
  0
LINE
  5
31B9
330
2
100
AcDbEntity
  8
0
100
AcDbLine
 10
948.837328238766
 20
362.5256345049886
 30
0.0
 11
948.837328238766
 21
357.2456345049802
 31
0.0
  0
LINE
  5
31BA
330
2
100
AcDbEntity
  8
0
100
AcDbLine
 10
949.1774009987661
 20
362.1856345049875
 30
0.0
 11
952.3209412569535
 21
357.2456345049806
 31
0.0
  0
LINE
  5
31BB
330
2
100
AcDbEntity
  8
0
100
AcDbLine
 10
1039.55917174852
 20
349.2456345049922
 30
0.0
 11
1053.55917174852
 21
349.2456345049922
 31
0.0
  0
LINE
  5
31BC
330
2
100
AcDbEntity
  8
0
100
AcDbLine
 10
1037.559171748519
 20
350.7456345049926
 30
0.0
 11
1037.559171748519
 21
467.7456345049918
 31
0.0
  0
LINE
  5
31BD
330
2
100
AcDbEntity
  8
0
100
AcDbLine
 10
1024.05917174852
 20
378.245634504989
 30
0.0
 11
1024.05917174852
 21
403.245634504992
 31
0.0
  0
LINE
  5
31BE
330
2
100
AcDbEntity
  8
0
100
AcDbLine
 10
1024.05917174852
 20
415.2456345049925
 30
0.0
 11
1024.05917174852
 21
440.2456345049954
 31
0.0
  0
ARC
  5
31BF
330
2
100
AcDbEntity
  8
0
100
AcDbCircle
 10
1021.05917174852
 20
403.245634504992
 30
0.0
 40
3.0
100
AcDbArc
 50
0.0
 51
90.0
  0
ARC
  5
31C0
330
2
100
AcDbEntity
  8
0
100
AcDbCircle
 10
1021.05917174852
 20
415.2456345049925
 30
0.0
 40
3.0
100
AcDbArc
 50
270.0
 51
0.0
  0
ARC
  5
31C1
330
2
100
AcDbEntity
  8
0
100
AcDbCircle
 10
1029.559171748519
 20
451.2456345049961
 30
0.0
 40
8.0
100
AcDbArc
 50
270.0
 51
0.0
  0
ARC
  5
31C2
330
2
100
AcDbEntity
  8
0
100
AcDbCircle
 10
1034.559171748519
 20
403.245634504992
 30
0.0
 40
3.0
100
AcDbArc
 50
0.0
 51
90.0
  0
ARC
  5
31C3
330
2
100
AcDbEntity
  8
0
100
AcDbCircle
 10
1034.55917174852
 20
358.1703737272096
 30
0.0
 40
3.0
100
AcDbArc
 50
0.0
 51
100.000000000005
  0
ARC
  5
31C4
330
2
100
AcDbEntity
  8
0
100
AcDbCircle
 10
1034.55917174852
 20
460.3208952827749
 30
0.0
 40
3.0
100
AcDbArc
 50
259.9999999999949
 51
0.0
  0
ARC
  5
31C5
330
2
100
AcDbEntity
  8
0
100
AcDbCircle
 10
1039.55917174852
 20
351.2456345049922
 30
0.0
 40
2.0
100
AcDbArc
 50
180.0
 51
270.0
  0
ARC
  5
31C6
330
2
100
AcDbEntity
  8
0
100
AcDbCircle
 10
1039.55917174852
 20
467.2456345049922
 30
0.0
 40
2.0
100
AcDbArc
 50
90.0
 51
180.0
  0
LINE
  5
31C7
330
2
100
AcDbEntity
  8
0
100
AcDbLine
 10
1039.55917174852
 20
469.2456345049922
 30
0.0
 11
1053.559171748519
 21
469.2456345049922
 31
0.0
  0
LINE
  5
31C8
330
2
100
AcDbEntity
  8
CENTER
100
AcDbLine
 10
890.2616970654648
 20
359.7481598219339
 30
0.0
 11
906.8616970654643
 21
359.7481598219339
 31
0.0
  0
LINE
  5
31C9
330
2
100
AcDbEntity
  8
CENTER
100
AcDbLine
 10
898.5616970654646
 20
368.0481598219339
 30
0.0
 11
898.5616970654646
 21
351.448159821934
 31
0.0
  0
LINE
  5
31CA
330
2
100
AcDbEntity
  8
0
100
AcDbLine
 10
1034.038227215519
 20
457.3664720237381
 30
0.0
 11
1009.350637091426
 21
461.719560251287
 31
0.0
  0
LINE
  5
31CB
330
2
100
AcDbEntity
  8
0
100
AcDbLine
 10
1034.038227215519
 20
361.1247969862463
 30
0.0
 11
1009.350637091426
 21
356.7717087586975
 31
0.0
  0
LINE
  5
31CC
330
2
100
AcDbEntity
  8
0
100
AcDbLine
 10
1011.059171748523
 20
412.2456345049922
 30
0.0
 11
1034.559171748519
 21
412.2456345049925
 31
0.0
  0
ARC
  5
31CD
330
2
100
AcDbEntity
  8
0
100
AcDbCircle
 10
1034.559171748519
 20
415.2456345049925
 30
0.0
 40
3.0
100
AcDbArc
 50
270.0
 51
0.0
  0
LINE
  5
31CE
330
2
100
AcDbEntity
  8
0
100
AcDbLine
 10
1011.059171748523
 20
406.245634504992
 30
0.0
 11
1034.559171748519
 21
406.245634504992
 31
0.0
  0
LINE
  5
31CF
330
2
100
AcDbEntity
  8
CENTER
100
AcDbLine
 10
989.2566464315814
 20
359.7481598219339
 30
0.0
 11
1005.856646431581
 21
359.7481598219339
 31
0.0
  0
LINE
  5
31D0
330
2
100
AcDbEntity
  8
CENTER
100
AcDbLine
 10
997.5566464315811
 20
368.0481598219339
 30
0.0
 11
997.5566464315811
 21
351.448159821934
 31
0.0
  0
LINE
  5
31D1
330
2
100
AcDbEntity
  8
CENTER
100
AcDbLine
 10
989.2566464315814
 20
458.7431091880508
 30
0.0
 11
1005.856646431581
 21
458.7431091880508
 31
0.0
  0
LINE
  5
31D2
330
2
100
AcDbEntity
  8
CENTER
100
AcDbLine
 10
997.5566464315811
 20
467.0431091880507
 30
0.0
 11
997.5566464315811
 21
450.4431091880507
 31
0.0
  0
LINE
  5
31D3
330
2
100
AcDbEntity
  8
CENTER
100
AcDbLine
 10
890.2616970654648
 20
458.7431091880508
 30
0.0
 11
906.8616970654643
 21
458.7431091880508
 31
0.0
  0
LINE
  5
31D4
330
2
100
AcDbEntity
  8
CENTER
100
AcDbLine
 10
898.5616970654646
 20
467.0431091880507
 30
0.0
 11
898.5616970654646
 21
450.4431091880507
 31
0.0
  0
LINE
  5
31D5
330
2
100
AcDbEntity
  8
0
100
AcDbLine
 10
1053.559171748519
 20
348.7456345049926
 30
0.0
 11
1053.559171748519
 21
469.7456345049919
 31
0.0
  0
LINE
  5
31D6
330
2
100
AcDbEntity
  8
0
100
AcDbLine
 10
1029.559171748522
 20
443.2456345049961
 30
0.0
 11
1027.05917174852
 21
443.2456345049955
 31
0.0
  0
LINE
  5
31D7
330
2
100
AcDbEntity
  8
0
100
AcDbLine
 10
1021.059171748521
 20
437.2456345049954
 30
0.0
 11
1011.059171748524
 21
437.2456345049954
 31
0.0
  0
ARC
  5
31D8
330
2
100
AcDbEntity
  8
0
100
AcDbCircle
 10
1011.059171748524
 20
440.2456345049954
 30
0.0
 40
3.0
100
AcDbArc
 50
180.0
 51
270.0
  0
ARC
  5
31D9
330
2
100
AcDbEntity
  8
0
100
AcDbCircle
 10
1021.059171748521
 20
440.2456345049954
 30
0.0
 40
3.0
100
AcDbArc
 50
270.0
 51
0.0
  0
LINE
  5
31DA
330
2
100
AcDbEntity
  8
0
100
AcDbLine
 10
1024.059171748521
 20
440.2456345049954
 30
0.0
 11
1024.059171748521
 21
440.2456345049954
 31
0.0
  0
ARC
  5
31DB
330
2
100
AcDbEntity
  8
0
100
AcDbCircle
 10
1027.059171748521
 20
440.2456345049954
 30
0.0
 40
3.0
100
AcDbArc
 50
90.0
 51
180.0
  0
LINE
  5
31DC
330
2
100
AcDbEntity
  8
0
100
AcDbLine
 10
1029.559171748522
 20
375.2456345049884
 30
0.0
 11
1027.05917174852
 21
375.245634504989
 31
0.0
  0
LINE
  5
31DD
330
2
100
AcDbEntity
  8
0
100
AcDbLine
 10
1021.059171748521
 20
381.245634504989
 30
0.0
 11
1011.059171748523
 21
381.2456345049893
 31
0.0
  0
ARC
  5
31DE
330
2
100
AcDbEntity
  8
0
100
AcDbCircle
 10
1021.059171748521
 20
378.245634504989
 30
0.0
 40
3.0
100
AcDbArc
 50
0.0
 51
90.0
  0
LINE
  5
31DF
330
2
100
AcDbEntity
  8
0
100
AcDbLine
 10
1024.059171748521
 20
378.245634504989
 30
0.0
 11
1024.059171748521
 21
378.245634504989
 31
0.0
  0
ARC
  5
31E0
330
2
100
AcDbEntity
  8
0
100
AcDbCircle
 10
1027.059171748521
 20
378.245634504989
 30
0.0
 40
3.0
100
AcDbArc
 50
180.0
 51
269.9999999999739
  0
ARC
  5
31E1
330
2
100
AcDbEntity
  8
0
100
AcDbCircle
 10
1029.559171748519
 20
367.2456345049884
 30
0.0
 40
8.0
100
AcDbArc
 50
0.0
 51
89.99999999997395
  0
ARC
  5
31E2
330
2
100
AcDbEntity
  8
0
100
AcDbCircle
 10
948.0591717485218
 20
219.2456345049933
 30
0.0
 40
250.0
100
AcDbArc
 50
85.41175424079517
 51
94.58824575920484
  0
ARC
  5
31E3
330
2
100
AcDbEntity
  8
0
 48
0.5
100
AcDbCircle
 10
898.0591717485209
 20
459.2456345049936
 30
0.0
 40
10.0
100
AcDbArc
 50
90.0
 51
180.0
  0
LINE
  5
31E4
330
2
100
AcDbEntity
  8
0
 48
0.5
100
AcDbLine
 10
898.0591717485209
 20
469.2456345049936
 30
0.0
 11
908.0591717485253
 21
469.2456345049934
 31
0.0
  0
ARC
  5
31E5
330
2
100
AcDbEntity
  8
0
100
AcDbCircle
 10
908.0591717485253
 20
461.2456345049931
 30
0.0
 40
8.0
100
AcDbArc
 50
81.10835431979607
 51
90.0
  0
ARC
  5
31E6
330
2
100
AcDbEntity
  8
0
 48
0.5
100
AcDbCircle
 10
998.0591717485244
 20
459.2456345049936
 30
0.0
 40
10.0
100
AcDbArc
 50
0.0
 51
90.0
  0
ARC
  5
31E7
330
2
100
AcDbEntity
  8
0
100
AcDbCircle
 10
1009.871581624427
 20
464.6739835103235
 30
0.0
 40
3.0
100
AcDbArc
 50
204.6809703631087
 51
259.9999999999949
  0
ARC
  5
31E8
330
2
100
AcDbEntity
  8
0
100
AcDbCircle
 10
921.66100877487
 20
548.1880869060425
 30
0.0
 40
80.0
100
AcDbArc
 50
261.1083543197961
 51
274.5882457592048
  0
LINE
  5
31E9
330
2
100
AcDbEntity
  8
0
 48
0.5
100
AcDbLine
 10
888.0591717485208
 20
459.2456345049936
 30
0.0
 11
888.0591717485213
 21
449.2456345049895
 31
0.0
  0
ARC
  5
31EA
330
2
100
AcDbEntity
  8
0
100
AcDbCircle
 10
896.0591717485216
 20
449.2456345049895
 30
0.0
 40
8.0
100
AcDbArc
 50
180.0
 51
188.8916456802039
  0
ARC
  5
31EB
330
2
100
AcDbEntity
  8
0
100
AcDbCircle
 10
809.1167193474721
 20
435.643797478644
 30
0.0
 40
80.0
100
AcDbArc
 50
355.4117542407789
 51
8.89164568020392
  0
LINE
  5
31EC
330
2
100
AcDbEntity
  8
0
 48
0.5
100
AcDbLine
 10
998.0591717485244
 20
469.2456345049936
 30
0.0
 11
988.0591717485208
 21
469.2456345049934
 31
0.0
  0
ARC
  5
31ED
330
2
100
AcDbEntity
  8
0
100
AcDbCircle
 10
988.0591717485208
 20
461.2456345049931
 30
0.0
 40
8.0
100
AcDbArc
 50
90.0
 51
98.89164568020392
  0
ARC
  5
31EE
330
2
100
AcDbEntity
  8
0
100
AcDbCircle
 10
974.4573347221754
 20
548.1880869060425
 30
0.0
 40
80.0
100
AcDbArc
 50
265.4117542407951
 51
278.8916456802039
  0
LINE
  5
31EF
330
2
100
AcDbEntity
  8
0
 48
0.5
100
AcDbLine
 10
1008.059171748525
 20
459.2456345049933
 30
0.0
 11
1008.059171748522
 21
359.2456345049904
 31
0.0
  0
ARC
  5
31F0
330
2
100
AcDbEntity
  8
0
100
AcDbCircle
 10
1011.059171748523
 20
378.2456345049893
 30
0.0
 40
3.0
100
AcDbArc
 50
90.0
 51
180.0
  0
ARC
  5
31F1
330
2
100
AcDbEntity
  8
0
100
AcDbCircle
 10
1011.059171748523
 20
403.245634504992
 30
0.0
 40
3.0
100
AcDbArc
 50
90.0
 51
180.0
  0
ARC
  5
31F2
330
2
100
AcDbEntity
  8
0
100
AcDbCircle
 10
1011.059171748523
 20
415.2456345049922
 30
0.0
 40
3.0
100
AcDbArc
 50
180.0
 51
270.0
  0
ARC
  5
31F3
330
2
100
AcDbEntity
  8
0
 48
0.5
100
AcDbCircle
 10
898.0591717485209
 20
359.2456345049904
 30
0.0
 40
10.0
100
AcDbArc
 50
180.0
 51
270.0
  0
LINE
  5
31F4
330
2
100
AcDbEntity
  8
0
 48
0.5
100
AcDbLine
 10
898.0591717485209
 20
349.2456345049904
 30
0.0
 11
908.0591717485253
 21
349.2456345049906
 31
0.0
  0
ARC
  5
31F5
330
2
100
AcDbEntity
  8
0
100
AcDbCircle
 10
908.0591717485253
 20
357.2456345049908
 30
0.0
 40
8.0
100
AcDbArc
 50
270.0
 51
278.8916456802039
  0
ARC
  5
31F6
330
2
100
AcDbEntity
  8
0
 48
0.5
100
AcDbCircle
 10
998.0591717485244
 20
359.2456345049904
 30
0.0
 40
10.0
100
AcDbArc
 50
270.0
 51
0.0
  0
ARC
  5
31F7
330
2
100
AcDbEntity
  8
0
100
AcDbCircle
 10
1009.871581624427
 20
353.8172854996608
 30
0.0
 40
3.0
100
AcDbArc
 50
100.000000000005
 51
155.3190296368912
  0
ARC
  5
31F8
330
2
100
AcDbEntity
  8
0
100
AcDbCircle
 10
921.66100877487
 20
270.3031821039414
 30
0.0
 40
80.0
100
AcDbArc
 50
85.41175424079517
 51
98.89164568020392
  0
LINE
  5
31F9
330
2
100
AcDbEntity
  8
0
 48
0.5
100
AcDbLine
 10
888.0591717485208
 20
359.2456345049904
 30
0.0
 11
888.0591717485213
 21
369.2456345049945
 31
0.0
  0
ARC
  5
31FA
330
2
100
AcDbEntity
  8
0
100
AcDbCircle
 10
896.0591717485216
 20
369.2456345049945
 30
0.0
 40
8.0
100
AcDbArc
 50
171.108354319796
 51
180.0
  0
ARC
  5
31FB
330
2
100
AcDbEntity
  8
0
100
AcDbCircle
 10
809.1167193474721
 20
382.84747153134
 30
0.0
 40
80.0
100
AcDbArc
 50
351.1083543197961
 51
4.588245759201595
  0
LINE
  5
31FC
330
2
100
AcDbEntity
  8
0
 48
0.5
100
AcDbLine
 10
998.0591717485244
 20
349.2456345049904
 30
0.0
 11
988.0591717485208
 21
349.2456345049906
 31
0.0
  0
ARC
  5
31FD
330
2
100
AcDbEntity
  8
0
100
AcDbCircle
 10
988.0591717485208
 20
357.2456345049908
 30
0.0
 40
8.0
100
AcDbArc
 50
261.1083543197961
 51
270.0
  0
ARC
  5
31FE
330
2
100
AcDbEntity
  8
0
100
AcDbCircle
 10
974.4573347221754
 20
270.3031821039414
 30
0.0
 40
80.0
100
AcDbArc
 50
81.10835431979607
 51
94.58824575920484
  0
ARC
  5
31FF
330
2
100
AcDbEntity
  8
0
100
AcDbCircle
 10
1138.059171748521
 20
409.2456345049908
 30
0.0
 40
250.0
100
AcDbArc
 50
175.4117542407789
 51
184.588245759221
  0
ARC
  5
3200
330
2
100
AcDbEntity
  8
0
100
AcDbCircle
 10
948.0591717485218
 20
599.2456345049906
 30
0.0
 40
250.0
100
AcDbArc
 50
265.4117542407951
 51
274.5882457592048
  0
CIRCLE
  5
3201
330
2
100
AcDbEntity
  8
HOJO
100
AcDbCircle
 10
898.5616970654641
 20
458.7431091880508
 30
0.0
 40
4.0
  0
CIRCLE
  5
3202
330
2
100
AcDbEntity
  8
0
100
AcDbCircle
 10
898.5616970654641
 20
458.7431091880508
 30
0.0
 40
3.399999999999999
  0
CIRCLE
  5
3203
330
2
100
AcDbEntity
  8
HOJO
100
AcDbCircle
 10
997.5566464315811
 20
458.7431091880508
 30
0.0
 40
4.0
  0
CIRCLE
  5
3204
330
2
100
AcDbEntity
  8
0
100
AcDbCircle
 10
997.5566464315811
 20
458.7431091880508
 30
0.0
 40
3.399999999999999
  0
CIRCLE
  5
3205
330
2
100
AcDbEntity
  8
HOJO
100
AcDbCircle
 10
997.5566464315811
 20
359.7481598219342
 30
0.0
 40
4.0
  0
CIRCLE
  5
3206
330
2
100
AcDbEntity
  8
0
100
AcDbCircle
 10
997.5566464315811
 20
359.7481598219342
 30
0.0
 40
3.399999999999999
  0
CIRCLE
  5
3207
330
2
100
AcDbEntity
  8
HOJO
100
AcDbCircle
 10
898.5616970654641
 20
359.7481598219342
 30
0.0
 40
4.0
  0
CIRCLE
  5
3208
330
2
100
AcDbEntity
  8
0
100
AcDbCircle
 10
898.5616970654641
 20
359.7481598219342
 30
0.0
 40
3.399999999999999
  0
CIRCLE
  5
3209
330
2
100
AcDbEntity
  8
CENTER
100
AcDbCircle
 10
948.0591717485227
 20
409.2456345049923
 30
0.0
 40
70.00000000000039
  0
CIRCLE
  5
320A
330
2
100
AcDbEntity
  8
0
100
AcDbCircle
 10
948.0591717485227
 20
409.2456345049923
 30
0.0
 40
55.00000000000046
  0
CIRCLE
  5
320B
330
2
100
AcDbEntity
  8
0
100
AcDbCircle
 10
948.0591717485227
 20
409.2456345049923
 30
0.0
 40
39.99999999999932
  0
CIRCLE
  5
320C
330
2
100
AcDbEntity
  8
0
100
AcDbCircle
 10
948.0591717485227
 20
409.2456345049923
 30
0.0
 40
33.07735026919044
  0
CIRCLE
  5
320D
330
2
100
AcDbEntity
  8
0
100
AcDbCircle
 10
948.0591717485227
 20
409.2456345049923
 30
0.0
 40
32.50000000000023
  0
LINE
  5
320E
330
2
100
AcDbEntity
  8
CENTER
100
AcDbLine
 10
1011.767238850129
 20
345.5375674033869
 30
0.0
 11
884.3511046469171
 21
472.9537016065975
 31
0.0
  0
LINE
  5
320F
330
2
100
AcDbEntity
  8
CENTER
100
AcDbLine
 10
884.3511046469179
 20
345.5375674033863
 30
0.0
 11
1011.767238850128
 21
472.9537016065981
 31
0.0
  0
LINE
  5
3210
330
2
100
AcDbEntity
  8
0
100
AcDbLine
 10
1039.559171748519
 20
469.7456345049919
 30
0.0
 11
1053.559171748519
 21
469.7456345049919
 31
0.0
  0
ARC
  5
3211
330
2
100
AcDbEntity
  8
0
100
AcDbCircle
 10
1039.559171748519
 20
467.7456345049918
 30
0.0
 40
2.0
100
AcDbArc
 50
90.0
 51
180.0
  0
LINE
  5
3212
330
2
100
AcDbEntity
  8
0
100
AcDbLine
 10
1039.559171748519
 20
348.7456345049926
 30
0.0
 11
1053.559171748519
 21
348.7456345049926
 31
0.0
  0
ARC
  5
3213
330
2
100
AcDbEntity
  8
0
100
AcDbCircle
 10
1039.559171748519
 20
350.7456345049926
 30
0.0
 40
2.0
100
AcDbArc
 50
180.0
 51
270.0
  0
CIRCLE
  5
3214
330
2
100
AcDbEntity
  8
0
100
AcDbCircle
 10
948.0591717485227
 20
409.2456345049917
 30
0.0
 40
21.99999999999977
  0
LINE
  5
3215
330
2
100
AcDbEntity
  8
0
100
AcDbLine
 10
944.0591717485222
 20
426.5456345049922
 30
0.0
 11
952.0591717485222
 21
426.5456345049922
 31
0.0
  0
LINE
  5
3216
330
2
100
AcDbEntity
  8
0
100
AcDbLine
 10
944.0591717485222
 20
426.5456345049922
 30
0.0
 11
944.0591717485222
 21
422.6620423699906
 31
0.0
  0
LINE
  5
3217
330
2
100
AcDbEntity
  8
0
100
AcDbLine
 10
952.0591717485222
 20
426.5456345049922
 30
0.0
 11
952.0591717485226
 21
422.6620423699908
 31
0.0
  0
ARC
  5
3218
330
2
100
AcDbEntity
  8
0
100
AcDbCircle
 10
948.0591717485221
 20
409.2456345049923
 30
0.0
 40
15.15470053837842
100
AcDbArc
 50
105.3042448177051
 51
74.69575518229486
  0
ARC
  5
3219
330
2
100
AcDbEntity
  8
0
100
AcDbCircle
 10
948.0591717485227
 20
409.2456345049917
 30
0.0
 40
14.00000000000022
100
AcDbArc
 50
106.6015495990162
 51
73.39845040098374
  0
LINE
  5
321A
330
2
100
AcDbEntity
  8
CENTER
100
AcDbLine
 10
948.0591717485296
 20
484.2456345049929
 30
0.0
 11
948.0591717485296
 21
334.2456345049929
 31
0.0
  0
SPLINE
  5
32EF
330
2
100
AcDbEntity
  8
HOJO
100
AcDbSpline
210
0.0
220
0.0
230
1.0
 70
     8
 71
     3
 72
    20
 73
    16
 74
    14
 42
0.0000000001
 43
0.0000000001
 44
0.0000000001
 40
0.0
 40
0.0
 40
0.0
 40
0.0
 40
12.56009676327446
 40
21.86706258349765
 40
29.1971924686642
 40
37.90635438931612
 40
46.26124649128418
 40
54.55233073673269
 40
63.5047294535644
 40
66.72916817533662
 40
71.29666182959653
 40
77.47699395053804
 40
87.69207111978898
 40
106.7489339351688
 40
120.5289078687377
 40
120.5289078687377
 40
120.5289078687377
 40
120.5289078687377
 10
1054.45384819803
 20
409.2456345049866
 30
0.0
 10
1055.771001814457
 20
413.194895668576
 30
0.0
 10
1058.064159351802
 20
420.0705386393612
 30
0.0
 10
1063.225334191614
 20
428.8054525244866
 30
0.0
 10
1071.644891737985
 20
432.1220137673612
 30
0.0
 10
1079.750440558681
 20
430.2744164522238
 30
0.0
 10
1088.237452428268
 20
430.9466011711615
 30
0.0
 10
1096.648021553936
 20
429.3353120591046
 30
0.0
 10
1103.668748301314
 20
430.2438315545233
 30
0.0
 10
1108.699207932715
 20
432.4004206202403
 30
0.0
 10
1114.094386317931
 20
432.6521555692401
 30
0.0
 10
1114.844506220834
 20
441.0941985738934
 30
0.0
 10
1119.666606382193
 20
450.7710436701682
 30
0.0
 10
1120.676796130633
 20
468.9644467067607
 30
0.0
 10
1132.9209248498
 20
469.6978410259684
 30
0.0
 10
1138.05917174853
 20
470.0056098491038
 30
0.0
 11
1054.45384819803
 21
409.2456345049866
 31
0.0
 11
1058.924029249252
 21
420.9833307045014
 31
0.0
 11
1064.383917489719
 21
428.5205207100948
 31
0.0
 11
1071.187112157257
 21
431.2495033866607
 31
0.0
 11
1079.879052899849
 21
430.7020844543972
 31
0.0
 11
1088.232950281713
 21
430.5731636693651
 31
0.0
 11
1096.488356623054
 21
429.8048251343
 31
0.0
 11
1105.353226377311
 21
431.0536353781701
 31
0.0
 11
1108.410078816951
 21
432.0796267196222
 31
0.0
 11
1112.791565336876
 21
433.3698104884763
 31
0.0
 11
1114.933644745173
 21
439.16705129197
 31
0.0
 11
1118.062753066851
 21
448.8910670614427
 31
0.0
 11
1124.665006226741
 21
466.7677075058029
 31
0.0
 11
1138.05917174853
 21
470.0056098491038
 31
0.0
  0
LINE
  5
32F0
330
2
100
AcDbEntity
  8
0
100
AcDbLine
 10
1118.881204958333
 20
452.065687455641
 30
0.0
 11
1125.927412636865
 21
453.3081239810409
 31
0.0
  0
ENDSEC
  0
SECTION
  2
OBJECTS
  0
DICTIONARY
  5
7
330
0
100
AcDbDictionary
  3
ACAD_COLOR
350
832
  3
ACAD_GROUP
350
75
  3
ACAD_LAYOUT
350
61
  3
ACAD_MATERIAL
350
808
  3
ACAD_MLEADERSTYLE
350
857
  3
ACAD_MLINESTYLE
350
76
  3
ACAD_PLOTSETTINGS
350
77
  3
ACAD_PLOTSTYLENAME
350
6
  3
ACAD_SCALELIST
350
835
  3
ACAD_TABLESTYLE
350
833
  3
ACAD_VISUALSTYLE
350
821
  3
ACADDIM
350
480
  3
ACDB_RECOMPOSE_DATA
350
88E
  3
ACDBHEADERROUNDTRIPXREC
350
33A5
  3
ACDBVARIABLEDICTIONARY
350
102
  3
DWGPROPS
350
337B
  0
DICTIONARY
  5
1E6F
330
6E
100
AcDbDictionary
280
     1
  3
ACAD_XREC_ROUNDTRIP
360
337F
  0
DICTIONARY
  5
86B
330
66
100
AcDbDictionary
280
     1
  3
ACAD_LAYERSTATES
360
86C
  0
DICTIONARY
  5
158C
330
5E
100
AcDbDictionary
280
     1
  3
ADSK_XREC_LAYER_RECONCILED
360
158D
  0
DICTIONARY
  5
158E
330
3E
100
AcDbDictionary
280
     1
  3
ADSK_XREC_LAYER_RECONCILED
360
158F
  0
DICTIONARY
  5
1594
330
2B5
100
AcDbDictionary
280
     1
  3
ADSK_XREC_LAYER_RECONCILED
360
1595
  0
DICTIONARY
  5
1596
330
2BA
100
AcDbDictionary
280
     1
  3
ADSK_XREC_LAYER_RECONCILED
360
1597
  0
DICTIONARY
  5
159A
330
3FA
100
AcDbDictionary
280
     1
  3
ADSK_XREC_LAYER_RECONCILED
360
159B
  0
DICTIONARY
  5
159C
330
478
100
AcDbDictionary
280
     1
  3
ADSK_XREC_LAYER_RECONCILED
360
159D
  0
DICTIONARY
  5
33C6
330
2
100
AcDbDictionary
280
     1
  3
ACAD_LAYOUTSELFREF
360
33C7
  0
DICTIONARY
  5
33C8
330
339F
100
AcDbDictionary
280
     1
  3
ACAD_LAYOUTSELFREF
360
33C9
  0
DICTIONARY
  5
832
102
{ACAD_REACTORS
330
7
102
}
330
7
100
AcDbDictionary
  0
DICTIONARY
  5
75
102
{ACAD_REACTORS
330
7
102
}
330
7
100
AcDbDictionary
  0
DICTIONARY
  5
61
102
{ACAD_REACTORS
330
7
102
}
330
7
100
AcDbDictionary
  0
DICTIONARY
  5
808
102
{ACAD_REACTORS
330
7
102
}
330
7
100
AcDbDictionary
  3
BYBLOCK
350
811
  3
BYLAYER
350
809
  3
GLOBAL
350
819
  0
DICTIONARY
  5
857
102
{ACAD_REACTORS
330
7
102
}
330
7
100
AcDbDictionary
  3
STANDARD
350
858
  0
DICTIONARY
  5
76
102
{ACAD_REACTORS
330
7
102
}
330
7
100
AcDbDictionary
  3
STANDARD
350
78
  0
DICTIONARY
  5
77
102
{ACAD_REACTORS
330
7
102
}
330
7
100
AcDbDictionary
  0
ACDBDICTIONARYWDFLT
  5
6
102
{ACAD_REACTORS
330
7
102
}
330
7
100
AcDbDictionary
281
     1
  3
Normal
350
5
100
AcDbDictionaryWithDefault
340
5
  0
DICTIONARY
  5
835
102
{ACAD_REACTORS
330
7
102
}
330
7
100
AcDbDictionary
  3
A0
350
836
  3
A1
350
837
  3
A2
350
838
  3
A3
350
839
  3
A4
350
83A
  3
A5
350
83B
  3
A6
350
83C
  3
A7
350
83D
  3
A8
350
83E
  3
A9
350
83F
  3
B0
350
840
  3
B1
350
841
  3
B2
350
842
  3
B3
350
843
  3
B4
350
844
  3
B5
350
845
  3
B6
350
846
  3
B7
350
847
  3
B8
350
848
  3
B9
350
849
  3
C0
350
84A
  3
C1
350
84B
  3
C2
350
84C
  3
C3
350
84D
  3
C4
350
84E
  3
C5
350
84F
  3
C6
350
850
  3
C7
350
851
  3
C8
350
852
  3
C9
350
853
  3
D0
350
854
  3
D1
350
855
  3
D2
350
856
  0
DICTIONARY
  5
833
102
{ACAD_REACTORS
330
7
102
}
330
7
100
AcDbDictionary
  3
STANDARD
350
834
  0
DICTIONARY
  5
821
102
{ACAD_REACTORS
330
7
102
}
330
7
100
AcDbDictionary
  3
2DWIREFRAME
350
827
  3
3D_HIDDEN
350
829
  3
3DWIREFRAME
350
828
  3
BASIC
350
826
  3
BRIGHTEN
350
82D
  3
COLORCHANGE
350
831
  3
CONCEPTUAL
350
82A
  3
DIM
350
82C
  3
FACEPATTERN
350
830
  3
FLAT
350
822
  3
FLATWITHEDGES
350
823
  3
GOURAUD
350
824
  3
GOURAUDWITHEDGES
350
825
  3
LINEPATTERN
350
82F
  3
REALISTIC
350
82B
  3
THICKEN
350
82E
  0
XRECORD
  5
480
102
{ACAD_REACTORS
330
7
102
}
330
7
100
AcDbXrecord
 90
   990106
  3

 60
     0
 61
     0
 62
     1
 63
     3
 64
     1
 65
     0
 66
     0
 67
     3
 68
     1
 69
     0
 70
     0
 71
     0
 72
     0
 40
0.0
170
     2
340
0
  0
XRECORD
  5
88E
102
{ACAD_REACTORS
330
7
102
}
330
7
100
AcDbXrecord
 90
        1
330
834
  0
DICTIONARY
  5
33A5
102
{ACAD_REACTORS
330
7
102
}
330
7
100
AcDbDictionary
  3
CEPSNTYPE
350
33AF
  3
DIMSTYLEDATA
350
33B3
  3
FINGERPRINTGUID
350
33B0
  3
HYPERLINKBASE
350
33A8
  3
INSUNITS
350
33AE
  3
LAYOUTDICT
350
33AA
  3
LWETCUNION
350
33AD
  3
PLOTSETDICT
350
33AB
  3
PLOTSTYLNAMDICT
350
33AC
  3
PSVPSCALE
350
33B2
  3
PUCSBASE
350
33B6
  3
PUCSORGBACK
350
33BC
  3
PUCSORGBOTTOM
350
33B8
  3
PUCSORGFRONT
350
33BB
  3
PUCSORGLEFT
350
33B9
  3
PUCSORGRIGHT
350
33BA
  3
PUCSORGTOP
350
33B7
  3
PUCSORTHOREF
350
33B4
  3
PUCSORTHOVIEW
350
33B5
  3
STYLESHEET
350
33A9
  3
TSTACKALIGN
350
33A6
  3
TSTACKSIZE
350
33A7
  3
UCSBASE
350
33BF
  3
UCSORGBACK
350
33C5
  3
UCSORGBOTTOM
350
33C1
  3
UCSORGFRONT
350
33C4
  3
UCSORGLEFT
350
33C2
  3
UCSORGRIGHT
350
33C3
  3
UCSORGTOP
350
33C0
  3
UCSORTHOREF
350
33BD
  3
UCSORTHOVIEW
350
33BE
  3
VERSIONGUID
350
33B1
  0
DICTIONARY
  5
102
102
{ACAD_REACTORS
330
7
102
}
330
7
100
AcDbDictionary
  3
CANNOSCALE
350
892
  3
CMLEADERSTYLE
350
890
  3
CTABLESTYLE
350
88F
  3
DIMASSOC
350
103
  3
INDEXCTL
350
1E7C
  3
LIGHTINGUNITS
350
893
  3
MSLTSCALE
350
891
  3
SORTENTS
350
549
  0
XRECORD
  5
337B
102
{ACAD_REACTORS
330
7
102
}
330
7
100
AcDbXrecord
  1
DWGPROPS COOKIE
  2

  3

  4

  6

  7

  8
knsuzuki
  9

300
=
301
=
302
=
303
=
304
=
305
=
306
=
307
=
308
=
309
=
 40
0.1305130671296296
 41
2454889.364024514
 42
2454904.647215162
  1

 90
        0
  0
XRECORD
  5
337F
102
{ACAD_REACTORS
330
1E6F
102
}
330
1E6F
100
AcDbXrecord
102
VTR_0.000_0.000_1.000_1.000_VISUALSTYLE
340
827
102
VTR_0.000_0.000_1.000_1.000_GRIDDISPLAY
 70
     3
102
VTR_0.000_0.000_1.000_1.000_GRIDMAJOR
 70
     5
102
VTR_0.000_0.000_1.000_1.000_DEFAULTLIGHTING
280
     1
102
VTR_0.000_0.000_1.000_1.000_DEFAULTLIGHTINGTYPE
 70
     1
102
VTR_0.000_0.000_1.000_1.000_BRIGHTNESS
141
0.0
102
VTR_0.000_0.000_1.000_1.000_CONTRAST
142
0.0
  0
DICTIONARY
  5
86C
102
{ACAD_REACTORS
330
86B
102
}
330
86B
100
AcDbDictionary
  0
XRECORD
  5
158D
102
{ACAD_REACTORS
330
158C
102
}
330
158C
100
AcDbXrecord
290
     1
  0
XRECORD
  5
158F
102
{ACAD_REACTORS
330
158E
102
}
330
158E
100
AcDbXrecord
290
     1
  0
XRECORD
  5
1595
102
{ACAD_REACTORS
330
1594
102
}
330
1594
100
AcDbXrecord
290
     1
  0
XRECORD
  5
1597
102
{ACAD_REACTORS
330
1596
102
}
330
1596
100
AcDbXrecord
290
     1
  0
XRECORD
  5
159B
102
{ACAD_REACTORS
330
159A
102
}
330
159A
100
AcDbXrecord
290
     1
  0
XRECORD
  5
159D
102
{ACAD_REACTORS
330
159C
102
}
330
159C
100
AcDbXrecord
290
     1
  0
XRECORD
  5
33C7
102
{ACAD_REACTORS
330
33C6
102
}
330
33C6
100
AcDbXrecord
340
2
  0
XRECORD
  5
33C9
102
{ACAD_REACTORS
330
33C8
102
}
330
33C8
100
AcDbXrecord
340
339F
  0
ACAD_PROXY_OBJECT
  5
811
102
{ACAD_XDICTIONARY
360
812
102
}
102
{ACAD_REACTORS
330
808
102
}
330
808
100
AcDbProxyObject
 90
      499
 91
      512
 93
     1340
310
42109E509B1BD8DAC02004014080404555555555555953FAA155555555555654FEA9AA400014080404555555555555953FAA155555555555654FEA9AA400000000000000E03F4080404555555555555953FAA155555555555654FEA9AA4014080404555555555555953FAA155555555555654FEA9AA4010201011555555555
310
55654FEA8555555555555953FAA6A9005020101155555555555654FEA8555555555555953FAA6A900D
 94
        0
1001
ACAD
1000
AcadProxyRoundTripData
1071
      504
1071
   851991
1070
     0
  0
ACAD_PROXY_OBJECT
  5
809
102
{ACAD_XDICTIONARY
360
80A
102
}
102
{ACAD_REACTORS
330
808
102
}
330
808
100
AcDbProxyObject
 90
      499
 91
      512
 93
     1340
310
42109E53185E595C802004014080404555555555555953FAA155555555555654FEA9AA400014080404555555555555953FAA155555555555654FEA9AA400000000000000E03F4080404555555555555953FAA155555555555654FEA9AA4014080404555555555555953FAA155555555555654FEA9AA4010201011555555555
310
55654FEA8555555555555953FAA6A9005020101155555555555654FEA8555555555555953FAA6A900D
 94
        0
1001
ACAD
1000
AcadProxyRoundTripData
1071
      504
1071
   851991
1070
     0
  0
ACAD_PROXY_OBJECT
  5
819
102
{ACAD_XDICTIONARY
360
81A
102
}
102
{ACAD_REACTORS
330
808
102
}
330
808
100
AcDbProxyObject
 90
      499
 91
      512
 93
     1332
310
41D1DB1BD8985B002004014080404555555555555953FAA155555555555654FEA9AA400014080404555555555555953FAA155555555555654FEA9AA400000000000000E03F4080404555555555555953FAA155555555555654FEA9AA4014080404555555555555953FAA155555555555654FEA9AA401020101155555555555
310
654FEA8555555555555953FAA6A9005020101155555555555654FEA8555555555555953FAA6A9000
 94
        0
1001
ACAD
1000
AcadProxyRoundTripData
1071
      504
1071
   851991
1070
     0
  0
ACAD_PROXY_OBJECT
  5
858
102
{ACAD_REACTORS
330
857
102
}
330
857
100
AcDbProxyObject
 90
      499
 91
      512
 93
      618
310
40901902A4063FBFFFFFE056BD1B81E855B9FC0AD7A3703D0AD73F4254DD185B99185C990000AD7A3703D0AC73F90141901A02B5E8DC0F42B1CFC02B5E8DC0F42B1CFE5764000000000000300FC6
340
6A
340
0
340
16
340
0
 94
        0
1001
ACAD_MLEADERVER
1070
     2
1001
ACAD
1000
AcadProxyRoundTripData
1071
      508
1071
   851991
1070
     0
  0
MLINESTYLE
  5
78
102
{ACAD_REACTORS
330
76
102
}
330
76
100
AcDbMlineStyle
  2
STANDARD
 70
     0
  3

 62
     0
 51
90.0
 52
90.0
 71
     2
 49
0.5
 62
   256
  6
BYLAYER
 49
-0.5
 62
   256
  6
BYLAYER
  0
ACDBPLACEHOLDER
  5
5
102
{ACAD_REACTORS
330
6
102
}
330
6
100
AcDbPlaceHolder
280
     0
  0
ACAD_PROXY_OBJECT
  5
836
102
{ACAD_REACTORS
330
835
102
}
330
835
100
AcDbProxyObject
 90
      499
 91
      512
 93
       49
310
904313A3100598
 94
        0
1001
ACAD
1000
AcadProxyRoundTripData
1071
      507
1071
   851991
1070
     0
  0
ACAD_PROXY_OBJECT
  5
837
102
{ACAD_REACTORS
330
835
102
}
330
835
100
AcDbProxyObject
 90
      499
 91
      512
 93
      113
310
904313A3200400000000000000406B
 94
        0
1001
ACAD
1000
AcadProxyRoundTripData
1071
      507
1071
   851991
1070
     0
  0
ACAD_PROXY_OBJECT
  5
838
102
{ACAD_REACTORS
330
835
102
}
330
835
100
AcDbProxyObject
 90
      499
 91
      512
 93
      113
310
904313A3400400000000000010406B
 94
        0
1001
ACAD
1000
AcadProxyRoundTripData
1071
      507
1071
   851991
1070
     0
  0
ACAD_PROXY_OBJECT
  5
839
102
{ACAD_REACTORS
330
835
102
}
330
835
100
AcDbProxyObject
 90
      499
 91
      512
 93
      113
310
904313A3500400000000000014406B
 94
        0
1001
ACAD
1000
AcadProxyRoundTripData
1071
      507
1071
   851991
1070
     0
  0
ACAD_PROXY_OBJECT
  5
83A
102
{ACAD_REACTORS
330
835
102
}
330
835
100
AcDbProxyObject
 90
      499
 91
      512
 93
      113
310
904313A3800400000000000020406B
 94
        0
1001
ACAD
1000
AcadProxyRoundTripData
1071
      507
1071
   851991
1070
     0
  0
ACAD_PROXY_OBJECT
  5
83B
102
{ACAD_REACTORS
330
835
102
}
330
835
100
AcDbProxyObject
 90
      499
 91
      512
 93
      121
310
905313A3130004000000000000244051
 94
        0
1001
ACAD
1000
AcadProxyRoundTripData
1071
      507
1071
   851991
1070
     0
  0
ACAD_PROXY_OBJECT
  5
83C
102
{ACAD_REACTORS
330
835
102
}
330
835
100
AcDbProxyObject
 90
      499
 91
      512
 93
      121
310
905313A3136004000000000000304051
 94
        0
1001
ACAD
1000
AcadProxyRoundTripData
1071
      507
1071
   851991
1070
     0
  0
ACAD_PROXY_OBJECT
  5
83D
102
{ACAD_REACTORS
330
835
102
}
330
835
100
AcDbProxyObject
 90
      499
 91
      512
 93
      121
310
905313A3230004000000000000344051
 94
        0
1001
ACAD
1000
AcadProxyRoundTripData
1071
      507
1071
   851991
1070
     0
  0
ACAD_PROXY_OBJECT
  5
83E
102
{ACAD_REACTORS
330
835
102
}
330
835
100
AcDbProxyObject
 90
      499
 91
      512
 93
      121
310
905313A33300040000000000003E4051
 94
        0
1001
ACAD
1000
AcadProxyRoundTripData
1071
      507
1071
   851991
1070
     0
  0
ACAD_PROXY_OBJECT
  5
83F
102
{ACAD_REACTORS
330
835
102
}
330
835
100
AcDbProxyObject
 90
      499
 91
      512
 93
      121
310
905313A3430004000000000000444051
 94
        0
1001
ACAD
1000
AcadProxyRoundTripData
1071
      507
1071
   851991
1070
     0
  0
ACAD_PROXY_OBJECT
  5
840
102
{ACAD_REACTORS
330
835
102
}
330
835
100
AcDbProxyObject
 90
      499
 91
      512
 93
      121
310
905313A3530004000000000000494051
 94
        0
1001
ACAD
1000
AcadProxyRoundTripData
1071
      507
1071
   851991
1070
     0
  0
ACAD_PROXY_OBJECT
  5
841
102
{ACAD_REACTORS
330
835
102
}
330
835
100
AcDbProxyObject
 90
      499
 91
      512
 93
      129
310
906313A313030004000000000000594038
 94
        0
1001
ACAD
1000
AcadProxyRoundTripData
1071
      507
1071
   851991
1070
     0
  0
ACAD_PROXY_OBJECT
  5
842
102
{ACAD_REACTORS
330
835
102
}
330
835
100
AcDbProxyObject
 90
      499
 91
      512
 93
      113
310
904323A31000000000000000010159
 94
        0
1001
ACAD
1000
AcadProxyRoundTripData
1071
      507
1071
   851991
1070
     0
  0
ACAD_PROXY_OBJECT
  5
843
102
{ACAD_REACTORS
330
835
102
}
330
835
100
AcDbProxyObject
 90
      499
 91
      512
 93
      113
310
904343A31000000000000000410159
 94
        0
1001
ACAD
1000
AcadProxyRoundTripData
1071
      507
1071
   851991
1070
     0
  0
ACAD_PROXY_OBJECT
  5
844
102
{ACAD_REACTORS
330
835
102
}
330
835
100
AcDbProxyObject
 90
      499
 91
      512
 93
      113
310
904383A31000000000000000810159
 94
        0
1001
ACAD
1000
AcadProxyRoundTripData
1071
      507
1071
   851991
1070
     0
  0
ACAD_PROXY_OBJECT
  5
845
102
{ACAD_REACTORS
330
835
102
}
330
835
100
AcDbProxyObject
 90
      499
 91
      512
 93
      121
310
90531303A31000000000000000910140
 94
        0
1001
ACAD
1000
AcadProxyRoundTripData
1071
      507
1071
   851991
1070
     0
  0
ACAD_PROXY_OBJECT
  5
846
102
{ACAD_REACTORS
330
835
102
}
330
835
100
AcDbProxyObject
 90
      499
 91
      512
 93
      129
310
9063130303A31000000000000001650138
 94
        0
1001
ACAD
1000
AcadProxyRoundTripData
1071
      507
1071
   851991
1070
     0
  0
ACAD_PROXY_OBJECT
  5
847
102
{ACAD_REACTORS
330
835
102
}
330
835
100
AcDbProxyObject
 90
      499
 91
      512
 93
      265
310
90F312F31323822203D2031272D302200000000000000200FC00000000000028402B
 94
        0
1001
ACAD
1000
AcadProxyRoundTripData
1071
      507
1071
   851991
1070
     0
  0
ACAD_PROXY_OBJECT
  5
848
102
{ACAD_REACTORS
330
835
102
}
330
835
100
AcDbProxyObject
 90
      499
 91
      512
 93
      257
310
90E312F363422203D2031272D302200000000000000240FC000000000000284040
 94
        0
1001
ACAD
1000
AcadProxyRoundTripData
1071
      507
1071
   851991
1070
     0
  0
ACAD_PROXY_OBJECT
  5
849
102
{ACAD_REACTORS
330
835
102
}
330
835
100
AcDbProxyObject
 90
      499
 91
      512
 93
      257
310
90E312F333222203D2031272D302200000000000000280FC000000000000284040
 94
        0
1001
ACAD
1000
AcadProxyRoundTripData
1071
      507
1071
   851991
1070
     0
  0
ACAD_PROXY_OBJECT
  5
84A
102
{ACAD_REACTORS
330
835
102
}
330
835
100
AcDbProxyObject
 90
      499
 91
      512
 93
      257
310
90E312F313622203D2031272D3022000000000000002C0FC000000000000284040
 94
        0
1001
ACAD
1000
AcadProxyRoundTripData
1071
      507
1071
   851991
1070
     0
  0
ACAD_PROXY_OBJECT
  5
84B
102
{ACAD_REACTORS
330
835
102
}
330
835
100
AcDbProxyObject
 90
      499
 91
      512
 93
      257
310
90E332F333222203D2031272D3022000000000000002E0FC000000000000284040
 94
        0
1001
ACAD
1000
AcadProxyRoundTripData
1071
      507
1071
   851991
1070
     0
  0
ACAD_PROXY_OBJECT
  5
84C
102
{ACAD_REACTORS
330
835
102
}
330
835
100
AcDbProxyObject
 90
      499
 91
      512
 93
      249
310
90D312F3822203D2031272D302200000000000000300FC000000000000284040
 94
        0
1001
ACAD
1000
AcadProxyRoundTripData
1071
      507
1071
   851991
1070
     0
  0
ACAD_PROXY_OBJECT
  5
84D
102
{ACAD_REACTORS
330
835
102
}
330
835
100
AcDbProxyObject
 90
      499
 91
      512
 93
      257
310
90E332F313622203D2031272D302200000000000000320FC000000000000284040
 94
        0
1001
ACAD
1000
AcadProxyRoundTripData
1071
      507
1071
   851991
1070
     0
  0
ACAD_PROXY_OBJECT
  5
84E
102
{ACAD_REACTORS
330
835
102
}
330
835
100
AcDbProxyObject
 90
      499
 91
      512
 93
      249
310
90D312F3422203D2031272D302200000000000000340FC000000000000284040
 94
        0
1001
ACAD
1000
AcadProxyRoundTripData
1071
      507
1071
   851991
1070
     0
  0
ACAD_PROXY_OBJECT
  5
84F
102
{ACAD_REACTORS
330
835
102
}
330
835
100
AcDbProxyObject
 90
      499
 91
      512
 93
      249
310
90D332F3822203D2031272D302200000000000000360FC000000000000284040
 94
        0
1001
ACAD
1000
AcadProxyRoundTripData
1071
      507
1071
   851991
1070
     0
  0
ACAD_PROXY_OBJECT
  5
850
102
{ACAD_REACTORS
330
835
102
}
330
835
100
AcDbProxyObject
 90
      499
 91
      512
 93
      249
310
90D312F3222203D2031272D302200000000000000380FC000000000000284040
 94
        0
1001
ACAD
1000
AcadProxyRoundTripData
1071
      507
1071
   851991
1070
     0
  0
ACAD_PROXY_OBJECT
  5
851
102
{ACAD_REACTORS
330
835
102
}
330
835
100
AcDbProxyObject
 90
      499
 91
      512
 93
      249
310
90D332F3422203D2031272D3022000000000000003A0FC000000000000284040
 94
        0
1001
ACAD
1000
AcadProxyRoundTripData
1071
      507
1071
   851991
1070
     0
  0
ACAD_PROXY_OBJECT
  5
852
102
{ACAD_REACTORS
330
835
102
}
330
835
100
AcDbProxyObject
 90
      499
 91
      512
 93
      169
310
90B3122203D2031272D3022004000000000000284020
 94
        0
1001
ACAD
1000
AcadProxyRoundTripData
1071
      507
1071
   851991
1070
     0
  0
ACAD_PROXY_OBJECT
  5
853
102
{ACAD_REACTORS
330
835
102
}
330
835
100
AcDbProxyObject
 90
      499
 91
      512
 93
      265
310
90F312D312F3222203D2031272D3022000000000000003E0FC00000000000028402B
 94
        0
1001
ACAD
1000
AcadProxyRoundTripData
1071
      507
1071
   851991
1070
     0
  0
ACAD_PROXY_OBJECT
  5
854
102
{ACAD_REACTORS
330
835
102
}
330
835
100
AcDbProxyObject
 90
      499
 91
      512
 93
      233
310
90B3322203D2031272D30220000000000000002100000000000000284000
 94
        0
1001
ACAD
1000
AcadProxyRoundTripData
1071
      507
1071
   851991
1070
     0
  0
ACAD_PROXY_OBJECT
  5
855
102
{ACAD_REACTORS
330
835
102
}
330
835
100
AcDbProxyObject
 90
      499
 91
      512
 93
      233
310
90B3622203D2031272D30220000000000000006100000000000000284000
 94
        0
1001
ACAD
1000
AcadProxyRoundTripData
1071
      507
1071
   851991
1070
     0
  0
ACAD_PROXY_OBJECT
  5
856
102
{ACAD_REACTORS
330
835
102
}
330
835
100
AcDbProxyObject
 90
      499
 91
      512
 93
      257
310
90E31272D3022203D2031272D3022000000000000000A100000000000000284040
 94
        0
1001
ACAD
1000
AcadProxyRoundTripData
1071
      507
1071
   851991
1070
     0
  0
ACAD_PROXY_OBJECT
  5
834
102
{ACAD_XDICTIONARY
360
88C
102
}
102
{ACAD_REACTORS
330
833
102
}
330
833
100
AcDbProxyObject
 90
      499
 91
      512
 93
     1849
310
4254DD185B99185C990028B81E85EB51B8AE3F2E07A17AD46E2B8FC02B5E8DC0F42B1CFD028000000C1008070000C3001FDFF8000000C1003FBFF000000182007F7FE00000030400FEFFC00000060801FDFF8000000C1003FBFF00000018200000000000000681FA0B0000001820100E000186003FBFF000000182007F7FE0
310
0000030400FEFFC00000060801FDFF8000000C1003FBFF000000182007F7FE000000304000AD7A3703D0AC73F4160000003040201C00030C007F7FE00000030400FEFFC00000060801FDFF8000000C1003FBFF000000182007F7FE00000030400FEFFC00000060804D
340
16
340
16
340
16
 94
        0
1001
ACAD
1000
AcadProxyRoundTripData
1071
      506
1071
   851991
1070
     0
  0
ACAD_PROXY_OBJECT
  5
827
102
{ACAD_REACTORS
330
821
102
}
330
821
100
AcDbProxyObject
 90
      499
 91
      512
 93
      444
310
430C9915DA5C99599C985B59401049028333333333333E3BF0000000000000FB0107901411070040501600405405064090741402480A0340
 94
        0
1001
ACAD
1000
AcDbSavedByObjectVersion
1070
     0
1000
AcadProxyRoundTripData
1071
      505
1071
   851991
1070
     0
  0
ACAD_PROXY_OBJECT
  5
829
102
{ACAD_REACTORS
330
821
102
}
330
821
100
AcDbProxyObject
 90
      499
 91
      512
 93
      508
310
428CD108121A5919195B8010640502408333333333333E3BF0000000000000FB01079024090700405020000000000001110200405405064090740C02480A0340
 94
        0
1001
ACAD
1000
AcDbSavedByObjectVersion
1070
     0
1000
AcadProxyRoundTripData
1071
      505
1071
   851991
1070
     0
  0
ACAD_PROXY_OBJECT
  5
828
102
{ACAD_REACTORS
330
821
102
}
330
821
100
AcDbProxyObject
 90
      499
 91
      512
 93
      444
310
430CD915DA5C99599C985B59401059028333333333333E3BF0000000000000FB0107901411070040501600405405064090741402480A0340
 94
        0
1001
ACAD
1000
AcDbSavedByObjectVersion
1070
     0
1000
AcadProxyRoundTripData
1071
      505
1071
   851991
1070
     0
  0
ACAD_PROXY_OBJECT
  5
826
102
{ACAD_REACTORS
330
821
102
}
330
821
100
AcDbProxyObject
 90
      499
 91
      512
 93
      396
310
4190985CDA58C0107406404333333333333E3BF0000000000000FB0107A41107004050150841D405064090741402480A0356
 94
        0
1001
ACAD
1000
AcDbSavedByObjectVersion
1070
     0
1000
AcadProxyRoundTripData
1071
      505
1071
   851991
1070
     0
  0
ACAD_PROXY_OBJECT
  5
82D
102
{ACAD_REACTORS
330
821
102
}
330
821
100
AcDbProxyObject
 90
      499
 91
      512
 93
      436
310
42509C9A59DA1D195B8010C409028333333333333E3BF0000000000000FB010790141107004050150841D405064090741402480A029956
 94
        0
1001
ACAD
1000
AcDbSavedByObjectVersion
1070
     0
1000
AcadProxyRoundTripData
1071
      505
1071
   851991
1070
     0
  0
ACAD_PROXY_OBJECT
  5
831
102
{ACAD_REACTORS
330
821
102
}
330
821
100
AcDbProxyObject
 90
      499
 91
      512
 93
      460
310
4310DBDB1BDC90DA185B99D9401104090240C333333333333E3BF0000000000000FB0108901411070040501508421405064090741402480A0354
 94
        0
1001
ACAD
1000
AcDbSavedByObjectVersion
1070
     0
1000
AcadProxyRoundTripData
1071
      505
1071
   851991
1070
     0
  0
ACAD_PROXY_OBJECT
  5
82A
102
{ACAD_REACTORS
330
821
102
}
330
821
100
AcDbProxyObject
 90
      499
 91
      512
 93
      508
310
42D0DBDB98D95C1D1D585B0010940D028333333333333E3BF0000000000000FB0107902409070040501000000000000111010841D405064090740C02480A0340
 94
        0
1001
ACAD
1000
AcDbSavedByObjectVersion
1070
     0
1000
AcadProxyRoundTripData
1071
      505
1071
   851991
1070
     0
  0
ACAD_PROXY_OBJECT
  5
82C
102
{ACAD_REACTORS
330
821
102
}
330
821
100
AcDbProxyObject
 90
      499
 91
      512
 93
      420
310
41111A5B4010B409028333333333333E3BF0000000000000FB010790141107004050150841D405064090741402480A02677FFFFFDB
 94
        0
1001
ACAD
1000
AcDbSavedByObjectVersion
1070
     0
1000
AcadProxyRoundTripData
1071
      505
1071
   851991
1070
     0
  0
ACAD_PROXY_OBJECT
  5
830
102
{ACAD_REACTORS
330
821
102
}
330
821
100
AcDbProxyObject
 90
      499
 91
      512
 93
      452
310
43119858D95C185D1D195C9B8010F409028333333333333E3BF0000000000000FB010790141107004050150841D405064090741402480A0350
 94
        0
1001
ACAD
1000
AcDbSavedByObjectVersion
1070
     0
1000
AcadProxyRoundTripData
1071
      505
1071
   851991
1070
     0
  0
ACAD_PROXY_OBJECT
  5
822
102
{ACAD_REACTORS
330
821
102
}
330
821
100
AcDbProxyObject
 90
      499
 91
      512
 93
      396
310
41519B185D00240901404333333333333E3BF0000000000000F9010740A41107004050150841D405064090741402480A1B55
 94
        0
1001
ACAD
1000
AcDbSavedByObjectVersion
1070
     0
1000
AcadProxyRoundTripData
1071
      505
1071
   851991
1070
     0
  0
ACAD_PROXY_OBJECT
  5
823
102
{ACAD_REACTORS
330
821
102
}
330
821
100
AcDbProxyObject
 90
      499
 91
      512
 93
      484
310
43919B185D15DA5D1A115919D95CC010140901404333333333333E3BF0000000000000F9010740901411070040501600405405064090741402480A1B50
 94
        0
1001
ACAD
1000
AcDbSavedByObjectVersion
1070
     0
1000
AcadProxyRoundTripData
1071
      505
1071
   851991
1070
     0
  0
ACAD_PROXY_OBJECT
  5
824
102
{ACAD_REACTORS
330
821
102
}
330
821
100
AcDbProxyObject
 90
      499
 91
      512
 93
      420
310
4211DBDD5C985D590010240902404333333333333E3BF0000000000000F9010740A411070040501641D405064090741402480A1B50
 94
        0
1001
ACAD
1000
AcDbSavedByObjectVersion
1070
     0
1000
AcadProxyRoundTripData
1071
      505
1071
   851991
1070
     0
  0
ACAD_PROXY_OBJECT
  5
825
102
{ACAD_REACTORS
330
821
102
}
330
821
100
AcDbProxyObject
 90
      499
 91
      512
 93
      508
310
4451DBDD5C985D5915DA5D1A115919D95CC010340902404333333333333E3BF0000000000000F9010740901411070040501600405405064090741402480A1B50
 94
        0
1001
ACAD
1000
AcDbSavedByObjectVersion
1070
     0
1000
AcadProxyRoundTripData
1071
      505
1071
   851991
1070
     0
  0
ACAD_PROXY_OBJECT
  5
82F
102
{ACAD_REACTORS
330
821
102
}
330
821
100
AcDbProxyObject
 90
      499
 91
      512
 93
      452
310
43131A5B995C185D1D195C9B8010E409028333333333333E3BF0000000000000FB010790141107004050750841D405064090741402483A0350
 94
        0
1001
ACAD
1000
AcDbSavedByObjectVersion
1070
     0
1000
AcadProxyRoundTripData
1071
      505
1071
   851991
1070
     0
  0
ACAD_PROXY_OBJECT
  5
82B
102
{ACAD_REACTORS
330
821
102
}
330
821
100
AcDbProxyObject
 90
      499
 91
      512
 93
      428
310
429499585B1A5CDD1A58C0108409028333333333333E3BF0000000000000FB01079019070040501508421405064090741402480A1B45
 94
        0
1001
ACAD
1000
AcDbSavedByObjectVersion
1070
     0
1000
AcadProxyRoundTripData
1071
      505
1071
   851991
1070
     0
  0
ACAD_PROXY_OBJECT
  5
82E
102
{ACAD_REACTORS
330
821
102
}
330
821
100
AcDbProxyObject
 90
      499
 91
      512
 93
      420
310
42151A1A58DAD95B8010D409028333333333333E3BF0000000000000FB010790141107004050150C41D405064090741402480A0352
 94
        0
1001
ACAD
1000
AcDbSavedByObjectVersion
1070
     0
1000
AcadProxyRoundTripData
1071
      505
1071
   851991
1070
     0
  0
XRECORD
  5
33AF
102
{ACAD_REACTORS
330
33A5
102
}
330
33A5
100
AcDbXrecord
 90
        0
  0
XRECORD
  5
33B3
102
{ACAD_REACTORS
330
33A5
102
}
330
33A5
100
AcDbXrecord
1000
DSTYLE
1002
{
1070
   179
 70
     2
1070
   277
 70
     6
1002
}
  0
XRECORD
  5
33B0
102
{ACAD_REACTORS
330
33A5
102
}
330
33A5
100
AcDbXrecord
  1
{472D1F85-08F4-40FF-8A32-FC4D8F4268D4}
  0
XRECORD
  5
33A8
102
{ACAD_REACTORS
330
33A5
102
}
330
33A5
100
AcDbXrecord
  1

  0
XRECORD
  5
33AE
102
{ACAD_REACTORS
330
33A5
102
}
330
33A5
100
AcDbXrecord
 90
        0
  0
XRECORD
  5
33AA
102
{ACAD_REACTORS
330
33A5
102
}
330
33A5
100
AcDbXrecord
340
61
  0
XRECORD
  5
33AD
102
{ACAD_REACTORS
330
33A5
102
}
330
33A5
100
AcDbXrecord
 90
    10781
  0
XRECORD
  5
33AB
102
{ACAD_REACTORS
330
33A5
102
}
330
33A5
100
AcDbXrecord
340
77
  0
XRECORD
  5
33AC
102
{ACAD_REACTORS
330
33A5
102
}
330
33A5
100
AcDbXrecord
340
6
  0
XRECORD
  5
33B2
102
{ACAD_REACTORS
330
33A5
102
}
330
33A5
100
AcDbXrecord
 40
0.0
  0
XRECORD
  5
33B6
102
{ACAD_REACTORS
330
33A5
102
}
330
33A5
100
AcDbXrecord
340
0
  0
XRECORD
  5
33BC
102
{ACAD_REACTORS
330
33A5
102
}
330
33A5
100
AcDbXrecord
 10
0.0
 20
0.0
 30
0.0
  0
XRECORD
  5
33B8
102
{ACAD_REACTORS
330
33A5
102
}
330
33A5
100
AcDbXrecord
 10
0.0
 20
0.0
 30
0.0
  0
XRECORD
  5
33BB
102
{ACAD_REACTORS
330
33A5
102
}
330
33A5
100
AcDbXrecord
 10
0.0
 20
0.0
 30
0.0
  0
XRECORD
  5
33B9
102
{ACAD_REACTORS
330
33A5
102
}
330
33A5
100
AcDbXrecord
 10
0.0
 20
0.0
 30
0.0
  0
XRECORD
  5
33BA
102
{ACAD_REACTORS
330
33A5
102
}
330
33A5
100
AcDbXrecord
 10
0.0
 20
0.0
 30
0.0
  0
XRECORD
  5
33B7
102
{ACAD_REACTORS
330
33A5
102
}
330
33A5
100
AcDbXrecord
 10
0.0
 20
0.0
 30
0.0
  0
XRECORD
  5
33B4
102
{ACAD_REACTORS
330
33A5
102
}
330
33A5
100
AcDbXrecord
340
0
  0
XRECORD
  5
33B5
102
{ACAD_REACTORS
330
33A5
102
}
330
33A5
100
AcDbXrecord
 70
     0
  0
XRECORD
  5
33A9
102
{ACAD_REACTORS
330
33A5
102
}
330
33A5
100
AcDbXrecord
  1
Sekkei.ctb
  0
XRECORD
  5
33A6
102
{ACAD_REACTORS
330
33A5
102
}
330
33A5
100
AcDbXrecord
 90
        1
  0
XRECORD
  5
33A7
102
{ACAD_REACTORS
330
33A5
102
}
330
33A5
100
AcDbXrecord
 90
       70
  0
XRECORD
  5
33BF
102
{ACAD_REACTORS
330
33A5
102
}
330
33A5
100
AcDbXrecord
340
0
  0
XRECORD
  5
33C5
102
{ACAD_REACTORS
330
33A5
102
}
330
33A5
100
AcDbXrecord
 10
0.0
 20
0.0
 30
0.0
  0
XRECORD
  5
33C1
102
{ACAD_REACTORS
330
33A5
102
}
330
33A5
100
AcDbXrecord
 10
0.0
 20
0.0
 30
0.0
  0
XRECORD
  5
33C4
102
{ACAD_REACTORS
330
33A5
102
}
330
33A5
100
AcDbXrecord
 10
0.0
 20
0.0
 30
0.0
  0
XRECORD
  5
33C2
102
{ACAD_REACTORS
330
33A5
102
}
330
33A5
100
AcDbXrecord
 10
0.0
 20
0.0
 30
0.0
  0
XRECORD
  5
33C3
102
{ACAD_REACTORS
330
33A5
102
}
330
33A5
100
AcDbXrecord
 10
0.0
 20
0.0
 30
0.0
  0
XRECORD
  5
33C0
102
{ACAD_REACTORS
330
33A5
102
}
330
33A5
100
AcDbXrecord
 10
0.0
 20
0.0
 30
0.0
  0
XRECORD
  5
33BD
102
{ACAD_REACTORS
330
33A5
102
}
330
33A5
100
AcDbXrecord
340
0
  0
XRECORD
  5
33BE
102
{ACAD_REACTORS
330
33A5
102
}
330
33A5
100
AcDbXrecord
 70
     0
  0
XRECORD
  5
33B1
102
{ACAD_REACTORS
330
33A5
102
}
330
33A5
100
AcDbXrecord
  1
{2ED7C0CD-BAF0-4C18-866F-161DF130DD4E}
  0
DICTIONARYVAR
  5
892
102
{ACAD_REACTORS
330
102
102
}
330
102
100
DictionaryVariables
280
     0
  1
1:1
  0
DICTIONARYVAR
  5
890
102
{ACAD_REACTORS
330
102
102
}
330
102
100
DictionaryVariables
280
     0
  1
STANDARD
  0
DICTIONARYVAR
  5
88F
102
{ACAD_REACTORS
330
102
102
}
330
102
100
DictionaryVariables
280
     0
  1
STANDARD
  0
DICTIONARYVAR
  5
103
102
{ACAD_REACTORS
330
102
102
}
330
102
100
DictionaryVariables
280
     0
  1
1
  0
DICTIONARYVAR
  5
1E7C
102
{ACAD_REACTORS
330
102
102
}
330
102
100
DictionaryVariables
280
     0
  1
0
  0
DICTIONARYVAR
  5
893
102
{ACAD_REACTORS
330
102
102
}
330
102
100
DictionaryVariables
280
     0
  1
0
  0
DICTIONARYVAR
  5
891
102
{ACAD_REACTORS
330
102
102
}
330
102
100
DictionaryVariables
280
     0
  1
0
  0
DICTIONARYVAR
  5
549
102
{ACAD_REACTORS
330
102
102
}
330
102
100
DictionaryVariables
280
     0
  1
96
  0
DICTIONARY
  5
812
330
811
100
AcDbDictionary
280
     1
  3
ACAD_XREC_ROUNDTRIP
360
3383
  3
BUMPTILE
360
814
  3
DIFFUSETILE
360
813
  3
OPACITYTILE
360
817
  3
REFLECTIONTILE
360
816
  3
REFRACTIONTILE
360
818
  3
SPECULARTILE
360
815
  0
DICTIONARY
  5
80A
330
809
100
AcDbDictionary
280
     1
  3
ACAD_XREC_ROUNDTRIP
360
3382
  3
BUMPTILE
360
80C
  3
DIFFUSETILE
360
80B
  3
OPACITYTILE
360
80F
  3
REFLECTIONTILE
360
80E
  3
REFRACTIONTILE
360
810
  3
SPECULARTILE
360
80D
  0
DICTIONARY
  5
81A
330
819
100
AcDbDictionary
280
     1
  3
ACAD_XREC_ROUNDTRIP
360
3384
  3
BUMPTILE
360
81C
  3
DIFFUSETILE
360
81B
  3
OPACITYTILE
360
81F
  3
REFLECTIONTILE
360
81E
  3
REFRACTIONTILE
360
820
  3
SPECULARTILE
360
81D
  0
DICTIONARY
  5
88C
330
834
100
AcDbDictionary
280
     1
  3
ACAD_ROUNDTRIP_2008_TABLES
360
337A
  3
ACAD_XREC_ROUNDTRIP
360
3385
  0
XRECORD
  5
3383
102
{ACAD_REACTORS
330
812
102
}
330
812
100
AcDbXrecord
102
MATERIAL
148
0.0
149
0.0
149
0.0
 93
        0
 94
      127
282
     0
 72
     0
 77
     0
171
     0
175
     0
179
     0
273
     0
  0
XRECORD
  5
814
102
{ACAD_REACTORS
330
812
102
}
330
812
100
AcDbXrecord
270
     1
271
     1
  0
XRECORD
  5
813
102
{ACAD_REACTORS
330
812
102
}
330
812
100
AcDbXrecord
270
     1
271
     1
  0
XRECORD
  5
817
102
{ACAD_REACTORS
330
812
102
}
330
812
100
AcDbXrecord
270
     1
271
     1
  0
XRECORD
  5
816
102
{ACAD_REACTORS
330
812
102
}
330
812
100
AcDbXrecord
270
     1
271
     1
  0
XRECORD
  5
818
102
{ACAD_REACTORS
330
812
102
}
330
812
100
AcDbXrecord
270
     1
271
     1
  0
XRECORD
  5
815
102
{ACAD_REACTORS
330
812
102
}
330
812
100
AcDbXrecord
270
     1
271
     1
  0
XRECORD
  5
3382
102
{ACAD_REACTORS
330
80A
102
}
330
80A
100
AcDbXrecord
102
MATERIAL
148
0.0
149
0.0
149
0.0
 93
        0
 94
      127
282
     0
 72
     0
 77
     0
171
     0
175
     0
179
     0
273
     0
  0
XRECORD
  5
80C
102
{ACAD_REACTORS
330
80A
102
}
330
80A
100
AcDbXrecord
270
     1
271
     1
  0
XRECORD
  5
80B
102
{ACAD_REACTORS
330
80A
102
}
330
80A
100
AcDbXrecord
270
     1
271
     1
  0
XRECORD
  5
80F
102
{ACAD_REACTORS
330
80A
102
}
330
80A
100
AcDbXrecord
270
     1
271
     1
  0
XRECORD
  5
80E
102
{ACAD_REACTORS
330
80A
102
}
330
80A
100
AcDbXrecord
270
     1
271
     1
  0
XRECORD
  5
810
102
{ACAD_REACTORS
330
80A
102
}
330
80A
100
AcDbXrecord
270
     1
271
     1
  0
XRECORD
  5
80D
102
{ACAD_REACTORS
330
80A
102
}
330
80A
100
AcDbXrecord
270
     1
271
     1
  0
XRECORD
  5
3384
102
{ACAD_REACTORS
330
81A
102
}
330
81A
100
AcDbXrecord
102
MATERIAL
148
0.0
149
0.0
149
0.0
 93
        0
 94
      127
282
     0
 72
     0
 77
     0
171
     0
175
     0
179
     0
273
     0
  0
XRECORD
  5
81C
102
{ACAD_REACTORS
330
81A
102
}
330
81A
100
AcDbXrecord
270
     1
271
     1
  0
XRECORD
  5
81B
102
{ACAD_REACTORS
330
81A
102
}
330
81A
100
AcDbXrecord
270
     1
271
     1
  0
XRECORD
  5
81F
102
{ACAD_REACTORS
330
81A
102
}
330
81A
100
AcDbXrecord
270
     1
271
     1
  0
XRECORD
  5
81E
102
{ACAD_REACTORS
330
81A
102
}
330
81A
100
AcDbXrecord
270
     1
271
     1
  0
XRECORD
  5
820
102
{ACAD_REACTORS
330
81A
102
}
330
81A
100
AcDbXrecord
270
     1
271
     1
  0
XRECORD
  5
81D
102
{ACAD_REACTORS
330
81A
102
}
330
81A
100
AcDbXrecord
270
     1
271
     1
  0
ACAD_PROXY_OBJECT
  5
337A
102
{ACAD_REACTORS
330
88C
102
}
330
88C
100
AcDbProxyObject
 90
      499
 91
      512
 93
     1044
310
40D054060020000020000003200101A000080002A5058000000C100000000000000340FE901405075F5449544C450041501A8000000C800406800020000A9416000000304000AD7A3703D0AC73FA409014217D2115051115480105406A0000003200101A000080002A5028000000C10002B5E8DC0F42B1CFE903409065F444
310
15441000
340
16
340
16
340
16
 94
        0
1001
ACAD
1000
AcadProxyRoundTripData
1071
      510
1071
   851991
1070
     0
  0
XRECORD
  5
3385
102
{ACAD_REACTORS
330
88C
102
}
330
88C
100
AcDbXrecord
102
ACAD_ROUNDTRIP_PRE2007_TABLESTYLE
 90
      512
 91
        0
  1

 92
      512
 93
        0
  2

 94
      512
 95
        0
  3

  0
ENDSEC
  0
EOF
