  0
SECTION
  2
HEADER
  9
$ACADVER
  1
AC1014
  9
$ACADMAINTVER
 70
     9
  9
$DWGCODEPAGE
  3
ANSI_932
  9
$INSBASE
 10
0.0
 20
0.0
 30
0.0
  9
$EXTMIN
 10
198.9079672978026
 20
19.76079610608167
 30
0.0
  9
$EXTMAX
 10
1535.587842387933
 20
889.2875640276434
 30
0.0
  9
$LIMMIN
 10
0.0
 20
0.0
  9
$LIMMAX
 10
297.0
 20
210.0
  9
$ORTHOMODE
 70
     0
  9
$REGENMODE
 70
     1
  9
$FILLMODE
 70
     1
  9
$QTEXTMODE
 70
     0
  9
$MIRRTEXT
 70
     0
  9
$DRAGMODE
 70
     2
  9
$LTSCALE
 40
4.0
  9
$OSMODE
 70
    37
  9
$ATTMODE
 70
     1
  9
$TEXTSIZE
 40
2.0
  9
$TRACEWID
 40
1.0
  9
$TEXTSTYLE
  7
STANDARD
  9
$CLAYER
  8
0
  9
$CELTYPE
  6
BYLAYER
  9
$CECOLOR
 62
   256
  9
$CELTSCALE
 40
1.0
  9
$DELOBJ
 70
     1
  9
$DISPSILH
 70
     0
  9
$DIMSCALE
 40
4.0
  9
$DIMASZ
 40
1.8
  9
$DIMEXO
 40
0.625
  9
$DIMDLI
 40
3.75
  9
$DIMRND
 40
0.0
  9
$DIMDLE
 40
0.0
  9
$DIMEXE
 40
0.8
  9
$DIMTP
 40
0.0
  9
$DIMTM
 40
0.0
  9
$DIMTXT
 40
1.8
  9
$DIMCEN
 40
2.5
  9
$DIMTSZ
 40
0.0
  9
$DIMTOL
 70
     0
  9
$DIMLIM
 70
     0
  9
$DIMTIH
 70
     0
  9
$DIMTOH
 70
     0
  9
$DIMSE1
 70
     0
  9
$DIMSE2
 70
     0
  9
$DIMTAD
 70
     1
  9
$DIMZIN
 70
     8
  9
$DIMBLK
  1

  9
$DIMASO
 70
     1
  9
$DIMSHO
 70
     1
  9
$DIMPOST
  1

  9
$DIMAPOST
  1

  9
$DIMALT
 70
     0
  9
$DIMALTD
 70
     4
  9
$DIMALTF
 40
0.0394
  9
$DIMLFAC
 40
1.0
  9
$DIMTOFL
 70
     1
  9
$DIMTVP
 40
0.0
  9
$DIMTIX
 70
     0
  9
$DIMSOXD
 70
     0
  9
$DIMSAH
 70
     0
  9
$DIMBLK1
  1

  9
$DIMBLK2
  1

  9
$DIMSTYLE
  2
STANDARD
  9
$DIMCLRD
 70
     0
  9
$DIMCLRE
 70
     0
  9
$DIMCLRT
 70
     0
  9
$DIMTFAC
 40
1.0
  9
$DIMGAP
 40
0.75
  9
$DIMJUST
 70
     0
  9
$DIMSD1
 70
     0
  9
$DIMSD2
 70
     0
  9
$DIMTOLJ
 70
     1
  9
$DIMTZIN
 70
     0
  9
$DIMALTZ
 70
     0
  9
$DIMALTTZ
 70
     0
  9
$DIMFIT
 70
     3
  9
$DIMUPT
 70
     0
  9
$DIMUNIT
 70
     8
  9
$DIMDEC
 70
     2
  9
$DIMTDEC
 70
     2
  9
$DIMALTU
 70
     8
  9
$DIMALTTD
 70
     4
  9
$DIMTXSTY
  7
STANDARD
  9
$DIMAUNIT
 70
     0
  9
$LUNITS
 70
     2
  9
$LUPREC
 70
     3
  9
$SKETCHINC
 40
1.0
  9
$FILLETRAD
 40
10.0
  9
$AUNITS
 70
     0
  9
$AUPREC
 70
     2
  9
$MENU
  1
.
  9
$ELEVATION
 40
0.0
  9
$PELEVATION
 40
0.0
  9
$THICKNESS
 40
0.0
  9
$LIMCHECK
 70
     0
  9
$BLIPMODE
 70
     0
  9
$CHAMFERA
 40
0.0
  9
$CHAMFERB
 40
0.0
  9
$CHAMFERC
 40
20.0
  9
$CHAMFERD
 40
0.0
  9
$SKPOLY
 70
     0
  9
$TDCREATE
 40
2454889.364024514
  9
$TDUPDATE
 40
2454909.815734074
  9
$TDINDWG
 40
0.2198065278
  9
$TDUSRTIMER
 40
0.2198065278
  9
$USRTIMER
 70
     1
  9
$ANGBASE
 50
0.0
  9
$ANGDIR
 70
     0
  9
$PDMODE
 70
     0
  9
$PDSIZE
 40
-10.0
  9
$PLINEWID
 40
0.0
  9
$COORDS
 70
     1
  9
$SPLFRAME
 70
     0
  9
$SPLINETYPE
 70
     6
  9
$SPLINESEGS
 70
     8
  9
$ATTDIA
 70
     0
  9
$ATTREQ
 70
     1
  9
$HANDLING
 70
 22529
  9
$HANDSEED
  5
4D64
  9
$SURFTAB1
 70
     6
  9
$SURFTAB2
 70
     6
  9
$SURFTYPE
 70
     6
  9
$SURFU
 70
     6
  9
$SURFV
 70
     6
  9
$UCSNAME
  2

  9
$UCSORG
 10
0.0
 20
0.0
 30
0.0
  9
$UCSXDIR
 10
1.0
 20
0.0
 30
0.0
  9
$UCSYDIR
 10
0.0
 20
1.0
 30
0.0
  9
$PUCSNAME
  2

  9
$PUCSORG
 10
0.0
 20
0.0
 30
0.0
  9
$PUCSXDIR
 10
1.0
 20
0.0
 30
0.0
  9
$PUCSYDIR
 10
0.0
 20
1.0
 30
0.0
  9
$USERI1
 70
     0
  9
$USERI2
 70
     0
  9
$USERI3
 70
     0
  9
$USERI4
 70
     0
  9
$USERI5
 70
     0
  9
$USERR1
 40
0.0
  9
$USERR2
 40
0.0
  9
$USERR3
 40
0.0
  9
$USERR4
 40
0.0
  9
$USERR5
 40
0.0
  9
$WORLDVIEW
 70
     1
  9
$SHADEDGE
 70
     3
  9
$SHADEDIF
 70
    70
  9
$TILEMODE
 70
     1
  9
$MAXACTVP
 70
    48
  9
$PINSBASE
 10
0.0
 20
0.0
 30
0.0
  9
$PLIMCHECK
 70
     0
  9
$PEXTMIN
 10
0.0
 20
0.0
 30
0.0
  9
$PEXTMAX
 10
0.0
 20
0.0
 30
0.0
  9
$PLIMMIN
 10
0.0
 20
0.0
  9
$PLIMMAX
 10
12.0
 20
9.0
  9
$UNITMODE
 70
     0
  9
$VISRETAIN
 70
     1
  9
$PLINEGEN
 70
     0
  9
$PSLTSCALE
 70
     1
  9
$TREEDEPTH
 70
  3020
  9
$PICKSTYLE
 70
     1
  9
$CMLSTYLE
  2
STANDARD
  9
$CMLJUST
 70
     0
  9
$CMLSCALE
 40
1.0
  9
$PROXYGRAPHICS
 70
     1
  9
$MEASUREMENT
 70
     0
  0
ENDSEC
  0
SECTION
  2
CLASSES
  0
CLASS
  1
DICTIONARYVAR
  2
AcDbDictionaryVar
  3
AutoCAD 2000
 90
        0
280
     0
281
     0
  0
CLASS
  1
ACDBDICTIONARYWDFLT
  2
AcDbDictionaryWithDefault
  3
AutoCAD 2000
 90
        0
280
     0
281
     0
  0
CLASS
  1
ACDBPLACEHOLDER
  2
AcDbPlaceHolder
  3
AutoCAD 2000
 90
        0
280
     0
281
     0
  0
CLASS
  1
LAYOUT
  2
AcDbLayout
  3
AutoCAD 2000
 90
        0
280
     0
281
     0
  0
CLASS
  1
MATERIAL
  2
AcDbMaterial
  3
ObjectDBX Classes
 90
     1153
280
     0
281
     0
  0
CLASS
  1
VISUALSTYLE
  2
AcDbVisualStyle
  3
ObjectDBX Classes
 90
     4095
280
     0
281
     0
  0
CLASS
  1
TABLESTYLE
  2
AcDbTableStyle
  3
ObjectDBX Classes
 90
     4095
280
     0
281
     0
  0
CLASS
  1
SCALE
  2
AcDbScale
  3
ObjectDBX Classes
 90
     1153
280
     0
281
     0
  0
CLASS
  1
MLEADERSTYLE
  2
AcDbMLeaderStyle
  3
ACDB_MLEADERSTYLE_CLASS
 90
     4095
280
     0
281
     0
  0
CLASS
  1
PLOTSETTINGS
  2
AcDbPlotSettings
  3
AutoCAD 2000
 90
        0
280
     0
281
     0
  0
CLASS
  1
CELLSTYLEMAP
  2
AcDbCellStyleMap
  3
ObjectDBX Classes
 90
     1152
280
     0
281
     0
  0
CLASS
  1
SORTENTSTABLE
  2
AcDbSortentsTable
  3
AutoCAD 2000
 90
        0
280
     0
281
     0
  0
CLASS
  1
ACAD_PROXY_OBJECT_WRAPPER
  2
AcDbProxyObjectWrapper
  3
AutoCAD 2000
 90
        0
280
     0
281
     0
  0
CLASS
  1
LONG_TRANSACTION
  2
AcDbLongTransaction
  3
AutoCAD 2000
 90
        0
280
     0
281
     0
  0
CLASS
  1
LWPOLYLINE
  2
AcDbPolyline
  3
AutoCAD 2000
 90
        0
280
     0
281
     1
  0
CLASS
  1
HATCH
  2
AcDbHatch
  3
AutoCAD 2000
 90
        0
280
     0
281
     1
  0
CLASS
  1
XRECORD
  2
AcDbXrecord
  3
AutoCAD 2000
 90
        0
280
     0
281
     0
  0
ENDSEC
  0
SECTION
  2
TABLES
  0
TABLE
  2
VPORT
  5
6E
102
{ACAD_XDICTIONARY
360
1E6F
102
}
330
0
100
AcDbSymbolTable
 70
     2
  0
VPORT
  5
4D3F
330
6E
100
AcDbSymbolTableRecord
100
AcDbViewportTableRecord
  2
*ACTIVE
 70
     0
 10
0.0
 20
0.0
 11
1.0
 21
1.0
 12
926.1048373293863
 22
429.9213477178969
 13
0.0
 23
0.0
 14
10.0
 24
10.0
 15
10.0
 25
10.0
 16
0.0
 26
0.0
 36
1.0
 17
0.0
 27
0.0
 37
0.0
 40
924.4425950255811
 41
1.593429158110883
 42
50.0
 43
0.0
 44
0.0
 50
0.0
 51
0.0
 71
     0
 72
   100
 73
     1
 74
     3
 75
     0
 76
     0
 77
     0
 78
     0
  0
ENDTAB
  0
TABLE
  2
LTYPE
  5
69
330
0
100
AcDbSymbolTable
 70
     8
  0
LTYPE
  5
6A
330
69
100
AcDbSymbolTableRecord
100
AcDbLinetypeTableRecord
  2
BYBLOCK
 70
     0
  3

 72
    65
 73
     0
 40
0.0
  0
LTYPE
  5
6B
330
69
100
AcDbSymbolTableRecord
100
AcDbLinetypeTableRecord
  2
BYLAYER
 70
     0
  3

 72
    65
 73
     0
 40
0.0
  0
LTYPE
  5
8
330
69
100
AcDbSymbolTableRecord
100
AcDbLinetypeTableRecord
  2
CONTINUOUS
 70
     0
  3
Solid line
 72
    65
 73
     0
 40
0.0
  0
LTYPE
  5
27C
330
69
100
AcDbSymbolTableRecord
100
AcDbLinetypeTableRecord
  2
SEKKEI_A2_
 70
     0
  3
center(A2)  ____ _ ____ _ ____ _ ____ _ ____ _ 
 72
    65
 73
     4
 40
14.28749999999999
 49
9.525
 74
     0
 49
-1.587499999999999
 74
     0
 49
1.587499999999999
 74
     0
 49
-1.587499999999999
 74
     0
  0
LTYPE
  5
2B4
330
69
100
AcDbSymbolTableRecord
100
AcDbLinetypeTableRecord
  2
HIDDEN2
 70
     0
  3
Hidden (.5x) _ _ _ _ _ _ _ _ _ _ _ _ _ _ _ _ _
 72
    65
 73
     2
 40
4.762499999999999
 49
3.174999999999999
 74
     0
 49
-1.587499999999999
 74
     0
  0
LTYPE
  5
477
330
69
100
AcDbSymbolTableRecord
100
AcDbLinetypeTableRecord
  2
SEKKEI-P_A4_
 70
     0
  3
Phantom(A4)  ____ _ _ ____ _ _ ____ _ _ _____
 72
    65
 73
     6
 40
15.0
 49
7.5
 74
     0
 49
-1.5
 74
     0
 49
1.5
 74
     0
 49
-1.5
 74
     0
 49
1.5
 74
     0
 49
-1.5
 74
     0
  0
LTYPE
  5
48F
330
69
100
AcDbSymbolTableRecord
100
AcDbLinetypeTableRecord
  2
SEKKEI_H
 70
     0
  3
Hidden-S _ _ _ _ _ _ _ _ _ _ _ _ _ _ _ _ _
 72
    65
 73
     2
 40
2.381249999999999
 49
1.587499999999999
 74
     0
 49
-0.79375
 74
     0
  0
LTYPE
  5
54A
330
69
100
AcDbSymbolTableRecord
100
AcDbLinetypeTableRecord
  2
CENTERX2
 70
     0
  3
Center (2x) ________  __  ________  __  _____
 72
    65
 73
     4
 40
4.0
 49
2.5
 74
     0
 49
-0.5
 74
     0
 49
0.5
 74
     0
 49
-0.5
 74
     0
  0
ENDTAB
  0
TABLE
  2
LAYER
  5
66
102
{ACAD_XDICTIONARY
360
86B
102
}
330
0
100
AcDbSymbolTable
 70
    10
  0
LAYER
  5
5E
102
{ACAD_XDICTIONARY
360
158C
102
}
330
66
100
AcDbSymbolTableRecord
100
AcDbLayerTableRecord
  2
0
 70
     0
 62
     7
  6
CONTINUOUS
  0
LAYER
  5
3E
102
{ACAD_XDICTIONARY
360
158E
102
}
330
66
100
AcDbSymbolTableRecord
100
AcDbLayerTableRecord
  2
CENTER
 70
     0
 62
     3
  6
SEKKEI_A2_
  0
LAYER
  5
2B5
102
{ACAD_XDICTIONARY
360
1594
102
}
330
66
100
AcDbSymbolTableRecord
100
AcDbLayerTableRecord
  2
HIDS
 70
     0
 62
     1
  6
HIDDEN2
  0
LAYER
  5
2BA
102
{ACAD_XDICTIONARY
360
1596
102
}
330
66
100
AcDbSymbolTableRecord
100
AcDbLayerTableRecord
  2
HOJO
 70
     0
 62
     4
  6
CONTINUOUS
  0
LAYER
  5
3FA
102
{ACAD_XDICTIONARY
360
159A
102
}
330
66
100
AcDbSymbolTableRecord
100
AcDbLayerTableRecord
  2
TITLE
 70
     0
 62
     4
  6
CONTINUOUS
  0
LAYER
  5
478
102
{ACAD_XDICTIONARY
360
159C
102
}
330
66
100
AcDbSymbolTableRecord
100
AcDbLayerTableRecord
  2
PHAS
 70
     0
 62
     2
  6
SEKKEI-P_A4_
  0
ENDTAB
  0
TABLE
  2
STYLE
  5
67
330
0
100
AcDbSymbolTable
 70
     3
  0
STYLE
  5
16
330
67
100
AcDbSymbolTableRecord
100
AcDbTextStyleTableRecord
  2
STANDARD
 70
     0
 40
0.0
 41
1.0
 50
0.0
 71
     0
 42
2.0
  3
simplex.shx
  4
extfont.shx
  0
ENDTAB
  0
TABLE
  2
VIEW
  5
6C
330
0
100
AcDbSymbolTable
 70
     0
  0
ENDTAB
  0
TABLE
  2
UCS
  5
6D
330
0
100
AcDbSymbolTable
 70
     0
  0
ENDTAB
  0
TABLE
  2
APPID
  5
70
330
0
100
AcDbSymbolTable
 70
     7
  0
APPID
  5
71
330
70
100
AcDbSymbolTableRecord
100
AcDbRegAppTableRecord
  2
ACAD
 70
     0
  0
APPID
  5
859
330
70
100
AcDbSymbolTableRecord
100
AcDbRegAppTableRecord
  2
ACAD_MLEADERVER
 70
     0
  0
APPID
  5
866
330
70
100
AcDbSymbolTableRecord
100
AcDbRegAppTableRecord
  2
ACAD_PSEXT
 70
     0
  0
APPID
  5
15AD
330
70
100
AcDbSymbolTableRecord
100
AcDbRegAppTableRecord
  2
ACAD_EXEMPT_FROM_CAD_STANDARDS
 70
     0
  0
APPID
  5
15D5
330
70
100
AcDbSymbolTableRecord
100
AcDbRegAppTableRecord
  2
ACAD_DSTYLE_DIMJAG
 70
     0
  0
APPID
  5
15D6
330
70
100
AcDbSymbolTableRecord
100
AcDbRegAppTableRecord
  2
ACAD_DSTYLE_DIMTALN
 70
     0
  0
APPID
  5
16FC
330
70
100
AcDbSymbolTableRecord
100
AcDbRegAppTableRecord
  2
ACAD_DSTYLE_DIMRADIAL_EXTENSION
 70
     0
  0
ENDTAB
  0
TABLE
  2
DIMSTYLE
  5
72
330
0
100
AcDbSymbolTable
 70
     1
  0
DIMSTYLE
105
73
102
{ACAD_REACTORS
330
1743
330
192B
330
1934
102
}
330
72
100
AcDbSymbolTableRecord
100
AcDbDimStyleTableRecord
  2
STANDARD
 70
     0
  3

  4

  5

  6

  7

 40
4.0
 41
1.8
 42
0.625
 43
3.75
 44
0.8
 45
0.0
 46
0.0
 47
0.0
 48
0.0
140
1.8
141
2.5
142
0.0
143
0.0394
144
1.0
145
0.0
146
1.0
147
0.75
 71
     0
 72
     0
 73
     0
 74
     0
 75
     0
 76
     0
 77
     1
 78
     8
170
     0
171
     4
172
     1
173
     0
174
     0
175
     0
176
     0
177
     0
178
     0
270
     8
271
     2
272
     2
273
     8
274
     4
340
16
275
     0
280
     0
281
     0
282
     0
283
     1
284
     0
285
     0
286
     0
287
     3
288
     0
1001
ACAD_DSTYLE_DIMJAG
1070
   388
1040
1.5
1001
ACAD_DSTYLE_DIMTALN
1070
   392
1070
     0
  0
ENDTAB
  0
TABLE
  2
BLOCK_RECORD
  5
1
330
0
100
AcDbSymbolTable
 70
    56
  0
BLOCK_RECORD
  5
2
102
{ACAD_XDICTIONARY
360
33EF
102
}
330
1
100
AcDbSymbolTableRecord
100
AcDbBlockTableRecord
  2
*MODEL_SPACE
  0
BLOCK_RECORD
  5
4D3A
102
{ACAD_XDICTIONARY
360
4D62
102
}
330
1
100
AcDbSymbolTableRecord
100
AcDbBlockTableRecord
  2
*PAPER_SPACE
  0
ENDTAB
  0
ENDSEC
  0
SECTION
  2
BLOCKS
  0
BLOCK
  5
5D
330
2
100
AcDbEntity
  8
0
100
AcDbBlockBegin
  2
*MODEL_SPACE
 70
     0
 10
0.0
 20
0.0
 30
0.0
  3
*MODEL_SPACE
  1

  0
ENDBLK
  5
5F
330
2
100
AcDbEntity
  8
0
100
AcDbBlockEnd
  0
BLOCK
  5
4D3C
330
4D3A
100
AcDbEntity
 67
     1
  8
0
100
AcDbBlockBegin
  2
*PAPER_SPACE
 70
     0
 10
0.0
 20
0.0
 30
0.0
  3
*PAPER_SPACE
  1

  0
ENDBLK
  5
4D3D
330
4D3A
100
AcDbEntity
 67
     1
  8
0
100
AcDbBlockEnd
  0
ENDSEC
  0
SECTION
  2
ENTITIES
  0
LINE
  5
A65
330
2
100
AcDbEntity
  8
0
100
AcDbLine
 10
1063.299333881141
 20
469.2456345049879
 30
0.0
 11
1063.299333881141
 21
349.2456345049861
 31
0.0
  0
LINE
  5
B2D
330
2
100
AcDbEntity
  8
0
100
AcDbLine
 10
303.4079672978068
 20
469.245634504988
 30
0.0
 11
303.4079672978068
 21
349.2456345049861
 31
0.0
  0
LINE
  5
FA8
330
2
100
AcDbEntity
  8
CENTER
100
AcDbLine
 10
957.7993338811436
 20
691.6662436840956
 30
0.0
 11
957.7993338811445
 21
872.6662436840953
 31
0.0
  0
LINE
  5
FA9
330
2
100
AcDbEntity
  8
0
100
AcDbLine
 10
898.7069281313832
 20
733.6662436840851
 30
0.0
 11
897.8036973150398
 21
837.1662436840885
 31
0.0
  0
LINE
  5
FAA
330
2
100
AcDbEntity
  8
0
100
AcDbLine
 10
902.7993338811441
 20
728.6662436840788
 30
0.0
 11
1012.799333881143
 21
728.6662436840851
 31
0.0
  0
LINE
  5
FAB
330
2
100
AcDbEntity
  8
0
100
AcDbLine
 10
1049.247647622987
 20
860.6662436840849
 30
0.0
 11
1063.299333881141
 21
860.6662436840847
 31
0.0
  0
ARC
  5
FAC
330
2
100
AcDbEntity
  8
0
100
AcDbCircle
 10
1049.247647622987
 20
858.666243684085
 30
0.0
 40
2.0
100
AcDbArc
 50
90.0
 51
178.4999999999972
  0
LINE
  5
FAD
330
2
100
AcDbEntity
  8
0
100
AcDbLine
 10
1047.248332973037
 20
858.7185975807003
 30
0.0
 11
1045.728178587005
 21
800.666243684085
 31
0.0
  0
ARC
  5
FAE
330
2
100
AcDbEntity
  8
0
100
AcDbCircle
 10
1042.884265738946
 20
806.666243684087
 30
0.0
 40
3.0
100
AcDbArc
 50
270.0
 51
358.5000000000103
  0
LINE
  5
FAF
330
2
100
AcDbEntity
  8
0
100
AcDbLine
 10
1017.157909098523
 20
837.1662436840852
 30
0.0
 11
897.8036973150398
 21
837.1662436840885
 31
0.0
  0
LINE
  5
FB0
330
2
100
AcDbEntity
  8
0
100
AcDbLine
 10
995.8679563315293
 20
714.6662436840848
 30
0.0
 11
919.7307114307589
 21
714.666243684084
 31
0.0
  0
ARC
  5
FB1
330
2
100
AcDbEntity
  8
0
100
AcDbCircle
 10
919.7307114307589
 20
716.666243684084
 30
0.0
 40
2.0
100
AcDbArc
 50
181.9999999999914
 51
270.0
  0
ARC
  5
FB2
330
2
100
AcDbEntity
  8
0
100
AcDbCircle
 10
995.8679563315293
 20
716.6662436840844
 30
0.0
 40
2.0
100
AcDbArc
 50
270.0
 51
357.9999999999955
  0
LINE
  5
FB3
330
2
100
AcDbEntity
  8
CENTER
100
AcDbLine
 10
888.1218472055454
 20
800.6662436840885
 30
0.0
 11
1167.799333881145
 21
800.6662436840816
 31
0.0
  0
LINE
  5
FB4
330
2
100
AcDbEntity
  8
0
100
AcDbLine
 10
1016.891739630904
 20
733.6662436840851
 30
0.0
 11
1017.476439772884
 21
800.6662436840876
 31
0.0
  0
ARC
  5
FB5
330
2
100
AcDbEntity
  8
0
100
AcDbCircle
 10
1020.424192801298
 20
794.6662436840863
 30
0.0
 40
3.0
100
AcDbArc
 50
90.0
 51
179.4999999999954
  0
LINE
  5
FB6
330
2
100
AcDbEntity
  8
0
100
AcDbLine
 10
997.8667379855677
 20
716.5964446906796
 30
0.0
 11
998.0186082363317
 21
720.9454396577046
 31
0.0
  0
LINE
  5
FB7
330
2
100
AcDbEntity
  8
0
100
AcDbLine
 10
917.7319297767205
 20
716.5964446906791
 30
0.0
 11
917.5800595259563
 21
720.9454396576985
 31
0.0
  0
LINE
  5
FB8
330
2
100
AcDbEntity
  8
0
100
AcDbLine
 10
1017.157909098523
 20
837.1662436840852
 30
0.0
 11
1017.476439772887
 21
800.6662436840874
 31
0.0
  0
LINE
  5
FB9
330
2
100
AcDbEntity
  8
0
100
AcDbLine
 10
1049.247647622987
 20
740.6662436840922
 30
0.0
 11
1063.299333881141
 21
740.6662436840922
 31
0.0
  0
ARC
  5
FBA
330
2
100
AcDbEntity
  8
0
100
AcDbCircle
 10
1049.247647622987
 20
742.6662436840922
 30
0.0
 40
2.0
100
AcDbArc
 50
181.4999999999896
 51
270.0
  0
LINE
  5
FBB
330
2
100
AcDbEntity
  8
0
100
AcDbLine
 10
1047.248332973037
 20
742.613889787477
 30
0.0
 11
1045.728178587005
 21
800.666243684085
 31
0.0
  0
ARC
  5
FBC
330
2
100
AcDbEntity
  8
0
100
AcDbCircle
 10
1042.884265738946
 20
794.6662436840863
 30
0.0
 40
3.0
100
AcDbArc
 50
1.499999999989688
 51
90.0
  0
LINE
  5
FBD
330
2
100
AcDbEntity
  8
0
100
AcDbLine
 10
907.7993338811451
 20
837.1662436840869
 30
0.0
 11
907.799333881144
 21
735.1662436840797
 31
0.0
  0
LINE
  5
FBE
330
2
100
AcDbEntity
  8
0
100
AcDbLine
 10
997.8124268419263
 20
837.1662436840859
 30
0.0
 11
998.7427125251477
 21
801.6400667357808
 31
0.0
  0
LINE
  5
FBF
330
2
100
AcDbEntity
  8
0
100
AcDbLine
 10
1020.424192801298
 20
803.6662436840867
 30
0.0
 11
1042.884265738946
 21
803.6662436840867
 31
0.0
  0
ARC
  5
FC0
330
2
100
AcDbEntity
  8
0
100
AcDbCircle
 10
1020.424192801298
 20
806.6662436840868
 30
0.0
 40
3.0
100
AcDbArc
 50
180.4999999999915
 51
270.0
  0
LINE
  5
FC1
330
2
100
AcDbEntity
  8
0
100
AcDbLine
 10
1020.424192801298
 20
797.6662436840863
 30
0.0
 11
1042.884265738946
 21
797.6662436840863
 31
0.0
  0
LINE
  5
FC2
330
2
100
AcDbEntity
  8
0
100
AcDbLine
 10
999.7423698501231
 20
800.666243684089
 30
0.0
 11
1063.299333881141
 21
800.6662436840834
 31
0.0
  0
ARC
  5
FC3
330
2
100
AcDbEntity
  8
0
100
AcDbCircle
 10
999.7423698501231
 20
801.6662436840885
 30
0.0
 40
1.0
100
AcDbArc
 50
181.5000000000027
 51
269.9999999999739
  0
LINE
  5
FC4
330
2
100
AcDbEntity
  8
0
100
AcDbLine
 10
917.7993338811463
 20
735.16624368408
 30
0.0
 11
917.7993338811468
 21
837.1662436840869
 31
0.0
  0
LINE
  5
FC5
330
2
100
AcDbEntity
  8
0
100
AcDbLine
 10
937.8007255677278
 20
735.1662436840797
 30
0.0
 11
937.8007255677278
 21
837.1662436840869
 31
0.0
  0
LINE
  5
FC6
330
2
100
AcDbEntity
  8
0
100
AcDbLine
 10
977.7979421945577
 20
735.1662436840797
 30
0.0
 11
977.7979421945577
 21
837.1662436840869
 31
0.0
  0
LINE
  5
FC7
330
2
100
AcDbEntity
  8
0
100
AcDbLine
 10
997.7993338811417
 20
735.16624368408
 30
0.0
 11
997.7993338811417
 21
800.6662436840885
 31
0.0
  0
LINE
  5
FC8
330
2
100
AcDbEntity
  8
0
100
AcDbLine
 10
1007.799333881145
 20
735.1662436840797
 30
0.0
 11
1007.799333881146
 21
837.1662436840869
 31
0.0
  0
LINE
  5
FC9
330
2
100
AcDbEntity
  8
0
100
AcDbLine
 10
1063.299333881141
 20
740.6662436840922
 30
0.0
 11
1063.299333881141
 21
860.6662436840847
 31
0.0
  0
LINE
  5
FCA
330
2
100
AcDbEntity
  8
0
100
AcDbLine
 10
902.7993338811441
 20
728.6662436840788
 30
0.0
 11
902.7993338811441
 21
733.6662436840851
 31
0.0
  0
LINE
  5
FCB
330
2
100
AcDbEntity
  8
0
 48
0.5
100
AcDbLine
 10
898.7069281313832
 20
733.6662436840851
 30
0.0
 11
1016.891739630904
 21
733.6662436840851
 31
0.0
  0
LINE
  5
FCC
330
2
100
AcDbEntity
  8
0
100
AcDbLine
 10
1012.799333881143
 20
728.6662436840851
 30
0.0
 11
1012.799333881143
 21
733.6662436840851
 31
0.0
  0
LINE
  5
FCD
330
2
100
AcDbEntity
  8
0
100
AcDbLine
 10
1042.824804600275
 20
751.2384754586967
 30
0.0
 11
1018.655266292754
 21
739.9680346518294
 31
0.0
  0
ARC
  5
FCE
330
2
100
AcDbEntity
  8
0
100
AcDbCircle
 10
1019.923121077976
 20
737.2491112907193
 30
0.0
 40
3.0
100
AcDbArc
 50
114.9999999999782
 51
179.5000000000019
  0
ARC
  5
FCF
330
2
100
AcDbEntity
  8
0
100
AcDbCircle
 10
1044.092659385497
 20
748.5195520975869
 30
0.0
 40
3.0
100
AcDbArc
 50
1.499999999989688
 51
115.0000000000071
  0
LINE
  5
FD0
330
2
100
AcDbEntity
  8
0
100
AcDbLine
 10
1021.66685372391
 20
833.5563049761471
 30
0.0
 11
1045.517017272906
 21
847.3262033213773
 31
0.0
  0
ARC
  5
FD1
330
2
100
AcDbEntity
  8
0
100
AcDbCircle
 10
1044.017017272907
 20
849.9242795327305
 30
0.0
 40
3.0
100
AcDbArc
 50
299.9999999999999
 51
358.5000000000103
  0
ARC
  5
FD2
330
2
100
AcDbEntity
  8
0
100
AcDbCircle
 10
1020.16685372391
 20
836.1543811875005
 30
0.0
 40
3.0
100
AcDbArc
 50
180.499999999998
 51
299.9999999999999
  0
ARC
  5
FD3
330
2
100
AcDbEntity
  8
0
100
AcDbCircle
 10
1006.013734852484
 20
720.6662436840848
 30
0.0
 40
8.0
100
AcDbArc
 50
90.0
 51
178.000000000002
  0
ARC
  5
FD4
330
2
100
AcDbEntity
  8
0
100
AcDbCircle
 10
909.5849329098038
 20
720.666243684079
 30
0.0
 40
8.0
100
AcDbArc
 50
1.999999999997947
 51
90.0
  0
LINE
  5
FD5
330
2
100
AcDbEntity
  8
CENTER
100
AcDbLine
 10
198.9079672978026
 20
409.2456345049862
 30
0.0
 11
478.9079672978039
 21
409.245634504986
 31
0.0
  0
LINE
  5
FD6
330
2
100
AcDbEntity
  8
0
100
AcDbLine
 10
317.4079672978066
 20
469.2456345049861
 30
0.0
 11
303.407967297807
 21
469.2456345049861
 31
0.0
  0
LINE
  5
FD7
330
2
100
AcDbEntity
  8
0
100
AcDbLine
 10
303.407967297807
 20
469.7456345049857
 30
0.0
 11
303.4079672978066
 21
348.7456345049866
 31
0.0
  0
LINE
  5
FD8
330
2
100
AcDbEntity
  8
0
100
AcDbLine
 10
319.407967297807
 20
467.7456345049858
 30
0.0
 11
319.4079672978066
 21
350.7456345049865
 31
0.0
  0
ARC
  5
FD9
330
2
100
AcDbEntity
  8
0
100
AcDbCircle
 10
327.4079672978066
 20
367.2456345049822
 30
0.0
 40
8.0
100
AcDbArc
 50
90.0
 51
180.0
  0
ARC
  5
FDA
330
2
100
AcDbEntity
  8
0
100
AcDbCircle
 10
322.4079672978066
 20
460.3208952827688
 30
0.0
 40
3.0
100
AcDbArc
 50
180.0
 51
280.0000000000051
  0
ARC
  5
FDB
330
2
100
AcDbEntity
  8
0
100
AcDbCircle
 10
322.4079672978066
 20
358.1703737272034
 30
0.0
 40
3.0
100
AcDbArc
 50
79.99999999999484
 51
180.0
  0
ARC
  5
FDC
330
2
100
AcDbEntity
  8
0
100
AcDbCircle
 10
317.4079672978066
 20
467.2456345049861
 30
0.0
 40
2.0
100
AcDbArc
 50
0.0
 51
90.0
  0
ARC
  5
FDD
330
2
100
AcDbEntity
  8
0
100
AcDbCircle
 10
317.4079672978066
 20
351.2456345049861
 30
0.0
 40
2.0
100
AcDbArc
 50
270.0
 51
0.0
  0
LINE
  5
FDE
330
2
100
AcDbEntity
  8
0
100
AcDbLine
 10
317.4079672978066
 20
349.2456345049861
 30
0.0
 11
303.4079672978066
 21
349.245634504986
 31
0.0
  0
LINE
  5
FDF
330
2
100
AcDbEntity
  8
0
100
AcDbLine
 10
322.9289118308072
 20
361.1247969862402
 30
0.0
 11
347.9680822650218
 21
356.7097156641309
 31
0.0
  0
LINE
  5
FE0
330
2
100
AcDbEntity
  8
0
100
AcDbLine
 10
322.9289118308077
 20
457.366472023732
 30
0.0
 11
347.9680822650223
 21
461.7815533458412
 31
0.0
  0
LINE
  5
FE1
330
2
100
AcDbEntity
  8
CENTER
100
AcDbLine
 10
408.9079672978039
 20
479.2456345049865
 30
0.0
 11
408.9079672978039
 21
339.2456345049854
 31
0.0
  0
LINE
  5
FE2
330
2
100
AcDbEntity
  8
0
100
AcDbLine
 10
332.9079672978066
 20
440.2456345049893
 30
0.0
 11
332.9079672978066
 21
415.2456345049861
 31
0.0
  0
LINE
  5
FE3
330
2
100
AcDbEntity
  8
0
100
AcDbLine
 10
332.9079672978066
 20
403.2456345049854
 30
0.0
 11
332.9079672978066
 21
378.2456345049829
 31
0.0
  0
ARC
  5
FE4
330
2
100
AcDbEntity
  8
0
100
AcDbCircle
 10
335.9079672978066
 20
415.2456345049861
 30
0.0
 40
3.0
100
AcDbArc
 50
180.0
 51
270.0
  0
LINE
  5
FE5
330
2
100
AcDbEntity
  8
0
100
AcDbLine
 10
327.4079672978048
 20
375.2456345049822
 30
0.0
 11
329.9079672978062
 21
375.2456345049829
 31
0.0
  0
LINE
  5
FE6
330
2
100
AcDbEntity
  8
0
100
AcDbLine
 10
335.9079672978052
 20
381.2456345049829
 30
0.0
 11
346.2308614060632
 21
381.2456345049831
 31
0.0
  0
ARC
  5
FE7
330
2
100
AcDbEntity
  8
0
100
AcDbCircle
 10
346.2308614060632
 20
378.2456345049831
 30
0.0
 40
3.0
100
AcDbArc
 50
0.0
 51
90.0
  0
ARC
  5
FE8
330
2
100
AcDbEntity
  8
0
100
AcDbCircle
 10
335.9079672978052
 20
378.2456345049829
 30
0.0
 40
3.0
100
AcDbArc
 50
90.0
 51
180.0
  0
LINE
  5
FE9
330
2
100
AcDbEntity
  8
0
100
AcDbLine
 10
332.9079672978052
 20
378.2456345049829
 30
0.0
 11
332.9079672978052
 21
378.2456345049829
 31
0.0
  0
ARC
  5
FEA
330
2
100
AcDbEntity
  8
0
100
AcDbCircle
 10
329.9079672978052
 20
378.2456345049829
 30
0.0
 40
3.0
100
AcDbArc
 50
270.0
 51
0.0
  0
LINE
  5
FEB
330
2
100
AcDbEntity
  8
0
100
AcDbLine
 10
327.4079672978048
 20
443.2456345049899
 30
0.0
 11
329.9079672978066
 21
443.2456345049892
 31
0.0
  0
LINE
  5
FEC
330
2
100
AcDbEntity
  8
0
100
AcDbLine
 10
335.9079672978057
 20
437.2456345049893
 30
0.0
 11
346.2308614060627
 21
437.245634504989
 31
0.0
  0
ARC
  5
FED
330
2
100
AcDbEntity
  8
0
100
AcDbCircle
 10
346.2308614060627
 20
440.245634504989
 30
0.0
 40
3.0
100
AcDbArc
 50
270.0
 51
0.0
  0
ARC
  5
FEE
330
2
100
AcDbEntity
  8
0
100
AcDbCircle
 10
335.9079672978057
 20
440.2456345049893
 30
0.0
 40
3.0
100
AcDbArc
 50
180.0
 51
270.0
  0
LINE
  5
FEF
330
2
100
AcDbEntity
  8
0
100
AcDbLine
 10
332.9079672978057
 20
440.2456345049893
 30
0.0
 11
332.9079672978057
 21
440.2456345049893
 31
0.0
  0
ARC
  5
FF0
330
2
100
AcDbEntity
  8
0
100
AcDbCircle
 10
329.9079672978057
 20
440.2456345049893
 30
0.0
 40
3.0
100
AcDbArc
 50
0.0
 51
89.99999999997395
  0
ARC
  5
FF1
330
2
100
AcDbEntity
  8
0
100
AcDbCircle
 10
327.4079672978071
 20
451.24563450499
 30
0.0
 40
8.0
100
AcDbArc
 50
180.0
 51
269.9999999999739
  0
LINE
  5
FF2
330
2
100
AcDbEntity
  8
0
100
AcDbLine
 10
359.2308614060632
 20
349.2456345049847
 30
0.0
 11
359.5479672977583
 21
349.2456345049847
 31
0.0
  0
LINE
  5
FF3
330
2
100
AcDbEntity
  8
0
100
AcDbLine
 10
359.2308614060637
 20
469.2456345049879
 30
0.0
 11
359.5479672978506
 21
469.2456345049879
 31
0.0
  0
LINE
  5
FF4
330
2
100
AcDbEntity
  8
0
100
AcDbLine
 10
349.2308614060628
 20
459.2456345049879
 30
0.0
 11
349.2308614060628
 21
359.2456345049847
 31
0.0
  0
ARC
  5
FF5
330
2
100
AcDbEntity
  8
0
100
AcDbCircle
 10
359.2308614060632
 20
359.2456345049847
 30
0.0
 40
10.0
100
AcDbArc
 50
180.0
 51
270.0
  0
ARC
  5
FF6
330
2
100
AcDbEntity
  8
0
100
AcDbCircle
 10
347.4471377320212
 20
353.7552924050944
 30
0.0
 40
3.0
100
AcDbArc
 50
24.98203108537691
 51
79.99999999999484
  0
ARC
  5
FF7
330
2
100
AcDbEntity
  8
0
100
AcDbCircle
 10
359.2308614060632
 20
459.2456345049879
 30
0.0
 40
10.0
100
AcDbArc
 50
90.0
 51
180.0
  0
ARC
  5
FF8
330
2
100
AcDbEntity
  8
0
100
AcDbCircle
 10
347.4471377320212
 20
464.7359766048777
 30
0.0
 40
3.0
100
AcDbArc
 50
280.0000000000051
 51
335.0179689146228
  0
ARC
  5
FF9
330
2
100
AcDbEntity
  8
0
100
AcDbCircle
 10
322.4079672978071
 20
415.2456345049862
 30
0.0
 40
3.0
100
AcDbArc
 50
180.0
 51
270.0
  0
ARC
  5
FFA
330
2
100
AcDbEntity
  8
0
100
AcDbCircle
 10
322.4079672978071
 20
403.2456345049845
 30
0.0
 40
3.0
100
AcDbArc
 50
90.0
 51
180.0
  0
LINE
  5
FFB
330
2
100
AcDbEntity
  8
0
100
AcDbLine
 10
346.2308614060627
 20
406.2456345049861
 30
0.0
 11
322.4079672978066
 21
406.2456345049845
 31
0.0
  0
ARC
  5
FFC
330
2
100
AcDbEntity
  8
0
100
AcDbCircle
 10
335.9079672978066
 20
403.2456345049854
 30
0.0
 40
3.0
100
AcDbArc
 50
90.0
 51
180.0
  0
ARC
  5
FFD
330
2
100
AcDbEntity
  8
0
100
AcDbCircle
 10
346.2308614060627
 20
403.2456345049861
 30
0.0
 40
3.0
100
AcDbArc
 50
0.0
 51
90.0
  0
LINE
  5
FFE
330
2
100
AcDbEntity
  8
0
100
AcDbLine
 10
346.2308614060627
 20
412.245634504986
 30
0.0
 11
322.4079672978071
 21
412.2456345049862
 31
0.0
  0
ARC
  5
FFF
330
2
100
AcDbEntity
  8
0
100
AcDbCircle
 10
346.2308614060627
 20
415.245634504986
 30
0.0
 40
3.0
100
AcDbArc
 50
270.0
 51
0.0
  0
LINE
  5
1033
330
2
100
AcDbEntity
  8
CENTER
100
AcDbLine
 10
755.8863915970589
 20
409.245634504986
 30
0.0
 11
548.8863915970666
 21
409.245634504986
 31
0.0
  0
LINE
  5
1034
330
2
100
AcDbEntity
  8
0
100
AcDbLine
 10
718.8863915970767
 20
354.2456345049856
 30
0.0
 11
718.8863915970703
 21
464.2456345049855
 31
0.0
  0
LINE
  5
1035
330
2
100
AcDbEntity
  8
0
100
AcDbLine
 10
610.3863915970703
 20
469.2456345049858
 30
0.0
 11
610.3863915970666
 21
349.2456345049861
 31
0.0
  0
LINE
  5
1036
330
2
100
AcDbEntity
  8
0
100
AcDbLine
 10
732.8863915970707
 20
447.3142569553713
 30
0.0
 11
732.8863915970712
 21
371.1770120546004
 31
0.0
  0
ARC
  5
1037
330
2
100
AcDbEntity
  8
0
100
AcDbCircle
 10
730.8863915970712
 20
371.1770120546004
 30
0.0
 40
2.0
100
AcDbArc
 50
271.9999999999775
 51
0.0
  0
ARC
  5
1038
330
2
100
AcDbEntity
  8
0
100
AcDbCircle
 10
730.8863915970707
 20
447.3142569553713
 30
0.0
 40
2.0
100
AcDbArc
 50
0.0
 51
87.99999999999636
  0
LINE
  5
103A
330
2
100
AcDbEntity
  8
0
100
AcDbLine
 10
730.9561905904758
 20
449.3130386094094
 30
0.0
 11
726.6071956234506
 21
449.4649088601736
 31
0.0
  0
LINE
  5
103B
330
2
100
AcDbEntity
  8
0
100
AcDbLine
 10
730.9561905904758
 20
369.1782304005623
 30
0.0
 11
726.6071956234566
 21
369.0263601497985
 31
0.0
  0
LINE
  5
103C
330
2
100
AcDbEntity
  8
0
100
AcDbLine
 10
610.3863915970671
 20
359.2456345049868
 30
0.0
 11
712.3863915970753
 21
359.2456345049859
 31
0.0
  0
LINE
  5
103D
330
2
100
AcDbEntity
  8
0
100
AcDbLine
 10
712.3863915970753
 20
369.2456345049881
 30
0.0
 11
610.3863915970671
 21
369.2456345049881
 31
0.0
  0
LINE
  5
103E
330
2
100
AcDbEntity
  8
0
100
AcDbLine
 10
712.3863915970753
 20
389.2470261915698
 30
0.0
 11
610.386391597068
 21
389.2470261915698
 31
0.0
  0
LINE
  5
103F
330
2
100
AcDbEntity
  8
0
100
AcDbLine
 10
712.3863915970753
 20
429.2442428183997
 30
0.0
 11
610.386391597069
 21
429.2442428183997
 31
0.0
  0
LINE
  5
1040
330
2
100
AcDbEntity
  8
0
100
AcDbLine
 10
712.3863915970753
 20
449.2456345049836
 30
0.0
 11
610.3863915970694
 21
449.2456345049836
 31
0.0
  0
LINE
  5
1041
330
2
100
AcDbEntity
  8
0
100
AcDbLine
 10
712.3863915970753
 20
459.2456345049876
 30
0.0
 11
610.3863915970698
 21
459.2456345049876
 31
0.0
  0
LINE
  5
1042
330
2
100
AcDbEntity
  8
0
100
AcDbLine
 10
718.8863915970767
 20
354.2456345049856
 30
0.0
 11
713.8863915970699
 21
354.2456345049858
 31
0.0
  0
LINE
  5
1043
330
2
100
AcDbEntity
  8
0
 48
0.5
100
AcDbLine
 10
713.8863915970699
 20
350.1532287552251
 30
0.0
 11
713.8863915970699
 21
468.3380402547469
 31
0.0
  0
LINE
  5
1044
330
2
100
AcDbEntity
  8
0
100
AcDbLine
 10
718.8863915970703
 20
464.2456345049854
 30
0.0
 11
713.8863915970699
 21
464.2456345049854
 31
0.0
  0
ARC
  5
1045
330
2
100
AcDbEntity
  8
0
100
AcDbCircle
 10
726.8863915970707
 20
457.4600354763263
 30
0.0
 40
8.0
100
AcDbArc
 50
180.0
 51
267.9999999999963
  0
ARC
  5
1046
330
2
100
AcDbEntity
  8
0
100
AcDbCircle
 10
726.8863915970761
 20
361.031233533646
 30
0.0
 40
8.0
100
AcDbArc
 50
92.00000000000365
 51
180.0
  0
LINE
  5
1047
330
2
100
AcDbEntity
  8
CENTER
100
AcDbLine
 10
408.9079672977398
 20
339.2456345049188
 30
0.0
 11
408.9079672978657
 21
476.1486799437851
 31
0.0
  0
LINE
  5
1048
330
2
100
AcDbEntity
  8
0
100
AcDbLine
 10
349.5479672977578
 20
359.2456345049735
 30
0.0
 11
349.5479672978501
 21
459.2456345049765
 31
0.0
  0
ARC
  5
1049
330
2
100
AcDbEntity
  8
0
100
AcDbCircle
 10
359.5479672978501
 20
459.2456345049673
 30
0.0
 40
10.0
100
AcDbArc
 50
89.99999999994789
 51
179.9999999999479
  0
LINE
  5
104A
330
2
100
AcDbEntity
  8
0
100
AcDbLine
 10
355.9079672977798
 20
382.7775970734651
 30
0.0
 11
355.9079672978284
 21
435.7136719365705
 31
0.0
  0
ARC
  5
104B
330
2
100
AcDbEntity
  8
0
100
AcDbCircle
 10
368.9079672978284
 20
435.7136719365585
 30
0.0
 40
13.0
100
AcDbArc
 50
134.9999999999359
 51
179.9999999999479
  0
LINE
  5
104C
330
2
100
AcDbEntity
  8
0
100
AcDbLine
 10
360.9079672977798
 20
382.7775970734606
 30
0.0
 11
360.9079672978284
 21
435.7136719365659
 31
0.0
  0
ARC
  5
104D
330
2
100
AcDbEntity
  8
0
100
AcDbCircle
 10
368.9079672977797
 20
382.7775970734531
 30
0.0
 40
8.0
100
AcDbArc
 50
179.9999999999479
 51
224.9999999999535
  0
CIRCLE
  5
104E
330
2
100
AcDbEntity
  8
0
100
AcDbCircle
 10
408.9079672978039
 20
409.2456345049217
 30
0.0
 40
32.50000000000008
  0
CIRCLE
  5
104F
330
2
100
AcDbEntity
  8
0
100
AcDbCircle
 10
408.9079672978039
 20
409.2456345049218
 30
0.0
 40
33.07735026918965
  0
CIRCLE
  5
1050
330
2
100
AcDbEntity
  8
0
100
AcDbCircle
 10
408.9079672978039
 20
409.2456345049217
 30
0.0
 40
36.92264973081032
  0
CIRCLE
  5
1051
330
2
100
AcDbEntity
  8
0
100
AcDbCircle
 10
408.9079672978039
 20
409.2456345049217
 30
0.0
 40
37.50000000000008
  0
CIRCLE
  5
1052
330
2
100
AcDbEntity
  8
0
100
AcDbCircle
 10
408.9079672978039
 20
409.2456345049217
 30
0.0
 40
39.50000000000031
  0
CIRCLE
  5
1053
330
2
100
AcDbEntity
  8
0
100
AcDbCircle
 10
408.9079672978039
 20
409.2456345049218
 30
0.0
 40
40.00000000000034
  0
LINE
  5
1054
330
2
100
AcDbEntity
  8
CENTER
100
AcDbLine
 10
348.9284683124371
 20
459.2456345049774
 30
0.0
 11
368.8874662832765
 21
459.2456345049589
 31
0.0
  0
LINE
  5
1055
330
2
100
AcDbEntity
  8
CENTER
100
AcDbLine
 10
358.9079672978412
 20
449.2661355195484
 30
0.0
 11
358.9079672978594
 21
469.2251334903879
 31
0.0
  0
LINE
  5
1056
330
2
100
AcDbEntity
  8
0
100
AcDbLine
 10
435.3760047292305
 20
361.2456345048967
 30
0.0
 11
382.4399298662644
 21
361.2456345049455
 31
0.0
  0
ARC
  5
1057
330
2
100
AcDbEntity
  8
0
100
AcDbCircle
 10
435.3760047292378
 20
369.2456345048967
 30
0.0
 40
8.0
100
AcDbArc
 50
269.9999999999478
 51
314.9999999999359
  0
LINE
  5
1058
330
2
100
AcDbEntity
  8
0
100
AcDbLine
 10
435.3760047292251
 20
356.245634504896
 30
0.0
 11
382.4399298662603
 21
356.2456345049449
 31
0.0
  0
ARC
  5
1059
330
2
100
AcDbEntity
  8
0
100
AcDbCircle
 10
382.4399298662722
 20
369.2456345049449
 30
0.0
 40
13.0
100
AcDbArc
 50
224.9999999999535
 51
269.9999999999478
  0
LINE
  5
105A
330
2
100
AcDbEntity
  8
0
100
AcDbLine
 10
435.3760047294137
 20
457.2456345048975
 30
0.0
 11
382.4399298662486
 21
457.2456345049462
 31
0.0
  0
ARC
  5
105B
330
2
100
AcDbEntity
  8
0
100
AcDbCircle
 10
382.4399298662413
 20
449.2456345049462
 30
0.0
 40
8.0
100
AcDbArc
 50
89.99999999994789
 51
134.9999999999359
  0
LINE
  5
105C
330
2
100
AcDbEntity
  8
0
100
AcDbLine
 10
435.3760047294183
 20
462.2456345048973
 30
0.0
 11
382.4399298662531
 21
462.2456345049461
 31
0.0
  0
ARC
  5
105D
330
2
100
AcDbEntity
  8
0
100
AcDbCircle
 10
435.3760047294065
 20
449.2456345048973
 30
0.0
 40
13.0
100
AcDbArc
 50
44.99999999995352
 51
89.99999999994789
  0
LINE
  5
105E
330
2
100
AcDbEntity
  8
0
100
AcDbLine
 10
461.9079672977798
 20
382.7775970734017
 30
0.0
 11
461.9079672978284
 21
435.7136719364475
 31
0.0
  0
ARC
  5
105F
330
2
100
AcDbEntity
  8
0
100
AcDbCircle
 10
448.9079672977798
 20
382.7775970734137
 30
0.0
 40
13.0
100
AcDbArc
 50
314.9999999999359
 51
359.9999999999478
  0
LINE
  5
1060
330
2
100
AcDbEntity
  8
0
100
AcDbLine
 10
456.9079672977798
 20
382.7775970734063
 30
0.0
 11
456.9079672978284
 21
435.7136719364521
 31
0.0
  0
ARC
  5
1061
330
2
100
AcDbEntity
  8
0
100
AcDbCircle
 10
448.9079672978284
 20
435.7136719364595
 30
0.0
 40
8.0
100
AcDbArc
 50
359.9999999999478
 51
44.99999999995352
  0
LINE
  5
1062
330
2
100
AcDbEntity
  8
CENTER
100
AcDbLine
 10
471.1788793555577
 20
471.5165465626245
 30
0.0
 11
346.637055240021
 21
346.9747224473179
 31
0.0
  0
LINE
  5
1063
330
2
100
AcDbEntity
  8
0
100
AcDbLine
 10
376.7830756167543
 20
454.9024887544438
 30
0.0
 11
363.2511130483415
 21
441.3705261860561
 31
0.0
  0
LINE
  5
1064
330
2
100
AcDbEntity
  8
0
100
AcDbLine
 10
373.2475417108246
 20
458.4380226603797
 30
0.0
 11
359.7155791424118
 21
444.9060600919921
 31
0.0
  0
ARC
  5
1065
330
2
100
AcDbEntity
  8
0
100
AcDbCircle
 10
382.4399298662413
 20
449.245634504946
 30
0.0
 40
13.0
100
AcDbArc
 50
89.99999999994789
 51
134.9999999999359
  0
ARC
  5
1066
330
2
100
AcDbEntity
  8
0
100
AcDbCircle
 10
368.9079672978284
 20
435.7136719365585
 30
0.0
 40
8.0
100
AcDbArc
 50
134.9999999999359
 51
179.9999999999479
  0
LINE
  5
1067
330
2
100
AcDbEntity
  8
0
100
AcDbLine
 10
454.5648215472668
 20
377.1207428239161
 30
0.0
 11
441.0328589787248
 21
363.5887802553992
 31
0.0
  0
LINE
  5
1068
330
2
100
AcDbEntity
  8
0
100
AcDbLine
 10
458.1003554531965
 20
373.5852089179801
 30
0.0
 11
444.5683928846535
 21
360.0532463494624
 31
0.0
  0
ARC
  5
1069
330
2
100
AcDbEntity
  8
0
100
AcDbCircle
 10
435.3760047292369
 20
369.245634504896
 30
0.0
 40
13.0
100
AcDbArc
 50
269.9999999999478
 51
314.9999999999359
  0
ARC
  5
106A
330
2
100
AcDbEntity
  8
0
100
AcDbCircle
 10
448.9079672977798
 20
382.7775970734137
 30
0.0
 40
8.0
100
AcDbArc
 50
314.9999999999359
 51
359.9999999999478
  0
LINE
  5
106B
330
2
100
AcDbEntity
  8
CENTER
100
AcDbLine
 10
346.6370552400996
 20
471.5165465627331
 30
0.0
 11
471.1788793554489
 21
346.974722447239
 31
0.0
  0
LINE
  5
106C
330
2
100
AcDbEntity
  8
0
100
AcDbLine
 10
441.0328589789021
 20
454.9024887543865
 30
0.0
 11
454.564821547324
 21
441.3705261859486
 31
0.0
  0
LINE
  5
106D
330
2
100
AcDbEntity
  8
0
100
AcDbLine
 10
444.5683928848368
 20
458.4380226603171
 30
0.0
 11
458.1003554532587
 21
444.9060600918793
 31
0.0
  0
ARC
  5
106E
330
2
100
AcDbEntity
  8
0
100
AcDbCircle
 10
448.9079672978284
 20
435.7136719364595
 30
0.0
 40
13.0
100
AcDbArc
 50
359.9999999999478
 51
44.99999999995352
  0
ARC
  5
106F
330
2
100
AcDbEntity
  8
0
100
AcDbCircle
 10
435.3760047294065
 20
449.2456345048974
 30
0.0
 40
8.0
100
AcDbArc
 50
44.99999999995352
 51
89.99999999994789
  0
LINE
  5
1070
330
2
100
AcDbEntity
  8
0
100
AcDbLine
 10
363.2511130482841
 20
377.1207428239641
 30
0.0
 11
376.7830756167761
 21
363.5887802554564
 31
0.0
  0
LINE
  5
1071
330
2
100
AcDbEntity
  8
0
100
AcDbLine
 10
359.7155791423495
 20
373.5852089180333
 30
0.0
 11
373.2475417108419
 21
360.0532463495251
 31
0.0
  0
ARC
  5
1072
330
2
100
AcDbEntity
  8
0
100
AcDbCircle
 10
368.9079672977797
 20
382.7775970734531
 30
0.0
 40
13.0
100
AcDbArc
 50
179.9999999999479
 51
224.9999999999535
  0
ARC
  5
1073
330
2
100
AcDbEntity
  8
0
100
AcDbCircle
 10
382.4399298662717
 20
369.2456345049455
 30
0.0
 40
8.0
100
AcDbArc
 50
224.9999999999535
 51
269.9999999999478
  0
LINE
  5
1074
330
2
100
AcDbEntity
  8
0
100
AcDbLine
 10
440.3508893499722
 20
357.2352005822447
 30
0.0
 11
438.4374721881515
 21
361.8545982448036
 31
0.0
  0
LINE
  5
1075
330
2
100
AcDbEntity
  8
0
100
AcDbLine
 10
460.918401220422
 20
377.8027124526565
 30
0.0
 11
456.299003557867
 21
379.7161296144862
 31
0.0
  0
CIRCLE
  5
1076
330
2
100
AcDbEntity
  8
HOJO
100
AcDbCircle
 10
461.4079672977929
 20
370.7456345049619
 30
0.0
 40
2.5
  0
CIRCLE
  5
1077
330
2
100
AcDbEntity
  8
0
100
AcDbCircle
 10
461.4079672977929
 20
370.7456345049619
 30
0.0
 40
2.0
  0
CIRCLE
  5
1078
330
2
100
AcDbEntity
  8
HOJO
100
AcDbCircle
 10
356.4079672978657
 20
447.7456345050611
 30
0.0
 40
2.5
  0
CIRCLE
  5
1079
330
2
100
AcDbEntity
  8
0
100
AcDbCircle
 10
356.4079672978657
 20
447.7456345050611
 30
0.0
 40
2.0
  0
LINE
  5
107A
330
2
100
AcDbEntity
  8
CENTER
100
AcDbLine
 10
356.4079672978607
 20
442.083841703871
 30
0.0
 11
356.4079672978712
 21
453.4074273062511
 31
0.0
  0
LINE
  5
107B
330
2
100
AcDbEntity
  8
CENTER
100
AcDbLine
 10
362.0697600990558
 20
447.7456345050558
 30
0.0
 11
350.7461744966756
 21
447.7456345050662
 31
0.0
  0
LINE
  5
107C
330
2
100
AcDbEntity
  8
0
100
AcDbLine
 10
460.9184012204166
 20
440.6885565571542
 30
0.0
 11
456.299003557858
 21
438.7751393953337
 31
0.0
  0
LINE
  5
107D
330
2
100
AcDbEntity
  8
0
100
AcDbLine
 10
440.350889350005
 20
461.2560684276039
 30
0.0
 11
438.4374721881751
 21
456.6366707650492
 31
0.0
  0
LINE
  5
107E
330
2
100
AcDbEntity
  8
0
100
AcDbLine
 10
377.4650452455073
 20
461.2560684275988
 30
0.0
 11
379.378462407328
 21
456.6366707650399
 31
0.0
  0
LINE
  5
107F
330
2
100
AcDbEntity
  8
0
100
AcDbLine
 10
356.8975333750575
 20
440.6885565571871
 30
0.0
 11
361.5169310376125
 21
438.7751393953573
 31
0.0
  0
LINE
  5
1080
330
2
100
AcDbEntity
  8
0
100
AcDbLine
 10
356.8975333750624
 20
377.8027124526894
 30
0.0
 11
361.5169310376216
 21
379.7161296145099
 31
0.0
  0
LINE
  5
1081
330
2
100
AcDbEntity
  8
0
100
AcDbLine
 10
377.4650452454745
 20
357.2352005822396
 30
0.0
 11
379.3784624073039
 21
361.8545982447944
 31
0.0
  0
ARC
  5
1082
330
2
100
AcDbEntity
  8
0
100
AcDbCircle
 10
408.907967297918
 20
599.2456345049188
 30
0.0
 40
250.0
100
AcDbArc
 50
265.4117542407429
 51
274.5882457591524
  0
ARC
  5
1083
330
2
100
AcDbEntity
  8
0
 48
0.5
100
AcDbCircle
 10
458.9079672976975
 20
359.2456345048725
 30
0.0
 40
10.0
100
AcDbArc
 50
269.9999999999478
 51
359.9999999999478
  0
LINE
  5
1084
330
2
100
AcDbEntity
  8
0
 48
0.5
100
AcDbLine
 10
458.9079672976883
 20
349.2456345048724
 30
0.0
 11
448.9079672976838
 21
349.2456345048818
 31
0.0
  0
ARC
  5
1085
330
2
100
AcDbEntity
  8
0
100
AcDbCircle
 10
448.9079672976916
 20
357.2456345048822
 30
0.0
 40
8.0
100
AcDbArc
 50
261.1083543197433
 51
269.9999999999478
  0
ARC
  5
1086
330
2
100
AcDbEntity
  8
0
100
AcDbCircle
 10
435.306130271266
 20
270.3031821038452
 30
0.0
 40
80.0
100
AcDbArc
 50
81.10835431974335
 51
94.58824575915246
  0
LINE
  5
1087
330
2
100
AcDbEntity
  8
0
 48
0.5
100
AcDbLine
 10
468.9079672976975
 20
359.2456345048633
 30
0.0
 11
468.9079672977065
 21
369.2456345048674
 31
0.0
  0
ARC
  5
1088
330
2
100
AcDbEntity
  8
0
100
AcDbCircle
 10
460.9079672977061
 20
369.2456345048747
 30
0.0
 40
8.0
100
AcDbArc
 50
359.9999999999478
 51
8.891645680153626
  0
ARC
  5
1089
330
2
100
AcDbEntity
  8
0
100
AcDbCircle
 10
547.850419698768
 20
382.8474715311399
 30
0.0
 40
80.0
100
AcDbArc
 50
175.4117542407341
 51
188.8916456801535
  0
LINE
  5
108A
330
2
100
AcDbEntity
  8
0
 48
0.5
100
AcDbLine
 10
359.5479672977487
 20
349.2456345049642
 30
0.0
 11
368.9079672976883
 21
349.2456345049556
 31
0.0
  0
ARC
  5
108B
330
2
100
AcDbEntity
  8
0
 48
0.5
100
AcDbCircle
 10
359.5479672977578
 20
359.2456345049642
 30
0.0
 40
10.0
100
AcDbArc
 50
179.9999999999479
 51
269.9999999999478
  0
ARC
  5
108C
330
2
100
AcDbEntity
  8
0
100
AcDbCircle
 10
368.9079672976961
 20
357.2456345049559
 30
0.0
 40
8.0
100
AcDbArc
 50
269.9999999999478
 51
278.8916456801507
  0
ARC
  5
108D
330
2
100
AcDbEntity
  8
0
100
AcDbCircle
 10
382.5098043239606
 20
270.303182103894
 30
0.0
 40
80.0
100
AcDbArc
 50
85.41175424074296
 51
98.89164568015118
  0
ARC
  5
108E
330
2
100
AcDbEntity
  8
0
 48
0.5
100
AcDbCircle
 10
458.9079672977898
 20
459.2456345048756
 30
0.0
 40
10.0
100
AcDbArc
 50
359.9999999999478
 51
89.99999999994789
  0
LINE
  5
108F
330
2
100
AcDbEntity
  8
0
 48
0.5
100
AcDbLine
 10
458.9079672977988
 20
469.2456345048756
 30
0.0
 11
448.9079672977948
 21
469.2456345048847
 31
0.0
  0
ARC
  5
1090
330
2
100
AcDbEntity
  8
0
100
AcDbCircle
 10
448.9079672977875
 20
461.2456345048843
 30
0.0
 40
8.0
100
AcDbArc
 50
89.99999999994789
 51
98.89164568015118
  0
ARC
  5
1091
330
2
100
AcDbEntity
  8
0
100
AcDbCircle
 10
435.3061302715225
 20
548.1880869059464
 30
0.0
 40
80.0
100
AcDbArc
 50
265.4117542407429
 51
278.8916456801507
  0
LINE
  5
1092
330
2
100
AcDbEntity
  8
0
 48
0.5
100
AcDbLine
 10
468.9079672977897
 20
459.2456345048662
 30
0.0
 11
468.9079672977802
 21
449.2456345048622
 31
0.0
  0
ARC
  5
1093
330
2
100
AcDbEntity
  8
0
100
AcDbCircle
 10
460.9079672977798
 20
449.2456345048696
 30
0.0
 40
8.0
100
AcDbArc
 50
351.1083543197521
 51
359.9999999999478
  0
ARC
  5
1094
330
2
100
AcDbEntity
  8
0
100
AcDbCircle
 10
547.8504196988167
 20
435.643797478444
 30
0.0
 40
80.0
100
AcDbArc
 50
171.10835431974
 51
184.5882457591504
  0
LINE
  5
1095
330
2
100
AcDbEntity
  8
0
 48
0.5
100
AcDbLine
 10
359.5479672978597
 20
469.2456345049673
 30
0.0
 11
368.9079672977993
 21
469.2456345049585
 31
0.0
  0
ARC
  5
1096
330
2
100
AcDbEntity
  8
0
100
AcDbCircle
 10
368.907967297792
 20
461.2456345049582
 30
0.0
 40
8.0
100
AcDbArc
 50
81.10835431974335
 51
89.99999999994789
  0
ARC
  5
1097
330
2
100
AcDbEntity
  8
0
100
AcDbCircle
 10
382.5098043242171
 20
548.188086905995
 30
0.0
 40
80.0
100
AcDbArc
 50
261.1083543197433
 51
274.5882457591524
  0
ARC
  5
1098
330
2
100
AcDbEntity
  8
0
100
AcDbCircle
 10
218.9079672977429
 20
409.2456345050967
 30
0.0
 40
250.0
100
AcDbArc
 50
355.411754240734
 51
4.588245759156905
  0
ARC
  5
1099
330
2
100
AcDbEntity
  8
0
100
AcDbCircle
 10
408.9079672975674
 20
219.2456345049216
 30
0.0
 40
250.0
100
AcDbArc
 50
85.41175424074296
 51
94.58824575915246
  0
LINE
  5
109A
330
2
100
AcDbEntity
  8
0
100
AcDbLine
 10
586.8863915970685
 20
446.1682842357964
 30
0.0
 11
586.8863915970685
 21
409.245634504986
 31
0.0
  0
LINE
  5
109B
330
2
100
AcDbEntity
  8
0
 48
0.5
100
AcDbLine
 10
595.3863915970685
 20
449.2456345049861
 30
0.0
 11
594.8863915970685
 21
448.7456345049863
 31
0.0
  0
LINE
  5
109C
330
2
100
AcDbEntity
  8
0
100
AcDbLine
 10
595.3863915970698
 20
365.7456345049861
 30
0.0
 11
595.3863915970685
 21
452.7456345049861
 31
0.0
  0
ARC
  5
109D
330
2
100
AcDbEntity
  8
0
100
AcDbCircle
 10
589.6863915970677
 20
446.3456345049857
 30
0.0
 40
0.3
100
AcDbArc
 50
180.0
 51
270.0
  0
ARC
  5
109E
330
2
100
AcDbEntity
  8
0
100
AcDbCircle
 10
591.0863915970678
 20
446.3456345049857
 30
0.0
 40
0.3
100
AcDbArc
 50
270.0
 51
0.0
  0
LINE
  5
109F
330
2
100
AcDbEntity
  8
0
 48
0.5
100
AcDbLine
 10
591.386391597068
 20
446.5456345049858
 30
0.0
 11
591.5863915970678
 21
446.7456345049859
 31
0.0
  0
LINE
  5
10A0
330
2
100
AcDbEntity
  8
0
 48
0.5
100
AcDbLine
 10
589.6863915970677
 20
446.0456345049858
 30
0.0
 11
591.0863915970678
 21
446.0456345049858
 31
0.0
  0
LINE
  5
10A1
330
2
100
AcDbEntity
  8
0
100
AcDbLine
 10
587.886391597068
 20
446.7456345049859
 30
0.0
 11
586.886391597068
 21
446.1682842357961
 31
0.0
  0
LINE
  5
10A2
330
2
100
AcDbEntity
  8
0
100
AcDbLine
 10
589.386391597068
 20
446.4456345049857
 30
0.0
 11
589.386391597068
 21
372.0456345049865
 31
0.0
  0
ARC
  5
10A3
330
2
100
AcDbEntity
  8
0
 48
0.5
100
AcDbCircle
 10
589.0863915970678
 20
446.4456345049857
 30
0.0
 40
0.3
100
AcDbArc
 50
0.0
 51
90.0
  0
LINE
  5
10A4
330
2
100
AcDbEntity
  8
0
 48
0.5
100
AcDbLine
 10
587.8863915970676
 20
446.7456345049859
 30
0.0
 11
589.0863915970678
 21
446.7456345049859
 31
0.0
  0
LINE
  5
10A5
330
2
100
AcDbEntity
  8
0
 48
0.5
100
AcDbLine
 10
591.5863915970678
 20
446.7456345049859
 30
0.0
 11
594.886391597068
 21
446.7456345049859
 31
0.0
  0
LINE
  5
10A6
330
2
100
AcDbEntity
  8
HIDS
  6
SEKKEI_H
 48
0.5
100
AcDbLine
 10
599.8006051594423
 20
461.6598480673598
 30
0.0
 11
595.972178034697
 21
457.8314209426134
 31
0.0
  0
ARC
  5
10A7
330
2
100
AcDbEntity
  8
HIDS
  6
SEKKEI_H
100
AcDbCircle
 10
597.3863915970698
 20
456.4172073802403
 30
0.0
 40
2.0
100
AcDbArc
 50
135.000000000009
 51
180.0
  0
ARC
  5
10A8
330
2
100
AcDbEntity
  8
HIDS
  6
SEKKEI_H
 48
0.5
100
AcDbCircle
 10
598.3863915970685
 20
463.0740616297331
 30
0.0
 40
2.0
100
AcDbArc
 50
314.9999999999728
 51
0.0
  0
ARC
  5
10A9
330
2
100
AcDbEntity
  8
0
 48
0.3
100
AcDbCircle
 10
602.3863915970685
 20
467.1757434058876
 30
0.0
 40
2.0
100
AcDbArc
 50
90.49999999999155
 51
180.0
  0
LINE
  5
10AA
330
2
100
AcDbEntity
  8
0
100
AcDbLine
 10
602.3689385260715
 20
469.175667252016
 30
0.0
 11
610.3863915970684
 21
469.2456345049858
 31
0.0
  0
LINE
  5
10AB
330
2
100
AcDbEntity
  8
0
100
AcDbLine
 10
586.8863915970685
 20
372.3229847741758
 30
0.0
 11
586.8863915970685
 21
409.245634504986
 31
0.0
  0
LINE
  5
10AC
330
2
100
AcDbEntity
  8
0
 48
0.5
100
AcDbLine
 10
595.3863915970685
 20
369.2456345049861
 30
0.0
 11
594.8863915970685
 21
369.7456345049859
 31
0.0
  0
ARC
  5
10AD
330
2
100
AcDbEntity
  8
0
100
AcDbCircle
 10
589.6863915970677
 20
372.1456345049864
 30
0.0
 40
0.3
100
AcDbArc
 50
90.0
 51
180.0
  0
ARC
  5
10AE
330
2
100
AcDbEntity
  8
0
100
AcDbCircle
 10
591.0863915970678
 20
372.1456345049864
 30
0.0
 40
0.3
100
AcDbArc
 50
0.0
 51
90.0
  0
LINE
  5
10AF
330
2
100
AcDbEntity
  8
0
100
AcDbLine
 10
591.386391597068
 20
371.9456345049863
 30
0.0
 11
591.386391597068
 21
446.5456345049858
 31
0.0
  0
LINE
  5
10B0
330
2
100
AcDbEntity
  8
0
 48
0.5
100
AcDbLine
 10
591.386391597068
 20
371.9456345049863
 30
0.0
 11
591.5863915970678
 21
371.7456345049863
 31
0.0
  0
LINE
  5
10B1
330
2
100
AcDbEntity
  8
0
 48
0.5
100
AcDbLine
 10
589.6863915970677
 20
372.4456345049864
 30
0.0
 11
591.0863915970678
 21
372.4456345049864
 31
0.0
  0
LINE
  5
10B2
330
2
100
AcDbEntity
  8
0
100
AcDbLine
 10
587.886391597068
 20
371.7456345049863
 30
0.0
 11
586.886391597068
 21
372.3229847741761
 31
0.0
  0
ARC
  5
10B3
330
2
100
AcDbEntity
  8
0
 48
0.5
100
AcDbCircle
 10
589.0863915970678
 20
372.0456345049865
 30
0.0
 40
0.3
100
AcDbArc
 50
270.0
 51
0.0
  0
LINE
  5
10B4
330
2
100
AcDbEntity
  8
0
 48
0.5
100
AcDbLine
 10
587.8863915970676
 20
371.7456345049863
 30
0.0
 11
589.0863915970678
 21
371.7456345049863
 31
0.0
  0
LINE
  5
10B5
330
2
100
AcDbEntity
  8
0
 48
0.5
100
AcDbLine
 10
591.5863915970678
 20
371.7456345049863
 30
0.0
 11
594.886391597068
 21
371.7456345049863
 31
0.0
  0
LINE
  5
10B6
330
2
100
AcDbEntity
  8
0
100
AcDbLine
 10
610.3863915970684
 20
349.2456345049863
 30
0.0
 11
610.3863915970684
 21
469.2456345049858
 31
0.0
  0
LINE
  5
10B7
330
2
100
AcDbEntity
  8
HIDS
  6
SEKKEI_H
 48
0.5
100
AcDbLine
 10
599.8006051594423
 20
356.8314209426123
 30
0.0
 11
595.972178034697
 21
360.6598480673588
 31
0.0
  0
ARC
  5
10B8
330
2
100
AcDbEntity
  8
HIDS
  6
SEKKEI_H
100
AcDbCircle
 10
597.3863915970698
 20
362.0740616297319
 30
0.0
 40
2.0
100
AcDbArc
 50
180.0
 51
224.9999999999908
  0
ARC
  5
10B9
330
2
100
AcDbEntity
  8
HIDS
  6
SEKKEI_H
 48
0.5
100
AcDbCircle
 10
598.3863915970685
 20
355.417207380239
 30
0.0
 40
2.0
100
AcDbArc
 50
0.0
 51
45.00000000002716
  0
ARC
  5
10BA
330
2
100
AcDbEntity
  8
0
 48
0.3
100
AcDbCircle
 10
602.3863915970685
 20
351.3155256040846
 30
0.0
 40
2.0
100
AcDbArc
 50
180.0
 51
269.5000000000084
  0
LINE
  5
10BB
330
2
100
AcDbEntity
  8
0
100
AcDbLine
 10
602.3689385260715
 20
349.3156017579562
 30
0.0
 11
610.3863915970684
 21
349.2456345049863
 31
0.0
  0
LINE
  5
10BC
330
2
100
AcDbEntity
  8
0
100
AcDbLine
 10
587.8863915970676
 20
446.7456345049859
 30
0.0
 11
587.886391597068
 21
371.7456345049863
 31
0.0
  0
LINE
  5
10BD
330
2
100
AcDbEntity
  8
0
100
AcDbLine
 10
591.5863915970678
 20
446.7456345049859
 30
0.0
 11
591.5863915970678
 21
371.7456345049863
 31
0.0
  0
LINE
  5
10BE
330
2
100
AcDbEntity
  8
0
100
AcDbLine
 10
594.8863915970685
 20
448.7456345049863
 30
0.0
 11
594.8863915970685
 21
369.7456345049861
 31
0.0
  0
LINE
  5
10BF
330
2
100
AcDbEntity
  8
0
100
AcDbLine
 10
646.8863915970671
 20
348.7456345049862
 30
0.0
 11
596.8030611571045
 21
349.1629955919892
 31
0.0
  0
ARC
  5
10C0
330
2
100
AcDbEntity
  8
0
100
AcDbCircle
 10
596.8863915970707
 20
359.1626483878505
 30
0.0
 40
10.0
100
AcDbArc
 50
180.0
 51
269.5225462226892
  0
LINE
  5
10C1
330
2
100
AcDbEntity
  8
0
100
AcDbLine
 10
586.8863915970707
 20
359.1626483878505
 30
0.0
 11
586.8863915970707
 21
459.328620622122
 31
0.0
  0
LINE
  5
10C2
330
2
100
AcDbEntity
  8
0
100
AcDbLine
 10
646.8863915970671
 20
348.7456345049862
 30
0.0
 11
696.9697220370292
 21
349.1629955919894
 31
0.0
  0
ARC
  5
10C3
330
2
100
AcDbEntity
  8
0
100
AcDbCircle
 10
696.8863915970635
 20
359.1626483878507
 30
0.0
 40
10.0
100
AcDbArc
 50
270.4774537773107
 51
294.1885688072108
  0
LINE
  5
10C4
330
2
100
AcDbEntity
  8
0
100
AcDbLine
 10
646.8863915970671
 20
469.7456345049862
 30
0.0
 11
596.8030611571045
 21
469.3282734179832
 31
0.0
  0
ARC
  5
10C5
330
2
100
AcDbEntity
  8
0
100
AcDbCircle
 10
596.8863915970707
 20
459.328620622122
 30
0.0
 40
10.0
100
AcDbArc
 50
90.47745377731077
 51
180.0
  0
LINE
  5
10C6
330
2
100
AcDbEntity
  8
0
100
AcDbLine
 10
646.8863915970671
 20
469.7456345049862
 30
0.0
 11
696.9697220370292
 21
469.3282734179832
 31
0.0
  0
ARC
  5
10C7
330
2
100
AcDbEntity
  8
0
100
AcDbCircle
 10
696.8863915970635
 20
459.328620622122
 30
0.0
 40
10.0
100
AcDbArc
 50
65.81143119278873
 51
89.52254622268922
  0
LINE
  5
10C8
330
2
100
AcDbEntity
  8
0
100
AcDbLine
 10
1017.159333881144
 20
837.1662436840869
 30
0.0
 11
1017.089366628175
 21
845.1836967550834
 31
0.0
  0
ARC
  5
10C9
330
2
100
AcDbEntity
  8
0
100
AcDbCircle
 10
1015.089442782046
 20
845.1662436840868
 30
0.0
 40
2.0
100
AcDbArc
 50
0.499999999998063
 51
90.0
  0
LINE
  5
10CA
330
2
100
AcDbEntity
  8
0
100
AcDbLine
 10
994.7219836119545
 20
860.6662436840871
 30
0.0
 11
957.799333881144
 21
860.6662436840871
 31
0.0
  0
LINE
  5
10CB
330
2
100
AcDbEntity
  8
0
 48
0.5
100
AcDbLine
 10
997.799333881144
 20
852.166243684087
 30
0.0
 11
997.2993338811445
 21
852.6662436840869
 31
0.0
  0
LINE
  5
10CC
330
2
100
AcDbEntity
  8
0
100
AcDbLine
 10
914.2993338811441
 20
852.1662436840856
 30
0.0
 11
1001.299333881144
 21
852.1662436840868
 31
0.0
  0
ARC
  5
10CD
330
2
100
AcDbEntity
  8
0
100
AcDbCircle
 10
994.899333881144
 20
857.8662436840875
 30
0.0
 40
0.3
100
AcDbArc
 50
90.0
 51
180.0
  0
ARC
  5
10CE
330
2
100
AcDbEntity
  8
0
100
AcDbCircle
 10
994.899333881144
 20
856.4662436840874
 30
0.0
 40
0.3
100
AcDbArc
 50
180.0
 51
270.0
  0
LINE
  5
10CF
330
2
100
AcDbEntity
  8
0
 48
0.5
100
AcDbLine
 10
995.0993338811443
 20
856.1662436840874
 30
0.0
 11
995.299333881144
 21
855.9662436840875
 31
0.0
  0
LINE
  5
10D0
330
2
100
AcDbEntity
  8
0
 48
0.5
100
AcDbLine
 10
994.5993338811442
 20
857.8662436840875
 30
0.0
 11
994.5993338811442
 21
856.4662436840874
 31
0.0
  0
LINE
  5
10D1
330
2
100
AcDbEntity
  8
0
100
AcDbLine
 10
995.299333881144
 20
859.6662436840874
 30
0.0
 11
994.7219836119542
 21
860.6662436840874
 31
0.0
  0
LINE
  5
10D2
330
2
100
AcDbEntity
  8
0
100
AcDbLine
 10
994.9993338811438
 20
858.1662436840874
 30
0.0
 11
920.5993338811447
 21
858.1662436840876
 31
0.0
  0
ARC
  5
10D3
330
2
100
AcDbEntity
  8
0
 48
0.5
100
AcDbCircle
 10
994.9993338811438
 20
858.4662436840876
 30
0.0
 40
0.3
100
AcDbArc
 50
270.0
 51
0.0
  0
LINE
  5
10D4
330
2
100
AcDbEntity
  8
0
 48
0.5
100
AcDbLine
 10
995.299333881144
 20
859.6662436840876
 30
0.0
 11
995.299333881144
 21
858.4662436840876
 31
0.0
  0
LINE
  5
10D5
330
2
100
AcDbEntity
  8
0
 48
0.5
100
AcDbLine
 10
995.299333881144
 20
855.9662436840875
 30
0.0
 11
995.299333881144
 21
852.6662436840874
 31
0.0
  0
LINE
  5
10D6
330
2
100
AcDbEntity
  8
HIDS
  6
SEKKEI_H
 48
0.5
100
AcDbLine
 10
1010.213547443518
 20
847.7520301217131
 30
0.0
 11
1006.385120318771
 21
851.5804572464585
 31
0.0
  0
ARC
  5
10D7
330
2
100
AcDbEntity
  8
HIDS
  6
SEKKEI_H
100
AcDbCircle
 10
1004.970906756398
 20
850.1662436840854
 30
0.0
 40
2.0
100
AcDbArc
 50
44.99999999999064
 51
90.0
  0
ARC
  5
10D8
330
2
100
AcDbEntity
  8
HIDS
  6
SEKKEI_H
 48
0.5
100
AcDbCircle
 10
1011.627761005891
 20
849.1662436840867
 30
0.0
 40
2.0
100
AcDbArc
 50
224.9999999999894
 51
270.0
  0
LINE
  5
10D9
330
2
100
AcDbEntity
  8
0
100
AcDbLine
 10
920.876684150334
 20
860.6662436840871
 30
0.0
 11
957.799333881144
 21
860.6662436840871
 31
0.0
  0
LINE
  5
10DA
330
2
100
AcDbEntity
  8
0
 48
0.5
100
AcDbLine
 10
917.7993338811441
 20
852.166243684087
 30
0.0
 11
918.299333881144
 21
852.6662436840869
 31
0.0
  0
ARC
  5
10DB
330
2
100
AcDbEntity
  8
0
100
AcDbCircle
 10
920.6993338811447
 20
857.8662436840875
 30
0.0
 40
0.3
100
AcDbArc
 50
0.0
 51
90.0
  0
ARC
  5
10DC
330
2
100
AcDbEntity
  8
0
100
AcDbCircle
 10
920.6993338811447
 20
856.4662436840874
 30
0.0
 40
0.3
100
AcDbArc
 50
270.0
 51
0.0
  0
LINE
  5
10DD
330
2
100
AcDbEntity
  8
0
100
AcDbLine
 10
920.4993338811448
 20
856.1662436840874
 30
0.0
 11
995.0993338811443
 21
856.1662436840874
 31
0.0
  0
LINE
  5
10DE
330
2
100
AcDbEntity
  8
0
 48
0.5
100
AcDbLine
 10
920.4993338811448
 20
856.1662436840874
 30
0.0
 11
920.2993338811445
 21
855.9662436840875
 31
0.0
  0
LINE
  5
10DF
330
2
100
AcDbEntity
  8
0
 48
0.5
100
AcDbLine
 10
920.9993338811448
 20
857.8662436840875
 30
0.0
 11
920.9993338811448
 21
856.4662436840874
 31
0.0
  0
LINE
  5
10E0
330
2
100
AcDbEntity
  8
0
100
AcDbLine
 10
920.2993338811445
 20
859.6662436840874
 30
0.0
 11
920.876684150334
 21
860.6662436840874
 31
0.0
  0
ARC
  5
10E1
330
2
100
AcDbEntity
  8
0
 48
0.5
100
AcDbCircle
 10
920.5993338811447
 20
858.4662436840876
 30
0.0
 40
0.3
100
AcDbArc
 50
180.0
 51
270.0
  0
LINE
  5
10E2
330
2
100
AcDbEntity
  8
0
 48
0.5
100
AcDbLine
 10
920.2993338811445
 20
859.6662436840876
 30
0.0
 11
920.2993338811445
 21
858.4662436840876
 31
0.0
  0
LINE
  5
10E3
330
2
100
AcDbEntity
  8
0
 48
0.5
100
AcDbLine
 10
920.2993338811445
 20
855.9662436840875
 30
0.0
 11
920.2993338811445
 21
852.6662436840874
 31
0.0
  0
LINE
  5
10E4
330
2
100
AcDbEntity
  8
0
 48
0.3
100
AcDbLine
 10
899.7993338811451
 20
847.1662436840867
 30
0.0
 11
1015.089442782046
 21
847.1662436840867
 31
0.0
  0
LINE
  5
10E5
330
2
100
AcDbEntity
  8
0
100
AcDbLine
 10
897.7993338811446
 20
837.1662436840869
 30
0.0
 11
1017.159333881144
 21
837.1662436840869
 31
0.0
  0
LINE
  5
10E6
330
2
100
AcDbEntity
  8
HIDS
  6
SEKKEI_H
 48
0.5
100
AcDbLine
 10
905.3851203187708
 20
847.7520301217131
 30
0.0
 11
909.2135474435169
 21
851.5804572464585
 31
0.0
  0
ARC
  5
10E7
330
2
100
AcDbEntity
  8
HIDS
  6
SEKKEI_H
100
AcDbCircle
 10
910.6277610058898
 20
850.1662436840854
 30
0.0
 40
2.0
100
AcDbArc
 50
90.0
 51
135.0000000000092
  0
ARC
  5
10E8
330
2
100
AcDbEntity
  8
HIDS
  6
SEKKEI_H
 48
0.5
100
AcDbCircle
 10
903.9709067563974
 20
849.1662436840867
 30
0.0
 40
2.0
100
AcDbArc
 50
270.0
 51
315.0000000000104
  0
ARC
  5
10E9
330
2
100
AcDbEntity
  8
0
 48
0.3
100
AcDbCircle
 10
899.8692249802427
 20
845.1662436840868
 30
0.0
 40
2.0
100
AcDbArc
 50
90.0
 51
179.4999999999954
  0
LINE
  5
10EA
330
2
100
AcDbEntity
  8
0
100
AcDbLine
 10
897.8693011341144
 20
845.1836967550837
 30
0.0
 11
897.7993338811446
 21
837.1662436840869
 31
0.0
  0
LINE
  5
10EB
330
2
100
AcDbEntity
  8
0
100
AcDbLine
 10
995.299333881144
 20
859.6662436840876
 30
0.0
 11
920.2993338811445
 21
859.6662436840874
 31
0.0
  0
LINE
  5
10EC
330
2
100
AcDbEntity
  8
0
100
AcDbLine
 10
995.299333881144
 20
855.9662436840875
 30
0.0
 11
920.2993338811445
 21
855.9662436840875
 31
0.0
  0
LINE
  5
10ED
330
2
100
AcDbEntity
  8
0
100
AcDbLine
 10
997.2993338811445
 20
852.6662436840869
 30
0.0
 11
918.299333881144
 21
852.666243684087
 31
0.0
  0
LINE
  5
10EE
330
2
100
AcDbEntity
  8
0
100
AcDbLine
 10
601.8863915970684
 20
459.2456345049876
 30
0.0
 11
610.3863915970684
 21
459.2456345049876
 31
0.0
  0
LINE
  5
10EF
330
2
100
AcDbEntity
  8
0
100
AcDbLine
 10
601.8863915970684
 20
449.2456345049836
 30
0.0
 11
610.3863915970694
 21
449.2456345049836
 31
0.0
  0
LINE
  5
10F0
330
2
100
AcDbEntity
  8
0
100
AcDbLine
 10
601.8863915970684
 20
429.2442428183997
 30
0.0
 11
610.386391597069
 21
429.2442428183997
 31
0.0
  0
LINE
  5
10F1
330
2
100
AcDbEntity
  8
0
100
AcDbLine
 10
601.8863915970684
 20
389.2470261915698
 30
0.0
 11
610.386391597068
 21
389.2470261915698
 31
0.0
  0
LINE
  5
10F2
330
2
100
AcDbEntity
  8
0
100
AcDbLine
 10
601.8863915970684
 20
369.2456345049881
 30
0.0
 11
610.3863915970671
 21
369.2456345049882
 31
0.0
  0
LINE
  5
10F3
330
2
100
AcDbEntity
  8
0
100
AcDbLine
 10
601.8863915970684
 20
359.2456345049868
 30
0.0
 11
610.3863915970671
 21
359.2456345049868
 31
0.0
  0
LINE
  5
10F4
330
2
100
AcDbEntity
  8
0
100
AcDbLine
 10
907.7993338811451
 20
845.6662436840868
 30
0.0
 11
907.7993338811451
 21
837.1662436840882
 31
0.0
  0
LINE
  5
10F5
330
2
100
AcDbEntity
  8
0
100
AcDbLine
 10
917.7993338811463
 20
845.6662436840868
 30
0.0
 11
917.7993338811463
 21
837.1662436840878
 31
0.0
  0
LINE
  5
10F6
330
2
100
AcDbEntity
  8
0
100
AcDbLine
 10
937.8007255677278
 20
845.6662436840868
 30
0.0
 11
937.8007255677278
 21
837.1662436840873
 31
0.0
  0
LINE
  5
10F7
330
2
100
AcDbEntity
  8
0
100
AcDbLine
 10
977.7979421945577
 20
845.6662436840868
 30
0.0
 11
977.7979421945577
 21
837.1662436840862
 31
0.0
  0
LINE
  5
10F8
330
2
100
AcDbEntity
  8
0
100
AcDbLine
 10
997.7993338811417
 20
845.6662436840868
 30
0.0
 11
997.7993338811417
 21
837.1662436840857
 31
0.0
  0
LINE
  5
10F9
330
2
100
AcDbEntity
  8
0
100
AcDbLine
 10
1007.799333881145
 20
845.6662436840868
 30
0.0
 11
1007.799333881145
 21
837.1662436840853
 31
0.0
  0
LINE
  5
10FA
330
2
100
AcDbEntity
  8
0
 48
0.3
100
AcDbLine
 10
914.2993338811441
 20
856.6662436840868
 30
0.0
 11
901.299333881144
 21
856.6662436840868
 31
0.0
  0
LINE
  5
10FB
330
2
100
AcDbEntity
  8
0
 48
0.3
100
AcDbLine
 10
913.4333084773581
 20
857.1662436840867
 30
0.0
 11
902.165359284929
 21
857.1662436840867
 31
0.0
  0
LINE
  5
10FC
330
2
100
AcDbEntity
  8
0
 48
0.3
100
AcDbLine
 10
901.299333881144
 20
856.6662436840868
 30
0.0
 11
902.165359284929
 21
857.1662436840867
 31
0.0
  0
LINE
  5
10FD
330
2
100
AcDbEntity
  8
0
 48
0.3
100
AcDbLine
 10
901.299333881144
 20
856.6662436840868
 30
0.0
 11
901.299333881144
 21
849.1662436840867
 31
0.0
  0
LINE
  5
10FE
330
2
100
AcDbEntity
  8
0
 48
0.3
100
AcDbLine
 10
914.2993338811441
 20
856.6662436840861
 30
0.0
 11
913.4333084773595
 21
857.1662436840863
 31
0.0
  0
LINE
  5
10FF
330
2
100
AcDbEntity
  8
0
 48
0.3
100
AcDbLine
 10
914.2993338811441
 20
856.6662436840859
 30
0.0
 11
914.2993338811441
 21
849.1662436840867
 31
0.0
  0
LINE
  5
1100
330
2
100
AcDbEntity
  8
0
 48
0.3
100
AcDbLine
 10
1014.299333881144
 20
856.6662436840868
 30
0.0
 11
1001.299333881144
 21
856.6662436840868
 31
0.0
  0
LINE
  5
1101
330
2
100
AcDbEntity
  8
0
 48
0.3
100
AcDbLine
 10
1013.433308477358
 20
857.1662436840867
 30
0.0
 11
1002.165359284929
 21
857.1662436840867
 31
0.0
  0
LINE
  5
1102
330
2
100
AcDbEntity
  8
0
 48
0.3
100
AcDbLine
 10
1001.299333881144
 20
856.6662436840868
 30
0.0
 11
1002.165359284929
 21
857.1662436840867
 31
0.0
  0
LINE
  5
1103
330
2
100
AcDbEntity
  8
0
 48
0.3
100
AcDbLine
 10
1001.299333881144
 20
856.6662436840868
 30
0.0
 11
1001.299333881144
 21
849.1662436840867
 31
0.0
  0
LINE
  5
1104
330
2
100
AcDbEntity
  8
0
 48
0.3
100
AcDbLine
 10
1014.299333881144
 20
856.6662436840861
 30
0.0
 11
1013.433308477359
 21
857.1662436840863
 31
0.0
  0
LINE
  5
1105
330
2
100
AcDbEntity
  8
0
 48
0.3
100
AcDbLine
 10
1014.299333881144
 20
856.6662436840859
 30
0.0
 11
1014.299333881144
 21
849.1662436840867
 31
0.0
  0
LINE
  5
1106
330
2
100
AcDbEntity
  8
CENTER
 48
0.5
100
AcDbLine
 10
907.799333881144
 20
860.1662436840868
 30
0.0
 11
907.799333881144
 21
841.1662436840867
 31
0.0
  0
LINE
  5
1107
330
2
100
AcDbEntity
  8
CENTER
 48
0.5
100
AcDbLine
 10
1007.799333881144
 20
860.1662436840868
 30
0.0
 11
1007.799333881144
 21
841.1662436840867
 31
0.0
  0
LINE
  5
1108
330
2
100
AcDbEntity
  8
0
 48
0.3
100
AcDbLine
 10
590.8863915970685
 20
465.7456345049861
 30
0.0
 11
590.8863915970685
 21
452.7456345049861
 31
0.0
  0
LINE
  5
1109
330
2
100
AcDbEntity
  8
0
 48
0.3
100
AcDbLine
 10
590.3863915970685
 20
464.8796091012002
 30
0.0
 11
590.3863915970685
 21
453.6116599087706
 31
0.0
  0
LINE
  5
110A
330
2
100
AcDbEntity
  8
CENTER
 48
0.5
100
AcDbLine
 10
587.3863915970685
 20
459.245634504986
 30
0.0
 11
606.3863915970685
 21
459.245634504986
 31
0.0
  0
LINE
  5
110B
330
2
100
AcDbEntity
  8
0
 48
0.3
100
AcDbLine
 10
590.8863915970685
 20
452.7456345049861
 30
0.0
 11
590.3863915970685
 21
453.6116599087706
 31
0.0
  0
LINE
  5
110C
330
2
100
AcDbEntity
  8
0
 48
0.3
100
AcDbLine
 10
590.8863915970685
 20
452.7456345049861
 30
0.0
 11
598.3863915970685
 21
452.7456345049861
 31
0.0
  0
LINE
  5
110D
330
2
100
AcDbEntity
  8
0
 48
0.3
100
AcDbLine
 10
590.8863915970689
 20
465.7456345049856
 30
0.0
 11
590.3863915970689
 21
464.8796091012013
 31
0.0
  0
LINE
  5
110E
330
2
100
AcDbEntity
  8
0
 48
0.3
100
AcDbLine
 10
590.8863915970694
 20
465.7456345049861
 30
0.0
 11
598.3863915970685
 21
465.7456345049861
 31
0.0
  0
LINE
  5
110F
330
2
100
AcDbEntity
  8
0
 48
0.3
100
AcDbLine
 10
590.8863915970685
 20
365.7456345049861
 30
0.0
 11
590.8863915970685
 21
352.7456345049861
 31
0.0
  0
LINE
  5
1110
330
2
100
AcDbEntity
  8
0
 48
0.3
100
AcDbLine
 10
590.3863915970685
 20
364.8796091012002
 30
0.0
 11
590.3863915970685
 21
353.6116599087706
 31
0.0
  0
LINE
  5
1111
330
2
100
AcDbEntity
  8
CENTER
 48
0.5
100
AcDbLine
 10
587.3863915970685
 20
359.2456345049861
 30
0.0
 11
606.3863915970685
 21
359.2456345049861
 31
0.0
  0
LINE
  5
1112
330
2
100
AcDbEntity
  8
0
 48
0.3
100
AcDbLine
 10
590.8863915970685
 20
352.7456345049861
 30
0.0
 11
590.3863915970685
 21
353.6116599087706
 31
0.0
  0
LINE
  5
1113
330
2
100
AcDbEntity
  8
0
 48
0.3
100
AcDbLine
 10
590.8863915970685
 20
352.7456345049861
 30
0.0
 11
598.3863915970685
 21
352.7456345049861
 31
0.0
  0
LINE
  5
1114
330
2
100
AcDbEntity
  8
0
 48
0.3
100
AcDbLine
 10
590.8863915970689
 20
365.7456345049856
 30
0.0
 11
590.3863915970689
 21
364.8796091012013
 31
0.0
  0
LINE
  5
1115
330
2
100
AcDbEntity
  8
0
 48
0.3
100
AcDbLine
 10
590.8863915970694
 20
365.7456345049861
 30
0.0
 11
598.3863915970685
 21
365.7456345049861
 31
0.0
  0
LINE
  5
1118
330
2
100
AcDbEntity
  8
HIDS
  6
SEKKEI_H
100
AcDbLine
 10
595.3863915970698
 20
456.4172073802403
 30
0.0
 11
595.3863915970685
 21
452.7456345049861
 31
0.0
  0
LINE
  5
1119
330
2
100
AcDbEntity
  8
HIDS
  6
SEKKEI_H
100
AcDbLine
 10
595.3863915970698
 20
365.7456345049861
 30
0.0
 11
595.3863915970698
 21
362.0740616297319
 31
0.0
  0
LINE
  5
111A
330
2
100
AcDbEntity
  8
HIDS
  6
SEKKEI_H
100
AcDbLine
 10
910.6277610058898
 20
852.1662436840854
 30
0.0
 11
914.2993338811441
 21
852.1662436840856
 31
0.0
  0
LINE
  5
111B
330
2
100
AcDbEntity
  8
HIDS
  6
SEKKEI_H
100
AcDbLine
 10
1001.299333881144
 20
852.1662436840868
 30
0.0
 11
1004.970906756398
 21
852.1662436840854
 31
0.0
  0
LINE
  5
1120
330
2
100
AcDbEntity
  8
0
100
AcDbLine
 10
458.9079672978503
 20
455.7815328897379
 30
0.0
 11
461.9079672978503
 21
457.5135836973068
 31
0.0
  0
LINE
  5
1121
330
2
100
AcDbEntity
  8
0
100
AcDbLine
 10
455.9079672978502
 20
460.9776853124444
 30
0.0
 11
458.9079672978503
 21
462.7097361200133
 31
0.0
  0
CIRCLE
  5
1122
330
2
100
AcDbEntity
  8
0
100
AcDbCircle
 10
458.9079672978503
 20
459.2456345048756
 30
0.0
 40
6.5
  0
LINE
  5
1123
330
2
100
AcDbEntity
  8
0
100
AcDbLine
 10
461.9079672978503
 20
460.9776853124444
 30
0.0
 11
458.9079672978503
 21
462.7097361200132
 31
0.0
  0
LINE
  5
1124
330
2
100
AcDbEntity
  8
0
100
AcDbLine
 10
458.9079672978503
 20
455.781532889738
 30
0.0
 11
455.9079672978502
 21
457.5135836973067
 31
0.0
  0
LINE
  5
1125
330
2
100
AcDbEntity
  8
0
100
AcDbLine
 10
461.9079672978503
 20
457.5135836973069
 30
0.0
 11
461.9079672978503
 21
460.9776853124444
 31
0.0
  0
LINE
  5
1126
330
2
100
AcDbEntity
  8
0
100
AcDbLine
 10
455.9079672978502
 20
457.5135836973066
 30
0.0
 11
455.9079672978502
 21
460.9776853124444
 31
0.0
  0
CIRCLE
  5
1127
330
2
100
AcDbEntity
  8
0
100
AcDbCircle
 10
458.9079672978503
 20
459.2456345048756
 30
0.0
 40
5.633974596215466
  0
CIRCLE
  5
1128
330
2
100
AcDbEntity
  8
0
100
AcDbCircle
 10
458.9079672978503
 20
459.2456345048756
 30
0.0
 40
7.25
  0
LINE
  5
1129
330
2
100
AcDbEntity
  8
0
100
AcDbLine
 10
358.9079672978503
 20
455.7815328898305
 30
0.0
 11
361.9079672978502
 21
457.5135836973995
 31
0.0
  0
LINE
  5
112A
330
2
100
AcDbEntity
  8
0
100
AcDbLine
 10
355.9079672978502
 20
460.977685312537
 30
0.0
 11
358.9079672978503
 21
462.709736120106
 31
0.0
  0
CIRCLE
  5
112B
330
2
100
AcDbEntity
  8
0
100
AcDbCircle
 10
358.9079672978503
 20
459.2456345049682
 30
0.0
 40
6.5
  0
LINE
  5
112C
330
2
100
AcDbEntity
  8
0
100
AcDbLine
 10
361.9079672978502
 20
460.977685312537
 30
0.0
 11
358.9079672978503
 21
462.7097361201059
 31
0.0
  0
LINE
  5
112D
330
2
100
AcDbEntity
  8
0
100
AcDbLine
 10
358.9079672978503
 20
455.7815328898306
 30
0.0
 11
355.9079672978502
 21
457.5135836973993
 31
0.0
  0
LINE
  5
112E
330
2
100
AcDbEntity
  8
0
100
AcDbLine
 10
361.9079672978502
 20
457.5135836973996
 30
0.0
 11
361.9079672978502
 21
460.9776853125372
 31
0.0
  0
LINE
  5
112F
330
2
100
AcDbEntity
  8
0
100
AcDbLine
 10
355.9079672978502
 20
457.5135836973992
 30
0.0
 11
355.9079672978502
 21
460.977685312537
 31
0.0
  0
CIRCLE
  5
1130
330
2
100
AcDbEntity
  8
0
100
AcDbCircle
 10
358.9079672978503
 20
459.2456345049682
 30
0.0
 40
5.633974596215466
  0
CIRCLE
  5
1131
330
2
100
AcDbEntity
  8
0
100
AcDbCircle
 10
358.9079672978503
 20
459.2456345049682
 30
0.0
 40
7.25
  0
LINE
  5
1132
330
2
100
AcDbEntity
  8
0
100
AcDbLine
 10
358.9079672977579
 20
355.7815328898943
 30
0.0
 11
361.9079672977575
 21
357.5135836974633
 31
0.0
  0
LINE
  5
1133
330
2
100
AcDbEntity
  8
0
100
AcDbLine
 10
355.9079672977579
 20
360.9776853126009
 30
0.0
 11
358.9079672977579
 21
362.7097361201698
 31
0.0
  0
CIRCLE
  5
1134
330
2
100
AcDbEntity
  8
0
100
AcDbCircle
 10
358.9079672977579
 20
359.245634505032
 30
0.0
 40
6.5
  0
LINE
  5
1135
330
2
100
AcDbEntity
  8
0
100
AcDbLine
 10
361.9079672977575
 20
360.9776853126009
 30
0.0
 11
358.9079672977579
 21
362.7097361201697
 31
0.0
  0
LINE
  5
1136
330
2
100
AcDbEntity
  8
0
100
AcDbLine
 10
358.9079672977579
 20
355.7815328898945
 30
0.0
 11
355.9079672977579
 21
357.5135836974632
 31
0.0
  0
LINE
  5
1137
330
2
100
AcDbEntity
  8
0
100
AcDbLine
 10
361.9079672977575
 20
357.5135836974634
 30
0.0
 11
361.9079672977575
 21
360.977685312601
 31
0.0
  0
LINE
  5
1138
330
2
100
AcDbEntity
  8
0
100
AcDbLine
 10
355.9079672977579
 20
357.5135836974631
 30
0.0
 11
355.9079672977579
 21
360.9776853126009
 31
0.0
  0
CIRCLE
  5
1139
330
2
100
AcDbEntity
  8
0
100
AcDbCircle
 10
358.9079672977579
 20
359.245634505032
 30
0.0
 40
5.633974596215466
  0
CIRCLE
  5
113A
330
2
100
AcDbEntity
  8
0
100
AcDbCircle
 10
358.9079672977579
 20
359.245634505032
 30
0.0
 40
7.25
  0
LINE
  5
113B
330
2
100
AcDbEntity
  8
0
100
AcDbLine
 10
458.9079672978271
 20
355.7815328897377
 30
0.0
 11
461.9079672978266
 21
357.5135836973067
 31
0.0
  0
LINE
  5
113C
330
2
100
AcDbEntity
  8
0
100
AcDbLine
 10
455.907967297827
 20
360.9776853124443
 30
0.0
 11
458.9079672978271
 21
362.7097361200132
 31
0.0
  0
CIRCLE
  5
113D
330
2
100
AcDbEntity
  8
0
100
AcDbCircle
 10
458.9079672978271
 20
359.2456345048754
 30
0.0
 40
6.5
  0
LINE
  5
113E
330
2
100
AcDbEntity
  8
0
100
AcDbLine
 10
461.9079672978266
 20
360.9776853124443
 30
0.0
 11
458.9079672978271
 21
362.7097361200131
 31
0.0
  0
LINE
  5
113F
330
2
100
AcDbEntity
  8
0
100
AcDbLine
 10
458.9079672978271
 20
355.7815328897378
 30
0.0
 11
455.907967297827
 21
357.5135836973066
 31
0.0
  0
LINE
  5
1140
330
2
100
AcDbEntity
  8
0
100
AcDbLine
 10
461.9079672978266
 20
357.5135836973068
 30
0.0
 11
461.9079672978266
 21
360.9776853124444
 31
0.0
  0
LINE
  5
1141
330
2
100
AcDbEntity
  8
0
100
AcDbLine
 10
455.907967297827
 20
357.5135836973065
 30
0.0
 11
455.907967297827
 21
360.9776853124443
 31
0.0
  0
CIRCLE
  5
1142
330
2
100
AcDbEntity
  8
0
100
AcDbCircle
 10
458.9079672978271
 20
359.2456345048754
 30
0.0
 40
5.633974596215466
  0
CIRCLE
  5
1143
330
2
100
AcDbEntity
  8
0
100
AcDbCircle
 10
458.9079672978271
 20
359.2456345048754
 30
0.0
 40
7.25
  0
LINE
  5
1144
330
2
100
AcDbEntity
  8
0
 48
0.3
100
AcDbLine
 10
600.3863915970685
 20
451.9956345049861
 30
0.0
 11
600.3863915970685
 21
466.4956345049861
 31
0.0
  0
LINE
  5
1145
330
2
100
AcDbEntity
  8
0
 48
0.3
100
AcDbLine
 10
600.3863915970685
 20
466.4956345049861
 30
0.0
 11
598.3863915970685
 21
466.4956345049861
 31
0.0
  0
LINE
  5
1146
330
2
100
AcDbEntity
  8
0
 48
0.3
100
AcDbLine
 10
600.3863915970685
 20
451.9956345049861
 30
0.0
 11
598.3863915970685
 21
451.9956345049861
 31
0.0
  0
LINE
  5
1147
330
2
100
AcDbEntity
  8
0
100
AcDbLine
 10
598.3863915970685
 20
451.9956345049861
 30
0.0
 11
598.3863915970685
 21
466.4956345049861
 31
0.0
  0
LINE
  5
1148
330
2
100
AcDbEntity
  8
0
 48
0.3
100
AcDbLine
 10
600.3863915970685
 20
351.9956345049861
 30
0.0
 11
600.3863915970685
 21
366.4956345049861
 31
0.0
  0
LINE
  5
1149
330
2
100
AcDbEntity
  8
0
 48
0.3
100
AcDbLine
 10
600.3863915970685
 20
366.4956345049861
 30
0.0
 11
598.3863915970685
 21
366.4956345049861
 31
0.0
  0
LINE
  5
114A
330
2
100
AcDbEntity
  8
0
 48
0.3
100
AcDbLine
 10
600.3863915970685
 20
351.9956345049861
 30
0.0
 11
598.3863915970685
 21
351.9956345049861
 31
0.0
  0
LINE
  5
114B
330
2
100
AcDbEntity
  8
0
100
AcDbLine
 10
598.3863915970685
 20
351.9956345049861
 30
0.0
 11
598.3863915970685
 21
366.4956345049861
 31
0.0
  0
LINE
  5
114C
330
2
100
AcDbEntity
  8
0
 48
0.3
100
AcDbLine
 10
915.0493338811442
 20
849.1662436840869
 30
0.0
 11
900.549333881144
 21
849.1662436840867
 31
0.0
  0
LINE
  5
114D
330
2
100
AcDbEntity
  8
0
 48
0.3
100
AcDbLine
 10
900.549333881144
 20
849.1662436840867
 30
0.0
 11
900.549333881144
 21
847.1662436840867
 31
0.0
  0
LINE
  5
114E
330
2
100
AcDbEntity
  8
0
 48
0.3
100
AcDbLine
 10
915.0493338811442
 20
849.1662436840869
 30
0.0
 11
915.0493338811442
 21
847.1662436840869
 31
0.0
  0
LINE
  5
114F
330
2
100
AcDbEntity
  8
0
100
AcDbLine
 10
915.0493338811442
 20
847.1662436840869
 30
0.0
 11
900.549333881144
 21
847.1662436840867
 31
0.0
  0
LINE
  5
1150
330
2
100
AcDbEntity
  8
0
 48
0.3
100
AcDbLine
 10
1015.049333881144
 20
849.1662436840869
 30
0.0
 11
1000.549333881144
 21
849.1662436840867
 31
0.0
  0
LINE
  5
1151
330
2
100
AcDbEntity
  8
0
 48
0.3
100
AcDbLine
 10
1000.549333881144
 20
849.1662436840867
 30
0.0
 11
1000.549333881144
 21
847.1662436840867
 31
0.0
  0
LINE
  5
1152
330
2
100
AcDbEntity
  8
0
 48
0.3
100
AcDbLine
 10
1015.049333881144
 20
849.1662436840869
 30
0.0
 11
1015.049333881144
 21
847.1662436840869
 31
0.0
  0
LINE
  5
1153
330
2
100
AcDbEntity
  8
0
100
AcDbLine
 10
1015.049333881144
 20
847.1662436840869
 30
0.0
 11
1000.549333881144
 21
847.1662436840867
 31
0.0
  0
LINE
  5
1154
330
2
100
AcDbEntity
  8
0
 48
0.3
100
AcDbLine
 10
600.3863915970685
 20
351.3155256040846
 30
0.0
 11
600.3863915970708
 21
467.1757434058876
 31
0.0
  0
LINE
  5
1155
330
2
100
AcDbEntity
  8
0
100
AcDbLine
 10
713.8863915970699
 20
350.1532287552251
 30
0.0
 11
610.3863915970666
 21
349.2499979388817
 31
0.0
  0
LINE
  5
1156
330
2
100
AcDbEntity
  8
0
100
AcDbLine
 10
713.8863915970699
 20
468.3380402547469
 30
0.0
 11
610.3863915970666
 21
469.2412710710905
 31
0.0
  0
LINE
  5
1157
330
2
100
AcDbEntity
  8
CENTER
100
AcDbLine
 10
448.9284683124376
 20
459.2456345048847
 30
0.0
 11
468.887466283277
 21
459.2456345048661
 31
0.0
  0
LINE
  5
1158
330
2
100
AcDbEntity
  8
CENTER
100
AcDbLine
 10
458.9079672978412
 20
449.2661355194557
 30
0.0
 11
458.9079672978598
 21
469.2251334902953
 31
0.0
  0
LINE
  5
1159
330
2
100
AcDbEntity
  8
CENTER
100
AcDbLine
 10
448.9284683124139
 20
359.2456345048846
 30
0.0
 11
468.8874662832533
 21
359.245634504866
 31
0.0
  0
LINE
  5
115A
330
2
100
AcDbEntity
  8
CENTER
100
AcDbLine
 10
458.9079672978175
 20
349.2661355194556
 30
0.0
 11
458.9079672978361
 21
369.2251334902951
 31
0.0
  0
LINE
  5
115B
330
2
100
AcDbEntity
  8
CENTER
100
AcDbLine
 10
348.9284683123448
 20
359.2456345050412
 30
0.0
 11
368.8874662831842
 21
359.2456345050226
 31
0.0
  0
LINE
  5
115C
330
2
100
AcDbEntity
  8
CENTER
100
AcDbLine
 10
358.9079672977484
 20
349.2661355196122
 30
0.0
 11
358.907967297767
 21
369.2251334904517
 31
0.0
  0
LINE
  5
115D
330
2
100
AcDbEntity
  8
CENTER
100
AcDbLine
 10
461.4079672977879
 20
365.0838417037718
 30
0.0
 11
461.4079672977984
 21
376.407427306152
 31
0.0
  0
LINE
  5
115E
330
2
100
AcDbEntity
  8
CENTER
100
AcDbLine
 10
467.0697600989831
 20
370.7456345049567
 30
0.0
 11
455.7461744966028
 21
370.7456345049671
 31
0.0
  0
LINE
  5
115F
330
2
100
AcDbEntity
  8
0
100
AcDbLine
 10
303.407967297807
 20
469.7456345049857
 30
0.0
 11
317.407967297807
 21
469.7456345049857
 31
0.0
  0
ARC
  5
1160
330
2
100
AcDbEntity
  8
0
100
AcDbCircle
 10
317.407967297807
 20
467.7456345049858
 30
0.0
 40
2.0
100
AcDbArc
 50
0.0
 51
90.0
  0
LINE
  5
1161
330
2
100
AcDbEntity
  8
0
100
AcDbLine
 10
303.407967297807
 20
348.7456345049865
 30
0.0
 11
317.407967297807
 21
348.7456345049865
 31
0.0
  0
ARC
  5
1162
330
2
100
AcDbEntity
  8
0
100
AcDbCircle
 10
317.407967297807
 20
350.7456345049865
 30
0.0
 40
2.0
100
AcDbArc
 50
270.0
 51
0.0
  0
LINE
  5
1167
330
2
100
AcDbEntity
  8
CENTER
100
AcDbLine
 10
785.2563051066929
 20
89.43828278168053
 30
0.0
 11
604.2563051066929
 21
89.43828278168053
 31
0.0
  0
LINE
  5
1168
330
2
100
AcDbEntity
  8
0
100
AcDbLine
 10
639.7563051067038
 20
149.4382827816802
 30
0.0
 11
639.7563051067029
 21
109.2845511471357
 31
0.0
  0
LINE
  5
1169
330
2
100
AcDbEntity
  8
0
100
AcDbLine
 10
639.7563051067016
 20
69.59201441622536
 30
0.0
 11
639.7563051067002
 21
29.43828278168052
 31
0.0
  0
LINE
  5
116A
330
2
100
AcDbEntity
  8
0
100
AcDbLine
 10
762.2563051067039
 20
127.5069052320657
 30
0.0
 11
762.2563051067043
 21
111.4382827816803
 31
0.0
  0
LINE
  5
116B
330
2
100
AcDbEntity
  8
0
100
AcDbLine
 10
762.2563051067047
 20
67.4382827816805
 30
0.0
 11
762.2563051067047
 21
51.36966033129488
 31
0.0
  0
ARC
  5
116C
330
2
100
AcDbEntity
  8
0
100
AcDbCircle
 10
760.2563051067047
 20
51.36966033129488
 30
0.0
 40
2.0
100
AcDbArc
 50
271.9999999999775
 51
0.0
  0
ARC
  5
116D
330
2
100
AcDbEntity
  8
0
100
AcDbCircle
 10
760.2563051067042
 20
127.5069052320657
 30
0.0
 40
2.0
100
AcDbArc
 50
0.0
 51
87.99999999999636
  0
LINE
  5
116E
330
2
100
AcDbEntity
  8
CENTER
100
AcDbLine
 10
676.2563051067002
 20
19.76079610608167
 30
0.0
 11
676.2563051067002
 21
162.1885508707721
 31
0.0
  0
LINE
  5
116F
330
2
100
AcDbEntity
  8
0
100
AcDbLine
 10
760.326104100109
 20
129.5056868861038
 30
0.0
 11
755.9771091330842
 21
129.657557136868
 31
0.0
  0
LINE
  5
1170
330
2
100
AcDbEntity
  8
0
100
AcDbLine
 10
760.3261041001099
 20
49.37087867725677
 30
0.0
 11
755.9771091330901
 21
49.2190084264929
 31
0.0
  0
LINE
  5
1171
330
2
100
AcDbEntity
  8
0
100
AcDbLine
 10
639.7563051067006
 20
39.43828278168121
 30
0.0
 11
741.7563051067093
 21
39.4382827816803
 31
0.0
  0
LINE
  5
1172
330
2
100
AcDbEntity
  8
0
100
AcDbLine
 10
741.7563051067088
 20
49.43828278168258
 30
0.0
 11
639.7563051067006
 21
49.4382827816826
 31
0.0
  0
LINE
  5
1173
330
2
100
AcDbEntity
  8
0
100
AcDbLine
 10
741.7563051067088
 20
129.438282781678
 30
0.0
 11
639.7563051067038
 21
129.438282781678
 31
0.0
  0
LINE
  5
1174
330
2
100
AcDbEntity
  8
0
100
AcDbLine
 10
741.7563051067093
 20
139.4382827816821
 30
0.0
 11
639.7563051067034
 21
139.4382827816821
 31
0.0
  0
ARC
  5
1175
330
2
100
AcDbEntity
  8
0
100
AcDbCircle
 10
756.2563051067038
 20
137.6526837530207
 30
0.0
 40
8.0
100
AcDbArc
 50
180.0
 51
267.9999999999963
  0
ARC
  5
1176
330
2
100
AcDbEntity
  8
0
100
AcDbCircle
 10
756.2563051067098
 20
41.22388181034046
 30
0.0
 40
8.0
100
AcDbArc
 50
92.00000000000365
 51
180.0
  0
LINE
  5
1177
330
2
100
AcDbEntity
  8
0
100
AcDbLine
 10
616.256305106702
 20
126.3609325124908
 30
0.0
 11
616.2563051067015
 21
111.4382827816805
 31
0.0
  0
LINE
  5
1178
330
2
100
AcDbEntity
  8
0
 48
0.5
100
AcDbLine
 10
624.756305106702
 20
129.4382827816805
 30
0.0
 11
624.256305106702
 21
128.9382827816807
 31
0.0
  0
LINE
  5
1179
330
2
100
AcDbEntity
  8
0
100
AcDbLine
 10
624.7563051067033
 20
45.93828278168053
 30
0.0
 11
624.7563051067033
 21
54.84268176252848
 31
0.0
  0
LINE
  5
117A
330
2
100
AcDbEntity
  8
0
100
AcDbLine
 10
624.756305106702
 20
124.0338925710324
 30
0.0
 11
624.756305106702
 21
132.9382827816805
 31
0.0
  0
ARC
  5
117B
330
2
100
AcDbEntity
  8
0
100
AcDbCircle
 10
619.0563051067012
 20
126.5382827816802
 30
0.0
 40
0.3
100
AcDbArc
 50
180.0
 51
270.0
  0
ARC
  5
117C
330
2
100
AcDbEntity
  8
0
100
AcDbCircle
 10
620.4563051067014
 20
126.5382827816802
 30
0.0
 40
0.3
100
AcDbArc
 50
270.0
 51
0.0
  0
LINE
  5
117D
330
2
100
AcDbEntity
  8
0
 48
0.5
100
AcDbLine
 10
620.7563051067011
 20
126.7382827816802
 30
0.0
 11
620.9563051067013
 21
126.9382827816803
 31
0.0
  0
LINE
  5
117E
330
2
100
AcDbEntity
  8
0
 48
0.5
100
AcDbLine
 10
619.0563051067012
 20
126.2382827816802
 30
0.0
 11
620.4563051067014
 21
126.2382827816802
 31
0.0
  0
LINE
  5
117F
330
2
100
AcDbEntity
  8
0
100
AcDbLine
 10
617.2563051067011
 20
126.9382827816803
 30
0.0
 11
616.2563051067011
 21
126.3609325124905
 31
0.0
  0
LINE
  5
1180
330
2
100
AcDbEntity
  8
0
100
AcDbLine
 10
618.756305106701
 20
126.6382827816801
 30
0.0
 11
618.756305106701
 21
124.733848312109
 31
0.0
  0
LINE
  5
1181
330
2
100
AcDbEntity
  8
0
100
AcDbLine
 10
618.756305106701
 20
54.14271459409693
 30
0.0
 11
618.756305106701
 21
52.23828278168094
 31
0.0
  0
ARC
  5
1182
330
2
100
AcDbEntity
  8
0
 48
0.5
100
AcDbCircle
 10
618.4563051067014
 20
126.6382827816801
 30
0.0
 40
0.3
100
AcDbArc
 50
0.0
 51
90.0
  0
LINE
  5
1183
330
2
100
AcDbEntity
  8
0
 48
0.5
100
AcDbLine
 10
617.2563051067011
 20
126.9382827816803
 30
0.0
 11
618.4563051067014
 21
126.9382827816803
 31
0.0
  0
LINE
  5
1184
330
2
100
AcDbEntity
  8
0
 48
0.5
100
AcDbLine
 10
620.9563051067013
 20
126.9382827816803
 30
0.0
 11
624.2563051067011
 21
126.9382827816803
 31
0.0
  0
LINE
  5
1185
330
2
100
AcDbEntity
  8
HIDS
  6
SEKKEI_H
 48
0.5
100
AcDbLine
 10
629.1705186690758
 20
141.8524963440542
 30
0.0
 11
625.3420915443305
 21
138.0240692193078
 31
0.0
  0
ARC
  5
1186
330
2
100
AcDbEntity
  8
HIDS
  6
SEKKEI_H
100
AcDbCircle
 10
626.7563051067034
 20
136.6098556569347
 30
0.0
 40
2.0
100
AcDbArc
 50
135.0000000000091
 51
180.0
  0
ARC
  5
1187
330
2
100
AcDbEntity
  8
HIDS
  6
SEKKEI_H
 48
0.5
100
AcDbCircle
 10
627.756305106702
 20
143.2667099064276
 30
0.0
 40
2.0
100
AcDbArc
 50
314.9999999999728
 51
0.0
  0
ARC
  5
1188
330
2
100
AcDbEntity
  8
0
 48
0.3
100
AcDbCircle
 10
631.756305106702
 20
147.368391682582
 30
0.0
 40
2.0
100
AcDbArc
 50
90.49999999999155
 51
180.0
  0
LINE
  5
1189
330
2
100
AcDbEntity
  8
0
100
AcDbLine
 10
631.7388520357051
 20
149.3683155287104
 30
0.0
 11
639.756305106702
 21
149.4382827816802
 31
0.0
  0
LINE
  5
118A
330
2
100
AcDbEntity
  8
0
100
AcDbLine
 10
616.256305106702
 20
52.51563305087024
 30
0.0
 11
616.2563051067015
 21
67.4382827816803
 31
0.0
  0
LINE
  5
118B
330
2
100
AcDbEntity
  8
0
 48
0.5
100
AcDbLine
 10
624.756305106702
 20
49.43828278168052
 30
0.0
 11
624.256305106702
 21
49.9382827816803
 31
0.0
  0
ARC
  5
118C
330
2
100
AcDbEntity
  8
0
100
AcDbCircle
 10
619.0563051067012
 20
52.33828278168084
 30
0.0
 40
0.3
100
AcDbArc
 50
90.0
 51
180.0
  0
ARC
  5
118D
330
2
100
AcDbEntity
  8
0
100
AcDbCircle
 10
620.4563051067014
 20
52.33828278168084
 30
0.0
 40
0.3
100
AcDbArc
 50
0.0
 51
90.0
  0
LINE
  5
118E
330
2
100
AcDbEntity
  8
0
100
AcDbLine
 10
620.7563051067011
 20
52.1382827816808
 30
0.0
 11
620.7563051067011
 21
54.24229036205449
 31
0.0
  0
LINE
  5
118F
330
2
100
AcDbEntity
  8
0
100
AcDbLine
 10
620.7563051067011
 20
124.6342729359898
 30
0.0
 11
620.7563051067011
 21
126.7382827816802
 31
0.0
  0
LINE
  5
1190
330
2
100
AcDbEntity
  8
0
 48
0.5
100
AcDbLine
 10
620.7563051067011
 20
52.1382827816808
 30
0.0
 11
620.9563051067013
 21
51.93828278168076
 31
0.0
  0
LINE
  5
1191
330
2
100
AcDbEntity
  8
0
 48
0.5
100
AcDbLine
 10
619.0563051067012
 20
52.6382827816808
 30
0.0
 11
620.4563051067014
 21
52.6382827816808
 31
0.0
  0
LINE
  5
1192
330
2
100
AcDbEntity
  8
0
100
AcDbLine
 10
617.2563051067011
 20
51.93828278168076
 30
0.0
 11
616.2563051067011
 21
52.51563305087052
 31
0.0
  0
ARC
  5
1193
330
2
100
AcDbEntity
  8
0
 48
0.5
100
AcDbCircle
 10
618.4563051067014
 20
52.23828278168094
 30
0.0
 40
0.3
100
AcDbArc
 50
270.0
 51
0.0
  0
LINE
  5
1194
330
2
100
AcDbEntity
  8
0
 48
0.5
100
AcDbLine
 10
617.2563051067011
 20
51.93828278168076
 30
0.0
 11
618.4563051067014
 21
51.93828278168076
 31
0.0
  0
LINE
  5
1195
330
2
100
AcDbEntity
  8
0
 48
0.5
100
AcDbLine
 10
620.9563051067013
 20
51.93828278168076
 30
0.0
 11
624.2563051067011
 21
51.93828278168076
 31
0.0
  0
LINE
  5
1196
330
2
100
AcDbEntity
  8
0
 48
0.3
100
AcDbLine
 10
629.756305106702
 20
31.43828278168132
 30
0.0
 11
629.756305106702
 21
58.86174136088948
 31
0.0
  0
LINE
  5
1197
330
2
100
AcDbEntity
  8
0
 48
0.3
100
AcDbLine
 10
629.756305106702
 20
120.0147985506898
 30
0.0
 11
629.756305106702
 21
147.368391682582
 31
0.0
  0
LINE
  5
1198
330
2
100
AcDbEntity
  8
0
100
AcDbLine
 10
639.756305106702
 20
29.43828278168075
 30
0.0
 11
639.756305106702
 21
69.59201441622536
 31
0.0
  0
LINE
  5
1199
330
2
100
AcDbEntity
  8
0
100
AcDbLine
 10
639.756305106702
 20
109.2845511471356
 30
0.0
 11
639.756305106702
 21
149.4382827816802
 31
0.0
  0
LINE
  5
119A
330
2
100
AcDbEntity
  8
HIDS
  6
SEKKEI_H
 48
0.5
100
AcDbLine
 10
629.1705186690758
 20
37.02406921930679
 30
0.0
 11
625.3420915443305
 21
40.85249634405317
 31
0.0
  0
ARC
  5
119B
330
2
100
AcDbEntity
  8
HIDS
  6
SEKKEI_H
100
AcDbCircle
 10
626.7563051067034
 20
42.26670990642628
 30
0.0
 40
2.0
100
AcDbArc
 50
180.0
 51
224.9999999999904
  0
ARC
  5
119C
330
2
100
AcDbEntity
  8
HIDS
  6
SEKKEI_H
 48
0.5
100
AcDbCircle
 10
627.756305106702
 20
35.60985565693346
 30
0.0
 40
2.0
100
AcDbArc
 50
0.0
 51
45.00000000002711
  0
ARC
  5
119D
330
2
100
AcDbEntity
  8
0
 48
0.3
100
AcDbCircle
 10
631.756305106702
 20
31.508173880779
 30
0.0
 40
2.0
100
AcDbArc
 50
180.0
 51
269.5000000000084
  0
LINE
  5
119E
330
2
100
AcDbEntity
  8
0
100
AcDbLine
 10
631.7388520357051
 20
29.50825003465064
 30
0.0
 11
639.756305106702
 21
29.43828278168075
 31
0.0
  0
LINE
  5
119F
330
2
100
AcDbEntity
  8
0
100
AcDbLine
 10
617.2563051067006
 20
121.9382827816807
 30
0.0
 11
617.2563051067011
 21
111.4382827816805
 31
0.0
  0
LINE
  5
11A0
330
2
100
AcDbEntity
  8
0
100
AcDbLine
 10
627.256305106701
 20
121.9382827816804
 30
0.0
 11
627.256305106701
 21
111.4382827816805
 31
0.0
  0
LINE
  5
11A1
330
2
100
AcDbEntity
  8
0
100
AcDbLine
 10
617.2563051067011
 20
67.4382827816803
 30
0.0
 11
617.2563051067011
 21
56.93828278168052
 31
0.0
  0
LINE
  5
11A2
330
2
100
AcDbEntity
  8
0
100
AcDbLine
 10
620.9563051067013
 20
126.9382827816803
 30
0.0
 11
620.9563051067013
 21
124.618537887846
 31
0.0
  0
LINE
  5
11A3
330
2
100
AcDbEntity
  8
0
100
AcDbLine
 10
620.9563051067013
 20
54.25802564216207
 30
0.0
 11
620.9563051067013
 21
51.93828278168076
 31
0.0
  0
LINE
  5
11A4
330
2
100
AcDbEntity
  8
0
100
AcDbLine
 10
624.256305106702
 20
128.9382827816807
 30
0.0
 11
624.256305106702
 21
124.1515854957427
 31
0.0
  0
LINE
  5
11A5
330
2
100
AcDbEntity
  8
0
100
AcDbLine
 10
624.256305106702
 20
54.72498711111356
 30
0.0
 11
624.256305106702
 21
49.93828278168052
 31
0.0
  0
LINE
  5
11B0
330
2
100
AcDbEntity
  8
0
100
AcDbLine
 10
631.256305106702
 20
139.4382827816821
 30
0.0
 11
639.7563051067038
 21
139.4382827816821
 31
0.0
  0
LINE
  5
11B1
330
2
100
AcDbEntity
  8
0
100
AcDbLine
 10
631.256305106702
 20
129.438282781678
 30
0.0
 11
639.7563051067034
 21
129.438282781678
 31
0.0
  0
LINE
  5
11B2
330
2
100
AcDbEntity
  8
0
100
AcDbLine
 10
631.256305106702
 20
49.43828278168258
 30
0.0
 11
639.7563051067006
 21
49.43828278168258
 31
0.0
  0
LINE
  5
11B3
330
2
100
AcDbEntity
  8
0
100
AcDbLine
 10
631.256305106702
 20
39.43828278168121
 30
0.0
 11
639.7563051067006
 21
39.43828278168121
 31
0.0
  0
LINE
  5
11B4
330
2
100
AcDbEntity
  8
0
 48
0.3
100
AcDbLine
 10
620.256305106702
 20
145.9382827816805
 30
0.0
 11
620.256305106702
 21
132.9382827816805
 31
0.0
  0
LINE
  5
11B5
330
2
100
AcDbEntity
  8
0
 48
0.3
100
AcDbLine
 10
619.756305106702
 20
145.0722573778946
 30
0.0
 11
619.756305106702
 21
133.804308185465
 31
0.0
  0
LINE
  5
11B6
330
2
100
AcDbEntity
  8
CENTER
 48
0.5
100
AcDbLine
 10
616.756305106702
 20
139.4382827816805
 30
0.0
 11
635.756305106702
 21
139.4382827816805
 31
0.0
  0
LINE
  5
11B7
330
2
100
AcDbEntity
  8
0
 48
0.3
100
AcDbLine
 10
620.256305106702
 20
132.9382827816805
 30
0.0
 11
619.756305106702
 21
133.804308185465
 31
0.0
  0
LINE
  5
11B8
330
2
100
AcDbEntity
  8
0
 48
0.3
100
AcDbLine
 10
620.256305106702
 20
132.9382827816805
 30
0.0
 11
627.756305106702
 21
132.9382827816805
 31
0.0
  0
LINE
  5
11B9
330
2
100
AcDbEntity
  8
0
 48
0.3
100
AcDbLine
 10
620.2563051067024
 20
145.93828278168
 30
0.0
 11
619.7563051067024
 21
145.0722573778957
 31
0.0
  0
LINE
  5
11BA
330
2
100
AcDbEntity
  8
0
 48
0.3
100
AcDbLine
 10
620.2563051067029
 20
145.9382827816805
 30
0.0
 11
627.756305106702
 21
145.9382827816805
 31
0.0
  0
LINE
  5
11BB
330
2
100
AcDbEntity
  8
0
 48
0.3
100
AcDbLine
 10
620.256305106702
 20
45.93828278168053
 30
0.0
 11
620.256305106702
 21
32.93828278168053
 31
0.0
  0
LINE
  5
11BC
330
2
100
AcDbEntity
  8
0
 48
0.3
100
AcDbLine
 10
619.756305106702
 20
45.07225737789463
 30
0.0
 11
619.756305106702
 21
33.80430818546506
 31
0.0
  0
LINE
  5
11BD
330
2
100
AcDbEntity
  8
CENTER
 48
0.5
100
AcDbLine
 10
616.756305106702
 20
39.43828278168052
 30
0.0
 11
635.756305106702
 21
39.43828278168052
 31
0.0
  0
LINE
  5
11BE
330
2
100
AcDbEntity
  8
0
 48
0.3
100
AcDbLine
 10
620.256305106702
 20
32.93828278168053
 30
0.0
 11
619.756305106702
 21
33.80430818546506
 31
0.0
  0
LINE
  5
11BF
330
2
100
AcDbEntity
  8
0
 48
0.3
100
AcDbLine
 10
620.256305106702
 20
32.93828278168053
 30
0.0
 11
627.756305106702
 21
32.93828278168053
 31
0.0
  0
LINE
  5
11C0
330
2
100
AcDbEntity
  8
0
 48
0.3
100
AcDbLine
 10
620.2563051067024
 20
45.93828278168007
 30
0.0
 11
619.7563051067024
 21
45.07225737789577
 31
0.0
  0
LINE
  5
11C1
330
2
100
AcDbEntity
  8
0
 48
0.3
100
AcDbLine
 10
620.2563051067029
 20
45.93828278168053
 30
0.0
 11
627.756305106702
 21
45.93828278168053
 31
0.0
  0
LINE
  5
11C2
330
2
100
AcDbEntity
  8
HIDS
  6
SEKKEI_H
100
AcDbLine
 10
624.7563051067033
 20
136.6098556569347
 30
0.0
 11
624.756305106702
 21
132.9382827816805
 31
0.0
  0
LINE
  5
11C3
330
2
100
AcDbEntity
  8
HIDS
  6
SEKKEI_H
100
AcDbLine
 10
624.7563051067033
 20
45.93828278168053
 30
0.0
 11
624.7563051067033
 21
42.26670990642628
 31
0.0
  0
LINE
  5
11C4
330
2
100
AcDbEntity
  8
0
100
AcDbLine
 10
738.2563051066929
 20
103.4382827816803
 30
0.0
 11
753.2563051066929
 21
103.4382827816803
 31
0.0
  0
LINE
  5
11C5
330
2
100
AcDbEntity
  8
0
 48
0.5
100
AcDbLine
 10
775.2563051066929
 20
67.4382827816803
 30
0.0
 11
748.9837978956245
 21
67.43828278168073
 31
0.0
  0
LINE
  5
11C6
330
2
100
AcDbEntity
  8
0
 48
0.5
100
AcDbLine
 10
775.2563051066929
 20
111.4382827816803
 30
0.0
 11
748.9837978956245
 21
111.4382827816803
 31
0.0
  0
LINE
  5
11C7
330
2
100
AcDbEntity
  8
0
100
AcDbLine
 10
614.2563051066933
 20
106.7382827816806
 30
0.0
 11
775.2563051066929
 21
106.7382827816802
 31
0.0
  0
LINE
  5
11C8
330
2
100
AcDbEntity
  8
0
100
AcDbLine
 10
753.2563051066929
 20
104.1382827816805
 30
0.0
 11
753.2563051066929
 21
74.73828278168048
 31
0.0
  0
LINE
  5
11C9
330
2
100
AcDbEntity
  8
0
100
AcDbLine
 10
754.6063051066928
 20
104.1382827816805
 30
0.0
 11
754.6063051066928
 21
74.73828278168048
 31
0.0
  0
LINE
  5
11CA
330
2
100
AcDbEntity
  8
0
100
AcDbLine
 10
773.2563051066929
 20
103.4382827816803
 30
0.0
 11
773.2563051066929
 21
75.4382827816803
 31
0.0
  0
LINE
  5
11CB
330
2
100
AcDbEntity
  8
0
100
AcDbLine
 10
763.7563051066929
 20
74.9382827816803
 30
0.0
 11
763.7563051066929
 21
103.9382827816802
 31
0.0
  0
LINE
  5
11CC
330
2
100
AcDbEntity
  8
0
100
AcDbLine
 10
770.7563051066929
 20
74.9382827816803
 30
0.0
 11
770.7563051066929
 21
103.9382827816802
 31
0.0
  0
LINE
  5
11CD
330
2
100
AcDbEntity
  8
0
100
AcDbLine
 10
775.2563051066929
 20
111.4382827816803
 30
0.0
 11
775.2563051066929
 21
67.43828278168007
 31
0.0
  0
LINE
  5
11CE
330
2
100
AcDbEntity
  8
0
100
AcDbLine
 10
770.7563051066929
 20
75.4382827816803
 30
0.0
 11
773.2563051066929
 21
75.4382827816803
 31
0.0
  0
LINE
  5
11CF
330
2
100
AcDbEntity
  8
0
100
AcDbLine
 10
773.2563051066929
 20
75.4382827816803
 30
0.0
 11
775.2563051066929
 21
74.28358224330122
 31
0.0
  0
LINE
  5
11D0
330
2
100
AcDbEntity
  8
0
100
AcDbLine
 10
754.6063051066928
 20
75.4382827816803
 30
0.0
 11
763.7563051066929
 21
75.4382827816803
 31
0.0
  0
LINE
  5
11D1
330
2
100
AcDbEntity
  8
0
100
AcDbLine
 10
763.7563051066929
 20
74.9382827816803
 30
0.0
 11
770.7563051066929
 21
74.9382827816803
 31
0.0
  0
LINE
  5
11D2
330
2
100
AcDbEntity
  8
0
100
AcDbLine
 10
753.2563051066929
 20
74.73828278168048
 30
0.0
 11
754.6063051066928
 21
74.73828278168048
 31
0.0
  0
LINE
  5
11D3
330
2
100
AcDbEntity
  8
0
100
AcDbLine
 10
770.7563051066929
 20
103.4382827816803
 30
0.0
 11
773.2563051066929
 21
103.4382827816803
 31
0.0
  0
LINE
  5
11D4
330
2
100
AcDbEntity
  8
0
100
AcDbLine
 10
773.2563051066929
 20
103.4382827816798
 30
0.0
 11
775.2563051066929
 21
104.5929833200593
 31
0.0
  0
LINE
  5
11D5
330
2
100
AcDbEntity
  8
0
100
AcDbLine
 10
754.6063051066928
 20
103.4382827816803
 30
0.0
 11
763.7563051066929
 21
103.4382827816803
 31
0.0
  0
LINE
  5
11D6
330
2
100
AcDbEntity
  8
0
100
AcDbLine
 10
763.7563051066929
 20
103.9382827816802
 30
0.0
 11
770.7563051066929
 21
103.9382827816802
 31
0.0
  0
LINE
  5
11D7
330
2
100
AcDbEntity
  8
HOJO
100
AcDbLine
 10
770.2561981066931
 20
106.7382397816804
 30
0.0
 11
770.2561981066931
 21
111.4382367816801
 31
0.0
  0
LINE
  5
11D8
330
2
100
AcDbEntity
  8
HOJO
100
AcDbLine
 10
764.2561981066931
 20
106.7382397816804
 30
0.0
 11
764.2561981066931
 21
111.4382367816801
 31
0.0
  0
LINE
  5
11D9
330
2
100
AcDbEntity
  8
CENTER
100
AcDbLine
 10
767.256198106693
 20
104.9239834054708
 30
0.0
 11
767.256198106693
 21
113.3854707721959
 31
0.0
  0
LINE
  5
11DA
330
2
100
AcDbEntity
  8
0
100
AcDbLine
 10
764.8561981066929
 20
106.7382397816804
 30
0.0
 11
764.8561981066929
 21
111.4382367816801
 31
0.0
  0
LINE
  5
11DB
330
2
100
AcDbEntity
  8
0
100
AcDbLine
 10
769.6561981066927
 20
106.7382397816804
 30
0.0
 11
769.6561981066927
 21
111.4382367816801
 31
0.0
  0
LINE
  5
11DC
330
2
100
AcDbEntity
  8
0
100
AcDbLine
 10
753.2563051066929
 20
104.1382827816805
 30
0.0
 11
754.6063051066928
 21
104.1382827816805
 31
0.0
  0
LINE
  5
11DD
330
2
100
AcDbEntity
  8
0
100
AcDbLine
 10
644.2563051066933
 20
103.9382827816805
 30
0.0
 11
738.2563051066929
 21
103.9382827816813
 31
0.0
  0
LINE
  5
11DE
330
2
100
AcDbEntity
  8
0
100
AcDbLine
 10
738.2563051066929
 20
103.9382827816802
 30
0.0
 11
738.2563051066929
 21
74.93828278167973
 31
0.0
  0
LINE
  5
11DF
330
2
100
AcDbEntity
  8
0
100
AcDbLine
 10
616.2563051066934
 20
103.4382827816805
 30
0.0
 11
616.2563051066934
 21
75.43828278168007
 31
0.0
  0
LINE
  5
11E0
330
2
100
AcDbEntity
  8
0
100
AcDbLine
 10
630.2563051066933
 20
104.1382827816805
 30
0.0
 11
630.2563051066933
 21
74.73828278168003
 31
0.0
  0
LINE
  5
11E1
330
2
100
AcDbEntity
  8
0
100
AcDbLine
 10
628.9063051066935
 20
104.1382827816805
 30
0.0
 11
628.9063051066935
 21
74.73828278168003
 31
0.0
  0
LINE
  5
11E2
330
2
100
AcDbEntity
  8
0
100
AcDbLine
 10
644.2563051066933
 20
103.9382827816807
 30
0.0
 11
644.2563051066933
 21
74.93828278168042
 31
0.0
  0
LINE
  5
11E3
330
2
100
AcDbEntity
  8
0
100
AcDbLine
 10
614.2563051066933
 20
111.4382827816805
 30
0.0
 11
614.2563051066933
 21
67.4382827816803
 31
0.0
  0
LINE
  5
11E4
330
2
100
AcDbEntity
  8
0
 48
0.5
100
AcDbLine
 10
614.2563051066933
 20
67.4382827816803
 30
0.0
 11
631.1145051607438
 21
67.4382827816803
 31
0.0
  0
LINE
  5
11E5
330
2
100
AcDbEntity
  8
0
100
AcDbLine
 10
616.2563051066934
 20
75.43828278168007
 30
0.0
 11
628.9063051066935
 21
75.4382827816803
 31
0.0
  0
LINE
  5
11E6
330
2
100
AcDbEntity
  8
0
100
AcDbLine
 10
628.9063051066935
 20
74.73828278168003
 30
0.0
 11
630.2563051066933
 21
74.73828278168003
 31
0.0
  0
LINE
  5
11E7
330
2
100
AcDbEntity
  8
0
100
AcDbLine
 10
616.2563051066934
 20
75.43828278168007
 30
0.0
 11
614.2563051066933
 21
74.28358224330077
 31
0.0
  0
LINE
  5
11E8
330
2
100
AcDbEntity
  8
0
 48
0.5
100
AcDbLine
 10
614.2563051066933
 20
111.4382827816805
 30
0.0
 11
631.1145051607434
 21
111.4382827816805
 31
0.0
  0
LINE
  5
11E9
330
2
100
AcDbEntity
  8
0
100
AcDbLine
 10
616.2563051066934
 20
103.4382827816805
 30
0.0
 11
628.9063051066935
 21
103.4382827816805
 31
0.0
  0
LINE
  5
11EA
330
2
100
AcDbEntity
  8
0
100
AcDbLine
 10
630.2563051066933
 20
103.4382827816805
 30
0.0
 11
644.2563051066933
 21
103.4382827816805
 31
0.0
  0
LINE
  5
11EB
330
2
100
AcDbEntity
  8
0
100
AcDbLine
 10
630.2563051066933
 20
103.4382827816807
 30
0.0
 11
644.2563051066933
 21
103.4382827816807
 31
0.0
  0
LINE
  5
11EC
330
2
100
AcDbEntity
  8
0
100
AcDbLine
 10
628.9063051066935
 20
104.1382827816805
 30
0.0
 11
630.2563051066933
 21
104.1382827816805
 31
0.0
  0
LINE
  5
11ED
330
2
100
AcDbEntity
  8
0
100
AcDbLine
 10
616.2563051066934
 20
103.4382827816805
 30
0.0
 11
614.2563051066933
 21
104.5929833200598
 31
0.0
  0
LINE
  5
11EE
330
2
100
AcDbEntity
  8
0
100
AcDbLine
 10
738.2563051066929
 20
75.43828278168075
 30
0.0
 11
753.2563051066929
 21
75.43828278168075
 31
0.0
  0
LINE
  5
11EF
330
2
100
AcDbEntity
  8
0
100
AcDbLine
 10
644.2563051066933
 20
74.93828278168042
 30
0.0
 11
738.2563051066929
 21
74.93828278167973
 31
0.0
  0
LINE
  5
11F0
330
2
100
AcDbEntity
  8
0
100
AcDbLine
 10
630.2563051066933
 20
75.43828278168018
 30
0.0
 11
644.2563051066933
 21
75.43828278168018
 31
0.0
  0
LINE
  5
11F1
330
2
100
AcDbEntity
  8
0
100
AcDbLine
 10
627.256305106701
 20
121.9382827816805
 30
0.0
 11
617.2563051067011
 21
111.4382827816805
 31
0.0
  0
LINE
  5
11F2
330
2
100
AcDbEntity
  8
0
100
AcDbLine
 10
617.2563051067011
 20
121.9382827816805
 30
0.0
 11
627.256305106701
 21
111.4382827816805
 31
0.0
  0
LINE
  5
11F3
330
2
100
AcDbEntity
  8
0
100
AcDbLine
 10
627.256305106701
 20
56.93828278168052
 30
0.0
 11
617.2563051067006
 21
56.93828278168052
 31
0.0
  0
LINE
  5
11F4
330
2
100
AcDbEntity
  8
0
100
AcDbLine
 10
617.2563051067006
 20
56.93828278168027
 30
0.0
 11
617.2563051067011
 21
67.43828278168052
 31
0.0
  0
LINE
  5
11F5
330
2
100
AcDbEntity
  8
0
100
AcDbLine
 10
627.256305106701
 20
56.93828278168064
 30
0.0
 11
627.256305106701
 21
67.43828278168052
 31
0.0
  0
LINE
  5
11F6
330
2
100
AcDbEntity
  8
0
100
AcDbLine
 10
627.256305106701
 20
56.93828278168052
 30
0.0
 11
617.2563051067011
 21
67.43828278168052
 31
0.0
  0
LINE
  5
11F7
330
2
100
AcDbEntity
  8
0
100
AcDbLine
 10
617.2563051067011
 20
56.93828278168052
 30
0.0
 11
627.256305106701
 21
67.43828278168052
 31
0.0
  0
LINE
  5
11F8
330
2
100
AcDbEntity
  8
0
100
AcDbLine
 10
617.2563051067011
 20
54.11830203686466
 30
0.0
 11
617.2563051067011
 21
51.93828278168076
 31
0.0
  0
LINE
  5
11F9
330
2
100
AcDbEntity
  8
0
100
AcDbLine
 10
617.2563051067011
 20
124.7582622436306
 30
0.0
 11
617.2563051067011
 21
126.9382827816803
 31
0.0
  0
LINE
  5
11FA
330
2
100
AcDbEntity
  8
0
100
AcDbLine
 10
751.2563051067038
 20
121.9382827816805
 30
0.0
 11
751.2563051067043
 21
111.4382827816803
 31
0.0
  0
LINE
  5
11FB
330
2
100
AcDbEntity
  8
0
100
AcDbLine
 10
761.2563051067042
 20
121.9382827816801
 30
0.0
 11
761.2563051067042
 21
111.4382827816803
 31
0.0
  0
LINE
  5
11FC
330
2
100
AcDbEntity
  8
0
100
AcDbLine
 10
761.2563051067042
 20
121.9382827816803
 30
0.0
 11
751.2563051067043
 21
111.4382827816803
 31
0.0
  0
LINE
  5
11FD
330
2
100
AcDbEntity
  8
0
100
AcDbLine
 10
751.2563051067043
 20
121.9382827816803
 30
0.0
 11
761.2563051067042
 21
111.4382827816803
 31
0.0
  0
LINE
  5
11FE
330
2
100
AcDbEntity
  8
0
100
AcDbLine
 10
761.2563051067042
 20
56.9382827816803
 30
0.0
 11
751.2563051067038
 21
56.9382827816803
 31
0.0
  0
LINE
  5
11FF
330
2
100
AcDbEntity
  8
0
100
AcDbLine
 10
751.2563051067038
 20
56.93828278168002
 30
0.0
 11
751.2563051067043
 21
67.43828278168027
 31
0.0
  0
LINE
  5
1200
330
2
100
AcDbEntity
  8
0
100
AcDbLine
 10
761.2563051067042
 20
56.93828278168041
 30
0.0
 11
761.2563051067042
 21
67.43828278168027
 31
0.0
  0
LINE
  5
1201
330
2
100
AcDbEntity
  8
0
100
AcDbLine
 10
761.2563051067042
 20
56.9382827816803
 30
0.0
 11
751.2563051067043
 21
67.43828278168027
 31
0.0
  0
LINE
  5
1202
330
2
100
AcDbEntity
  8
0
100
AcDbLine
 10
751.2563051067043
 20
56.9382827816803
 30
0.0
 11
761.2563051067042
 21
67.43828278168027
 31
0.0
  0
SPLINE
  5
1203
330
2
100
AcDbEntity
  8
HOJO
100
AcDbSpline
210
0.0
220
0.0
230
1.0
 70
     8
 71
     3
 72
    18
 73
    14
 74
    12
 42
0.0000000001
 43
0.0000000001
 44
0.0000000001
 40
0.0
 40
0.0
 40
0.0
 40
0.0
 40
5.809783443223138
 40
13.51477729882347
 40
24.58715504261548
 40
31.45508498458557
 40
40.33886006210784
 40
58.60354852045801
 40
92.26213163444706
 40
121.7748873031241
 40
142.1253298300728
 40
152.1712899157985
 40
165.345901110267
 40
165.345901110267
 40
165.345901110267
 40
165.345901110267
 10
616.2563051067039
 20
124.7634315724719
 30
0.0
 10
618.1342866696487
 20
124.7561522026028
 30
0.0
 10
622.5028664700028
 20
124.7392188584226
 30
0.0
 10
632.1268269092614
 20
122.4210762838438
 30
0.0
 10
628.4977135452392
 20
109.3954333640283
 30
0.0
 10
639.5318844758924
 20
109.1084510509837
 30
0.0
 10
650.1169606908036
 20
110.0942464775211
 30
0.0
 10
670.6741195673473
 20
108.855930005579
 30
0.0
 10
699.0341330564098
 20
107.9933180145449
 30
0.0
 10
722.1368667213091
 20
112.0462296868578
 30
0.0
 10
752.5337306902622
 20
104.5695884718099
 30
0.0
 10
746.5048006784989
 20
124.9716909147145
 30
0.0
 10
756.55445303565
 20
124.5853223785447
 30
0.0
 10
762.2563051067043
 20
124.3661091998339
 30
0.0
 11
616.2563051067039
 21
124.7634315724719
 31
0.0
 11
622.0605255346338
 21
124.5092488013208
 31
0.0
 11
629.12382219709
 21
121.4308124168921
 31
0.0
 11
631.680812958238
 21
110.6577280327139
 31
0.0
 11
638.4026790804612
 21
109.2488357292652
 31
0.0
 11
647.2760363471364
 21
109.6789408861152
 31
0.0
 11
665.535260671016
 21
109.2322065457813
 31
0.0
 11
699.1931076994799
 21
109.0096067932465
 31
0.0
 11
728.7023771148335
 21
109.4632208705245
 31
0.0
 11
748.9638864008114
 21
111.3636819979558
 31
0.0
 11
749.4200948801947
 21
121.3992780374212
 31
0.0
 11
762.2563051067043
 21
124.3661091998339
 31
0.0
  0
LINE
  5
1204
330
2
100
AcDbEntity
  8
0
 48
0.5
100
AcDbLine
 10
617.2563051067038
 20
121.9382827816803
 30
0.0
 11
627.2563051067038
 21
121.9382827816798
 31
0.0
  0
LINE
  5
1205
330
2
100
AcDbEntity
  8
0
100
AcDbLine
 10
616.2563051067039
 20
122.5156330508698
 30
0.0
 11
617.2563051067038
 21
121.9382827816803
 31
0.0
  0
LINE
  5
1206
330
2
100
AcDbEntity
  8
0
 48
0.5
100
AcDbLine
 10
627.2563051067225
 20
122.3160600884608
 30
0.0
 11
628.3158111327241
 21
122.35305885417
 31
0.0
  0
LINE
  5
1207
330
2
100
AcDbEntity
  8
0
100
AcDbLine
 10
627.2563051067225
 20
122.3160600884608
 30
0.0
 11
627.2563051067038
 21
121.9382827816798
 31
0.0
  0
LINE
  5
1208
330
2
100
AcDbEntity
  8
0
100
AcDbLine
 10
751.2563051067038
 20
122.4382827816805
 30
0.0
 11
750.1068745687469
 21
122.4683816795966
 31
0.0
  0
LINE
  5
1209
330
2
100
AcDbEntity
  8
0
 48
0.5
100
AcDbLine
 10
761.2563051067038
 20
121.9382827816805
 30
0.0
 11
751.2563051067038
 21
121.93828278168
 31
0.0
  0
LINE
  5
120A
330
2
100
AcDbEntity
  8
0
100
AcDbLine
 10
762.2563051067039
 20
122.51563305087
 30
0.0
 11
761.2563051067038
 21
121.9382827816805
 31
0.0
  0
LINE
  5
120B
330
2
100
AcDbEntity
  8
0
100
AcDbLine
 10
751.2563051067038
 20
122.4382827816805
 30
0.0
 11
751.2563051067038
 21
121.93828278168
 31
0.0
  0
SPLINE
  5
120C
330
2
100
AcDbEntity
  8
HOJO
100
AcDbSpline
210
0.0
220
0.0
230
1.0
 70
     8
 71
     3
 72
    18
 73
    14
 74
    12
 42
0.0000000001
 43
0.0000000001
 44
0.0000000001
 40
0.0
 40
0.0
 40
0.0
 40
0.0
 40
5.809783443223138
 40
13.51477729882347
 40
24.58715504261548
 40
31.45508498458557
 40
40.33886006210784
 40
58.60354852045801
 40
92.26213163444706
 40
121.7748873031241
 40
142.1253298300728
 40
152.1712899157985
 40
165.345901110267
 40
165.345901110267
 40
165.345901110267
 40
165.345901110267
 10
616.2563051067039
 20
54.11313399088908
 30
0.0
 10
618.1342866696487
 20
54.12041336075818
 30
0.0
 10
622.5028664700028
 20
54.13734670493838
 30
0.0
 10
632.1268269092614
 20
56.45548927951718
 30
0.0
 10
628.4977135452392
 20
69.48113219933273
 30
0.0
 10
639.5318844758924
 20
69.76811451237728
 30
0.0
 10
650.1169606908036
 20
68.78231908583993
 30
0.0
 10
670.6741195673473
 20
70.02063555778192
 30
0.0
 10
699.0341330564098
 20
70.88324754881615
 30
0.0
 10
722.1368667213091
 20
66.83033587650325
 30
0.0
 10
752.5337306902622
 20
74.30697709155108
 30
0.0
 10
746.5048006784989
 20
53.90487464864655
 30
0.0
 10
756.55445303565
 20
54.29124318481626
 30
0.0
 10
762.2563051067043
 20
54.51045636352706
 30
0.0
 11
616.2563051067039
 21
54.11313399088908
 31
0.0
 11
622.0605255346338
 21
54.36731676204022
 31
0.0
 11
629.12382219709
 21
57.44575314646886
 31
0.0
 11
631.680812958238
 21
68.21883753064708
 31
0.0
 11
638.4026790804612
 21
69.62772983409582
 31
0.0
 11
647.2760363471364
 21
69.19762467724581
 31
0.0
 11
665.535260671016
 21
69.64435901757974
 31
0.0
 11
699.1931076994799
 21
69.86695877011448
 31
0.0
 11
728.7023771148335
 21
69.41334469283652
 31
0.0
 11
748.9638864008114
 21
67.51288356540522
 31
0.0
 11
749.4200948801947
 21
57.4772875259398
 31
0.0
 11
762.2563051067043
 21
54.51045636352706
 31
0.0
  0
LINE
  5
120D
330
2
100
AcDbEntity
  8
0
100
AcDbLine
 10
616.2563051067039
 20
56.36093251249121
 30
0.0
 11
617.2563051067038
 21
56.93828278168076
 31
0.0
  0
LINE
  5
120E
330
2
100
AcDbEntity
  8
0
 48
0.5
100
AcDbLine
 10
627.2563051067225
 20
56.5605054749002
 30
0.0
 11
628.3158111327241
 21
56.52350670919105
 31
0.0
  0
LINE
  5
120F
330
2
100
AcDbEntity
  8
0
100
AcDbLine
 10
627.2563051067225
 20
56.5605054749002
 30
0.0
 11
627.2563051067038
 21
56.93828278168121
 31
0.0
  0
LINE
  5
1210
330
2
100
AcDbEntity
  8
0
100
AcDbLine
 10
751.2563051067038
 20
56.43828278168053
 30
0.0
 11
750.1068745687469
 21
56.40818388376442
 31
0.0
  0
LINE
  5
1211
330
2
100
AcDbEntity
  8
0
100
AcDbLine
 10
762.2563051067039
 20
56.36093251249099
 30
0.0
 11
761.2563051067038
 21
56.93828278168052
 31
0.0
  0
LINE
  5
1212
330
2
100
AcDbEntity
  8
0
100
AcDbLine
 10
751.2563051067038
 20
56.43828278168053
 30
0.0
 11
751.2563051067038
 21
56.93828278168098
 31
0.0
  0
LINE
  5
1213
330
2
100
AcDbEntity
  8
0
 48
0.3
100
AcDbLine
 10
629.756305106702
 20
132.1882827816805
 30
0.0
 11
629.756305106702
 21
146.6882827816805
 31
0.0
  0
LINE
  5
1214
330
2
100
AcDbEntity
  8
0
 48
0.3
100
AcDbLine
 10
629.756305106702
 20
146.6882827816805
 30
0.0
 11
627.756305106702
 21
146.6882827816805
 31
0.0
  0
LINE
  5
1215
330
2
100
AcDbEntity
  8
0
 48
0.3
100
AcDbLine
 10
629.756305106702
 20
132.1882827816805
 30
0.0
 11
627.756305106702
 21
132.1882827816805
 31
0.0
  0
LINE
  5
1216
330
2
100
AcDbEntity
  8
0
100
AcDbLine
 10
627.756305106702
 20
132.1882827816805
 30
0.0
 11
627.756305106702
 21
146.6882827816805
 31
0.0
  0
LINE
  5
1217
330
2
100
AcDbEntity
  8
0
 48
0.3
100
AcDbLine
 10
629.756305106702
 20
32.18828278168052
 30
0.0
 11
629.756305106702
 21
46.68828278168052
 31
0.0
  0
LINE
  5
1218
330
2
100
AcDbEntity
  8
0
 48
0.3
100
AcDbLine
 10
629.756305106702
 20
46.68828278168052
 30
0.0
 11
627.756305106702
 21
46.68828278168052
 31
0.0
  0
LINE
  5
1219
330
2
100
AcDbEntity
  8
0
 48
0.3
100
AcDbLine
 10
629.756305106702
 20
32.18828278168052
 30
0.0
 11
627.756305106702
 21
32.18828278168052
 31
0.0
  0
LINE
  5
121A
330
2
100
AcDbEntity
  8
0
100
AcDbLine
 10
627.756305106702
 20
32.18828278168052
 30
0.0
 11
627.756305106702
 21
46.68828278168052
 31
0.0
  0
LINE
  5
121B
330
2
100
AcDbEntity
  8
0
100
AcDbLine
 10
748.2563051067102
 20
34.43828278168007
 30
0.0
 11
748.2563051067083
 21
68.9372479852685
 31
0.0
  0
LINE
  5
121C
330
2
100
AcDbEntity
  8
0
100
AcDbLine
 10
748.2563051067057
 20
109.9393175780887
 30
0.0
 11
748.2563051067038
 21
144.4382827816798
 31
0.0
  0
LINE
  5
121D
330
2
100
AcDbEntity
  8
0
100
AcDbLine
 10
748.2563051067102
 20
34.43828278168001
 30
0.0
 11
743.2563051067038
 21
34.4382827816803
 31
0.0
  0
LINE
  5
121E
330
2
100
AcDbEntity
  8
0
 48
0.5
100
AcDbLine
 10
743.2563051067038
 20
30.34587703191959
 30
0.0
 11
743.2563051067038
 21
70.91800506118932
 31
0.0
  0
LINE
  5
121F
330
2
100
AcDbEntity
  8
0
 48
0.5
100
AcDbLine
 10
743.2563051067038
 20
107.9585605021716
 30
0.0
 11
743.2563051067038
 21
148.5306885314414
 31
0.0
  0
LINE
  5
1220
330
2
100
AcDbEntity
  8
0
100
AcDbLine
 10
748.2563051067038
 20
144.4382827816798
 30
0.0
 11
743.2563051067038
 21
144.4382827816798
 31
0.0
  0
LINE
  5
1221
330
2
100
AcDbEntity
  8
0
100
AcDbLine
 10
743.2563051067034
 20
30.34587703191959
 30
0.0
 11
639.7563051067002
 21
29.44264621557613
 31
0.0
  0
LINE
  5
1222
330
2
100
AcDbEntity
  8
0
100
AcDbLine
 10
743.2563051067034
 20
148.5306885314414
 30
0.0
 11
639.7563051067002
 21
149.4339193477849
 31
0.0
  0
CIRCLE
  5
1223
330
2
100
AcDbEntity
  8
0
100
AcDbCircle
 10
408.9079672978039
 20
409.2456345049566
 30
0.0
 40
21.99999999999977
  0
LINE
  5
1224
330
2
100
AcDbEntity
  8
0
100
AcDbLine
 10
404.9079672978034
 20
426.5456345049569
 30
0.0
 11
412.9079672978035
 21
426.5456345049569
 31
0.0
  0
LINE
  5
1225
330
2
100
AcDbEntity
  8
0
100
AcDbLine
 10
404.9079672978034
 20
426.5456345049569
 30
0.0
 11
404.9079672978034
 21
422.6620423699554
 31
0.0
  0
LINE
  5
1226
330
2
100
AcDbEntity
  8
0
100
AcDbLine
 10
412.9079672978035
 20
426.5456345049569
 30
0.0
 11
412.9079672978039
 21
422.6620423699555
 31
0.0
  0
ARC
  5
1227
330
2
100
AcDbEntity
  8
0
100
AcDbCircle
 10
408.9079672978034
 20
409.245634504957
 30
0.0
 40
15.15470053837842
100
AcDbArc
 50
105.3042448177054
 51
74.69575518229453
  0
ARC
  5
1228
330
2
100
AcDbEntity
  8
0
100
AcDbCircle
 10
408.9079672978039
 20
409.2456345049566
 30
0.0
 40
14.00000000000022
100
AcDbArc
 50
106.6015495990163
 51
73.39845040098365
  0
LINE
  5
1229
330
2
100
AcDbEntity
  8
0
 48
0.5
100
AcDbLine
 10
745.8863915963027
 20
431.2456345054331
 30
0.0
 11
732.8863915965318
 21
431.2456345049862
 31
0.0
  0
LINE
  5
122A
330
2
100
AcDbEntity
  8
0
 48
0.5
100
AcDbLine
 10
745.8863915978152
 20
387.2456345054331
 30
0.0
 11
732.8863915976082
 21
387.2456345049862
 31
0.0
  0
LINE
  5
122B
330
2
100
AcDbEntity
  8
0
100
AcDbLine
 10
745.8863915978152
 20
387.2456345054331
 30
0.0
 11
745.8863915963027
 21
431.2456345054333
 31
0.0
  0
LINE
  5
122C
330
2
100
AcDbEntity
  8
0
100
AcDbLine
 10
584.8863915978156
 20
387.2456344998992
 30
0.0
 11
584.8863915963031
 21
431.2456344998995
 31
0.0
  0
LINE
  5
122D
330
2
100
AcDbEntity
  8
0
 48
0.5
100
AcDbLine
 10
584.8863915963031
 20
431.2456344998995
 30
0.0
 11
586.8863915964741
 21
431.2456344999682
 31
0.0
  0
LINE
  5
122E
330
2
100
AcDbEntity
  8
0
 48
0.5
100
AcDbLine
 10
584.8863915978156
 20
387.2456344998992
 30
0.0
 11
586.8863915977165
 21
387.245634499968
 31
0.0
  0
LINE
  5
122F
330
2
100
AcDbEntity
  8
CENTER
100
AcDbLine
 10
737.886391597184
 20
401.9929533379593
 30
0.0
 11
737.8863915969352
 21
416.4540001301771
 31
0.0
  0
LINE
  5
1230
330
2
100
AcDbEntity
  8
PHAS
100
AcDbLine
 10
587.5340343777554
 20
369.8652428451607
 30
0.0
 11
594.3863915970671
 21
369.7456345049861
 31
0.0
  0
LINE
  5
1231
330
2
100
AcDbEntity
  8
PHAS
100
AcDbLine
 10
584.5863915970669
 20
372.8647859306304
 30
0.0
 11
584.5863915970678
 21
445.6264830793427
 31
0.0
  0
LINE
  5
1232
330
2
100
AcDbEntity
  8
PHAS
100
AcDbLine
 10
564.8863915970671
 20
385.9147741808294
 30
0.0
 11
564.8863915970671
 21
432.5764948291427
 31
0.0
  0
ARC
  5
1233
330
2
100
AcDbEntity
  8
PHAS
100
AcDbCircle
 10
587.5863915970669
 20
372.8647859306304
 30
0.0
 40
3.0
100
AcDbArc
 50
180.0
 51
268.9999999999721
  0
ARC
  5
1234
330
2
100
AcDbEntity
  8
PHAS
100
AcDbCircle
 10
583.5863915970669
 20
377.4065348738088
 30
0.0
 40
1.0
100
AcDbArc
 50
0.0
 51
79.99999999999484
  0
ARC
  5
1235
330
2
100
AcDbEntity
  8
PHAS
100
AcDbCircle
 10
569.8863915970671
 20
385.9147741808294
 30
0.0
 40
5.0
100
AcDbArc
 50
180.0
 51
259.9999999999948
  0
LINE
  5
1236
330
2
100
AcDbEntity
  8
PHAS
100
AcDbLine
 10
569.018150708732
 20
380.9907354157687
 30
0.0
 11
583.760039774734
 21
378.3913426268211
 31
0.0
  0
ARC
  5
1237
330
2
100
AcDbEntity
  8
PHAS
100
AcDbCircle
 10
583.5863915970669
 20
441.0847341361634
 30
0.0
 40
1.0
100
AcDbArc
 50
280.0000000000051
 51
0.0
  0
ARC
  5
1238
330
2
100
AcDbEntity
  8
PHAS
100
AcDbCircle
 10
569.8863915970671
 20
432.5764948291427
 30
0.0
 40
5.0
100
AcDbArc
 50
100.0000000000051
 51
180.0
  0
LINE
  5
1239
330
2
100
AcDbEntity
  8
PHAS
100
AcDbLine
 10
569.018150708732
 20
437.5005335942043
 30
0.0
 11
583.760039774734
 21
440.099926383152
 31
0.0
  0
LINE
  5
123A
330
2
100
AcDbEntity
  8
PHAS
100
AcDbLine
 10
594.3863915970671
 20
448.7456345049861
 30
0.0
 11
594.3863915970671
 21
369.7456345049861
 31
0.0
  0
LINE
  5
123B
330
2
100
AcDbEntity
  8
PHAS
100
AcDbLine
 10
587.5340343777554
 20
448.6260261648115
 30
0.0
 11
594.3863915970671
 21
448.7456345049861
 31
0.0
  0
ARC
  5
123C
330
2
100
AcDbEntity
  8
PHAS
100
AcDbCircle
 10
587.5863915970669
 20
445.6264830793418
 30
0.0
 40
3.0
100
AcDbArc
 50
91.00000000002784
 51
180.0
  0
LINE
  5
123D
330
2
100
AcDbEntity
  8
0
 48
0.5
100
AcDbLine
 10
979.7993338813679
 20
701.6662436844738
 30
0.0
 11
979.7993338811441
 21
714.6662436842445
 31
0.0
  0
LINE
  5
123E
330
2
100
AcDbEntity
  8
0
 48
0.5
100
AcDbLine
 10
935.7993338813678
 20
701.6662436837175
 30
0.0
 11
935.7993338811445
 21
714.6662436839242
 31
0.0
  0
LINE
  5
123F
330
2
100
AcDbEntity
  8
0
100
AcDbLine
 10
935.7993338813678
 20
701.6662436837175
 30
0.0
 11
979.7993338813679
 21
701.6662436844738
 31
0.0
  0
LINE
  5
1240
330
2
100
AcDbEntity
  8
0
100
AcDbLine
 10
935.7993338786011
 20
862.666243683717
 30
0.0
 11
979.7993338786012
 21
862.6662436844734
 31
0.0
  0
LINE
  5
1241
330
2
100
AcDbEntity
  8
0
 48
0.5
100
AcDbLine
 10
979.7993338786012
 20
862.6662436844734
 30
0.0
 11
979.7993338786357
 21
860.6662436843022
 31
0.0
  0
LINE
  5
1242
330
2
100
AcDbEntity
  8
0
 48
0.5
100
AcDbLine
 10
935.7993338786011
 20
862.666243683717
 30
0.0
 11
935.7993338786352
 21
860.6662436838162
 31
0.0
  0
LINE
  5
1243
330
2
100
AcDbEntity
  8
CENTER
100
AcDbLine
 10
950.5466527140313
 20
709.6662436840952
 30
0.0
 11
965.0076995062493
 21
709.6662436840952
 31
0.0
  0
CIRCLE
  5
1250
330
2
100
AcDbEntity
  8
0
100
AcDbCircle
 10
957.7993338811436
 20
709.6662436840952
 30
0.0
 40
2.39999999999992
  0
CIRCLE
  5
1251
330
2
100
AcDbEntity
  8
0
100
AcDbCircle
 10
737.8863915970594
 20
409.245634504986
 30
0.0
 40
2.39999999999992
  0
ARC
  5
1252
330
2
100
AcDbEntity
  8
0
100
AcDbCircle
 10
1038.825244952975
 20
842.6662436840922
 30
0.0
 40
8.0
100
AcDbArc
 50
270.0
 51
358.5000000000103
  0
LINE
  5
1253
330
2
100
AcDbEntity
  8
0
100
AcDbLine
 10
1038.825244952977
 20
834.6662436840922
 30
0.0
 11
1036.721804493905
 21
834.6662436840917
 31
0.0
  0
ARC
  5
1254
330
2
100
AcDbEntity
  8
0
100
AcDbCircle
 10
1036.721804493906
 20
831.6662436840918
 30
0.0
 40
3.0
100
AcDbArc
 50
90.0
 51
178.5000000000038
  0
LINE
  5
1255
330
2
100
AcDbEntity
  8
0
100
AcDbLine
 10
1030.719747738961
 20
828.6662436840918
 30
0.0
 11
1020.206021106529
 21
828.6662436840915
 31
0.0
  0
ARC
  5
1256
330
2
100
AcDbEntity
  8
0
100
AcDbCircle
 10
1020.206021106529
 20
831.6662436840916
 30
0.0
 40
3.0
100
AcDbArc
 50
180.5000000000045
 51
270.0
  0
LINE
  5
1257
330
2
100
AcDbEntity
  8
0
100
AcDbLine
 10
1033.799333881142
 20
831.6662436840918
 30
0.0
 11
1033.799333881142
 21
831.6662436840918
 31
0.0
  0
LINE
  5
1258
330
2
100
AcDbEntity
  8
0
100
AcDbLine
 10
1033.799333881142
 20
769.6662436840854
 30
0.0
 11
1033.799333881142
 21
769.6662436840854
 31
0.0
  0
LINE
  5
1259
330
2
100
AcDbEntity
  8
0
100
AcDbLine
 10
1033.064071674657
 20
806.5877128391631
 30
0.0
 11
1033.722832518979
 21
831.7447745290152
 31
0.0
  0
ARC
  5
125A
330
2
100
AcDbEntity
  8
0
100
AcDbCircle
 10
1030.719747738961
 20
831.6662436840918
 30
0.0
 40
3.0
100
AcDbArc
 50
270.0
 51
358.5000000000038
  0
ARC
  5
125B
330
2
100
AcDbEntity
  8
0
100
AcDbCircle
 10
1030.065099699731
 20
806.6662436840868
 30
0.0
 40
3.0
100
AcDbArc
 50
270.0
 51
358.5000000000038
  0
ARC
  5
125C
330
2
100
AcDbEntity
  8
0
100
AcDbCircle
 10
1038.825244952975
 20
758.666243684085
 30
0.0
 40
8.0
100
AcDbArc
 50
1.499999999989688
 51
90.0
  0
LINE
  5
125D
330
2
100
AcDbEntity
  8
0
100
AcDbLine
 10
1038.825244952977
 20
766.666243684085
 30
0.0
 11
1036.721804493905
 21
766.6662436840854
 31
0.0
  0
ARC
  5
125E
330
2
100
AcDbEntity
  8
0
100
AcDbCircle
 10
1036.721804493906
 20
769.6662436840854
 30
0.0
 40
3.0
100
AcDbArc
 50
181.4999999999962
 51
269.9999999999739
  0
LINE
  5
125F
330
2
100
AcDbEntity
  8
0
100
AcDbLine
 10
1030.719747738961
 20
772.6662436840854
 30
0.0
 11
1020.206021106529
 21
772.6662436840856
 31
0.0
  0
ARC
  5
1260
330
2
100
AcDbEntity
  8
0
100
AcDbCircle
 10
1020.206021106529
 20
769.6662436840856
 30
0.0
 40
3.0
100
AcDbArc
 50
90.0
 51
179.4999999999954
  0
LINE
  5
1261
330
2
100
AcDbEntity
  8
0
100
AcDbLine
 10
1033.799333881142
 20
769.6662436840854
 30
0.0
 11
1033.799333881142
 21
769.6662436840854
 31
0.0
  0
LINE
  5
1262
330
2
100
AcDbEntity
  8
0
100
AcDbLine
 10
1033.064071674657
 20
794.7447745290141
 30
0.0
 11
1033.722832518979
 21
769.5877128391619
 31
0.0
  0
ARC
  5
1263
330
2
100
AcDbEntity
  8
0
100
AcDbCircle
 10
1030.719747738961
 20
769.6662436840854
 30
0.0
 40
3.0
100
AcDbArc
 50
1.499999999996204
 51
90.0
  0
ARC
  5
1264
330
2
100
AcDbEntity
  8
0
100
AcDbCircle
 10
1030.065099699731
 20
794.6662436840904
 30
0.0
 40
3.0
100
AcDbArc
 50
1.499999999996204
 51
90.0
  0
CIRCLE
  5
191C
330
2
100
AcDbEntity
  8
HOJO
100
AcDbCircle
 10
737.8863915970592
 20
409.245634504986
 30
0.0
 40
2.999999999999857
  0
CIRCLE
  5
1924
330
2
100
AcDbEntity
  8
HOJO
100
AcDbCircle
 10
957.7993338811436
 20
709.6662436840952
 30
0.0
 40
2.999999999999857
  0
TEXT
  5
1E89
330
2
100
AcDbEntity
  8
TITLE
100
AcDbText
 10
600.535751776257
 20
831.8692728898243
 30
0.0
 40
10.0
  1
AFCZ28S-3~5M2000K75
100
AcDbText
  0
TEXT
  5
1E8A
330
2
100
AcDbEntity
  8
TITLE
100
AcDbText
 10
600.535751776257
 20
815.7132224694732
 30
0.0
 40
10.0
  1
AFCZ28S-3~5L2000K75
100
AcDbText
  0
LINE
  5
2130
330
2
100
AcDbEntity
  8
0
100
AcDbLine
 10
1063.299333881141
 20
469.2456345049879
 30
0.0
 11
1063.299333881141
 21
349.2456345049861
 31
0.0
  0
LINE
  5
242D
330
2
100
AcDbEntity
  8
0
100
AcDbLine
 10
1063.299333881141
 20
469.2456345049879
 30
0.0
 11
1063.299333881141
 21
349.2456345049861
 31
0.0
  0
LINE
  5
2687
330
2
100
AcDbEntity
  8
0
100
AcDbLine
 10
1063.299333881141
 20
469.2456345049879
 30
0.0
 11
1063.299333881141
 21
349.2456345049861
 31
0.0
  0
LINE
  5
29B8
330
2
100
AcDbEntity
  8
0
100
AcDbLine
 10
1063.299333881141
 20
469.2456345049861
 30
0.0
 11
1063.299333881141
 21
349.2456345049861
 31
0.0
  0
LINE
  5
2A21
330
2
100
AcDbEntity
  8
CENTER
100
AcDbLine
 10
700.0827841926118
 20
409.2456345049859
 30
0.0
 11
691.0827841926118
 21
409.2456345049859
 31
0.0
  0
LINE
  5
2A22
330
2
100
AcDbEntity
  8
CENTER
100
AcDbLine
 10
602.6899989706059
 20
409.2456345359019
 30
0.0
 11
593.6899989706059
 21
409.2456345359019
 31
0.0
  0
LINE
  5
2A85
330
2
100
AcDbEntity
  8
0
100
AcDbLine
 10
303.4079672978068
 20
469.2456345049861
 30
0.0
 11
303.4079672978068
 21
349.2456345049861
 31
0.0
  0
LINE
  5
2D9B
330
2
100
AcDbEntity
  8
0
100
AcDbLine
 10
1063.299333881141
 20
469.2456345049861
 30
0.0
 11
1063.299333881141
 21
349.2456345049861
 31
0.0
  0
LINE
  5
2F83
330
2
100
AcDbEntity
  8
0
100
AcDbLine
 10
1063.299333881141
 20
469.2456345049861
 30
0.0
 11
1063.299333881141
 21
349.2456345049861
 31
0.0
  0
LINE
  5
3273
330
2
100
AcDbEntity
  8
0
100
AcDbLine
 10
1063.299333881141
 20
469.2456345049861
 30
0.0
 11
1063.299333881141
 21
349.2456345049861
 31
0.0
  0
LINE
  5
3319
330
2
100
AcDbEntity
  8
CENTER
100
AcDbLine
 10
700.0827842235287
 20
409.2456345049856
 30
0.0
 11
691.0827842235287
 21
409.2456345049856
 31
0.0
  0
LINE
  5
331A
330
2
100
AcDbEntity
  8
CENTER
100
AcDbLine
 10
602.6899990015229
 20
409.2456345359021
 30
0.0
 11
593.6899990015229
 21
409.2456345359021
 31
0.0
  0
LINE
  5
3323
330
2
100
AcDbEntity
  8
0
100
AcDbLine
 10
303.4079672978068
 20
469.2456345049861
 30
0.0
 11
303.4079672978068
 21
349.2456345049861
 31
0.0
  0
LINE
  5
36B8
330
2
100
AcDbEntity
  8
0
100
AcDbLine
 10
1063.299333881141
 20
349.2456345049861
 30
0.0
 11
1063.299333881141
 21
469.2456345049861
 31
0.0
  0
LINE
  5
36BB
330
2
100
AcDbEntity
  8
0
100
AcDbLine
 10
1063.29933388114
 20
349.2456345049861
 30
0.0
 11
1063.299333881141
 21
469.2456345049864
 31
0.0
  0
LINE
  5
3751
330
2
100
AcDbEntity
  8
0
100
AcDbLine
 10
303.4079672978066
 20
349.2456345049861
 30
0.0
 11
303.4079672978068
 21
469.2456345049863
 31
0.0
  0
LINE
  5
3754
330
2
100
AcDbEntity
  8
0
100
AcDbLine
 10
303.4079672978066
 20
349.2456345049861
 30
0.0
 11
303.407967297807
 21
469.2456345049863
 31
0.0
  0
LINE
  5
3A4D
330
2
100
AcDbEntity
  8
0
 48
0.5
100
AcDbLine
 10
1331.587842389448
 20
387.245634504092
 30
0.0
 11
1342.65183797432
 21
387.2456345048527
 31
0.0
  0
LINE
  5
3A4E
330
2
100
AcDbEntity
  8
0
 48
0.5
100
AcDbLine
 10
1331.587842386423
 20
431.245634504092
 30
0.0
 11
1342.651837974319
 21
431.2456345048526
 31
0.0
  0
LINE
  5
3A4F
330
2
100
AcDbEntity
  8
0
100
AcDbLine
 10
1331.587842386423
 20
431.245634504092
 30
0.0
 11
1331.587842389448
 21
387.2456345040918
 31
0.0
  0
LINE
  5
3C47
330
2
100
AcDbEntity
  8
0
100
AcDbLine
 10
1132.466164367064
 20
468.2456345049838
 30
0.0
 11
1078.092899478589
 21
468.2456345049835
 31
0.0
  0
ARC
  5
3C48
330
2
100
AcDbEntity
  8
0
100
AcDbCircle
 10
1132.466164367064
 20
478.2456345049838
 30
0.0
 40
10.0
100
AcDbArc
 50
270.0
 51
358.9999999999982
  0
ARC
  5
3C49
330
2
100
AcDbEntity
  8
0
100
AcDbCircle
 10
1130.221804493911
 20
465.2456345049836
 30
0.0
 40
3.0
100
AcDbArc
 50
90.0
 51
178.4999999999972
  0
LINE
  5
3C4A
330
2
100
AcDbEntity
  8
0
100
AcDbLine
 10
1063.29933388114
 20
349.2456345049861
 30
0.0
 11
1074.351242091793
 21
349.2456345049861
 31
0.0
  0
ARC
  5
3C4B
330
2
100
AcDbEntity
  8
0
100
AcDbCircle
 10
1074.351242091793
 20
352.2456345049861
 30
0.0
 40
3.0
100
AcDbArc
 50
270.0
 51
358.9999999999982
  0
ARC
  5
3C4C
330
2
100
AcDbEntity
  8
0
100
AcDbCircle
 10
1078.092899478567
 20
345.7456345049861
 30
0.0
 40
4.5
100
AcDbArc
 50
90.0
 51
119.9264348666175
  0
LINE
  5
3C4D
330
2
100
AcDbEntity
  8
0
100
AcDbLine
 10
1078.092899478566
 20
350.2456345049861
 30
0.0
 11
1132.466164367069
 21
350.245634504987
 31
0.0
  0
LINE
  5
3C4E
330
2
100
AcDbEntity
  8
0
100
AcDbLine
 10
1142.747882585024
 20
324.1932772856746
 30
0.0
 11
1141.263288167454
 21
409.2456345049863
 31
0.0
  0
ARC
  5
3C4F
330
2
100
AcDbEntity
  8
0
100
AcDbCircle
 10
1138.376289105355
 20
402.7456345049863
 30
0.0
 40
3.0
100
AcDbArc
 50
1.000000000001762
 51
90.0
  0
ARC
  5
3C50
330
2
100
AcDbEntity
  8
0
100
AcDbCircle
 10
1132.466164367069
 20
340.245634504987
 30
0.0
 40
10.0
100
AcDbArc
 50
1.000000000001762
 51
90.0
  0
LINE
  5
3C51
330
2
100
AcDbEntity
  8
0
100
AcDbLine
 10
1157.799333881146
 20
321.2456345049861
 30
0.0
 11
1157.799333881145
 21
497.2456345049883
 31
0.0
  0
LINE
  5
3C52
330
2
100
AcDbEntity
  8
CENTER
100
AcDbLine
 10
1139.299333881145
 20
457.6896382136744
 30
0.0
 11
1139.299333881145
 21
477.3279312630964
 31
0.0
  0
LINE
  5
3C53
330
2
100
AcDbEntity
  8
0
100
AcDbLine
 10
1127.03711885666
 20
458.232046715306
 30
0.0
 11
1127.222832518983
 21
465.3241653499073
 31
0.0
  0
LINE
  5
3C54
330
2
100
AcDbEntity
  8
0
100
AcDbLine
 10
1118.299333881145
 20
405.7456345049861
 30
0.0
 11
1118.299333881145
 21
409.2456345049866
 31
0.0
  0
LINE
  5
3C55
330
2
100
AcDbEntity
  8
0
100
AcDbLine
 10
1077.350785177262
 20
352.1932772856741
 30
0.0
 11
1078.346637776833
 21
409.2456345049863
 31
0.0
  0
LINE
  5
3C56
330
2
100
AcDbEntity
  8
0
100
AcDbLine
 10
1063.299333881141
 20
349.2456345049861
 30
0.0
 11
1063.29933388114
 21
469.2456345049861
 31
0.0
  0
LINE
  5
3C57
330
2
100
AcDbEntity
  8
0
100
AcDbLine
 10
1157.799333881146
 20
321.2456345049861
 30
0.0
 11
1145.747425670493
 21
321.2456345049865
 31
0.0
  0
ARC
  5
3C58
330
2
100
AcDbEntity
  8
0
100
AcDbCircle
 10
1145.747425670493
 20
324.2456345049865
 30
0.0
 40
3.0
100
AcDbArc
 50
181.0000000000017
 51
270.0
  0
LINE
  5
3C59
330
2
100
AcDbEntity
  8
0
100
AcDbLine
 10
1138.376289105355
 20
405.7456345049863
 30
0.0
 11
1121.299333881145
 21
405.7456345049861
 31
0.0
  0
ARC
  5
3C5A
330
2
100
AcDbEntity
  8
0
100
AcDbCircle
 10
1121.299333881145
 20
402.7456345049861
 30
0.0
 40
3.0
100
AcDbArc
 50
90.0
 51
180.0
  0
LINE
  5
3C5B
330
2
100
AcDbEntity
  8
0
100
AcDbLine
 10
1119.178013537585
 20
349.3669548485463
 30
0.0
 11
1141.862321622922
 21
326.6826467632095
 31
0.0
  0
LINE
  5
3C5C
330
2
100
AcDbEntity
  8
0
100
AcDbLine
 10
1118.299333881145
 20
409.2456345049866
 30
0.0
 11
1118.299333881145
 21
405.7456345049879
 31
0.0
  0
LINE
  5
3C5D
330
2
100
AcDbEntity
  8
0
100
AcDbLine
 10
1157.799333881145
 20
497.2456345049882
 30
0.0
 11
1145.747425670487
 21
497.2456345049879
 31
0.0
  0
ARC
  5
3C5E
330
2
100
AcDbEntity
  8
0
100
AcDbCircle
 10
1145.747425670487
 20
494.2456345049879
 30
0.0
 40
3.0
100
AcDbArc
 50
90.0
 51
178.9999999999982
  0
LINE
  5
3C5F
330
2
100
AcDbEntity
  8
0
100
AcDbLine
 10
1063.29933388114
 20
469.2456345049879
 30
0.0
 11
1074.351242091807
 21
469.2456345049879
 31
0.0
  0
LINE
  5
3C60
330
2
100
AcDbEntity
  8
0
100
AcDbLine
 10
1063.299333881141
 20
409.245634504986
 30
0.0
 11
1157.799333881145
 21
409.2456345049863
 31
0.0
  0
LINE
  5
3C61
330
2
100
AcDbEntity
  8
0
100
AcDbLine
 10
1077.350785177276
 20
466.2979917242998
 30
0.0
 11
1077.871818525496
 21
436.4480111963199
 31
0.0
  0
ARC
  5
3C62
330
2
100
AcDbEntity
  8
0
100
AcDbCircle
 10
1074.351242091807
 20
466.2456345049879
 30
0.0
 40
3.0
100
AcDbArc
 50
1.000000000001762
 51
90.0
  0
ARC
  5
3C63
330
2
100
AcDbEntity
  8
0
100
AcDbCircle
 10
1078.092899478588
 20
472.7456345049836
 30
0.0
 40
4.5
100
AcDbArc
 50
240.073565133321
 51
270.0
  0
LINE
  5
3C64
330
2
100
AcDbEntity
  8
0
100
AcDbLine
 10
1142.747882585019
 20
494.2979917242999
 30
0.0
 11
1142.264807623025
 21
466.6226456870386
 31
0.0
  0
LINE
  5
3C66
330
2
100
AcDbEntity
  8
0
100
AcDbLine
 10
1138.438503746163
 20
455.3105775602291
 30
0.0
 11
1124.038146881733
 21
455.3105775602291
 31
0.0
  0
ARC
  5
3C67
330
2
100
AcDbEntity
  8
0
100
AcDbCircle
 10
1124.038146881733
 20
458.3105775602291
 30
0.0
 40
3.0
100
AcDbArc
 50
270.0
 51
358.5000000000102
  0
ARC
  5
3C68
330
2
100
AcDbEntity
  8
0
100
AcDbCircle
 10
1117.056693194026
 20
347.2456345049865
 30
0.0
 40
3.0
100
AcDbArc
 50
44.99999999999077
 51
90.0
  0
ARC
  5
3C69
330
2
100
AcDbEntity
  8
0
100
AcDbCircle
 10
1139.741001279362
 20
324.5613264196497
 30
0.0
 40
3.0
100
AcDbArc
 50
1.000000000001762
 51
44.99999999999077
  0
LINE
  5
3C6A
330
2
100
AcDbEntity
  8
0
100
AcDbLine
 10
1119.178013537586
 20
469.124314161427
 30
0.0
 11
1141.862321622923
 21
491.8086222467634
 31
0.0
  0
ARC
  5
3C6B
330
2
100
AcDbEntity
  8
0
100
AcDbCircle
 10
1117.056693194027
 20
471.2456345049865
 30
0.0
 40
3.0
100
AcDbArc
 50
270.0
 51
315.0000000000092
  0
ARC
  5
3C6C
330
2
100
AcDbEntity
  8
0
100
AcDbCircle
 10
1139.741001279363
 20
493.929942590323
 30
0.0
 40
3.0
100
AcDbArc
 50
315.0000000000092
 51
358.9999999999852
  0
LINE
  5
3C6E
330
2
100
AcDbEntity
  8
0
100
AcDbLine
 10
1132.799333881145
 20
859.6662436840812
 30
0.0
 11
1078.040991267924
 21
859.6662436840835
 31
0.0
  0
LINE
  5
3C6F
330
2
100
AcDbEntity
  8
0
100
AcDbLine
 10
1078.040991267922
 20
741.6662436840816
 30
0.0
 11
1132.799333881145
 21
741.6662436840839
 31
0.0
  0
LINE
  5
3C70
330
2
100
AcDbEntity
  8
0
100
AcDbLine
 10
1142.799333881145
 20
715.6662436840828
 30
0.0
 11
1142.799333881145
 21
762.6477378494759
 31
0.0
  0
ARC
  5
3C71
330
2
100
AcDbEntity
  8
0
100
AcDbCircle
 10
1139.799333881145
 20
761.1662436840828
 30
0.0
 40
3.0
100
AcDbArc
 50
0.0
 51
90.0
  0
LINE
  5
3C72
330
2
100
AcDbEntity
  8
0
100
AcDbLine
 10
1142.799333881145
 20
789.6847495186897
 30
0.0
 11
1142.799333881145
 21
885.6662436840837
 31
0.0
  0
ARC
  5
3C73
330
2
100
AcDbEntity
  8
0
100
AcDbCircle
 10
1139.799333881145
 20
807.1662436840846
 30
0.0
 40
3.0
100
AcDbArc
 50
270.0
 51
0.0
  0
ARC
  5
3C74
330
2
100
AcDbEntity
  8
0
100
AcDbCircle
 10
1139.799333881145
 20
794.1662436840828
 30
0.0
 40
3.0
100
AcDbArc
 50
0.0
 51
90.0
  0
ARC
  5
3C75
330
2
100
AcDbEntity
  8
0
100
AcDbCircle
 10
1132.799333881145
 20
731.6662436840839
 30
0.0
 40
10.0
100
AcDbArc
 50
0.0
 51
90.0
  0
ARC
  5
3C76
330
2
100
AcDbEntity
  8
0
100
AcDbCircle
 10
1132.799333881146
 20
869.6662436840812
 30
0.0
 40
10.0
100
AcDbArc
 50
270.0
 51
0.0
  0
LINE
  5
3C77
330
2
100
AcDbEntity
  8
0
100
AcDbLine
 10
1157.799333881145
 20
712.6662436840821
 30
0.0
 11
1157.799333881146
 21
888.6662436840836
 31
0.0
  0
LINE
  5
3C78
330
2
100
AcDbEntity
  8
0
100
AcDbLine
 10
1118.299333881145
 20
797.1662436840821
 30
0.0
 11
1118.299333881145
 21
804.1662436840821
 31
0.0
  0
LINE
  5
3C79
330
2
100
AcDbEntity
  8
0
100
AcDbLine
 10
1077.299333881141
 20
743.1662436840798
 30
0.0
 11
1077.299333881141
 21
857.6662436840871
 31
0.0
  0
ARC
  5
3C7A
330
2
100
AcDbEntity
  8
0
100
AcDbCircle
 10
1074.299333881141
 20
743.666243684078
 30
0.0
 40
3.0
100
AcDbArc
 50
270.0
 51
0.0
  0
ARC
  5
3C7B
330
2
100
AcDbEntity
  8
0
100
AcDbCircle
 10
1078.040991267922
 20
737.1662436840826
 30
0.0
 40
4.5
100
AcDbArc
 50
90.0
 51
119.9264348666788
  0
LINE
  5
3C7C
330
2
100
AcDbEntity
  8
0
100
AcDbLine
 10
1063.299333881141
 20
740.1662436840835
 30
0.0
 11
1063.299333881141
 21
861.1662436840843
 31
0.0
  0
LINE
  5
3C7D
330
2
100
AcDbEntity
  8
0
100
AcDbLine
 10
1157.799333881145
 20
712.666243684082
 30
0.0
 11
1145.799333881145
 21
712.6662436840828
 31
0.0
  0
ARC
  5
3C7E
330
2
100
AcDbEntity
  8
0
100
AcDbCircle
 10
1145.799333881145
 20
715.6662436840828
 30
0.0
 40
3.0
100
AcDbArc
 50
180.0
 51
270.0
  0
LINE
  5
3C7F
330
2
100
AcDbEntity
  8
0
100
AcDbLine
 10
1139.799333881145
 20
797.1662436840828
 30
0.0
 11
1121.299333881145
 21
797.1662436840821
 31
0.0
  0
ARC
  5
3C80
330
2
100
AcDbEntity
  8
0
100
AcDbCircle
 10
1124.299333881169
 20
794.1662436840821
 30
0.0
 40
3.0
100
AcDbArc
 50
0.0
 51
90.0
  0
ARC
  5
3C81
330
2
100
AcDbEntity
  8
0
100
AcDbCircle
 10
1121.299333881145
 20
794.1662436840821
 30
0.0
 40
3.0
100
AcDbArc
 50
90.0
 51
180.0
  0
LINE
  5
3C82
330
2
100
AcDbEntity
  8
0
100
AcDbLine
 10
1118.299333881145
 20
804.1662436840839
 30
0.0
 11
1118.299333881145
 21
797.1662436840839
 31
0.0
  0
LINE
  5
3C83
330
2
100
AcDbEntity
  8
0
100
AcDbLine
 10
1157.799333881146
 20
888.6662436840836
 30
0.0
 11
1145.799333881146
 21
888.6662436840836
 31
0.0
  0
ARC
  5
3C84
330
2
100
AcDbEntity
  8
0
100
AcDbCircle
 10
1145.799333881146
 20
885.6662436840837
 30
0.0
 40
3.0
100
AcDbArc
 50
90.0
 51
180.0
  0
LINE
  5
3C85
330
2
100
AcDbEntity
  8
0
100
AcDbLine
 10
1139.799333881145
 20
804.1662436840846
 30
0.0
 11
1121.299333881145
 21
804.1662436840839
 31
0.0
  0
ARC
  5
3C86
330
2
100
AcDbEntity
  8
0
100
AcDbCircle
 10
1121.299333881145
 20
807.1662436840838
 30
0.0
 40
3.0
100
AcDbArc
 50
180.0
 51
270.0
  0
LINE
  5
3C87
330
2
100
AcDbEntity
  8
0
100
AcDbLine
 10
1119.178013537583
 20
860.5449233405222
 30
0.0
 11
1141.920654224705
 21
883.2875640276471
 31
0.0
  0
LINE
  5
3C88
330
2
100
AcDbEntity
  8
0
100
AcDbLine
 10
1063.299333881141
 20
860.6662436840846
 30
0.0
 11
1074.29933388114
 21
860.6662436840871
 31
0.0
  0
ARC
  5
3C89
330
2
100
AcDbEntity
  8
0
100
AcDbCircle
 10
1074.299333881141
 20
857.6662436840871
 30
0.0
 40
3.0
100
AcDbArc
 50
0.0
 51
90.0
  0
ARC
  5
3C8A
330
2
100
AcDbEntity
  8
0
100
AcDbCircle
 10
1078.040991267924
 20
864.1662436840816
 30
0.0
 40
4.5
100
AcDbArc
 50
240.0735651333211
 51
270.0
  0
LINE
  5
3C8B
330
2
100
AcDbEntity
  8
0
100
AcDbLine
 10
1063.299333881141
 20
861.1662436840846
 30
0.0
 11
1074.29933388114
 21
861.1662436840871
 31
0.0
  0
ARC
  5
3C8C
330
2
100
AcDbEntity
  8
0
100
AcDbCircle
 10
1074.299333881141
 20
858.166243684087
 30
0.0
 40
3.0
100
AcDbArc
 50
53.13010235406478
 51
90.0
  0
ARC
  5
3C8D
330
2
100
AcDbEntity
  8
0
100
AcDbCircle
 10
1078.799333881147
 20
864.1662436840826
 30
0.0
 40
4.5
100
AcDbArc
 50
233.1301023541299
 51
270.0
  0
LINE
  5
3C8E
330
2
100
AcDbEntity
  8
0
100
AcDbLine
 10
1063.299333881141
 20
740.6662436840825
 30
0.0
 11
1074.29933388114
 21
740.666243684078
 31
0.0
  0
LINE
  5
3C8F
330
2
100
AcDbEntity
  8
0
100
AcDbLine
 10
1063.299333881141
 20
740.1662436840825
 30
0.0
 11
1074.29933388114
 21
740.1662436840799
 31
0.0
  0
ARC
  5
3C90
330
2
100
AcDbEntity
  8
0
100
AcDbCircle
 10
1074.299333881141
 20
743.1662436840798
 30
0.0
 40
3.0
100
AcDbArc
 50
270.0
 51
306.86989764587
  0
ARC
  5
3C91
330
2
100
AcDbEntity
  8
0
100
AcDbCircle
 10
1078.799333881145
 20
737.1662436840832
 30
0.0
 40
4.5
100
AcDbArc
 50
90.0
 51
126.86989764587
  0
LINE
  5
3C92
330
2
100
AcDbEntity
  8
0
100
AcDbLine
 10
1130.299333881168
 20
764.166243684083
 30
0.0
 11
1139.799333881145
 21
764.1662436840828
 31
0.0
  0
LINE
  5
3C93
330
2
100
AcDbEntity
  8
CENTER
100
AcDbLine
 10
1128.549333881168
 20
776.166243684083
 30
0.0
 11
1150.049333881168
 21
776.1662436840828
 31
0.0
  0
LINE
  5
3C94
330
2
100
AcDbEntity
  8
CENTER
100
AcDbLine
 10
1139.299333881168
 20
765.4162436840827
 30
0.0
 11
1139.299333881168
 21
786.9162436840828
 31
0.0
  0
LINE
  5
3C95
330
2
100
AcDbEntity
  8
0
100
AcDbLine
 10
1127.299333881168
 20
767.166243684083
 30
0.0
 11
1127.299333881169
 21
794.1662436840821
 31
0.0
  0
ARC
  5
3C96
330
2
100
AcDbEntity
  8
0
100
AcDbCircle
 10
1130.299333881168
 20
767.166243684083
 30
0.0
 40
3.0
100
AcDbArc
 50
180.0
 51
270.0
  0
ARC
  5
3C97
330
2
100
AcDbEntity
  8
0
100
AcDbCircle
 10
1139.299333881168
 20
776.1662436840828
 30
0.0
 40
12.0
100
AcDbArc
 50
295.6792886193367
 51
64.32071138066295
  0
ARC
  5
3C98
330
2
100
AcDbEntity
  8
0
100
AcDbCircle
 10
1145.799333881145
 20
789.6847495186897
 30
0.0
 40
3.0
100
AcDbArc
 50
180.0
 51
244.320711380663
  0
ARC
  5
3C99
330
2
100
AcDbEntity
  8
0
100
AcDbCircle
 10
1145.799333881145
 20
762.6477378494759
 30
0.0
 40
3.0
100
AcDbArc
 50
115.679288619337
 51
180.0
  0
ARC
  5
3C9A
330
2
100
AcDbEntity
  8
0
100
AcDbCircle
 10
1117.056693194023
 20
862.6662436840817
 30
0.0
 40
3.0
100
AcDbArc
 50
269.9999999999934
 51
315.0000000000092
  0
ARC
  5
3C9B
330
2
100
AcDbEntity
  8
0
100
AcDbCircle
 10
1139.799333881145
 20
885.4088843712066
 30
0.0
 40
3.0
100
AcDbArc
 50
315.0000000000092
 51
0.0
  0
LINE
  5
3C9C
330
2
100
AcDbEntity
  8
0
100
AcDbLine
 10
1119.178013537581
 20
740.7875640276428
 30
0.0
 11
1141.920654224702
 21
718.0449233405171
 31
0.0
  0
ARC
  5
3C9D
330
2
100
AcDbEntity
  8
0
100
AcDbCircle
 10
1117.056693194021
 20
738.6662436840833
 30
0.0
 40
3.0
100
AcDbArc
 50
44.99999999999072
 51
90.0
  0
ARC
  5
3C9E
330
2
100
AcDbEntity
  8
0
100
AcDbCircle
 10
1139.799333881142
 20
715.9236029969577
 30
0.0
 40
3.0
100
AcDbArc
 50
0.0
 51
44.99999999999072
  0
LINE
  5
3CA0
330
2
100
AcDbEntity
  8
0
100
AcDbLine
 10
1434.087842387928
 20
475.5779230227342
 30
0.0
 11
1434.087842387928
 21
487.2456345049852
 31
0.0
  0
LINE
  5
3CA1
330
2
100
AcDbEntity
  8
0
100
AcDbLine
 10
1427.087842387927
 20
475.5779230227355
 30
0.0
 11
1427.087842387927
 21
487.2456345049856
 31
0.0
  0
ARC
  5
3CA2
330
2
100
AcDbEntity
  8
0
100
AcDbCircle
 10
1424.087842387927
 20
487.2456345049856
 30
0.0
 40
3.0
100
AcDbArc
 50
0.0
 51
90.0
  0
LINE
  5
3CA4
330
2
100
AcDbEntity
  8
0
100
AcDbLine
 10
1508.360906637095
 20
321.2456345049865
 30
0.0
 11
1352.814778138749
 21
321.2456345049838
 31
0.0
  0
ARC
  5
3CA5
330
2
100
AcDbEntity
  8
0
100
AcDbCircle
 10
1352.814778138749
 20
331.2456345049838
 30
0.0
 40
10.0
100
AcDbArc
 50
180.1666666666621
 51
270.0
  0
LINE
  5
3CA6
330
2
100
AcDbEntity
  8
0
100
AcDbLine
 10
1508.360906637093
 20
497.2456345049847
 30
0.0
 11
1352.81477813875
 21
497.2456345049847
 31
0.0
  0
ARC
  5
3CA7
330
2
100
AcDbEntity
  8
0
100
AcDbCircle
 10
1508.360906637093
 20
487.2456345049847
 30
0.0
 40
10.0
100
AcDbArc
 50
0.1666666666621028
 51
90.0
  0
LINE
  5
3CA8
330
2
100
AcDbEntity
  8
CENTER
100
AcDbLine
 10
1490.298520506579
 20
338.5349563863335
 30
0.0
 11
1512.298520506578
 21
338.5349563863335
 31
0.0
  0
LINE
  5
3CA9
330
2
100
AcDbEntity
  8
CENTER
100
AcDbLine
 10
1501.298520506578
 20
349.534956386328
 30
0.0
 11
1501.298520506578
 21
327.534956386328
 31
0.0
  0
LINE
  5
3CAA
330
2
100
AcDbEntity
  8
CENTER
100
AcDbLine
 10
1501.29852050658
 20
468.9563126236369
 30
0.0
 11
1501.29852050658
 21
490.9563126236369
 31
0.0
  0
LINE
  5
3CAB
330
2
100
AcDbEntity
  8
CENTER
100
AcDbLine
 10
1490.298520506586
 20
479.9563126236368
 30
0.0
 11
1512.298520506586
 21
479.9563126236368
 31
0.0
  0
LINE
  5
3CAC
330
2
100
AcDbEntity
  8
CENTER
100
AcDbLine
 10
1370.877164269276
 20
479.9563126236387
 30
0.0
 11
1348.877164269276
 21
479.9563126236387
 31
0.0
  0
LINE
  5
3CAD
330
2
100
AcDbEntity
  8
CENTER
100
AcDbLine
 10
1359.877164269276
 20
468.9563126236442
 30
0.0
 11
1359.877164269276
 21
490.9563126236442
 31
0.0
  0
LINE
  5
3CAE
330
2
100
AcDbEntity
  8
CENTER
100
AcDbLine
 10
1359.877164269274
 20
349.5349563863353
 30
0.0
 11
1359.877164269274
 21
327.5349563863353
 31
0.0
  0
LINE
  5
3CAF
330
2
100
AcDbEntity
  8
CENTER
100
AcDbLine
 10
1370.877164269269
 20
338.5349563863353
 30
0.0
 11
1348.877164269269
 21
338.5349563863353
 31
0.0
  0
ARC
  5
3CB0
330
2
100
AcDbEntity
  8
0
100
AcDbCircle
 10
1430.587842387922
 20
409.245634504971
 30
0.0
 40
63.650000000006
100
AcDbArc
 50
322.1562536252329
 51
37.84374637478308
  0
ARC
  5
3CB1
330
2
100
AcDbEntity
  8
0
100
AcDbCircle
 10
1430.587842387922
 20
409.245634504971
 30
0.0
 40
63.650000000006
100
AcDbArc
 50
52.1562536252077
 51
127.8437463747531
  0
ARC
  5
3CB2
330
2
100
AcDbEntity
  8
0
100
AcDbCircle
 10
1430.587842387922
 20
409.245634504971
 30
0.0
 40
63.650000000006
100
AcDbArc
 50
142.1562536251983
 51
217.843746374767
  0
ARC
  5
3CB3
330
2
100
AcDbEntity
  8
0
100
AcDbCircle
 10
1430.587842387922
 20
409.245634504971
 30
0.0
 40
63.650000000006
100
AcDbArc
 50
232.1562536252077
 51
307.8437463747922
  0
ARC
  5
3CB4
330
2
100
AcDbEntity
  8
0
100
AcDbCircle
 10
1421.160538855586
 20
475.2255439328648
 30
0.0
 40
3.0
100
AcDbArc
 50
180.0
 51
278.1314658326824
  0
ARC
  5
3CB5
330
2
100
AcDbEntity
  8
0
100
AcDbCircle
 10
1437.087842387928
 20
475.5779230227342
 30
0.0
 40
3.0
100
AcDbArc
 50
180.0
 51
264.4033689414048
  0
ARC
  5
3CB6
330
2
100
AcDbEntity
  8
0
100
AcDbCircle
 10
1424.087842387926
 20
475.5779230227355
 30
0.0
 40
3.0
100
AcDbArc
 50
275.5966310585951
 51
0.0
  0
ARC
  5
3CB7
330
2
100
AcDbEntity
  8
0
100
AcDbCircle
 10
1359.877164269276
 20
338.5349563863362
 30
0.0
 40
12.5
100
AcDbArc
 50
331.9476024175649
 51
118.0523975824643
  0
ARC
  5
3CB8
330
2
100
AcDbEntity
  8
0
100
AcDbCircle
 10
1352.587842387927
 20
352.213983636477
 30
0.0
 40
3.0
100
AcDbArc
 50
180.0
 51
298.0523975824643
  0
LINE
  5
3CB9
330
2
100
AcDbEntity
  8
0
100
AcDbLine
 10
1349.587842387927
 20
466.2772853734943
 30
0.0
 11
1349.587842387927
 21
352.213983636477
 31
0.0
  0
ARC
  5
3CBA
330
2
100
AcDbEntity
  8
0
100
AcDbCircle
 10
1373.556191519417
 20
331.2456345049866
 30
0.0
 40
3.0
100
AcDbArc
 50
151.9476024175356
 51
270.0
  0
LINE
  5
3CBB
330
2
100
AcDbEntity
  8
0
100
AcDbLine
 10
1487.619493256415
 20
328.2456345049847
 30
0.0
 11
1373.556191519417
 21
328.2456345049865
 31
0.0
  0
ARC
  5
3CBC
330
2
100
AcDbEntity
  8
0
100
AcDbCircle
 10
1501.298520506557
 20
338.5349563863253
 30
0.0
 40
12.5
100
AcDbArc
 50
61.94760241753566
 51
208.0523975824643
  0
ARC
  5
3CBD
330
2
100
AcDbEntity
  8
0
100
AcDbCircle
 10
1487.619493256415
 20
331.2456345049765
 30
0.0
 40
3.0
100
AcDbArc
 50
270.0
 51
28.05239758246433
  0
ARC
  5
3CBE
330
2
100
AcDbEntity
  8
0
100
AcDbCircle
 10
1508.587842387905
 20
352.2139836364665
 30
0.0
 40
3.0
100
AcDbArc
 50
241.9476024175356
 51
0.0
  0
LINE
  5
3CBF
330
2
100
AcDbEntity
  8
0
100
AcDbLine
 10
1511.58784238791
 20
466.277285373507
 30
0.0
 11
1511.587842387905
 21
352.2139836364665
 31
0.0
  0
ARC
  5
3CC0
330
2
100
AcDbEntity
  8
0
100
AcDbCircle
 10
1359.877164269276
 20
479.9563126236351
 30
0.0
 40
12.5
100
AcDbArc
 50
241.9476024175356
 51
28.05239758246433
  0
ARC
  5
3CC1
330
2
100
AcDbEntity
  8
0
100
AcDbCircle
 10
1352.587842387927
 20
466.2772853734943
 30
0.0
 40
3.0
100
AcDbArc
 50
61.94760241753566
 51
180.0
  0
ARC
  5
3CC2
330
2
100
AcDbEntity
  8
0
100
AcDbCircle
 10
1373.556191519417
 20
487.2456345049847
 30
0.0
 40
3.0
100
AcDbArc
 50
90.0
 51
208.0523975824643
  0
LINE
  5
3CC3
330
2
100
AcDbEntity
  8
0
100
AcDbLine
 10
1487.619493256415
 20
490.2456345049857
 30
0.0
 11
1373.556191519417
 21
490.2456345049848
 31
0.0
  0
ARC
  5
3CC4
330
2
100
AcDbEntity
  8
0
100
AcDbCircle
 10
1421.160538855586
 20
487.2456345049852
 30
0.0
 40
3.0
100
AcDbArc
 50
90.0
 51
180.0
  0
ARC
  5
3CC5
330
2
100
AcDbEntity
  8
0
100
AcDbCircle
 10
1391.015145920289
 20
487.2456345049847
 30
0.0
 40
3.0
100
AcDbArc
 50
0.0
 51
90.0
  0
ARC
  5
3CC6
330
2
100
AcDbEntity
  8
0
100
AcDbCircle
 10
1437.087842387928
 20
487.2456345049852
 30
0.0
 40
3.0
100
AcDbArc
 50
90.0
 51
180.0
  0
ARC
  5
3CC7
330
2
100
AcDbEntity
  8
0
100
AcDbCircle
 10
1501.298520506557
 20
479.956312623646
 30
0.0
 40
12.5
100
AcDbArc
 50
151.9476024175356
 51
298.0523975824643
  0
ARC
  5
3CC8
330
2
100
AcDbEntity
  8
0
100
AcDbCircle
 10
1508.587842387909
 20
466.277285373507
 30
0.0
 40
3.0
100
AcDbArc
 50
0.0
 51
118.0523975824643
  0
ARC
  5
3CC9
330
2
100
AcDbEntity
  8
0
100
AcDbCircle
 10
1487.619493256415
 20
487.2456345049947
 30
0.0
 40
3.0
100
AcDbArc
 50
331.9476024175356
 51
90.0
  0
LINE
  5
3CCA
330
2
100
AcDbEntity
  8
0
100
AcDbLine
 10
1364.255553870179
 20
412.7456345049847
 30
0.0
 11
1352.587842387929
 21
412.7456345049847
 31
0.0
  0
LINE
  5
3CCB
330
2
100
AcDbEntity
  8
0
100
AcDbLine
 10
1364.255553870179
 20
405.7456345049838
 30
0.0
 11
1352.587842387929
 21
405.7456345049838
 31
0.0
  0
ARC
  5
3CCC
330
2
100
AcDbEntity
  8
0
100
AcDbCircle
 10
1352.587842387929
 20
402.7456345049838
 30
0.0
 40
3.0
100
AcDbArc
 50
90.0
 51
180.0
  0
ARC
  5
3CCD
330
2
100
AcDbEntity
  8
0
100
AcDbCircle
 10
1364.255553870179
 20
415.7456345049848
 30
0.0
 40
3.0
100
AcDbArc
 50
270.0
 51
354.4033689414049
  0
ARC
  5
3CCE
330
2
100
AcDbEntity
  8
0
100
AcDbCircle
 10
1364.255553870179
 20
402.7456345049829
 30
0.0
 40
3.0
100
AcDbArc
 50
5.596631058595075
 51
90.0
  0
ARC
  5
3CCF
330
2
100
AcDbEntity
  8
0
100
AcDbCircle
 10
1352.587842387929
 20
415.7456345049848
 30
0.0
 40
3.0
100
AcDbArc
 50
180.0
 51
270.0
  0
LINE
  5
3CD0
330
2
100
AcDbEntity
  8
0
100
AcDbLine
 10
1427.08784238793
 20
342.9133459872371
 30
0.0
 11
1427.08784238793
 21
331.2456345049861
 31
0.0
  0
LINE
  5
3CD1
330
2
100
AcDbEntity
  8
0
100
AcDbLine
 10
1434.087842387931
 20
342.9133459872362
 30
0.0
 11
1434.087842387931
 21
331.2456345049856
 31
0.0
  0
ARC
  5
3CD2
330
2
100
AcDbEntity
  8
0
100
AcDbCircle
 10
1437.087842387931
 20
331.2456345049856
 30
0.0
 40
3.0
100
AcDbArc
 50
180.0
 51
270.0
  0
ARC
  5
3CD3
330
2
100
AcDbEntity
  8
0
100
AcDbCircle
 10
1424.08784238793
 20
342.9133459872371
 30
0.0
 40
3.0
100
AcDbArc
 50
0.0
 51
84.40336894140481
  0
ARC
  5
3CD4
330
2
100
AcDbEntity
  8
0
100
AcDbCircle
 10
1437.087842387932
 20
342.9133459872362
 30
0.0
 40
3.0
100
AcDbArc
 50
95.59663105859518
 51
180.0
  0
ARC
  5
3CD5
330
2
100
AcDbEntity
  8
0
100
AcDbCircle
 10
1424.08784238793
 20
331.2456345049861
 30
0.0
 40
3.0
100
AcDbArc
 50
270.0
 51
0.0
  0
LINE
  5
3CD6
330
2
100
AcDbEntity
  8
0
100
AcDbLine
 10
1496.920130905678
 20
405.7456345049866
 30
0.0
 11
1508.587842387929
 21
405.7456345049866
 31
0.0
  0
LINE
  5
3CD7
330
2
100
AcDbEntity
  8
0
100
AcDbLine
 10
1496.920130905679
 20
412.7456345049875
 30
0.0
 11
1508.587842387929
 21
412.7456345049875
 31
0.0
  0
ARC
  5
3CD8
330
2
100
AcDbEntity
  8
0
100
AcDbCircle
 10
1508.587842387929
 20
415.7456345049874
 30
0.0
 40
3.0
100
AcDbArc
 50
270.0
 51
0.0
  0
ARC
  5
3CD9
330
2
100
AcDbEntity
  8
0
100
AcDbCircle
 10
1496.920130905678
 20
402.7456345049865
 30
0.0
 40
3.0
100
AcDbArc
 50
90.0
 51
174.4033689414049
  0
ARC
  5
3CDA
330
2
100
AcDbEntity
  8
0
100
AcDbCircle
 10
1496.920130905679
 20
415.7456345049884
 30
0.0
 40
3.0
100
AcDbArc
 50
185.596631058595
 51
270.0
  0
ARC
  5
3CDB
330
2
100
AcDbEntity
  8
0
100
AcDbCircle
 10
1508.587842387929
 20
402.7456345049865
 30
0.0
 40
3.0
100
AcDbArc
 50
0.0
 51
90.0
  0
LINE
  5
3CDC
330
2
100
AcDbEntity
  8
0
100
AcDbLine
 10
1518.360864329148
 20
487.2747232848271
 30
0.0
 11
1518.58784238793
 21
409.2456345049856
 31
0.0
  0
LINE
  5
3CDD
330
2
100
AcDbEntity
  8
0
100
AcDbLine
 10
1518.360864329149
 20
331.2165457251442
 30
0.0
 11
1518.58784238793
 21
409.2456345049856
 31
0.0
  0
ARC
  5
3CDE
330
2
100
AcDbEntity
  8
0
100
AcDbCircle
 10
1508.360906637095
 20
331.2456345049866
 30
0.0
 40
10.0
100
AcDbArc
 50
270.0
 51
359.8333333333378
  0
LINE
  5
3CDF
330
2
100
AcDbEntity
  8
0
100
AcDbLine
 10
1342.814820446696
 20
487.2747232848276
 30
0.0
 11
1342.587842387914
 21
409.2456345049859
 31
0.0
  0
ARC
  5
3CE0
330
2
100
AcDbEntity
  8
0
100
AcDbCircle
 10
1352.81477813875
 20
487.2456345049847
 30
0.0
 40
10.0
100
AcDbArc
 50
90.0
 51
179.8333333333378
  0
LINE
  5
3CE1
330
2
100
AcDbEntity
  8
0
100
AcDbLine
 10
1342.814820446695
 20
331.216545725141
 30
0.0
 11
1342.587842387914
 21
409.2456345049859
 31
0.0
  0
CIRCLE
  5
3CE2
330
2
100
AcDbEntity
  8
HIDS
  6
SEKKEI_H
100
AcDbCircle
 10
1430.587842387924
 20
409.2456345049602
 30
0.0
 40
59.00000000733051
  0
LINE
  5
3CE3
330
2
100
AcDbEntity
  8
0
100
AcDbLine
 10
1418.160538855587
 20
487.2456345049852
 30
0.0
 11
1418.160538855586
 21
475.2255439328653
 31
0.0
  0
CIRCLE
  5
3CE4
330
2
100
AcDbEntity
  8
0
100
AcDbCircle
 10
1479.731763680391
 20
360.1017132125087
 30
0.0
 40
5.5
  0
CIRCLE
  5
3CE5
330
2
100
AcDbEntity
  8
0
100
AcDbCircle
 10
1479.731763680384
 20
458.3895557974399
 30
0.0
 40
5.5
  0
CIRCLE
  5
3CE6
330
2
100
AcDbEntity
  8
0
100
AcDbCircle
 10
1381.443921095453
 20
458.3895557974336
 30
0.0
 40
5.5
  0
CIRCLE
  5
3CE7
330
2
100
AcDbEntity
  8
0
100
AcDbCircle
 10
1381.443921095459
 20
360.1017132125023
 30
0.0
 40
5.5
  0
LINE
  5
3CE8
330
2
100
AcDbEntity
  8
CENTER
100
AcDbLine
 10
1479.731763680378
 20
450.628474191001
 30
0.0
 11
1479.731763680379
 21
466.1506374038788
 31
0.0
  0
LINE
  5
3CE9
330
2
100
AcDbEntity
  8
CENTER
100
AcDbLine
 10
1471.970682073945
 20
458.3895557974399
 30
0.0
 11
1487.492845286823
 21
458.3895557974399
 31
0.0
  0
CIRCLE
  5
3CEA
330
2
100
AcDbEntity
  8
HOJO
100
AcDbCircle
 10
1501.29852050658
 20
479.9563126236368
 30
0.0
 40
6.0
  0
CIRCLE
  5
3CEB
330
2
100
AcDbEntity
  8
0
100
AcDbCircle
 10
1501.29852050658
 20
479.9563126236368
 30
0.0
 40
5.15
  0
CIRCLE
  5
3CEC
330
2
100
AcDbEntity
  8
HOJO
100
AcDbCircle
 10
1359.877164269285
 20
479.9563126236387
 30
0.0
 40
6.0
  0
CIRCLE
  5
3CED
330
2
100
AcDbEntity
  8
0
100
AcDbCircle
 10
1359.877164269285
 20
479.9563126236387
 30
0.0
 40
5.15
  0
CIRCLE
  5
3CEE
330
2
100
AcDbEntity
  8
HOJO
100
AcDbCircle
 10
1359.877164269274
 20
338.5349563863335
 30
0.0
 40
6.0
  0
CIRCLE
  5
3CEF
330
2
100
AcDbEntity
  8
0
100
AcDbCircle
 10
1359.877164269274
 20
338.5349563863335
 30
0.0
 40
5.15
  0
CIRCLE
  5
3CF0
330
2
100
AcDbEntity
  8
HOJO
100
AcDbCircle
 10
1501.298520506578
 20
338.5349563863271
 30
0.0
 40
6.0
  0
CIRCLE
  5
3CF1
330
2
100
AcDbEntity
  8
0
100
AcDbCircle
 10
1501.298520506578
 20
338.5349563863271
 30
0.0
 40
5.15
  0
CIRCLE
  5
3CF2
330
2
100
AcDbEntity
  8
0
100
AcDbCircle
 10
1430.587842387929
 20
409.2456345049875
 30
0.0
 40
57.14999999998963
  0
CIRCLE
  5
3CF3
330
2
100
AcDbEntity
  8
CENTER
100
AcDbCircle
 10
1430.587842387927
 20
409.2456345049856
 30
0.0
 40
99.99999999999339
  0
LINE
  5
3CF4
330
2
100
AcDbEntity
  8
0
100
AcDbLine
 10
1375.391087048517
 20
349.0991316972665
 30
0.0
 11
1372.301912374497
 21
346.0099570232466
 31
0.0
  0
LINE
  5
3CF5
330
2
100
AcDbEntity
  8
0
100
AcDbLine
 10
1370.441339580212
 20
354.0488791655725
 30
0.0
 11
1367.352164906192
 21
350.9597044915535
 31
0.0
  0
ARC
  5
3CF6
330
2
100
AcDbEntity
  8
0
100
AcDbCircle
 10
1391.015145920292
 20
462.8760754343946
 30
0.0
 40
3.0
100
AcDbArc
 50
306.422781960531
 51
0.0
  0
ARC
  5
3CF7
330
2
100
AcDbEntity
  8
0
100
AcDbCircle
 10
1467.797234364416
 20
361.3511290921308
 30
0.0
 40
3.0
100
AcDbArc
 50
307.8437463747922
 51
354.0235230820266
  0
ARC
  5
3CF8
330
2
100
AcDbEntity
  8
0
100
AcDbCircle
 10
1374.423232718057
 20
343.8886366796871
 30
0.0
 40
3.0
100
AcDbArc
 50
135.000000000009
 51
200.2061375369399
  0
ARC
  5
3CF9
330
2
100
AcDbEntity
  8
0
100
AcDbCircle
 10
1365.230844562632
 20
353.081024835113
 30
0.0
 40
3.0
100
AcDbArc
 50
249.7938624630395
 51
315.000000000009
  0
LINE
  5
3CFA
330
2
100
AcDbEntity
  8
0
100
AcDbLine
 10
1490.734345195633
 20
354.0488791655586
 30
0.0
 11
1493.823519869645
 21
350.9597044915424
 31
0.0
  0
LINE
  5
3CFB
330
2
100
AcDbEntity
  8
0
100
AcDbLine
 10
1485.784597727325
 20
349.0991316972524
 30
0.0
 11
1488.873772401339
 21
346.0099570232376
 31
0.0
  0
ARC
  5
3CFC
330
2
100
AcDbEntity
  8
0
100
AcDbCircle
 10
1495.944840213205
 20
353.0810248351024
 30
0.0
 40
3.0
100
AcDbArc
 50
224.9999999999908
 51
290.2061375369604
  0
ARC
  5
3CFD
330
2
100
AcDbEntity
  8
0
100
AcDbCircle
 10
1486.752452057779
 20
343.8886366796775
 30
0.0
 40
3.0
100
AcDbArc
 50
339.7938624630319
 51
44.99999999999089
  0
LINE
  5
3CFE
330
2
100
AcDbEntity
  8
0
100
AcDbLine
 10
1375.391087048516
 20
469.3921373127018
 30
0.0
 11
1372.301912374497
 21
472.481311986721
 31
0.0
  0
LINE
  5
3CFF
330
2
100
AcDbEntity
  8
0
100
AcDbLine
 10
1370.441339580209
 20
464.4423898443976
 30
0.0
 11
1367.352164906192
 21
467.5315645184143
 31
0.0
  0
ARC
  5
3D00
330
2
100
AcDbEntity
  8
0
100
AcDbCircle
 10
1374.423232718057
 20
474.6026323302806
 30
0.0
 40
3.0
100
AcDbArc
 50
159.7938624630599
 51
224.9999999999908
  0
ARC
  5
3D01
330
2
100
AcDbEntity
  8
0
100
AcDbCircle
 10
1365.230844562632
 20
465.4102441748547
 30
0.0
 40
3.0
100
AcDbArc
 50
44.99999999999089
 51
110.2061375369604
  0
LINE
  5
3D02
330
2
100
AcDbEntity
  8
0
100
AcDbLine
 10
1490.734345195632
 20
464.4423898444131
 30
0.0
 11
1493.823519869645
 21
467.5315645184253
 31
0.0
  0
LINE
  5
3D03
330
2
100
AcDbEntity
  8
0
100
AcDbLine
 10
1485.784597727328
 20
469.3921373127193
 30
0.0
 11
1488.873772401339
 21
472.4813119867301
 31
0.0
  0
ARC
  5
3D04
330
2
100
AcDbEntity
  8
0
100
AcDbCircle
 10
1495.944840213205
 20
465.4102441748652
 30
0.0
 40
3.0
100
AcDbArc
 50
69.79386246303954
 51
135.000000000009
  0
ARC
  5
3D05
330
2
100
AcDbEntity
  8
0
100
AcDbCircle
 10
1486.752452057779
 20
474.6026323302901
 30
0.0
 40
3.0
100
AcDbArc
 50
315.000000000009
 51
20.20613753696788
  0
LINE
  5
3D06
330
2
100
AcDbEntity
  8
0
100
AcDbLine
 10
1394.01514592029
 20
487.2456345049829
 30
0.0
 11
1394.015145920292
 21
462.8760754343946
 31
0.0
  0
ARC
  5
3D07
330
2
100
AcDbEntity
  8
0
100
AcDbCircle
 10
1479.731763680392
 20
360.1017132125073
 30
0.0
 40
8.999751248844436
100
AcDbArc
 50
95.9764769179994
 51
174.0235230820266
  0
ARC
  5
3D08
330
2
100
AcDbEntity
  8
0
100
AcDbCircle
 10
1478.482347800767
 20
372.0362425284829
 30
0.0
 40
3.0
100
AcDbArc
 50
275.9764769179994
 51
322.1562536252168
  0
LINE
  5
3D09
330
2
100
AcDbEntity
  8
0
100
AcDbLine
 10
1488.613024852075
 20
356.1701995091182
 30
0.0
 11
1483.663277383768
 21
351.2204520408079
 31
0.0
  0
ARC
  5
3D0A
330
2
100
AcDbEntity
  8
0
100
AcDbCircle
 10
1492.855665539193
 20
356.1701995091171
 30
0.0
 40
3.0
100
AcDbArc
 50
135.000000000009
 51
224.9999999999908
  0
ARC
  5
3D0B
330
2
100
AcDbEntity
  8
0
100
AcDbCircle
 10
1483.663277383765
 20
346.9778113536924
 30
0.0
 40
3.0
100
AcDbArc
 50
44.99999999999089
 51
135.000000000009
  0
LINE
  5
3D0C
330
2
100
AcDbEntity
  8
0
100
AcDbLine
 10
1483.663277383797
 20
467.270816969132
 30
0.0
 11
1488.613024852107
 21
462.3210695008244
 31
0.0
  0
ARC
  5
3D0D
330
2
100
AcDbEntity
  8
0
100
AcDbCircle
 10
1483.663277383798
 20
471.5134576562493
 30
0.0
 40
3.0
100
AcDbArc
 50
224.9999999999908
 51
315.000000000009
  0
ARC
  5
3D0E
330
2
100
AcDbEntity
  8
0
100
AcDbCircle
 10
1492.855665539222
 20
462.3210695008217
 30
0.0
 40
3.0
100
AcDbArc
 50
135.000000000009
 51
224.9999999999908
  0
LINE
  5
3D0F
330
2
100
AcDbEntity
  8
0
100
AcDbLine
 10
1372.562659923783
 20
462.3210695008536
 30
0.0
 11
1377.51240739209
 21
467.2708169691636
 31
0.0
  0
ARC
  5
3D10
330
2
100
AcDbEntity
  8
0
100
AcDbCircle
 10
1368.320019236665
 20
462.3210695008545
 30
0.0
 40
3.0
100
AcDbArc
 50
315.000000000009
 51
44.99999999999089
  0
ARC
  5
3D11
330
2
100
AcDbEntity
  8
0
100
AcDbCircle
 10
1377.512407392093
 20
471.5134576562791
 30
0.0
 40
3.0
100
AcDbArc
 50
224.9999999999908
 51
315.000000000009
  0
LINE
  5
3D12
330
2
100
AcDbEntity
  8
0
100
AcDbLine
 10
1377.512407392061
 20
351.2204520408392
 30
0.0
 11
1372.562659923751
 21
356.1701995091468
 31
0.0
  0
ARC
  5
3D13
330
2
100
AcDbEntity
  8
0
100
AcDbCircle
 10
1377.51240739206
 20
346.977811353722
 30
0.0
 40
3.0
100
AcDbArc
 50
44.99999999999089
 51
135.000000000009
  0
ARC
  5
3D14
330
2
100
AcDbEntity
  8
0
100
AcDbCircle
 10
1368.320019236635
 20
356.1701995091496
 30
0.0
 40
3.0
100
AcDbArc
 50
315.000000000009
 51
44.99999999999089
  0
ARC
  5
3D15
330
2
100
AcDbEntity
  8
0
100
AcDbCircle
 10
1478.482347800784
 20
446.4550264814731
 30
0.0
 40
3.0
100
AcDbArc
 50
37.84374637479963
 51
84.02352308205298
  0
ARC
  5
3D16
330
2
100
AcDbEntity
  8
0
100
AcDbCircle
 10
1479.731763680408
 20
458.389555797449
 30
0.0
 40
8.999751248844436
100
AcDbArc
 50
185.9764769179992
 51
264.0235230820529
  0
ARC
  5
3D17
330
2
100
AcDbEntity
  8
0
100
AcDbCircle
 10
1467.797234364432
 20
457.1401399178236
 30
0.0
 40
3.0
100
AcDbArc
 50
5.976476917999294
 51
52.1562536252077
  0
ARC
  5
3D18
330
2
100
AcDbEntity
  8
0
100
AcDbCircle
 10
1393.378450411441
 20
457.140139917841
 30
0.0
 40
3.0
100
AcDbArc
 50
127.8437463748551
 51
174.0235230820136
  0
ARC
  5
3D19
330
2
100
AcDbEntity
  8
0
100
AcDbCircle
 10
1381.443921095466
 20
458.3895557974645
 30
0.0
 40
8.999751248844436
100
AcDbArc
 50
275.976476917947
 51
354.0235230820136
  0
ARC
  5
3D1A
330
2
100
AcDbEntity
  8
0
100
AcDbCircle
 10
1382.693336975091
 20
446.4550264814886
 30
0.0
 40
3.0
100
AcDbArc
 50
95.97647691794703
 51
142.1562536252169
  0
ARC
  5
3D1B
330
2
100
AcDbEntity
  8
0
100
AcDbCircle
 10
1382.693336975074
 20
372.0362425284982
 30
0.0
 40
3.0
100
AcDbArc
 50
217.843746374783
 51
264.0235230820529
  0
ARC
  5
3D1C
330
2
100
AcDbEntity
  8
0
100
AcDbCircle
 10
1381.44392109545
 20
360.1017132125223
 30
0.0
 40
8.999751248844436
100
AcDbArc
 50
5.976476917999294
 51
84.02352308205298
  0
ARC
  5
3D1D
330
2
100
AcDbEntity
  8
0
100
AcDbCircle
 10
1393.378450411426
 20
361.3511290921476
 30
0.0
 40
3.0
100
AcDbArc
 50
185.9764769179992
 51
232.1562536252077
  0
LINE
  5
3D1F
330
2
100
AcDbEntity
  8
0
100
AcDbLine
 10
234.2411368118831
 20
468.2456345049839
 30
0.0
 11
288.6144017003583
 21
468.2456345049837
 31
0.0
  0
ARC
  5
3D20
330
2
100
AcDbEntity
  8
0
100
AcDbCircle
 10
234.2411368118831
 20
478.245634504984
 30
0.0
 40
10.0
100
AcDbArc
 50
181.0000000000017
 51
270.0
  0
LINE
  5
3D21
330
2
100
AcDbEntity
  8
0
100
AcDbLine
 10
303.4079672978072
 20
349.2456345049862
 30
0.0
 11
292.3560590871542
 21
349.2456345049862
 31
0.0
  0
ARC
  5
3D22
330
2
100
AcDbEntity
  8
0
100
AcDbCircle
 10
292.3560590871542
 20
352.2456345049862
 30
0.0
 40
3.0
100
AcDbArc
 50
181.0000000000017
 51
270.0
  0
ARC
  5
3D23
330
2
100
AcDbEntity
  8
0
100
AcDbCircle
 10
288.6144017003802
 20
345.7456345049862
 30
0.0
 40
4.5
100
AcDbArc
 50
60.07356513338244
 51
90.0
  0
LINE
  5
3D24
330
2
100
AcDbEntity
  8
0
100
AcDbLine
 10
288.6144017003811
 20
350.2456345049862
 30
0.0
 11
234.2411368118786
 21
350.2456345049871
 31
0.0
  0
LINE
  5
3D25
330
2
100
AcDbEntity
  8
0
100
AcDbLine
 10
223.9594185939234
 20
324.1932772856747
 30
0.0
 11
225.4440130114939
 21
409.2456345049864
 31
0.0
  0
ARC
  5
3D26
330
2
100
AcDbEntity
  8
0
100
AcDbCircle
 10
228.3310120735926
 20
402.7456345049865
 30
0.0
 40
3.0
100
AcDbArc
 50
90.0
 51
178.9999999999851
  0
ARC
  5
3D27
330
2
100
AcDbEntity
  8
0
100
AcDbCircle
 10
234.2411368118786
 20
340.2456345049871
 30
0.0
 40
10.0
100
AcDbArc
 50
90.0
 51
178.9999999999982
  0
LINE
  5
3D28
330
2
100
AcDbEntity
  8
0
100
AcDbLine
 10
208.9079672978019
 20
321.2456345049862
 30
0.0
 11
208.9079672978027
 21
497.2456345049883
 31
0.0
  0
LINE
  5
3D29
330
2
100
AcDbEntity
  8
0
100
AcDbLine
 10
248.4079672978026
 20
405.7456345049862
 30
0.0
 11
248.4079672978026
 21
412.7456345049862
 31
0.0
  0
LINE
  5
3D2A
330
2
100
AcDbEntity
  8
0
100
AcDbLine
 10
289.3565160016854
 20
352.1932772856743
 30
0.0
 11
288.3606634021147
 21
409.2456345049864
 31
0.0
  0
LINE
  5
3D2B
330
2
100
AcDbEntity
  8
0
100
AcDbLine
 10
303.4079672978062
 20
349.2456345049862
 30
0.0
 11
303.4079672978072
 21
469.2456345049862
 31
0.0
  0
LINE
  5
3D2C
330
2
100
AcDbEntity
  8
0
100
AcDbLine
 10
208.9079672978018
 20
321.2456345049862
 30
0.0
 11
220.9598755084547
 21
321.2456345049866
 31
0.0
  0
ARC
  5
3D2D
330
2
100
AcDbEntity
  8
0
100
AcDbCircle
 10
220.9598755084547
 20
324.2456345049867
 30
0.0
 40
3.0
100
AcDbArc
 50
270.0
 51
358.9999999999982
  0
LINE
  5
3D2E
330
2
100
AcDbEntity
  8
0
100
AcDbLine
 10
228.3310120735926
 20
405.7456345049864
 30
0.0
 11
245.4079672978026
 21
405.7456345049862
 31
0.0
  0
ARC
  5
3D2F
330
2
100
AcDbEntity
  8
0
100
AcDbCircle
 10
245.4079672978026
 20
402.7456345049862
 30
0.0
 40
3.0
100
AcDbArc
 50
0.0
 51
90.0
  0
LINE
  5
3D30
330
2
100
AcDbEntity
  8
0
100
AcDbLine
 10
247.529287641362
 20
349.3669548485464
 30
0.0
 11
224.8449795560259
 21
326.6826467632096
 31
0.0
  0
LINE
  5
3D31
330
2
100
AcDbEntity
  8
0
100
AcDbLine
 10
248.4079672978026
 20
412.745634504988
 30
0.0
 11
248.4079672978026
 21
405.745634504988
 31
0.0
  0
LINE
  5
3D32
330
2
100
AcDbEntity
  8
0
100
AcDbLine
 10
208.9079672978026
 20
497.2456345049883
 30
0.0
 11
220.9598755084602
 21
497.245634504988
 31
0.0
  0
ARC
  5
3D33
330
2
100
AcDbEntity
  8
0
100
AcDbCircle
 10
220.9598755084602
 20
494.2456345049881
 30
0.0
 40
3.0
100
AcDbArc
 50
1.000000000001764
 51
90.0
  0
LINE
  5
3D34
330
2
100
AcDbEntity
  8
0
100
AcDbLine
 10
228.3310120735917
 20
412.745634504988
 30
0.0
 11
245.4079672978026
 21
412.745634504988
 31
0.0
  0
ARC
  5
3D35
330
2
100
AcDbEntity
  8
0
100
AcDbCircle
 10
245.4079672978026
 20
415.745634504988
 30
0.0
 40
3.0
100
AcDbArc
 50
270.0
 51
0.0
  0
LINE
  5
3D36
330
2
100
AcDbEntity
  8
0
100
AcDbLine
 10
303.4079672978072
 20
469.2456345049881
 30
0.0
 11
292.3560590871405
 21
469.2456345049881
 31
0.0
  0
LINE
  5
3D37
330
2
100
AcDbEntity
  8
0
100
AcDbLine
 10
303.4079672978067
 20
409.2456345049862
 30
0.0
 11
208.9079672978022
 21
409.2456345049864
 31
0.0
  0
LINE
  5
3D38
330
2
100
AcDbEntity
  8
0
100
AcDbLine
 10
289.3565160016718
 20
466.2979917242999
 30
0.0
 11
288.3606634021028
 21
409.245634504968
 31
0.0
  0
ARC
  5
3D39
330
2
100
AcDbEntity
  8
0
100
AcDbCircle
 10
292.3560590871405
 20
466.245634504988
 30
0.0
 40
3.0
100
AcDbArc
 50
90.0
 51
178.9999999999982
  0
ARC
  5
3D3A
330
2
100
AcDbEntity
  8
0
100
AcDbCircle
 10
288.6144017003593
 20
472.7456345049837
 30
0.0
 40
4.5
100
AcDbArc
 50
270.0
 51
299.926434866679
  0
LINE
  5
3D3B
330
2
100
AcDbEntity
  8
0
100
AcDbLine
 10
223.9594185939289
 20
494.2979917243
 30
0.0
 11
225.4440130114957
 21
409.2456345049864
 31
0.0
  0
ARC
  5
3D3C
330
2
100
AcDbEntity
  8
0
100
AcDbCircle
 10
228.3310120735917
 20
415.745634504988
 30
0.0
 40
3.0
100
AcDbArc
 50
181.0000000000017
 51
270.0
  0
ARC
  5
3D3D
330
2
100
AcDbEntity
  8
0
100
AcDbCircle
 10
249.6506079849217
 20
347.2456345049867
 30
0.0
 40
3.0
100
AcDbArc
 50
90.0
 51
135.000000000009
  0
ARC
  5
3D3E
330
2
100
AcDbEntity
  8
0
100
AcDbCircle
 10
226.9662998995855
 20
324.5613264196498
 30
0.0
 40
3.0
100
AcDbArc
 50
135.000000000009
 51
178.9999999999982
  0
LINE
  5
3D3F
330
2
100
AcDbEntity
  8
0
100
AcDbLine
 10
247.529287641361
 20
469.1243141614271
 30
0.0
 11
224.8449795560245
 21
491.8086222467635
 31
0.0
  0
ARC
  5
3D40
330
2
100
AcDbEntity
  8
0
100
AcDbCircle
 10
249.6506079849207
 20
471.2456345049867
 30
0.0
 40
3.0
100
AcDbArc
 50
224.9999999999908
 51
270.0
  0
ARC
  5
3D41
330
2
100
AcDbEntity
  8
0
100
AcDbCircle
 10
226.9662998995842
 20
493.9299425903231
 30
0.0
 40
3.0
100
AcDbArc
 50
181.0000000000017
 51
224.9999999999908
  0
LINE
  5
3D43
330
2
100
AcDbEntity
  8
0
100
AcDbLine
 10
1077.589205637945
 20
452.6395557975709
 30
0.0
 11
1079.089205637945
 21
452.6395557975709
 31
0.0
  0
LINE
  5
3D44
330
2
100
AcDbEntity
  8
0
100
AcDbLine
 10
1077.589205637945
 20
464.1395557975709
 30
0.0
 11
1079.089205637946
 21
464.1395557975709
 31
0.0
  0
LINE
  5
3D45
330
2
100
AcDbEntity
  8
0
100
AcDbLine
 10
1084.689205637945
 20
453.3895557975706
 30
0.0
 11
1085.089205637945
 21
454.0823761205979
 31
0.0
  0
LINE
  5
3D46
330
2
100
AcDbEntity
  8
0
100
AcDbLine
 10
1079.089205637945
 20
452.6395557975709
 30
0.0
 11
1079.089205637946
 21
464.1395557975709
 31
0.0
  0
LINE
  5
3D47
330
2
100
AcDbEntity
  8
0
100
AcDbLine
 10
1084.689205637945
 20
453.3895557975706
 30
0.0
 11
1084.689205637945
 21
463.3895557975706
 31
0.0
  0
LINE
  5
3D48
330
2
100
AcDbEntity
  8
0
100
AcDbLine
 10
1079.089205637945
 20
453.3895557975709
 30
0.0
 11
1084.689205637945
 21
453.3895557975706
 31
0.0
  0
LINE
  5
3D49
330
2
100
AcDbEntity
  8
0
100
AcDbLine
 10
1079.089205637946
 20
463.3895557975709
 30
0.0
 11
1084.689205637945
 21
463.3895557975706
 31
0.0
  0
LINE
  5
3D4A
330
2
100
AcDbEntity
  8
0
100
AcDbLine
 10
1084.689205637945
 20
463.3895557975706
 30
0.0
 11
1085.089205637945
 21
462.6967354745434
 31
0.0
  0
LINE
  5
3D4B
330
2
100
AcDbEntity
  8
0
100
AcDbLine
 10
1085.089205637945
 20
454.0823761205979
 30
0.0
 11
1085.089205637945
 21
462.6967354745434
 31
0.0
  0
LINE
  5
3D4C
330
2
100
AcDbEntity
  8
0
 48
12.0
100
AcDbLine
 10
1077.589205637945
 20
464.1395557975709
 30
0.0
 11
1077.589205637945
 21
452.6395557975709
 31
0.0
  0
LINE
  5
3D4D
330
2
100
AcDbEntity
  8
0
100
AcDbLine
 10
1077.299333881141
 20
844.0601649765465
 30
0.0
 11
1078.799333881142
 21
844.0601649765465
 31
0.0
  0
LINE
  5
3D4E
330
2
100
AcDbEntity
  8
0
100
AcDbLine
 10
1077.299333881141
 20
855.5601649765465
 30
0.0
 11
1078.799333881142
 21
855.5601649765465
 31
0.0
  0
LINE
  5
3D4F
330
2
100
AcDbEntity
  8
0
100
AcDbLine
 10
1084.399333881141
 20
844.8101649765462
 30
0.0
 11
1084.799333881141
 21
845.5029852995735
 31
0.0
  0
LINE
  5
3D50
330
2
100
AcDbEntity
  8
0
100
AcDbLine
 10
1078.799333881142
 20
844.0601649765465
 30
0.0
 11
1078.799333881142
 21
855.5601649765465
 31
0.0
  0
LINE
  5
3D51
330
2
100
AcDbEntity
  8
0
100
AcDbLine
 10
1084.399333881141
 20
844.8101649765462
 30
0.0
 11
1084.399333881141
 21
854.8101649765463
 31
0.0
  0
LINE
  5
3D52
330
2
100
AcDbEntity
  8
0
100
AcDbLine
 10
1078.799333881142
 20
844.8101649765465
 30
0.0
 11
1084.399333881141
 21
844.8101649765462
 31
0.0
  0
LINE
  5
3D53
330
2
100
AcDbEntity
  8
0
100
AcDbLine
 10
1078.799333881142
 20
854.8101649765465
 30
0.0
 11
1084.399333881141
 21
854.8101649765463
 31
0.0
  0
LINE
  5
3D54
330
2
100
AcDbEntity
  8
0
100
AcDbLine
 10
1084.399333881141
 20
854.8101649765463
 30
0.0
 11
1084.799333881141
 21
854.1173446535189
 31
0.0
  0
LINE
  5
3D55
330
2
100
AcDbEntity
  8
0
100
AcDbLine
 10
1084.799333881141
 20
845.5029852995735
 30
0.0
 11
1084.799333881141
 21
854.1173446535189
 31
0.0
  0
LINE
  5
3D56
330
2
100
AcDbEntity
  8
0
 48
12.0
100
AcDbLine
 10
1077.299333881141
 20
855.5601649765465
 30
0.0
 11
1077.299333881141
 21
844.0601649765465
 31
0.0
  0
LINE
  5
3D57
330
2
100
AcDbEntity
  8
0
100
AcDbLine
 10
289.1181186905131
 20
365.8510500956121
 30
0.0
 11
287.6181186905126
 21
365.8510500956121
 31
0.0
  0
LINE
  5
3D58
330
2
100
AcDbEntity
  8
0
100
AcDbLine
 10
289.1181186905129
 20
354.351050095612
 30
0.0
 11
287.6181186905122
 21
354.351050095612
 31
0.0
  0
LINE
  5
3D59
330
2
100
AcDbEntity
  8
0
100
AcDbLine
 10
282.0181186905127
 20
365.1010500956123
 30
0.0
 11
281.6181186905131
 21
364.408229772585
 31
0.0
  0
LINE
  5
3D5A
330
2
100
AcDbEntity
  8
0
100
AcDbLine
 10
287.6181186905126
 20
365.8510500956121
 30
0.0
 11
287.6181186905122
 21
354.351050095612
 31
0.0
  0
LINE
  5
3D5B
330
2
100
AcDbEntity
  8
0
100
AcDbLine
 10
282.0181186905127
 20
365.1010500956123
 30
0.0
 11
282.0181186905125
 21
355.1010500956123
 31
0.0
  0
LINE
  5
3D5C
330
2
100
AcDbEntity
  8
0
100
AcDbLine
 10
287.6181186905126
 20
365.101050095612
 30
0.0
 11
282.0181186905127
 21
365.1010500956123
 31
0.0
  0
LINE
  5
3D5D
330
2
100
AcDbEntity
  8
0
100
AcDbLine
 10
287.6181186905122
 20
355.101050095612
 30
0.0
 11
282.0181186905125
 21
355.1010500956123
 31
0.0
  0
LINE
  5
3D5E
330
2
100
AcDbEntity
  8
0
100
AcDbLine
 10
282.0181186905125
 20
355.1010500956123
 30
0.0
 11
281.6181186905129
 21
355.7938704186395
 31
0.0
  0
LINE
  5
3D5F
330
2
100
AcDbEntity
  8
0
100
AcDbLine
 10
281.6181186905131
 20
364.408229772585
 30
0.0
 11
281.6181186905129
 21
355.7938704186395
 31
0.0
  0
LINE
  5
3D60
330
2
100
AcDbEntity
  8
0
 48
12.0
100
AcDbLine
 10
289.1181186905129
 20
354.351050095612
 30
0.0
 11
289.1181186905131
 21
365.8510500956121
 31
0.0
  0
LINE
  5
3D61
330
2
100
AcDbEntity
  8
0
100
AcDbLine
 10
289.1180955410028
 20
464.1388926805452
 30
0.0
 11
287.6180955410024
 21
464.1388926805452
 31
0.0
  0
LINE
  5
3D62
330
2
100
AcDbEntity
  8
0
100
AcDbLine
 10
289.1180955410028
 20
452.6388926805451
 30
0.0
 11
287.6180955410019
 21
452.6388926805451
 31
0.0
  0
LINE
  5
3D63
330
2
100
AcDbEntity
  8
0
100
AcDbLine
 10
282.0180955410025
 20
463.3888926805453
 30
0.0
 11
281.6180955410028
 21
462.6960723575181
 31
0.0
  0
LINE
  5
3D64
330
2
100
AcDbEntity
  8
0
100
AcDbLine
 10
287.6180955410024
 20
464.1388926805452
 30
0.0
 11
287.6180955410019
 21
452.6388926805451
 31
0.0
  0
LINE
  5
3D65
330
2
100
AcDbEntity
  8
0
100
AcDbLine
 10
282.0180955410025
 20
463.3888926805453
 30
0.0
 11
282.0180955410025
 21
453.3888926805453
 31
0.0
  0
LINE
  5
3D66
330
2
100
AcDbEntity
  8
0
100
AcDbLine
 10
287.6180955410024
 20
463.3888926805451
 30
0.0
 11
282.0180955410025
 21
463.3888926805453
 31
0.0
  0
LINE
  5
3D67
330
2
100
AcDbEntity
  8
0
100
AcDbLine
 10
287.6180955410019
 20
453.3888926805452
 30
0.0
 11
282.0180955410025
 21
453.3888926805453
 31
0.0
  0
LINE
  5
3D68
330
2
100
AcDbEntity
  8
0
100
AcDbLine
 10
282.0180955410025
 20
453.3888926805453
 30
0.0
 11
281.6180955410028
 21
454.0817130035726
 31
0.0
  0
LINE
  5
3D69
330
2
100
AcDbEntity
  8
0
100
AcDbLine
 10
281.6180955410028
 20
462.6960723575181
 30
0.0
 11
281.6180955410028
 21
454.0817130035726
 31
0.0
  0
LINE
  5
3D6A
330
2
100
AcDbEntity
  8
0
 48
12.0
100
AcDbLine
 10
289.1180955410028
 20
452.6388926805451
 30
0.0
 11
289.1180955410028
 21
464.1388926805452
 31
0.0
  0
CIRCLE
  5
3D6B
330
2
100
AcDbEntity
  8
0
100
AcDbCircle
 10
1139.299333881168
 20
776.1662436840828
 30
0.0
 40
9.0
  0
LINE
  5
3D6C
330
2
100
AcDbEntity
  8
0
100
AcDbLine
 10
1140.466164367064
 20
472.2456345049834
 30
0.0
 11
1134.299333881145
 21
472.2456345049834
 31
0.0
  0
ARC
  5
3D6D
330
2
100
AcDbEntity
  8
0
100
AcDbCircle
 10
1134.299333881145
 20
468.2456345049834
 30
0.0
 40
4.0
100
AcDbArc
 50
90.0
 51
180.0
  0
LINE
  5
3D6E
330
2
100
AcDbEntity
  8
0
100
AcDbLine
 10
1127.799333881146
 20
409.2456345049863
 30
0.0
 11
1127.799333881146
 21
436.3032088918157
 31
0.0
  0
LINE
  5
3D6F
330
2
100
AcDbEntity
  8
0
100
AcDbLine
 10
1149.799333881145
 20
409.2456345049863
 30
0.0
 11
1149.799333881145
 21
441.2456345049865
 31
0.0
  0
LINE
  5
3D70
330
2
100
AcDbEntity
  8
0
100
AcDbLine
 10
1147.799333881145
 20
409.2456345049863
 30
0.0
 11
1147.799333881145
 21
426.7456345049866
 31
0.0
  0
LINE
  5
3D71
330
2
100
AcDbEntity
  8
0
100
AcDbLine
 10
1129.799333881145
 20
409.2456345049863
 30
0.0
 11
1129.799333881145
 21
436.5629449132611
 31
0.0
  0
LINE
  5
3D72
330
2
100
AcDbEntity
  8
0
100
AcDbLine
 10
1135.566830260565
 20
441.2456345049865
 30
0.0
 11
1149.799333881145
 21
441.2456345049865
 31
0.0
  0
LINE
  5
3D73
330
2
100
AcDbEntity
  8
0
100
AcDbLine
 10
1076.299333881145
 20
409.2456345049863
 30
0.0
 11
1076.299333881145
 21
427.2456345049861
 31
0.0
  0
LINE
  5
3D74
330
2
100
AcDbEntity
  8
0
 48
0.3
100
AcDbLine
 10
1096.299333881146
 20
426.7456345049861
 30
0.0
 11
1127.799333881145
 21
426.7456345049861
 31
0.0
  0
LINE
  5
3D75
330
2
100
AcDbEntity
  8
0
 48
0.3
100
AcDbLine
 10
1129.799333881145
 20
426.7456345049866
 30
0.0
 11
1147.799333881145
 21
426.7456345049866
 31
0.0
  0
LINE
  5
3D76
330
2
100
AcDbEntity
  8
0
100
AcDbLine
 10
1096.299333881146
 20
409.2456345049863
 30
0.0
 11
1096.299333881146
 21
427.2456345049861
 31
0.0
  0
LINE
  5
3D77
330
2
100
AcDbEntity
  8
0
100
AcDbLine
 10
1076.299333881145
 20
426.245634504986
 30
0.0
 11
1066.484379304923
 21
409.2456345049866
 31
0.0
  0
LINE
  5
3D78
330
2
100
AcDbEntity
  8
0
100
AcDbLine
 10
1096.299333881145
 20
427.2456345049861
 30
0.0
 11
1076.299333881145
 21
427.2456345049861
 31
0.0
  0
LINE
  5
3D79
330
2
100
AcDbEntity
  8
0
100
AcDbLine
 10
1147.799333881145
 20
426.7456345049866
 30
0.0
 11
1149.799333881145
 21
427.9003350433659
 31
0.0
  0
LINE
  5
3D7A
330
2
100
AcDbEntity
  8
0
100
AcDbLine
 10
1150.79933388115
 20
466.3956345049871
 30
0.0
 11
1150.799333881145
 21
409.2456345049868
 31
0.0
  0
LINE
  5
3D7B
330
2
100
AcDbEntity
  8
0
100
AcDbLine
 10
1150.299333881146
 20
464.4956345049872
 30
0.0
 11
1150.299333881144
 21
409.245634504986
 31
0.0
  0
LINE
  5
3D7C
330
2
100
AcDbEntity
  8
0
100
AcDbLine
 10
1138.985870510224
 20
457.6299592430244
 30
0.0
 11
1147.820278414147
 21
459.1877037150693
 31
0.0
  0
ARC
  5
3D7D
330
2
100
AcDbEntity
  8
0
100
AcDbCircle
 10
1147.299333881146
 20
462.1421269741061
 30
0.0
 40
3.0
100
AcDbArc
 50
280.000000000005
 51
0.0
  0
LINE
  5
3D7E
330
2
100
AcDbEntity
  8
0
100
AcDbLine
 10
1150.79933388115
 20
464.9956345049885
 30
0.0
 11
1150.299333881146
 21
464.4956345049872
 31
0.0
  0
LINE
  5
3D7F
330
2
100
AcDbEntity
  8
0
100
AcDbLine
 10
1157.799333881145
 20
466.3956345049869
 30
0.0
 11
1150.79933388115
 21
466.3956345049871
 31
0.0
  0
LINE
  5
3D81
330
2
100
AcDbEntity
  8
CENTER
100
AcDbLine
 10
1406.087842387929
 20
386.3710484168173
 30
0.0
 11
1406.087842387937
 21
502.2456345049847
 31
0.0
  0
LINE
  5
3D82
330
2
100
AcDbEntity
  8
HIDS
  6
SEKKEI_H
100
AcDbLine
 10
1400.190474080796
 20
419.2456345050048
 30
0.0
 11
1413.837842387922
 21
419.2456345050043
 31
0.0
  0
LINE
  5
3D83
330
2
100
AcDbEntity
  8
HIDS
  6
SEKKEI_H
100
AcDbLine
 10
1413.837842387922
 20
419.2456345050043
 30
0.0
 11
1413.837842387922
 21
436.5116848240247
 31
0.0
  0
LINE
  5
3D84
330
2
100
AcDbEntity
  8
HIDS
  6
SEKKEI_H
100
AcDbLine
 10
1410.587842387922
 20
409.9956345050015
 30
0.0
 11
1410.587842387922
 21
419.2456345050045
 31
0.0
  0
LINE
  5
3D88
330
2
100
AcDbEntity
  8
0
100
AcDbLine
 10
1398.596632657762
 20
408.4956345050016
 30
0.0
 11
1413.10392120303
 21
408.4956345050016
 31
0.0
  0
LINE
  5
3D89
330
2
100
AcDbEntity
  8
0
100
AcDbLine
 10
1448.071763572844
 20
408.4956345050016
 30
0.0
 11
1460.673964032324
 21
408.495634505002
 31
0.0
  0
LINE
  5
3D8A
330
2
100
AcDbEntity
  8
0
100
AcDbLine
 10
1398.596632657762
 20
409.9956345050015
 30
0.0
 11
1413.103921203031
 21
409.9956345050015
 31
0.0
  0
LINE
  5
3D8B
330
2
100
AcDbEntity
  8
0
100
AcDbLine
 10
1448.071763572842
 20
409.995634505002
 30
0.0
 11
1460.673964032324
 21
409.9956345050015
 31
0.0
  0
LINE
  5
3D8D
330
2
100
AcDbEntity
  8
HIDS
  6
SEKKEI_H
100
AcDbLine
 10
1401.587842387936
 20
409.9956345050015
 30
0.0
 11
1401.587842387936
 21
419.2456345050045
 31
0.0
  0
LINE
  5
3D8E
330
2
100
AcDbEntity
  8
0
100
AcDbLine
 10
1460.673964032324
 20
408.495634505002
 30
0.0
 11
1460.673964032324
 21
409.9956345050015
 31
0.0
  0
ARC
  5
3D8F
330
2
100
AcDbEntity
  8
0
100
AcDbCircle
 10
1430.587842387929
 20
409.2456345049856
 30
0.0
 40
18.65470053837964
100
AcDbArc
 50
182.3041602576043
 51
357.6958397423956
  0
ARC
  5
3D90
330
2
100
AcDbEntity
  8
0
100
AcDbCircle
 10
1430.587842387929
 20
409.2456345049856
 30
0.0
 40
18.65470053837964
100
AcDbArc
 50
2.304160257695608
 51
177.6958397423044
  0
CIRCLE
  5
3D91
330
2
100
AcDbEntity
  8
0
100
AcDbCircle
 10
1430.587842387929
 20
409.2456345049856
 30
0.0
 40
17.50000000000857
  0
CIRCLE
  5
3D92
330
2
100
AcDbEntity
  8
0
100
AcDbCircle
 10
1430.587842387929
 20
409.2456345049856
 30
0.0
 40
31.99999999999173
  0
LINE
  5
3D93
330
2
100
AcDbEntity
  8
HIDS
  6
SEKKEI_H
100
AcDbLine
 10
1412.587842387931
 20
428.7456345050047
 30
0.0
 11
1405.215613475224
 21
428.745634505005
 31
0.0
  0
LINE
  5
3D94
330
2
100
AcDbEntity
  8
HIDS
  6
SEKKEI_H
100
AcDbLine
 10
1411.721816984145
 20
429.2456345050047
 30
0.0
 11
1405.607850394361
 21
429.2456345050047
 31
0.0
  0
LINE
  5
3D95
330
2
100
AcDbEntity
  8
HIDS
  6
SEKKEI_H
100
AcDbLine
 10
1413.337842387931
 20
421.2456345050047
 30
0.0
 11
1400.923048439563
 21
421.2456345050047
 31
0.0
  0
LINE
  5
3D98
330
2
100
AcDbEntity
  8
0
 48
0.3
100
AcDbLine
 10
1398.837842387931
 20
421.2456345050045
 30
0.0
 11
1398.837842387931
 21
419.2456345050045
 31
0.0
  0
LINE
  5
3D99
330
2
100
AcDbEntity
  8
0
 48
0.3
100
AcDbLine
 10
1399.587842387931
 20
428.7456345050045
 30
0.0
 11
1400.453867791716
 21
429.2456345050045
 31
0.0
  0
LINE
  5
3D9A
330
2
100
AcDbEntity
  8
0
 48
0.3
100
AcDbLine
 10
1399.587842387931
 20
428.7456345050045
 30
0.0
 11
1399.587842387931
 21
421.2456345050045
 31
0.0
  0
LINE
  5
3D9B
330
2
100
AcDbEntity
  8
HIDS
  6
SEKKEI_H
100
AcDbLine
 10
1413.337842387931
 20
421.2456345050047
 30
0.0
 11
1413.337842387931
 21
419.2456345050048
 31
0.0
  0
LINE
  5
3D9C
330
2
100
AcDbEntity
  8
HIDS
  6
SEKKEI_H
100
AcDbLine
 10
1412.587842387931
 20
428.745634505004
 30
0.0
 11
1411.721816984147
 21
429.2456345050043
 31
0.0
  0
LINE
  5
3D9D
330
2
100
AcDbEntity
  8
HIDS
  6
SEKKEI_H
100
AcDbLine
 10
1412.587842387931
 20
428.7456345050038
 30
0.0
 11
1412.587842387931
 21
421.2456345050047
 31
0.0
  0
LINE
  5
3D9E
330
2
100
AcDbEntity
  8
0
100
AcDbLine
 10
1405.607850394361
 20
429.2456345050047
 30
0.0
 11
1400.453867791716
 21
429.2456345050045
 31
0.0
  0
LINE
  5
3D9F
330
2
100
AcDbEntity
  8
0
100
AcDbLine
 10
1405.215613475224
 20
428.7456345050047
 30
0.0
 11
1399.587842387931
 21
428.7456345050045
 31
0.0
  0
LINE
  5
3DA0
330
2
100
AcDbEntity
  8
0
100
AcDbLine
 10
1400.923048439563
 20
421.2456345050045
 30
0.0
 11
1398.837842387931
 21
421.2456345050045
 31
0.0
  0
LINE
  5
3DA1
330
2
100
AcDbEntity
  8
0
100
AcDbLine
 10
1400.190474080803
 20
419.2456345050048
 30
0.0
 11
1398.837842387931
 21
419.2456345050045
 31
0.0
  0
LINE
  5
3DA3
330
2
100
AcDbEntity
  8
HIDS
  6
SEKKEI_H
100
AcDbLine
 10
1401.007969979956
 20
419.2456345050045
 30
0.0
 11
1413.337842387931
 21
419.2456345050048
 31
0.0
  0
LINE
  5
3DA4
330
2
100
AcDbEntity
  8
HOJO
100
AcDbLine
 10
1402.687842387924
 20
408.4956345050016
 30
0.0
 11
1402.687842387924
 21
409.9956345050015
 31
0.0
  0
LINE
  5
3DA5
330
2
100
AcDbEntity
  8
0
100
AcDbLine
 10
1402.087842387924
 20
408.495634505002
 30
0.0
 11
1402.087842387924
 21
409.9956345050015
 31
0.0
  0
LINE
  5
3DA6
330
2
100
AcDbEntity
  8
HOJO
100
AcDbLine
 10
1409.487842387924
 20
408.495634505002
 30
0.0
 11
1409.487842387924
 21
409.9956345050015
 31
0.0
  0
LINE
  5
3DA7
330
2
100
AcDbEntity
  8
0
100
AcDbLine
 10
1410.087842387925
 20
408.495634505002
 30
0.0
 11
1410.087842387925
 21
409.9956345050015
 31
0.0
  0
LINE
  5
3DA8
330
2
100
AcDbEntity
  8
HIDS
  6
SEKKEI_H
100
AcDbLine
 10
1410.087842387925
 20
409.9956345050015
 30
0.0
 11
1410.087842387925
 21
419.2456345050043
 31
0.0
  0
LINE
  5
3DA9
330
2
100
AcDbEntity
  8
HIDS
  6
SEKKEI_H
100
AcDbLine
 10
1409.487842387924
 20
409.9956345050015
 30
0.0
 11
1409.487842387924
 21
419.2456345050043
 31
0.0
  0
LINE
  5
3DAA
330
2
100
AcDbEntity
  8
HIDS
  6
SEKKEI_H
100
AcDbLine
 10
1402.687842387924
 20
409.9956345050015
 30
0.0
 11
1402.687842387924
 21
419.2456345050048
 31
0.0
  0
LINE
  5
3DAB
330
2
100
AcDbEntity
  8
HIDS
  6
SEKKEI_H
100
AcDbLine
 10
1402.087842387924
 20
409.9956345050015
 30
0.0
 11
1402.087842387924
 21
419.2456345050048
 31
0.0
  0
LINE
  5
3DB1
330
2
100
AcDbEntity
  8
CENTER
100
AcDbLine
 10
646.886391597068
 20
311.2456345050989
 30
0.0
 11
646.8863915970652
 21
507.2456345050984
 31
0.0
  0
LINE
  5
3DB2
330
2
100
AcDbEntity
  8
0
100
AcDbLine
 10
586.5697249303809
 20
431.2456344999572
 30
0.0
 11
586.803752684058
 21
459.3289649377372
 31
0.0
  0
LINE
  5
3DB3
330
2
100
AcDbEntity
  8
CENTER
100
AcDbLine
 10
671.3863915970714
 20
459.8766044925802
 30
0.0
 11
671.3863915970714
 21
502.2456345050984
 31
0.0
  0
LINE
  5
3DB4
330
2
100
AcDbEntity
  8
CENTER
100
AcDbLine
 10
587.1757134784165
 20
338.534956386449
 30
0.0
 11
565.1757134784165
 21
338.534956386449
 31
0.0
  0
LINE
  5
3DB5
330
2
100
AcDbEntity
  8
CENTER
100
AcDbLine
 10
576.1757134784166
 20
349.5349563864436
 30
0.0
 11
576.1757134784166
 21
327.5349563864435
 31
0.0
  0
LINE
  5
3DB6
330
2
100
AcDbEntity
  8
CENTER
100
AcDbLine
 10
576.1757134784147
 20
468.9563126237524
 30
0.0
 11
576.1757134784147
 21
490.9563126237523
 31
0.0
  0
LINE
  5
3DB7
330
2
100
AcDbEntity
  8
CENTER
100
AcDbLine
 10
587.1757134784092
 20
479.9563126237524
 30
0.0
 11
565.1757134784093
 21
479.9563126237524
 31
0.0
  0
LINE
  5
3DB8
330
2
100
AcDbEntity
  8
CENTER
100
AcDbLine
 10
706.597069715719
 20
479.9563126237542
 30
0.0
 11
728.597069715719
 21
479.9563126237542
 31
0.0
  0
LINE
  5
3DB9
330
2
100
AcDbEntity
  8
CENTER
100
AcDbLine
 10
717.597069715719
 20
468.9563126237596
 30
0.0
 11
717.597069715719
 21
490.9563126237596
 31
0.0
  0
LINE
  5
3DBA
330
2
100
AcDbEntity
  8
CENTER
100
AcDbLine
 10
717.5970697157208
 20
349.5349563864508
 30
0.0
 11
717.5970697157208
 21
327.5349563864508
 31
0.0
  0
LINE
  5
3DBB
330
2
100
AcDbEntity
  8
CENTER
100
AcDbLine
 10
706.5970697157263
 20
338.5349563864508
 30
0.0
 11
728.5970697157263
 21
338.5349563864508
 31
0.0
  0
ARC
  5
3DC5
330
2
100
AcDbEntity
  8
0
100
AcDbCircle
 10
640.4592189723598
 20
470.9116012368351
 30
0.0
 40
3.0
100
AcDbArc
 50
336.4926257977113
 51
358.5000000000103
  0
ARC
  5
3DC7
330
2
100
AcDbEntity
  8
0
100
AcDbCircle
 10
653.3048172530016
 20
471.2456344977611
 30
0.0
 40
3.0
100
AcDbArc
 50
181.5000000000157
 51
210.708076702675
  0
ARC
  5
3DC8
330
2
100
AcDbEntity
  8
0
100
AcDbCircle
 10
596.8034054799182
 20
459.2456344977615
 30
0.0
 40
10.0
100
AcDbArc
 50
134.6637886453334
 51
179.5225462226371
  0
LINE
  5
3DC9
330
2
100
AcDbEntity
  8
0
100
AcDbLine
 10
724.6594558462456
 20
321.2456345051002
 30
0.0
 11
569.1133273478999
 21
321.2456345050975
 31
0.0
  0
ARC
  5
3DCA
330
2
100
AcDbEntity
  8
0
100
AcDbCircle
 10
724.6594558462456
 20
331.2456345051002
 30
0.0
 40
10.0
100
AcDbArc
 50
270.0
 51
359.8333333333378
  0
LINE
  5
3DCB
330
2
100
AcDbEntity
  8
0
100
AcDbLine
 10
724.6594558462456
 20
497.2456345050984
 30
0.0
 11
569.1133272571177
 21
497.2456345050984
 31
0.0
  0
ARC
  5
3DCC
330
2
100
AcDbEntity
  8
0
100
AcDbCircle
 10
724.6594558462456
 20
487.2456345050984
 30
0.0
 40
10.0
100
AcDbArc
 50
0.1666666666621024
 51
90.0
  0
LINE
  5
3DCD
330
2
100
AcDbEntity
  8
0
100
AcDbLine
 10
586.5697249304662
 20
387.245634499957
 30
0.0
 11
586.8037526840571
 21
359.162304072465
 31
0.0
  0
ARC
  5
3DCE
330
2
100
AcDbEntity
  8
0
100
AcDbCircle
 10
596.8034054799182
 20
359.2456345124408
 30
0.0
 40
10.0
100
AcDbArc
 50
180.4774537773628
 51
225.3362112757763
  0
LINE
  5
3DD4
330
2
100
AcDbEntity
  8
0
100
AcDbLine
 10
558.886391597066
 20
409.2456345049292
 30
0.0
 11
584.8863915970594
 21
409.2456345050887
 31
0.0
  0
LINE
  5
3DDB
330
2
100
AcDbEntity
  8
0
100
AcDbLine
 10
649.3850654261032
 20
493.2456345051102
 30
0.0
 11
644.3850654261032
 21
493.2456345051102
 31
0.0
  0
LINE
  5
3DDC
330
2
100
AcDbEntity
  8
0
100
AcDbLine
 10
643.9644704260654
 20
490.1671036601872
 30
0.0
 11
643.4581909472862
 21
470.8330703919111
 31
0.0
  0
LINE
  5
3DDD
330
2
100
AcDbEntity
  8
0
100
AcDbLine
 10
649.8083127680656
 20
490.1671036601867
 30
0.0
 11
650.3145922468457
 21
470.8330703919116
 31
0.0
  0
ARC
  5
3DDE
330
2
100
AcDbEntity
  8
0
100
AcDbCircle
 10
652.8072847429921
 20
490.2456345051112
 30
0.0
 40
3.0
100
AcDbArc
 50
90.0
 51
181.5000000000156
  0
ARC
  5
3DDF
330
2
100
AcDbEntity
  8
0
100
AcDbCircle
 10
640.9654984511371
 20
490.2456345051112
 30
0.0
 40
3.000000000000001
100
AcDbArc
 50
358.4999999999843
 51
90.0
  0
ARC
  5
3DE0
330
2
100
AcDbEntity
  8
0
100
AcDbCircle
 10
653.3135642217703
 20
470.9116012368351
 30
0.0
 40
3.0
100
AcDbArc
 50
181.4999999999896
 51
203.5073742022886
  0
ARC
  5
3DE1
330
2
100
AcDbEntity
  8
0
100
AcDbCircle
 10
653.3135642217757
 20
347.5796677733672
 30
0.0
 40
3.0
100
AcDbArc
 50
156.4926258025159
 51
178.4999999999843
  0
LINE
  5
3DE2
330
2
100
AcDbEntity
  8
0
100
AcDbLine
 10
644.3877177680324
 20
325.245634505092
 30
0.0
 11
649.3877177680324
 21
325.245634505092
 31
0.0
  0
LINE
  5
3DE3
330
2
100
AcDbEntity
  8
0
100
AcDbLine
 10
649.8083127680701
 20
328.3241653500151
 30
0.0
 11
650.3145922468493
 21
347.6581986182911
 31
0.0
  0
LINE
  5
3DE4
330
2
100
AcDbEntity
  8
0
100
AcDbLine
 10
643.9644704260699
 20
328.3241653500156
 30
0.0
 11
643.4581909472899
 21
347.6581986182907
 31
0.0
  0
ARC
  5
3DE5
330
2
100
AcDbEntity
  8
0
100
AcDbCircle
 10
640.9654984511434
 20
328.2456345050911
 30
0.0
 40
3.0
100
AcDbArc
 50
270.0
 51
1.500000000015671
  0
ARC
  5
3DE6
330
2
100
AcDbEntity
  8
0
100
AcDbCircle
 10
652.8072847429984
 20
328.2456345050911
 30
0.0
 40
3.000000000000001
100
AcDbArc
 50
178.4999999999843
 51
270.0
  0
ARC
  5
3DE7
330
2
100
AcDbEntity
  8
0
100
AcDbCircle
 10
640.4592189723652
 20
347.5796677733672
 30
0.0
 40
3.0
100
AcDbArc
 50
1.500000000015671
 51
23.50737419748206
  0
LINE
  5
3DE8
330
2
100
AcDbEntity
  8
0
100
AcDbLine
 10
559.1133696558454
 20
487.2747232849367
 30
0.0
 11
558.8863915970221
 21
409.2456344903519
 31
0.0
  0
ARC
  5
3DE9
330
2
100
AcDbEntity
  8
0
100
AcDbCircle
 10
569.1133273478653
 20
487.2456345050993
 30
0.0
 40
10.0
100
AcDbArc
 50
90.0
 51
179.8333333333639
  0
LINE
  5
3DEA
330
2
100
AcDbEntity
  8
0
100
AcDbLine
 10
559.1133696558454
 20
331.2165457252551
 30
0.0
 11
558.8863915971081
 21
409.2456344903516
 31
0.0
  0
ARC
  5
3DEB
330
2
100
AcDbEntity
  8
0
100
AcDbCircle
 10
569.1133273478999
 20
331.2456345050975
 30
0.0
 40
10.0
100
AcDbArc
 50
180.1666666666621
 51
270.0
  0
LINE
  5
3DEC
330
2
100
AcDbEntity
  8
0
100
AcDbLine
 10
734.6594135383002
 20
487.2747232849408
 30
0.0
 11
734.8223960106756
 21
431.2456345050527
 31
0.0
  0
LINE
  5
3DED
330
2
100
AcDbEntity
  8
0
100
AcDbLine
 10
734.6594135383002
 20
331.2165457252579
 30
0.0
 11
734.8223960106753
 21
387.2456345050528
 31
0.0
  0
CIRCLE
  5
3DF0
330
2
100
AcDbEntity
  8
HOJO
100
AcDbCircle
 10
717.5970697157185
 20
479.956312623754
 30
0.0
 40
6.0
  0
CIRCLE
  5
3DF1
330
2
100
AcDbEntity
  8
0
100
AcDbCircle
 10
717.5970697157185
 20
479.956312623754
 30
0.0
 40
5.15
  0
CIRCLE
  5
3DF2
330
2
100
AcDbEntity
  8
HOJO
100
AcDbCircle
 10
576.1757134784143
 20
479.9563126237521
 30
0.0
 40
6.0
  0
CIRCLE
  5
3DF3
330
2
100
AcDbEntity
  8
0
100
AcDbCircle
 10
576.1757134784143
 20
479.9563126237521
 30
0.0
 40
5.15
  0
CIRCLE
  5
3DF4
330
2
100
AcDbEntity
  8
HOJO
100
AcDbCircle
 10
576.175713478416
 20
338.5349563864437
 30
0.0
 40
6.0
  0
CIRCLE
  5
3DF5
330
2
100
AcDbEntity
  8
0
100
AcDbCircle
 10
576.175713478416
 20
338.5349563864437
 30
0.0
 40
5.15
  0
CIRCLE
  5
3DF6
330
2
100
AcDbEntity
  8
HOJO
100
AcDbCircle
 10
717.5970697157204
 20
338.5349563864507
 30
0.0
 40
6.0
  0
CIRCLE
  5
3DF7
330
2
100
AcDbEntity
  8
0
100
AcDbCircle
 10
717.5970697157204
 20
338.5349563864507
 30
0.0
 40
5.15
  0
LINE
  5
3E01
330
2
100
AcDbEntity
  8
0
100
AcDbLine
 10
565.8893813377633
 20
412.7398690786224
 30
0.0
 11
584.8863915969393
 21
412.7412212748526
 31
0.0
  0
ARC
  5
3E02
330
2
100
AcDbEntity
  8
0
100
AcDbCircle
 10
565.8891677994945
 20
415.7398690710217
 30
0.0
 40
3.0
100
AcDbArc
 50
180.0040782801648
 51
270.004078280217
  0
LINE
  5
3E04
330
2
100
AcDbEntity
  8
0
100
AcDbLine
 10
565.8898794981062
 20
405.7411953264077
 30
0.0
 11
584.8863915971797
 21
405.7425474805731
 31
0.0
  0
ARC
  5
3E05
330
2
100
AcDbEntity
  8
0
100
AcDbCircle
 10
565.8900930353317
 20
402.7411953340082
 30
0.0
 40
3.0
100
AcDbArc
 50
90.00407826091018
 51
180.0040782609557
  0
LINE
  5
3E06
330
2
100
AcDbEntity
  8
0
100
AcDbLine
 10
562.8863915970566
 20
411.7443083341345
 30
0.0
 11
562.8863915970566
 21
406.7443083341345
 31
0.0
  0
ARC
  5
3E07
330
2
100
AcDbEntity
  8
0
100
AcDbCircle
 10
655.7045292586126
 20
494.2456345050984
 30
0.0
 40
3.0
100
AcDbArc
 50
1.499999999996143
 51
90.0
  0
LINE
  5
3E08
330
2
100
AcDbEntity
  8
0
100
AcDbLine
 10
659.3498324368972
 20
469.6417724979869
 30
0.0
 11
658.70350123354
 21
494.3241653500215
 31
0.0
  0
ARC
  5
3E09
330
2
100
AcDbEntity
  8
0
100
AcDbCircle
 10
687.0682393336446
 20
494.245076881557
 30
0.0
 40
3.000000000000001
100
AcDbArc
 50
90.0
 51
178.5000000000038
  0
LINE
  5
3E0A
330
2
100
AcDbEntity
  8
0
100
AcDbLine
 10
683.4176987634087
 20
469.4412069452643
 30
0.0
 11
684.0692673587182
 21
494.3236077264803
 31
0.0
  0
LINE
  5
3E0B
330
2
100
AcDbEntity
  8
0
100
AcDbLine
 10
676.3863915970715
 20
472.2456345049823
 30
0.0
 11
666.3863915970714
 21
472.2456345049823
 31
0.0
  0
ARC
  5
3E0C
330
2
100
AcDbEntity
  8
0
100
AcDbCircle
 10
666.3863915970714
 20
468.2456345049823
 30
0.0
 40
4.0
100
AcDbArc
 50
90.0
 51
159.9887155235556
  0
ARC
  5
3E0D
330
2
100
AcDbEntity
  8
0
100
AcDbCircle
 10
676.3863915970715
 20
468.2456345049823
 30
0.0
 40
4.0
100
AcDbArc
 50
17.7946873351587
 51
90.0
  0
LINE
  5
3E0E
330
2
100
AcDbEntity
  8
0
100
AcDbLine
 10
1077.29933388114
 20
757.2723223916197
 30
0.0
 11
1078.79933388114
 21
757.2723223916195
 31
0.0
  0
LINE
  5
3E0F
330
2
100
AcDbEntity
  8
0
100
AcDbLine
 10
1077.299333881139
 20
745.7723223916197
 30
0.0
 11
1078.79933388114
 21
745.7723223916196
 31
0.0
  0
LINE
  5
3E10
330
2
100
AcDbEntity
  8
0
100
AcDbLine
 10
1084.39933388114
 20
756.5223223916197
 30
0.0
 11
1084.79933388114
 21
755.8295020685924
 31
0.0
  0
LINE
  5
3E11
330
2
100
AcDbEntity
  8
0
100
AcDbLine
 10
1078.79933388114
 20
757.2723223916195
 30
0.0
 11
1078.79933388114
 21
745.7723223916196
 31
0.0
  0
LINE
  5
3E12
330
2
100
AcDbEntity
  8
0
100
AcDbLine
 10
1084.39933388114
 20
756.5223223916197
 30
0.0
 11
1084.39933388114
 21
746.5223223916197
 31
0.0
  0
LINE
  5
3E13
330
2
100
AcDbEntity
  8
0
100
AcDbLine
 10
1078.79933388114
 20
756.5223223916196
 30
0.0
 11
1084.39933388114
 21
756.5223223916197
 31
0.0
  0
LINE
  5
3E14
330
2
100
AcDbEntity
  8
0
100
AcDbLine
 10
1078.79933388114
 20
746.5223223916195
 30
0.0
 11
1084.39933388114
 21
746.5223223916197
 31
0.0
  0
LINE
  5
3E15
330
2
100
AcDbEntity
  8
0
100
AcDbLine
 10
1084.39933388114
 20
746.5223223916197
 30
0.0
 11
1084.799333881139
 21
747.2151427146469
 31
0.0
  0
LINE
  5
3E16
330
2
100
AcDbEntity
  8
0
100
AcDbLine
 10
1084.79933388114
 20
755.8295020685924
 30
0.0
 11
1084.799333881139
 21
747.2151427146469
 31
0.0
  0
LINE
  5
3E17
330
2
100
AcDbEntity
  8
0
 48
12.0
100
AcDbLine
 10
1077.299333881139
 20
745.7723223916197
 30
0.0
 11
1077.29933388114
 21
757.2723223916197
 31
0.0
  0
LINE
  5
3E18
330
2
100
AcDbEntity
  8
0
100
AcDbLine
 10
1077.589205637944
 20
365.8517132124027
 30
0.0
 11
1079.089205637945
 21
365.8517132124027
 31
0.0
  0
LINE
  5
3E19
330
2
100
AcDbEntity
  8
0
100
AcDbLine
 10
1077.589205637944
 20
354.3517132124027
 30
0.0
 11
1079.089205637945
 21
354.3517132124027
 31
0.0
  0
LINE
  5
3E1A
330
2
100
AcDbEntity
  8
0
100
AcDbLine
 10
1084.689205637944
 20
365.1017132124028
 30
0.0
 11
1085.089205637944
 21
364.4088928893755
 31
0.0
  0
LINE
  5
3E1B
330
2
100
AcDbEntity
  8
0
100
AcDbLine
 10
1079.089205637945
 20
365.8517132124027
 30
0.0
 11
1079.089205637945
 21
354.3517132124027
 31
0.0
  0
LINE
  5
3E1C
330
2
100
AcDbEntity
  8
0
100
AcDbLine
 10
1084.689205637944
 20
365.1017132124028
 30
0.0
 11
1084.689205637944
 21
355.1017132124028
 31
0.0
  0
LINE
  5
3E1D
330
2
100
AcDbEntity
  8
0
100
AcDbLine
 10
1079.089205637945
 20
365.1017132124027
 30
0.0
 11
1084.689205637944
 21
365.1017132124028
 31
0.0
  0
LINE
  5
3E1E
330
2
100
AcDbEntity
  8
0
100
AcDbLine
 10
1079.089205637945
 20
355.1017132124027
 30
0.0
 11
1084.689205637944
 21
355.1017132124028
 31
0.0
  0
LINE
  5
3E1F
330
2
100
AcDbEntity
  8
0
100
AcDbLine
 10
1084.689205637944
 20
355.1017132124028
 30
0.0
 11
1085.089205637944
 21
355.79453353543
 31
0.0
  0
LINE
  5
3E20
330
2
100
AcDbEntity
  8
0
100
AcDbLine
 10
1085.089205637944
 20
364.4088928893755
 30
0.0
 11
1085.089205637944
 21
355.79453353543
 31
0.0
  0
LINE
  5
3E21
330
2
100
AcDbEntity
  8
0
 48
12.0
100
AcDbLine
 10
1077.589205637944
 20
354.3517132124027
 30
0.0
 11
1077.589205637944
 21
365.8517132124027
 31
0.0
  0
LINE
  5
3E22
330
2
100
AcDbEntity
  8
CENTER
  6
CENTERX2
100
AcDbLine
 10
1074.299333881141
 20
849.8101649765468
 30
0.0
 11
1087.799333881142
 21
849.8101649765462
 31
0.0
  0
LINE
  5
3E23
330
2
100
AcDbEntity
  8
CENTER
  6
CENTERX2
100
AcDbLine
 10
1074.29933388114
 20
751.52232239162
 30
0.0
 11
1087.799333881141
 21
751.5223223916195
 31
0.0
  0
LINE
  5
3E24
330
2
100
AcDbEntity
  8
CENTER
  6
CENTERX2
100
AcDbLine
 10
1074.589205637945
 20
458.3895557975712
 30
0.0
 11
1088.089205637946
 21
458.3895557975707
 31
0.0
  0
LINE
  5
3E25
330
2
100
AcDbEntity
  8
CENTER
  6
CENTERX2
100
AcDbLine
 10
1074.589205637944
 20
360.1017132124033
 30
0.0
 11
1088.089205637945
 21
360.1017132124028
 31
0.0
  0
LINE
  5
3E26
330
2
100
AcDbEntity
  8
CENTER
  6
CENTERX2
100
AcDbLine
 10
292.1180955410028
 20
458.3888926805457
 30
0.0
 11
278.611986268277
 21
458.3888926805455
 31
0.0
  0
LINE
  5
3E27
330
2
100
AcDbEntity
  8
CENTER
  6
CENTERX2
100
AcDbLine
 10
292.1181186905131
 20
360.1010500956126
 30
0.0
 11
278.6120094177873
 21
360.1010500956124
 31
0.0
  0
CIRCLE
  5
3E28
330
2
100
AcDbEntity
  8
0
100
AcDbCircle
 10
1430.587842387929
 20
409.2456345049858
 30
0.0
 40
45.99999999998874
  0
CIRCLE
  5
3E29
330
2
100
AcDbEntity
  8
0
100
AcDbCircle
 10
1430.587842387929
 20
409.2456345049858
 30
0.0
 40
46.4999999999892
  0
CIRCLE
  5
3E2A
330
2
100
AcDbEntity
  8
0
100
AcDbCircle
 10
1430.587842387929
 20
409.2456345049858
 30
0.0
 40
50.37919357557564
  0
CIRCLE
  5
3E2B
330
2
100
AcDbEntity
  8
0
100
AcDbCircle
 10
1430.587842387929
 20
409.2456345049858
 30
0.0
 40
55.24999999998965
  0
CIRCLE
  5
3E2C
330
2
100
AcDbEntity
  8
0
100
AcDbCircle
 10
1430.587842387929
 20
409.2456345049858
 30
0.0
 40
55.74999999999104
  0
LINE
  5
3E2D
330
2
100
AcDbEntity
  8
CENTER
100
AcDbLine
 10
1381.443921095453
 20
450.6284741909946
 30
0.0
 11
1381.443921095453
 21
466.1506374038724
 31
0.0
  0
LINE
  5
3E2E
330
2
100
AcDbEntity
  8
CENTER
100
AcDbLine
 10
1373.68283948902
 20
458.3895557974336
 30
0.0
 11
1389.205002701898
 21
458.3895557974336
 31
0.0
  0
LINE
  5
3E2F
330
2
100
AcDbEntity
  8
CENTER
100
AcDbLine
 10
1381.443921095459
 20
352.3406316060634
 30
0.0
 11
1381.443921095459
 21
367.8627948189411
 31
0.0
  0
LINE
  5
3E30
330
2
100
AcDbEntity
  8
CENTER
100
AcDbLine
 10
1373.682839489026
 20
360.1017132125023
 30
0.0
 11
1389.205002701904
 21
360.1017132125023
 31
0.0
  0
LINE
  5
3E31
330
2
100
AcDbEntity
  8
CENTER
100
AcDbLine
 10
1479.73176368039
 20
352.3406316060698
 30
0.0
 11
1479.731763680391
 21
367.8627948189475
 31
0.0
  0
LINE
  5
3E32
330
2
100
AcDbEntity
  8
CENTER
100
AcDbLine
 10
1471.970682073957
 20
360.1017132125087
 30
0.0
 11
1487.492845286835
 21
360.1017132125087
 31
0.0
  0
LINE
  5
4AE8
330
2
100
AcDbEntity
  8
CENTER
100
AcDbLine
 10
1167.799333881145
 20
409.2456345049925
 30
0.0
 11
882.7993338811445
 21
409.2456345049933
 31
0.0
  0
ARC
  5
4AE9
330
2
100
AcDbEntity
  8
0
100
AcDbCircle
 10
961.2974903713856
 20
362.5256345049886
 30
0.0
 40
2.720000000003957
100
AcDbArc
 50
307.5189678668038
 51
90.0
  0
LINE
  5
4AEA
330
2
100
AcDbEntity
  8
0
100
AcDbLine
 10
954.6575631313753
 20
365.2456345049929
 30
0.0
 11
961.2974903713856
 21
365.2456345049929
 31
0.0
  0
LINE
  5
4AEB
330
2
100
AcDbEntity
  8
0
100
AcDbLine
 10
956.1775631313777
 20
357.2456345049811
 30
0.0
 11
958.577490371381
 21
357.2456345049806
 31
0.0
  0
LINE
  5
4AEC
330
2
100
AcDbEntity
  8
0
100
AcDbLine
 10
956.1775631313777
 20
358.4456345049827
 30
0.0
 11
956.1775631313777
 21
357.2456345049811
 31
0.0
  0
LINE
  5
4AED
330
2
100
AcDbEntity
  8
0
100
AcDbLine
 10
954.1375643727024
 20
358.4456345049832
 30
0.0
 11
956.1775631313777
 21
358.4456345049827
 31
0.0
  0
LINE
  5
4AEE
330
2
100
AcDbEntity
  8
0
100
AcDbLine
 10
954.1375643727024
 20
358.4456345049832
 30
0.0
 11
953.537564372702
 21
357.2456345049811
 31
0.0
  0
LINE
  5
4AEF
330
2
100
AcDbEntity
  8
0
100
AcDbLine
 10
950.6575631313699
 20
357.2456345049815
 30
0.0
 11
953.537564372702
 21
357.2456345049811
 31
0.0
  0
LINE
  5
4AF0
330
2
100
AcDbEntity
  8
0
100
AcDbLine
 10
955.4175643727049
 20
361.0056345049859
 30
0.0
 11
956.1775631313777
 21
361.0056345049863
 31
0.0
  0
LINE
  5
4AF1
330
2
100
AcDbEntity
  8
0
100
AcDbLine
 10
954.6575631313753
 20
365.2456345049929
 30
0.0
 11
950.6575631313699
 21
357.2456345049815
 31
0.0
  0
LINE
  5
4AF2
330
2
100
AcDbEntity
  8
0
100
AcDbLine
 10
956.1775631313777
 20
362.5256320223322
 30
0.0
 11
955.4175643727049
 21
361.0056345049859
 31
0.0
  0
LINE
  5
4AF3
330
2
100
AcDbEntity
  8
0
100
AcDbLine
 10
956.1775631313777
 20
362.5256320223322
 30
0.0
 11
956.1775631313777
 21
361.0056345049863
 31
0.0
  0
ARC
  5
4AF4
330
2
100
AcDbEntity
  8
0
100
AcDbCircle
 10
961.1275631313857
 20
362.3556345049885
 30
0.0
 40
0.1700000000002474
100
AcDbArc
 50
270.0
 51
90.0
  0
LINE
  5
4AF5
330
2
100
AcDbEntity
  8
0
100
AcDbLine
 10
958.9175631313811
 20
362.1856345049879
 30
0.0
 11
961.1275631313857
 21
362.1856345049879
 31
0.0
  0
LINE
  5
4AF6
330
2
100
AcDbEntity
  8
0
100
AcDbLine
 10
958.577490371381
 20
362.525634504989
 30
0.0
 11
961.1275631313837
 21
362.525634504989
 31
0.0
  0
LINE
  5
4AF7
330
2
100
AcDbEntity
  8
0
100
AcDbLine
 10
962.954035751045
 20
360.3682617033734
 30
0.0
 11
964.9411046308996
 21
357.2456345049815
 31
0.0
  0
LINE
  5
4AF8
330
2
100
AcDbEntity
  8
0
100
AcDbLine
 10
962.0611033895684
 20
357.2456345049811
 30
0.0
 11
964.9411046308996
 21
357.2456345049815
 31
0.0
  0
LINE
  5
4AF9
330
2
100
AcDbEntity
  8
0
100
AcDbLine
 10
958.577490371381
 20
362.525634504989
 30
0.0
 11
958.577490371381
 21
357.2456345049806
 31
0.0
  0
LINE
  5
4AFA
330
2
100
AcDbEntity
  8
0
100
AcDbLine
 10
958.9175631313811
 20
362.1856345049879
 30
0.0
 11
962.0611033895684
 21
357.2456345049811
 31
0.0
  0
LINE
  5
4AFB
330
2
100
AcDbEntity
  8
0
100
AcDbLine
 10
1049.299333881135
 20
349.2456345049927
 30
0.0
 11
1063.299333881135
 21
349.2456345049927
 31
0.0
  0
LINE
  5
4AFC
330
2
100
AcDbEntity
  8
0
100
AcDbLine
 10
1047.299333881134
 20
350.7456345049931
 30
0.0
 11
1047.299333881134
 21
467.7456345049923
 31
0.0
  0
LINE
  5
4AFD
330
2
100
AcDbEntity
  8
0
100
AcDbLine
 10
1033.799333881134
 20
378.2456345049895
 30
0.0
 11
1033.799333881134
 21
403.2456345049925
 31
0.0
  0
LINE
  5
4AFE
330
2
100
AcDbEntity
  8
0
100
AcDbLine
 10
1033.799333881134
 20
415.2456345049929
 30
0.0
 11
1033.799333881134
 21
440.2456345049959
 31
0.0
  0
ARC
  5
4AFF
330
2
100
AcDbEntity
  8
0
100
AcDbCircle
 10
1030.799333881134
 20
403.2456345049925
 30
0.0
 40
3.0
100
AcDbArc
 50
0.0
 51
90.0
  0
ARC
  5
4B00
330
2
100
AcDbEntity
  8
0
100
AcDbCircle
 10
1030.799333881134
 20
415.2456345049929
 30
0.0
 40
3.0
100
AcDbArc
 50
270.0
 51
0.0
  0
ARC
  5
4B01
330
2
100
AcDbEntity
  8
0
100
AcDbCircle
 10
1039.299333881134
 20
451.2456345049965
 30
0.0
 40
8.0
100
AcDbArc
 50
270.0
 51
0.0
  0
ARC
  5
4B02
330
2
100
AcDbEntity
  8
0
100
AcDbCircle
 10
1044.299333881134
 20
403.2456345049925
 30
0.0
 40
3.0
100
AcDbArc
 50
0.0
 51
90.0
  0
ARC
  5
4B03
330
2
100
AcDbEntity
  8
0
100
AcDbCircle
 10
1044.299333881135
 20
358.17037372721
 30
0.0
 40
3.0
100
AcDbArc
 50
0.0
 51
100.000000000005
  0
ARC
  5
4B04
330
2
100
AcDbEntity
  8
0
100
AcDbCircle
 10
1044.299333881135
 20
460.3208952827753
 30
0.0
 40
3.0
100
AcDbArc
 50
259.9999999999949
 51
0.0
  0
ARC
  5
4B05
330
2
100
AcDbEntity
  8
0
100
AcDbCircle
 10
1049.299333881135
 20
351.2456345049927
 30
0.0
 40
2.0
100
AcDbArc
 50
180.0
 51
270.0
  0
ARC
  5
4B06
330
2
100
AcDbEntity
  8
0
100
AcDbCircle
 10
1049.299333881135
 20
467.2456345049927
 30
0.0
 40
2.0
100
AcDbArc
 50
90.0
 51
180.0
  0
LINE
  5
4B07
330
2
100
AcDbEntity
  8
0
100
AcDbLine
 10
1049.299333881135
 20
469.2456345049927
 30
0.0
 11
1063.299333881134
 21
469.2456345049927
 31
0.0
  0
LINE
  5
4B08
330
2
100
AcDbEntity
  8
CENTER
100
AcDbLine
 10
900.0018591980797
 20
359.7481598219344
 30
0.0
 11
916.6018591980792
 21
359.7481598219344
 31
0.0
  0
LINE
  5
4B09
330
2
100
AcDbEntity
  8
CENTER
100
AcDbLine
 10
908.3018591980794
 20
368.0481598219344
 30
0.0
 11
908.3018591980794
 21
351.4481598219345
 31
0.0
  0
LINE
  5
4B0A
330
2
100
AcDbEntity
  8
0
100
AcDbLine
 10
1043.778389348134
 20
457.3664720237387
 30
0.0
 11
1019.090799224041
 21
461.7195602512874
 31
0.0
  0
LINE
  5
4B0B
330
2
100
AcDbEntity
  8
0
100
AcDbLine
 10
1043.778389348134
 20
361.1247969862468
 30
0.0
 11
1019.090799224041
 21
356.7717087586979
 31
0.0
  0
LINE
  5
4B0C
330
2
100
AcDbEntity
  8
0
100
AcDbLine
 10
1020.799333881138
 20
412.2456345049926
 30
0.0
 11
1044.299333881134
 21
412.2456345049929
 31
0.0
  0
ARC
  5
4B0D
330
2
100
AcDbEntity
  8
0
100
AcDbCircle
 10
1044.299333881134
 20
415.2456345049929
 30
0.0
 40
3.0
100
AcDbArc
 50
270.0
 51
0.0
  0
LINE
  5
4B0E
330
2
100
AcDbEntity
  8
0
100
AcDbLine
 10
1020.799333881138
 20
406.2456345049924
 30
0.0
 11
1044.299333881134
 21
406.2456345049924
 31
0.0
  0
LINE
  5
4B0F
330
2
100
AcDbEntity
  8
CENTER
100
AcDbLine
 10
998.9968085641962
 20
359.7481598219344
 30
0.0
 11
1015.596808564196
 21
359.7481598219344
 31
0.0
  0
LINE
  5
4B10
330
2
100
AcDbEntity
  8
CENTER
100
AcDbLine
 10
1007.296808564196
 20
368.0481598219344
 30
0.0
 11
1007.296808564196
 21
351.4481598219345
 31
0.0
  0
LINE
  5
4B11
330
2
100
AcDbEntity
  8
CENTER
100
AcDbLine
 10
998.9968085641962
 20
458.7431091880512
 30
0.0
 11
1015.596808564196
 21
458.7431091880512
 31
0.0
  0
LINE
  5
4B12
330
2
100
AcDbEntity
  8
CENTER
100
AcDbLine
 10
1007.296808564196
 20
467.0431091880511
 30
0.0
 11
1007.296808564196
 21
450.4431091880512
 31
0.0
  0
LINE
  5
4B13
330
2
100
AcDbEntity
  8
CENTER
100
AcDbLine
 10
900.0018591980797
 20
458.7431091880512
 30
0.0
 11
916.6018591980792
 21
458.7431091880512
 31
0.0
  0
LINE
  5
4B14
330
2
100
AcDbEntity
  8
CENTER
100
AcDbLine
 10
908.3018591980794
 20
467.0431091880511
 30
0.0
 11
908.3018591980794
 21
450.4431091880512
 31
0.0
  0
LINE
  5
4B15
330
2
100
AcDbEntity
  8
0
100
AcDbLine
 10
1063.299333881134
 20
348.7456345049931
 30
0.0
 11
1063.299333881134
 21
469.7456345049923
 31
0.0
  0
LINE
  5
4B16
330
2
100
AcDbEntity
  8
0
100
AcDbLine
 10
1039.299333881137
 20
443.2456345049965
 30
0.0
 11
1036.799333881135
 21
443.2456345049959
 31
0.0
  0
LINE
  5
4B17
330
2
100
AcDbEntity
  8
0
100
AcDbLine
 10
1030.799333881136
 20
437.2456345049958
 30
0.0
 11
1020.799333881139
 21
437.2456345049958
 31
0.0
  0
ARC
  5
4B18
330
2
100
AcDbEntity
  8
0
100
AcDbCircle
 10
1020.799333881139
 20
440.2456345049959
 30
0.0
 40
3.0
100
AcDbArc
 50
180.0
 51
270.0
  0
ARC
  5
4B19
330
2
100
AcDbEntity
  8
0
100
AcDbCircle
 10
1030.799333881136
 20
440.2456345049959
 30
0.0
 40
3.0
100
AcDbArc
 50
270.0
 51
0.0
  0
LINE
  5
4B1A
330
2
100
AcDbEntity
  8
0
100
AcDbLine
 10
1033.799333881136
 20
440.2456345049959
 30
0.0
 11
1033.799333881136
 21
440.2456345049959
 31
0.0
  0
ARC
  5
4B1B
330
2
100
AcDbEntity
  8
0
100
AcDbCircle
 10
1036.799333881136
 20
440.2456345049959
 30
0.0
 40
3.0
100
AcDbArc
 50
90.0
 51
180.0
  0
LINE
  5
4B1C
330
2
100
AcDbEntity
  8
0
100
AcDbLine
 10
1039.299333881137
 20
375.2456345049888
 30
0.0
 11
1036.799333881135
 21
375.2456345049895
 31
0.0
  0
LINE
  5
4B1D
330
2
100
AcDbEntity
  8
0
100
AcDbLine
 10
1030.799333881136
 20
381.2456345049895
 30
0.0
 11
1020.799333881138
 21
381.2456345049897
 31
0.0
  0
ARC
  5
4B1E
330
2
100
AcDbEntity
  8
0
100
AcDbCircle
 10
1030.799333881136
 20
378.2456345049895
 30
0.0
 40
3.0
100
AcDbArc
 50
0.0
 51
90.0
  0
LINE
  5
4B1F
330
2
100
AcDbEntity
  8
0
100
AcDbLine
 10
1033.799333881136
 20
378.2456345049895
 30
0.0
 11
1033.799333881136
 21
378.2456345049895
 31
0.0
  0
ARC
  5
4B20
330
2
100
AcDbEntity
  8
0
100
AcDbCircle
 10
1036.799333881136
 20
378.2456345049895
 30
0.0
 40
3.0
100
AcDbArc
 50
180.0
 51
269.9999999999739
  0
ARC
  5
4B21
330
2
100
AcDbEntity
  8
0
100
AcDbCircle
 10
1039.299333881134
 20
367.2456345049888
 30
0.0
 40
8.0
100
AcDbArc
 50
0.0
 51
89.99999999997395
  0
ARC
  5
4B22
330
2
100
AcDbEntity
  8
0
100
AcDbCircle
 10
957.7993338811365
 20
219.2456345049938
 30
0.0
 40
250.0
100
AcDbArc
 50
85.41175424079517
 51
94.58824575920484
  0
ARC
  5
4B23
330
2
100
AcDbEntity
  8
0
 48
0.5
100
AcDbCircle
 10
907.7993338811356
 20
459.245634504994
 30
0.0
 40
10.0
100
AcDbArc
 50
90.0
 51
180.0
  0
LINE
  5
4B24
330
2
100
AcDbEntity
  8
0
 48
0.5
100
AcDbLine
 10
907.7993338811356
 20
469.245634504994
 30
0.0
 11
917.7993338811402
 21
469.2456345049938
 31
0.0
  0
ARC
  5
4B25
330
2
100
AcDbEntity
  8
0
100
AcDbCircle
 10
917.7993338811402
 20
461.2456345049936
 30
0.0
 40
8.0
100
AcDbArc
 50
81.10835431979607
 51
90.0
  0
ARC
  5
4B26
330
2
100
AcDbEntity
  8
0
 48
0.5
100
AcDbCircle
 10
1007.799333881139
 20
459.245634504994
 30
0.0
 40
10.0
100
AcDbArc
 50
0.0
 51
90.0
  0
ARC
  5
4B27
330
2
100
AcDbEntity
  8
0
100
AcDbCircle
 10
1019.611743757042
 20
464.673983510324
 30
0.0
 40
3.0
100
AcDbArc
 50
204.6809703631087
 51
259.9999999999949
  0
ARC
  5
4B28
330
2
100
AcDbEntity
  8
0
100
AcDbCircle
 10
931.4011709074847
 20
548.1880869060431
 30
0.0
 40
80.0
100
AcDbArc
 50
261.1083543197961
 51
274.5882457592048
  0
LINE
  5
4B29
330
2
100
AcDbEntity
  8
0
 48
0.5
100
AcDbLine
 10
897.7993338811357
 20
459.245634504994
 30
0.0
 11
897.799333881136
 21
449.24563450499
 31
0.0
  0
ARC
  5
4B2A
330
2
100
AcDbEntity
  8
0
100
AcDbCircle
 10
905.7993338811366
 20
449.24563450499
 30
0.0
 40
8.0
100
AcDbArc
 50
180.0
 51
188.8916456802039
  0
ARC
  5
4B2B
330
2
100
AcDbEntity
  8
0
100
AcDbCircle
 10
818.856881480087
 20
435.6437974786445
 30
0.0
 40
80.0
100
AcDbArc
 50
355.4117542407789
 51
8.89164568020392
  0
LINE
  5
4B2C
330
2
100
AcDbEntity
  8
0
 48
0.5
100
AcDbLine
 10
1007.799333881139
 20
469.245634504994
 30
0.0
 11
997.7993338811357
 21
469.2456345049938
 31
0.0
  0
ARC
  5
4B2D
330
2
100
AcDbEntity
  8
0
100
AcDbCircle
 10
997.7993338811357
 20
461.2456345049936
 30
0.0
 40
8.0
100
AcDbArc
 50
90.0
 51
98.89164568020392
  0
ARC
  5
4B2E
330
2
100
AcDbEntity
  8
0
100
AcDbCircle
 10
984.1974968547901
 20
548.1880869060431
 30
0.0
 40
80.0
100
AcDbArc
 50
265.4117542407951
 51
278.8916456802039
  0
LINE
  5
4B2F
330
2
100
AcDbEntity
  8
0
 48
0.5
100
AcDbLine
 10
1017.79933388114
 20
459.2456345049938
 30
0.0
 11
1017.799333881137
 21
359.2456345049908
 31
0.0
  0
ARC
  5
4B30
330
2
100
AcDbEntity
  8
0
100
AcDbCircle
 10
1020.799333881138
 20
378.2456345049897
 30
0.0
 40
3.0
100
AcDbArc
 50
90.0
 51
180.0
  0
ARC
  5
4B31
330
2
100
AcDbEntity
  8
0
100
AcDbCircle
 10
1020.799333881138
 20
403.2456345049925
 30
0.0
 40
3.0
100
AcDbArc
 50
90.0
 51
180.0
  0
ARC
  5
4B32
330
2
100
AcDbEntity
  8
0
100
AcDbCircle
 10
1020.799333881138
 20
415.2456345049927
 30
0.0
 40
3.0
100
AcDbArc
 50
180.0
 51
270.0
  0
ARC
  5
4B33
330
2
100
AcDbEntity
  8
0
 48
0.5
100
AcDbCircle
 10
907.7993338811356
 20
359.2456345049908
 30
0.0
 40
10.0
100
AcDbArc
 50
180.0
 51
270.0
  0
LINE
  5
4B34
330
2
100
AcDbEntity
  8
0
 48
0.5
100
AcDbLine
 10
907.7993338811356
 20
349.2456345049909
 30
0.0
 11
917.7993338811402
 21
349.2456345049911
 31
0.0
  0
ARC
  5
4B35
330
2
100
AcDbEntity
  8
0
100
AcDbCircle
 10
917.7993338811402
 20
357.2456345049913
 30
0.0
 40
8.0
100
AcDbArc
 50
270.0
 51
278.8916456802039
  0
ARC
  5
4B36
330
2
100
AcDbEntity
  8
0
 48
0.5
100
AcDbCircle
 10
1007.799333881139
 20
359.2456345049908
 30
0.0
 40
10.0
100
AcDbArc
 50
270.0
 51
0.0
  0
ARC
  5
4B37
330
2
100
AcDbEntity
  8
0
100
AcDbCircle
 10
1019.611743757042
 20
353.8172854996612
 30
0.0
 40
3.0
100
AcDbArc
 50
100.000000000005
 51
155.3190296368912
  0
ARC
  5
4B38
330
2
100
AcDbEntity
  8
0
100
AcDbCircle
 10
931.4011709074847
 20
270.3031821039419
 30
0.0
 40
80.0
100
AcDbArc
 50
85.41175424079517
 51
98.89164568020392
  0
LINE
  5
4B39
330
2
100
AcDbEntity
  8
0
 48
0.5
100
AcDbLine
 10
897.7993338811357
 20
359.2456345049908
 30
0.0
 11
897.799333881136
 21
369.2456345049949
 31
0.0
  0
ARC
  5
4B3A
330
2
100
AcDbEntity
  8
0
100
AcDbCircle
 10
905.7993338811366
 20
369.2456345049949
 30
0.0
 40
8.0
100
AcDbArc
 50
171.108354319796
 51
180.0
  0
ARC
  5
4B3B
330
2
100
AcDbEntity
  8
0
100
AcDbCircle
 10
818.856881480087
 20
382.8474715313404
 30
0.0
 40
80.0
100
AcDbArc
 50
351.1083543197961
 51
4.588245759201595
  0
LINE
  5
4B3C
330
2
100
AcDbEntity
  8
0
 48
0.5
100
AcDbLine
 10
1007.799333881139
 20
349.2456345049909
 30
0.0
 11
997.7993338811357
 21
349.2456345049911
 31
0.0
  0
ARC
  5
4B3D
330
2
100
AcDbEntity
  8
0
100
AcDbCircle
 10
997.7993338811357
 20
357.2456345049913
 30
0.0
 40
8.0
100
AcDbArc
 50
261.1083543197961
 51
270.0
  0
ARC
  5
4B3E
330
2
100
AcDbEntity
  8
0
100
AcDbCircle
 10
984.1974968547901
 20
270.3031821039419
 30
0.0
 40
80.0
100
AcDbArc
 50
81.10835431979607
 51
94.58824575920484
  0
ARC
  5
4B3F
330
2
100
AcDbEntity
  8
0
100
AcDbCircle
 10
1147.799333881136
 20
409.2456345049913
 30
0.0
 40
250.0
100
AcDbArc
 50
175.4117542407789
 51
184.588245759221
  0
ARC
  5
4B40
330
2
100
AcDbEntity
  8
0
100
AcDbCircle
 10
957.7993338811365
 20
599.2456345049911
 30
0.0
 40
250.0
100
AcDbArc
 50
265.4117542407951
 51
274.5882457592048
  0
CIRCLE
  5
4B41
330
2
100
AcDbEntity
  8
HOJO
100
AcDbCircle
 10
908.301859198079
 20
458.7431091880512
 30
0.0
 40
4.0
  0
CIRCLE
  5
4B42
330
2
100
AcDbEntity
  8
0
100
AcDbCircle
 10
908.301859198079
 20
458.7431091880512
 30
0.0
 40
3.399999999999999
  0
CIRCLE
  5
4B43
330
2
100
AcDbEntity
  8
HOJO
100
AcDbCircle
 10
1007.296808564196
 20
458.7431091880512
 30
0.0
 40
4.0
  0
CIRCLE
  5
4B44
330
2
100
AcDbEntity
  8
0
100
AcDbCircle
 10
1007.296808564196
 20
458.7431091880512
 30
0.0
 40
3.399999999999999
  0
CIRCLE
  5
4B45
330
2
100
AcDbEntity
  8
HOJO
100
AcDbCircle
 10
1007.296808564196
 20
359.7481598219346
 30
0.0
 40
4.0
  0
CIRCLE
  5
4B46
330
2
100
AcDbEntity
  8
0
100
AcDbCircle
 10
1007.296808564196
 20
359.7481598219346
 30
0.0
 40
3.399999999999999
  0
CIRCLE
  5
4B47
330
2
100
AcDbEntity
  8
HOJO
100
AcDbCircle
 10
908.301859198079
 20
359.7481598219346
 30
0.0
 40
4.0
  0
CIRCLE
  5
4B48
330
2
100
AcDbEntity
  8
0
100
AcDbCircle
 10
908.301859198079
 20
359.7481598219346
 30
0.0
 40
3.399999999999999
  0
CIRCLE
  5
4B49
330
2
100
AcDbEntity
  8
CENTER
100
AcDbCircle
 10
957.7993338811374
 20
409.2456345049927
 30
0.0
 40
70.00000000000039
  0
CIRCLE
  5
4B4A
330
2
100
AcDbEntity
  8
0
100
AcDbCircle
 10
957.7993338811374
 20
409.2456345049927
 30
0.0
 40
55.00000000000046
  0
CIRCLE
  5
4B4B
330
2
100
AcDbEntity
  8
0
100
AcDbCircle
 10
957.7993338811374
 20
409.2456345049927
 30
0.0
 40
39.99999999999932
  0
CIRCLE
  5
4B4C
330
2
100
AcDbEntity
  8
0
100
AcDbCircle
 10
957.7993338811374
 20
409.2456345049927
 30
0.0
 40
33.07735026919044
  0
CIRCLE
  5
4B4D
330
2
100
AcDbEntity
  8
0
100
AcDbCircle
 10
957.7993338811374
 20
409.2456345049927
 30
0.0
 40
32.50000000000023
  0
LINE
  5
4B4E
330
2
100
AcDbEntity
  8
CENTER
100
AcDbLine
 10
1021.507400982744
 20
345.5375674033873
 30
0.0
 11
894.0912667795318
 21
472.953701606598
 31
0.0
  0
LINE
  5
4B4F
330
2
100
AcDbEntity
  8
CENTER
100
AcDbLine
 10
894.0912667795329
 20
345.5375674033867
 30
0.0
 11
1021.507400982743
 21
472.9537016065986
 31
0.0
  0
LINE
  5
4B50
330
2
100
AcDbEntity
  8
0
100
AcDbLine
 10
1049.299333881134
 20
469.7456345049923
 30
0.0
 11
1063.299333881134
 21
469.7456345049923
 31
0.0
  0
ARC
  5
4B51
330
2
100
AcDbEntity
  8
0
100
AcDbCircle
 10
1049.299333881134
 20
467.7456345049923
 30
0.0
 40
2.0
100
AcDbArc
 50
90.0
 51
180.0
  0
LINE
  5
4B52
330
2
100
AcDbEntity
  8
0
100
AcDbLine
 10
1049.299333881134
 20
348.7456345049931
 30
0.0
 11
1063.299333881134
 21
348.745634504993
 31
0.0
  0
ARC
  5
4B53
330
2
100
AcDbEntity
  8
0
100
AcDbCircle
 10
1049.299333881134
 20
350.7456345049931
 30
0.0
 40
2.0
100
AcDbArc
 50
180.0
 51
270.0
  0
CIRCLE
  5
4B54
330
2
100
AcDbEntity
  8
0
100
AcDbCircle
 10
957.7993338811374
 20
409.2456345049923
 30
0.0
 40
21.99999999999977
  0
LINE
  5
4B55
330
2
100
AcDbEntity
  8
0
100
AcDbLine
 10
953.799333881137
 20
426.5456345049926
 30
0.0
 11
961.799333881137
 21
426.5456345049926
 31
0.0
  0
LINE
  5
4B56
330
2
100
AcDbEntity
  8
0
100
AcDbLine
 10
953.799333881137
 20
426.5456345049926
 30
0.0
 11
953.799333881137
 21
422.6620423699911
 31
0.0
  0
LINE
  5
4B57
330
2
100
AcDbEntity
  8
0
100
AcDbLine
 10
961.799333881137
 20
426.5456345049926
 30
0.0
 11
961.7993338811375
 21
422.6620423699912
 31
0.0
  0
ARC
  5
4B58
330
2
100
AcDbEntity
  8
0
100
AcDbCircle
 10
957.7993338811371
 20
409.2456345049927
 30
0.0
 40
15.15470053837842
100
AcDbArc
 50
105.3042448177051
 51
74.69575518229486
  0
ARC
  5
4B59
330
2
100
AcDbEntity
  8
0
100
AcDbCircle
 10
957.7993338811374
 20
409.2456345049923
 30
0.0
 40
14.00000000000022
100
AcDbArc
 50
106.6015495990162
 51
73.39845040098374
  0
LINE
  5
4B5A
330
2
100
AcDbEntity
  8
CENTER
100
AcDbLine
 10
957.7993338811445
 20
484.2456345049933
 30
0.0
 11
957.7993338811445
 21
334.2456345049934
 31
0.0
  0
LINE
  5
4B8D
330
2
100
AcDbEntity
  8
CENTER
100
AcDbLine
 10
1430.587842387933
 20
514.2456345049795
 30
0.0
 11
1430.587842387933
 21
304.2456345049795
 31
0.0
  0
LINE
  5
4B8E
330
2
100
AcDbEntity
  8
CENTER
100
AcDbLine
 10
1321.587842387935
 20
409.2456345049859
 30
0.0
 11
1535.587842387933
 21
409.2456345049795
 31
0.0
  0
LINE
  5
4BC7
330
2
100
AcDbEntity
  8
HIDS
  6
SEKKEI_H
100
AcDbLine
 10
1410.087842387919
 20
384.6743097543992
 30
0.0
 11
1410.087842387919
 21
408.4956345049989
 31
0.0
  0
LINE
  5
4BC8
330
2
100
AcDbEntity
  8
HIDS
  6
SEKKEI_H
100
AcDbLine
 10
1409.487842387919
 20
385.1875797208025
 30
0.0
 11
1409.487842387919
 21
408.4956345049989
 31
0.0
  0
LINE
  5
4BC9
330
2
100
AcDbEntity
  8
HIDS
  6
SEKKEI_H
100
AcDbLine
 10
1402.087842387918
 20
394.6940022941589
 30
0.0
 11
1402.087842387921
 21
408.4956345049985
 31
0.0
  0
LINE
  5
4BCA
330
2
100
AcDbEntity
  8
HIDS
  6
SEKKEI_H
100
AcDbLine
 10
1402.687842387921
 20
408.4956345049985
 30
0.0
 11
1402.687842387932
 21
393.5743231367581
 31
0.0
  0
LINE
  5
4BCB
330
2
100
AcDbEntity
  8
HIDS
  6
SEKKEI_H
100
AcDbLine
 10
1408.887842387936
 20
396.2456345050016
 30
0.0
 11
1403.287842387921
 21
396.2456345050016
 31
0.0
  0
LINE
  5
4BCC
330
2
100
AcDbEntity
  8
HIDS
  6
SEKKEI_H
100
AcDbLine
 10
1410.087842387922
 20
397.4456345050017
 30
0.0
 11
1402.087842387921
 21
397.4456345050015
 31
0.0
  0
LINE
  5
4BCD
330
2
100
AcDbEntity
  8
HIDS
  6
SEKKEI_H
100
AcDbLine
 10
1402.087842387921
 20
397.4456345050015
 30
0.0
 11
1403.287842387921
 21
396.2456345050016
 31
0.0
  0
LINE
  5
4BCE
330
2
100
AcDbEntity
  8
HIDS
  6
SEKKEI_H
100
AcDbLine
 10
1410.087842387935
 20
397.4456345050015
 30
0.0
 11
1408.887842387935
 21
396.2456345050016
 31
0.0
  0
SPLINE
  5
4C9A
330
2
100
AcDbEntity
  8
HOJO
100
AcDbSpline
210
0.0
220
0.0
230
1.0
 70
     8
 71
     3
 72
    21
 73
    17
 74
    15
 42
0.0000000001
 43
0.0000000001
 44
0.0000000001
 40
0.0
 40
0.0
 40
0.0
 40
0.0
 40
11.84760766693552
 40
18.78531051602199
 40
28.42159443070293
 40
36.39266888998788
 40
46.87254341091952
 40
55.62486901788679
 40
69.37115671396411
 40
82.48145467499201
 40
94.19303705359993
 40
101.3401488282336
 40
107.5663613402155
 40
116.0848412511585
 40
121.2961227435062
 40
135.1532661939815
 40
135.1532661939815
 40
135.1532661939815
 40
135.1532661939815
 10
1157.799333881145
 20
472.4802940603467
 30
0.0
 10
1153.590131859237
 20
472.5230168265585
 30
0.0
 10
1146.916112155928
 20
472.5907571207978
 30
0.0
 10
1140.403163105228
 20
464.7695488603257
 30
0.0
 10
1138.875301340584
 20
456.550351061615
 30
0.0
 10
1136.421472353918
 20
447.9238555191644
 30
0.0
 10
1135.984934759019
 20
436.9512941607744
 30
0.0
 10
1123.120790113625
 20
435.7009648688547
 30
0.0
 10
1111.987551430198
 20
437.6943589592734
 30
0.0
 10
1098.880743554351
 20
434.5783676721303
 30
0.0
 10
1088.603125189832
 20
437.5973996946519
 30
0.0
 10
1079.921822839055
 20
437.9997440432224
 30
0.0
 10
1073.550845466584
 20
433.8518089390196
 30
0.0
 10
1069.484452928705
 20
428.4440705981455
 30
0.0
 10
1066.037419954725
 20
419.8849721087481
 30
0.0
 10
1064.451692165383
 20
413.7233348025883
 30
0.0
 10
1063.299333881141
 20
409.2456345049876
 30
0.0
 11
1157.799333881145
 21
472.4802940603467
 31
0.0
 11
1146.114137287335
 21
470.5253035249111
 31
0.0
 11
1141.506265062982
 21
465.3388563415051
 31
0.0
 11
1138.639182397929
 21
456.1389756533608
 31
0.0
 11
1136.886242241754
 21
448.3630365560984
 31
0.0
 11
1133.821271738569
 21
438.341373730545
 31
0.0
 11
1125.332431030106
 21
436.2099922638155
 31
0.0
 11
1111.597459359602
 21
436.7676468466783
 31
0.0
 11
1098.532460925066
 21
435.6787352191861
 31
0.0
 11
1086.956863960933
 21
437.458262329088
 31
0.0
 11
1079.813413310834
 21
437.2295277040016
 31
0.0
 11
1074.447343060222
 21
434.0718367264269
 31
0.0
 11
1069.227111347152
 21
427.3402930063733
 31
0.0
 11
1067.177256316948
 21
422.5490980460701
 31
0.0
 11
1063.299333881141
 21
409.2456345049876
 31
0.0
  0
ENDSEC
  0
SECTION
  2
OBJECTS
  0
DICTIONARY
  5
7
330
0
100
AcDbDictionary
  3
ACAD_COLOR
350
832
  3
ACAD_GROUP
350
75
  3
ACAD_LAYOUT
350
61
  3
ACAD_MATERIAL
350
808
  3
ACAD_MLEADERSTYLE
350
857
  3
ACAD_MLINESTYLE
350
76
  3
ACAD_PLOTSETTINGS
350
77
  3
ACAD_PLOTSTYLENAME
350
6
  3
ACAD_SCALELIST
350
835
  3
ACAD_TABLESTYLE
350
833
  3
ACAD_VISUALSTYLE
350
821
  3
ACADDIM
350
480
  3
ACDB_RECOMPOSE_DATA
350
88E
  3
ACDBHEADERROUNDTRIPXREC
350
4D40
  3
ACDBVARIABLEDICTIONARY
350
102
  3
DWGPROPS
350
4D16
  0
DICTIONARY
  5
1E6F
330
6E
100
AcDbDictionary
280
     1
  3
ACAD_XREC_ROUNDTRIP
360
4D1A
  0
DICTIONARY
  5
86B
330
66
100
AcDbDictionary
280
     1
  3
ACAD_LAYERSTATES
360
86C
  0
DICTIONARY
  5
158C
330
5E
100
AcDbDictionary
280
     1
  3
ADSK_XREC_LAYER_RECONCILED
360
158D
  0
DICTIONARY
  5
158E
330
3E
100
AcDbDictionary
280
     1
  3
ADSK_XREC_LAYER_RECONCILED
360
158F
  0
DICTIONARY
  5
1594
330
2B5
100
AcDbDictionary
280
     1
  3
ADSK_XREC_LAYER_RECONCILED
360
1595
  0
DICTIONARY
  5
1596
330
2BA
100
AcDbDictionary
280
     1
  3
ADSK_XREC_LAYER_RECONCILED
360
1597
  0
DICTIONARY
  5
159A
330
3FA
100
AcDbDictionary
280
     1
  3
ADSK_XREC_LAYER_RECONCILED
360
159B
  0
DICTIONARY
  5
159C
330
478
100
AcDbDictionary
280
     1
  3
ADSK_XREC_LAYER_RECONCILED
360
159D
  0
DICTIONARY
  5
33EF
330
2
100
AcDbDictionary
280
     1
  3
ACAD_LAYOUTSELFREF
360
4D61
  3
ACAD_SORTENTS
360
33F0
  0
DICTIONARY
  5
4D62
330
4D3A
100
AcDbDictionary
280
     1
  3
ACAD_LAYOUTSELFREF
360
4D63
  0
DICTIONARY
  5
832
102
{ACAD_REACTORS
330
7
102
}
330
7
100
AcDbDictionary
  0
DICTIONARY
  5
75
102
{ACAD_REACTORS
330
7
102
}
330
7
100
AcDbDictionary
  0
DICTIONARY
  5
61
102
{ACAD_REACTORS
330
7
102
}
330
7
100
AcDbDictionary
  0
DICTIONARY
  5
808
102
{ACAD_REACTORS
330
7
102
}
330
7
100
AcDbDictionary
  3
BYBLOCK
350
811
  3
BYLAYER
350
809
  3
GLOBAL
350
819
  0
DICTIONARY
  5
857
102
{ACAD_REACTORS
330
7
102
}
330
7
100
AcDbDictionary
  3
STANDARD
350
858
  0
DICTIONARY
  5
76
102
{ACAD_REACTORS
330
7
102
}
330
7
100
AcDbDictionary
  3
STANDARD
350
78
  0
DICTIONARY
  5
77
102
{ACAD_REACTORS
330
7
102
}
330
7
100
AcDbDictionary
  0
ACDBDICTIONARYWDFLT
  5
6
102
{ACAD_REACTORS
330
7
102
}
330
7
100
AcDbDictionary
281
     1
  3
Normal
350
5
100
AcDbDictionaryWithDefault
340
5
  0
DICTIONARY
  5
835
102
{ACAD_REACTORS
330
7
102
}
330
7
100
AcDbDictionary
  3
A0
350
836
  3
A1
350
837
  3
A2
350
838
  3
A3
350
839
  3
A4
350
83A
  3
A5
350
83B
  3
A6
350
83C
  3
A7
350
83D
  3
A8
350
83E
  3
A9
350
83F
  3
B0
350
840
  3
B1
350
841
  3
B2
350
842
  3
B3
350
843
  3
B4
350
844
  3
B5
350
845
  3
B6
350
846
  3
B7
350
847
  3
B8
350
848
  3
B9
350
849
  3
C0
350
84A
  3
C1
350
84B
  3
C2
350
84C
  3
C3
350
84D
  3
C4
350
84E
  3
C5
350
84F
  3
C6
350
850
  3
C7
350
851
  3
C8
350
852
  3
C9
350
853
  3
D0
350
854
  3
D1
350
855
  3
D2
350
856
  0
DICTIONARY
  5
833
102
{ACAD_REACTORS
330
7
102
}
330
7
100
AcDbDictionary
  3
STANDARD
350
834
  0
DICTIONARY
  5
821
102
{ACAD_REACTORS
330
7
102
}
330
7
100
AcDbDictionary
  3
2DWIREFRAME
350
827
  3
3D_HIDDEN
350
829
  3
3DWIREFRAME
350
828
  3
BASIC
350
826
  3
BRIGHTEN
350
82D
  3
COLORCHANGE
350
831
  3
CONCEPTUAL
350
82A
  3
DIM
350
82C
  3
FACEPATTERN
350
830
  3
FLAT
350
822
  3
FLATWITHEDGES
350
823
  3
GOURAUD
350
824
  3
GOURAUDWITHEDGES
350
825
  3
LINEPATTERN
350
82F
  3
REALISTIC
350
82B
  3
THICKEN
350
82E
  0
XRECORD
  5
480
102
{ACAD_REACTORS
330
7
102
}
330
7
100
AcDbXrecord
 90
   990106
  3

 60
     0
 61
     0
 62
     1
 63
     3
 64
     1
 65
     0
 66
     0
 67
     3
 68
     1
 69
     0
 70
     0
 71
     0
 72
     0
 40
0.0
170
     2
340
0
  0
XRECORD
  5
88E
102
{ACAD_REACTORS
330
7
102
}
330
7
100
AcDbXrecord
 90
        1
330
834
  0
DICTIONARY
  5
4D40
102
{ACAD_REACTORS
330
7
102
}
330
7
100
AcDbDictionary
  3
CEPSNTYPE
350
4D4A
  3
DIMSTYLEDATA
350
4D4E
  3
FINGERPRINTGUID
350
4D4B
  3
HYPERLINKBASE
350
4D43
  3
INSUNITS
350
4D49
  3
LAYOUTDICT
350
4D45
  3
LWETCUNION
350
4D48
  3
PLOTSETDICT
350
4D46
  3
PLOTSTYLNAMDICT
350
4D47
  3
PSVPSCALE
350
4D4D
  3
PUCSBASE
350
4D51
  3
PUCSORGBACK
350
4D57
  3
PUCSORGBOTTOM
350
4D53
  3
PUCSORGFRONT
350
4D56
  3
PUCSORGLEFT
350
4D54
  3
PUCSORGRIGHT
350
4D55
  3
PUCSORGTOP
350
4D52
  3
PUCSORTHOREF
350
4D4F
  3
PUCSORTHOVIEW
350
4D50
  3
STYLESHEET
350
4D44
  3
TSTACKALIGN
350
4D41
  3
TSTACKSIZE
350
4D42
  3
UCSBASE
350
4D5A
  3
UCSORGBACK
350
4D60
  3
UCSORGBOTTOM
350
4D5C
  3
UCSORGFRONT
350
4D5F
  3
UCSORGLEFT
350
4D5D
  3
UCSORGRIGHT
350
4D5E
  3
UCSORGTOP
350
4D5B
  3
UCSORTHOREF
350
4D58
  3
UCSORTHOVIEW
350
4D59
  3
VERSIONGUID
350
4D4C
  0
DICTIONARY
  5
102
102
{ACAD_REACTORS
330
7
102
}
330
7
100
AcDbDictionary
  3
CANNOSCALE
350
892
  3
CMLEADERSTYLE
350
890
  3
CTABLESTYLE
350
88F
  3
DIMASSOC
350
103
  3
INDEXCTL
350
1E7C
  3
LIGHTINGUNITS
350
893
  3
MSLTSCALE
350
891
  3
SORTENTS
350
549
  0
XRECORD
  5
4D16
102
{ACAD_REACTORS
330
7
102
}
330
7
100
AcDbXrecord
  1
DWGPROPS COOKIE
  2

  3

  4

  6

  7

  8
knsuzuki
  9

300
=
301
=
302
=
303
=
304
=
305
=
306
=
307
=
308
=
309
=
 40
0.2157906828703703
 41
2454889.364024514
 42
2454904.648957419
  1

 90
        0
  0
XRECORD
  5
4D1A
102
{ACAD_REACTORS
330
1E6F
102
}
330
1E6F
100
AcDbXrecord
102
VTR_0.000_0.000_1.000_1.000_VISUALSTYLE
340
827
102
VTR_0.000_0.000_1.000_1.000_GRIDDISPLAY
 70
     3
102
VTR_0.000_0.000_1.000_1.000_GRIDMAJOR
 70
     5
102
VTR_0.000_0.000_1.000_1.000_DEFAULTLIGHTING
280
     1
102
VTR_0.000_0.000_1.000_1.000_DEFAULTLIGHTINGTYPE
 70
     1
102
VTR_0.000_0.000_1.000_1.000_BRIGHTNESS
141
0.0
102
VTR_0.000_0.000_1.000_1.000_CONTRAST
142
0.0
  0
DICTIONARY
  5
86C
102
{ACAD_REACTORS
330
86B
102
}
330
86B
100
AcDbDictionary
  0
XRECORD
  5
158D
102
{ACAD_REACTORS
330
158C
102
}
330
158C
100
AcDbXrecord
290
     1
  0
XRECORD
  5
158F
102
{ACAD_REACTORS
330
158E
102
}
330
158E
100
AcDbXrecord
290
     1
  0
XRECORD
  5
1595
102
{ACAD_REACTORS
330
1594
102
}
330
1594
100
AcDbXrecord
290
     1
  0
XRECORD
  5
1597
102
{ACAD_REACTORS
330
1596
102
}
330
1596
100
AcDbXrecord
290
     1
  0
XRECORD
  5
159B
102
{ACAD_REACTORS
330
159A
102
}
330
159A
100
AcDbXrecord
290
     1
  0
XRECORD
  5
159D
102
{ACAD_REACTORS
330
159C
102
}
330
159C
100
AcDbXrecord
290
     1
  0
XRECORD
  5
4D61
102
{ACAD_REACTORS
330
33EF
102
}
330
33EF
100
AcDbXrecord
340
2
  0
SORTENTSTABLE
  5
33F0
102
{ACAD_REACTORS
330
33EF
102
}
330
33EF
100
AcDbSortentsTable
330
2
331
1217
  5
1217
331
11F8
  5
11F8
331
11BA
  5
11BA
331
117C
  5
117C
331
115D
  5
115D
331
113E
  5
113E
331
11D9
  5
11D9
331
FC8
  5
FC8
331
1B2B
  5
1B2B
331
FA9
  5
FA9
331
122E
  5
122E
331
1255
  5
1255
331
4B36
  5
4B38
331
4B55
  5
4B57
331
4B1F
  5
4B21
331
4B00
  5
4B02
331
11DA
  5
11DA
331
11BB
  5
11BB
331
117D
  5
117D
331
113F
  5
113F
331
115E
  5
115E
331
11F9
  5
11F9
331
FE8
  5
FE8
331
FC9
  5
FC9
331
1F60
  5
1F60
331
1EC1
  5
1EC1
331
FAA
  5
FAA
331
122F
  5
122F
331
1256
  5
1256
331
4B37
  5
4B39
331
4B56
  5
4B58
331
4B01
  5
4B03
331
11FA
  5
11FA
331
11BC
  5
11BC
331
117E
  5
117E
331
115F
  5
115F
331
11DB
  5
11DB
331
FE9
  5
FE9
331
FCA
  5
FCA
331
FAB
  5
FAB
331
1230
  5
1230
331
1257
  5
1257
331
4B57
  5
4B59
331
4B38
  5
4B3A
331
4B02
  5
4B04
331
11DC
  5
11DC
331
11BD
  5
11BD
331
117F
  5
117F
331
11FB
  5
11FB
331
3DA0
  5
3DA4
331
FEA
  5
FEA
331
FCB
  5
FCB
331
1727
  5
1727
331
191C
  5
191C
331
1AB0
  5
1AB0
331
1AFF
  5
1AFF
331
FAC
  5
FAC
331
3D81
  5
3D85
331
1231
  5
1231
331
1258
  5
1258
331
4B58
  5
4B5A
331
4B39
  5
4B3B
331
4B03
  5
4B05
331
11FC
  5
11FC
331
11BE
  5
11BE
331
11DD
  5
11DD
331
3DA1
  5
3DA5
331
FEB
  5
FEB
331
FCC
  5
FCC
331
FAD
  5
FAD
331
3D82
  5
3D86
331
1232
  5
1232
331
1259
  5
1259
331
4B59
  5
4B5B
331
4B3A
  5
4B3C
331
4B04
  5
4B06
331
11DE
  5
11DE
331
11BF
  5
11BF
331
11FD
  5
11FD
331
3DE0
  5
3DE5
331
FEC
  5
FEC
331
FCD
  5
FCD
331
FAE
  5
FAE
331
3D83
  5
3D87
331
1233
  5
1233
331
125A
  5
125A
331
4B5A
  5
4B86
331
4B3B
  5
4B3D
331
4B05
  5
4B07
331
11FE
  5
11FE
331
11DF
  5
11DF
331
3DE1
  5
3DE6
331
3DA3
  5
3DA7
331
FED
  5
FED
331
FCE
  5
FCE
331
19DC
  5
19DC
331
FAF
  5
FAF
331
3D84
  5
3D88
331
1234
  5
1234
331
125B
  5
125B
331
4B3C
  5
4B3E
331
4B06
  5
4B08
331
11FF
  5
11FF
331
3E20
  5
3E25
331
3E01
  5
3E07
331
3DE2
  5
3DE7
331
FEE
  5
FEE
331
FB0
  5
FB0
331
FCF
  5
FCF
331
3DA4
  5
3DA8
331
1B71
  5
1B71
331
1235
  5
1235
331
125C
  5
125C
331
4B07
  5
4B09
331
4B3D
  5
4B3F
331
3E21
  5
3E26
331
3E02
  5
3E08
331
3DE3
  5
3DE8
331
FD0
  5
FD0
331
FB1
  5
FB1
331
FEF
  5
FEF
331
3DA5
  5
3DA9
331
1236
  5
1236
331
125D
  5
125D
331
4B3E
  5
4B40
331
3E22
  5
3E27
331
3DE4
  5
3DE9
331
3DC5
  5
3DCB
331
FF0
  5
FF0
331
FD1
  5
FD1
331
FB2
  5
FB2
331
3DA6
  5
3DAA
331
1237
  5
1237
331
125E
  5
125E
331
4B8D
  5
4B8D
331
4B3F
  5
4B41
331
3E23
  5
3E28
331
3E04
  5
3E09
331
3DE5
  5
3DEA
331
3DA7
  5
3DAB
331
FF1
  5
FF1
331
FD2
  5
FD2
331
FB3
  5
FB3
331
3D88
  5
3D8C
331
1EF2
  5
1EF2
331
125F
  5
125F
331
4B8E
  5
4B8E
331
3E24
  5
3E29
331
3E05
  5
3E0A
331
3DE6
  5
3DEB
331
3DC7
  5
3DCC
331
3DA8
  5
3DAC
331
FF2
  5
FF2
331
FD3
  5
FD3
331
FB4
  5
FB4
331
3D89
  5
3D8D
331
3E25
  5
3E2A
331
3E06
  5
3E0B
331
3DE7
  5
3DEC
331
3DC8
  5
3DCD
331
3DA9
  5
3DAD
331
FF3
  5
FF3
331
FD4
  5
FD4
331
FB5
  5
FB5
331
3D8A
  5
3D8E
331
3E26
  5
3E2B
331
3E07
  5
3E0C
331
3DE8
  5
3DED
331
3DC9
  5
3DCE
331
3DAA
  5
3DAE
331
FF4
  5
FF4
331
FD5
  5
FD5
331
FB6
  5
FB6
331
3D8B
  5
3D8F
331
3E27
  5
3E2C
331
3E08
  5
3E0D
331
3DE9
  5
3DF0
331
3DCA
  5
3DD4
331
FF5
  5
FF5
331
FD6
  5
FD6
331
FB7
  5
FB7
331
3DAB
  5
3DAF
331
3E28
  5
3E2D
331
3E09
  5
3E0E
331
3DEA
  5
3DF1
331
3DCB
  5
3DDB
331
FF6
  5
FF6
331
FD7
  5
FD7
331
FB8
  5
FB8
331
3D8D
  5
3D91
331
3E29
  5
3E2E
331
3E0A
  5
3E0F
331
3DEB
  5
3DF2
331
3DCC
  5
3DDC
331
FF7
  5
FF7
331
FD8
  5
FD8
331
FB9
  5
FB9
331
3D8E
  5
3D92
331
3E2A
  5
3E2F
331
3E0B
  5
3E10
331
3DEC
  5
3DF3
331
3DCD
  5
3DDD
331
FF8
  5
FF8
331
FD9
  5
FD9
331
FBA
  5
FBA
331
3D8F
  5
3D93
331
2130
  5
2130
331
3E2B
  5
3E30
331
3E0C
  5
3E11
331
3DED
  5
3DF4
331
3DCE
  5
3DDE
331
FF9
  5
FF9
331
FDA
  5
FDA
331
FBB
  5
FBB
331
3D90
  5
3D94
331
3E2C
  5
3E31
331
3E0D
  5
3E12
331
FFA
  5
FFA
331
FDB
  5
FDB
331
A65
  5
A65
331
FBC
  5
FBC
331
3D91
  5
3D95
331
3E2D
  5
3E32
331
3E0E
  5
3E13
331
3DB1
  5
3DB6
331
FFB
  5
FFB
331
FDC
  5
FDC
331
FBD
  5
FBD
331
3D92
  5
3D96
331
3E2E
  5
3E33
331
3DF0
  5
3DF5
331
3E0F
  5
3E14
331
3DB2
  5
3DB7
331
FFC
  5
FFC
331
FDD
  5
FDD
331
FBE
  5
FBE
331
3D93
  5
3D97
331
3E2F
  5
3E34
331
3DF1
  5
3DF6
331
3E10
  5
3E15
331
3DB3
  5
3DB8
331
FFD
  5
FFD
331
FDE
  5
FDE
331
FBF
  5
FBF
331
3D94
  5
3D98
331
2D9B
  5
2D9B
331
46EA
  5
4AE8
331
3E30
  5
452C
331
3E11
  5
3E16
331
3DB4
  5
3DB9
331
FFE
  5
FFE
331
FC0
  5
FC0
331
FDF
  5
FDF
331
3D95
  5
3D99
331
3DF2
  5
3DF7
331
3323
  5
3324
331
3C58
  5
3C59
331
3E31
  5
46D6
331
3E12
  5
3E17
331
3DD4
  5
3DDF
331
FE0
  5
FE0
331
FC1
  5
FC1
331
FFF
  5
FFF
331
3DB5
  5
3DBA
331
3DF3
  5
3E01
331
3C59
  5
3C5A
331
3C78
  5
3C79
331
3E32
  5
46EA
331
3E13
  5
3E18
331
FE1
  5
FE1
331
FC2
  5
FC2
331
3DB6
  5
3DBB
331
3DF4
  5
3E02
331
3C90
  5
3C91
331
2687
  5
2687
331
3C5A
  5
3C5B
331
3C79
  5
3C7A
331
3E14
  5
3E19
331
FE2
  5
FE2
331
FC3
  5
FC3
331
3D98
  5
3D9C
331
3DB7
  5
3DC5
331
3DF5
  5
3E04
331
1050
  5
1050
331
3CB0
  5
3CB3
331
3C91
  5
3C92
331
29B8
  5
29B8
331
3C5B
  5
3C5C
331
3C7A
  5
3C7B
331
3E15
  5
3E1A
331
3DB8
  5
3DC7
331
FE3
  5
FE3
331
FC4
  5
FC4
331
B2D
  5
B2D
331
3D99
  5
3D9D
331
3DF6
  5
3E05
331
1051
  5
1051
331
1070
  5
1070
331
3CD0
  5
3CD3
331
3CB1
  5
3CB4
331
3C92
  5
3C93
331
3C7B
  5
3C7C
331
3C5C
  5
3C5D
331
3A4D
  5
3A4D
331
3E16
  5
3E1B
331
3DB9
  5
3DC8
331
FE4
  5
FE4
331
FC5
  5
FC5
331
3D9A
  5
3D9E
331
3DF7
  5
3E06
331
1033
  5
1033
331
1052
  5
1052
331
1071
  5
1071
331
1090
  5
1090
331
3CF0
  5
3CF4
331
3CD1
  5
3CD4
331
3CB2
  5
3CB5
331
3C93
  5
3C94
331
3C7C
  5
3C7D
331
3C5D
  5
3C5E
331
3A4E
  5
3A4E
331
3DBA
  5
3DC9
331
FE5
  5
FE5
331
FC6
  5
FC6
331
3D9B
  5
3D9F
331
3E17
  5
3E1C
331
1034
  5
1034
331
1053
  5
1053
331
1072
  5
1072
331
1091
  5
1091
331
10A8
  5
10A8
331
3D08
  5
3D0C
331
3CF1
  5
3CF5
331
3CD2
  5
3CD5
331
3CB3
  5
3CB6
331
3C94
  5
3C95
331
3C5E
  5
3C5F
331
3A4F
  5
3A4F
331
36B8
  5
36B8
331
3C7D
  5
3C7E
331
3E18
  5
3E1D
331
3DBB
  5
3DCA
331
FE6
  5
FE6
331
FC7
  5
FC7
331
3D9C
  5
3DA0
331
1035
  5
1035
331
1054
  5
1054
331
1073
  5
1073
331
1092
  5
1092
331
10A9
  5
10A9
331
10C8
  5
10C8
331
3D28
  5
3D2C
331
3D09
  5
3D0D
331
3CF2
  5
3CF6
331
3CD3
  5
3CD6
331
3CB4
  5
3CB7
331
3C95
  5
3C96
331
3C7E
  5
3C7F
331
3C5F
  5
3C60
331
2F83
  5
2F83
331
3E19
  5
3E1E
331
3DDB
  5
3DE0
331
FE7
  5
FE7
331
3D9D
  5
3DA1
331
1036
  5
1036
331
1055
  5
1055
331
1074
  5
1074
331
1093
  5
1093
331
10AA
  5
10AA
331
10C9
  5
10C9
331
10E8
  5
10E8
331
3D48
  5
3D4C
331
3D29
  5
3D2D
331
3D0A
  5
3D0E
331
3CF3
  5
3CF7
331
3CD4
  5
3CD7
331
3CB5
  5
3CB8
331
3C96
  5
3C97
331
3C7F
  5
3C80
331
3C60
  5
3C61
331
3E1A
  5
3E1F
331
3DDC
  5
3DE1
331
3D9E
  5
3DA2
331
1037
  5
1037
331
1056
  5
1056
331
1075
  5
1075
331
1094
  5
1094
331
10AB
  5
10AB
331
10CA
  5
10CA
331
10E9
  5
10E9
331
1108
  5
1108
331
3D68
  5
3D6C
331
3D49
  5
3D4D
331
3D2A
  5
3D2E
331
3D0B
  5
3D0F
331
3CF4
  5
3CF8
331
3CD5
  5
3CD8
331
3CB6
  5
3CB9
331
3C97
  5
3C98
331
3C80
  5
3C81
331
3C61
  5
3C62
331
36BB
  5
36BB
331
3E1B
  5
3E20
331
3DDD
  5
3DE2
331
3D9F
  5
3DA3
331
1038
  5
1038
331
1057
  5
1057
331
1076
  5
1076
331
1095
  5
1095
331
10AC
  5
10AC
331
10CB
  5
10CB
331
10EA
  5
10EA
331
1109
  5
1109
331
1120
  5
1120
331
3D69
  5
3D6D
331
3D4A
  5
3D4E
331
3D2B
  5
3D2F
331
3D0C
  5
3D10
331
3CF5
  5
3CF9
331
3CD6
  5
3CD9
331
3CB7
  5
3CBA
331
3C98
  5
3C99
331
3C81
  5
3C82
331
3C62
  5
3C63
331
3E1C
  5
3E21
331
3DDE
  5
3DE3
331
1140
  5
1140
331
1058
  5
1058
331
1077
  5
1077
331
1096
  5
1096
331
10AD
  5
10AD
331
10CC
  5
10CC
331
10EB
  5
10EB
331
110A
  5
110A
331
1121
  5
1121
331
3D6A
  5
3D6E
331
3D4B
  5
3D4F
331
3D2C
  5
3D30
331
3D0D
  5
3D11
331
3CF6
  5
3CFA
331
3CD7
  5
3CDA
331
3CB8
  5
3CBB
331
3C99
  5
3C9A
331
3C82
  5
3C83
331
3C63
  5
3C64
331
452C
  5
48F7
331
3E1D
  5
3E22
331
3DDF
  5
3DE4
331
1141
  5
1141
331
103A
  5
103A
331
1059
  5
1059
331
1078
  5
1078
331
1097
  5
1097
331
10AE
  5
10AE
331
10CD
  5
10CD
331
10EC
  5
10EC
331
110B
  5
110B
331
1122
  5
1122
331
1160
  5
1160
331
164A
  5
164A
331
3D6B
  5
3D6F
331
3D4C
  5
3D50
331
3D2D
  5
3D31
331
3D0E
  5
3D12
331
3CF7
  5
3CFB
331
3CD8
  5
3CDB
331
3CB9
  5
3CBC
331
3C9A
  5
3C9B
331
3C83
  5
3C84
331
3C64
  5
3C65
331
2A21
  5
2A21
331
3E1E
  5
3E23
331
1161
  5
1161
331
1142
  5
1142
331
103B
  5
103B
331
105A
  5
105A
331
1079
  5
1079
331
1098
  5
1098
331
10AF
  5
10AF
331
10CE
  5
10CE
331
10ED
  5
10ED
331
110C
  5
110C
331
1123
  5
1123
331
1180
  5
1180
331
3D6C
  5
3D70
331
3D4D
  5
3D51
331
3D2E
  5
3D32
331
3D0F
  5
3D13
331
3CF8
  5
3CFC
331
3CD9
  5
3CDC
331
3CBA
  5
3CBD
331
3C9B
  5
3C9C
331
3C84
  5
3C85
331
2A22
  5
2A22
331
3E1F
  5
3E24
331
1181
  5
1181
331
1143
  5
1143
331
110D
  5
110D
331
10EE
  5
10EE
331
10CF
  5
10CF
331
10B0
  5
10B0
331
1099
  5
1099
331
107A
  5
107A
331
105B
  5
105B
331
103C
  5
103C
331
1124
  5
1124
331
1162
  5
1162
331
1198
  5
1198
331
3C85
  5
3C86
331
3C66
  5
3C67
331
3C47
  5
3C47
331
3C9C
  5
3C9D
331
3CBB
  5
3CBE
331
3CDA
  5
3CDD
331
3CF9
  5
3CFD
331
3D10
  5
3D14
331
3D2F
  5
3D33
331
3D4E
  5
3D52
331
3D6D
  5
3D71
331
15ED
  5
15ED
331
11C0
  5
11C0
331
1144
  5
1144
331
110E
  5
110E
331
10EF
  5
10EF
331
10D0
  5
10D0
331
109A
  5
109A
331
105C
  5
105C
331
103D
  5
103D
331
107B
  5
107B
331
10B1
  5
10B1
331
1125
  5
1125
331
1182
  5
1182
331
1199
  5
1199
331
168C
  5
168C
331
3C86
  5
3C87
331
3C48
  5
3C48
331
3273
  5
3274
331
3751
  5
3751
331
3C67
  5
3C68
331
3C9D
  5
3C9E
331
3CBC
  5
3CBF
331
3CDB
  5
3CDF
331
3CFA
  5
3CFE
331
3D11
  5
3D15
331
3D30
  5
3D34
331
3D4F
  5
3D53
331
3D6E
  5
3D72
331
11E0
  5
11E0
331
11C1
  5
11C1
331
1183
  5
1183
331
1145
  5
1145
331
110F
  5
110F
331
10F0
  5
10F0
331
10D1
  5
10D1
331
10B2
  5
10B2
331
107C
  5
107C
331
105D
  5
105D
331
103E
  5
103E
331
109B
  5
109B
331
1126
  5
1126
331
119A
  5
119A
331
3C87
  5
3C88
331
3C68
  5
3C69
331
3C49
  5
3C49
331
3C9E
  5
3C9F
331
3CBD
  5
3CC0
331
3CDC
  5
3CE0
331
3CFB
  5
3CFF
331
3D12
  5
3D16
331
3D31
  5
3D35
331
3D50
  5
3D54
331
3D6F
  5
3D73
331
4AE8
  5
4AEA
331
1200
  5
1200
331
11E1
  5
11E1
331
11C2
  5
11C2
331
1146
  5
1146
331
1110
  5
1110
331
10F1
  5
10F1
331
10D2
  5
10D2
331
10B3
  5
10B3
331
107D
  5
107D
331
105E
  5
105E
331
103F
  5
103F
331
109C
  5
109C
331
1127
  5
1127
331
1184
  5
1184
331
119B
  5
119B
331
3CBE
  5
3CC1
331
3CDD
  5
3CE1
331
3CFC
  5
3D00
331
3D13
  5
3D17
331
3D32
  5
3D36
331
3D51
  5
3D55
331
3D70
  5
3D74
331
3C69
  5
3C6A
331
3C4A
  5
3C4A
331
3C88
  5
3C89
331
16FD
  5
16FD
331
4AE9
  5
4AEB
331
4B08
  5
4B0A
331
1201
  5
1201
331
11C3
  5
11C3
331
1185
  5
1185
331
1147
  5
1147
331
1128
  5
1128
331
10D3
  5
10D3
331
10B4
  5
10B4
331
107E
  5
107E
331
1040
  5
1040
331
105F
  5
105F
331
109D
  5
109D
331
10F2
  5
10F2
331
1111
  5
1111
331
119C
  5
119C
331
11E2
  5
11E2
331
19B0
  5
19B0
331
1883
  5
1883
331
3CA0
  5
3CA4
331
3CBF
  5
3CC2
331
3CDE
  5
3CE2
331
3CFD
  5
3D01
331
3D14
  5
3D18
331
3D33
  5
3D37
331
3D52
  5
3D56
331
3D71
  5
3D75
331
3C6A
  5
3C6B
331
3C4B
  5
3C4B
331
3754
  5
3754
331
3C89
  5
3C8A
331
1660
  5
1660
331
1218
  5
1218
331
46D6
  5
4A13
331
4AEA
  5
4AEC
331
4A13
  5
4AE9
331
4B09
  5
4B0B
331
4B20
  5
4B22
331
1202
  5
1202
331
11E3
  5
11E3
331
119D
  5
119D
331
1167
  5
1167
331
1129
  5
1129
331
1112
  5
1112
331
10F3
  5
10F3
331
10D4
  5
10D4
331
10B5
  5
10B5
331
109E
  5
109E
331
107F
  5
107F
331
1060
  5
1060
331
1041
  5
1041
331
1148
  5
1148
331
1186
  5
1186
331
11C4
  5
11C4
331
3CA1
  5
3CA5
331
3CC0
  5
3CC3
331
3CDF
  5
3CE3
331
3CFE
  5
3D02
331
3D15
  5
3D19
331
3D34
  5
3D38
331
3D53
  5
3D57
331
3D72
  5
3D76
331
3C6B
  5
3C6C
331
3C4C
  5
3C4C
331
3C8A
  5
3C8B
331
1219
  5
1219
331
1238
  5
1238
331
4B40
  5
4B42
331
4AEB
  5
4AED
331
4B0A
  5
4B0C
331
4B21
  5
4B23
331
1203
  5
1203
331
119E
  5
119E
331
1187
  5
1187
331
1149
  5
1149
331
112A
  5
112A
331
10F4
  5
10F4
331
10D5
  5
10D5
331
10B6
  5
10B6
331
109F
  5
109F
331
1080
  5
1080
331
1061
  5
1061
331
1042
  5
1042
331
1113
  5
1113
331
1168
  5
1168
331
11C5
  5
11C5
331
11E4
  5
11E4
331
3CA2
  5
3CA6
331
3CC1
  5
3CC4
331
3CE0
  5
3CE4
331
3CFF
  5
3D03
331
3D16
  5
3D1A
331
3D35
  5
3D39
331
3D54
  5
3D58
331
3D73
  5
3D77
331
3C6C
  5
3C6E
331
3C4D
  5
3C4D
331
3C8B
  5
3C8C
331
1924
  5
1924
331
1260
  5
1260
331
121A
  5
121A
331
1239
  5
1239
331
4B41
  5
4B43
331
4B22
  5
4B24
331
4AEC
  5
4AEE
331
4B0B
  5
4B0D
331
11E5
  5
11E5
331
119F
  5
119F
331
1169
  5
1169
331
114A
  5
114A
331
1114
  5
1114
331
10F5
  5
10F5
331
10D6
  5
10D6
331
10B7
  5
10B7
331
112B
  5
112B
331
1188
  5
1188
331
11C6
  5
11C6
331
1204
  5
1204
331
1062
  5
1062
331
1043
  5
1043
331
1081
  5
1081
331
10A0
  5
10A0
331
3D17
  5
3D1B
331
3D36
  5
3D3A
331
3D55
  5
3D59
331
3D74
  5
3D78
331
3CC2
  5
3CC5
331
3CE1
  5
3CE5
331
3D00
  5
3D04
331
3C4E
  5
3C4E
331
3C8C
  5
3C8D
331
3319
  5
331A
331
16A2
  5
16A2
331
1261
  5
1261
331
121B
  5
121B
331
123A
  5
123A
331
4B42
  5
4B44
331
4B23
  5
4B25
331
4AED
  5
4AEF
331
4B0C
  5
4B0E
331
1205
  5
1205
331
11A0
  5
11A0
331
114B
  5
114B
331
112C
  5
112C
331
10F6
  5
10F6
331
10B8
  5
10B8
331
10D7
  5
10D7
331
1115
  5
1115
331
116A
  5
116A
331
1189
  5
1189
331
11C7
  5
11C7
331
11E6
  5
11E6
331
1082
  5
1082
331
1063
  5
1063
331
1044
  5
1044
331
10A1
  5
10A1
331
3D18
  5
3D1C
331
3D37
  5
3D3B
331
3D56
  5
3D5A
331
3D75
  5
3D79
331
3CA4
  5
3CA7
331
3CC3
  5
3CC6
331
3CE2
  5
3CE6
331
3D01
  5
3D05
331
3C6E
  5
3C6F
331
3C4F
  5
3C4F
331
3C8D
  5
3C8E
331
331A
  5
3323
331
1ACA
  5
1ACA
331
1262
  5
1262
331
121C
  5
121C
331
123B
  5
123B
331
4B43
  5
4B45
331
4B24
  5
4B26
331
4AEE
  5
4AF0
331
4B0D
  5
4B0F
331
11A1
  5
11A1
331
116B
  5
116B
331
114C
  5
114C
331
10F7
  5
10F7
331
10D8
  5
10D8
331
10B9
  5
10B9
331
112D
  5
112D
331
118A
  5
118A
331
11C8
  5
11C8
331
11E7
  5
11E7
331
1206
  5
1206
331
1083
  5
1083
331
1064
  5
1064
331
1045
  5
1045
331
10A2
  5
10A2
331
3D76
  5
3D7A
331
3D19
  5
3D1D
331
3D38
  5
3D3C
331
3D57
  5
3D5B
331
3CA5
  5
3CA8
331
3CC4
  5
3CC7
331
3CE3
  5
3CE7
331
3D02
  5
3D06
331
3C6F
  5
3C70
331
3C8E
  5
3C8F
331
3C50
  5
3C50
331
242D
  5
242D
331
1B41
  5
1B41
331
1263
  5
1263
331
121D
  5
121D
331
123C
  5
123C
331
4B44
  5
4B46
331
4B25
  5
4B27
331
15BF
  5
15BF
331
4AEF
  5
4AF1
331
4B0E
  5
4B10
331
11C9
  5
11C9
331
11A2
  5
11A2
331
118B
  5
118B
331
10F8
  5
10F8
331
10D9
  5
10D9
331
10A3
  5
10A3
331
1084
  5
1084
331
1065
  5
1065
331
1046
  5
1046
331
10BA
  5
10BA
331
112E
  5
112E
331
114D
  5
114D
331
116C
  5
116C
331
11E8
  5
11E8
331
1207
  5
1207
331
194F
  5
194F
331
1743
  5
1743
331
1A2D
  5
1A2D
331
3D77
  5
3D7B
331
3D03
  5
3D07
331
3C8F
  5
3C90
331
3C70
  5
3C71
331
3C51
  5
3C51
331
2A85
  5
2A85
331
3CA6
  5
3CA9
331
3CC5
  5
3CC8
331
3CE4
  5
3CE8
331
3D1A
  5
3D1F
331
3D39
  5
3D3D
331
3D58
  5
3D5C
331
1264
  5
1264
331
121E
  5
121E
331
123D
  5
123D
331
4B45
  5
4B47
331
4B26
  5
4B28
331
4AF0
  5
4AF2
331
4B0F
  5
4B11
331
11E9
  5
11E9
331
11A3
  5
11A3
331
116D
  5
116D
331
114E
  5
114E
331
1118
  5
1118
331
10F9
  5
10F9
331
10DA
  5
10DA
331
10A4
  5
10A4
331
1085
  5
1085
331
1066
  5
1066
331
1047
  5
1047
331
10BB
  5
10BB
331
112F
  5
112F
331
118C
  5
118C
331
11CA
  5
11CA
331
1208
  5
1208
331
1E89
  5
1E89
331
3D78
  5
3D7C
331
1744
  5
1744
331
3D04
  5
3D08
331
3C71
  5
3C72
331
3C52
  5
3C53
331
3CA7
  5
3CAA
331
3CC6
  5
3CC9
331
3CE5
  5
3CE9
331
3D1B
  5
3D20
331
3D3A
  5
3D3E
331
3D59
  5
3D5D
331
121F
  5
121F
331
123E
  5
123E
331
4B46
  5
4B48
331
4B10
  5
4B12
331
4AF1
  5
4AF3
331
4B27
  5
4B29
331
1209
  5
1209
331
11CB
  5
11CB
331
11A4
  5
11A4
331
118D
  5
118D
331
116E
  5
116E
331
1119
  5
1119
331
1130
  5
1130
331
10FA
  5
10FA
331
10DB
  5
10DB
331
10A5
  5
10A5
331
10BC
  5
10BC
331
1086
  5
1086
331
1048
  5
1048
331
1067
  5
1067
331
114F
  5
114F
331
11EA
  5
11EA
331
1E8A
  5
1E8A
331
3D79
  5
3D7D
331
1B15
  5
1B15
331
3D05
  5
3D09
331
3CA8
  5
3CAB
331
3C53
  5
3C54
331
3894
  5
3894
331
3C72
  5
3C73
331
3CC7
  5
3CCA
331
3CE6
  5
3CEA
331
3D1C
  5
3D21
331
3D3B
  5
3D3F
331
3D5A
  5
3D5E
331
1220
  5
1220
331
123F
  5
123F
331
4AF2
  5
4AF4
331
4B11
  5
4B13
331
4B28
  5
4B2A
331
4B47
  5
4B49
331
11EB
  5
11EB
331
11A5
  5
11A5
331
118E
  5
118E
331
1150
  5
1150
331
111A
  5
111A
331
10FB
  5
10FB
331
10A6
  5
10A6
331
10BD
  5
10BD
331
1049
  5
1049
331
1068
  5
1068
331
1087
  5
1087
331
10DC
  5
10DC
331
1131
  5
1131
331
116F
  5
116F
331
11CC
  5
11CC
331
120A
  5
120A
331
1F1A
  5
1F1A
331
192B
  5
192B
331
3D7A
  5
3D7E
331
16B8
  5
16B8
331
1775
  5
1775
331
3D06
  5
3D0A
331
3CC8
  5
3CCB
331
3CA9
  5
3CAC
331
3C73
  5
3C74
331
3C54
  5
3C55
331
3CE7
  5
3CEB
331
3D1D
  5
3D22
331
3D3C
  5
3D40
331
3D5B
  5
3D5F
331
1221
  5
1221
331
1240
  5
1240
331
4B12
  5
4B14
331
4AF3
  5
4AF5
331
4B29
  5
4B2B
331
4B48
  5
4B4A
331
120B
  5
120B
331
11CD
  5
11CD
331
118F
  5
118F
331
1170
  5
1170
331
111B
  5
111B
331
1132
  5
1132
331
10FC
  5
10FC
331
10DD
  5
10DD
331
10A7
  5
10A7
331
104A
  5
104A
331
1069
  5
1069
331
1088
  5
1088
331
10BE
  5
10BE
331
1151
  5
1151
331
11EC
  5
11EC
331
1B9D
  5
1B9D
331
3D7B
  5
3D7F
331
192C
  5
192C
331
3D07
  5
3D0B
331
3CE8
  5
3CEC
331
3CC9
  5
3CCC
331
3CAA
  5
3CAD
331
3C55
  5
3C56
331
3C74
  5
3C75
331
3D3D
  5
3D41
331
3D5C
  5
3D60
331
1222
  5
1222
331
1241
  5
1241
331
4B13
  5
4B15
331
4AF4
  5
4AF6
331
4B2A
  5
4B2C
331
4B49
  5
4B4B
331
11ED
  5
11ED
331
1190
  5
1190
331
11CE
  5
11CE
331
1152
  5
1152
331
10DE
  5
10DE
331
104B
  5
104B
331
106A
  5
106A
331
1089
  5
1089
331
10BF
  5
10BF
331
10FD
  5
10FD
331
1133
  5
1133
331
1171
  5
1171
331
120C
  5
120C
331
1B9E
  5
1B9E
331
18FE
  5
18FE
331
3D7C
  5
3D80
331
1711
  5
1711
331
1AE9
  5
1AE9
331
3CE9
  5
3CED
331
3CCA
  5
3CCD
331
3CAB
  5
3CAE
331
3C75
  5
3C76
331
3C56
  5
3C57
331
3D1F
  5
3D23
331
3D3E
  5
3D42
331
3D5D
  5
3D61
331
1223
  5
1223
331
1242
  5
1242
331
4B14
  5
4B16
331
1634
  5
1634
331
4AF5
  5
4AF7
331
4B2B
  5
4B2D
331
4B4A
  5
4B4C
331
120D
  5
120D
331
11CF
  5
11CF
331
1191
  5
1191
331
11B0
  5
11B0
331
1172
  5
1172
331
104C
  5
104C
331
106B
  5
106B
331
108A
  5
108A
331
10C0
  5
10C0
331
10DF
  5
10DF
331
10FE
  5
10FE
331
1134
  5
1134
331
1153
  5
1153
331
11EE
  5
11EE
331
1B9F
  5
1B9F
331
3D7D
  5
3D81
331
18FF
  5
18FF
331
3D5E
  5
3D62
331
3D20
  5
3D24
331
3CEA
  5
3CEE
331
3CCB
  5
3CCE
331
3CAC
  5
3CAF
331
3C57
  5
3C58
331
3C76
  5
3C77
331
3D3F
  5
3D43
331
1224
  5
1224
331
1243
  5
1243
331
4B15
  5
4B17
331
4AF6
  5
4AF8
331
4B2C
  5
4B2E
331
4B4B
  5
4B4D
331
11EF
  5
11EF
331
11D0
  5
11D0
331
1192
  5
1192
331
11B1
  5
11B1
331
1154
  5
1154
331
104D
  5
104D
331
106C
  5
106C
331
108B
  5
108B
331
10C1
  5
10C1
331
10E0
  5
10E0
331
10FF
  5
10FF
331
1135
  5
1135
331
1173
  5
1173
331
120E
  5
120E
331
1BA0
  5
1BA0
331
3D40
  5
3D45
331
3D21
  5
3D25
331
3CEB
  5
3CEF
331
3CCC
  5
3CCF
331
3CAD
  5
3CB0
331
3C77
  5
3C78
331
3D5F
  5
3D63
331
3D7E
  5
3D82
331
1225
  5
1225
331
4B16
  5
4B18
331
4AF7
  5
4AF9
331
4B2D
  5
4B2F
331
4B4C
  5
4B4E
331
120F
  5
120F
331
11F0
  5
11F0
331
1193
  5
1193
331
11B2
  5
11B2
331
1174
  5
1174
331
104E
  5
104E
331
106D
  5
106D
331
108C
  5
108C
331
10C2
  5
10C2
331
10E1
  5
10E1
331
1100
  5
1100
331
1136
  5
1136
331
1155
  5
1155
331
11D1
  5
11D1
331
19C6
  5
19C6
331
1676
  5
1676
331
3D60
  5
3D64
331
3D41
  5
3D46
331
3D22
  5
3D26
331
3CEC
  5
3CF0
331
3CCD
  5
3CD0
331
3CAE
  5
3CB1
331
3D7F
  5
3D83
331
1226
  5
1226
331
4B17
  5
4B19
331
4AF8
  5
4AFA
331
4B2E
  5
4B30
331
4B4D
  5
4B4F
331
1210
  5
1210
331
11F1
  5
11F1
331
11D2
  5
11D2
331
1194
  5
1194
331
11B3
  5
11B3
331
1156
  5
1156
331
1101
  5
1101
331
104F
  5
104F
331
106E
  5
106E
331
108D
  5
108D
331
10C3
  5
10C3
331
10E2
  5
10E2
331
1137
  5
1137
331
1175
  5
1175
331
3D61
  5
3D65
331
3D23
  5
3D27
331
3CED
  5
3CF1
331
3CCE
  5
3CD1
331
3CAF
  5
3CB2
331
1227
  5
1227
331
4B2F
  5
4B31
331
4B4E
  5
4B50
331
4AF9
  5
4AFB
331
4B18
  5
4B1A
331
1211
  5
1211
331
11F2
  5
11F2
331
1195
  5
1195
331
11B4
  5
11B4
331
1176
  5
1176
331
106F
  5
106F
331
108E
  5
108E
331
10C4
  5
10C4
331
10E3
  5
10E3
331
1102
  5
1102
331
1138
  5
1138
331
1157
  5
1157
331
11D3
  5
11D3
331
1F41
  5
1F41
331
174D
  5
174D
331
3D62
  5
3D66
331
3D43
  5
3D47
331
3D24
  5
3D28
331
3CEE
  5
3CF2
331
3CCF
  5
3CD2
331
1EA2
  5
1EA2
331
1228
  5
1228
331
4B30
  5
4B32
331
4B4F
  5
4B51
331
4AFA
  5
4AFC
331
4B19
  5
4B1B
331
1212
  5
1212
331
11D4
  5
11D4
331
1196
  5
1196
331
11B5
  5
11B5
331
1158
  5
1158
331
108F
  5
108F
331
10C5
  5
10C5
331
10E4
  5
10E4
331
1103
  5
1103
331
1139
  5
1139
331
1177
  5
1177
331
11F3
  5
11F3
331
199A
  5
199A
331
3D63
  5
3D67
331
3D44
  5
3D48
331
3D25
  5
3D29
331
3CEF
  5
3CF3
331
1933
  5
1933
331
1229
  5
1229
331
1250
  5
1250
331
4B31
  5
4B33
331
4B50
  5
4B52
331
4AFB
  5
4AFD
331
4B1A
  5
4B1C
331
1213
  5
1213
331
11F4
  5
11F4
331
1197
  5
1197
331
1178
  5
1178
331
10C6
  5
10C6
331
10E5
  5
10E5
331
1104
  5
1104
331
113A
  5
113A
331
1159
  5
1159
331
11B6
  5
11B6
331
11D5
  5
11D5
331
3D64
  5
3D68
331
3D45
  5
3D49
331
3D26
  5
3D2A
331
1934
  5
1934
331
122A
  5
122A
331
1251
  5
1251
331
4B32
  5
4B34
331
4B51
  5
4B53
331
4AFC
  5
4AFE
331
4B1B
  5
4B1D
331
1214
  5
1214
331
11D6
  5
11D6
331
115A
  5
115A
331
10C7
  5
10C7
331
10E6
  5
10E6
331
1105
  5
1105
331
113B
  5
113B
331
1179
  5
1179
331
11B7
  5
11B7
331
11F5
  5
11F5
331
1B57
  5
1B57
331
16D2
  5
16D2
331
3D65
  5
3D69
331
3D46
  5
3D4A
331
3D27
  5
3D2B
331
1935
  5
1935
331
122B
  5
122B
331
1252
  5
1252
331
4B33
  5
4B35
331
4B52
  5
4B54
331
4AFD
  5
4AFF
331
4B1C
  5
4B1E
331
1215
  5
1215
331
11F6
  5
11F6
331
11B8
  5
11B8
331
117A
  5
117A
331
115B
  5
115B
331
10E7
  5
10E7
331
1106
  5
1106
331
113C
  5
113C
331
11D7
  5
11D7
331
3D66
  5
3D6A
331
3D47
  5
3D4B
331
1A43
  5
1A43
331
122C
  5
122C
331
1253
  5
1253
331
4B34
  5
4B36
331
4B53
  5
4B55
331
4AFE
  5
4B00
331
4B1D
  5
4B1F
331
1216
  5
1216
331
11D8
  5
11D8
331
11B9
  5
11B9
331
115C
  5
115C
331
1107
  5
1107
331
113D
  5
113D
331
117B
  5
117B
331
11F7
  5
11F7
331
FA8
  5
FA8
331
17D1
  5
17D1
331
3D67
  5
3D6B
331
122D
  5
122D
331
1254
  5
1254
331
4B35
  5
4B37
331
4B54
  5
4B56
331
4AFF
  5
4B01
331
4B1E
  5
4B20
  0
XRECORD
  5
4D63
102
{ACAD_REACTORS
330
4D62
102
}
330
4D62
100
AcDbXrecord
340
4D3A
  0
ACAD_PROXY_OBJECT
  5
811
102
{ACAD_XDICTIONARY
360
812
102
}
102
{ACAD_REACTORS
330
808
102
}
330
808
100
AcDbProxyObject
 90
      499
 91
      512
 93
     1340
310
42109E509B1BD8DAC02004014080404555555555555953FAA155555555555654FEA9AA400014080404555555555555953FAA155555555555654FEA9AA400000000000000E03F4080404555555555555953FAA155555555555654FEA9AA4014080404555555555555953FAA155555555555654FEA9AA4010201011555555555
310
55654FEA8555555555555953FAA6A9005020101155555555555654FEA8555555555555953FAA6A900F
 94
        0
1001
ACAD
1000
AcadProxyRoundTripData
1071
      504
1071
   851991
1070
     0
  0
ACAD_PROXY_OBJECT
  5
809
102
{ACAD_XDICTIONARY
360
80A
102
}
102
{ACAD_REACTORS
330
808
102
}
330
808
100
AcDbProxyObject
 90
      499
 91
      512
 93
     1340
310
42109E53185E595C802004014080404555555555555953FAA155555555555654FEA9AA400014080404555555555555953FAA155555555555654FEA9AA400000000000000E03F4080404555555555555953FAA155555555555654FEA9AA4014080404555555555555953FAA155555555555654FEA9AA4010201011555555555
310
55654FEA8555555555555953FAA6A9005020101155555555555654FEA8555555555555953FAA6A900F
 94
        0
1001
ACAD
1000
AcadProxyRoundTripData
1071
      504
1071
   851991
1070
     0
  0
ACAD_PROXY_OBJECT
  5
819
102
{ACAD_XDICTIONARY
360
81A
102
}
102
{ACAD_REACTORS
330
808
102
}
330
808
100
AcDbProxyObject
 90
      499
 91
      512
 93
     1332
310
41D1DB1BD8985B002004014080404555555555555953FAA155555555555654FEA9AA400014080404555555555555953FAA155555555555654FEA9AA400000000000000E03F4080404555555555555953FAA155555555555654FEA9AA4014080404555555555555953FAA155555555555654FEA9AA401020101155555555555
310
654FEA8555555555555953FAA6A9005020101155555555555654FEA8555555555555953FAA6A9000
 94
        0
1001
ACAD
1000
AcadProxyRoundTripData
1071
      504
1071
   851991
1070
     0
  0
ACAD_PROXY_OBJECT
  5
858
102
{ACAD_REACTORS
330
857
102
}
330
857
100
AcDbProxyObject
 90
      499
 91
      512
 93
      618
310
40901902A4063FBFFFFFE056BD1B81E855B9FC0AD7A3703D0AD73F4254DD185B99185C990000AD7A3703D0AC73F90141901A02B5E8DC0F42B1CFC02B5E8DC0F42B1CFE5764000000000000300FC6
340
6A
340
0
340
16
340
0
 94
        0
1001
ACAD_MLEADERVER
1070
     2
1001
ACAD
1000
AcadProxyRoundTripData
1071
      508
1071
   851991
1070
     0
  0
MLINESTYLE
  5
78
102
{ACAD_REACTORS
330
76
102
}
330
76
100
AcDbMlineStyle
  2
STANDARD
 70
     0
  3

 62
     0
 51
90.0
 52
90.0
 71
     2
 49
0.5
 62
   256
  6
BYLAYER
 49
-0.5
 62
   256
  6
BYLAYER
  0
ACDBPLACEHOLDER
  5
5
102
{ACAD_REACTORS
330
6
102
}
330
6
100
AcDbPlaceHolder
280
     0
  0
ACAD_PROXY_OBJECT
  5
836
102
{ACAD_REACTORS
330
835
102
}
330
835
100
AcDbProxyObject
 90
      499
 91
      512
 93
       49
310
904313A3100598
 94
        0
1001
ACAD
1000
AcadProxyRoundTripData
1071
      507
1071
   851991
1070
     0
  0
ACAD_PROXY_OBJECT
  5
837
102
{ACAD_REACTORS
330
835
102
}
330
835
100
AcDbProxyObject
 90
      499
 91
      512
 93
      113
310
904313A3200400000000000000406B
 94
        0
1001
ACAD
1000
AcadProxyRoundTripData
1071
      507
1071
   851991
1070
     0
  0
ACAD_PROXY_OBJECT
  5
838
102
{ACAD_REACTORS
330
835
102
}
330
835
100
AcDbProxyObject
 90
      499
 91
      512
 93
      113
310
904313A3400400000000000010406B
 94
        0
1001
ACAD
1000
AcadProxyRoundTripData
1071
      507
1071
   851991
1070
     0
  0
ACAD_PROXY_OBJECT
  5
839
102
{ACAD_REACTORS
330
835
102
}
330
835
100
AcDbProxyObject
 90
      499
 91
      512
 93
      113
310
904313A3500400000000000014406B
 94
        0
1001
ACAD
1000
AcadProxyRoundTripData
1071
      507
1071
   851991
1070
     0
  0
ACAD_PROXY_OBJECT
  5
83A
102
{ACAD_REACTORS
330
835
102
}
330
835
100
AcDbProxyObject
 90
      499
 91
      512
 93
      113
310
904313A3800400000000000020406B
 94
        0
1001
ACAD
1000
AcadProxyRoundTripData
1071
      507
1071
   851991
1070
     0
  0
ACAD_PROXY_OBJECT
  5
83B
102
{ACAD_REACTORS
330
835
102
}
330
835
100
AcDbProxyObject
 90
      499
 91
      512
 93
      121
310
905313A3130004000000000000244051
 94
        0
1001
ACAD
1000
AcadProxyRoundTripData
1071
      507
1071
   851991
1070
     0
  0
ACAD_PROXY_OBJECT
  5
83C
102
{ACAD_REACTORS
330
835
102
}
330
835
100
AcDbProxyObject
 90
      499
 91
      512
 93
      121
310
905313A3136004000000000000304051
 94
        0
1001
ACAD
1000
AcadProxyRoundTripData
1071
      507
1071
   851991
1070
     0
  0
ACAD_PROXY_OBJECT
  5
83D
102
{ACAD_REACTORS
330
835
102
}
330
835
100
AcDbProxyObject
 90
      499
 91
      512
 93
      121
310
905313A3230004000000000000344051
 94
        0
1001
ACAD
1000
AcadProxyRoundTripData
1071
      507
1071
   851991
1070
     0
  0
ACAD_PROXY_OBJECT
  5
83E
102
{ACAD_REACTORS
330
835
102
}
330
835
100
AcDbProxyObject
 90
      499
 91
      512
 93
      121
310
905313A33300040000000000003E4051
 94
        0
1001
ACAD
1000
AcadProxyRoundTripData
1071
      507
1071
   851991
1070
     0
  0
ACAD_PROXY_OBJECT
  5
83F
102
{ACAD_REACTORS
330
835
102
}
330
835
100
AcDbProxyObject
 90
      499
 91
      512
 93
      121
310
905313A3430004000000000000444051
 94
        0
1001
ACAD
1000
AcadProxyRoundTripData
1071
      507
1071
   851991
1070
     0
  0
ACAD_PROXY_OBJECT
  5
840
102
{ACAD_REACTORS
330
835
102
}
330
835
100
AcDbProxyObject
 90
      499
 91
      512
 93
      121
310
905313A3530004000000000000494051
 94
        0
1001
ACAD
1000
AcadProxyRoundTripData
1071
      507
1071
   851991
1070
     0
  0
ACAD_PROXY_OBJECT
  5
841
102
{ACAD_REACTORS
330
835
102
}
330
835
100
AcDbProxyObject
 90
      499
 91
      512
 93
      129
310
906313A313030004000000000000594038
 94
        0
1001
ACAD
1000
AcadProxyRoundTripData
1071
      507
1071
   851991
1070
     0
  0
ACAD_PROXY_OBJECT
  5
842
102
{ACAD_REACTORS
330
835
102
}
330
835
100
AcDbProxyObject
 90
      499
 91
      512
 93
      113
310
904323A31000000000000000010159
 94
        0
1001
ACAD
1000
AcadProxyRoundTripData
1071
      507
1071
   851991
1070
     0
  0
ACAD_PROXY_OBJECT
  5
843
102
{ACAD_REACTORS
330
835
102
}
330
835
100
AcDbProxyObject
 90
      499
 91
      512
 93
      113
310
904343A31000000000000000410159
 94
        0
1001
ACAD
1000
AcadProxyRoundTripData
1071
      507
1071
   851991
1070
     0
  0
ACAD_PROXY_OBJECT
  5
844
102
{ACAD_REACTORS
330
835
102
}
330
835
100
AcDbProxyObject
 90
      499
 91
      512
 93
      113
310
904383A31000000000000000810159
 94
        0
1001
ACAD
1000
AcadProxyRoundTripData
1071
      507
1071
   851991
1070
     0
  0
ACAD_PROXY_OBJECT
  5
845
102
{ACAD_REACTORS
330
835
102
}
330
835
100
AcDbProxyObject
 90
      499
 91
      512
 93
      121
310
90531303A31000000000000000910140
 94
        0
1001
ACAD
1000
AcadProxyRoundTripData
1071
      507
1071
   851991
1070
     0
  0
ACAD_PROXY_OBJECT
  5
846
102
{ACAD_REACTORS
330
835
102
}
330
835
100
AcDbProxyObject
 90
      499
 91
      512
 93
      129
310
9063130303A31000000000000001650138
 94
        0
1001
ACAD
1000
AcadProxyRoundTripData
1071
      507
1071
   851991
1070
     0
  0
ACAD_PROXY_OBJECT
  5
847
102
{ACAD_REACTORS
330
835
102
}
330
835
100
AcDbProxyObject
 90
      499
 91
      512
 93
      265
310
90F312F31323822203D2031272D302200000000000000200FC00000000000028402B
 94
        0
1001
ACAD
1000
AcadProxyRoundTripData
1071
      507
1071
   851991
1070
     0
  0
ACAD_PROXY_OBJECT
  5
848
102
{ACAD_REACTORS
330
835
102
}
330
835
100
AcDbProxyObject
 90
      499
 91
      512
 93
      257
310
90E312F363422203D2031272D302200000000000000240FC000000000000284040
 94
        0
1001
ACAD
1000
AcadProxyRoundTripData
1071
      507
1071
   851991
1070
     0
  0
ACAD_PROXY_OBJECT
  5
849
102
{ACAD_REACTORS
330
835
102
}
330
835
100
AcDbProxyObject
 90
      499
 91
      512
 93
      257
310
90E312F333222203D2031272D302200000000000000280FC000000000000284040
 94
        0
1001
ACAD
1000
AcadProxyRoundTripData
1071
      507
1071
   851991
1070
     0
  0
ACAD_PROXY_OBJECT
  5
84A
102
{ACAD_REACTORS
330
835
102
}
330
835
100
AcDbProxyObject
 90
      499
 91
      512
 93
      257
310
90E312F313622203D2031272D3022000000000000002C0FC000000000000284040
 94
        0
1001
ACAD
1000
AcadProxyRoundTripData
1071
      507
1071
   851991
1070
     0
  0
ACAD_PROXY_OBJECT
  5
84B
102
{ACAD_REACTORS
330
835
102
}
330
835
100
AcDbProxyObject
 90
      499
 91
      512
 93
      257
310
90E332F333222203D2031272D3022000000000000002E0FC000000000000284040
 94
        0
1001
ACAD
1000
AcadProxyRoundTripData
1071
      507
1071
   851991
1070
     0
  0
ACAD_PROXY_OBJECT
  5
84C
102
{ACAD_REACTORS
330
835
102
}
330
835
100
AcDbProxyObject
 90
      499
 91
      512
 93
      249
310
90D312F3822203D2031272D302200000000000000300FC000000000000284040
 94
        0
1001
ACAD
1000
AcadProxyRoundTripData
1071
      507
1071
   851991
1070
     0
  0
ACAD_PROXY_OBJECT
  5
84D
102
{ACAD_REACTORS
330
835
102
}
330
835
100
AcDbProxyObject
 90
      499
 91
      512
 93
      257
310
90E332F313622203D2031272D302200000000000000320FC000000000000284040
 94
        0
1001
ACAD
1000
AcadProxyRoundTripData
1071
      507
1071
   851991
1070
     0
  0
ACAD_PROXY_OBJECT
  5
84E
102
{ACAD_REACTORS
330
835
102
}
330
835
100
AcDbProxyObject
 90
      499
 91
      512
 93
      249
310
90D312F3422203D2031272D302200000000000000340FC000000000000284040
 94
        0
1001
ACAD
1000
AcadProxyRoundTripData
1071
      507
1071
   851991
1070
     0
  0
ACAD_PROXY_OBJECT
  5
84F
102
{ACAD_REACTORS
330
835
102
}
330
835
100
AcDbProxyObject
 90
      499
 91
      512
 93
      249
310
90D332F3822203D2031272D302200000000000000360FC000000000000284040
 94
        0
1001
ACAD
1000
AcadProxyRoundTripData
1071
      507
1071
   851991
1070
     0
  0
ACAD_PROXY_OBJECT
  5
850
102
{ACAD_REACTORS
330
835
102
}
330
835
100
AcDbProxyObject
 90
      499
 91
      512
 93
      249
310
90D312F3222203D2031272D302200000000000000380FC000000000000284040
 94
        0
1001
ACAD
1000
AcadProxyRoundTripData
1071
      507
1071
   851991
1070
     0
  0
ACAD_PROXY_OBJECT
  5
851
102
{ACAD_REACTORS
330
835
102
}
330
835
100
AcDbProxyObject
 90
      499
 91
      512
 93
      249
310
90D332F3422203D2031272D3022000000000000003A0FC000000000000284040
 94
        0
1001
ACAD
1000
AcadProxyRoundTripData
1071
      507
1071
   851991
1070
     0
  0
ACAD_PROXY_OBJECT
  5
852
102
{ACAD_REACTORS
330
835
102
}
330
835
100
AcDbProxyObject
 90
      499
 91
      512
 93
      169
310
90B3122203D2031272D3022004000000000000284020
 94
        0
1001
ACAD
1000
AcadProxyRoundTripData
1071
      507
1071
   851991
1070
     0
  0
ACAD_PROXY_OBJECT
  5
853
102
{ACAD_REACTORS
330
835
102
}
330
835
100
AcDbProxyObject
 90
      499
 91
      512
 93
      265
310
90F312D312F3222203D2031272D3022000000000000003E0FC00000000000028402B
 94
        0
1001
ACAD
1000
AcadProxyRoundTripData
1071
      507
1071
   851991
1070
     0
  0
ACAD_PROXY_OBJECT
  5
854
102
{ACAD_REACTORS
330
835
102
}
330
835
100
AcDbProxyObject
 90
      499
 91
      512
 93
      233
310
90B3322203D2031272D30220000000000000002100000000000000284000
 94
        0
1001
ACAD
1000
AcadProxyRoundTripData
1071
      507
1071
   851991
1070
     0
  0
ACAD_PROXY_OBJECT
  5
855
102
{ACAD_REACTORS
330
835
102
}
330
835
100
AcDbProxyObject
 90
      499
 91
      512
 93
      233
310
90B3622203D2031272D30220000000000000006100000000000000284000
 94
        0
1001
ACAD
1000
AcadProxyRoundTripData
1071
      507
1071
   851991
1070
     0
  0
ACAD_PROXY_OBJECT
  5
856
102
{ACAD_REACTORS
330
835
102
}
330
835
100
AcDbProxyObject
 90
      499
 91
      512
 93
      257
310
90E31272D3022203D2031272D3022000000000000000A100000000000000284040
 94
        0
1001
ACAD
1000
AcadProxyRoundTripData
1071
      507
1071
   851991
1070
     0
  0
ACAD_PROXY_OBJECT
  5
834
102
{ACAD_XDICTIONARY
360
88C
102
}
102
{ACAD_REACTORS
330
833
102
}
330
833
100
AcDbProxyObject
 90
      499
 91
      512
 93
     1849
310
4254DD185B99185C990028B81E85EB51B8AE3F2E07A17AD46E2B8FC02B5E8DC0F42B1CFD028000000C1008070000C3001FDFF8000000C1003FBFF000000182007F7FE00000030400FEFFC00000060801FDFF8000000C1003FBFF00000018200000000000000681FA0B0000001820100E000186003FBFF000000182007F7FE0
310
0000030400FEFFC00000060801FDFF8000000C1003FBFF000000182007F7FE000000304000AD7A3703D0AC73F4160000003040201C00030C007F7FE00000030400FEFFC00000060801FDFF8000000C1003FBFF000000182007F7FE00000030400FEFFC00000060804E
340
16
340
16
340
16
 94
        0
1001
ACAD
1000
AcadProxyRoundTripData
1071
      506
1071
   851991
1070
     0
  0
ACAD_PROXY_OBJECT
  5
827
102
{ACAD_REACTORS
330
821
102
}
330
821
100
AcDbProxyObject
 90
      499
 91
      512
 93
      444
310
430C9915DA5C99599C985B59401049028333333333333E3BF0000000000000FB0107901411070040501600405405064090741402480A0340
 94
        0
1001
ACAD
1000
AcDbSavedByObjectVersion
1070
     0
1000
AcadProxyRoundTripData
1071
      505
1071
   851991
1070
     0
  0
ACAD_PROXY_OBJECT
  5
829
102
{ACAD_REACTORS
330
821
102
}
330
821
100
AcDbProxyObject
 90
      499
 91
      512
 93
      508
310
428CD108121A5919195B8010640502408333333333333E3BF0000000000000FB01079024090700405020000000000001110200405405064090740C02480A0340
 94
        0
1001
ACAD
1000
AcDbSavedByObjectVersion
1070
     0
1000
AcadProxyRoundTripData
1071
      505
1071
   851991
1070
     0
  0
ACAD_PROXY_OBJECT
  5
828
102
{ACAD_REACTORS
330
821
102
}
330
821
100
AcDbProxyObject
 90
      499
 91
      512
 93
      444
310
430CD915DA5C99599C985B59401059028333333333333E3BF0000000000000FB0107901411070040501600405405064090741402480A0340
 94
        0
1001
ACAD
1000
AcDbSavedByObjectVersion
1070
     0
1000
AcadProxyRoundTripData
1071
      505
1071
   851991
1070
     0
  0
ACAD_PROXY_OBJECT
  5
826
102
{ACAD_REACTORS
330
821
102
}
330
821
100
AcDbProxyObject
 90
      499
 91
      512
 93
      396
310
4190985CDA58C0107406404333333333333E3BF0000000000000FB0107A41107004050150841D405064090741402480A0356
 94
        0
1001
ACAD
1000
AcDbSavedByObjectVersion
1070
     0
1000
AcadProxyRoundTripData
1071
      505
1071
   851991
1070
     0
  0
ACAD_PROXY_OBJECT
  5
82D
102
{ACAD_REACTORS
330
821
102
}
330
821
100
AcDbProxyObject
 90
      499
 91
      512
 93
      436
310
42509C9A59DA1D195B8010C409028333333333333E3BF0000000000000FB010790141107004050150841D405064090741402480A029956
 94
        0
1001
ACAD
1000
AcDbSavedByObjectVersion
1070
     0
1000
AcadProxyRoundTripData
1071
      505
1071
   851991
1070
     0
  0
ACAD_PROXY_OBJECT
  5
831
102
{ACAD_REACTORS
330
821
102
}
330
821
100
AcDbProxyObject
 90
      499
 91
      512
 93
      460
310
4310DBDB1BDC90DA185B99D9401104090240C333333333333E3BF0000000000000FB0108901411070040501508421405064090741402480A0354
 94
        0
1001
ACAD
1000
AcDbSavedByObjectVersion
1070
     0
1000
AcadProxyRoundTripData
1071
      505
1071
   851991
1070
     0
  0
ACAD_PROXY_OBJECT
  5
82A
102
{ACAD_REACTORS
330
821
102
}
330
821
100
AcDbProxyObject
 90
      499
 91
      512
 93
      508
310
42D0DBDB98D95C1D1D585B0010940D028333333333333E3BF0000000000000FB0107902409070040501000000000000111010841D405064090740C02480A0340
 94
        0
1001
ACAD
1000
AcDbSavedByObjectVersion
1070
     0
1000
AcadProxyRoundTripData
1071
      505
1071
   851991
1070
     0
  0
ACAD_PROXY_OBJECT
  5
82C
102
{ACAD_REACTORS
330
821
102
}
330
821
100
AcDbProxyObject
 90
      499
 91
      512
 93
      420
310
41111A5B4010B409028333333333333E3BF0000000000000FB010790141107004050150841D405064090741402480A02677FFFFFDB
 94
        0
1001
ACAD
1000
AcDbSavedByObjectVersion
1070
     0
1000
AcadProxyRoundTripData
1071
      505
1071
   851991
1070
     0
  0
ACAD_PROXY_OBJECT
  5
830
102
{ACAD_REACTORS
330
821
102
}
330
821
100
AcDbProxyObject
 90
      499
 91
      512
 93
      452
310
43119858D95C185D1D195C9B8010F409028333333333333E3BF0000000000000FB010790141107004050150841D405064090741402480A0350
 94
        0
1001
ACAD
1000
AcDbSavedByObjectVersion
1070
     0
1000
AcadProxyRoundTripData
1071
      505
1071
   851991
1070
     0
  0
ACAD_PROXY_OBJECT
  5
822
102
{ACAD_REACTORS
330
821
102
}
330
821
100
AcDbProxyObject
 90
      499
 91
      512
 93
      396
310
41519B185D00240901404333333333333E3BF0000000000000F9010740A41107004050150841D405064090741402480A1B55
 94
        0
1001
ACAD
1000
AcDbSavedByObjectVersion
1070
     0
1000
AcadProxyRoundTripData
1071
      505
1071
   851991
1070
     0
  0
ACAD_PROXY_OBJECT
  5
823
102
{ACAD_REACTORS
330
821
102
}
330
821
100
AcDbProxyObject
 90
      499
 91
      512
 93
      484
310
43919B185D15DA5D1A115919D95CC010140901404333333333333E3BF0000000000000F9010740901411070040501600405405064090741402480A1B50
 94
        0
1001
ACAD
1000
AcDbSavedByObjectVersion
1070
     0
1000
AcadProxyRoundTripData
1071
      505
1071
   851991
1070
     0
  0
ACAD_PROXY_OBJECT
  5
824
102
{ACAD_REACTORS
330
821
102
}
330
821
100
AcDbProxyObject
 90
      499
 91
      512
 93
      420
310
4211DBDD5C985D590010240902404333333333333E3BF0000000000000F9010740A411070040501641D405064090741402480A1B50
 94
        0
1001
ACAD
1000
AcDbSavedByObjectVersion
1070
     0
1000
AcadProxyRoundTripData
1071
      505
1071
   851991
1070
     0
  0
ACAD_PROXY_OBJECT
  5
825
102
{ACAD_REACTORS
330
821
102
}
330
821
100
AcDbProxyObject
 90
      499
 91
      512
 93
      508
310
4451DBDD5C985D5915DA5D1A115919D95CC010340902404333333333333E3BF0000000000000F9010740901411070040501600405405064090741402480A1B50
 94
        0
1001
ACAD
1000
AcDbSavedByObjectVersion
1070
     0
1000
AcadProxyRoundTripData
1071
      505
1071
   851991
1070
     0
  0
ACAD_PROXY_OBJECT
  5
82F
102
{ACAD_REACTORS
330
821
102
}
330
821
100
AcDbProxyObject
 90
      499
 91
      512
 93
      452
310
43131A5B995C185D1D195C9B8010E409028333333333333E3BF0000000000000FB010790141107004050750841D405064090741402483A0350
 94
        0
1001
ACAD
1000
AcDbSavedByObjectVersion
1070
     0
1000
AcadProxyRoundTripData
1071
      505
1071
   851991
1070
     0
  0
ACAD_PROXY_OBJECT
  5
82B
102
{ACAD_REACTORS
330
821
102
}
330
821
100
AcDbProxyObject
 90
      499
 91
      512
 93
      428
310
429499585B1A5CDD1A58C0108409028333333333333E3BF0000000000000FB01079019070040501508421405064090741402480A1B45
 94
        0
1001
ACAD
1000
AcDbSavedByObjectVersion
1070
     0
1000
AcadProxyRoundTripData
1071
      505
1071
   851991
1070
     0
  0
ACAD_PROXY_OBJECT
  5
82E
102
{ACAD_REACTORS
330
821
102
}
330
821
100
AcDbProxyObject
 90
      499
 91
      512
 93
      420
310
42151A1A58DAD95B8010D409028333333333333E3BF0000000000000FB010790141107004050150C41D405064090741402480A0352
 94
        0
1001
ACAD
1000
AcDbSavedByObjectVersion
1070
     0
1000
AcadProxyRoundTripData
1071
      505
1071
   851991
1070
     0
  0
XRECORD
  5
4D4A
102
{ACAD_REACTORS
330
4D40
102
}
330
4D40
100
AcDbXrecord
 90
        0
  0
XRECORD
  5
4D4E
102
{ACAD_REACTORS
330
4D40
102
}
330
4D40
100
AcDbXrecord
1000
DSTYLE
1002
{
1070
   179
 70
     2
1070
   277
 70
     6
1002
}
  0
XRECORD
  5
4D4B
102
{ACAD_REACTORS
330
4D40
102
}
330
4D40
100
AcDbXrecord
  1
{472D1F85-08F4-40FF-8A32-FC4D8F4268D4}
  0
XRECORD
  5
4D43
102
{ACAD_REACTORS
330
4D40
102
}
330
4D40
100
AcDbXrecord
  1

  0
XRECORD
  5
4D49
102
{ACAD_REACTORS
330
4D40
102
}
330
4D40
100
AcDbXrecord
 90
        0
  0
XRECORD
  5
4D45
102
{ACAD_REACTORS
330
4D40
102
}
330
4D40
100
AcDbXrecord
340
61
  0
XRECORD
  5
4D48
102
{ACAD_REACTORS
330
4D40
102
}
330
4D40
100
AcDbXrecord
 90
    10781
  0
XRECORD
  5
4D46
102
{ACAD_REACTORS
330
4D40
102
}
330
4D40
100
AcDbXrecord
340
77
  0
XRECORD
  5
4D47
102
{ACAD_REACTORS
330
4D40
102
}
330
4D40
100
AcDbXrecord
340
6
  0
XRECORD
  5
4D4D
102
{ACAD_REACTORS
330
4D40
102
}
330
4D40
100
AcDbXrecord
 40
0.0
  0
XRECORD
  5
4D51
102
{ACAD_REACTORS
330
4D40
102
}
330
4D40
100
AcDbXrecord
340
0
  0
XRECORD
  5
4D57
102
{ACAD_REACTORS
330
4D40
102
}
330
4D40
100
AcDbXrecord
 10
0.0
 20
0.0
 30
0.0
  0
XRECORD
  5
4D53
102
{ACAD_REACTORS
330
4D40
102
}
330
4D40
100
AcDbXrecord
 10
0.0
 20
0.0
 30
0.0
  0
XRECORD
  5
4D56
102
{ACAD_REACTORS
330
4D40
102
}
330
4D40
100
AcDbXrecord
 10
0.0
 20
0.0
 30
0.0
  0
XRECORD
  5
4D54
102
{ACAD_REACTORS
330
4D40
102
}
330
4D40
100
AcDbXrecord
 10
0.0
 20
0.0
 30
0.0
  0
XRECORD
  5
4D55
102
{ACAD_REACTORS
330
4D40
102
}
330
4D40
100
AcDbXrecord
 10
0.0
 20
0.0
 30
0.0
  0
XRECORD
  5
4D52
102
{ACAD_REACTORS
330
4D40
102
}
330
4D40
100
AcDbXrecord
 10
0.0
 20
0.0
 30
0.0
  0
XRECORD
  5
4D4F
102
{ACAD_REACTORS
330
4D40
102
}
330
4D40
100
AcDbXrecord
340
0
  0
XRECORD
  5
4D50
102
{ACAD_REACTORS
330
4D40
102
}
330
4D40
100
AcDbXrecord
 70
     0
  0
XRECORD
  5
4D44
102
{ACAD_REACTORS
330
4D40
102
}
330
4D40
100
AcDbXrecord
  1
Sekkei.ctb
  0
XRECORD
  5
4D41
102
{ACAD_REACTORS
330
4D40
102
}
330
4D40
100
AcDbXrecord
 90
        1
  0
XRECORD
  5
4D42
102
{ACAD_REACTORS
330
4D40
102
}
330
4D40
100
AcDbXrecord
 90
       70
  0
XRECORD
  5
4D5A
102
{ACAD_REACTORS
330
4D40
102
}
330
4D40
100
AcDbXrecord
340
0
  0
XRECORD
  5
4D60
102
{ACAD_REACTORS
330
4D40
102
}
330
4D40
100
AcDbXrecord
 10
0.0
 20
0.0
 30
0.0
  0
XRECORD
  5
4D5C
102
{ACAD_REACTORS
330
4D40
102
}
330
4D40
100
AcDbXrecord
 10
0.0
 20
0.0
 30
0.0
  0
XRECORD
  5
4D5F
102
{ACAD_REACTORS
330
4D40
102
}
330
4D40
100
AcDbXrecord
 10
0.0
 20
0.0
 30
0.0
  0
XRECORD
  5
4D5D
102
{ACAD_REACTORS
330
4D40
102
}
330
4D40
100
AcDbXrecord
 10
0.0
 20
0.0
 30
0.0
  0
XRECORD
  5
4D5E
102
{ACAD_REACTORS
330
4D40
102
}
330
4D40
100
AcDbXrecord
 10
0.0
 20
0.0
 30
0.0
  0
XRECORD
  5
4D5B
102
{ACAD_REACTORS
330
4D40
102
}
330
4D40
100
AcDbXrecord
 10
0.0
 20
0.0
 30
0.0
  0
XRECORD
  5
4D58
102
{ACAD_REACTORS
330
4D40
102
}
330
4D40
100
AcDbXrecord
340
0
  0
XRECORD
  5
4D59
102
{ACAD_REACTORS
330
4D40
102
}
330
4D40
100
AcDbXrecord
 70
     0
  0
XRECORD
  5
4D4C
102
{ACAD_REACTORS
330
4D40
102
}
330
4D40
100
AcDbXrecord
  1
{459EE764-3EFF-428D-BBBC-69086FE934C8}
  0
DICTIONARYVAR
  5
892
102
{ACAD_REACTORS
330
102
102
}
330
102
100
DictionaryVariables
280
     0
  1
1:1
  0
DICTIONARYVAR
  5
890
102
{ACAD_REACTORS
330
102
102
}
330
102
100
DictionaryVariables
280
     0
  1
STANDARD
  0
DICTIONARYVAR
  5
88F
102
{ACAD_REACTORS
330
102
102
}
330
102
100
DictionaryVariables
280
     0
  1
STANDARD
  0
DICTIONARYVAR
  5
103
102
{ACAD_REACTORS
330
102
102
}
330
102
100
DictionaryVariables
280
     0
  1
1
  0
DICTIONARYVAR
  5
1E7C
102
{ACAD_REACTORS
330
102
102
}
330
102
100
DictionaryVariables
280
     0
  1
0
  0
DICTIONARYVAR
  5
893
102
{ACAD_REACTORS
330
102
102
}
330
102
100
DictionaryVariables
280
     0
  1
0
  0
DICTIONARYVAR
  5
891
102
{ACAD_REACTORS
330
102
102
}
330
102
100
DictionaryVariables
280
     0
  1
0
  0
DICTIONARYVAR
  5
549
102
{ACAD_REACTORS
330
102
102
}
330
102
100
DictionaryVariables
280
     0
  1
96
  0
DICTIONARY
  5
812
330
811
100
AcDbDictionary
280
     1
  3
ACAD_XREC_ROUNDTRIP
360
4D1E
  3
BUMPTILE
360
814
  3
DIFFUSETILE
360
813
  3
OPACITYTILE
360
817
  3
REFLECTIONTILE
360
816
  3
REFRACTIONTILE
360
818
  3
SPECULARTILE
360
815
  0
DICTIONARY
  5
80A
330
809
100
AcDbDictionary
280
     1
  3
ACAD_XREC_ROUNDTRIP
360
4D1D
  3
BUMPTILE
360
80C
  3
DIFFUSETILE
360
80B
  3
OPACITYTILE
360
80F
  3
REFLECTIONTILE
360
80E
  3
REFRACTIONTILE
360
810
  3
SPECULARTILE
360
80D
  0
DICTIONARY
  5
81A
330
819
100
AcDbDictionary
280
     1
  3
ACAD_XREC_ROUNDTRIP
360
4D1F
  3
BUMPTILE
360
81C
  3
DIFFUSETILE
360
81B
  3
OPACITYTILE
360
81F
  3
REFLECTIONTILE
360
81E
  3
REFRACTIONTILE
360
820
  3
SPECULARTILE
360
81D
  0
DICTIONARY
  5
88C
330
834
100
AcDbDictionary
280
     1
  3
ACAD_ROUNDTRIP_2008_TABLES
360
4D15
  3
ACAD_XREC_ROUNDTRIP
360
4D20
  0
XRECORD
  5
4D1E
102
{ACAD_REACTORS
330
812
102
}
330
812
100
AcDbXrecord
102
MATERIAL
148
0.0
149
0.0
149
0.0
 93
        0
 94
      127
282
     0
 72
     0
 77
     0
171
     0
175
     0
179
     0
273
     0
  0
XRECORD
  5
814
102
{ACAD_REACTORS
330
812
102
}
330
812
100
AcDbXrecord
270
     1
271
     1
  0
XRECORD
  5
813
102
{ACAD_REACTORS
330
812
102
}
330
812
100
AcDbXrecord
270
     1
271
     1
  0
XRECORD
  5
817
102
{ACAD_REACTORS
330
812
102
}
330
812
100
AcDbXrecord
270
     1
271
     1
  0
XRECORD
  5
816
102
{ACAD_REACTORS
330
812
102
}
330
812
100
AcDbXrecord
270
     1
271
     1
  0
XRECORD
  5
818
102
{ACAD_REACTORS
330
812
102
}
330
812
100
AcDbXrecord
270
     1
271
     1
  0
XRECORD
  5
815
102
{ACAD_REACTORS
330
812
102
}
330
812
100
AcDbXrecord
270
     1
271
     1
  0
XRECORD
  5
4D1D
102
{ACAD_REACTORS
330
80A
102
}
330
80A
100
AcDbXrecord
102
MATERIAL
148
0.0
149
0.0
149
0.0
 93
        0
 94
      127
282
     0
 72
     0
 77
     0
171
     0
175
     0
179
     0
273
     0
  0
XRECORD
  5
80C
102
{ACAD_REACTORS
330
80A
102
}
330
80A
100
AcDbXrecord
270
     1
271
     1
  0
XRECORD
  5
80B
102
{ACAD_REACTORS
330
80A
102
}
330
80A
100
AcDbXrecord
270
     1
271
     1
  0
XRECORD
  5
80F
102
{ACAD_REACTORS
330
80A
102
}
330
80A
100
AcDbXrecord
270
     1
271
     1
  0
XRECORD
  5
80E
102
{ACAD_REACTORS
330
80A
102
}
330
80A
100
AcDbXrecord
270
     1
271
     1
  0
XRECORD
  5
810
102
{ACAD_REACTORS
330
80A
102
}
330
80A
100
AcDbXrecord
270
     1
271
     1
  0
XRECORD
  5
80D
102
{ACAD_REACTORS
330
80A
102
}
330
80A
100
AcDbXrecord
270
     1
271
     1
  0
XRECORD
  5
4D1F
102
{ACAD_REACTORS
330
81A
102
}
330
81A
100
AcDbXrecord
102
MATERIAL
148
0.0
149
0.0
149
0.0
 93
        0
 94
      127
282
     0
 72
     0
 77
     0
171
     0
175
     0
179
     0
273
     0
  0
XRECORD
  5
81C
102
{ACAD_REACTORS
330
81A
102
}
330
81A
100
AcDbXrecord
270
     1
271
     1
  0
XRECORD
  5
81B
102
{ACAD_REACTORS
330
81A
102
}
330
81A
100
AcDbXrecord
270
     1
271
     1
  0
XRECORD
  5
81F
102
{ACAD_REACTORS
330
81A
102
}
330
81A
100
AcDbXrecord
270
     1
271
     1
  0
XRECORD
  5
81E
102
{ACAD_REACTORS
330
81A
102
}
330
81A
100
AcDbXrecord
270
     1
271
     1
  0
XRECORD
  5
820
102
{ACAD_REACTORS
330
81A
102
}
330
81A
100
AcDbXrecord
270
     1
271
     1
  0
XRECORD
  5
81D
102
{ACAD_REACTORS
330
81A
102
}
330
81A
100
AcDbXrecord
270
     1
271
     1
  0
ACAD_PROXY_OBJECT
  5
4D15
102
{ACAD_REACTORS
330
88C
102
}
330
88C
100
AcDbProxyObject
 90
      499
 91
      512
 93
     1044
310
40D054060020000020000003200101A000080002A5058000000C100000000000000340FE901405075F5449544C450041501A8000000C800406800020000A9416000000304000AD7A3703D0AC73FA409014217D2115051115480105406A0000003200101A000080002A5028000000C10002B5E8DC0F42B1CFE903409065F444
310
15441003
340
16
340
16
340
16
 94
        0
1001
ACAD
1000
AcadProxyRoundTripData
1071
      510
1071
   851991
1070
     0
  0
XRECORD
  5
4D20
102
{ACAD_REACTORS
330
88C
102
}
330
88C
100
AcDbXrecord
102
ACAD_ROUNDTRIP_PRE2007_TABLESTYLE
 90
      512
 91
        0
  1

 92
      512
 93
        0
  2

 94
      512
 95
        0
  3

  0
ENDSEC
  0
EOF
