  0
SECTION
  2
HEADER
  9
$ACADVER
  1
AC1014
  9
$ACADMAINTVER
 70
     9
  9
$DWGCODEPAGE
  3
ANSI_932
  9
$INSBASE
 10
0.0
 20
0.0
 30
0.0
  9
$EXTMIN
 10
39.86246813553862
 20
72.21723264763028
 30
0.0
  9
$EXTMAX
 10
1132.692525986801
 20
735.6130842670132
 30
0.0
  9
$LIMMIN
 10
0.0
 20
0.0
  9
$LIMMAX
 10
297.0
 20
210.0
  9
$ORTHOMODE
 70
     1
  9
$REGENMODE
 70
     1
  9
$FILLMODE
 70
     1
  9
$QTEXTMODE
 70
     0
  9
$MIRRTEXT
 70
     0
  9
$DRAGMODE
 70
     2
  9
$LTSCALE
 40
3.0
  9
$OSMODE
 70
    37
  9
$ATTMODE
 70
     1
  9
$TEXTSIZE
 40
2.0
  9
$TRACEWID
 40
1.0
  9
$TEXTSTYLE
  7
STANDARD
  9
$CLAYER
  8
0
  9
$CELTYPE
  6
BYLAYER
  9
$CECOLOR
 62
   256
  9
$CELTSCALE
 40
1.0
  9
$DELOBJ
 70
     1
  9
$DISPSILH
 70
     0
  9
$DIMSCALE
 40
3.0
  9
$DIMASZ
 40
1.8
  9
$DIMEXO
 40
0.625
  9
$DIMDLI
 40
3.75
  9
$DIMRND
 40
0.0
  9
$DIMDLE
 40
0.0
  9
$DIMEXE
 40
0.8
  9
$DIMTP
 40
0.0
  9
$DIMTM
 40
0.0
  9
$DIMTXT
 40
1.8
  9
$DIMCEN
 40
2.5
  9
$DIMTSZ
 40
0.0
  9
$DIMTOL
 70
     0
  9
$DIMLIM
 70
     0
  9
$DIMTIH
 70
     0
  9
$DIMTOH
 70
     0
  9
$DIMSE1
 70
     0
  9
$DIMSE2
 70
     0
  9
$DIMTAD
 70
     1
  9
$DIMZIN
 70
     8
  9
$DIMBLK
  1

  9
$DIMASO
 70
     1
  9
$DIMSHO
 70
     1
  9
$DIMPOST
  1

  9
$DIMAPOST
  1

  9
$DIMALT
 70
     0
  9
$DIMALTD
 70
     4
  9
$DIMALTF
 40
0.0394
  9
$DIMLFAC
 40
1.0
  9
$DIMTOFL
 70
     1
  9
$DIMTVP
 40
0.0
  9
$DIMTIX
 70
     0
  9
$DIMSOXD
 70
     0
  9
$DIMSAH
 70
     0
  9
$DIMBLK1
  1

  9
$DIMBLK2
  1

  9
$DIMSTYLE
  2
STANDARD
  9
$DIMCLRD
 70
     0
  9
$DIMCLRE
 70
     0
  9
$DIMCLRT
 70
     0
  9
$DIMTFAC
 40
1.0
  9
$DIMGAP
 40
0.75
  9
$DIMJUST
 70
     0
  9
$DIMSD1
 70
     0
  9
$DIMSD2
 70
     0
  9
$DIMTOLJ
 70
     1
  9
$DIMTZIN
 70
     0
  9
$DIMALTZ
 70
     0
  9
$DIMALTTZ
 70
     0
  9
$DIMFIT
 70
     3
  9
$DIMUPT
 70
     0
  9
$DIMUNIT
 70
     8
  9
$DIMDEC
 70
     2
  9
$DIMTDEC
 70
     2
  9
$DIMALTU
 70
     8
  9
$DIMALTTD
 70
     4
  9
$DIMTXSTY
  7
STANDARD
  9
$DIMAUNIT
 70
     0
  9
$LUNITS
 70
     2
  9
$LUPREC
 70
     3
  9
$SKETCHINC
 40
1.0
  9
$FILLETRAD
 40
2.0
  9
$AUNITS
 70
     0
  9
$AUPREC
 70
     2
  9
$MENU
  1
.
  9
$ELEVATION
 40
0.0
  9
$PELEVATION
 40
0.0
  9
$THICKNESS
 40
0.0
  9
$LIMCHECK
 70
     0
  9
$BLIPMODE
 70
     0
  9
$CHAMFERA
 40
0.0
  9
$CHAMFERB
 40
0.0
  9
$CHAMFERC
 40
20.0
  9
$CHAMFERD
 40
0.0
  9
$SKPOLY
 70
     0
  9
$TDCREATE
 40
2454412.723801354
  9
$TDUPDATE
 40
2454424.602881759
  9
$TDINDWG
 40
0.0079152199
  9
$TDUSRTIMER
 40
0.0079152199
  9
$USRTIMER
 70
     1
  9
$ANGBASE
 50
0.0
  9
$ANGDIR
 70
     0
  9
$PDMODE
 70
     0
  9
$PDSIZE
 40
-10.0
  9
$PLINEWID
 40
0.0
  9
$COORDS
 70
     0
  9
$SPLFRAME
 70
     0
  9
$SPLINETYPE
 70
     6
  9
$SPLINESEGS
 70
     8
  9
$ATTDIA
 70
     0
  9
$ATTREQ
 70
     1
  9
$HANDLING
 70
-16383
  9
$HANDSEED
  5
2292
  9
$SURFTAB1
 70
     6
  9
$SURFTAB2
 70
     6
  9
$SURFTYPE
 70
     6
  9
$SURFU
 70
     6
  9
$SURFV
 70
     6
  9
$UCSNAME
  2

  9
$UCSORG
 10
0.0
 20
0.0
 30
0.0
  9
$UCSXDIR
 10
1.0
 20
0.0
 30
0.0
  9
$UCSYDIR
 10
0.0
 20
1.0
 30
0.0
  9
$PUCSNAME
  2

  9
$PUCSORG
 10
0.0
 20
0.0
 30
0.0
  9
$PUCSXDIR
 10
1.0
 20
0.0
 30
0.0
  9
$PUCSYDIR
 10
0.0
 20
1.0
 30
0.0
  9
$USERI1
 70
     0
  9
$USERI2
 70
     0
  9
$USERI3
 70
     0
  9
$USERI4
 70
     0
  9
$USERI5
 70
     0
  9
$USERR1
 40
0.0
  9
$USERR2
 40
0.0
  9
$USERR3
 40
0.0
  9
$USERR4
 40
0.0
  9
$USERR5
 40
0.0
  9
$WORLDVIEW
 70
     1
  9
$SHADEDGE
 70
     3
  9
$SHADEDIF
 70
    70
  9
$TILEMODE
 70
     1
  9
$MAXACTVP
 70
    48
  9
$PINSBASE
 10
0.0
 20
0.0
 30
0.0
  9
$PLIMCHECK
 70
     0
  9
$PEXTMIN
 10
0.0
 20
0.0
 30
0.0
  9
$PEXTMAX
 10
0.0
 20
0.0
 30
0.0
  9
$PLIMMIN
 10
0.0
 20
0.0
  9
$PLIMMAX
 10
12.0
 20
9.0
  9
$UNITMODE
 70
     0
  9
$VISRETAIN
 70
     1
  9
$PLINEGEN
 70
     0
  9
$PSLTSCALE
 70
     1
  9
$TREEDEPTH
 70
  3020
  9
$PICKSTYLE
 70
     1
  9
$CMLSTYLE
  2
STANDARD
  9
$CMLJUST
 70
     0
  9
$CMLSCALE
 40
1.0
  9
$PROXYGRAPHICS
 70
     1
  9
$MEASUREMENT
 70
     0
  0
ENDSEC
  0
SECTION
  2
CLASSES
  0
CLASS
  1
DICTIONARYVAR
  2
AcDbDictionaryVar
  3
AutoCAD 2000
 90
        0
280
     0
281
     0
  0
CLASS
  1
ACDBDICTIONARYWDFLT
  2
AcDbDictionaryWithDefault
  3
AutoCAD 2000
 90
        0
280
     0
281
     0
  0
CLASS
  1
ACDBPLACEHOLDER
  2
AcDbPlaceHolder
  3
AutoCAD 2000
 90
        0
280
     0
281
     0
  0
CLASS
  1
LAYOUT
  2
AcDbLayout
  3
AutoCAD 2000
 90
        0
280
     0
281
     0
  0
CLASS
  1
MATERIAL
  2
AcDbMaterial
  3
ObjectDBX Classes
 90
     1153
280
     0
281
     0
  0
CLASS
  1
VISUALSTYLE
  2
AcDbVisualStyle
  3
ObjectDBX Classes
 90
     4095
280
     0
281
     0
  0
CLASS
  1
TABLESTYLE
  2
AcDbTableStyle
  3
ObjectDBX Classes
 90
     4095
280
     0
281
     0
  0
CLASS
  1
SCALE
  2
AcDbScale
  3
ObjectDBX Classes
 90
     1153
280
     0
281
     0
  0
CLASS
  1
MLEADERSTYLE
  2
AcDbMLeaderStyle
  3
ACDB_MLEADERSTYLE_CLASS
 90
     4095
280
     0
281
     0
  0
CLASS
  1
SORTENTSTABLE
  2
AcDbSortentsTable
  3
AutoCAD 2000
 90
        0
280
     0
281
     0
  0
CLASS
  1
CELLSTYLEMAP
  2
AcDbCellStyleMap
  3
ObjectDBX Classes
 90
     1152
280
     0
281
     0
  0
CLASS
  1
ACAD_PROXY_OBJECT_WRAPPER
  2
AcDbProxyObjectWrapper
  3
AutoCAD 2000
 90
        0
280
     0
281
     0
  0
CLASS
  1
LONG_TRANSACTION
  2
AcDbLongTransaction
  3
AutoCAD 2000
 90
        0
280
     0
281
     0
  0
CLASS
  1
LWPOLYLINE
  2
AcDbPolyline
  3
AutoCAD 2000
 90
        0
280
     0
281
     1
  0
CLASS
  1
HATCH
  2
AcDbHatch
  3
AutoCAD 2000
 90
        0
280
     0
281
     1
  0
CLASS
  1
XRECORD
  2
AcDbXrecord
  3
AutoCAD 2000
 90
        0
280
     0
281
     0
  0
ENDSEC
  0
SECTION
  2
TABLES
  0
TABLE
  2
VPORT
  5
6E
102
{ACAD_XDICTIONARY
360
223C
102
}
330
0
100
AcDbSymbolTable
 70
     2
  0
VPORT
  5
226D
330
6E
100
AcDbSymbolTableRecord
100
AcDbViewportTableRecord
  2
*ACTIVE
 70
     0
 10
0.0
 20
0.0
 11
1.0
 21
1.0
 12
594.8441963870942
 22
390.1774449475715
 13
0.0
 23
0.0
 14
10.0
 24
10.0
 15
10.0
 25
10.0
 16
0.0
 26
0.0
 36
1.0
 17
0.0
 27
0.0
 37
0.0
 40
695.6176803682353
 41
1.753504672897196
 42
50.0
 43
0.0
 44
0.0
 50
0.0
 51
0.0
 71
     0
 72
   100
 73
     1
 74
     3
 75
     0
 76
     0
 77
     0
 78
     0
  0
ENDTAB
  0
TABLE
  2
LTYPE
  5
69
330
0
100
AcDbSymbolTable
 70
     7
  0
LTYPE
  5
6A
330
69
100
AcDbSymbolTableRecord
100
AcDbLinetypeTableRecord
  2
BYBLOCK
 70
     0
  3

 72
    65
 73
     0
 40
0.0
  0
LTYPE
  5
6B
330
69
100
AcDbSymbolTableRecord
100
AcDbLinetypeTableRecord
  2
BYLAYER
 70
     0
  3

 72
    65
 73
     0
 40
0.0
  0
LTYPE
  5
8
330
69
100
AcDbSymbolTableRecord
100
AcDbLinetypeTableRecord
  2
CONTINUOUS
 70
     0
  3
Solid line
 72
    65
 73
     0
 40
0.0
  0
LTYPE
  5
27C
330
69
100
AcDbSymbolTableRecord
100
AcDbLinetypeTableRecord
  2
SEKKEI_A2_
 70
     0
  3
center(A2)  ____ _ ____ _ ____ _ ____ _ ____ _ 
 72
    65
 73
     4
 40
14.28749999999999
 49
9.525
 74
     0
 49
-1.587499999999999
 74
     0
 49
1.587499999999999
 74
     0
 49
-1.587499999999999
 74
     0
  0
LTYPE
  5
48F
330
69
100
AcDbSymbolTableRecord
100
AcDbLinetypeTableRecord
  2
SEKKEI_H
 70
     0
  3
Hidden-S _ _ _ _ _ _ _ _ _ _ _ _ _ _ _ _ _
 72
    65
 73
     2
 40
2.381249999999999
 49
1.587499999999999
 74
     0
 49
-0.79375
 74
     0
  0
LTYPE
  5
7EF
330
69
100
AcDbSymbolTableRecord
100
AcDbLinetypeTableRecord
  2
PHANTOM3
 70
     0
  3
Phantom  ___ _ _ ___ _ _ ___ _ _ ___ _ _
 72
    65
 73
     6
 40
9.0
 49
4.0
 74
     0
 49
-1.0
 74
     0
 49
1.0
 74
     0
 49
-1.0
 74
     0
 49
1.0
 74
     0
 49
-1.0
 74
     0
  0
LTYPE
  5
7F0
330
69
100
AcDbSymbolTableRecord
100
AcDbLinetypeTableRecord
  2
HIDDEN3
 70
     0
  3
Hidden (.3x) _ _ _ _ _ _ _ _ _ _ _ _ _ _ _ _ _
 72
    65
 73
     2
 40
2.857499999999999
 49
1.905
 74
     0
 49
-0.9525
 74
     0
  0
LTYPE
  5
B15
330
69
100
AcDbSymbolTableRecord
100
AcDbLinetypeTableRecord
  2
CENS
 70
     0
  3
(一点鎖線１)---- - ---- - ---- - ---- - ---- - 
 72
    65
 73
     4
 40
7.0
 49
4.0
 74
     0
 49
-1.0
 74
     0
 49
1.0
 74
     0
 49
-1.0
 74
     0
  0
ENDTAB
  0
TABLE
  2
LAYER
  5
66
102
{ACAD_XDICTIONARY
360
B16
102
}
330
0
100
AcDbSymbolTable
 70
    10
  0
LAYER
  5
5E
102
{ACAD_XDICTIONARY
360
221F
102
}
330
66
100
AcDbSymbolTableRecord
100
AcDbLayerTableRecord
  2
0
 70
     0
 62
     7
  6
CONTINUOUS
  0
LAYER
  5
3E
102
{ACAD_XDICTIONARY
360
2221
102
}
330
66
100
AcDbSymbolTableRecord
100
AcDbLayerTableRecord
  2
CENTER
 70
     0
 62
     3
  6
SEKKEI_A2_
  0
LAYER
  5
2B5
102
{ACAD_XDICTIONARY
360
2227
102
}
330
66
100
AcDbSymbolTableRecord
100
AcDbLayerTableRecord
  2
HIDS
 70
     0
 62
     1
  6
HIDDEN3
  0
LAYER
  5
2BA
102
{ACAD_XDICTIONARY
360
2229
102
}
330
66
100
AcDbSymbolTableRecord
100
AcDbLayerTableRecord
  2
HOJO
 70
     0
 62
     4
  6
CONTINUOUS
  0
LAYER
  5
3FA
102
{ACAD_XDICTIONARY
360
222D
102
}
330
66
100
AcDbSymbolTableRecord
100
AcDbLayerTableRecord
  2
TITLE
 70
     0
 62
     4
  6
CONTINUOUS
  0
LAYER
  5
478
102
{ACAD_XDICTIONARY
360
222F
102
}
330
66
100
AcDbSymbolTableRecord
100
AcDbLayerTableRecord
  2
PHAS
 70
     0
 62
     2
  6
PHANTOM3
  0
ENDTAB
  0
TABLE
  2
STYLE
  5
67
330
0
100
AcDbSymbolTable
 70
     2
  0
STYLE
  5
16
330
67
100
AcDbSymbolTableRecord
100
AcDbTextStyleTableRecord
  2
STANDARD
 70
     0
 40
0.0
 41
1.0
 50
0.0
 71
     0
 42
2.0
  3
simplex.shx
  4
extfont.shx
  0
ENDTAB
  0
TABLE
  2
VIEW
  5
6C
330
0
100
AcDbSymbolTable
 70
     0
  0
ENDTAB
  0
TABLE
  2
UCS
  5
6D
330
0
100
AcDbSymbolTable
 70
     0
  0
ENDTAB
  0
TABLE
  2
APPID
  5
70
330
0
100
AcDbSymbolTable
 70
     2
  0
APPID
  5
71
330
70
100
AcDbSymbolTableRecord
100
AcDbRegAppTableRecord
  2
ACAD
 70
     0
  0
APPID
  5
1C24
330
70
100
AcDbSymbolTableRecord
100
AcDbRegAppTableRecord
  2
ACAD_MLEADERVER
 70
     0
  0
ENDTAB
  0
TABLE
  2
DIMSTYLE
  5
72
330
0
100
AcDbSymbolTable
 70
     1
  0
DIMSTYLE
105
73
330
72
100
AcDbSymbolTableRecord
100
AcDbDimStyleTableRecord
  2
STANDARD
 70
     0
  3

  4

  5

  6

  7

 40
3.0
 41
1.8
 42
0.625
 43
3.75
 44
0.8
 45
0.0
 46
0.0
 47
0.0
 48
0.0
140
1.8
141
2.5
142
0.0
143
0.0394
144
1.0
145
0.0
146
1.0
147
0.75
 71
     0
 72
     0
 73
     0
 74
     0
 75
     0
 76
     0
 77
     1
 78
     8
170
     0
171
     4
172
     1
173
     0
174
     0
175
     0
176
     0
177
     0
178
     0
270
     8
271
     2
272
     2
273
     8
274
     4
340
16
275
     0
280
     0
281
     0
282
     0
283
     1
284
     0
285
     0
286
     0
287
     3
288
     0
  0
ENDTAB
  0
TABLE
  2
BLOCK_RECORD
  5
1
330
0
100
AcDbSymbolTable
 70
    57
  0
BLOCK_RECORD
  5
2
102
{ACAD_XDICTIONARY
360
2200
102
}
330
1
100
AcDbSymbolTableRecord
100
AcDbBlockTableRecord
  2
*MODEL_SPACE
  0
BLOCK_RECORD
  5
2268
102
{ACAD_XDICTIONARY
360
2290
102
}
330
1
100
AcDbSymbolTableRecord
100
AcDbBlockTableRecord
  2
*PAPER_SPACE
  0
BLOCK_RECORD
  5
8DB
330
1
100
AcDbSymbolTableRecord
100
AcDbBlockTableRecord
  2
A$C79D50562
  0
ENDTAB
  0
ENDSEC
  0
SECTION
  2
BLOCKS
  0
BLOCK
  5
5D
330
2
100
AcDbEntity
  8
0
100
AcDbBlockBegin
  2
*MODEL_SPACE
 70
     0
 10
0.0
 20
0.0
 30
0.0
  3
*MODEL_SPACE
  1

  0
ENDBLK
  5
5F
330
2
100
AcDbEntity
  8
0
100
AcDbBlockEnd
  0
BLOCK
  5
226A
330
2268
100
AcDbEntity
 67
     1
  8
0
100
AcDbBlockBegin
  2
*PAPER_SPACE
 70
     0
 10
0.0
 20
0.0
 30
0.0
  3
*PAPER_SPACE
  1

  0
ENDBLK
  5
226B
330
2268
100
AcDbEntity
 67
     1
  8
0
100
AcDbBlockEnd
  0
BLOCK
  5
8DE
330
8DB
100
AcDbEntity
  8
0
100
AcDbBlockBegin
  2
A$C79D50562
 70
     0
 10
0.0
 20
0.0
 30
0.0
  3
A$C79D50562
  1

  0
LINE
  5
8DC
330
8DB
100
AcDbEntity
  8
CENTER
100
AcDbLine
 10
0.0
 20
7.659444835277668
 30
0.0
 11
0.0
 21
-7.659444835277668
 31
0.0
  0
LINE
  5
8DD
330
8DB
100
AcDbEntity
  8
CENTER
100
AcDbLine
 10
-7.659444835277668
 20
0.0
 30
0.0
 11
7.659444835277668
 21
0.0
 31
0.0
  0
ENDBLK
  5
8DF
330
8DB
100
AcDbEntity
  8
0
100
AcDbBlockEnd
  0
ENDSEC
  0
SECTION
  2
ENTITIES
  0
TEXT
  5
FE7
330
2
100
AcDbEntity
  8
TITLE
100
AcDbText
 10
370.8766619873399
 20
664.8349263572495
 30
0.0
 40
7.5
  1
AFCZ28S-40~60M400S1
100
AcDbText
  0
TEXT
  5
FE8
330
2
100
AcDbEntity
  8
TITLE
100
AcDbText
 10
370.8766619873399
 20
653.3349263572495
 30
0.0
 40
7.5
  1
AFCZ28S-40~60L400S1
100
AcDbText
  0
LINE
  5
FEA
330
2
100
AcDbEntity
  8
CENTER
100
AcDbLine
 10
594.7013635241254
 20
665.1130842670132
 30
0.0
 11
862.8364671886687
 21
665.1130842670129
 31
0.0
  0
LINE
  5
FEB
330
2
100
AcDbEntity
  8
CENTER
100
AcDbLine
 10
238.2724681355372
 20
462.648770348596
 30
0.0
 11
238.2724681355372
 21
322.6487703485959
 31
0.0
  0
LINE
  5
FEC
330
2
100
AcDbEntity
  8
CENTER
100
AcDbLine
 10
664.4264671886698
 20
735.6130842670132
 30
0.0
 11
664.4264671886698
 21
578.1130842670131
 31
0.0
  0
LINE
  5
FED
330
2
100
AcDbEntity
  8
CENTER
100
AcDbLine
 10
726.4472824688399
 20
330.6279550684287
 30
0.0
 11
602.4056519084959
 21
454.6695856287707
 31
0.0
  0
LINE
  5
FEE
330
2
100
AcDbEntity
  8
CENTER
100
AcDbLine
 10
602.4056519084982
 20
330.6279550684269
 30
0.0
 11
726.4472824688417
 21
454.6695856287686
 31
0.0
  0
LINE
  5
FEF
330
2
100
AcDbEntity
  8
CENTER
100
AcDbLine
 10
664.4264671886698
 20
312.6487703485996
 30
0.0
 11
664.4264671886698
 21
472.6487703485995
 31
0.0
  0
LINE
  5
FF0
330
2
100
AcDbEntity
  8
CENTER
100
AcDbLine
 10
584.4264671886679
 20
392.6487703485978
 30
0.0
 11
862.8364671886687
 21
392.6487703485978
 31
0.0
  0
LINE
  5
FF1
330
2
100
AcDbEntity
  8
CENTER
100
AcDbLine
 10
614.9289925056095
 20
433.1462450316571
 30
0.0
 11
614.9289925056095
 21
451.1462450316572
 31
0.0
  0
LINE
  5
FF2
330
2
100
AcDbEntity
  8
CENTER
100
AcDbLine
 10
605.9289925056094
 20
442.1462450316572
 30
0.0
 11
623.9289925056095
 21
442.1462450316572
 31
0.0
  0
LINE
  5
FF3
330
2
100
AcDbEntity
  8
CENTER
100
AcDbLine
 10
713.9239418717282
 20
433.1462450316571
 30
0.0
 11
713.9239418717282
 21
451.1462450316572
 31
0.0
  0
LINE
  5
FF4
330
2
100
AcDbEntity
  8
CENTER
100
AcDbLine
 10
722.9239418717282
 20
442.1462450316553
 30
0.0
 11
704.9239418717283
 21
442.1462450316553
 31
0.0
  0
LINE
  5
FF5
330
2
100
AcDbEntity
  8
CENTER
100
AcDbLine
 10
713.9239418717265
 20
352.151295665542
 30
0.0
 11
713.9239418717265
 21
334.151295665542
 31
0.0
  0
LINE
  5
FF6
330
2
100
AcDbEntity
  8
CENTER
100
AcDbLine
 10
722.9239418717265
 20
343.151295665542
 30
0.0
 11
704.9239418717264
 21
343.151295665542
 31
0.0
  0
LINE
  5
FF7
330
2
100
AcDbEntity
  8
CENTER
100
AcDbLine
 10
614.9289925056104
 20
352.1512956655383
 30
0.0
 11
614.9289925056104
 21
334.1512956655384
 31
0.0
  0
LINE
  5
FF8
330
2
100
AcDbEntity
  8
CENTER
100
AcDbLine
 10
605.9289925056104
 20
343.1512956655402
 30
0.0
 11
623.9289925056104
 21
343.1512956655402
 31
0.0
  0
LINE
  5
FF9
330
2
100
AcDbEntity
  8
CENTER
100
AcDbLine
 10
1062.192525986802
 20
462.373874013193
 30
0.0
 11
1062.192525986802
 21
322.9236666840106
 31
0.0
  0
LINE
  5
FFA
330
2
100
AcDbEntity
  8
CENTER
100
AcDbLine
 10
1132.692525986801
 20
392.6487703485996
 30
0.0
 11
975.1925259868015
 21
392.6487703485996
 31
0.0
  0
ARC
  5
FFB
330
2
100
AcDbEntity
  8
0
100
AcDbCircle
 10
664.4264671886634
 20
582.6487703485995
 30
0.0
 40
250.0
100
AcDbArc
 50
264.7203967176031
 51
275.2796032823967
  0
ARC
  5
FFC
330
2
100
AcDbEntity
  8
0
100
AcDbCircle
 10
664.4264671886689
 20
202.6487703485996
 30
0.0
 40
250.0
100
AcDbArc
 50
84.72039671760322
 51
95.27960328239677
  0
CIRCLE
  5
FFD
330
2
100
AcDbEntity
  8
0
100
AcDbCircle
 10
664.426467188668
 20
392.6487703485996
 30
0.0
 40
40.0
  0
CIRCLE
  5
FFE
330
2
100
AcDbEntity
  8
0
100
AcDbCircle
 10
664.426467188668
 20
392.6487703485996
 30
0.0
 40
32.5
  0
CIRCLE
  5
FFF
330
2
100
AcDbEntity
  8
CENTER
100
AcDbCircle
 10
664.426467188668
 20
392.6487703485996
 30
0.0
 40
70.0
  0
CIRCLE
  5
1000
330
2
100
AcDbEntity
  8
0
100
AcDbCircle
 10
664.426467188668
 20
392.6487703485996
 30
0.0
 40
55.0
  0
ARC
  5
1001
330
2
100
AcDbEntity
  8
0
100
AcDbCircle
 10
854.4264671886679
 20
392.6487703485996
 30
0.0
 40
250.0
100
AcDbArc
 50
174.7203967175509
 51
185.279603282449
  0
ARC
  5
1002
330
2
100
AcDbEntity
  8
0
100
AcDbCircle
 10
614.426467188668
 20
342.6487703485996
 30
0.0
 40
10.0
100
AcDbArc
 50
180.0
 51
270.0
  0
ARC
  5
1003
330
2
100
AcDbEntity
  8
0
100
AcDbCircle
 10
612.4264671886679
 20
346.6487703486032
 30
0.0
 40
8.0
100
AcDbArc
 50
169.7661103968427
 51
180.0
  0
LINE
  5
1004
330
2
100
AcDbEntity
  8
0
100
AcDbLine
 10
604.4264671886679
 20
342.6487703485996
 30
0.0
 11
604.4264671886679
 21
346.6487703486032
 31
0.0
  0
CIRCLE
  5
1005
330
2
100
AcDbEntity
  8
HOJO
100
AcDbCircle
 10
614.9289925056095
 20
343.151295665542
 30
0.0
 40
4.0
  0
LINE
  5
1006
330
2
100
AcDbEntity
  8
0
100
AcDbLine
 10
614.426467188668
 20
332.6487703485996
 30
0.0
 11
618.4264671886725
 21
332.6487703485996
 31
0.0
  0
ARC
  5
1007
330
2
100
AcDbEntity
  8
0
100
AcDbCircle
 10
618.4264671886725
 20
340.6487703485978
 30
0.0
 40
8.0
100
AcDbArc
 50
270.0
 51
280.2338896031166
  0
CIRCLE
  5
1008
330
2
100
AcDbEntity
  8
0
100
AcDbCircle
 10
614.9289925056095
 20
343.151295665542
 30
0.0
 40
3.2
  0
CIRCLE
  5
1009
330
2
100
AcDbEntity
  8
0
100
AcDbCircle
 10
614.9289925056095
 20
442.146245031659
 30
0.0
 40
3.2
  0
CIRCLE
  5
100A
330
2
100
AcDbEntity
  8
HOJO
100
AcDbCircle
 10
614.9289925056095
 20
442.146245031659
 30
0.0
 40
4.0
  0
ARC
  5
100B
330
2
100
AcDbEntity
  8
0
100
AcDbCircle
 10
614.426467188667
 20
442.6487703485996
 30
0.0
 40
10.0
100
AcDbArc
 50
90.0
 51
180.0
  0
LINE
  5
100C
330
2
100
AcDbEntity
  8
0
100
AcDbLine
 10
604.4264671886679
 20
438.6487703485959
 30
0.0
 11
604.426467188667
 21
442.6487703485996
 31
0.0
  0
ARC
  5
100D
330
2
100
AcDbEntity
  8
0
100
AcDbCircle
 10
612.4264671886679
 20
438.6487703485959
 30
0.0
 40
8.0
100
AcDbArc
 50
180.0
 51
190.2338896031572
  0
LINE
  5
100E
330
2
100
AcDbEntity
  8
0
100
AcDbLine
 10
614.426467188667
 20
452.6487703485996
 30
0.0
 11
618.4264671886715
 21
452.6487703485996
 31
0.0
  0
ARC
  5
100F
330
2
100
AcDbEntity
  8
0
100
AcDbCircle
 10
618.4264671886715
 20
444.6487703485995
 30
0.0
 40
8.0
100
AcDbArc
 50
79.76611039688333
 51
90.0
  0
LINE
  5
1010
330
2
100
AcDbEntity
  8
0
100
AcDbLine
 10
797.8364671886687
 20
432.1487703485995
 30
0.0
 11
797.8364671886687
 21
353.1487703485996
 31
0.0
  0
LINE
  5
1011
330
2
100
AcDbEntity
  8
0
100
AcDbLine
 10
809.8364671886686
 20
434.1487703485996
 30
0.0
 11
809.8364671886686
 21
351.1487703485996
 31
0.0
  0
LINE
  5
1012
330
2
100
AcDbEntity
  8
0
100
AcDbLine
 10
767.9264671886707
 20
357.6487703485996
 30
0.0
 11
767.9264671886661
 21
427.6487703485996
 31
0.0
  0
LINE
  5
1013
330
2
100
AcDbEntity
  8
0
100
AcDbLine
 10
724.4264671886679
 20
342.6487703485996
 30
0.0
 11
724.4264671886679
 21
442.6487703485996
 31
0.0
  0
ARC
  5
1014
330
2
100
AcDbEntity
  8
0
100
AcDbCircle
 10
759.9264671886706
 20
357.6487703485996
 30
0.0
 40
8.0
100
AcDbArc
 50
270.0
 51
0.0
  0
LINE
  5
1015
330
2
100
AcDbEntity
  8
0
100
AcDbLine
 10
759.9264671886706
 20
349.6487703485996
 30
0.0
 11
732.3638583033202
 21
349.6487703485996
 31
0.0
  0
ARC
  5
1016
330
2
100
AcDbEntity
  8
0
100
AcDbCircle
 10
714.426467188668
 20
342.6487703485996
 30
0.0
 40
10.0
100
AcDbArc
 50
270.0
 51
0.0
  0
CIRCLE
  5
1017
330
2
100
AcDbEntity
  8
HOJO
100
AcDbCircle
 10
713.9239418717265
 20
343.151295665542
 30
0.0
 40
4.0
  0
LINE
  5
1018
330
2
100
AcDbEntity
  8
0
100
AcDbLine
 10
710.4264671886643
 20
332.6487703485996
 30
0.0
 11
714.426467188668
 21
332.6487703485996
 31
0.0
  0
ARC
  5
1019
330
2
100
AcDbEntity
  8
0
100
AcDbCircle
 10
710.4264671886643
 20
340.6487703485978
 30
0.0
 40
8.0
100
AcDbArc
 50
259.7661103968833
 51
270.0
  0
CIRCLE
  5
101A
330
2
100
AcDbEntity
  8
0
100
AcDbCircle
 10
713.9239418717265
 20
343.151295665542
 30
0.0
 40
3.2
  0
ARC
  5
101B
330
2
100
AcDbEntity
  8
0
100
AcDbCircle
 10
799.8364671886687
 20
353.6487703485996
 30
0.0
 40
2.0
100
AcDbArc
 50
180.0
 51
270.0
  0
LINE
  5
101C
330
2
100
AcDbEntity
  8
0
100
AcDbLine
 10
809.8364671886686
 20
351.6487703485996
 30
0.0
 11
799.8364671886687
 21
351.6487703485996
 31
0.0
  0
CIRCLE
  5
101D
330
2
100
AcDbEntity
  8
0
100
AcDbCircle
 10
713.9239418717265
 20
442.146245031659
 30
0.0
 40
3.2
  0
CIRCLE
  5
101E
330
2
100
AcDbEntity
  8
HOJO
100
AcDbCircle
 10
713.9239418717265
 20
442.146245031659
 30
0.0
 40
4.0
  0
ARC
  5
101F
330
2
100
AcDbEntity
  8
0
100
AcDbCircle
 10
714.426467188668
 20
442.6487703485996
 30
0.0
 40
10.0
100
AcDbArc
 50
0.0
 51
90.0
  0
ARC
  5
1020
330
2
100
AcDbEntity
  8
0
100
AcDbCircle
 10
732.398667944279
 20
443.6487703485996
 30
0.0
 40
8.0
100
AcDbArc
 50
183.184738536674
 51
270.0
  0
LINE
  5
1021
330
2
100
AcDbEntity
  8
0
100
AcDbLine
 10
759.9264671886661
 20
435.6487703485996
 30
0.0
 11
732.398667944279
 21
435.6487703485996
 31
0.0
  0
ARC
  5
1022
330
2
100
AcDbEntity
  8
0
100
AcDbCircle
 10
759.9264671886661
 20
427.6487703485996
 30
0.0
 40
8.0
100
AcDbArc
 50
0.0
 51
90.0
  0
LINE
  5
1023
330
2
100
AcDbEntity
  8
0
100
AcDbLine
 10
710.4264671886652
 20
452.6487703485996
 30
0.0
 11
714.426467188668
 21
452.6487703485996
 31
0.0
  0
ARC
  5
1024
330
2
100
AcDbEntity
  8
0
100
AcDbCircle
 10
710.4264671886652
 20
444.6487703485995
 30
0.0
 40
8.0
100
AcDbArc
 50
90.0
 51
100.2338896031166
  0
ARC
  5
1025
330
2
100
AcDbEntity
  8
0
100
AcDbCircle
 10
799.8364671886687
 20
431.6487703485996
 30
0.0
 40
2.0
100
AcDbArc
 50
90.0
 51
180.0
  0
LINE
  5
1026
330
2
100
AcDbEntity
  8
0
100
AcDbLine
 10
799.8364671886687
 20
433.6487703485996
 30
0.0
 11
809.8364671886686
 21
433.6487703485996
 31
0.0
  0
LINE
  5
1027
330
2
100
AcDbEntity
  8
CENTER
100
AcDbLine
 10
308.2724681355208
 20
392.6487703485978
 30
0.0
 11
39.86246813553862
 21
392.6487703485978
 31
0.0
  0
LINE
  5
1028
330
2
100
AcDbEntity
  8
0
100
AcDbLine
 10
134.7724681355371
 20
427.6487703485978
 30
0.0
 11
134.7724681355371
 21
357.6487703485978
 31
0.0
  0
LINE
  5
1029
330
2
100
AcDbEntity
  8
0
100
AcDbLine
 10
92.86246813553816
 20
351.1487703485978
 30
0.0
 11
92.86246813553816
 21
434.1487703485977
 31
0.0
  0
LINE
  5
102A
330
2
100
AcDbEntity
  8
0
100
AcDbLine
 10
104.8624681355381
 20
353.1487703485978
 30
0.0
 11
104.8624681355381
 21
432.1487703485978
 31
0.0
  0
LINE
  5
102B
330
2
100
AcDbEntity
  8
0
100
AcDbLine
 10
92.86246813553816
 20
433.6487703485977
 30
0.0
 11
102.8624681355381
 21
433.6487703485977
 31
0.0
  0
ARC
  5
102C
330
2
100
AcDbEntity
  8
0
100
AcDbCircle
 10
102.8624681355381
 20
431.6487703485978
 30
0.0
 40
2.0
100
AcDbArc
 50
0.0
 51
90.0
  0
LINE
  5
102D
330
2
100
AcDbEntity
  8
0
100
AcDbLine
 10
102.8624681355381
 20
351.6487703485978
 30
0.0
 11
92.86246813553816
 21
351.6487703485978
 31
0.0
  0
ARC
  5
102E
330
2
100
AcDbEntity
  8
0
100
AcDbCircle
 10
102.8624681355381
 20
353.6487703485978
 30
0.0
 40
2.0
100
AcDbArc
 50
270.0
 51
0.0
  0
LINE
  5
102F
330
2
100
AcDbEntity
  8
0
100
AcDbLine
 10
1093.692525986794
 20
332.6487703486014
 30
0.0
 11
1017.192525986802
 21
333.3163757345951
 31
0.0
  0
LINE
  5
1030
330
2
100
AcDbEntity
  8
0
100
AcDbLine
 10
1093.692525986802
 20
452.6487703486014
 30
0.0
 11
1017.192525986802
 21
451.9811649626094
 31
0.0
  0
LINE
  5
1031
330
2
100
AcDbEntity
  8
0
100
AcDbLine
 10
1019.192525986802
 20
433.0116328431081
 30
0.0
 11
1019.192525986802
 21
352.2859078540983
 31
0.0
  0
LINE
  5
1032
330
2
100
AcDbEntity
  8
0
100
AcDbLine
 10
1017.192525986802
 20
451.9811649626094
 30
0.0
 11
1017.192525986802
 21
333.3163757345951
 31
0.0
  0
LINE
  5
1033
330
2
100
AcDbEntity
  8
0
100
AcDbLine
 10
1012.192525986802
 20
447.6487703486013
 30
0.0
 11
1012.192525986802
 21
337.6487703486014
 31
0.0
  0
LINE
  5
1034
330
2
100
AcDbEntity
  8
0
100
AcDbLine
 10
1012.192525986802
 20
447.6487703486013
 30
0.0
 11
1017.192525986802
 21
447.6487703486013
 31
0.0
  0
LINE
  5
1035
330
2
100
AcDbEntity
  8
0
100
AcDbLine
 10
1012.192525986802
 20
337.6487703486014
 30
0.0
 11
1017.192525986802
 21
337.6487703486014
 31
0.0
  0
LINE
  5
1036
330
2
100
AcDbEntity
  8
0
100
AcDbLine
 10
1103.192526858951
 20
428.7093741590465
 30
0.0
 11
1103.192526858951
 21
356.5881665381526
 31
0.0
  0
LINE
  5
1037
330
2
100
AcDbEntity
  8
0
100
AcDbLine
 10
1093.692525986802
 20
452.6487703486014
 30
0.0
 11
1093.692525986801
 21
433.7646240071403
 31
0.0
  0
LINE
  5
1038
330
2
100
AcDbEntity
  8
0
100
AcDbLine
 10
1093.692525986795
 20
351.5329166900606
 30
0.0
 11
1093.692525986794
 21
332.6487703486014
 31
0.0
  0
LINE
  5
1039
330
2
100
AcDbEntity
  8
0
100
AcDbLine
 10
702.4950896390558
 20
601.1130842718462
 30
0.0
 11
626.3578447382837
 21
601.1130842718462
 31
0.0
  0
LINE
  5
103A
330
2
100
AcDbEntity
  8
0
100
AcDbLine
 10
605.0940725746662
 20
620.1130842718444
 30
0.0
 11
723.7544983687852
 21
620.1130842718462
 31
0.0
  0
LINE
  5
103B
330
2
100
AcDbEntity
  8
0
100
AcDbLine
 10
609.4264671886698
 20
615.1130842718444
 30
0.0
 11
719.4264671886697
 21
615.1130842718444
 31
0.0
  0
LINE
  5
103C
330
2
100
AcDbEntity
  8
0
100
AcDbLine
 10
605.0940725746662
 20
620.1130842718444
 30
0.0
 11
604.4264671886698
 21
696.6130842723883
 31
0.0
  0
LINE
  5
103D
330
2
100
AcDbEntity
  8
0
100
AcDbLine
 10
609.4264671886698
 20
615.1130842718444
 30
0.0
 11
609.4264671886698
 21
620.1130842718444
 31
0.0
  0
LINE
  5
103E
330
2
100
AcDbEntity
  8
0
100
AcDbLine
 10
809.8364671886706
 20
706.1130842670131
 30
0.0
 11
809.8364671886715
 21
624.1130842670131
 31
0.0
  0
LINE
  5
103F
330
2
100
AcDbEntity
  8
0
100
AcDbLine
 10
725.2589189202584
 20
622.1130842718462
 30
0.0
 11
765.8434857878852
 21
622.1130842718443
 31
0.0
  0
LINE
  5
1040
330
2
100
AcDbEntity
  8
0
100
AcDbLine
 10
719.4264671886697
 20
615.1130842718462
 30
0.0
 11
719.4264671886697
 21
620.1130842718462
 31
0.0
  0
LINE
  5
1042
330
2
100
AcDbEntity
  8
0
100
AcDbLine
 10
809.8364671886715
 20
624.1130842670131
 30
0.0
 11
799.7847809304425
 21
624.1130842670131
 31
0.0
  0
LINE
  5
1043
330
2
100
AcDbEntity
  8
0
100
AcDbLine
 10
799.7847809305834
 20
706.1130842670131
 30
0.0
 11
809.8364671886706
 21
706.1130842670131
 31
0.0
  0
ARC
  5
1044
330
2
100
AcDbEntity
  8
0
100
AcDbCircle
 10
525.8264862207503
 20
423.0140878652087
 30
0.0
 40
80.0
100
AcDbArc
 50
354.7203967175509
 51
10.23388960315723
  0
ARC
  5
1045
330
2
100
AcDbEntity
  8
0
100
AcDbCircle
 10
525.8264862207503
 20
362.2834528319923
 30
0.0
 40
80.0
100
AcDbArc
 50
349.7661103968427
 51
5.279603282449078
  0
ARC
  5
1046
330
2
100
AcDbEntity
  8
0
100
AcDbCircle
 10
634.0611496720633
 20
254.0487893806817
 30
0.0
 40
80.0
100
AcDbArc
 50
84.72039671760322
 51
100.2338896031166
  0
ARC
  5
1047
330
2
100
AcDbEntity
  8
0
100
AcDbCircle
 10
694.7917847052698
 20
254.0487893806817
 30
0.0
 40
80.0
100
AcDbArc
 50
79.76611039688333
 51
95.27960328239677
  0
ARC
  5
1048
330
2
100
AcDbEntity
  8
0
100
AcDbCircle
 10
694.7917847052762
 20
531.2487513165156
 30
0.0
 40
80.0
100
AcDbArc
 50
264.7203967176031
 51
280.2338896031166
  0
ARC
  5
1049
330
2
100
AcDbEntity
  8
0
100
AcDbCircle
 10
634.0611496720606
 20
531.2487513165156
 30
0.0
 40
80.0
100
AcDbArc
 50
259.7661103968833
 51
275.2796032823967
  0
LINE
  5
104A
330
2
100
AcDbEntity
  8
0
100
AcDbLine
 10
1098.253497935038
 20
433.7090023980141
 30
0.0
 11
1062.192525986803
 21
434.1487703486159
 31
0.0
  0
LINE
  5
104B
330
2
100
AcDbEntity
  8
0
100
AcDbLine
 10
1026.131554910719
 20
433.7090024086479
 30
0.0
 11
1062.192525986803
 21
434.1487703486014
 31
0.0
  0
LINE
  5
104C
330
2
100
AcDbEntity
  8
0
100
AcDbLine
 10
1098.253497062888
 20
351.5885382885495
 30
0.0
 11
1062.192525986803
 21
351.1487703485996
 31
0.0
  0
LINE
  5
104D
330
2
100
AcDbEntity
  8
0
100
AcDbLine
 10
1026.131554910719
 20
351.5885382885513
 30
0.0
 11
1062.192525986803
 21
351.1487703485996
 31
0.0
  0
ARC
  5
104E
330
2
100
AcDbEntity
  8
0
100
AcDbCircle
 10
1098.192526858951
 20
428.7093741590465
 30
0.0
 40
5.0
100
AcDbArc
 50
0.0
 51
89.30130561700025
  0
ARC
  5
104F
330
2
100
AcDbEntity
  8
0
100
AcDbCircle
 10
1098.192526858951
 20
356.5881665381526
 30
0.0
 40
5.0
100
AcDbArc
 50
270.6986943829997
 51
0.0
  0
ARC
  5
1050
330
2
100
AcDbEntity
  8
0
100
AcDbCircle
 10
1026.192525114655
 20
428.7093741590465
 30
0.0
 40
5.0
100
AcDbArc
 50
90.69869438299972
 51
180.0
  0
LINE
  5
1051
330
2
100
AcDbEntity
  8
0
100
AcDbLine
 10
1021.192525114655
 20
428.7093741590465
 30
0.0
 11
1021.192525114654
 21
356.5881665381526
 31
0.0
  0
ARC
  5
1052
330
2
100
AcDbEntity
  8
0
100
AcDbCircle
 10
1026.192525114654
 20
356.5881665381526
 30
0.0
 40
5.0
100
AcDbArc
 50
180.0
 51
269.3013056170002
  0
LINE
  5
1053
330
2
100
AcDbEntity
  8
0
100
AcDbLine
 10
998.1925259868024
 20
430.7173927989857
 30
0.0
 11
998.1925259868024
 21
354.5801478982135
 31
0.0
  0
ARC
  5
1054
330
2
100
AcDbEntity
  8
0
100
AcDbCircle
 10
1000.192525986802
 20
354.5801478982135
 30
0.0
 40
2.0
100
AcDbArc
 50
180.0
 51
267.9999999999963
  0
ARC
  5
1055
330
2
100
AcDbEntity
  8
0
100
AcDbCircle
 10
1000.192525986802
 20
430.7173927989857
 30
0.0
 40
2.0
100
AcDbArc
 50
92.00000000000365
 51
180.0
  0
LINE
  5
1056
330
2
100
AcDbEntity
  8
0
100
AcDbLine
 10
1010.262324980207
 20
433.0702570170593
 30
0.0
 11
1000.122726993397
 21
432.7161744530235
 31
0.0
  0
ARC
  5
1057
330
2
100
AcDbEntity
  8
0
100
AcDbCircle
 10
1010.192525986802
 20
435.0690386710971
 30
0.0
 40
2.0
100
AcDbArc
 50
272.0000000000036
 51
0.0
  0
LINE
  5
1058
330
2
100
AcDbEntity
  8
0
100
AcDbLine
 10
1010.262324980207
 20
352.2272836801399
 30
0.0
 11
1000.122726993397
 21
352.5813662441756
 31
0.0
  0
ARC
  5
1059
330
2
100
AcDbEntity
  8
0
100
AcDbCircle
 10
1010.192525986802
 20
350.228502026102
 30
0.0
 40
2.0
100
AcDbArc
 50
0.0
 51
87.99999999999636
  0
ARC
  5
105A
330
2
100
AcDbEntity
  8
0
100
AcDbCircle
 10
702.4950896390558
 20
603.1130842718444
 30
0.0
 40
2.0
100
AcDbArc
 50
270.0
 51
357.9999999999963
  0
ARC
  5
105B
330
2
100
AcDbEntity
  8
0
100
AcDbCircle
 10
626.3578447382837
 20
603.1130842718444
 30
0.0
 40
2.0
100
AcDbArc
 50
182.0000000000036
 51
270.0
  0
LINE
  5
105C
330
2
100
AcDbEntity
  8
0
100
AcDbLine
 10
624.0049805202101
 20
613.1828832652495
 30
0.0
 11
624.3590630842458
 21
603.0432852784392
 31
0.0
  0
ARC
  5
105D
330
2
100
AcDbEntity
  8
0
100
AcDbCircle
 10
622.0061988661722
 20
613.1130842718444
 30
0.0
 40
2.0
100
AcDbArc
 50
2.000000000003654
 51
90.0
  0
LINE
  5
105E
330
2
100
AcDbEntity
  8
0
100
AcDbLine
 10
704.8479538571304
 20
613.1828832652495
 30
0.0
 11
704.4938712930937
 21
603.0432852784392
 31
0.0
  0
ARC
  5
105F
330
2
100
AcDbEntity
  8
0
100
AcDbCircle
 10
706.8467355111683
 20
613.1130842718444
 30
0.0
 40
2.0
100
AcDbArc
 50
90.0
 51
177.9999999999963
  0
LINE
  5
1060
330
2
100
AcDbEntity
  8
0
100
AcDbLine
 10
657.2846964389039
 20
340.6487703485868
 30
0.0
 11
660.1646976802361
 21
340.6487703485868
 31
0.0
  0
LINE
  5
1061
330
2
100
AcDbEntity
  8
0
100
AcDbLine
 10
661.2846964389095
 20
348.6487703485977
 30
0.0
 11
657.2846964389039
 21
340.6487703485868
 31
0.0
  0
ARC
  5
1062
330
2
100
AcDbEntity
  8
0
100
AcDbCircle
 10
667.9246236789198
 20
345.9287703485948
 30
0.0
 40
2.720000000003957
100
AcDbArc
 50
307.518967866822
 51
90.0
  0
LINE
  5
1063
330
2
100
AcDbEntity
  8
0
100
AcDbLine
 10
669.5811690585791
 20
343.7713975469792
 30
0.0
 11
671.5682379384337
 21
340.6487703485868
 31
0.0
  0
LINE
  5
1064
330
2
100
AcDbEntity
  8
0
100
AcDbLine
 10
668.6882366971025
 20
340.6487703485868
 30
0.0
 11
671.5682379384337
 21
340.6487703485868
 31
0.0
  0
LINE
  5
1065
330
2
100
AcDbEntity
  8
0
100
AcDbLine
 10
662.8046964389117
 20
340.6487703485868
 30
0.0
 11
665.204623678915
 21
340.6487703485868
 31
0.0
  0
LINE
  5
1066
330
2
100
AcDbEntity
  8
0
100
AcDbLine
 10
660.7646976802365
 20
341.8487703485894
 30
0.0
 11
660.1646976802361
 21
340.6487703485868
 31
0.0
  0
LINE
  5
1067
330
2
100
AcDbEntity
  8
0
100
AcDbLine
 10
660.7646976802365
 20
341.8487703485894
 30
0.0
 11
662.8046964389117
 21
341.8487703485876
 31
0.0
  0
LINE
  5
1068
330
2
100
AcDbEntity
  8
0
100
AcDbLine
 10
662.8046964389117
 20
341.8487703485876
 30
0.0
 11
662.8046964389117
 21
340.6487703485868
 31
0.0
  0
LINE
  5
1069
330
2
100
AcDbEntity
  8
0
100
AcDbLine
 10
662.044697680239
 20
344.4087703485907
 30
0.0
 11
662.8046964389117
 21
344.4087703485925
 31
0.0
  0
LINE
  5
106A
330
2
100
AcDbEntity
  8
0
100
AcDbLine
 10
662.8046964389117
 20
345.928767865938
 30
0.0
 11
662.8046964389117
 21
344.4087703485925
 31
0.0
  0
LINE
  5
106B
330
2
100
AcDbEntity
  8
0
100
AcDbLine
 10
662.8046964389117
 20
345.928767865938
 30
0.0
 11
662.044697680239
 21
344.4087703485907
 31
0.0
  0
LINE
  5
106C
330
2
100
AcDbEntity
  8
0
100
AcDbLine
 10
665.5446964389151
 20
345.5887703485928
 30
0.0
 11
668.6882366971025
 21
340.6487703485868
 31
0.0
  0
LINE
  5
106D
330
2
100
AcDbEntity
  8
0
100
AcDbLine
 10
665.204623678915
 20
345.9287703485948
 30
0.0
 11
665.204623678915
 21
340.6487703485868
 31
0.0
  0
LINE
  5
106E
330
2
100
AcDbEntity
  8
0
100
AcDbLine
 10
665.204623678915
 20
345.9287703485948
 30
0.0
 11
667.7546964389179
 21
345.9287703485948
 31
0.0
  0
LINE
  5
106F
330
2
100
AcDbEntity
  8
0
100
AcDbLine
 10
665.5446964389151
 20
345.5887703485928
 30
0.0
 11
667.7546964389197
 21
345.5887703485928
 31
0.0
  0
ARC
  5
1070
330
2
100
AcDbEntity
  8
0
100
AcDbCircle
 10
667.7546964389197
 20
345.7587703485947
 30
0.0
 40
0.1700000000002474
100
AcDbArc
 50
270.0
 51
90.0
  0
LINE
  5
1071
330
2
100
AcDbEntity
  8
0
100
AcDbLine
 10
661.2846964389095
 20
348.6487703485977
 30
0.0
 11
667.9246236789198
 21
348.6487703485977
 31
0.0
  0
ARC
  5
1072
330
2
100
AcDbEntity
  8
0
100
AcDbCircle
 10
792.7038236184329
 20
701.1130842670131
 30
0.0
 40
5.0
100
AcDbArc
 50
270.0
 51
358.499999999906
  0
ARC
  5
1073
330
2
100
AcDbEntity
  8
0
100
AcDbCircle
 10
761.7385735499077
 20
666.1130842670131
 30
0.0
 40
1.0
100
AcDbArc
 50
181.5000000001981
 51
270.0
  0
LINE
  5
1074
330
2
100
AcDbEntity
  8
0
100
AcDbLine
 10
771.1534799863279
 20
662.6130842670131
 30
0.0
 11
782.6546048503681
 21
662.6130842670131
 31
0.0
  0
LINE
  5
1075
330
2
100
AcDbEntity
  8
0
100
AcDbLine
 10
771.1534799866789
 20
667.6130842670131
 30
0.0
 11
782.6546048504536
 21
667.6130842670131
 31
0.0
  0
LINE
  5
1076
330
2
100
AcDbEntity
  8
0
100
AcDbLine
 10
797.7854662806325
 20
704.165438163634
 30
0.0
 11
796.762844404306
 21
665.1130842670132
 31
0.0
  0
ARC
  5
1077
330
2
100
AcDbEntity
  8
0
100
AcDbCircle
 10
799.7847809304425
 20
626.1130842670131
 30
0.0
 40
2.0
100
AcDbArc
 50
181.4999999999897
 51
270.0
  0
ARC
  5
1078
330
2
100
AcDbEntity
  8
0
100
AcDbCircle
 10
799.7847809305834
 20
704.1130842670131
 30
0.0
 40
2.0
100
AcDbArc
 50
90.0
 51
178.499999999906
  0
LINE
  5
1079
330
2
100
AcDbEntity
  8
0
100
AcDbLine
 10
796.7628444042515
 20
665.1130842670132
 30
0.0
 11
797.7854662804915
 21
626.0607303703977
 31
0.0
  0
ARC
  5
107A
330
2
100
AcDbEntity
  8
0
100
AcDbCircle
 10
792.7038236182982
 20
629.1130842670131
 30
0.0
 40
5.0
100
AcDbArc
 50
1.499999999989693
 51
90.0
  0
LINE
  5
107B
330
2
100
AcDbEntity
  8
0
100
AcDbLine
 10
759.9395601493137
 20
696.6130842723774
 30
0.0
 11
760.7389162249331
 21
666.0869073187018
 31
0.0
  0
LINE
  5
107C
330
2
100
AcDbEntity
  8
0
100
AcDbLine
 10
789.2589378014348
 20
696.1130842670131
 30
0.0
 11
792.7038236184329
 21
696.1130842670131
 31
0.0
  0
LINE
  5
107D
330
2
100
AcDbEntity
  8
0
100
AcDbLine
 10
789.2589378014348
 20
634.1130842670131
 30
0.0
 11
792.7038236182982
 21
634.1130842670131
 31
0.0
  0
LINE
  5
107E
330
2
100
AcDbEntity
  8
0
100
AcDbLine
 10
786.2599658265083
 20
693.1916151119381
 30
0.0
 11
785.5247036200911
 21
665.1130842670132
 31
0.0
  0
ARC
  5
107F
330
2
100
AcDbEntity
  8
0
100
AcDbCircle
 10
782.6546048504536
 20
670.6130842670131
 30
0.0
 40
3.0
100
AcDbArc
 50
270.0
 51
358.5000000001145
  0
ARC
  5
1080
330
2
100
AcDbEntity
  8
0
100
AcDbCircle
 10
789.2589378014348
 20
693.1130842670131
 30
0.0
 40
3.0
100
AcDbArc
 50
90.0
 51
178.5000000001145
  0
ARC
  5
1081
330
2
100
AcDbEntity
  8
0
100
AcDbCircle
 10
784.3855406290298
 20
696.6130842670131
 30
0.0
 40
3.0
100
AcDbArc
 50
270.0
 51
324.3146652873072
  0
ARC
  5
1082
330
2
100
AcDbEntity
  8
0
100
AcDbCircle
 10
781.274578090099
 20
693.6130842670131
 30
0.0
 40
5.0
100
AcDbArc
 50
270.0
 51
356.416678301528
  0
LINE
  5
1083
330
2
100
AcDbEntity
  8
0
100
AcDbLine
 10
786.2599658265083
 20
637.0345534220864
 30
0.0
 11
785.5247036199893
 21
665.1130842670132
 31
0.0
  0
ARC
  5
1084
330
2
100
AcDbEntity
  8
0
100
AcDbCircle
 10
789.2589378014348
 20
637.1130842670131
 30
0.0
 40
3.0
100
AcDbArc
 50
181.5000000000939
 51
270.0
  0
ARC
  5
1085
330
2
100
AcDbEntity
  8
0
100
AcDbCircle
 10
784.3855406290307
 20
633.6130842670131
 30
0.0
 40
3.0
100
AcDbArc
 50
35.6853347126928
 51
90.0
  0
ARC
  5
1086
330
2
100
AcDbEntity
  8
0
100
AcDbCircle
 10
781.274578090099
 20
636.6130842670131
 30
0.0
 40
5.0
100
AcDbArc
 50
3.583321698471985
 51
90.0
  0
ARC
  5
1087
330
2
100
AcDbEntity
  8
0
100
AcDbCircle
 10
782.6546048503681
 20
659.6130842670131
 30
0.0
 40
3.0
100
AcDbArc
 50
1.500000000093941
 51
90.0
  0
LINE
  5
1088
330
2
100
AcDbEntity
  8
0
100
AcDbLine
 10
781.274578090099
 20
688.6130842670131
 30
0.0
 11
772.9528381840412
 21
688.6130842670131
 31
0.0
  0
LINE
  5
1089
330
2
100
AcDbEntity
  8
0
100
AcDbLine
 10
784.3855406290298
 20
693.6130842670131
 30
0.0
 11
770.9265814238254
 21
693.6130842670131
 31
0.0
  0
LINE
  5
108A
330
2
100
AcDbEntity
  8
0
100
AcDbLine
 10
781.274578090099
 20
641.6130842670131
 30
0.0
 11
772.9528381839212
 21
641.6130842670131
 31
0.0
  0
LINE
  5
108B
330
2
100
AcDbEntity
  8
0
100
AcDbLine
 10
784.3855406290307
 20
636.6130842670131
 30
0.0
 11
770.9265814238209
 21
636.6130842670131
 31
0.0
  0
LINE
  5
108C
330
2
100
AcDbEntity
  8
0
100
AcDbLine
 10
761.7385735499077
 20
665.1130842670132
 30
0.0
 11
767.9264671886698
 21
665.1130842670132
 31
0.0
  0
LINE
  5
108D
330
2
100
AcDbEntity
  8
0
100
AcDbLine
 10
770.9264671886688
 20
390.1487703485977
 30
0.0
 11
783.3888390317464
 21
390.1487703485977
 31
0.0
  0
LINE
  5
108E
330
2
100
AcDbEntity
  8
0
100
AcDbLine
 10
770.9264671886679
 20
395.1487703485978
 30
0.0
 11
783.3888390317619
 21
395.1487703485978
 31
0.0
  0
ARC
  5
108F
330
2
100
AcDbEntity
  8
0
100
AcDbCircle
 10
783.3888390317619
 20
398.1487703485978
 30
0.0
 40
3.0
100
AcDbArc
 50
270.0
 51
359.9999999998958
  0
LINE
  5
1090
330
2
100
AcDbEntity
  8
0
100
AcDbLine
 10
772.9264671886706
 20
369.1487703485977
 30
0.0
 11
781.4044793203787
 21
369.1487703485977
 31
0.0
  0
LINE
  5
1091
330
2
100
AcDbEntity
  8
0
100
AcDbLine
 10
770.9264671886707
 20
364.1487703485978
 30
0.0
 11
784.5154418593096
 21
364.1487703485978
 31
0.0
  0
LINE
  5
1092
330
2
100
AcDbEntity
  8
0
100
AcDbLine
 10
772.9264671886661
 20
416.1487703485978
 30
0.0
 11
781.404479320456
 21
416.1487703485978
 31
0.0
  0
LINE
  5
1093
330
2
100
AcDbEntity
  8
0
100
AcDbLine
 10
770.9264671886661
 20
421.1487703485977
 30
0.0
 11
784.5154418593878
 21
421.1487703485977
 31
0.0
  0
ARC
  5
1094
330
2
100
AcDbEntity
  8
0
100
AcDbCircle
 10
789.3888390317919
 20
420.6487703485978
 30
0.0
 40
3.0
100
AcDbArc
 50
90.0
 51
176.416678301528
  0
ARC
  5
1095
330
2
100
AcDbEntity
  8
0
100
AcDbCircle
 10
784.5154418593878
 20
424.1487703485978
 30
0.0
 40
3.0
100
AcDbArc
 50
270.0
 51
324.3146652873072
  0
ARC
  5
1096
330
2
100
AcDbEntity
  8
0
100
AcDbCircle
 10
781.404479320456
 20
421.1487703485977
 30
0.0
 40
5.0
100
AcDbArc
 50
270.0
 51
356.416678301528
  0
LINE
  5
1097
330
2
100
AcDbEntity
  8
0
100
AcDbLine
 10
786.3888390317919
 20
420.6487703486014
 30
0.0
 11
786.3888390317145
 21
364.6487703486014
 31
0.0
  0
ARC
  5
1098
330
2
100
AcDbEntity
  8
0
100
AcDbCircle
 10
789.3888390317146
 20
364.6487703485977
 30
0.0
 40
3.0
100
AcDbArc
 50
179.9999999998957
 51
270.0
  0
ARC
  5
1099
330
2
100
AcDbEntity
  8
0
100
AcDbCircle
 10
784.5154418593096
 20
361.1487703485977
 30
0.0
 40
3.0
100
AcDbArc
 50
35.6853347126928
 51
90.0
  0
ARC
  5
109A
330
2
100
AcDbEntity
  8
0
100
AcDbCircle
 10
781.4044793203787
 20
364.1487703485978
 30
0.0
 40
5.0
100
AcDbArc
 50
3.583321698471985
 51
90.0
  0
ARC
  5
109B
330
2
100
AcDbEntity
  8
0
100
AcDbCircle
 10
783.3888390317464
 20
387.1487703485978
 30
0.0
 40
3.0
100
AcDbArc
 50
359.9999999998958
 51
90.0
  0
ARC
  5
109C
330
2
100
AcDbEntity
  8
0
100
AcDbCircle
 10
792.8364671886032
 20
356.6487703485977
 30
0.0
 40
5.0
100
AcDbArc
 50
0.0
 51
90.0
  0
ARC
  5
109D
330
2
100
AcDbEntity
  8
0
100
AcDbCircle
 10
792.8364671886032
 20
428.6487703485978
 30
0.0
 40
5.0
100
AcDbArc
 50
270.0
 51
0.0
  0
LINE
  5
109E
330
2
100
AcDbEntity
  8
0
100
AcDbLine
 10
789.3888390317146
 20
361.6487703485978
 30
0.0
 11
792.8364671886032
 21
361.6487703485978
 31
0.0
  0
LINE
  5
109F
330
2
100
AcDbEntity
  8
0
100
AcDbLine
 10
789.3888390317919
 20
423.6487703485978
 30
0.0
 11
792.8364671886032
 21
423.6487703485978
 31
0.0
  0
ARC
  5
10A0
330
2
100
AcDbEntity
  8
0
100
AcDbCircle
 10
772.9264671886661
 20
421.1487703485977
 30
0.0
 40
5.0
100
AcDbArc
 50
180.0
 51
270.0
  0
ARC
  5
10A1
330
2
100
AcDbEntity
  8
0
100
AcDbCircle
 10
772.9264671886706
 20
364.1487703485978
 30
0.0
 40
5.0
100
AcDbArc
 50
90.0
 51
180.0
  0
ARC
  5
10A2
330
2
100
AcDbEntity
  8
0
100
AcDbCircle
 10
770.9264671886707
 20
361.1487703485977
 30
0.0
 40
3.0
100
AcDbArc
 50
90.0
 51
180.0
  0
ARC
  5
10A3
330
2
100
AcDbEntity
  8
0
100
AcDbCircle
 10
770.9264671886688
 20
387.1487703485978
 30
0.0
 40
3.0
100
AcDbArc
 50
90.0
 51
180.0
  0
ARC
  5
10A4
330
2
100
AcDbEntity
  8
0
100
AcDbCircle
 10
770.9264671886679
 20
398.1487703485978
 30
0.0
 40
3.0
100
AcDbArc
 50
180.0
 51
270.0
  0
ARC
  5
10A5
330
2
100
AcDbEntity
  8
0
100
AcDbCircle
 10
770.9264671886661
 20
424.1487703485978
 30
0.0
 40
3.0
100
AcDbArc
 50
180.0
 51
270.0
  0
ARC
  5
10A6
330
2
100
AcDbEntity
  8
0
100
AcDbCircle
 10
131.7724681355371
 20
387.1487703485996
 30
0.0
 40
3.0
100
AcDbArc
 50
0.0
 51
90.0
  0
ARC
  5
10A7
330
2
100
AcDbEntity
  8
0
100
AcDbCircle
 10
119.3100962924431
 20
387.1487703485996
 30
0.0
 40
3.0
100
AcDbArc
 50
90.0
 51
179.9999999998957
  0
LINE
  5
10A8
330
2
100
AcDbEntity
  8
0
100
AcDbLine
 10
131.7724681355371
 20
395.1487703485996
 30
0.0
 11
119.3100962924586
 21
395.1487703485996
 31
0.0
  0
ARC
  5
10A9
330
2
100
AcDbEntity
  8
0
100
AcDbCircle
 10
131.7724681355371
 20
398.1487703485996
 30
0.0
 40
3.0
100
AcDbArc
 50
270.0
 51
0.0
  0
ARC
  5
10AA
330
2
100
AcDbEntity
  8
0
100
AcDbCircle
 10
119.3100962924586
 20
398.1487703485996
 30
0.0
 40
3.0
100
AcDbArc
 50
179.9999999998957
 51
270.0
  0
LINE
  5
10AB
330
2
100
AcDbEntity
  8
0
100
AcDbLine
 10
131.7724681355371
 20
390.1487703485996
 30
0.0
 11
119.3100962924431
 21
390.1487703485996
 31
0.0
  0
LINE
  5
10AC
330
2
100
AcDbEntity
  8
0
100
AcDbLine
 10
113.3100962924131
 20
361.6487703485996
 30
0.0
 11
109.8624681356018
 21
361.6487703485996
 31
0.0
  0
ARC
  5
10AD
330
2
100
AcDbEntity
  8
0
100
AcDbCircle
 10
109.8624681356018
 20
356.6487703485996
 30
0.0
 40
5.0
100
AcDbArc
 50
90.0
 51
180.0
  0
LINE
  5
10AE
330
2
100
AcDbEntity
  8
0
100
AcDbLine
 10
131.7724681355389
 20
364.1487703485996
 30
0.0
 11
118.1834934648172
 21
364.1487703485996
 31
0.0
  0
LINE
  5
10AF
330
2
100
AcDbEntity
  8
0
100
AcDbLine
 10
129.7724681355389
 20
369.1487703485996
 30
0.0
 11
121.294456003749
 21
369.1487703485996
 31
0.0
  0
ARC
  5
10B0
330
2
100
AcDbEntity
  8
0
100
AcDbCircle
 10
129.7724681355389
 20
364.1487703485996
 30
0.0
 40
5.0
100
AcDbArc
 50
0.0
 51
90.0
  0
ARC
  5
10B1
330
2
100
AcDbEntity
  8
0
100
AcDbCircle
 10
131.7724681355389
 20
361.1487703485996
 30
0.0
 40
3.0
100
AcDbArc
 50
0.0
 51
90.0
  0
ARC
  5
10B2
330
2
100
AcDbEntity
  8
0
100
AcDbCircle
 10
118.1834934648172
 20
361.1487703485996
 30
0.0
 40
3.0
100
AcDbArc
 50
90.0
 51
144.3146652873071
  0
ARC
  5
10B3
330
2
100
AcDbEntity
  8
0
100
AcDbCircle
 10
113.3100962924131
 20
364.6487703485996
 30
0.0
 40
3.0
100
AcDbArc
 50
270.0
 51
356.416678301528
  0
ARC
  5
10B4
330
2
100
AcDbEntity
  8
0
100
AcDbCircle
 10
121.294456003749
 20
364.1487703485996
 30
0.0
 40
5.0
100
AcDbArc
 50
90.0
 51
176.416678301528
  0
LINE
  5
10B5
330
2
100
AcDbEntity
  8
0
100
AcDbLine
 10
116.3100962924131
 20
364.6487703485959
 30
0.0
 11
116.3100962924904
 21
420.648770348596
 31
0.0
  0
LINE
  5
10B6
330
2
100
AcDbEntity
  8
0
100
AcDbLine
 10
129.7724681355352
 20
416.1487703485995
 30
0.0
 11
121.2944560038263
 21
416.1487703485995
 31
0.0
  0
ARC
  5
10B7
330
2
100
AcDbEntity
  8
0
100
AcDbCircle
 10
129.7724681355352
 20
421.1487703485996
 30
0.0
 40
5.0
100
AcDbArc
 50
270.0
 51
0.0
  0
ARC
  5
10B8
330
2
100
AcDbEntity
  8
0
100
AcDbCircle
 10
121.2944560038263
 20
421.1487703485996
 30
0.0
 40
5.0
100
AcDbArc
 50
183.583321698472
 51
270.0
  0
LINE
  5
10B9
330
2
100
AcDbEntity
  8
0
100
AcDbLine
 10
131.7724681355352
 20
421.1487703485996
 30
0.0
 11
118.1834934648954
 21
421.1487703485996
 31
0.0
  0
ARC
  5
10BA
330
2
100
AcDbEntity
  8
0
100
AcDbCircle
 10
131.7724681355352
 20
424.1487703485995
 30
0.0
 40
3.0
100
AcDbArc
 50
270.0
 51
0.0
  0
ARC
  5
10BB
330
2
100
AcDbEntity
  8
0
100
AcDbCircle
 10
118.1834934648954
 20
424.1487703485995
 30
0.0
 40
3.0
100
AcDbArc
 50
215.6853347126927
 51
270.0
  0
ARC
  5
10BC
330
2
100
AcDbEntity
  8
0
100
AcDbCircle
 10
113.3100962924904
 20
420.6487703485995
 30
0.0
 40
3.0
100
AcDbArc
 50
359.9999999998958
 51
90.0
  0
LINE
  5
10BD
330
2
100
AcDbEntity
  8
0
100
AcDbLine
 10
113.3100962924904
 20
423.6487703485996
 30
0.0
 11
109.8624681356018
 21
423.6487703485996
 31
0.0
  0
ARC
  5
10BE
330
2
100
AcDbEntity
  8
0
100
AcDbCircle
 10
109.8624681356018
 20
428.6487703485995
 30
0.0
 40
5.0
100
AcDbArc
 50
180.0
 51
270.0
  0
LINE
  5
10BF
330
2
100
AcDbEntity
  8
0
100
AcDbLine
 10
614.426467188668
 20
696.1130842670131
 30
0.0
 11
614.426467188667
 21
621.6130842670131
 31
0.0
  0
LINE
  5
10C0
330
2
100
AcDbEntity
  8
0
100
AcDbLine
 10
618.4264671886689
 20
696.1130842670131
 30
0.0
 11
618.426467188668
 21
621.6130842670131
 31
0.0
  0
LINE
  5
10C1
330
2
100
AcDbEntity
  8
0
100
AcDbLine
 10
641.4224387669913
 20
696.1130842670131
 30
0.0
 11
641.4224387669904
 21
621.6130842670131
 31
0.0
  0
LINE
  5
10C2
330
2
100
AcDbEntity
  8
0
100
AcDbLine
 10
714.4264671886716
 20
696.1130842670131
 30
0.0
 11
714.4264671886706
 21
621.6130842670131
 31
0.0
  0
LINE
  5
10C3
330
2
100
AcDbEntity
  8
0
100
AcDbLine
 10
710.4264671886716
 20
696.1130842670131
 30
0.0
 11
710.4264671886716
 21
621.6130842670131
 31
0.0
  0
LINE
  5
10C4
330
2
100
AcDbEntity
  8
0
100
AcDbLine
 10
687.4304956103482
 20
696.1130842670131
 30
0.0
 11
687.4304956103482
 21
621.6130842670131
 31
0.0
  0
LINE
  5
10C5
330
2
100
AcDbEntity
  8
0
100
AcDbLine
 10
1093.692525986795
 20
349.6531337824977
 30
0.0
 11
1021.175072915806
 21
350.2859840079687
 31
0.0
  0
LINE
  5
10C6
330
2
100
AcDbEntity
  8
0
100
AcDbLine
 10
1093.692525986801
 20
435.644406914707
 30
0.0
 11
1021.175072915806
 21
435.011556689236
 31
0.0
  0
LINE
  5
10C7
330
2
100
AcDbEntity
  8
0
100
AcDbLine
 10
1093.692525986799
 20
435.0946142438929
 30
0.0
 11
1062.192525986802
 21
435.369510579299
 31
0.0
  0
LINE
  5
10C8
330
2
100
AcDbEntity
  8
0
100
AcDbLine
 10
1093.692525986799
 20
350.2029264533117
 30
0.0
 11
1062.192525986802
 21
349.9280301179037
 31
0.0
  0
ARC
  5
10C9
330
2
100
AcDbEntity
  8
0
100
AcDbCircle
 10
1021.192525986802
 20
433.0116328431081
 30
0.0
 40
2.0
100
AcDbArc
 50
90.49999999996549
 51
180.0
  0
ARC
  5
10CA
330
2
100
AcDbEntity
  8
0
100
AcDbCircle
 10
1021.192525986802
 20
352.2859078540983
 30
0.0
 40
2.0
100
AcDbArc
 50
180.0
 51
269.4999999999824
  0
LINE
  5
10CB
330
2
100
AcDbEntity
  8
0
100
AcDbLine
 10
796.7628444042787
 20
665.1130842659709
 30
0.0
 11
809.8364671886715
 21
665.1130842670132
 31
0.0
  0
LINE
  5
10CC
330
2
100
AcDbEntity
  8
0
100
AcDbLine
 10
102.8624681355381
 20
351.1487703485978
 30
0.0
 11
92.86246813553816
 21
351.1487703485978
 31
0.0
  0
ARC
  5
10CD
330
2
100
AcDbEntity
  8
0
100
AcDbCircle
 10
102.8624681355381
 20
353.1487703485978
 30
0.0
 40
2.0
100
AcDbArc
 50
270.0
 51
0.0
  0
LINE
  5
10CE
330
2
100
AcDbEntity
  8
0
100
AcDbLine
 10
92.86246813553816
 20
434.1487703485977
 30
0.0
 11
102.8624681355381
 21
434.1487703485977
 31
0.0
  0
ARC
  5
10CF
330
2
100
AcDbEntity
  8
0
100
AcDbCircle
 10
102.8624681355381
 20
432.1487703485978
 30
0.0
 40
2.0
100
AcDbArc
 50
0.0
 51
90.0
  0
LINE
  5
10D0
330
2
100
AcDbEntity
  8
0
100
AcDbLine
 10
799.8364671886687
 20
434.1487703485996
 30
0.0
 11
809.8364671886686
 21
434.1487703485996
 31
0.0
  0
ARC
  5
10D1
330
2
100
AcDbEntity
  8
0
100
AcDbCircle
 10
799.8364671886687
 20
432.1487703485995
 30
0.0
 40
2.0
100
AcDbArc
 50
90.0
 51
180.0
  0
LINE
  5
10D2
330
2
100
AcDbEntity
  8
0
100
AcDbLine
 10
809.8364671886686
 20
351.1487703485996
 30
0.0
 11
799.8364671886687
 21
351.1487703485996
 31
0.0
  0
ARC
  5
10D3
330
2
100
AcDbEntity
  8
0
100
AcDbCircle
 10
799.8364671886687
 20
353.1487703485996
 30
0.0
 40
2.0
100
AcDbArc
 50
180.0
 51
270.0
  0
LINE
  5
10D4
330
2
100
AcDbEntity
  8
CENTER
100
AcDbLine
 10
443.803258500077
 20
322.923666684007
 30
0.0
 11
443.8032585000772
 21
462.3738740131905
 31
0.0
  0
LINE
  5
10D5
330
2
100
AcDbEntity
  8
CENTER
100
AcDbLine
 10
353.3032585000772
 20
392.6487703485996
 30
0.0
 11
530.8032585000781
 21
392.6487703485996
 31
0.0
  0
LINE
  5
10D6
330
2
100
AcDbEntity
  8
0
100
AcDbLine
 10
412.3032585000852
 20
452.6487703485996
 30
0.0
 11
488.8032585000761
 21
451.9811649626058
 31
0.0
  0
LINE
  5
10D7
330
2
100
AcDbEntity
  8
0
100
AcDbLine
 10
412.3032585000798
 20
332.6487703485978
 30
0.0
 11
488.8032585000779
 21
333.3163757345915
 31
0.0
  0
LINE
  5
10D8
330
2
100
AcDbEntity
  8
0
100
AcDbLine
 10
488.8032585000779
 20
333.3163757345915
 30
0.0
 11
488.8032585000761
 21
451.9811649626058
 31
0.0
  0
LINE
  5
10D9
330
2
100
AcDbEntity
  8
0
100
AcDbLine
 10
493.803258500077
 20
337.6487703485977
 30
0.0
 11
493.803258500077
 21
447.6487703485978
 31
0.0
  0
LINE
  5
10DA
330
2
100
AcDbEntity
  8
0
100
AcDbLine
 10
493.803258500077
 20
337.6487703485977
 30
0.0
 11
488.803258500077
 21
337.6487703485977
 31
0.0
  0
LINE
  5
10DB
330
2
100
AcDbEntity
  8
0
100
AcDbLine
 10
493.803258500077
 20
447.6487703485978
 30
0.0
 11
488.803258500077
 21
447.6487703485978
 31
0.0
  0
LINE
  5
10DC
330
2
100
AcDbEntity
  8
0
100
AcDbLine
 10
507.8032585000779
 20
354.5801478982135
 30
0.0
 11
507.8032585000779
 21
430.7173927989857
 31
0.0
  0
ARC
  5
10DD
330
2
100
AcDbEntity
  8
0
100
AcDbCircle
 10
505.803258500078
 20
430.7173927989857
 30
0.0
 40
2.0
100
AcDbArc
 50
0.0
 51
87.99999999999636
  0
ARC
  5
10DE
330
2
100
AcDbEntity
  8
0
100
AcDbCircle
 10
505.803258500078
 20
354.5801478982135
 30
0.0
 40
2.0
100
AcDbArc
 50
272.0000000000036
 51
0.0
  0
LINE
  5
10DF
330
2
100
AcDbEntity
  8
0
100
AcDbLine
 10
495.7334595066728
 20
352.2272836801399
 30
0.0
 11
505.8730574934831
 21
352.5813662441756
 31
0.0
  0
ARC
  5
10E0
330
2
100
AcDbEntity
  8
0
100
AcDbCircle
 10
495.803258500077
 20
350.228502026102
 30
0.0
 40
2.0
100
AcDbArc
 50
92.00000000000365
 51
180.0
  0
LINE
  5
10E1
330
2
100
AcDbEntity
  8
0
100
AcDbLine
 10
495.7334595066728
 20
433.0702570170611
 30
0.0
 11
505.8730574934831
 21
432.7161744530235
 31
0.0
  0
ARC
  5
10E2
330
2
100
AcDbEntity
  8
0
100
AcDbCircle
 10
495.803258500077
 20
435.069038671099
 30
0.0
 40
2.0
100
AcDbArc
 50
180.0
 51
267.9999999999963
  0
LINE
  5
10E3
330
2
100
AcDbEntity
  8
0
100
AcDbLine
 10
767.9264671886689
 20
696.6130842718444
 30
0.0
 11
768.2013635243814
 21
665.1130842718444
 31
0.0
  0
ARC
  5
10E4
330
2
100
AcDbEntity
  8
0
100
AcDbCircle
 10
770.9265814238682
 20
696.6130842670131
 30
0.0
 40
3.0
100
AcDbArc
 50
180.5000000005908
 51
270.0
  0
ARC
  5
10E5
330
2
100
AcDbEntity
  8
0
100
AcDbCircle
 10
772.9528381840412
 20
693.6130842670131
 30
0.0
 40
5.0
100
AcDbArc
 50
180.5000000005908
 51
270.0
  0
ARC
  5
10E6
330
2
100
AcDbEntity
  8
0
100
AcDbCircle
 10
771.1534799866789
 20
670.6130842670131
 30
0.0
 40
3.0
100
AcDbArc
 50
180.5000000005908
 51
270.0
  0
LINE
  5
10E7
330
2
100
AcDbEntity
  8
0
100
AcDbLine
 10
767.8434096340136
 20
624.0956312008485
 30
0.0
 11
768.2013635240594
 21
665.1130842718444
 31
0.0
  0
ARC
  5
10E8
330
2
100
AcDbEntity
  8
0
100
AcDbCircle
 10
770.9265814237791
 20
633.6130842670131
 30
0.0
 40
3.0
100
AcDbArc
 50
90.0
 51
179.5000000000344
  0
ARC
  5
10E9
330
2
100
AcDbEntity
  8
0
100
AcDbCircle
 10
772.9528381839212
 20
636.6130842670131
 30
0.0
 40
5.0
100
AcDbArc
 50
90.0
 51
179.5000000000344
  0
ARC
  5
10EA
330
2
100
AcDbEntity
  8
0
100
AcDbCircle
 10
771.1534799863279
 20
659.6130842670131
 30
0.0
 40
3.0
100
AcDbArc
 50
90.0
 51
179.5000000000344
  0
LINE
  5
10EB
330
2
100
AcDbEntity
  8
0
100
AcDbLine
 10
724.4221037547816
 20
696.6130842723791
 30
0.0
 11
723.7544983687852
 21
620.1130842718462
 31
0.0
  0
ARC
  5
10EC
330
2
100
AcDbEntity
  8
0
100
AcDbCircle
 10
725.2589189202584
 20
620.6130842718462
 30
0.0
 40
1.5
100
AcDbArc
 50
90.0
 51
179.5000000000344
  0
LINE
  5
10ED
330
2
100
AcDbEntity
  8
0
100
AcDbLine
 10
487.803258500077
 20
442.6487703485996
 30
0.0
 11
412.3032585000852
 21
442.6487703485996
 31
0.0
  0
LINE
  5
10EE
330
2
100
AcDbEntity
  8
0
100
AcDbLine
 10
487.803258500077
 20
438.6487703485959
 30
0.0
 11
412.3032585000852
 21
438.6487703485959
 31
0.0
  0
LINE
  5
10EF
330
2
100
AcDbEntity
  8
0
100
AcDbLine
 10
487.803258500077
 20
415.6527987702698
 30
0.0
 11
412.3032585000833
 21
415.6527987702698
 31
0.0
  0
LINE
  5
10F0
330
2
100
AcDbEntity
  8
0
100
AcDbLine
 10
487.8032585000779
 20
342.6487703485996
 30
0.0
 11
412.3032585000852
 21
342.6487703485996
 31
0.0
  0
LINE
  5
10F1
330
2
100
AcDbEntity
  8
0
100
AcDbLine
 10
487.8032585000779
 20
346.6487703486032
 30
0.0
 11
412.3032585000852
 21
346.6487703486032
 31
0.0
  0
LINE
  5
10F2
330
2
100
AcDbEntity
  8
0
100
AcDbLine
 10
487.803258500077
 20
369.6447419269293
 30
0.0
 11
412.3032585000833
 21
369.6447419269293
 31
0.0
  0
ARC
  5
10F3
330
2
100
AcDbEntity
  8
0
100
AcDbCircle
 10
732.398667944279
 20
341.6487703485959
 30
0.0
 40
8.0
100
AcDbArc
 50
90.0
 51
176.8152614633259
  0
CIRCLE
  5
10F4
330
2
100
AcDbEntity
  8
HOJO
100
AcDbCircle
 10
291.2724681355172
 20
428.1487703485959
 30
0.0
 40
2.5
  0
LINE
  5
10F5
330
2
100
AcDbEntity
  8
CENTER
100
AcDbLine
 10
299.0224681355172
 20
442.6487703485977
 30
0.0
 11
277.5224681355172
 21
442.6487703485959
 31
0.0
  0
CIRCLE
  5
10F6
330
2
100
AcDbEntity
  8
HOJO
100
AcDbCircle
 10
291.2724681355172
 20
357.1487703485978
 30
0.0
 40
2.5
  0
LINE
  5
10F7
330
2
100
AcDbEntity
  8
CENTER
100
AcDbLine
 10
165.2724681355207
 20
430.1487703485977
 30
0.0
 11
149.2724681355207
 21
430.1487703485959
 31
0.0
  0
LINE
  5
10F8
330
2
100
AcDbEntity
  8
CENTER
100
AcDbLine
 10
157.2724681355207
 20
438.1487703485977
 30
0.0
 11
157.2724681355207
 21
422.1487703485977
 31
0.0
  0
LINE
  5
10F9
330
2
100
AcDbEntity
  8
CENTER
100
AcDbLine
 10
142.7724681355189
 20
438.3987703485959
 30
0.0
 11
142.7724681355207
 21
416.8987703485959
 31
0.0
  0
LINE
  5
10FA
330
2
100
AcDbEntity
  8
CENTER
100
AcDbLine
 10
153.5224681355207
 20
427.6487703485978
 30
0.0
 11
132.0224681355207
 21
427.6487703485959
 31
0.0
  0
CIRCLE
  5
10FB
330
2
100
AcDbEntity
  8
HOJO
100
AcDbCircle
 10
157.2724681355207
 20
430.1487703485977
 30
0.0
 40
2.5
  0
CIRCLE
  5
10FC
330
2
100
AcDbEntity
  8
HOJO
100
AcDbCircle
 10
157.2724681355207
 20
355.1487703485959
 30
0.0
 40
2.5
  0
LINE
  5
10FD
330
2
100
AcDbEntity
  8
0
100
AcDbLine
 10
269.2724681355208
 20
344.6487703485978
 30
0.0
 11
207.2724681355208
 21
344.648770348596
 31
0.0
  0
LINE
  5
10FE
330
2
100
AcDbEntity
  8
0
100
AcDbLine
 10
269.2724681355208
 20
440.6487703485959
 30
0.0
 11
207.2724681355208
 21
440.6487703485959
 31
0.0
  0
CIRCLE
  5
10FF
330
2
100
AcDbEntity
  8
0
100
AcDbCircle
 10
238.2724681355208
 20
392.6487703485959
 30
0.0
 40
39.99999999999994
  0
CIRCLE
  5
1100
330
2
100
AcDbEntity
  8
0
100
AcDbCircle
 10
238.2724681355208
 20
392.6487703485959
 30
0.0
 40
39.49999999999994
  0
CIRCLE
  5
1101
330
2
100
AcDbEntity
  8
0
100
AcDbCircle
 10
238.2724681355208
 20
392.6487703485959
 30
0.0
 40
37.49999999999994
  0
LINE
  5
1102
330
2
100
AcDbEntity
  8
0
100
AcDbLine
 10
269.2724681355208
 20
346.6487703485977
 30
0.0
 11
207.2724681355208
 21
346.648770348596
 31
0.0
  0
ARC
  5
1103
330
2
100
AcDbEntity
  8
0
100
AcDbCircle
 10
238.2724681355199
 20
202.6487703485959
 30
0.0
 40
250.0
100
AcDbArc
 50
84.72039671760322
 51
95.27960328239677
  0
ARC
  5
1104
330
2
100
AcDbEntity
  8
0
100
AcDbCircle
 10
238.2724681355199
 20
582.6487703485959
 30
0.0
 40
250.0
100
AcDbArc
 50
264.7203967176031
 51
275.2796032823967
  0
LINE
  5
1105
330
2
100
AcDbEntity
  8
0
100
AcDbLine
 10
269.2724681355208
 20
438.6487703485959
 30
0.0
 11
207.2724681355208
 21
438.6487703485959
 31
0.0
  0
CIRCLE
  5
1106
330
2
100
AcDbEntity
  8
0
100
AcDbCircle
 10
238.2724681355199
 20
392.6487703485959
 30
0.0
 40
32.5
  0
LINE
  5
1107
330
2
100
AcDbEntity
  8
0
100
AcDbLine
 10
286.2724681355208
 20
423.6487703485959
 30
0.0
 11
286.2724681355199
 21
361.6487703485978
 31
0.0
  0
ARC
  5
1108
330
2
100
AcDbEntity
  8
0
100
AcDbCircle
 10
48.27246813552074
 20
392.6487703485959
 30
0.0
 40
250.0
100
AcDbArc
 50
354.7203967175509
 51
5.279603282449078
  0
LINE
  5
1109
330
2
100
AcDbEntity
  8
0
100
AcDbLine
 10
284.2724681355208
 20
423.6487703485959
 30
0.0
 11
284.2724681355199
 21
361.6487703485978
 31
0.0
  0
ARC
  5
110A
330
2
100
AcDbEntity
  8
0
100
AcDbCircle
 10
288.272468135519
 20
442.6487703485977
 30
0.0
 40
10.0
100
AcDbArc
 50
0.0
 51
90.0
  0
CIRCLE
  5
110B
330
2
100
AcDbEntity
  8
0
100
AcDbCircle
 10
291.2724681355172
 20
428.1487703485959
 30
0.0
 40
4.0
  0
CIRCLE
  5
110C
330
2
100
AcDbEntity
  8
0
100
AcDbCircle
 10
291.2724681355172
 20
428.1487703485959
 30
0.0
 40
3.5
  0
CIRCLE
  5
110D
330
2
100
AcDbEntity
  8
0
100
AcDbCircle
 10
291.2724681355172
 20
428.1487703485959
 30
0.0
 40
2.0
  0
LINE
  5
110E
330
2
100
AcDbEntity
  8
0
100
AcDbLine
 10
288.2724681355172
 20
434.1487703485977
 30
0.0
 11
295.3828327346779
 21
434.1487703485977
 31
0.0
  0
ARC
  5
110F
330
2
100
AcDbEntity
  8
0
100
AcDbCircle
 10
295.3828327346779
 20
432.1487703485978
 30
0.0
 40
2.0
100
AcDbArc
 50
353.604056903697
 51
90.0
  0
ARC
  5
1110
330
2
100
AcDbEntity
  8
0
100
AcDbCircle
 10
376.8724491034369
 20
423.0140878652051
 30
0.0
 40
80.0
100
AcDbArc
 50
169.7661103968427
 51
185.279603282449
  0
LINE
  5
1111
330
2
100
AcDbEntity
  8
0
100
AcDbLine
 10
298.272468135519
 20
442.6487703485959
 30
0.0
 11
298.272468135519
 21
438.6487703485923
 31
0.0
  0
ARC
  5
1112
330
2
100
AcDbEntity
  8
0
100
AcDbCircle
 10
290.272468135519
 20
438.6487703485923
 30
0.0
 40
8.0
100
AcDbArc
 50
349.7661103968427
 51
0.0
  0
ARC
  5
1113
330
2
100
AcDbEntity
  8
0
100
AcDbCircle
 10
269.2724681355208
 20
423.6487703485959
 30
0.0
 40
17.0
100
AcDbArc
 50
0.0
 51
90.0
  0
ARC
  5
1114
330
2
100
AcDbEntity
  8
0
100
AcDbCircle
 10
269.2724681355208
 20
423.6487703485959
 30
0.0
 40
15.0
100
AcDbArc
 50
0.0
 51
90.0
  0
ARC
  5
1115
330
2
100
AcDbEntity
  8
0
100
AcDbCircle
 10
288.2724681355172
 20
442.6487703485977
 30
0.0
 40
8.5
100
AcDbArc
 50
180.0
 51
270.0
  0
ARC
  5
1116
330
2
100
AcDbEntity
  8
0
100
AcDbCircle
 10
268.6377856521299
 20
531.2487513165137
 30
0.0
 40
80.0
100
AcDbArc
 50
264.7203967176031
 51
280.2338896031295
  0
LINE
  5
1117
330
2
100
AcDbEntity
  8
0
100
AcDbLine
 10
279.7724681355172
 20
442.6487703485959
 30
0.0
 11
279.7724681355172
 21
449.759134947753
 31
0.0
  0
LINE
  5
1118
330
2
100
AcDbEntity
  8
0
100
AcDbLine
 10
288.2724681355208
 20
452.6487703485959
 30
0.0
 11
284.2724681355172
 21
452.6487703485959
 31
0.0
  0
ARC
  5
1119
330
2
100
AcDbEntity
  8
0
100
AcDbCircle
 10
277.7724681355172
 20
449.759134947753
 30
0.0
 40
2.0
100
AcDbArc
 50
0.0
 51
96.39594309627756
  0
ARC
  5
111A
330
2
100
AcDbEntity
  8
0
100
AcDbCircle
 10
284.2724681355172
 20
444.6487703485959
 30
0.0
 40
8.0
100
AcDbArc
 50
90.0
 51
100.2338896031295
  0
ARC
  5
111B
330
2
100
AcDbEntity
  8
0
100
AcDbCircle
 10
376.8724491034369
 20
362.283452831985
 30
0.0
 40
80.0
100
AcDbArc
 50
174.7203967175509
 51
190.2338896031572
  0
ARC
  5
111C
330
2
100
AcDbEntity
  8
0
100
AcDbCircle
 10
288.2724681355208
 20
342.6487703485959
 30
0.0
 40
10.0
100
AcDbArc
 50
270.0
 51
0.0
  0
CIRCLE
  5
111D
330
2
100
AcDbEntity
  8
0
100
AcDbCircle
 10
291.2724681355172
 20
357.1487703485978
 30
0.0
 40
2.0
  0
CIRCLE
  5
111E
330
2
100
AcDbEntity
  8
0
100
AcDbCircle
 10
291.2724681355172
 20
357.1487703485978
 30
0.0
 40
3.5
  0
CIRCLE
  5
111F
330
2
100
AcDbEntity
  8
0
100
AcDbCircle
 10
291.2724681355172
 20
357.1487703485978
 30
0.0
 40
4.0
  0
LINE
  5
1120
330
2
100
AcDbEntity
  8
0
100
AcDbLine
 10
288.2724681355172
 20
351.1487703485959
 30
0.0
 11
295.3828327346769
 21
351.1487703485959
 31
0.0
  0
ARC
  5
1121
330
2
100
AcDbEntity
  8
0
100
AcDbCircle
 10
295.3828327346769
 20
353.1487703485959
 30
0.0
 40
2.0
100
AcDbArc
 50
270.0
 51
6.395943096302968
  0
ARC
  5
1122
330
2
100
AcDbEntity
  8
0
100
AcDbCircle
 10
290.272468135519
 20
346.6487703485995
 30
0.0
 40
8.0
100
AcDbArc
 50
0.0
 51
10.23388960315723
  0
LINE
  5
1123
330
2
100
AcDbEntity
  8
0
100
AcDbLine
 10
298.272468135519
 20
342.6487703485959
 30
0.0
 11
298.272468135519
 21
346.6487703485995
 31
0.0
  0
LINE
  5
1124
330
2
100
AcDbEntity
  8
0
100
AcDbLine
 10
279.7724681355172
 20
342.6487703485978
 30
0.0
 11
279.7724681355172
 21
335.5384057494389
 31
0.0
  0
ARC
  5
1125
330
2
100
AcDbEntity
  8
0
100
AcDbCircle
 10
269.2724681355199
 20
361.6487703485978
 30
0.0
 40
17.0
100
AcDbArc
 50
270.0
 51
0.0
  0
ARC
  5
1126
330
2
100
AcDbEntity
  8
0
100
AcDbCircle
 10
269.2724681355199
 20
361.6487703485978
 30
0.0
 40
15.0
100
AcDbArc
 50
270.0
 51
0.0
  0
ARC
  5
1127
330
2
100
AcDbEntity
  8
0
100
AcDbCircle
 10
288.2724681355172
 20
342.6487703485959
 30
0.0
 40
8.5
100
AcDbArc
 50
90.0
 51
180.0
  0
ARC
  5
1128
330
2
100
AcDbEntity
  8
0
100
AcDbCircle
 10
268.6377856521299
 20
254.0487893806781
 30
0.0
 40
80.0
100
AcDbArc
 50
79.76611039687047
 51
95.27960328239677
  0
LINE
  5
1129
330
2
100
AcDbEntity
  8
0
100
AcDbLine
 10
288.2724681355208
 20
332.6487703485959
 30
0.0
 11
284.2724681355172
 21
332.6487703485959
 31
0.0
  0
ARC
  5
112A
330
2
100
AcDbEntity
  8
0
100
AcDbCircle
 10
277.7724681355172
 20
335.5384057494389
 30
0.0
 40
2.0
100
AcDbArc
 50
263.6040569037224
 51
0.0
  0
ARC
  5
112B
330
2
100
AcDbEntity
  8
0
100
AcDbCircle
 10
284.2724681355172
 20
340.6487703485959
 30
0.0
 40
8.0
100
AcDbArc
 50
259.7661103968704
 51
270.0
  0
LINE
  5
112C
330
2
100
AcDbEntity
  8
0
100
AcDbLine
 10
190.2724681355207
 20
423.6487703485959
 30
0.0
 11
190.2724681355198
 21
361.6487703485959
 31
0.0
  0
LINE
  5
112D
330
2
100
AcDbEntity
  8
0
100
AcDbLine
 10
192.2724681355207
 20
423.6487703485959
 30
0.0
 11
192.2724681355198
 21
361.6487703485959
 31
0.0
  0
LINE
  5
112E
330
2
100
AcDbEntity
  8
0
100
AcDbLine
 10
178.272468135508
 20
442.6487703485959
 30
0.0
 11
178.2724681355189
 21
342.6487703485959
 31
0.0
  0
LINE
  5
112F
330
2
100
AcDbEntity
  8
0
100
AcDbLine
 10
134.7724681355189
 20
427.6487703485959
 30
0.0
 11
134.7724681355189
 21
357.6487703485959
 31
0.0
  0
ARC
  5
1130
330
2
100
AcDbEntity
  8
0
100
AcDbCircle
 10
207.2724681355208
 20
423.6487703485959
 30
0.0
 40
17.0
100
AcDbArc
 50
90.0
 51
180.0
  0
ARC
  5
1131
330
2
100
AcDbEntity
  8
0
100
AcDbCircle
 10
207.2724681355208
 20
423.6487703485959
 30
0.0
 40
15.0
100
AcDbArc
 50
90.0
 51
180.0
  0
ARC
  5
1132
330
2
100
AcDbEntity
  8
0
100
AcDbCircle
 10
207.9071506189098
 20
531.2487513165137
 30
0.0
 40
80.0
100
AcDbArc
 50
259.7661103968704
 51
275.2796032823967
  0
LINE
  5
1133
330
2
100
AcDbEntity
  8
0
100
AcDbLine
 10
142.7724681355189
 20
435.6487703485959
 30
0.0
 11
170.300267379896
 21
435.6487703485959
 31
0.0
  0
ARC
  5
1134
330
2
100
AcDbEntity
  8
0
100
AcDbCircle
 10
170.300267379896
 20
443.6487703485959
 30
0.0
 40
8.0
100
AcDbArc
 50
270.0
 51
356.8152614632215
  0
ARC
  5
1135
330
2
100
AcDbEntity
  8
0
100
AcDbCircle
 10
188.272468135508
 20
442.6487703485959
 30
0.0
 40
10.0
100
AcDbArc
 50
90.0
 51
180.0
  0
ARC
  5
1136
330
2
100
AcDbEntity
  8
0
100
AcDbCircle
 10
192.2724681355234
 20
444.6487703485959
 30
0.0
 40
8.0
100
AcDbArc
 50
79.76611039687047
 51
90.0
  0
LINE
  5
1137
330
2
100
AcDbEntity
  8
0
100
AcDbLine
 10
188.2724681355189
 20
452.6487703485959
 30
0.0
 11
192.2724681355225
 21
452.6487703485959
 31
0.0
  0
CIRCLE
  5
1138
330
2
100
AcDbEntity
  8
0
100
AcDbCircle
 10
157.2724681355207
 20
430.1487703485959
 30
0.0
 40
3.5
  0
CIRCLE
  5
1139
330
2
100
AcDbEntity
  8
0
100
AcDbCircle
 10
157.2724681355207
 20
430.1487703485959
 30
0.0
 40
4.0
  0
ARC
  5
113A
330
2
100
AcDbEntity
  8
0
100
AcDbCircle
 10
142.7724681355189
 20
427.6487703485959
 30
0.0
 40
8.0
100
AcDbArc
 50
90.0
 51
180.0
  0
LINE
  5
113B
330
2
100
AcDbEntity
  8
0
100
AcDbLine
 10
151.2724681355261
 20
427.6487703485923
 30
0.0
 11
151.2724681355298
 21
433.6487703485977
 31
0.0
  0
ARC
  5
113C
330
2
100
AcDbEntity
  8
0
100
AcDbCircle
 10
142.7724681355261
 20
427.6487703485959
 30
0.0
 40
8.5
100
AcDbArc
 50
269.9999999999478
 51
359.9999999998958
  0
CIRCLE
  5
113D
330
2
100
AcDbEntity
  8
0
100
AcDbCircle
 10
157.2724681355207
 20
430.1487703485959
 30
0.0
 40
2.0
  0
LINE
  5
113E
330
2
100
AcDbEntity
  8
0
100
AcDbLine
 10
142.7724681355207
 20
419.1487703485959
 30
0.0
 11
136.7724681355207
 21
419.1487703485996
 31
0.0
  0
ARC
  5
113F
330
2
100
AcDbEntity
  8
0
100
AcDbCircle
 10
207.2724681355199
 20
361.6487703485959
 30
0.0
 40
17.0
100
AcDbArc
 50
180.0
 51
270.0
  0
ARC
  5
1140
330
2
100
AcDbEntity
  8
0
100
AcDbCircle
 10
207.2724681355199
 20
361.6487703485959
 30
0.0
 40
15.0
100
AcDbArc
 50
180.0
 51
270.0
  0
ARC
  5
1141
330
2
100
AcDbEntity
  8
0
100
AcDbCircle
 10
207.9071506189098
 20
254.0487893806781
 30
0.0
 40
80.0
100
AcDbArc
 50
84.72039671760322
 51
100.2338896031295
  0
ARC
  5
1142
330
2
100
AcDbEntity
  8
0
100
AcDbCircle
 10
142.7724681355261
 20
357.6487703485959
 30
0.0
 40
8.5
100
AcDbArc
 50
0.0
 51
90.00000000002605
  0
LINE
  5
1143
330
2
100
AcDbEntity
  8
0
100
AcDbLine
 10
142.7724681355207
 20
366.1487703485959
 30
0.0
 11
136.7724681355207
 21
366.1487703485941
 31
0.0
  0
LINE
  5
1144
330
2
100
AcDbEntity
  8
0
100
AcDbLine
 10
142.7724681355189
 20
349.6487703485959
 30
0.0
 11
170.3002673799078
 21
349.6487703485959
 31
0.0
  0
ARC
  5
1145
330
2
100
AcDbEntity
  8
0
100
AcDbCircle
 10
188.2724681355189
 20
342.6487703485978
 30
0.0
 40
10.0
100
AcDbArc
 50
180.0
 51
270.0
  0
ARC
  5
1146
330
2
100
AcDbEntity
  8
0
100
AcDbCircle
 10
170.3002673799078
 20
341.6487703485959
 30
0.0
 40
8.0
100
AcDbArc
 50
3.184738536778398
 51
90.0
  0
ARC
  5
1147
330
2
100
AcDbEntity
  8
0
100
AcDbCircle
 10
192.2724681355225
 20
340.6487703485959
 30
0.0
 40
8.0
100
AcDbArc
 50
270.0
 51
280.2338896031295
  0
LINE
  5
1148
330
2
100
AcDbEntity
  8
0
100
AcDbLine
 10
188.2724681355189
 20
332.6487703485959
 30
0.0
 11
192.2724681355225
 21
332.6487703485959
 31
0.0
  0
CIRCLE
  5
1149
330
2
100
AcDbEntity
  8
0
100
AcDbCircle
 10
157.2724681355207
 20
355.1487703485959
 30
0.0
 40
4.0
  0
LINE
  5
114A
330
2
100
AcDbEntity
  8
0
100
AcDbLine
 10
151.2724681355261
 20
357.6487703486014
 30
0.0
 11
151.2724681355298
 21
351.6487703485959
 31
0.0
  0
CIRCLE
  5
114B
330
2
100
AcDbEntity
  8
0
100
AcDbCircle
 10
157.2724681355207
 20
355.1487703485959
 30
0.0
 40
3.5
  0
CIRCLE
  5
114C
330
2
100
AcDbEntity
  8
0
100
AcDbCircle
 10
157.2724681355207
 20
355.1487703485959
 30
0.0
 40
2.0
  0
ARC
  5
114D
330
2
100
AcDbEntity
  8
0
100
AcDbCircle
 10
142.7724681355189
 20
357.6487703485959
 30
0.0
 40
8.0
100
AcDbArc
 50
180.0
 51
270.0
  0
CIRCLE
  5
114E
330
2
100
AcDbEntity
  8
0
100
AcDbCircle
 10
238.2724681355208
 20
392.6487703485959
 30
0.0
 40
33.07735
  0
CIRCLE
  5
114F
330
2
100
AcDbEntity
  8
0
100
AcDbCircle
 10
238.2724681355208
 20
392.6487703485959
 30
0.0
 40
36.92264999999999
  0
ARC
  5
1150
330
2
100
AcDbEntity
  8
0
100
AcDbCircle
 10
153.2724681355298
 20
433.648770348596
 30
0.0
 40
2.0
100
AcDbArc
 50
90.0
 51
179.9999999998957
  0
ARC
  5
1151
330
2
100
AcDbEntity
  8
0
100
AcDbCircle
 10
136.7724681355189
 20
417.1487703485996
 30
0.0
 40
2.0
100
AcDbArc
 50
89.99999999994789
 51
180.0
  0
ARC
  5
1152
330
2
100
AcDbEntity
  8
0
100
AcDbCircle
 10
136.7724681355189
 20
368.1487703485941
 30
0.0
 40
2.0
100
AcDbArc
 50
180.0
 51
270.000000000026
  0
ARC
  5
1153
330
2
100
AcDbEntity
  8
0
100
AcDbCircle
 10
153.2724681355298
 20
351.6487703485959
 30
0.0
 40
2.0
100
AcDbArc
 50
180.0
 51
270.0
  0
LINE
  5
1154
330
2
100
AcDbEntity
  8
CENTER
100
AcDbLine
 10
288.2724681355172
 20
431.8987703485977
 30
0.0
 11
288.272468135519
 21
453.3987703485977
 31
0.0
  0
LINE
  5
1155
330
2
100
AcDbEntity
  8
0
100
AcDbLine
 10
196.6658664177217
 20
351.0421686307978
 30
0.0
 11
195.2516528553493
 21
349.6279550684244
 31
0.0
  0
LINE
  5
1156
330
2
100
AcDbEntity
  8
0
100
AcDbLine
 10
281.2932834156914
 20
349.6279550684262
 30
0.0
 11
279.8790698533181
 21
351.0421686307996
 31
0.0
  0
LINE
  5
1157
330
2
100
AcDbEntity
  8
0
100
AcDbLine
 10
281.2932834156914
 20
435.6695856287674
 30
0.0
 11
279.879069853319
 21
434.2553720663941
 31
0.0
  0
LINE
  5
1158
330
2
100
AcDbEntity
  8
0
100
AcDbLine
 10
196.6658664177226
 20
434.2553720663941
 30
0.0
 11
195.2516528553493
 21
435.6695856287674
 31
0.0
  0
LINE
  5
1159
330
2
100
AcDbEntity
  8
CENTER
100
AcDbLine
 10
299.0224681355172
 20
342.6487703485978
 30
0.0
 11
277.5224681355172
 21
342.6487703485996
 31
0.0
  0
LINE
  5
115A
330
2
100
AcDbEntity
  8
CENTER
100
AcDbLine
 10
165.2724681355207
 20
355.1487703485996
 30
0.0
 11
149.2724681355207
 21
355.1487703485996
 31
0.0
  0
LINE
  5
115B
330
2
100
AcDbEntity
  8
CENTER
100
AcDbLine
 10
157.2724681355207
 20
347.1487703485996
 30
0.0
 11
157.2724681355207
 21
363.1487703485996
 31
0.0
  0
LINE
  5
115C
330
2
100
AcDbEntity
  8
CENTER
100
AcDbLine
 10
142.7724681355189
 20
346.8987703485996
 30
0.0
 11
142.7724681355207
 21
368.3987703485996
 31
0.0
  0
LINE
  5
115D
330
2
100
AcDbEntity
  8
CENTER
100
AcDbLine
 10
153.5224681355207
 20
357.6487703485996
 30
0.0
 11
132.0224681355207
 21
357.6487703485996
 31
0.0
  0
LINE
  5
115E
330
2
100
AcDbEntity
  8
CENTER
100
AcDbLine
 10
288.2724681355172
 20
353.3987703485978
 30
0.0
 11
288.272468135519
 21
331.8987703485977
 31
0.0
  0
CIRCLE
  5
115F
330
2
100
AcDbEntity
  8
0
100
AcDbCircle
 10
142.7724681355207
 20
427.6487703485959
 30
0.0
 40
5.63397459621558
  0
CIRCLE
  5
1160
330
2
100
AcDbEntity
  8
0
100
AcDbCircle
 10
142.7724681355207
 20
427.6487703485959
 30
0.0
 40
6.5
  0
LINE
  5
1161
330
2
100
AcDbEntity
  8
0
100
AcDbLine
 10
145.7724681355207
 20
425.9167195410277
 30
0.0
 11
145.7724681355207
 21
429.380821156166
 31
0.0
  0
LINE
  5
1162
330
2
100
AcDbEntity
  8
0
100
AcDbLine
 10
139.7724681355207
 20
429.380821156166
 30
0.0
 11
139.7724681355207
 21
425.9167195410277
 31
0.0
  0
LINE
  5
1163
330
2
100
AcDbEntity
  8
0
100
AcDbLine
 10
142.7724681355207
 20
424.1846687334597
 30
0.0
 11
145.7724681355207
 21
425.9167195410277
 31
0.0
  0
LINE
  5
1164
330
2
100
AcDbEntity
  8
0
100
AcDbLine
 10
139.7724681355207
 20
425.9167195410277
 30
0.0
 11
142.7724681355207
 21
424.1846687334578
 31
0.0
  0
LINE
  5
1165
330
2
100
AcDbEntity
  8
0
100
AcDbLine
 10
139.7724681355207
 20
429.380821156166
 30
0.0
 11
142.7724681355207
 21
431.112871963734
 31
0.0
  0
LINE
  5
1166
330
2
100
AcDbEntity
  8
0
100
AcDbLine
 10
142.7724681355207
 20
431.112871963734
 30
0.0
 11
145.7724681355207
 21
429.380821156166
 31
0.0
  0
CIRCLE
  5
1167
330
2
100
AcDbEntity
  8
0
100
AcDbCircle
 10
288.2724681355172
 20
442.6487703485959
 30
0.0
 40
5.63397459621558
  0
CIRCLE
  5
1168
330
2
100
AcDbEntity
  8
0
100
AcDbCircle
 10
288.2724681355172
 20
442.6487703485959
 30
0.0
 40
6.5
  0
LINE
  5
1169
330
2
100
AcDbEntity
  8
0
100
AcDbLine
 10
291.2724681355172
 20
440.9167195410278
 30
0.0
 11
291.2724681355172
 21
444.3808211561659
 31
0.0
  0
LINE
  5
116A
330
2
100
AcDbEntity
  8
0
100
AcDbLine
 10
285.2724681355172
 20
444.3808211561659
 30
0.0
 11
285.2724681355172
 21
440.9167195410278
 31
0.0
  0
LINE
  5
116B
330
2
100
AcDbEntity
  8
0
100
AcDbLine
 10
288.2724681355172
 20
439.1846687334596
 30
0.0
 11
291.2724681355172
 21
440.9167195410278
 31
0.0
  0
LINE
  5
116C
330
2
100
AcDbEntity
  8
0
100
AcDbLine
 10
285.2724681355172
 20
440.9167195410278
 30
0.0
 11
288.2724681355172
 21
439.1846687334596
 31
0.0
  0
LINE
  5
116D
330
2
100
AcDbEntity
  8
0
100
AcDbLine
 10
285.2724681355172
 20
444.3808211561659
 30
0.0
 11
288.2724681355172
 21
446.1128719637341
 31
0.0
  0
LINE
  5
116E
330
2
100
AcDbEntity
  8
0
100
AcDbLine
 10
288.2724681355172
 20
446.1128719637341
 30
0.0
 11
291.2724681355172
 21
444.3808211561659
 31
0.0
  0
CIRCLE
  5
116F
330
2
100
AcDbEntity
  8
0
100
AcDbCircle
 10
142.7724681355207
 20
357.6487703485996
 30
0.0
 40
5.63397459621558
  0
CIRCLE
  5
1170
330
2
100
AcDbEntity
  8
0
100
AcDbCircle
 10
142.7724681355207
 20
357.6487703485996
 30
0.0
 40
6.5
  0
LINE
  5
1171
330
2
100
AcDbEntity
  8
0
100
AcDbLine
 10
145.7724681355207
 20
355.9167195410314
 30
0.0
 11
145.7724681355207
 21
359.3808211561677
 31
0.0
  0
LINE
  5
1172
330
2
100
AcDbEntity
  8
0
100
AcDbLine
 10
139.7724681355207
 20
359.3808211561677
 30
0.0
 11
139.7724681355207
 21
355.9167195410296
 31
0.0
  0
LINE
  5
1173
330
2
100
AcDbEntity
  8
0
100
AcDbLine
 10
142.7724681355207
 20
354.1846687334615
 30
0.0
 11
145.7724681355207
 21
355.9167195410314
 31
0.0
  0
LINE
  5
1174
330
2
100
AcDbEntity
  8
0
100
AcDbLine
 10
139.7724681355207
 20
355.9167195410296
 30
0.0
 11
142.7724681355207
 21
354.1846687334615
 31
0.0
  0
LINE
  5
1175
330
2
100
AcDbEntity
  8
0
100
AcDbLine
 10
139.7724681355207
 20
359.3808211561677
 30
0.0
 11
142.7724681355207
 21
361.1128719637377
 31
0.0
  0
LINE
  5
1176
330
2
100
AcDbEntity
  8
0
100
AcDbLine
 10
142.7724681355207
 20
361.1128719637377
 30
0.0
 11
145.7724681355207
 21
359.3808211561677
 31
0.0
  0
CIRCLE
  5
1177
330
2
100
AcDbEntity
  8
0
100
AcDbCircle
 10
288.2724681355172
 20
342.6487703485996
 30
0.0
 40
5.63397459621558
  0
CIRCLE
  5
1178
330
2
100
AcDbEntity
  8
0
100
AcDbCircle
 10
288.2724681355172
 20
342.6487703485996
 30
0.0
 40
6.5
  0
LINE
  5
1179
330
2
100
AcDbEntity
  8
0
100
AcDbLine
 10
291.2724681355172
 20
340.9167195410296
 30
0.0
 11
291.2724681355172
 21
344.3808211561677
 31
0.0
  0
LINE
  5
117A
330
2
100
AcDbEntity
  8
0
100
AcDbLine
 10
285.2724681355172
 20
344.3808211561677
 30
0.0
 11
285.2724681355172
 21
340.9167195410296
 31
0.0
  0
LINE
  5
117B
330
2
100
AcDbEntity
  8
0
100
AcDbLine
 10
288.2724681355172
 20
339.1846687334614
 30
0.0
 11
291.2724681355172
 21
340.9167195410296
 31
0.0
  0
LINE
  5
117C
330
2
100
AcDbEntity
  8
0
100
AcDbLine
 10
285.2724681355172
 20
340.9167195410296
 30
0.0
 11
288.2724681355172
 21
339.1846687334614
 31
0.0
  0
LINE
  5
117D
330
2
100
AcDbEntity
  8
0
100
AcDbLine
 10
285.2724681355172
 20
344.3808211561677
 30
0.0
 11
288.2724681355172
 21
346.1128719637377
 31
0.0
  0
LINE
  5
117E
330
2
100
AcDbEntity
  8
0
100
AcDbLine
 10
288.2724681355172
 20
346.1128719637377
 30
0.0
 11
291.2724681355172
 21
344.3808211561677
 31
0.0
  0
LINE
  5
117F
330
2
100
AcDbEntity
  8
0
100
AcDbLine
 10
395.803258500077
 20
450.5221546088629
 30
0.0
 11
395.803258500077
 21
449.1487703485995
 31
0.0
  0
LINE
  5
1180
330
2
100
AcDbEntity
  8
HIDS
100
AcDbLine
 10
395.803258500077
 20
449.1487703485995
 30
0.0
 11
395.803258500077
 21
436.1487703485996
 31
0.0
  0
LINE
  5
1181
330
2
100
AcDbEntity
  8
0
100
AcDbLine
 10
395.803258500077
 20
436.1487703485996
 30
0.0
 11
395.803258500077
 21
349.1487703485996
 31
0.0
  0
LINE
  5
1182
330
2
100
AcDbEntity
  8
HIDS
100
AcDbLine
 10
395.8032585000761
 20
349.1487703485996
 30
0.0
 11
395.803258500077
 21
336.1487703485996
 31
0.0
  0
LINE
  5
1183
330
2
100
AcDbEntity
  8
0
100
AcDbLine
 10
395.803258500077
 20
336.1487703485996
 30
0.0
 11
395.803258500077
 21
334.7753860883381
 31
0.0
  0
ARC
  5
1184
330
2
100
AcDbEntity
  8
0
100
AcDbCircle
 10
397.803258500077
 20
334.7753860883381
 30
0.0
 40
2.0
100
AcDbArc
 50
180.0
 51
269.5000000000345
  0
LINE
  5
1185
330
2
100
AcDbEntity
  8
0
100
AcDbLine
 10
412.3032585000798
 20
452.6487703485996
 30
0.0
 11
412.303258500087
 21
332.6487703485996
 31
0.0
  0
LINE
  5
1186
330
2
100
AcDbEntity
  8
0
100
AcDbLine
 10
390.0032585000768
 20
430.1487703485996
 30
0.0
 11
393.303258500077
 21
430.1487703485996
 31
0.0
  0
LINE
  5
1187
330
2
100
AcDbEntity
  8
HIDS
100
AcDbLine
 10
393.803258500077
 20
347.4771974733462
 30
0.0
 11
393.803258500077
 21
349.1487703485996
 31
0.0
  0
LINE
  5
1188
330
2
100
AcDbEntity
  8
0
100
AcDbLine
 10
393.803258500077
 20
349.1487703485996
 30
0.0
 11
393.803258500077
 21
436.1487703485996
 31
0.0
  0
LINE
  5
1189
330
2
100
AcDbEntity
  8
HIDS
100
AcDbLine
 10
393.803258500077
 20
436.1487703485996
 30
0.0
 11
393.803258500077
 21
437.8203432238548
 31
0.0
  0
LINE
  5
118A
330
2
100
AcDbEntity
  8
HIDS
100
AcDbLine
 10
395.2174720624503
 20
440.0629839109729
 30
0.0
 11
394.3890449377036
 21
439.2345567862262
 31
0.0
  0
LINE
  5
118B
330
2
100
AcDbEntity
  8
0
100
AcDbLine
 10
393.803258500077
 20
432.6487703485995
 30
0.0
 11
393.303258500077
 21
432.1487703485995
 31
0.0
  0
LINE
  5
118C
330
2
100
AcDbEntity
  8
0
100
AcDbLine
 10
386.3032585000761
 20
430.1487703485996
 30
0.0
 11
387.6032585000763
 21
430.1487703485996
 31
0.0
  0
LINE
  5
118D
330
2
100
AcDbEntity
  8
0
100
AcDbLine
 10
389.8032585000761
 20
429.9487703486007
 30
0.0
 11
390.0032585000768
 21
430.1487703485996
 31
0.0
  0
LINE
  5
118E
330
2
100
AcDbEntity
  8
0
100
AcDbLine
 10
388.0032585000768
 20
429.4487703486007
 30
0.0
 11
389.6032585000763
 21
429.4487703486007
 31
0.0
  0
LINE
  5
118F
330
2
100
AcDbEntity
  8
0
100
AcDbLine
 10
386.303258500077
 20
430.1487703485996
 30
0.0
 11
385.3032585000761
 21
429.5714200794096
 31
0.0
  0
LINE
  5
1190
330
2
100
AcDbEntity
  8
0
100
AcDbLine
 10
412.303258500087
 20
332.6487703485996
 30
0.0
 11
397.7858054290805
 21
332.7754622422103
 31
0.0
  0
LINE
  5
1191
330
2
100
AcDbEntity
  8
HIDS
100
AcDbLine
 10
395.2174720624503
 20
345.2345567862262
 30
0.0
 11
394.3890449377036
 21
346.0629839109729
 31
0.0
  0
LINE
  5
1192
330
2
100
AcDbEntity
  8
0
100
AcDbLine
 10
385.303258500077
 20
429.5714200794096
 30
0.0
 11
385.303258500077
 21
355.7261206177896
 31
0.0
  0
LINE
  5
1193
330
2
100
AcDbEntity
  8
0
100
AcDbLine
 10
390.0032585000768
 20
355.1487703485996
 30
0.0
 11
393.303258500077
 21
355.1487703485996
 31
0.0
  0
LINE
  5
1194
330
2
100
AcDbEntity
  8
0
100
AcDbLine
 10
393.303258500077
 20
353.1487703485996
 30
0.0
 11
393.303258500077
 21
432.1487703485995
 31
0.0
  0
LINE
  5
1195
330
2
100
AcDbEntity
  8
0
100
AcDbLine
 10
393.803258500077
 20
352.6487703485996
 30
0.0
 11
393.303258500077
 21
353.1487703485996
 31
0.0
  0
LINE
  5
1196
330
2
100
AcDbEntity
  8
0
100
AcDbLine
 10
386.303258500077
 20
355.1487703485996
 30
0.0
 11
387.6032585000772
 21
355.1487703485996
 31
0.0
  0
LINE
  5
1197
330
2
100
AcDbEntity
  8
0
100
AcDbLine
 10
387.803258500077
 20
355.3487703486003
 30
0.0
 11
387.803258500077
 21
429.9487703486007
 31
0.0
  0
LINE
  5
1198
330
2
100
AcDbEntity
  8
0
100
AcDbLine
 10
389.803258500077
 20
355.3487703486003
 30
0.0
 11
389.803258500077
 21
429.9487703486007
 31
0.0
  0
LINE
  5
1199
330
2
100
AcDbEntity
  8
0
100
AcDbLine
 10
389.803258500077
 20
355.3487703486003
 30
0.0
 11
390.0032585000768
 21
355.1487703485996
 31
0.0
  0
LINE
  5
119A
330
2
100
AcDbEntity
  8
0
100
AcDbLine
 10
386.303258500077
 20
355.1487703485996
 30
0.0
 11
385.303258500077
 21
355.7261206177896
 31
0.0
  0
ARC
  5
119B
330
2
100
AcDbEntity
  8
HIDS
100
AcDbCircle
 10
395.803258500077
 20
437.8203432238548
 30
0.0
 40
2.0
100
AcDbArc
 50
134.9999999999905
 51
180.0
  0
ARC
  5
119C
330
2
100
AcDbEntity
  8
HIDS
100
AcDbCircle
 10
393.803258500077
 20
441.4771974733462
 30
0.0
 40
2.0
100
AcDbArc
 50
314.9999999999905
 51
0.0
  0
ARC
  5
119D
330
2
100
AcDbEntity
  8
HIDS
100
AcDbCircle
 10
395.803258500077
 20
347.4771974733462
 30
0.0
 40
2.0
100
AcDbArc
 50
180.0
 51
225.0000000000094
  0
ARC
  5
119E
330
2
100
AcDbEntity
  8
HIDS
100
AcDbCircle
 10
393.803258500077
 20
343.8203432238529
 30
0.0
 40
2.0
100
AcDbArc
 50
0.0
 51
45.00000000000949
  0
ARC
  5
119F
330
2
100
AcDbEntity
  8
0
100
AcDbCircle
 10
387.6032585000772
 20
355.3487703486003
 30
0.0
 40
0.2
100
AcDbArc
 50
270.0
 51
0.0
  0
ARC
  5
11A0
330
2
100
AcDbEntity
  8
0
100
AcDbCircle
 10
388.0032585000768
 20
355.6487703485996
 30
0.0
 40
0.2
100
AcDbArc
 50
90.0
 51
180.0
  0
ARC
  5
11A1
330
2
100
AcDbEntity
  8
0
100
AcDbCircle
 10
389.6032585000772
 20
355.6487703485996
 30
0.0
 40
0.2
100
AcDbArc
 50
0.0
 51
90.0
  0
ARC
  5
11A2
330
2
100
AcDbEntity
  8
0
100
AcDbCircle
 10
387.6032585000763
 20
429.9487703486007
 30
0.0
 40
0.2
100
AcDbArc
 50
0.0
 51
90.0
  0
ARC
  5
11A3
330
2
100
AcDbEntity
  8
0
100
AcDbCircle
 10
388.0032585000768
 20
429.6487703485996
 30
0.0
 40
0.2
100
AcDbArc
 50
180.0
 51
270.0
  0
ARC
  5
11A4
330
2
100
AcDbEntity
  8
0
100
AcDbCircle
 10
389.6032585000763
 20
429.6487703485996
 30
0.0
 40
0.2
100
AcDbArc
 50
270.0
 51
0.0
  0
LINE
  5
11A5
330
2
100
AcDbEntity
  8
0
100
AcDbLine
 10
386.303258500077
 20
355.1487703485996
 30
0.0
 11
386.303258500077
 21
430.1487703485996
 31
0.0
  0
LINE
  5
11A6
330
2
100
AcDbEntity
  8
0
100
AcDbLine
 10
390.0032585000768
 20
355.1487703485996
 30
0.0
 11
390.0032585000768
 21
430.1487703485996
 31
0.0
  0
LINE
  5
11A7
330
2
100
AcDbEntity
  8
0
100
AcDbLine
 10
402.303258499936
 20
350.653114743303
 30
0.0
 11
402.303258499936
 21
333.727350237104
 31
0.0
  0
LINE
  5
11A8
330
2
100
AcDbEntity
  8
0
100
AcDbLine
 10
401.8076217676858
 20
351.1530957048376
 30
0.0
 11
397.7858054290805
 21
351.1881935643028
 31
0.0
  0
ARC
  5
11A9
330
2
100
AcDbEntity
  8
0
100
AcDbCircle
 10
401.803258499936
 20
350.653114743303
 30
0.0
 40
0.5
100
AcDbArc
 50
0.0
 51
89.5000000000345
  0
ARC
  5
11AA
330
2
100
AcDbEntity
  8
0
100
AcDbCircle
 10
403.303258499936
 20
333.727350237104
 30
0.0
 40
1.0
100
AcDbArc
 50
180.0
 51
269.4999999999824
  0
ARC
  5
11AB
330
2
100
AcDbEntity
  8
0
100
AcDbCircle
 10
397.803258500077
 20
353.1881174104306
 30
0.0
 40
2.0
100
AcDbArc
 50
180.0
 51
269.5000000000345
  0
ARC
  5
11AC
330
2
100
AcDbEntity
  8
0
100
AcDbCircle
 10
397.803258500077
 20
450.5221546088629
 30
0.0
 40
2.0
100
AcDbArc
 50
90.49999999996549
 51
180.0
  0
LINE
  5
11AD
330
2
100
AcDbEntity
  8
0
100
AcDbLine
 10
412.3032585000798
 20
452.6487703485996
 30
0.0
 11
397.7858054290805
 21
452.5220784549906
 31
0.0
  0
LINE
  5
11AE
330
2
100
AcDbEntity
  8
0
100
AcDbLine
 10
402.303258499936
 20
434.644425953898
 30
0.0
 11
402.303258499936
 21
451.5701904600951
 31
0.0
  0
LINE
  5
11AF
330
2
100
AcDbEntity
  8
0
100
AcDbLine
 10
401.8076217676858
 20
434.1444449923634
 30
0.0
 11
397.7858054290805
 21
434.1093471328964
 31
0.0
  0
ARC
  5
11B0
330
2
100
AcDbEntity
  8
0
100
AcDbCircle
 10
401.803258499936
 20
434.644425953898
 30
0.0
 40
0.5
100
AcDbArc
 50
270.4999999999654
 51
0.0
  0
ARC
  5
11B1
330
2
100
AcDbEntity
  8
0
100
AcDbCircle
 10
403.303258499936
 20
451.5701904600951
 30
0.0
 40
1.0
100
AcDbArc
 50
90.50000000001761
 51
180.0
  0
ARC
  5
11B2
330
2
100
AcDbEntity
  8
0
100
AcDbCircle
 10
397.803258500077
 20
432.1094232867686
 30
0.0
 40
2.0
100
AcDbArc
 50
90.49999999996549
 51
180.0
  0
LINE
  5
11B3
330
2
100
AcDbEntity
  8
0
100
AcDbLine
 10
392.3032584999361
 20
437.0147957523837
 30
0.0
 11
392.3032584999361
 21
448.2827449448155
 31
0.0
  0
LINE
  5
11B4
330
2
100
AcDbEntity
  8
0
100
AcDbLine
 10
400.3032584999361
 20
436.1487703485996
 30
0.0
 11
400.3032584999369
 21
449.1487703485995
 31
0.0
  0
LINE
  5
11B5
330
2
100
AcDbEntity
  8
0
100
AcDbLine
 10
392.803258499936
 20
449.1487703485995
 30
0.0
 11
392.3032584999361
 21
448.2827449448155
 31
0.0
  0
LINE
  5
11B6
330
2
100
AcDbEntity
  8
0
100
AcDbLine
 10
402.303258499936
 20
449.1487703485995
 30
0.0
 11
400.3032584999361
 21
449.1487703485995
 31
0.0
  0
LINE
  5
11B7
330
2
100
AcDbEntity
  8
0
100
AcDbLine
 10
400.3032584999361
 20
449.1487703485995
 30
0.0
 11
392.803258499936
 21
449.1487703485995
 31
0.0
  0
LINE
  5
11B8
330
2
100
AcDbEntity
  8
CENTER
  6
CENS
100
AcDbLine
 10
419.0631407919314
 20
442.6487703485996
 30
0.0
 11
389.303258499936
 21
442.6487703485996
 31
0.0
  0
LINE
  5
11B9
330
2
100
AcDbEntity
  8
0
100
AcDbLine
 10
392.803258499936
 20
436.1487703485996
 30
0.0
 11
392.3032584999361
 21
437.0147957523837
 31
0.0
  0
LINE
  5
11BA
330
2
100
AcDbEntity
  8
0
100
AcDbLine
 10
402.303258499936
 20
436.1487703485996
 30
0.0
 11
400.3032584999361
 21
436.1487703485996
 31
0.0
  0
LINE
  5
11BB
330
2
100
AcDbEntity
  8
0
100
AcDbLine
 10
400.3032584999361
 20
436.1487703485996
 30
0.0
 11
392.803258499936
 21
436.1487703485996
 31
0.0
  0
LINE
  5
11BC
330
2
100
AcDbEntity
  8
0
100
AcDbLine
 10
392.803258499936
 20
436.1487703485996
 30
0.0
 11
392.803258499936
 21
449.1487703485995
 31
0.0
  0
LINE
  5
11BD
330
2
100
AcDbEntity
  8
0
100
AcDbLine
 10
403.2945319644382
 20
342.6487703485996
 30
0.0
 11
412.3032585000852
 21
342.6487703485996
 31
0.0
  0
LINE
  5
11BE
330
2
100
AcDbEntity
  8
0
100
AcDbLine
 10
403.2945319644382
 20
346.6487703486032
 30
0.0
 11
412.3032585000852
 21
346.6487703486032
 31
0.0
  0
LINE
  5
11BF
330
2
100
AcDbEntity
  8
0
100
AcDbLine
 10
397.7858054290805
 20
369.6447419269039
 30
0.0
 11
412.3032585000833
 21
369.6447419269039
 31
0.0
  0
LINE
  5
11C0
330
2
100
AcDbEntity
  8
0
100
AcDbLine
 10
403.2945319644382
 20
442.6487703486014
 30
0.0
 11
412.3032585000852
 21
442.6487703486014
 31
0.0
  0
LINE
  5
11C1
330
2
100
AcDbEntity
  8
0
100
AcDbLine
 10
403.2945319644382
 20
438.6487703485977
 30
0.0
 11
412.3032585000852
 21
438.6487703485977
 31
0.0
  0
LINE
  5
11C2
330
2
100
AcDbEntity
  8
0
100
AcDbLine
 10
397.7858054290805
 20
415.6527987702952
 30
0.0
 11
412.3032585000833
 21
415.6527987702952
 31
0.0
  0
LINE
  5
11C3
330
2
100
AcDbEntity
  8
0
100
AcDbLine
 10
392.3032584999361
 20
348.2827449448155
 30
0.0
 11
392.3032584999361
 21
337.0147957523855
 31
0.0
  0
LINE
  5
11C4
330
2
100
AcDbEntity
  8
0
100
AcDbLine
 10
400.3032584999361
 20
349.1487703485996
 30
0.0
 11
400.3032584999369
 21
336.1487703485996
 31
0.0
  0
LINE
  5
11C5
330
2
100
AcDbEntity
  8
0
100
AcDbLine
 10
392.803258499936
 20
336.1487703485996
 30
0.0
 11
392.3032584999361
 21
337.0147957523855
 31
0.0
  0
LINE
  5
11C6
330
2
100
AcDbEntity
  8
0
100
AcDbLine
 10
402.303258499936
 20
336.1487703485996
 30
0.0
 11
400.3032584999361
 21
336.1487703485996
 31
0.0
  0
LINE
  5
11C7
330
2
100
AcDbEntity
  8
0
100
AcDbLine
 10
400.3032584999361
 20
336.1487703485996
 30
0.0
 11
392.803258499936
 21
336.1487703485996
 31
0.0
  0
LINE
  5
11C8
330
2
100
AcDbEntity
  8
CENTER
  6
CENS
100
AcDbLine
 10
419.0631407919314
 20
342.6487703485996
 30
0.0
 11
389.303258499936
 21
342.6487703485996
 31
0.0
  0
LINE
  5
11C9
330
2
100
AcDbEntity
  8
0
100
AcDbLine
 10
402.303258499936
 20
349.1487703485996
 30
0.0
 11
400.3032584999361
 21
349.1487703485996
 31
0.0
  0
LINE
  5
11CA
330
2
100
AcDbEntity
  8
0
100
AcDbLine
 10
400.3032584999361
 20
349.1487703485996
 30
0.0
 11
392.803258499936
 21
349.1487703485996
 31
0.0
  0
LINE
  5
11CB
330
2
100
AcDbEntity
  8
0
100
AcDbLine
 10
392.803258499936
 20
349.1487703485996
 30
0.0
 11
392.803258499936
 21
336.1487703485996
 31
0.0
  0
LINE
  5
11CC
330
2
100
AcDbEntity
  8
0
100
AcDbLine
 10
392.803258499936
 20
349.1487703485996
 30
0.0
 11
392.3032584999361
 21
348.2827449448155
 31
0.0
  0
LINE
  5
11CD
330
2
100
AcDbEntity
  8
0
100
AcDbLine
 10
1110.192525986807
 20
450.5221546088629
 30
0.0
 11
1110.192525986807
 21
434.1487703485977
 31
0.0
  0
LINE
  5
11CE
330
2
100
AcDbEntity
  8
0
100
AcDbLine
 10
1110.192525986807
 20
421.1487703485977
 30
0.0
 11
1110.192525986807
 21
364.1487703486014
 31
0.0
  0
LINE
  5
11CF
330
2
100
AcDbEntity
  8
0
100
AcDbLine
 10
1110.192525986807
 20
351.1487703486014
 30
0.0
 11
1110.192525986807
 21
334.7753860883381
 31
0.0
  0
ARC
  5
11D0
330
2
100
AcDbEntity
  8
0
100
AcDbCircle
 10
1108.192525986807
 20
334.7753860883381
 30
0.0
 40
2.0
100
AcDbArc
 50
270.4999999999654
 51
0.0
  0
LINE
  5
11D1
330
2
100
AcDbEntity
  8
0
100
AcDbLine
 10
1093.692525986805
 20
452.6487703485996
 30
0.0
 11
1093.692525986804
 21
433.7646240071403
 31
0.0
  0
LINE
  5
11D2
330
2
100
AcDbEntity
  8
0
100
AcDbLine
 10
1093.692525986799
 20
351.5329166900606
 30
0.0
 11
1093.692525986798
 21
332.6487703485996
 31
0.0
  0
LINE
  5
11D3
330
2
100
AcDbEntity
  8
0
100
AcDbLine
 10
1103.692525986803
 20
433.5788792495001
 30
0.0
 11
1103.692525986803
 21
419.6487703485978
 31
0.0
  0
ARC
  5
11D4
330
2
100
AcDbEntity
  8
0
100
AcDbCircle
 10
1101.692525986803
 20
433.5788792495001
 30
0.0
 40
2.0
100
AcDbArc
 50
0.0
 51
89.49999999998238
  0
LINE
  5
11D5
330
2
100
AcDbEntity
  8
0
100
AcDbLine
 10
1107.192525986803
 20
421.1487703485977
 30
0.0
 11
1107.1925259868
 21
364.1487703486014
 31
0.0
  0
ARC
  5
11D6
330
2
100
AcDbEntity
  8
0
100
AcDbCircle
 10
1105.192525986804
 20
433.5483352122333
 30
0.0
 40
2.0
100
AcDbArc
 50
17.4706712373192
 51
89.49999999998238
  0
LINE
  5
11D7
330
2
100
AcDbEntity
  8
0
100
AcDbLine
 10
1115.992525986808
 20
430.1487703485996
 30
0.0
 11
1113.692525986803
 21
430.1487703485996
 31
0.0
  0
LINE
  5
11D8
330
2
100
AcDbEntity
  8
0
100
AcDbLine
 10
1112.192525986807
 20
347.4771974733462
 30
0.0
 11
1112.192525986807
 21
351.1487703486014
 31
0.0
  0
LINE
  5
11D9
330
2
100
AcDbEntity
  8
0
100
AcDbLine
 10
1112.192525986807
 20
364.1487703486014
 30
0.0
 11
1112.192525986807
 21
421.1487703485977
 31
0.0
  0
LINE
  5
11DA
330
2
100
AcDbEntity
  8
0
100
AcDbLine
 10
1112.192525986807
 20
434.1487703485977
 30
0.0
 11
1112.192525986807
 21
437.8203432238548
 31
0.0
  0
LINE
  5
11DB
330
2
100
AcDbEntity
  8
0
100
AcDbLine
 10
1110.778312424433
 20
440.0629839109729
 30
0.0
 11
1111.60673954918
 21
439.2345567862262
 31
0.0
  0
LINE
  5
11DC
330
2
100
AcDbEntity
  8
0
100
AcDbLine
 10
1119.692525986808
 20
430.1487703485996
 30
0.0
 11
1118.392525986807
 21
430.1487703485996
 31
0.0
  0
LINE
  5
11DD
330
2
100
AcDbEntity
  8
0
100
AcDbLine
 10
1116.192525986808
 20
429.9487703486007
 30
0.0
 11
1115.992525986808
 21
430.1487703485996
 31
0.0
  0
LINE
  5
11DE
330
2
100
AcDbEntity
  8
0
100
AcDbLine
 10
1117.992525986808
 20
429.4487703486007
 30
0.0
 11
1116.392525986807
 21
429.4487703486007
 31
0.0
  0
LINE
  5
11DF
330
2
100
AcDbEntity
  8
0
100
AcDbLine
 10
1119.692525986807
 20
430.1487703485996
 30
0.0
 11
1120.692525986808
 21
429.5714200794096
 31
0.0
  0
LINE
  5
11E0
330
2
100
AcDbEntity
  8
0
100
AcDbLine
 10
1093.692525986798
 20
332.6487703485996
 30
0.0
 11
1108.209979057804
 21
332.7754622422103
 31
0.0
  0
LINE
  5
11E1
330
2
100
AcDbEntity
  8
0
100
AcDbLine
 10
1110.778312424433
 20
345.2345567862262
 30
0.0
 11
1111.60673954918
 21
346.0629839109729
 31
0.0
  0
LINE
  5
11E2
330
2
100
AcDbEntity
  8
0
100
AcDbLine
 10
1120.692525986807
 20
429.5714200794096
 30
0.0
 11
1120.692525986807
 21
355.7261206177896
 31
0.0
  0
LINE
  5
11E3
330
2
100
AcDbEntity
  8
0
100
AcDbLine
 10
1115.992525986808
 20
355.1487703485996
 30
0.0
 11
1113.692525986803
 21
355.1487703485996
 31
0.0
  0
LINE
  5
11E4
330
2
100
AcDbEntity
  8
0
100
AcDbLine
 10
1112.692525986807
 20
364.1487703486014
 30
0.0
 11
1112.692525986807
 21
421.1487703485977
 31
0.0
  0
LINE
  5
11E5
330
2
100
AcDbEntity
  8
0
100
AcDbLine
 10
1119.692525986807
 20
355.1487703485996
 30
0.0
 11
1118.392525986807
 21
355.1487703485996
 31
0.0
  0
LINE
  5
11E6
330
2
100
AcDbEntity
  8
0
100
AcDbLine
 10
1118.192525986807
 20
355.3487703486003
 30
0.0
 11
1118.192525986807
 21
429.9487703486007
 31
0.0
  0
LINE
  5
11E7
330
2
100
AcDbEntity
  8
0
100
AcDbLine
 10
1116.192525986807
 20
355.3487703486003
 30
0.0
 11
1116.192525986807
 21
429.9487703486007
 31
0.0
  0
LINE
  5
11E8
330
2
100
AcDbEntity
  8
0
100
AcDbLine
 10
1117.992525986808
 20
355.8487703486003
 30
0.0
 11
1116.392525986807
 21
355.8487703486003
 31
0.0
  0
LINE
  5
11E9
330
2
100
AcDbEntity
  8
0
100
AcDbLine
 10
1116.192525986807
 20
355.3487703486003
 30
0.0
 11
1115.992525986808
 21
355.1487703485996
 31
0.0
  0
LINE
  5
11EA
330
2
100
AcDbEntity
  8
0
100
AcDbLine
 10
1119.692525986807
 20
355.1487703485996
 30
0.0
 11
1120.692525986807
 21
355.7261206177896
 31
0.0
  0
ARC
  5
11EB
330
2
100
AcDbEntity
  8
0
100
AcDbCircle
 10
1110.192525986807
 20
437.8203432238548
 30
0.0
 40
2.0
100
AcDbArc
 50
0.0
 51
45.00000000000949
  0
ARC
  5
11EC
330
2
100
AcDbEntity
  8
0
100
AcDbCircle
 10
1112.192525986807
 20
441.4771974733462
 30
0.0
 40
2.0
100
AcDbArc
 50
180.0
 51
225.0000000000094
  0
ARC
  5
11ED
330
2
100
AcDbEntity
  8
0
100
AcDbCircle
 10
1110.192525986807
 20
347.4771974733462
 30
0.0
 40
2.0
100
AcDbArc
 50
314.9999999999905
 51
0.0
  0
ARC
  5
11EE
330
2
100
AcDbEntity
  8
0
100
AcDbCircle
 10
1112.192525986807
 20
343.8203432238529
 30
0.0
 40
2.0
100
AcDbArc
 50
134.9999999999905
 51
180.0
  0
ARC
  5
11EF
330
2
100
AcDbEntity
  8
0
100
AcDbCircle
 10
1118.392525986807
 20
355.3487703486003
 30
0.0
 40
0.2
100
AcDbArc
 50
180.0
 51
270.0
  0
ARC
  5
11F0
330
2
100
AcDbEntity
  8
0
100
AcDbCircle
 10
1117.992525986808
 20
355.6487703485996
 30
0.0
 40
0.2
100
AcDbArc
 50
0.0
 51
90.0
  0
ARC
  5
11F1
330
2
100
AcDbEntity
  8
0
100
AcDbCircle
 10
1116.392525986807
 20
355.6487703485996
 30
0.0
 40
0.2
100
AcDbArc
 50
90.0
 51
180.0
  0
ARC
  5
11F2
330
2
100
AcDbEntity
  8
0
100
AcDbCircle
 10
1118.392525986807
 20
429.9487703486007
 30
0.0
 40
0.2
100
AcDbArc
 50
90.0
 51
180.0
  0
ARC
  5
11F3
330
2
100
AcDbEntity
  8
0
100
AcDbCircle
 10
1117.992525986808
 20
429.6487703485996
 30
0.0
 40
0.2
100
AcDbArc
 50
270.0
 51
0.0
  0
ARC
  5
11F4
330
2
100
AcDbEntity
  8
0
100
AcDbCircle
 10
1116.392525986807
 20
429.6487703485996
 30
0.0
 40
0.2
100
AcDbArc
 50
180.0
 51
270.0
  0
LINE
  5
11F5
330
2
100
AcDbEntity
  8
0
100
AcDbLine
 10
1119.692525986807
 20
355.1487703485996
 30
0.0
 11
1119.692525986807
 21
430.1487703485996
 31
0.0
  0
LINE
  5
11F6
330
2
100
AcDbEntity
  8
0
100
AcDbLine
 10
1115.992525986808
 20
355.1487703485996
 30
0.0
 11
1115.992525986808
 21
430.1487703485996
 31
0.0
  0
ARC
  5
11F7
330
2
100
AcDbEntity
  8
0
100
AcDbCircle
 10
1108.192525986807
 20
450.5221546088629
 30
0.0
 40
2.0
100
AcDbArc
 50
0.0
 51
89.5000000000345
  0
LINE
  5
11F8
330
2
100
AcDbEntity
  8
0
100
AcDbLine
 10
1093.692525986805
 20
452.6487703485996
 30
0.0
 11
1108.209979057804
 21
452.5220784549906
 31
0.0
  0
LINE
  5
11F9
330
2
100
AcDbEntity
  8
0
100
AcDbLine
 10
1093.692525986803
 20
435.6487703485978
 30
0.0
 11
1105.2099790578
 21
435.5482590583611
 31
0.0
  0
LINE
  5
11FA
330
2
100
AcDbEntity
  8
0
100
AcDbLine
 10
1104.192525986803
 20
419.1487703485978
 30
0.0
 11
1105.192525986803
 21
419.1487703485978
 31
0.0
  0
ARC
  5
11FB
330
2
100
AcDbEntity
  8
0
100
AcDbCircle
 10
1104.192525986802
 20
419.6487703485978
 30
0.0
 40
0.5
100
AcDbArc
 50
179.9999999998957
 51
270.0000000000521
  0
ARC
  5
11FC
330
2
100
AcDbEntity
  8
0
100
AcDbCircle
 10
1105.192525986803
 20
417.1487703485977
 30
0.0
 40
2.0
100
AcDbArc
 50
0.0
 51
90.0
  0
LINE
  5
11FD
330
2
100
AcDbEntity
  8
0
100
AcDbLine
 10
1103.692525986803
 20
351.7186614476991
 30
0.0
 11
1103.692525986803
 21
365.6487703486014
 31
0.0
  0
ARC
  5
11FE
330
2
100
AcDbEntity
  8
0
100
AcDbCircle
 10
1101.692525986803
 20
351.7186614476991
 30
0.0
 40
2.0
100
AcDbArc
 50
270.5000000000175
 51
0.0
  0
LINE
  5
11FF
330
2
100
AcDbEntity
  8
0
100
AcDbLine
 10
1104.192525986803
 20
366.1487703486014
 30
0.0
 11
1105.192525986803
 21
366.1487703486014
 31
0.0
  0
ARC
  5
1200
330
2
100
AcDbEntity
  8
0
100
AcDbCircle
 10
1104.192525986802
 20
365.6487703486014
 30
0.0
 40
0.5
100
AcDbArc
 50
89.99999999994789
 51
180.0000000001042
  0
ARC
  5
1201
330
2
100
AcDbEntity
  8
0
100
AcDbCircle
 10
1105.192525986803
 20
368.1487703486014
 30
0.0
 40
2.0
100
AcDbArc
 50
270.0
 51
0.0
  0
LINE
  5
1202
330
2
100
AcDbEntity
  8
0
100
AcDbLine
 10
1093.692525986803
 20
349.6487703486014
 30
0.0
 11
1105.209979057796
 21
349.7492816388381
 31
0.0
  0
ARC
  5
1203
330
2
100
AcDbEntity
  8
0
100
AcDbCircle
 10
1105.192525986799
 20
351.7492054849658
 30
0.0
 40
2.0
100
AcDbArc
 50
270.5000000000175
 51
342.5293287626808
  0
LINE
  5
1204
330
2
100
AcDbEntity
  8
CENTER
  6
CENS
100
AcDbLine
 10
1115.192525986807
 20
427.6487703485978
 30
0.0
 11
1088.692525986803
 21
427.6487703485978
 31
0.0
  0
LINE
  5
1205
330
2
100
AcDbEntity
  8
0
100
AcDbLine
 10
1113.692525986803
 20
422.0147957523836
 30
0.0
 11
1113.692525986803
 21
433.2827449448137
 31
0.0
  0
LINE
  5
1206
330
2
100
AcDbEntity
  8
0
100
AcDbLine
 10
1103.692525986803
 20
421.1487703485977
 30
0.0
 11
1103.692525986803
 21
434.1487703485977
 31
0.0
  0
LINE
  5
1207
330
2
100
AcDbEntity
  8
0
100
AcDbLine
 10
1105.692525986803
 20
421.1487703485977
 30
0.0
 11
1105.692525986802
 21
434.1487703485977
 31
0.0
  0
LINE
  5
1208
330
2
100
AcDbEntity
  8
0
100
AcDbLine
 10
1113.192525986803
 20
434.1487703485977
 30
0.0
 11
1113.692525986803
 21
433.2827449448137
 31
0.0
  0
LINE
  5
1209
330
2
100
AcDbEntity
  8
0
100
AcDbLine
 10
1103.692525986803
 20
434.1487703485977
 30
0.0
 11
1105.692525986803
 21
434.1487703485977
 31
0.0
  0
LINE
  5
120A
330
2
100
AcDbEntity
  8
0
100
AcDbLine
 10
1105.692525986803
 20
434.1487703485977
 30
0.0
 11
1113.192525986803
 21
434.1487703485977
 31
0.0
  0
LINE
  5
120B
330
2
100
AcDbEntity
  8
0
100
AcDbLine
 10
1113.192525986803
 20
421.1487703485977
 30
0.0
 11
1113.692525986803
 21
422.0147957523819
 31
0.0
  0
LINE
  5
120C
330
2
100
AcDbEntity
  8
0
100
AcDbLine
 10
1103.692525986803
 20
421.1487703485977
 30
0.0
 11
1105.692525986803
 21
421.1487703485977
 31
0.0
  0
LINE
  5
120D
330
2
100
AcDbEntity
  8
0
100
AcDbLine
 10
1105.692525986803
 20
421.1487703485977
 30
0.0
 11
1113.192525986803
 21
421.1487703485977
 31
0.0
  0
LINE
  5
120E
330
2
100
AcDbEntity
  8
0
100
AcDbLine
 10
1113.192525986803
 20
421.1487703485977
 30
0.0
 11
1113.192525986803
 21
434.1487703485977
 31
0.0
  0
LINE
  5
120F
330
2
100
AcDbEntity
  8
CENTER
  6
CENS
100
AcDbLine
 10
1115.192525986807
 20
357.6487703486014
 30
0.0
 11
1088.692525986803
 21
357.6487703486014
 31
0.0
  0
LINE
  5
1210
330
2
100
AcDbEntity
  8
0
100
AcDbLine
 10
1113.692525986803
 20
363.2827449448173
 30
0.0
 11
1113.692525986803
 21
352.0147957523855
 31
0.0
  0
LINE
  5
1211
330
2
100
AcDbEntity
  8
0
100
AcDbLine
 10
1103.692525986803
 20
364.1487703486014
 30
0.0
 11
1103.692525986803
 21
351.1487703486014
 31
0.0
  0
LINE
  5
1212
330
2
100
AcDbEntity
  8
0
100
AcDbLine
 10
1105.692525986803
 20
364.1487703486014
 30
0.0
 11
1105.692525986802
 21
351.1487703486014
 31
0.0
  0
LINE
  5
1213
330
2
100
AcDbEntity
  8
0
100
AcDbLine
 10
1113.192525986803
 20
351.1487703486014
 30
0.0
 11
1113.692525986803
 21
352.0147957523855
 31
0.0
  0
LINE
  5
1214
330
2
100
AcDbEntity
  8
0
100
AcDbLine
 10
1103.692525986803
 20
351.1487703486014
 30
0.0
 11
1105.692525986803
 21
351.1487703486014
 31
0.0
  0
LINE
  5
1215
330
2
100
AcDbEntity
  8
0
100
AcDbLine
 10
1105.692525986803
 20
351.1487703486014
 30
0.0
 11
1113.192525986803
 21
351.1487703486014
 31
0.0
  0
LINE
  5
1216
330
2
100
AcDbEntity
  8
0
100
AcDbLine
 10
1113.192525986803
 20
364.1487703486014
 30
0.0
 11
1113.692525986803
 21
363.2827449448173
 31
0.0
  0
LINE
  5
1217
330
2
100
AcDbEntity
  8
0
100
AcDbLine
 10
1105.692525986803
 20
364.1487703486014
 30
0.0
 11
1113.192525986803
 21
364.1487703486014
 31
0.0
  0
LINE
  5
1218
330
2
100
AcDbEntity
  8
0
100
AcDbLine
 10
1113.192525986803
 20
364.1487703486014
 30
0.0
 11
1113.192525986803
 21
351.1487703486014
 31
0.0
  0
LINE
  5
1219
330
2
100
AcDbEntity
  8
0
100
AcDbLine
 10
1105.692525986803
 20
364.1487703486014
 30
0.0
 11
1103.692525986803
 21
364.1487703486014
 31
0.0
  0
LINE
  5
121A
330
2
100
AcDbEntity
  8
0
100
AcDbLine
 10
722.4438447674796
 20
713.1130842723901
 30
0.0
 11
620.9264671886889
 21
713.1130842723901
 31
0.0
  0
LINE
  5
121B
330
2
100
AcDbEntity
  8
HIDS
100
AcDbLine
 10
620.9264671886889
 20
713.1130842723901
 30
0.0
 11
607.9264671886889
 21
713.1130842723901
 31
0.0
  0
LINE
  5
121C
330
2
100
AcDbEntity
  8
0
100
AcDbLine
 10
607.9264671886889
 20
713.1130842723901
 30
0.0
 11
606.5530829284074
 21
713.1130842723901
 31
0.0
  0
ARC
  5
121D
330
2
100
AcDbEntity
  8
0
100
AcDbCircle
 10
606.5530829284074
 20
711.1130842723901
 30
0.0
 40
2.0
100
AcDbArc
 50
90.0
 51
179.5000000000344
  0
LINE
  5
121E
330
2
100
AcDbEntity
  8
0
100
AcDbLine
 10
767.9264671886661
 20
696.6130842729303
 30
0.0
 11
767.8259558984331
 21
708.1305373433874
 31
0.0
  0
ARC
  5
121F
330
2
100
AcDbEntity
  8
0
100
AcDbCircle
 10
765.8260320523053
 20
708.1130842723901
 30
0.0
 40
2.0
100
AcDbArc
 50
0.4999999999654926
 51
72.52932876217606
  0
ARC
  5
1220
330
2
100
AcDbEntity
  8
HIDS
100
AcDbCircle
 10
765.8260320523053
 20
708.1130842723901
 30
0.0
 40
2.0
100
AcDbArc
 50
72.52932876217606
 51
90.0
  0
ARC
  5
1221
330
2
100
AcDbEntity
  8
0
100
AcDbCircle
 10
766.8478873001671
 20
705.613084272532
 30
0.0
 40
1.0
100
AcDbArc
 50
0.4999999999654926
 51
90.0
  0
LINE
  5
1222
330
2
100
AcDbEntity
  8
0
100
AcDbLine
 10
767.9264671886698
 20
696.6130842723901
 30
0.0
 11
604.4264671886698
 21
696.613084272381
 31
0.0
  0
LINE
  5
1223
330
2
100
AcDbEntity
  8
HIDS
100
AcDbLine
 10
765.8260320523053
 20
710.11308427239
 30
0.0
 11
753.4264671886879
 21
710.11308427239
 31
0.0
  0
LINE
  5
1224
330
2
100
AcDbEntity
  8
0
100
AcDbLine
 10
753.4264671886879
 20
710.11308427239
 30
0.0
 11
725.4439590026371
 21
710.11308427239
 31
0.0
  0
LINE
  5
1225
330
2
100
AcDbEntity
  8
0
100
AcDbLine
 10
701.9264671886698
 20
718.9130842723912
 30
0.0
 11
701.9264671886698
 21
715.6130842723901
 31
0.0
  0
LINE
  5
1226
330
2
100
AcDbEntity
  8
HIDS
100
AcDbLine
 10
619.2548943134164
 20
715.1130842723901
 30
0.0
 11
620.9264671886879
 21
715.1130842723901
 31
0.0
  0
LINE
  5
1227
330
2
100
AcDbEntity
  8
0
100
AcDbLine
 10
620.9264671886889
 20
715.1130842723901
 30
0.0
 11
709.598040063924
 21
715.1130842723901
 31
0.0
  0
LINE
  5
1228
330
2
100
AcDbEntity
  8
0
100
AcDbLine
 10
711.8406807510431
 20
713.6988707100167
 30
0.0
 11
711.0122536262964
 21
714.5272978347634
 31
0.0
  0
LINE
  5
1229
330
2
100
AcDbEntity
  8
0
100
AcDbLine
 10
704.4264671886698
 20
715.1130842723901
 30
0.0
 11
703.9264671886698
 21
715.6130842723901
 31
0.0
  0
LINE
  5
122A
330
2
100
AcDbEntity
  8
0
100
AcDbLine
 10
701.9264671886698
 20
722.6130842723919
 30
0.0
 11
701.9264671886698
 21
721.3130842723908
 31
0.0
  0
LINE
  5
122B
330
2
100
AcDbEntity
  8
0
100
AcDbLine
 10
701.72646718867
 20
719.1130842723919
 30
0.0
 11
701.9264671886698
 21
718.9130842723912
 31
0.0
  0
LINE
  5
122C
330
2
100
AcDbEntity
  8
0
100
AcDbLine
 10
701.22646718867
 20
720.9130842723912
 30
0.0
 11
701.22646718867
 21
719.3130842723908
 31
0.0
  0
LINE
  5
122D
330
2
100
AcDbEntity
  8
0
100
AcDbLine
 10
701.9264671886698
 20
722.61308427239
 30
0.0
 11
701.3491169194797
 21
723.6130842723919
 31
0.0
  0
LINE
  5
122E
330
2
100
AcDbEntity
  8
0
100
AcDbLine
 10
604.4264671886698
 20
696.613084272381
 30
0.0
 11
604.5531590822796
 21
711.1305373433874
 31
0.0
  0
LINE
  5
122F
330
2
100
AcDbEntity
  8
HIDS
100
AcDbLine
 10
617.0122536262964
 20
713.6988707100167
 30
0.0
 11
617.8406807510431
 21
714.5272978347634
 31
0.0
  0
LINE
  5
1230
330
2
100
AcDbEntity
  8
0
100
AcDbLine
 10
701.3491169194797
 20
723.6130842723901
 30
0.0
 11
627.5038174578598
 21
723.6130842723901
 31
0.0
  0
LINE
  5
1231
330
2
100
AcDbEntity
  8
0
100
AcDbLine
 10
626.9264671886698
 20
718.9130842723912
 30
0.0
 11
626.9264671886698
 21
715.6130842723901
 31
0.0
  0
LINE
  5
1232
330
2
100
AcDbEntity
  8
0
100
AcDbLine
 10
624.9264671886698
 20
715.6130842723901
 30
0.0
 11
703.9264671886698
 21
715.6130842723901
 31
0.0
  0
LINE
  5
1233
330
2
100
AcDbEntity
  8
0
100
AcDbLine
 10
624.4264671886697
 20
715.1130842723901
 30
0.0
 11
624.9264671886698
 21
715.6130842723901
 31
0.0
  0
LINE
  5
1234
330
2
100
AcDbEntity
  8
0
100
AcDbLine
 10
626.9264671886698
 20
722.61308427239
 30
0.0
 11
626.9264671886698
 21
721.3130842723908
 31
0.0
  0
LINE
  5
1235
330
2
100
AcDbEntity
  8
0
100
AcDbLine
 10
627.1264671886704
 20
721.1130842723901
 30
0.0
 11
701.72646718867
 21
721.1130842723901
 31
0.0
  0
LINE
  5
1236
330
2
100
AcDbEntity
  8
0
100
AcDbLine
 10
627.1264671886696
 20
719.11308427239
 30
0.0
 11
701.7264671886708
 21
719.11308427239
 31
0.0
  0
LINE
  5
1237
330
2
100
AcDbEntity
  8
0
100
AcDbLine
 10
627.6264671886695
 20
720.9130842723912
 30
0.0
 11
627.6264671886695
 21
719.3130842723908
 31
0.0
  0
LINE
  5
1238
330
2
100
AcDbEntity
  8
0
100
AcDbLine
 10
627.1264671886696
 20
719.11308427239
 30
0.0
 11
626.9264671886698
 21
718.9130842723912
 31
0.0
  0
LINE
  5
1239
330
2
100
AcDbEntity
  8
0
100
AcDbLine
 10
626.9264671886698
 20
722.61308427239
 30
0.0
 11
627.5038174578598
 21
723.6130842723901
 31
0.0
  0
ARC
  5
123A
330
2
100
AcDbEntity
  8
0
100
AcDbCircle
 10
709.598040063924
 20
713.1130842723901
 30
0.0
 40
2.0
100
AcDbArc
 50
45.00000000000949
 51
90.0
  0
ARC
  5
123B
330
2
100
AcDbEntity
  8
0
100
AcDbCircle
 10
713.2548943134164
 20
715.1130842723901
 30
0.0
 40
2.0
100
AcDbArc
 50
225.0000000000094
 51
270.0
  0
ARC
  5
123C
330
2
100
AcDbEntity
  8
HIDS
100
AcDbCircle
 10
619.2548943134164
 20
713.1130842723901
 30
0.0
 40
2.0
100
AcDbArc
 50
90.0
 51
134.9999999999905
  0
ARC
  5
123D
330
2
100
AcDbEntity
  8
HIDS
100
AcDbCircle
 10
615.5980400639231
 20
715.1130842723901
 30
0.0
 40
2.0
100
AcDbArc
 50
270.0
 51
314.9999999999905
  0
LINE
  5
123E
330
2
100
AcDbEntity
  8
0
100
AcDbLine
 10
724.4437686136083
 20
711.1305373433874
 30
0.0
 11
724.4439970795732
 21
711.1043577368923
 31
0.0
  0
ARC
  5
123F
330
2
100
AcDbEntity
  8
0
100
AcDbCircle
 10
725.4439590026371
 20
711.1130842723901
 30
0.0
 40
1.0
100
AcDbArc
 50
180.4999999999655
 51
270.0
  0
ARC
  5
1240
330
2
100
AcDbEntity
  8
0
100
AcDbCircle
 10
722.4438447674796
 20
711.1130842723901
 30
0.0
 40
2.0
100
AcDbArc
 50
0.4999999999654926
 51
90.0
  0
ARC
  5
1241
330
2
100
AcDbEntity
  8
0
100
AcDbCircle
 10
627.1264671886704
 20
721.3130842723908
 30
0.0
 40
0.2
100
AcDbArc
 50
180.0
 51
270.0
  0
ARC
  5
1242
330
2
100
AcDbEntity
  8
0
100
AcDbCircle
 10
627.4264671886697
 20
720.9130842723912
 30
0.0
 40
0.2
100
AcDbArc
 50
0.0
 51
90.0
  0
ARC
  5
1243
330
2
100
AcDbEntity
  8
0
100
AcDbCircle
 10
627.4264671886697
 20
719.3130842723908
 30
0.0
 40
0.2
100
AcDbArc
 50
270.0
 51
0.0
  0
ARC
  5
1244
330
2
100
AcDbEntity
  8
0
100
AcDbCircle
 10
701.72646718867
 20
721.3130842723908
 30
0.0
 40
0.2
100
AcDbArc
 50
270.0
 51
0.0
  0
ARC
  5
1245
330
2
100
AcDbEntity
  8
0
100
AcDbCircle
 10
701.4264671886698
 20
720.9130842723912
 30
0.0
 40
0.2
100
AcDbArc
 50
90.0
 51
180.0
  0
ARC
  5
1246
330
2
100
AcDbEntity
  8
0
100
AcDbCircle
 10
701.4264671886698
 20
719.3130842723908
 30
0.0
 40
0.2
100
AcDbArc
 50
180.0
 51
270.0
  0
LINE
  5
1247
330
2
100
AcDbEntity
  8
0
100
AcDbLine
 10
626.9264671886698
 20
722.61308427239
 30
0.0
 11
701.9264671886698
 21
722.61308427239
 31
0.0
  0
LINE
  5
1248
330
2
100
AcDbEntity
  8
0
100
AcDbLine
 10
626.9264671886698
 20
718.9130842723912
 30
0.0
 11
701.9264671886698
 21
718.9130842723912
 31
0.0
  0
LINE
  5
1249
330
2
100
AcDbEntity
  8
0
100
AcDbLine
 10
724.4264671886697
 20
696.6130842723883
 30
0.0
 11
724.4264671886697
 21
711.3761590431181
 31
0.0
  0
LINE
  5
124A
330
2
100
AcDbEntity
  8
0
100
AcDbLine
 10
751.5053676864676
 20
707.0999957983781
 30
0.0
 11
751.4774680961139
 21
708.1654381690109
 31
0.0
  0
LINE
  5
124B
330
2
100
AcDbEntity
  8
0
100
AcDbLine
 10
752.0051963489553
 20
706.6130842725319
 30
0.0
 11
766.8478873001671
 21
706.6130842725319
 31
0.0
  0
ARC
  5
124C
330
2
100
AcDbEntity
  8
0
100
AcDbCircle
 10
752.0051963489553
 20
707.1130842725319
 30
0.0
 40
0.5
100
AcDbArc
 50
181.4999999999897
 51
270.0
  0
ARC
  5
124D
330
2
100
AcDbEntity
  8
0
100
AcDbCircle
 10
749.478153446163
 20
708.1130842723955
 30
0.0
 40
2.0
100
AcDbArc
 50
1.499999999989693
 51
90.0
  0
LINE
  5
124E
330
2
100
AcDbEntity
  8
0
100
AcDbLine
 10
622.4308115833722
 20
706.6130842725319
 30
0.0
 11
605.5050470771742
 21
706.6130842725319
 31
0.0
  0
LINE
  5
124F
330
2
100
AcDbEntity
  8
0
100
AcDbLine
 10
622.9307925449069
 20
707.1087210047822
 30
0.0
 11
622.965890404373
 21
711.1305373433874
 31
0.0
  0
ARC
  5
1250
330
2
100
AcDbEntity
  8
0
100
AcDbCircle
 10
622.4308115833722
 20
707.1130842725319
 30
0.0
 40
0.5
100
AcDbArc
 50
270.0
 51
359.5000000000345
  0
ARC
  5
1251
330
2
100
AcDbEntity
  8
0
100
AcDbCircle
 10
605.5050470771742
 20
705.613084272532
 30
0.0
 40
1.0
100
AcDbArc
 50
90.0
 51
179.5000000000344
  0
ARC
  5
1252
330
2
100
AcDbEntity
  8
0
100
AcDbCircle
 10
624.9658142505007
 20
711.1130842723901
 30
0.0
 40
2.0
100
AcDbArc
 50
90.0
 51
179.5000000000344
  0
LINE
  5
1253
330
2
100
AcDbEntity
  8
0
100
AcDbLine
 10
614.4264671886689
 20
705.6218108080297
 30
0.0
 11
614.4264671886689
 21
696.613084272381
 31
0.0
  0
LINE
  5
1254
330
2
100
AcDbEntity
  8
0
100
AcDbLine
 10
618.4264671886725
 20
705.6218108080297
 30
0.0
 11
618.4264671886725
 21
696.613084272381
 31
0.0
  0
LINE
  5
1255
330
2
100
AcDbEntity
  8
0
100
AcDbLine
 10
641.422438766974
 20
711.1305373433874
 30
0.0
 11
641.422438766974
 21
696.6130842723828
 31
0.0
  0
LINE
  5
1256
330
2
100
AcDbEntity
  8
0
100
AcDbLine
 10
714.4264671886706
 20
711.1305373433874
 30
0.0
 11
714.4264671886706
 21
696.613084272381
 31
0.0
  0
LINE
  5
1257
330
2
100
AcDbEntity
  8
0
100
AcDbLine
 10
710.426467188667
 20
711.1305373433874
 30
0.0
 11
710.426467188667
 21
696.613084272381
 31
0.0
  0
LINE
  5
1258
330
2
100
AcDbEntity
  8
0
100
AcDbLine
 10
687.4304956103655
 20
711.1305373433874
 30
0.0
 11
687.4304956103655
 21
696.6130842723828
 31
0.0
  0
LINE
  5
1259
330
2
100
AcDbEntity
  8
0
100
AcDbLine
 10
754.2924925924729
 20
716.6130842725319
 30
0.0
 11
765.5604417849039
 21
716.6130842725301
 31
0.0
  0
LINE
  5
125A
330
2
100
AcDbEntity
  8
0
100
AcDbLine
 10
753.4264671886879
 20
708.6130842725301
 30
0.0
 11
766.4264671886879
 21
708.6130842725301
 31
0.0
  0
LINE
  5
125B
330
2
100
AcDbEntity
  8
0
100
AcDbLine
 10
766.4264671886879
 20
716.1130842725301
 30
0.0
 11
765.5604417849039
 21
716.6130842725301
 31
0.0
  0
LINE
  5
125C
330
2
100
AcDbEntity
  8
0
100
AcDbLine
 10
766.4264671886879
 20
706.6130842725301
 30
0.0
 11
766.4264671886879
 21
708.6130842725301
 31
0.0
  0
LINE
  5
125D
330
2
100
AcDbEntity
  8
0
100
AcDbLine
 10
766.4264671886879
 20
708.6130842725301
 30
0.0
 11
766.4264671886879
 21
716.1130842725301
 31
0.0
  0
LINE
  5
125E
330
2
100
AcDbEntity
  8
CENTER
  6
CENS
100
AcDbLine
 10
759.926467188688
 20
690.3390922826251
 30
0.0
 11
759.926467188688
 21
719.6130842725319
 31
0.0
  0
LINE
  5
125F
330
2
100
AcDbEntity
  8
0
100
AcDbLine
 10
753.4264671886879
 20
716.1130842725319
 30
0.0
 11
754.2924925924721
 21
716.6130842725301
 31
0.0
  0
LINE
  5
1260
330
2
100
AcDbEntity
  8
0
100
AcDbLine
 10
753.4264671886879
 20
706.6130842725319
 30
0.0
 11
753.4264671886879
 21
708.6130842725319
 31
0.0
  0
LINE
  5
1261
330
2
100
AcDbEntity
  8
0
100
AcDbLine
 10
753.4264671886879
 20
708.6130842725319
 30
0.0
 11
753.4264671886879
 21
716.1130842725319
 31
0.0
  0
LINE
  5
1262
330
2
100
AcDbEntity
  8
0
100
AcDbLine
 10
753.4264671886879
 20
716.1130842725319
 30
0.0
 11
766.4264671886879
 21
716.1130842725301
 31
0.0
  0
LINE
  5
1263
330
2
100
AcDbEntity
  8
0
100
AcDbLine
 10
608.7924925924738
 20
716.6130842725319
 30
0.0
 11
620.0604417849039
 21
716.6130842725319
 31
0.0
  0
LINE
  5
1264
330
2
100
AcDbEntity
  8
0
100
AcDbLine
 10
607.9264671886889
 20
708.6130842725319
 30
0.0
 11
620.9264671886889
 21
708.6130842725301
 31
0.0
  0
LINE
  5
1265
330
2
100
AcDbEntity
  8
0
100
AcDbLine
 10
620.9264671886889
 20
716.1130842725319
 30
0.0
 11
620.0604417849039
 21
716.6130842725319
 31
0.0
  0
LINE
  5
1266
330
2
100
AcDbEntity
  8
0
100
AcDbLine
 10
620.9264671886889
 20
706.6130842725319
 30
0.0
 11
620.9264671886889
 21
708.6130842725319
 31
0.0
  0
LINE
  5
1267
330
2
100
AcDbEntity
  8
0
100
AcDbLine
 10
620.9264671886889
 20
708.6130842725319
 30
0.0
 11
620.9264671886889
 21
716.1130842725319
 31
0.0
  0
LINE
  5
1268
330
2
100
AcDbEntity
  8
CENTER
  6
CENS
100
AcDbLine
 10
614.4264671886888
 20
690.3390922826251
 30
0.0
 11
614.4264671886888
 21
719.6130842725319
 31
0.0
  0
LINE
  5
1269
330
2
100
AcDbEntity
  8
0
100
AcDbLine
 10
607.9264671886889
 20
716.1130842725319
 30
0.0
 11
608.7924925924738
 21
716.6130842725319
 31
0.0
  0
LINE
  5
126A
330
2
100
AcDbEntity
  8
0
100
AcDbLine
 10
607.9264671886889
 20
706.6130842725319
 30
0.0
 11
607.9264671886889
 21
708.6130842725319
 31
0.0
  0
LINE
  5
126B
330
2
100
AcDbEntity
  8
0
100
AcDbLine
 10
607.9264671886889
 20
708.6130842725319
 30
0.0
 11
607.9264671886889
 21
716.1130842725319
 31
0.0
  0
LINE
  5
126C
330
2
100
AcDbEntity
  8
0
100
AcDbLine
 10
607.9264671886889
 20
716.1130842725319
 30
0.0
 11
620.9264671886889
 21
716.1130842725319
 31
0.0
  0
LINE
  5
126D
330
2
100
AcDbEntity
  8
CENTER
100
AcDbLine
 10
477.5720424967454
 20
72.21723264763028
 30
0.0
 11
477.5720424967454
 21
211.6674399768126
 31
0.0
  0
LINE
  5
126E
330
2
100
AcDbEntity
  8
CENTER
100
AcDbLine
 10
407.0720424967463
 20
141.9423363122237
 30
0.0
 11
564.5720424967463
 21
141.9423363122237
 31
0.0
  0
LINE
  5
126F
330
2
100
AcDbEntity
  8
0
100
AcDbLine
 10
446.0720424967536
 20
201.9423363122219
 30
0.0
 11
522.5720424967445
 21
201.2747309262282
 31
0.0
  0
LINE
  5
1270
330
2
100
AcDbEntity
  8
0
100
AcDbLine
 10
446.0720424967481
 20
81.94233631222193
 30
0.0
 11
522.5720424967463
 21
82.60994169821385
 31
0.0
  0
LINE
  5
1271
330
2
100
AcDbEntity
  8
0
100
AcDbLine
 10
522.5720424967463
 20
82.60994169821385
 30
0.0
 11
522.5720424967454
 21
122.8340169358958
 31
0.0
  0
LINE
  5
1272
330
2
100
AcDbEntity
  8
0
100
AcDbLine
 10
522.5720424967454
 20
161.0506556885498
 30
0.0
 11
522.5720424967445
 21
201.2747309262282
 31
0.0
  0
LINE
  5
1273
330
2
100
AcDbEntity
  8
0
100
AcDbLine
 10
527.5720424967454
 20
86.94233631222193
 30
0.0
 11
527.5720424967454
 21
121.8823325623048
 31
0.0
  0
LINE
  5
1274
330
2
100
AcDbEntity
  8
0
100
AcDbLine
 10
527.5720424967454
 20
162.0023400621408
 30
0.0
 11
527.5720424967454
 21
196.9423363122219
 31
0.0
  0
LINE
  5
1275
330
2
100
AcDbEntity
  8
0
100
AcDbLine
 10
527.5720424967454
 20
86.94233631222193
 30
0.0
 11
522.5720424967454
 21
86.94233631222193
 31
0.0
  0
LINE
  5
1276
330
2
100
AcDbEntity
  8
0
100
AcDbLine
 10
527.5720424967454
 20
196.9423363122219
 30
0.0
 11
522.5720424967454
 21
196.9423363122219
 31
0.0
  0
LINE
  5
1277
330
2
100
AcDbEntity
  8
0
100
AcDbLine
 10
446.0720424967481
 20
81.94233631222193
 30
0.0
 11
446.0720424967499
 21
121.6825028113504
 31
0.0
  0
LINE
  5
1278
330
2
100
AcDbEntity
  8
0
100
AcDbLine
 10
541.5720424967463
 20
103.8737138618376
 30
0.0
 11
541.5720424967463
 21
119.9422903122227
 31
0.0
  0
LINE
  5
1279
330
2
100
AcDbEntity
  8
0
100
AcDbLine
 10
541.5720424967463
 20
163.9422903122227
 30
0.0
 11
541.5720424967463
 21
180.0109587626098
 31
0.0
  0
ARC
  5
127A
330
2
100
AcDbEntity
  8
0
100
AcDbCircle
 10
539.5720424967463
 20
180.0109587626098
 30
0.0
 40
2.0
100
AcDbArc
 50
0.0
 51
87.99999999999636
  0
ARC
  5
127B
330
2
100
AcDbEntity
  8
0
100
AcDbCircle
 10
539.5720424967463
 20
103.8737138618376
 30
0.0
 40
2.0
100
AcDbArc
 50
272.0000000000036
 51
0.0
  0
LINE
  5
127C
330
2
100
AcDbEntity
  8
0
100
AcDbLine
 10
529.5022435033412
 20
101.520849643764
 30
0.0
 11
539.6418414901514
 21
101.8749322077997
 31
0.0
  0
ARC
  5
127D
330
2
100
AcDbEntity
  8
0
100
AcDbCircle
 10
529.5720424967454
 20
99.52206798972618
 30
0.0
 40
2.0
100
AcDbArc
 50
92.00000000000365
 51
180.0
  0
LINE
  5
127E
330
2
100
AcDbEntity
  8
0
100
AcDbLine
 10
529.5022435033412
 20
182.3638229806834
 30
0.0
 11
539.6418414901514
 21
182.0097404166477
 31
0.0
  0
ARC
  5
127F
330
2
100
AcDbEntity
  8
0
100
AcDbCircle
 10
529.5720424967454
 20
184.3626046347213
 30
0.0
 40
2.0
100
AcDbArc
 50
180.0
 51
267.9999999999963
  0
LINE
  5
1280
330
2
100
AcDbEntity
  8
0
100
AcDbLine
 10
521.5720424967454
 20
191.9423363122219
 30
0.0
 11
446.0720424967536
 21
191.9423363122219
 31
0.0
  0
LINE
  5
1281
330
2
100
AcDbEntity
  8
0
100
AcDbLine
 10
521.5720424967454
 20
187.94233631222
 30
0.0
 11
446.0720424967536
 21
187.94233631222
 31
0.0
  0
LINE
  5
1282
330
2
100
AcDbEntity
  8
0
100
AcDbLine
 10
521.5720424967454
 20
164.9463647338939
 30
0.0
 11
446.0720424967518
 21
164.9463647338939
 31
0.0
  0
LINE
  5
1283
330
2
100
AcDbEntity
  8
0
100
AcDbLine
 10
521.5720424967464
 20
91.94233631222374
 30
0.0
 11
446.0720424967536
 21
91.94233631222374
 31
0.0
  0
LINE
  5
1284
330
2
100
AcDbEntity
  8
0
100
AcDbLine
 10
521.5720424967464
 20
95.94233631222738
 30
0.0
 11
446.0720424967536
 21
95.94233631222738
 31
0.0
  0
LINE
  5
1285
330
2
100
AcDbEntity
  8
0
100
AcDbLine
 10
521.5720424967454
 20
118.9383078905535
 30
0.0
 11
446.0720424967518
 21
118.9383078905535
 31
0.0
  0
LINE
  5
1286
330
2
100
AcDbEntity
  8
0
100
AcDbLine
 10
429.5720424967454
 20
199.8157205724852
 30
0.0
 11
429.5720424967454
 21
198.4423363122219
 31
0.0
  0
LINE
  5
1287
330
2
100
AcDbEntity
  8
HIDS
100
AcDbLine
 10
429.5720424967454
 20
198.4423363122219
 30
0.0
 11
429.5720424967454
 21
185.4423363122219
 31
0.0
  0
LINE
  5
1288
330
2
100
AcDbEntity
  8
0
100
AcDbLine
 10
429.5720424967454
 20
185.4423363122219
 30
0.0
 11
429.5720424967454
 21
175.6793748444757
 31
0.0
  0
LINE
  5
1289
330
2
100
AcDbEntity
  8
0
100
AcDbLine
 10
429.5720424967454
 20
108.2052977799699
 30
0.0
 11
429.5720424967454
 21
98.44233631222374
 31
0.0
  0
LINE
  5
128A
330
2
100
AcDbEntity
  8
HIDS
100
AcDbLine
 10
429.5720424967445
 20
98.44233631222374
 30
0.0
 11
429.5720424967454
 21
85.44233631222374
 31
0.0
  0
LINE
  5
128B
330
2
100
AcDbEntity
  8
0
100
AcDbLine
 10
429.5720424967454
 20
85.44233631222374
 30
0.0
 11
429.5720424967454
 21
84.06895205196049
 31
0.0
  0
ARC
  5
128C
330
2
100
AcDbEntity
  8
0
100
AcDbCircle
 10
431.5720424967454
 20
84.06895205196049
 30
0.0
 40
2.0
100
AcDbArc
 50
180.0
 51
269.5000000000345
  0
LINE
  5
128D
330
2
100
AcDbEntity
  8
0
100
AcDbLine
 10
446.0720424967481
 20
201.9423363122237
 30
0.0
 11
446.0720424967499
 21
162.2021698130952
 31
0.0
  0
LINE
  5
128E
330
2
100
AcDbEntity
  8
0
100
AcDbLine
 10
423.7720424967452
 20
179.4423363122237
 30
0.0
 11
427.0720424967454
 21
179.4423363122237
 31
0.0
  0
LINE
  5
128F
330
2
100
AcDbEntity
  8
HIDS
100
AcDbLine
 10
427.5720424967454
 20
96.7707634369686
 30
0.0
 11
427.5720424967454
 21
98.44233631222374
 31
0.0
  0
LINE
  5
1290
330
2
100
AcDbEntity
  8
0
100
AcDbLine
 10
427.5720424967454
 20
98.44233631222374
 30
0.0
 11
427.5720424967454
 21
107.9354169964859
 31
0.0
  0
LINE
  5
1291
330
2
100
AcDbEntity
  8
0
100
AcDbLine
 10
427.5720424967454
 20
175.9492556279615
 30
0.0
 11
427.5720424967454
 21
185.4423363122219
 31
0.0
  0
LINE
  5
1292
330
2
100
AcDbEntity
  8
HIDS
100
AcDbLine
 10
427.5720424967454
 20
185.4423363122219
 30
0.0
 11
427.5720424967454
 21
187.113909187477
 31
0.0
  0
LINE
  5
1293
330
2
100
AcDbEntity
  8
HIDS
100
AcDbLine
 10
428.9862560591187
 20
189.356549874597
 30
0.0
 11
428.1578289343721
 21
188.5281227498504
 31
0.0
  0
LINE
  5
1294
330
2
100
AcDbEntity
  8
0
100
AcDbLine
 10
427.5720424967454
 20
181.9423363122237
 30
0.0
 11
427.0720424967454
 21
181.4423363122237
 31
0.0
  0
LINE
  5
1295
330
2
100
AcDbEntity
  8
0
100
AcDbLine
 10
420.0720424967445
 20
179.4423363122237
 30
0.0
 11
421.3720424967447
 21
179.4423363122237
 31
0.0
  0
LINE
  5
1296
330
2
100
AcDbEntity
  8
0
100
AcDbLine
 10
423.5720424967444
 20
179.242336312223
 30
0.0
 11
423.7720424967452
 21
179.4423363122237
 31
0.0
  0
LINE
  5
1297
330
2
100
AcDbEntity
  8
0
100
AcDbLine
 10
421.7720424967452
 20
178.742336312223
 30
0.0
 11
423.3720424967446
 21
178.742336312223
 31
0.0
  0
LINE
  5
1298
330
2
100
AcDbEntity
  8
0
100
AcDbLine
 10
420.0720424967454
 20
179.4423363122237
 30
0.0
 11
419.0720424967445
 21
178.8649860430337
 31
0.0
  0
LINE
  5
1299
330
2
100
AcDbEntity
  8
0
100
AcDbLine
 10
420.0720424967454
 20
174.4423363122237
 30
0.0
 11
430.0720424967454
 21
174.4423363122219
 31
0.0
  0
LINE
  5
129A
330
2
100
AcDbEntity
  8
0
100
AcDbLine
 10
430.0720424967454
 20
174.8375926259464
 30
0.0
 11
430.9994795534063
 21
174.861878419973
 31
0.0
  0
LINE
  5
129B
330
2
100
AcDbEntity
  8
0
100
AcDbLine
 10
419.0720424967454
 20
175.0196865814119
 30
0.0
 11
420.0720424967454
 21
174.4423363122237
 31
0.0
  0
LINE
  5
129C
330
2
100
AcDbEntity
  8
0
100
AcDbLine
 10
446.0720424967554
 20
81.94233631222374
 30
0.0
 11
431.5545894257489
 21
82.0690282058327
 31
0.0
  0
LINE
  5
129D
330
2
100
AcDbEntity
  8
HIDS
100
AcDbLine
 10
428.9862560591187
 20
94.5281227498504
 30
0.0
 11
428.1578289343721
 21
95.35654987459707
 31
0.0
  0
LINE
  5
129E
330
2
100
AcDbEntity
  8
0
100
AcDbLine
 10
430.0720424967454
 20
109.0470799984992
 30
0.0
 11
430.0720424967463
 21
119.9422903122227
 31
0.0
  0
LINE
  5
129F
330
2
100
AcDbEntity
  8
0
100
AcDbLine
 10
430.0720424967454
 20
163.9422903122227
 30
0.0
 11
430.0720424967454
 21
174.8375926259464
 31
0.0
  0
LINE
  5
12A0
330
2
100
AcDbEntity
  8
0
100
AcDbLine
 10
419.0720424967454
 20
178.8649860430337
 30
0.0
 11
419.0720424967463
 21
163.9422903122227
 31
0.0
  0
LINE
  5
12A1
330
2
100
AcDbEntity
  8
0
100
AcDbLine
 10
419.0720424967463
 20
119.9422903122227
 30
0.0
 11
419.0720424967454
 21
105.0196865814137
 31
0.0
  0
LINE
  5
12A2
330
2
100
AcDbEntity
  8
0
100
AcDbLine
 10
420.0720424967454
 20
174.4423363122237
 30
0.0
 11
420.0720424967454
 21
163.9422903122227
 31
0.0
  0
LINE
  5
12A3
330
2
100
AcDbEntity
  8
0
100
AcDbLine
 10
420.0720424967454
 20
119.9422903122227
 30
0.0
 11
420.0720424967454
 21
109.4423363122237
 31
0.0
  0
LINE
  5
12A4
330
2
100
AcDbEntity
  8
0
100
AcDbLine
 10
423.7720424967452
 20
104.4423363122237
 30
0.0
 11
427.0720424967454
 21
104.4423363122237
 31
0.0
  0
LINE
  5
12A5
330
2
100
AcDbEntity
  8
0
100
AcDbLine
 10
420.0720424967454
 20
109.4423363122237
 30
0.0
 11
430.0720424967454
 21
109.4423363122237
 31
0.0
  0
LINE
  5
12A6
330
2
100
AcDbEntity
  8
0
100
AcDbLine
 10
427.0720424967454
 20
102.4423363122237
 30
0.0
 11
427.0720424967454
 21
107.9115246928809
 31
0.0
  0
LINE
  5
12A7
330
2
100
AcDbEntity
  8
0
100
AcDbLine
 10
427.0720424967454
 20
175.9731479315665
 30
0.0
 11
427.0720424967454
 21
181.4423363122237
 31
0.0
  0
LINE
  5
12A8
330
2
100
AcDbEntity
  8
0
100
AcDbLine
 10
427.5720424967454
 20
101.9423363122237
 30
0.0
 11
427.0720424967454
 21
102.4423363122237
 31
0.0
  0
LINE
  5
12A9
330
2
100
AcDbEntity
  8
0
100
AcDbLine
 10
420.0720424967454
 20
104.4423363122237
 30
0.0
 11
421.3720424967456
 21
104.4423363122237
 31
0.0
  0
LINE
  5
12AA
330
2
100
AcDbEntity
  8
0
100
AcDbLine
 10
421.5720424967454
 20
104.6423363122226
 30
0.0
 11
421.5720424967454
 21
107.3863058002858
 31
0.0
  0
LINE
  5
12AB
330
2
100
AcDbEntity
  8
0
100
AcDbLine
 10
421.5720424967454
 20
176.4983668241616
 30
0.0
 11
421.5720424967454
 21
179.242336312223
 31
0.0
  0
LINE
  5
12AC
330
2
100
AcDbEntity
  8
0
100
AcDbLine
 10
423.5720424967454
 20
104.6423363122226
 30
0.0
 11
423.5720424967454
 21
107.7277314058406
 31
0.0
  0
LINE
  5
12AD
330
2
100
AcDbEntity
  8
0
100
AcDbLine
 10
423.5720424967454
 20
176.1569412186032
 30
0.0
 11
423.5720424967454
 21
179.242336312223
 31
0.0
  0
LINE
  5
12AE
330
2
100
AcDbEntity
  8
0
100
AcDbLine
 10
421.7720424967452
 20
105.1423363122226
 30
0.0
 11
423.3720424967456
 21
105.1423363122226
 31
0.0
  0
LINE
  5
12AF
330
2
100
AcDbEntity
  8
0
100
AcDbLine
 10
423.5720424967454
 20
104.6423363122226
 30
0.0
 11
423.7720424967452
 21
104.4423363122237
 31
0.0
  0
LINE
  5
12B0
330
2
100
AcDbEntity
  8
0
100
AcDbLine
 10
420.0720424967454
 20
104.4423363122237
 30
0.0
 11
419.0720424967454
 21
105.0196865814137
 31
0.0
  0
LINE
  5
12B1
330
2
100
AcDbEntity
  8
0
100
AcDbLine
 10
419.0720424967454
 20
108.8649860430337
 30
0.0
 11
420.0720424967454
 21
109.4423363122237
 31
0.0
  0
LINE
  5
12B2
330
2
100
AcDbEntity
  8
0
100
AcDbLine
 10
430.0720424967454
 20
109.0470799984992
 30
0.0
 11
430.9994795534063
 21
109.0227942044744
 31
0.0
  0
ARC
  5
12B3
330
2
100
AcDbEntity
  8
HIDS
100
AcDbCircle
 10
429.5720424967454
 20
187.113909187477
 30
0.0
 40
2.0
100
AcDbArc
 50
134.9999999999905
 51
180.0
  0
ARC
  5
12B4
330
2
100
AcDbEntity
  8
HIDS
100
AcDbCircle
 10
427.5720424967454
 20
190.7707634369704
 30
0.0
 40
2.0
100
AcDbArc
 50
314.9999999999905
 51
0.0
  0
ARC
  5
12B5
330
2
100
AcDbEntity
  8
HIDS
100
AcDbCircle
 10
429.5720424967454
 20
96.7707634369686
 30
0.0
 40
2.0
100
AcDbArc
 50
180.0
 51
225.0000000000094
  0
ARC
  5
12B6
330
2
100
AcDbEntity
  8
HIDS
100
AcDbCircle
 10
427.5720424967454
 20
93.11390918747708
 30
0.0
 40
2.0
100
AcDbArc
 50
0.0
 51
45.00000000000949
  0
ARC
  5
12B7
330
2
100
AcDbEntity
  8
0
100
AcDbCircle
 10
421.3720424967456
 20
104.6423363122226
 30
0.0
 40
0.2
100
AcDbArc
 50
270.0
 51
0.0
  0
ARC
  5
12B8
330
2
100
AcDbEntity
  8
0
100
AcDbCircle
 10
421.7720424967452
 20
104.9423363122237
 30
0.0
 40
0.2
100
AcDbArc
 50
90.0
 51
180.0
  0
ARC
  5
12B9
330
2
100
AcDbEntity
  8
0
100
AcDbCircle
 10
423.3720424967456
 20
104.9423363122237
 30
0.0
 40
0.2
100
AcDbArc
 50
0.0
 51
90.0
  0
ARC
  5
12BA
330
2
100
AcDbEntity
  8
0
100
AcDbCircle
 10
421.3720424967447
 20
179.242336312223
 30
0.0
 40
0.2
100
AcDbArc
 50
0.0
 51
90.0
  0
ARC
  5
12BB
330
2
100
AcDbEntity
  8
0
100
AcDbCircle
 10
421.7720424967452
 20
178.9423363122237
 30
0.0
 40
0.2
100
AcDbArc
 50
180.0
 51
270.0
  0
ARC
  5
12BC
330
2
100
AcDbEntity
  8
0
100
AcDbCircle
 10
423.3720424967446
 20
178.9423363122237
 30
0.0
 40
0.2
100
AcDbArc
 50
270.0
 51
0.0
  0
LINE
  5
12BD
330
2
100
AcDbEntity
  8
0
100
AcDbLine
 10
420.0720424967454
 20
104.4423363122237
 30
0.0
 11
420.0720424967454
 21
106.9279034632668
 31
0.0
  0
LINE
  5
12BE
330
2
100
AcDbEntity
  8
0
100
AcDbLine
 10
420.0720424967454
 20
176.9567691611787
 30
0.0
 11
420.0720424967454
 21
179.4423363122237
 31
0.0
  0
LINE
  5
12BF
330
2
100
AcDbEntity
  8
0
100
AcDbLine
 10
423.7720424967452
 20
104.4423363122237
 30
0.0
 11
423.7720424967452
 21
107.7470945266282
 31
0.0
  0
LINE
  5
12C0
330
2
100
AcDbEntity
  8
0
100
AcDbLine
 10
423.7720424967452
 20
176.1375780978174
 30
0.0
 11
423.7720424967452
 21
179.4423363122237
 31
0.0
  0
LINE
  5
12C1
330
2
100
AcDbEntity
  8
0
100
AcDbLine
 10
436.0720424966045
 20
99.94668070692529
 30
0.0
 11
436.0720424966045
 21
83.0209162007282
 31
0.0
  0
LINE
  5
12C2
330
2
100
AcDbEntity
  8
0
100
AcDbLine
 10
435.5764057643543
 20
100.4466616684599
 30
0.0
 11
431.5545894257489
 21
100.4817595279251
 31
0.0
  0
ARC
  5
12C3
330
2
100
AcDbEntity
  8
0
100
AcDbCircle
 10
435.5720424966044
 20
99.94668070692529
 30
0.0
 40
0.5
100
AcDbArc
 50
0.0
 51
89.5000000000345
  0
ARC
  5
12C4
330
2
100
AcDbEntity
  8
0
100
AcDbCircle
 10
437.0720424966044
 20
83.0209162007282
 30
0.0
 40
1.0
100
AcDbArc
 50
180.0
 51
269.4999999999824
  0
ARC
  5
12C5
330
2
100
AcDbEntity
  8
0
100
AcDbCircle
 10
431.5720424967454
 20
102.4816833740547
 30
0.0
 40
2.0
100
AcDbArc
 50
180.0
 51
269.5000000000345
  0
ARC
  5
12C6
330
2
100
AcDbEntity
  8
0
100
AcDbCircle
 10
431.5720424967454
 20
199.8157205724852
 30
0.0
 40
2.0
100
AcDbArc
 50
90.49999999996549
 51
180.0
  0
LINE
  5
12C7
330
2
100
AcDbEntity
  8
0
100
AcDbLine
 10
446.0720424967481
 20
201.9423363122237
 30
0.0
 11
431.5545894257489
 21
201.8156444186129
 31
0.0
  0
LINE
  5
12C8
330
2
100
AcDbEntity
  8
0
100
AcDbLine
 10
436.0720424966045
 20
183.9379919175203
 30
0.0
 11
436.0720424966045
 21
200.8637564237192
 31
0.0
  0
LINE
  5
12C9
330
2
100
AcDbEntity
  8
0
100
AcDbLine
 10
435.5764057643543
 20
183.4380109559857
 30
0.0
 11
431.5545894257489
 21
183.4029130965205
 31
0.0
  0
ARC
  5
12CA
330
2
100
AcDbEntity
  8
0
100
AcDbCircle
 10
435.5720424966044
 20
183.9379919175203
 30
0.0
 40
0.5
100
AcDbArc
 50
270.4999999999654
 51
0.0
  0
ARC
  5
12CB
330
2
100
AcDbEntity
  8
0
100
AcDbCircle
 10
437.0720424966044
 20
200.8637564237192
 30
0.0
 40
1.0
100
AcDbArc
 50
90.50000000001761
 51
180.0
  0
ARC
  5
12CC
330
2
100
AcDbEntity
  8
0
100
AcDbCircle
 10
431.5720424967454
 20
181.4029892503909
 30
0.0
 40
2.0
100
AcDbArc
 50
90.49999999996549
 51
180.0
  0
LINE
  5
12CD
330
2
100
AcDbEntity
  8
0
100
AcDbLine
 10
426.0720424966044
 20
186.3083617160078
 30
0.0
 11
426.0720424966044
 21
197.5763109084378
 31
0.0
  0
LINE
  5
12CE
330
2
100
AcDbEntity
  8
0
100
AcDbLine
 10
434.0720424966044
 20
185.4423363122219
 30
0.0
 11
434.0720424966053
 21
198.4423363122219
 31
0.0
  0
LINE
  5
12CF
330
2
100
AcDbEntity
  8
0
100
AcDbLine
 10
426.5720424966044
 20
198.4423363122219
 30
0.0
 11
426.0720424966044
 21
197.5763109084378
 31
0.0
  0
LINE
  5
12D0
330
2
100
AcDbEntity
  8
0
100
AcDbLine
 10
436.0720424966045
 20
198.4423363122219
 30
0.0
 11
434.0720424966044
 21
198.4423363122219
 31
0.0
  0
LINE
  5
12D1
330
2
100
AcDbEntity
  8
0
100
AcDbLine
 10
434.0720424966044
 20
198.4423363122219
 30
0.0
 11
426.5720424966044
 21
198.4423363122219
 31
0.0
  0
LINE
  5
12D2
330
2
100
AcDbEntity
  8
CENTER
  6
CENS
100
AcDbLine
 10
452.8319247885998
 20
191.9423363122219
 30
0.0
 11
423.0720424966044
 21
191.9423363122219
 31
0.0
  0
LINE
  5
12D3
330
2
100
AcDbEntity
  8
0
100
AcDbLine
 10
426.5720424966044
 20
185.4423363122219
 30
0.0
 11
426.0720424966044
 21
186.3083617160078
 31
0.0
  0
LINE
  5
12D4
330
2
100
AcDbEntity
  8
0
100
AcDbLine
 10
436.0720424966045
 20
185.4423363122219
 30
0.0
 11
434.0720424966044
 21
185.4423363122219
 31
0.0
  0
LINE
  5
12D5
330
2
100
AcDbEntity
  8
0
100
AcDbLine
 10
434.0720424966044
 20
185.4423363122219
 30
0.0
 11
426.5720424966044
 21
185.4423363122219
 31
0.0
  0
LINE
  5
12D6
330
2
100
AcDbEntity
  8
0
100
AcDbLine
 10
426.5720424966044
 20
185.4423363122219
 30
0.0
 11
426.5720424966044
 21
198.4423363122219
 31
0.0
  0
LINE
  5
12D7
330
2
100
AcDbEntity
  8
0
100
AcDbLine
 10
437.0633159611067
 20
91.94233631222193
 30
0.0
 11
446.0720424967536
 21
91.94233631222193
 31
0.0
  0
LINE
  5
12D8
330
2
100
AcDbEntity
  8
0
100
AcDbLine
 10
437.0633159611067
 20
95.94233631222556
 30
0.0
 11
446.0720424967536
 21
95.94233631222556
 31
0.0
  0
LINE
  5
12D9
330
2
100
AcDbEntity
  8
0
100
AcDbLine
 10
432.8507475192696
 20
118.938307890528
 30
0.0
 11
446.0720424967518
 21
118.938307890528
 31
0.0
  0
LINE
  5
12DA
330
2
100
AcDbEntity
  8
0
100
AcDbLine
 10
437.0633159611067
 20
191.9423363122237
 30
0.0
 11
446.0720424967536
 21
191.9423363122237
 31
0.0
  0
LINE
  5
12DB
330
2
100
AcDbEntity
  8
0
100
AcDbLine
 10
437.0633159611067
 20
187.94233631222
 30
0.0
 11
446.0720424967536
 21
187.94233631222
 31
0.0
  0
LINE
  5
12DC
330
2
100
AcDbEntity
  8
0
100
AcDbLine
 10
432.8507475192696
 20
164.9463647339194
 30
0.0
 11
446.0720424967518
 21
164.9463647339194
 31
0.0
  0
LINE
  5
12DD
330
2
100
AcDbEntity
  8
0
100
AcDbLine
 10
426.0720424966044
 20
97.57631090843785
 30
0.0
 11
426.0720424966044
 21
86.30836171600781
 31
0.0
  0
LINE
  5
12DE
330
2
100
AcDbEntity
  8
0
100
AcDbLine
 10
434.0720424966044
 20
98.44233631222374
 30
0.0
 11
434.0720424966053
 21
85.44233631222374
 31
0.0
  0
LINE
  5
12DF
330
2
100
AcDbEntity
  8
0
100
AcDbLine
 10
426.5720424966044
 20
85.44233631222374
 30
0.0
 11
426.0720424966044
 21
86.30836171600781
 31
0.0
  0
LINE
  5
12E0
330
2
100
AcDbEntity
  8
0
100
AcDbLine
 10
436.0720424966045
 20
85.44233631222374
 30
0.0
 11
434.0720424966044
 21
85.44233631222374
 31
0.0
  0
LINE
  5
12E1
330
2
100
AcDbEntity
  8
0
100
AcDbLine
 10
434.0720424966044
 20
85.44233631222374
 30
0.0
 11
426.5720424966044
 21
85.44233631222374
 31
0.0
  0
LINE
  5
12E2
330
2
100
AcDbEntity
  8
CENTER
  6
CENS
100
AcDbLine
 10
452.8319247885998
 20
91.94233631222374
 30
0.0
 11
423.0720424966044
 21
91.94233631222374
 31
0.0
  0
LINE
  5
12E3
330
2
100
AcDbEntity
  8
0
100
AcDbLine
 10
436.0720424966045
 20
98.44233631222374
 30
0.0
 11
434.0720424966044
 21
98.44233631222374
 31
0.0
  0
LINE
  5
12E4
330
2
100
AcDbEntity
  8
0
100
AcDbLine
 10
434.0720424966044
 20
98.44233631222374
 30
0.0
 11
426.5720424966044
 21
98.44233631222374
 31
0.0
  0
LINE
  5
12E5
330
2
100
AcDbEntity
  8
0
100
AcDbLine
 10
426.5720424966044
 20
98.44233631222374
 30
0.0
 11
426.5720424966044
 21
85.44233631222374
 31
0.0
  0
LINE
  5
12E6
330
2
100
AcDbEntity
  8
0
100
AcDbLine
 10
426.5720424966044
 20
98.44233631222374
 30
0.0
 11
426.0720424966044
 21
97.57631090843966
 31
0.0
  0
LINE
  5
12E7
330
2
100
AcDbEntity
  8
0
100
AcDbLine
 10
517.5720424967463
 20
156.4422903122227
 30
0.0
 11
447.0720424967463
 21
156.4422903122227
 31
0.0
  0
LINE
  5
12E8
330
2
100
AcDbEntity
  8
0
100
AcDbLine
 10
554.5720424967463
 20
159.242293312223
 30
0.0
 11
417.0720424967463
 21
159.242293312223
 31
0.0
  0
LINE
  5
12E9
330
2
100
AcDbEntity
  8
0
100
AcDbLine
 10
417.0720424967463
 20
163.9422903122227
 30
0.0
 11
417.0720424967463
 21
119.9422903122227
 31
0.0
  0
LINE
  5
12EA
330
2
100
AcDbEntity
  8
0
100
AcDbLine
 10
433.1450523957761
 20
119.9422903122227
 30
0.0
 11
417.0720424967463
 21
119.9422903122227
 31
0.0
  0
LINE
  5
12EB
330
2
100
AcDbEntity
  8
0
100
AcDbLine
 10
433.1450802049054
 20
163.9422903122227
 30
0.0
 11
417.0720424967463
 21
163.9422903122227
 31
0.0
  0
LINE
  5
12EC
330
2
100
AcDbEntity
  8
0
100
AcDbLine
 10
431.7220364967457
 20
155.9422903122227
 30
0.0
 11
419.0720424967463
 21
155.9422903122227
 31
0.0
  0
LINE
  5
12ED
330
2
100
AcDbEntity
  8
0
100
AcDbLine
 10
431.7219375373339
 20
127.942289601127
 30
0.0
 11
419.0719435376437
 21
127.9423816011272
 31
0.0
  0
LINE
  5
12EE
330
2
100
AcDbEntity
  8
0
100
AcDbLine
 10
419.0720446362798
 20
127.9422896007868
 30
0.0
 11
419.0720403572125
 21
155.9422915474922
 31
0.0
  0
LINE
  5
12EF
330
2
100
AcDbEntity
  8
0
100
AcDbLine
 10
419.0718857830803
 20
127.9422903130994
 30
0.0
 11
417.0718728575853
 21
126.7876037008387
 31
0.0
  0
LINE
  5
12F0
330
2
100
AcDbEntity
  8
0
100
AcDbLine
 10
419.0720424967463
 20
155.9422903122227
 30
0.0
 11
417.0720424967463
 21
157.096999312223
 31
0.0
  0
LINE
  5
12F1
330
2
100
AcDbEntity
  8
0
100
AcDbLine
 10
447.0720424967463
 20
156.4422903122227
 30
0.0
 11
447.0720424967463
 21
127.4422903122099
 31
0.0
  0
LINE
  5
12F2
330
2
100
AcDbEntity
  8
0
100
AcDbLine
 10
431.7220386362793
 20
127.2422926007871
 30
0.0
 11
431.7220343572124
 21
156.6422873122224
 31
0.0
  0
LINE
  5
12F3
330
2
100
AcDbEntity
  8
0
100
AcDbLine
 10
433.0720446362798
 20
127.2422926007871
 30
0.0
 11
433.072040357213
 21
156.6422873122222
 31
0.0
  0
LINE
  5
12F4
330
2
100
AcDbEntity
  8
0
100
AcDbLine
 10
433.0720446362798
 20
127.2422926007871
 30
0.0
 11
431.7220386362793
 21
127.2422926007871
 31
0.0
  0
LINE
  5
12F5
330
2
100
AcDbEntity
  8
0
100
AcDbLine
 10
447.0720424967463
 20
127.942381600787
 30
0.0
 11
433.0720446362798
 21
127.942381600787
 31
0.0
  0
LINE
  5
12F6
330
2
100
AcDbEntity
  8
0
100
AcDbLine
 10
447.0720424967463
 20
155.9422903122227
 30
0.0
 11
433.0720424967463
 21
155.9422903122227
 31
0.0
  0
LINE
  5
12F7
330
2
100
AcDbEntity
  8
0
100
AcDbLine
 10
433.072040357213
 20
156.6422873122222
 30
0.0
 11
431.7220343572124
 21
156.6422873122224
 31
0.0
  0
LINE
  5
12F8
330
2
100
AcDbEntity
  8
0
100
AcDbLine
 10
554.5720424967463
 20
163.9422903122227
 30
0.0
 11
554.5720424967463
 21
119.9422903122227
 31
0.0
  0
LINE
  5
12F9
330
2
100
AcDbEntity
  8
0
100
AcDbLine
 10
554.5720424967463
 20
119.9422903122227
 30
0.0
 11
528.8524926770484
 21
119.9422903122227
 31
0.0
  0
LINE
  5
12FA
330
2
100
AcDbEntity
  8
0
100
AcDbLine
 10
554.5720424967463
 20
163.9422903122227
 30
0.0
 11
528.85246638517
 21
163.9422903122227
 31
0.0
  0
LINE
  5
12FB
330
2
100
AcDbEntity
  8
0
100
AcDbLine
 10
532.5720424967463
 20
155.9422903122227
 30
0.0
 11
517.5720424967463
 21
155.9422903122227
 31
0.0
  0
LINE
  5
12FC
330
2
100
AcDbEntity
  8
0
100
AcDbLine
 10
532.5720125433186
 20
127.9423473682632
 30
0.0
 11
517.5720424967463
 21
127.9423614573766
 31
0.0
  0
LINE
  5
12FD
330
2
100
AcDbEntity
  8
0
100
AcDbLine
 10
517.5720424967463
 20
156.4422903122227
 30
0.0
 11
517.5720424967463
 21
127.4423823122102
 31
0.0
  0
LINE
  5
12FE
330
2
100
AcDbEntity
  8
0
100
AcDbLine
 10
550.071881614596
 20
127.4425077538303
 30
0.0
 11
543.0718816140557
 21
127.4423727209337
 31
0.0
  0
LINE
  5
12FF
330
2
100
AcDbEntity
  8
0
100
AcDbLine
 10
543.0718816140557
 20
127.4423727209337
 30
0.0
 11
543.0719893796655
 21
156.4423363122237
 31
0.0
  0
LINE
  5
1300
330
2
100
AcDbEntity
  8
0
100
AcDbLine
 10
533.922017045647
 20
127.2423474798793
 30
0.0
 11
533.922079947844
 21
156.6422873122222
 31
0.0
  0
LINE
  5
1301
330
2
100
AcDbEntity
  8
0
100
AcDbLine
 10
532.5720110456501
 20
127.2423503682653
 30
0.0
 11
532.5720739478409
 21
156.6422873122224
 31
0.0
  0
LINE
  5
1302
330
2
100
AcDbEntity
  8
0
100
AcDbLine
 10
533.922017045647
 20
127.2423474798793
 30
0.0
 11
532.5720110456501
 21
127.2423503682653
 31
0.0
  0
LINE
  5
1303
330
2
100
AcDbEntity
  8
0
100
AcDbLine
 10
543.0718834210689
 20
127.9423281127251
 30
0.0
 11
533.9220185433156
 21
127.9423444798772
 31
0.0
  0
LINE
  5
1304
330
2
100
AcDbEntity
  8
0
100
AcDbLine
 10
550.0719893797365
 20
156.4423363122236
 30
0.0
 11
550.071881614596
 21
127.4425077538303
 31
0.0
  0
LINE
  5
1305
330
2
100
AcDbEntity
  8
0
100
AcDbLine
 10
552.5720125432605
 20
127.9422938798903
 30
0.0
 11
552.5720724502677
 21
155.9423076060229
 31
0.0
  0
LINE
  5
1306
330
2
100
AcDbEntity
  8
0
100
AcDbLine
 10
552.5720125432605
 20
127.9422938798903
 30
0.0
 11
550.0718834210589
 21
127.9423109964459
 31
0.0
  0
LINE
  5
1307
330
2
100
AcDbEntity
  8
0
100
AcDbLine
 10
552.5720424967463
 20
127.9422903122227
 30
0.0
 11
554.5720424967463
 21
126.7875813122223
 31
0.0
  0
LINE
  5
1308
330
2
100
AcDbEntity
  8
0
100
AcDbLine
 10
550.0719893797365
 20
156.4423363122236
 30
0.0
 11
543.0719893796655
 21
156.4423363122237
 31
0.0
  0
LINE
  5
1309
330
2
100
AcDbEntity
  8
0
100
AcDbLine
 10
533.922079947844
 20
156.6422873122222
 30
0.0
 11
532.5720739478409
 21
156.6422873122224
 31
0.0
  0
LINE
  5
130A
330
2
100
AcDbEntity
  8
0
  6
CONTINUOUS
 62
     4
100
AcDbLine
 10
543.5719354967464
 20
159.242293312223
 30
0.0
 11
543.5719354967464
 21
163.9422903122227
 31
0.0
  0
LINE
  5
130B
330
2
100
AcDbEntity
  8
0
  6
CONTINUOUS
 62
     7
100
AcDbLine
 10
544.1719354967468
 20
159.242293312223
 30
0.0
 11
544.1719354967468
 21
163.9422903122227
 31
0.0
  0
LINE
  5
130C
330
2
100
AcDbEntity
  8
0
100
AcDbLine
 10
543.0719354967465
 20
155.9422903122227
 30
0.0
 11
533.9220484967468
 21
155.9422903122227
 31
0.0
  0
LINE
  5
130D
330
2
100
AcDbEntity
  8
0
  6
CONTINUOUS
 62
     7
100
AcDbLine
 10
548.9719354967461
 20
159.242293312223
 30
0.0
 11
548.9719354967461
 21
163.9422903122227
 31
0.0
  0
LINE
  5
130E
330
2
100
AcDbEntity
  8
0
  6
CONTINUOUS
 62
     4
100
AcDbLine
 10
549.5719354967465
 20
159.242293312223
 30
0.0
 11
549.5719354967465
 21
163.9422903122227
 31
0.0
  0
LINE
  5
130F
330
2
100
AcDbEntity
  8
0
100
AcDbLine
 10
552.5720424967463
 20
155.9422903122227
 30
0.0
 11
550.0719354967465
 21
155.9422903122227
 31
0.0
  0
LINE
  5
1310
330
2
100
AcDbEntity
  8
0
100
AcDbLine
 10
552.5720424967463
 20
155.9422903122227
 30
0.0
 11
554.5720424967463
 21
157.096999312223
 31
0.0
  0
LINE
  5
1311
330
2
100
AcDbEntity
  8
0
100
AcDbLine
 10
517.5720424967463
 20
127.4423823122102
 30
0.0
 11
447.0720424967463
 21
127.4422903122099
 31
0.0
  0
LINE
  5
1312
330
2
100
AcDbEntity
  8
0
100
AcDbLine
 10
540.5720424967463
 20
174.4423363122237
 30
0.0
 11
530.5720424967463
 21
174.4423363122237
 31
0.0
  0
LINE
  5
1313
330
2
100
AcDbEntity
  8
0
100
AcDbLine
 10
540.5720424967463
 20
109.4423363122237
 30
0.0
 11
530.5720424967463
 21
109.4423363122237
 31
0.0
  0
LINE
  5
1314
330
2
100
AcDbEntity
  8
0
100
AcDbLine
 10
540.5720424967463
 20
174.4423363122237
 30
0.0
 11
540.5720424967454
 21
163.9422903122227
 31
0.0
  0
LINE
  5
1315
330
2
100
AcDbEntity
  8
0
100
AcDbLine
 10
540.5720424967463
 20
119.9422903122227
 30
0.0
 11
540.5720424967463
 21
109.4423363122237
 31
0.0
  0
LINE
  5
1316
330
2
100
AcDbEntity
  8
0
100
AcDbLine
 10
541.5720424967463
 20
108.8649860430337
 30
0.0
 11
540.5720424967463
 21
109.4423363122237
 31
0.0
  0
LINE
  5
1317
330
2
100
AcDbEntity
  8
0
100
AcDbLine
 10
541.5720424967463
 20
175.0196865814137
 30
0.0
 11
540.5720424967463
 21
174.4423363122237
 31
0.0
  0
LINE
  5
1318
330
2
100
AcDbEntity
  8
0
100
AcDbLine
 10
530.5720424967463
 20
174.6150122926097
 30
0.0
 11
530.5720424967463
 21
163.9422903122227
 31
0.0
  0
LINE
  5
1319
330
2
100
AcDbEntity
  8
0
100
AcDbLine
 10
530.5720424967463
 20
119.9422903122227
 30
0.0
 11
530.5720424967463
 21
109.2696603318396
 31
0.0
  0
LINE
  5
131A
330
2
100
AcDbEntity
  8
0
100
AcDbLine
 10
530.5720424967463
 20
109.2696603318396
 30
0.0
 11
529.2678882653732
 21
109.2355098514213
 31
0.0
  0
LINE
  5
131B
330
2
100
AcDbEntity
  8
0
100
AcDbLine
 10
530.5720424967463
 20
174.6150122926097
 30
0.0
 11
529.2678882653732
 21
174.6491627730261
 31
0.0
  0
SPLINE
  5
131C
330
2
100
AcDbEntity
  8
HOJO
100
AcDbSpline
210
0.0
220
0.0
230
1.0
 70
     8
 71
     3
 72
    27
 73
    23
 74
     0
 42
0.0000000001
 43
0.0000000001
 40
1.115194340024553
 40
1.115194340024553
 40
1.115194340024553
 40
1.115194340024553
 40
4.11856902600964
 40
9.276492718429681
 40
13.10167008618774
 40
18.71184964488228
 40
23.95716555156286
 40
27.01619251471695
 40
39.17039536596644
 40
50.24697446103543
 40
58.53434931408898
 40
73.56157927628713
 40
85.17772611937518
 40
102.3462877726335
 40
113.633446065556
 40
121.5743876800089
 40
126.5250688064399
 40
130.7795985444939
 40
134.8620682382245
 40
140.0229493905749
 40
145.1226728683104
 40
146.9851630635393
 40
146.9851630635393
 40
146.9851630635393
 40
146.9851630635393
 10
419.0720424967454
 20
177.327644903618
 30
0.0
 10
420.0184604933607
 20
176.9611433927471
 30
0.0
 10
422.5927186071645
 20
176.0551979823554
 30
0.0
 10
426.4101445893935
 20
176.0508395103875
 30
0.0
 10
432.1457240214246
 20
175.6685551136138
 30
0.0
 10
431.5962841557544
 20
169.3477819024643
 30
0.0
 10
432.7351896339429
 20
165.3096536419648
 30
0.0
 10
434.8884532846073
 20
158.0508623962483
 30
0.0
 10
446.7293187563233
 20
163.656323407276
 30
0.0
 10
456.3015870426594
 20
162.2533575046941
 30
0.0
 10
467.8772834666739
 20
160.4014836821748
 30
0.0
 10
479.4950480356725
 20
163.5015776306677
 30
0.0
 10
493.8446514814764
 20
159.3371396696143
 30
0.0
 10
507.6420112073379
 20
163.017016093128
 30
0.0
 10
518.6098079728687
 20
161.1301459383572
 30
0.0
 10
529.020033255199
 20
160.7035977602004
 30
0.0
 10
529.2644324713807
 20
167.5447772030889
 30
0.0
 10
528.8692072105392
 20
171.5339189079
 30
0.0
 10
529.1883934308394
 20
176.9837102664183
 30
0.0
 10
535.1207632807796
 20
176.7867269443991
 30
0.0
 10
539.0619209982047
 20
176.9581645291923
 30
0.0
 10
541.0499121656672
 20
178.1055352051331
 30
0.0
 10
541.5720424967463
 20
178.4493627575062
 30
0.0
  0
SPLINE
  5
131D
330
2
100
AcDbEntity
  8
HOJO
100
AcDbSpline
210
0.0
220
0.0
230
1.0
 70
     8
 71
     3
 72
    27
 73
    23
 74
     0
 42
0.0000000001
 43
0.0000000001
 40
1.115194340024553
 40
1.115194340024553
 40
1.115194340024553
 40
1.115194340024553
 40
4.11856902600964
 40
9.276492718429681
 40
13.10167008618774
 40
18.71184964488228
 40
23.95716555156286
 40
27.01619251471695
 40
39.17039536596644
 40
50.24697446103543
 40
58.53434931408898
 40
73.56157927628713
 40
85.17772611937518
 40
102.3462877726335
 40
113.633446065556
 40
121.5743876800089
 40
126.5250688064399
 40
130.7795985444939
 40
134.8620682382245
 40
140.0229493905749
 40
145.1226728683104
 40
146.9851630635393
 40
146.9851630635393
 40
146.9851630635393
 40
146.9851630635393
 10
419.0720424967454
 20
106.5570277208294
 30
0.0
 10
420.0184604933607
 20
106.9235292316985
 30
0.0
 10
422.5927186071645
 20
107.8294746420902
 30
0.0
 10
426.4101445893935
 20
107.8338331140599
 30
0.0
 10
432.1457240214246
 20
108.2161175108318
 30
0.0
 10
431.5962841557544
 20
114.5368907219813
 30
0.0
 10
432.7351896339429
 20
118.5750189824807
 30
0.0
 10
434.8884532846073
 20
125.8338102281991
 30
0.0
 10
446.7293187563233
 20
120.2283492171696
 30
0.0
 10
456.3015870426594
 20
121.6313151197514
 30
0.0
 10
467.8772834666739
 20
123.4831889422726
 30
0.0
 10
479.4950480356725
 20
120.3830949937797
 30
0.0
 10
493.8446514814764
 20
124.5475329548312
 30
0.0
 10
507.6420112073379
 20
120.8676565313176
 30
0.0
 10
518.6098079728687
 20
122.7545266860884
 30
0.0
 10
529.020033255199
 20
123.1810748642452
 30
0.0
 10
529.2644324713807
 20
116.3398954213585
 30
0.0
 10
528.8692072105392
 20
112.3507537165456
 30
0.0
 10
529.1883934308394
 20
106.9009623580273
 30
0.0
 10
535.1207632807796
 20
107.0979456800465
 30
0.0
 10
539.0619209982047
 20
106.9265080952532
 30
0.0
 10
541.0499121656672
 20
105.7791374193143
 30
0.0
 10
541.5720424967463
 20
105.4353098669412
 30
0.0
  0
LINE
  5
131E
330
2
100
AcDbEntity
  8
CENTER
  6
CENS
100
AcDbLine
 10
546.5719354967465
 20
150.4377477852063
 30
0.0
 11
546.5719354967465
 21
172.7468358392393
 31
0.0
  0
LINE
  5
131F
330
2
100
AcDbEntity
  8
0
100
AcDbLine
 10
420.0720424967454
 20
174.4423363122237
 30
0.0
 11
430.0720424967454
 21
163.9422903122227
 31
0.0
  0
LINE
  5
1320
330
2
100
AcDbEntity
  8
0
100
AcDbLine
 10
430.0720424967454
 20
174.4423363122219
 30
0.0
 11
420.0720424967454
 21
163.9422903122227
 31
0.0
  0
LINE
  5
1321
330
2
100
AcDbEntity
  8
0
100
AcDbLine
 10
420.0720424967454
 20
119.9422903122227
 30
0.0
 11
430.0720424967454
 21
109.4423363122237
 31
0.0
  0
LINE
  5
1322
330
2
100
AcDbEntity
  8
0
100
AcDbLine
 10
430.0720424967463
 20
119.9422903122227
 30
0.0
 11
420.0720424967454
 21
109.4423363122237
 31
0.0
  0
LINE
  5
1323
330
2
100
AcDbEntity
  8
0
100
AcDbLine
 10
530.5720424967463
 20
174.4423363122237
 30
0.0
 11
540.5720424967454
 21
163.9422903122227
 31
0.0
  0
LINE
  5
1324
330
2
100
AcDbEntity
  8
0
100
AcDbLine
 10
540.5720424967463
 20
174.4423363122237
 30
0.0
 11
530.5720424967463
 21
163.9422903122227
 31
0.0
  0
LINE
  5
1325
330
2
100
AcDbEntity
  8
0
100
AcDbLine
 10
530.5720424967463
 20
119.9422903122227
 30
0.0
 11
540.5720424967463
 21
109.4423363122237
 31
0.0
  0
LINE
  5
1326
330
2
100
AcDbEntity
  8
0
100
AcDbLine
 10
530.5720424967463
 20
109.4423363122237
 30
0.0
 11
540.5720424967463
 21
119.9422903122227
 31
0.0
  0
LINE
  5
1327
330
2
100
AcDbEntity
  8
0
100
AcDbLine
 10
383.3032585000779
 20
414.6487243486004
 30
0.0
 11
383.3032585000779
 21
370.6487243486004
 31
0.0
  0
LINE
  5
1328
330
2
100
AcDbEntity
  8
0
100
AcDbLine
 10
385.303258500077
 20
370.6487243486004
 30
0.0
 11
383.3032585000779
 21
370.6487243486004
 31
0.0
  0
LINE
  5
1329
330
2
100
AcDbEntity
  8
0
100
AcDbLine
 10
385.3032585000779
 20
414.6487243486004
 30
0.0
 11
383.3032585000779
 21
414.6487243486004
 31
0.0
  0
LINE
  5
132A
330
2
100
AcDbEntity
  8
0
100
AcDbLine
 10
520.8032585000779
 20
414.6487243486004
 30
0.0
 11
520.8032585000779
 21
370.6487243486004
 31
0.0
  0
LINE
  5
132B
330
2
100
AcDbEntity
  8
0
100
AcDbLine
 10
520.8032585000779
 20
370.6487243486004
 30
0.0
 11
507.8032585000779
 21
370.6487243486004
 31
0.0
  0
LINE
  5
132C
330
2
100
AcDbEntity
  8
0
100
AcDbLine
 10
520.8032585000779
 20
414.6487243486004
 30
0.0
 11
507.8032585000779
 21
414.6487243486004
 31
0.0
  0
CIRCLE
  5
132D
330
2
100
AcDbEntity
  8
HOJO
100
AcDbCircle
 10
512.8031515000781
 20
392.6487703485996
 30
0.0
 40
3.0
  0
CIRCLE
  5
132E
330
2
100
AcDbEntity
  8
0
100
AcDbCircle
 10
512.8031515000781
 20
392.6487703485996
 30
0.0
 40
2.5
  0
LINE
  5
132F
330
2
100
AcDbEntity
  8
CENTER
100
AcDbLine
 10
512.8031515000771
 20
397.9251919409449
 30
0.0
 11
512.8031515000771
 21
387.3723487562543
 31
0.0
  0
LINE
  5
1330
330
2
100
AcDbEntity
  8
0
100
AcDbLine
 10
686.4264211886696
 20
725.6130842670131
 30
0.0
 11
642.4264211886696
 21
725.6130842670131
 31
0.0
  0
LINE
  5
1331
330
2
100
AcDbEntity
  8
0
100
AcDbLine
 10
642.4264211886696
 20
723.6130842670132
 30
0.0
 11
642.4264211886696
 21
725.6130842670131
 31
0.0
  0
LINE
  5
1332
330
2
100
AcDbEntity
  8
0
100
AcDbLine
 10
686.4264211886696
 20
723.6130842670132
 30
0.0
 11
686.4264211886696
 21
725.6130842670131
 31
0.0
  0
LINE
  5
1333
330
2
100
AcDbEntity
  8
0
100
AcDbLine
 10
686.4264211886696
 20
588.1130842670131
 30
0.0
 11
642.4264211886696
 21
588.1130842670131
 31
0.0
  0
LINE
  5
1334
330
2
100
AcDbEntity
  8
0
100
AcDbLine
 10
642.4264211886696
 20
588.1130842670131
 30
0.0
 11
642.4264211886696
 21
601.1130842670131
 31
0.0
  0
LINE
  5
1335
330
2
100
AcDbEntity
  8
0
100
AcDbLine
 10
686.4264211886696
 20
588.1130842670131
 30
0.0
 11
686.4264211886696
 21
601.1130842670113
 31
0.0
  0
CIRCLE
  5
1336
330
2
100
AcDbEntity
  8
HOJO
100
AcDbCircle
 10
664.4264671886698
 20
596.113191267013
 30
0.0
 40
3.0
  0
CIRCLE
  5
1337
330
2
100
AcDbEntity
  8
0
100
AcDbCircle
 10
664.4264671886698
 20
596.113191267013
 30
0.0
 40
2.5
  0
LINE
  5
1338
330
2
100
AcDbEntity
  8
CENTER
100
AcDbLine
 10
669.7028887810151
 20
596.113191267013
 30
0.0
 11
659.1500455963244
 21
596.113191267013
 31
0.0
  0
LINE
  5
1339
330
2
100
AcDbEntity
  8
0
100
AcDbLine
 10
1122.692525986801
 20
370.6488163486024
 30
0.0
 11
1122.692525986801
 21
414.6488163486024
 31
0.0
  0
LINE
  5
133A
330
2
100
AcDbEntity
  8
0
100
AcDbLine
 10
1120.692525986802
 20
414.6488163486024
 30
0.0
 11
1122.692525986801
 21
414.6488163486024
 31
0.0
  0
LINE
  5
133B
330
2
100
AcDbEntity
  8
0
100
AcDbLine
 10
1120.692525986801
 20
370.6488163486024
 30
0.0
 11
1122.692525986801
 21
370.6488163486024
 31
0.0
  0
LINE
  5
133C
330
2
100
AcDbEntity
  8
0
100
AcDbLine
 10
985.1925259868016
 20
370.6488163486024
 30
0.0
 11
985.1925259868016
 21
414.6488163486024
 31
0.0
  0
LINE
  5
133D
330
2
100
AcDbEntity
  8
0
100
AcDbLine
 10
985.1925259868016
 20
414.6488163486024
 30
0.0
 11
998.1925259868015
 21
414.6488163486024
 31
0.0
  0
LINE
  5
133E
330
2
100
AcDbEntity
  8
0
100
AcDbLine
 10
985.1925259868016
 20
370.6488163486024
 30
0.0
 11
998.1925259868015
 21
370.6488163486024
 31
0.0
  0
ARC
  5
133F
330
2
100
AcDbEntity
  8
0
100
AcDbCircle
 10
238.2724681355372
 20
392.6487703485978
 30
0.0
 40
14.0
100
AcDbArc
 50
106.6015495990172
 51
73.39845040098274
  0
LINE
  5
1340
330
2
100
AcDbEntity
  8
0
100
AcDbLine
 10
234.2724681355372
 20
409.9487733485981
 30
0.0
 11
242.2724681355372
 21
409.9487733485981
 31
0.0
  0
LINE
  5
1341
330
2
100
AcDbEntity
  8
0
100
AcDbLine
 10
234.2724681355372
 20
409.9487733485981
 30
0.0
 11
234.2724681355372
 21
406.0651782135951
 31
0.0
  0
LINE
  5
1342
330
2
100
AcDbEntity
  8
0
100
AcDbLine
 10
242.2724681355372
 20
409.9487733485981
 30
0.0
 11
242.2724681355372
 21
406.0651782135951
 31
0.0
  0
ARC
  5
1343
330
2
100
AcDbEntity
  8
0
100
AcDbCircle
 10
238.2724681355372
 20
392.6487703485978
 30
0.0
 40
15.15463467198318
100
AcDbArc
 50
105.3043129627531
 51
74.69568703724689
  0
CIRCLE
  5
1344
330
2
100
AcDbEntity
  8
0
100
AcDbCircle
 10
238.2724681355372
 20
392.6487703485978
 30
0.0
 40
21.99995400000011
  0
ARC
  5
1345
330
2
100
AcDbEntity
  8
0
100
AcDbCircle
 10
664.4264671886698
 20
392.6487703485978
 30
0.0
 40
14.0
100
AcDbArc
 50
106.6015495990172
 51
73.39845040098274
  0
LINE
  5
1346
330
2
100
AcDbEntity
  8
0
100
AcDbLine
 10
660.4264671886697
 20
409.9487733485962
 30
0.0
 11
668.4264671886698
 21
409.9487733485962
 31
0.0
  0
LINE
  5
1347
330
2
100
AcDbEntity
  8
0
100
AcDbLine
 10
660.4264671886697
 20
409.9487733485962
 30
0.0
 11
660.4264671886697
 21
406.0651782135951
 31
0.0
  0
LINE
  5
1348
330
2
100
AcDbEntity
  8
0
100
AcDbLine
 10
668.4264671886698
 20
409.9487733485962
 30
0.0
 11
668.4264671886698
 21
406.0651782135951
 31
0.0
  0
ARC
  5
1349
330
2
100
AcDbEntity
  8
0
100
AcDbCircle
 10
664.4264671886698
 20
392.6487703485978
 30
0.0
 40
15.15463467198318
100
AcDbArc
 50
105.3043129627531
 51
74.69568703724689
  0
CIRCLE
  5
134A
330
2
100
AcDbEntity
  8
0
100
AcDbCircle
 10
664.4264671886698
 20
392.6487703485978
 30
0.0
 40
21.99995400000011
  0
LINE
  5
134B
330
2
100
AcDbEntity
  8
CENTER
100
AcDbLine
 10
291.2724681355145
 20
435.3079277467528
 30
0.0
 11
291.2724681355145
 21
420.9896129504391
 31
0.0
  0
LINE
  5
134C
330
2
100
AcDbEntity
  8
CENTER
100
AcDbLine
 10
284.1133107373576
 20
428.1487703485959
 30
0.0
 11
298.4316255336713
 21
428.1487703485959
 31
0.0
  0
LINE
  5
134D
330
2
100
AcDbEntity
  8
CENTER
100
AcDbLine
 10
291.2724681355154
 20
349.9896129504428
 30
0.0
 11
291.2724681355154
 21
364.3079277467564
 31
0.0
  0
LINE
  5
134E
330
2
100
AcDbEntity
  8
CENTER
100
AcDbLine
 10
284.1133107373585
 20
357.1487703485995
 30
0.0
 11
298.4316255336722
 21
357.1487703485995
 31
0.0
  0
LINE
  5
134F
330
2
100
AcDbEntity
  8
0
100
AcDbLine
 10
1113.692525986943
 20
437.0147957523837
 30
0.0
 11
1113.692525986943
 21
448.2827449448155
 31
0.0
  0
LINE
  5
1350
330
2
100
AcDbEntity
  8
0
100
AcDbLine
 10
1113.192525986943
 20
449.1487703485995
 30
0.0
 11
1113.692525986943
 21
448.2827449448155
 31
0.0
  0
LINE
  5
1351
330
2
100
AcDbEntity
  8
0
100
AcDbLine
 10
1110.192525986808
 20
449.1487703485995
 30
0.0
 11
1113.192525986943
 21
449.1487703485995
 31
0.0
  0
LINE
  5
1352
330
2
100
AcDbEntity
  8
CENTER
  6
CENS
100
AcDbLine
 10
1086.932643694948
 20
442.6487703485996
 30
0.0
 11
1116.692525986943
 21
442.6487703485996
 31
0.0
  0
LINE
  5
1353
330
2
100
AcDbEntity
  8
0
100
AcDbLine
 10
1113.192525986943
 20
436.1487703485996
 30
0.0
 11
1113.692525986943
 21
437.0147957523837
 31
0.0
  0
LINE
  5
1354
330
2
100
AcDbEntity
  8
0
100
AcDbLine
 10
1112.192525986807
 20
436.1487703485996
 30
0.0
 11
1113.192525986943
 21
436.1487703485996
 31
0.0
  0
LINE
  5
1355
330
2
100
AcDbEntity
  8
0
100
AcDbLine
 10
1113.192525986943
 20
436.1487703485996
 30
0.0
 11
1113.192525986943
 21
449.1487703485995
 31
0.0
  0
LINE
  5
1356
330
2
100
AcDbEntity
  8
0
100
AcDbLine
 10
1113.692525986943
 20
348.2827449448155
 30
0.0
 11
1113.692525986943
 21
337.0147957523855
 31
0.0
  0
LINE
  5
1357
330
2
100
AcDbEntity
  8
0
100
AcDbLine
 10
1113.192525986943
 20
336.1487703485996
 30
0.0
 11
1113.692525986943
 21
337.0147957523855
 31
0.0
  0
LINE
  5
1358
330
2
100
AcDbEntity
  8
0
100
AcDbLine
 10
1110.192525986806
 20
336.1487703485996
 30
0.0
 11
1113.192525986943
 21
336.1487703485996
 31
0.0
  0
LINE
  5
1359
330
2
100
AcDbEntity
  8
CENTER
  6
CENS
100
AcDbLine
 10
1086.932643694948
 20
342.6487703485996
 30
0.0
 11
1116.692525986943
 21
342.6487703485996
 31
0.0
  0
LINE
  5
135A
330
2
100
AcDbEntity
  8
0
100
AcDbLine
 10
1112.192525986807
 20
349.1487703485996
 30
0.0
 11
1113.192525986943
 21
349.1487703485996
 31
0.0
  0
LINE
  5
135B
330
2
100
AcDbEntity
  8
0
100
AcDbLine
 10
1113.192525986943
 20
349.1487703485996
 30
0.0
 11
1113.192525986943
 21
336.1487703485996
 31
0.0
  0
LINE
  5
135C
330
2
100
AcDbEntity
  8
0
100
AcDbLine
 10
1113.192525986943
 20
349.1487703485996
 30
0.0
 11
1113.692525986943
 21
348.2827449448155
 31
0.0
  0
LINE
  5
135E
330
2
100
AcDbEntity
  8
0
100
AcDbLine
 10
388.0032585000768
 20
355.8487703485985
 30
0.0
 11
389.6032585000763
 21
355.8487703485985
 31
0.0
  0
LINE
  5
135F
330
2
100
AcDbEntity
  8
PHAS
100
AcDbLine
 10
385.9509012807653
 20
353.2683786887742
 30
0.0
 11
392.803258500077
 21
353.1487703485996
 31
0.0
  0
LINE
  5
1360
330
2
100
AcDbEntity
  8
PHAS
100
AcDbLine
 10
383.0032585000768
 20
356.2679217742439
 30
0.0
 11
383.0032585000777
 21
429.0296189229562
 31
0.0
  0
LINE
  5
1361
330
2
100
AcDbEntity
  8
PHAS
100
AcDbLine
 10
363.303258500077
 20
369.3179100244429
 30
0.0
 11
363.303258500077
 21
415.9796306727562
 31
0.0
  0
ARC
  5
1362
330
2
100
AcDbEntity
  8
PHAS
100
AcDbCircle
 10
386.0032585000768
 20
356.2679217742439
 30
0.0
 40
3.0
100
AcDbArc
 50
180.0
 51
268.9999999999721
  0
ARC
  5
1363
330
2
100
AcDbEntity
  8
PHAS
100
AcDbCircle
 10
382.0032585000768
 20
360.8096707174222
 30
0.0
 40
1.0
100
AcDbArc
 50
0.0
 51
79.99999999999483
  0
ARC
  5
1364
330
2
100
AcDbEntity
  8
PHAS
100
AcDbCircle
 10
368.303258500077
 20
369.3179100244429
 30
0.0
 40
5.0
100
AcDbArc
 50
180.0
 51
259.9999999999948
  0
LINE
  5
1365
330
2
100
AcDbEntity
  8
PHAS
100
AcDbLine
 10
367.4350176117419
 20
364.3938712593822
 30
0.0
 11
382.1769066777438
 21
361.7944784704346
 31
0.0
  0
ARC
  5
1366
330
2
100
AcDbEntity
  8
PHAS
100
AcDbCircle
 10
382.0032585000768
 20
424.4878699797768
 30
0.0
 40
1.0
100
AcDbArc
 50
280.0000000000051
 51
0.0
  0
ARC
  5
1367
330
2
100
AcDbEntity
  8
PHAS
100
AcDbCircle
 10
368.303258500077
 20
415.9796306727562
 30
0.0
 40
5.0
100
AcDbArc
 50
100.0000000000051
 51
180.0
  0
LINE
  5
1368
330
2
100
AcDbEntity
  8
PHAS
100
AcDbLine
 10
367.4350176117419
 20
420.9036694378179
 30
0.0
 11
382.1769066777438
 21
423.5030622267655
 31
0.0
  0
LINE
  5
1369
330
2
100
AcDbEntity
  8
PHAS
100
AcDbLine
 10
392.803258500077
 20
432.1487703485995
 30
0.0
 11
392.803258500077
 21
353.1487703485996
 31
0.0
  0
LINE
  5
136A
330
2
100
AcDbEntity
  8
PHAS
100
AcDbLine
 10
385.9509012807653
 20
432.0291620084249
 30
0.0
 11
392.803258500077
 21
432.1487703485995
 31
0.0
  0
ARC
  5
136B
330
2
100
AcDbEntity
  8
PHAS
100
AcDbCircle
 10
386.0032585000768
 20
429.0296189229553
 30
0.0
 40
3.0
100
AcDbArc
 50
91.00000000002784
 51
180.0
  0
LINE
  5
136E
330
2
100
AcDbEntity
  8
0
100
AcDbLine
 10
821.8364671886687
 20
431.5614255139193
 30
0.0
 11
821.8364671886687
 21
401.6879322420505
 31
0.0
  0
LINE
  5
136F
330
2
100
AcDbEntity
  8
0
100
AcDbLine
 10
821.8364671886687
 20
392.6487703485978
 30
0.0
 11
821.8364671886687
 21
353.0005380704565
 31
0.0
  0
LINE
  5
1371
330
2
100
AcDbEntity
  8
0
100
AcDbLine
 10
809.8364671886686
 20
351.6487703485978
 30
0.0
 11
819.8539202596656
 21
351.7361913371487
 31
0.0
  0
LINE
  5
1372
330
2
100
AcDbEntity
  8
0
100
AcDbLine
 10
828.8364671886688
 20
360.8083965824967
 30
0.0
 11
847.5491242464661
 21
361.1350272264207
 31
0.0
  0
LINE
  5
1373
330
2
100
AcDbEntity
  8
0
100
AcDbLine
 10
849.8364671886687
 20
362.5964051538126
 30
0.0
 11
852.8364671886688
 21
362.6487703485977
 31
0.0
  0
LINE
  5
1374
330
2
100
AcDbEntity
  8
0
100
AcDbLine
 10
809.8364671886686
 20
433.6487703485977
 30
0.0
 11
819.8539202596656
 21
433.5613493600476
 31
0.0
  0
LINE
  5
1377
330
2
100
AcDbEntity
  8
0
100
AcDbLine
 10
849.8364671886687
 20
362.5964051538126
 30
0.0
 11
848.9030901230847
 21
361.6956124027935
 31
0.0
  0
LINE
  5
1378
330
2
100
AcDbEntity
  8
0
100
AcDbLine
 10
828.8364671886688
 20
424.4891441146979
 30
0.0
 11
847.8350858360245
 21
424.1575219926618
 31
0.0
  0
LINE
  5
1379
330
2
100
AcDbEntity
  8
0
100
AcDbLine
 10
849.8364671886687
 20
422.7011355433829
 30
0.0
 11
852.8364671886688
 21
422.6487703485977
 31
0.0
  0
LINE
  5
137A
330
2
100
AcDbEntity
  8
0
100
AcDbLine
 10
849.8364671886687
 20
422.7011355433829
 30
0.0
 11
848.9030901230853
 21
423.6019282944019
 31
0.0
  0
LINE
  5
137B
330
2
100
AcDbEntity
  8
0
100
AcDbLine
 10
852.8364671886688
 20
362.6487703485977
 30
0.0
 11
852.8364671886688
 21
422.6487703485977
 31
0.0
  0
LINE
  5
137C
330
2
100
AcDbEntity
  8
0
100
AcDbLine
 10
849.8364671886687
 20
422.7011355433829
 30
0.0
 11
849.8364671886687
 21
419.146050950681
 31
0.0
  0
LINE
  5
137D
330
2
100
AcDbEntity
  8
CENTER
  6
CENS
100
AcDbLine
 10
806.8364671886687
 20
427.2970026267389
 30
0.0
 11
833.8364671886687
 21
427.2970026267389
 31
0.0
  0
LINE
  5
137E
330
2
100
AcDbEntity
  8
0
100
AcDbLine
 10
828.436467188669
 20
422.297002626739
 30
0.0
 11
828.436467188669
 21
432.297002626739
 31
0.0
  0
LINE
  5
137F
330
2
100
AcDbEntity
  8
0
100
AcDbLine
 10
828.8364671886688
 20
431.6041823037108
 30
0.0
 11
828.8364671886688
 21
422.9898229497663
 31
0.0
  0
LINE
  5
1380
330
2
100
AcDbEntity
  8
0
100
AcDbLine
 10
822.8364671886687
 20
422.297002626739
 30
0.0
 11
822.8364671886687
 21
432.297002626739
 31
0.0
  0
LINE
  5
1381
330
2
100
AcDbEntity
  8
0
100
AcDbLine
 10
822.8364671886687
 20
432.297002626739
 30
0.0
 11
821.8364671886687
 21
432.297002626739
 31
0.0
  0
LINE
  5
1382
330
2
100
AcDbEntity
  8
0
100
AcDbLine
 10
821.8364671886687
 20
432.297002626739
 30
0.0
 11
821.8364671886687
 21
422.297002626739
 31
0.0
  0
LINE
  5
1383
330
2
100
AcDbEntity
  8
0
100
AcDbLine
 10
821.8364671886687
 20
422.297002626739
 30
0.0
 11
822.8364671886687
 21
422.297002626739
 31
0.0
  0
LINE
  5
1384
330
2
100
AcDbEntity
  8
0
100
AcDbLine
 10
822.8364671886687
 20
422.297002626739
 30
0.0
 11
822.8364671886687
 21
432.297002626739
 31
0.0
  0
LINE
  5
1385
330
2
100
AcDbEntity
  8
0
100
AcDbLine
 10
828.436467188669
 20
422.297002626739
 30
0.0
 11
822.8364671886687
 21
422.297002626739
 31
0.0
  0
LINE
  5
1386
330
2
100
AcDbEntity
  8
0
100
AcDbLine
 10
822.8364671886687
 20
432.297002626739
 30
0.0
 11
828.436467188669
 21
432.297002626739
 31
0.0
  0
LINE
  5
1387
330
2
100
AcDbEntity
  8
0
100
AcDbLine
 10
828.436467188669
 20
432.297002626739
 30
0.0
 11
828.8364671886688
 21
431.6041823037108
 31
0.0
  0
LINE
  5
1388
330
2
100
AcDbEntity
  8
0
100
AcDbLine
 10
828.436467188669
 20
422.297002626739
 30
0.0
 11
828.8364671886688
 21
422.9898229497663
 31
0.0
  0
LINE
  5
1389
330
2
100
AcDbEntity
  8
CENTER
  6
CENS
100
AcDbLine
 10
806.8364671886687
 20
358.0005380704565
 30
0.0
 11
833.8364671886687
 21
358.0005380704565
 31
0.0
  0
LINE
  5
138A
330
2
100
AcDbEntity
  8
0
100
AcDbLine
 10
828.436467188669
 20
363.0005380704565
 30
0.0
 11
828.436467188669
 21
353.0005380704565
 31
0.0
  0
LINE
  5
138B
330
2
100
AcDbEntity
  8
0
100
AcDbLine
 10
828.8364671886688
 20
353.6933583934838
 30
0.0
 11
828.8364671886688
 21
362.3077177474293
 31
0.0
  0
LINE
  5
138C
330
2
100
AcDbEntity
  8
0
100
AcDbLine
 10
822.8364671886687
 20
363.0005380704565
 30
0.0
 11
822.8364671886687
 21
353.0005380704565
 31
0.0
  0
LINE
  5
138D
330
2
100
AcDbEntity
  8
0
100
AcDbLine
 10
822.8364671886687
 20
353.0005380704565
 30
0.0
 11
821.8364671886687
 21
353.0005380704565
 31
0.0
  0
LINE
  5
138E
330
2
100
AcDbEntity
  8
0
100
AcDbLine
 10
821.8364671886687
 20
363.0005380704565
 30
0.0
 11
822.8364671886687
 21
363.0005380704565
 31
0.0
  0
LINE
  5
138F
330
2
100
AcDbEntity
  8
0
100
AcDbLine
 10
822.8364671886687
 20
363.0005380704565
 30
0.0
 11
822.8364671886687
 21
353.0005380704565
 31
0.0
  0
LINE
  5
1390
330
2
100
AcDbEntity
  8
0
100
AcDbLine
 10
828.436467188669
 20
363.0005380704565
 30
0.0
 11
822.8364671886687
 21
363.0005380704565
 31
0.0
  0
LINE
  5
1391
330
2
100
AcDbEntity
  8
0
100
AcDbLine
 10
822.8364671886687
 20
353.0005380704565
 30
0.0
 11
828.436467188669
 21
353.0005380704565
 31
0.0
  0
LINE
  5
1392
330
2
100
AcDbEntity
  8
0
100
AcDbLine
 10
828.436467188669
 20
353.0005380704565
 30
0.0
 11
828.8364671886688
 21
353.6933583934838
 31
0.0
  0
LINE
  5
1393
330
2
100
AcDbEntity
  8
0
100
AcDbLine
 10
828.436467188669
 20
363.0005380704565
 30
0.0
 11
828.8364671886688
 21
362.3077177474293
 31
0.0
  0
LINE
  5
1394
330
2
100
AcDbEntity
  8
0
100
AcDbLine
 10
843.3364565796168
 20
399.6487703485978
 30
0.0
 11
833.3364565796168
 21
399.6487703485978
 31
0.0
  0
LINE
  5
1395
330
2
100
AcDbEntity
  8
0
100
AcDbLine
 10
843.3364565796168
 20
399.6487703485978
 30
0.0
 11
843.3364565796168
 21
392.6487703485978
 31
0.0
  0
LINE
  5
1396
330
2
100
AcDbEntity
  8
0
100
AcDbLine
 10
845.3364565796167
 20
400.8034708869777
 30
0.0
 11
843.3364565796168
 21
399.6487703485978
 31
0.0
  0
LINE
  5
1397
330
2
100
AcDbEntity
  8
0
100
AcDbLine
 10
816.3364565796168
 20
399.8987703485978
 30
0.0
 11
816.3364565796168
 21
392.6487703485978
 31
0.0
  0
LINE
  5
1398
330
2
100
AcDbEntity
  8
0
100
AcDbLine
 10
843.3364565796168
 20
399.6487703485978
 30
0.0
 11
833.3364565796168
 21
399.6487703485978
 31
0.0
  0
LINE
  5
1399
330
2
100
AcDbEntity
  8
0
100
AcDbLine
 10
838.2486707582906
 20
407.3987703485977
 30
0.0
 11
845.3364565796167
 21
407.3987703485977
 31
0.0
  0
LINE
  5
139A
330
2
100
AcDbEntity
  8
0
100
AcDbLine
 10
845.3364565796167
 20
407.3987703485977
 30
0.0
 11
845.3364565796167
 21
392.6487703485978
 31
0.0
  0
LINE
  5
139B
330
2
100
AcDbEntity
  8
0
100
AcDbLine
 10
831.3364565796167
 20
402.9334515353207
 30
0.0
 11
831.3364565796167
 21
392.6487703485978
 31
0.0
  0
LINE
  5
139C
330
2
100
AcDbEntity
  8
0
100
AcDbLine
 10
833.3364565796168
 20
403.458851682753
 30
0.0
 11
833.3364565796168
 21
392.6487703485978
 31
0.0
  0
LINE
  5
139D
330
2
100
AcDbEntity
  8
0
100
AcDbLine
 10
824.3364565796166
 20
399.8987703485978
 30
0.0
 11
816.3364565796168
 21
399.8987703485978
 31
0.0
  0
LINE
  5
139E
330
2
100
AcDbEntity
  8
0
100
AcDbLine
 10
824.3364565796166
 20
392.6487703485978
 30
0.0
 11
824.3364565796166
 21
399.8987703485978
 31
0.0
  0
LINE
  5
139F
330
2
100
AcDbEntity
  8
0
100
AcDbLine
 10
831.3364565796167
 20
399.6487703485978
 30
0.0
 11
824.3364565796166
 21
399.6487703485978
 31
0.0
  0
LINE
  5
13A0
330
2
100
AcDbEntity
  8
0
100
AcDbLine
 10
812.5836798298845
 20
392.6487703485978
 30
0.0
 11
816.3364565796168
 21
399.1487703485978
 31
0.0
  0
LINE
  5
13A1
330
2
100
AcDbEntity
  8
0
100
AcDbLine
 10
845.8364671886688
 20
417.6487703485977
 30
0.0
 11
852.8364671886688
 21
417.6487703485977
 31
0.0
  0
LINE
  5
13A2
330
2
100
AcDbEntity
  8
0
100
AcDbLine
 10
845.8364671886688
 20
417.6487703485977
 30
0.0
 11
845.8364671886688
 21
392.6487703485978
 31
0.0
  0
SPLINE
  5
13A3
330
2
100
AcDbEntity
  8
HOJO
100
AcDbSpline
210
0.0
220
0.0
230
1.0
 70
     8
 71
     3
 72
    20
 73
    16
 74
     0
 42
0.0000000001
 43
0.0000000001
 40
0.0
 40
0.0
 40
0.0
 40
0.0
 40
5.311626210389601
 40
7.954639692924123
 40
10.24579206730457
 40
14.18281221953265
 40
18.83794314114633
 40
26.54246833222011
 40
31.19712602527561
 40
34.95638115537181
 40
42.12378530287149
 40
45.78553747213095
 40
50.20353689726185
 40
53.26513166942802
 40
54.23175360515262
 40
54.23175360515262
 40
54.23175360515262
 40
54.23175360515262
 10
852.8364671886688
 20
419.3362190706134
 30
0.0
 10
851.1234880227787
 20
419.2281770203877
 30
0.0
 10
848.5581471033677
 20
419.0663742979837
 30
0.0
 10
844.7863932162912
 20
418.8142416258156
 30
0.0
 10
843.4672520001571
 20
415.8818001408485
 30
0.0
 10
841.0320426318671
 20
413.2272913175534
 30
0.0
 10
839.1939942887169
 20
408.0759958843897
 30
0.0
 10
835.0691578792396
 20
403.3662485327637
 30
0.0
 10
829.5915103762331
 20
402.7289170983445
 30
0.0
 10
824.6781248666669
 20
401.8748934667869
 30
0.0
 10
819.8441255199089
 20
401.5387529450158
 30
0.0
 10
814.806398755269
 20
401.1353781961111
 30
0.0
 10
811.7352481339006
 20
396.9331751992509
 30
0.0
 10
810.735273839175
 20
394.2549346783613
 30
0.0
 10
810.3792343139415
 20
392.9599216482907
 30
0.0
 10
810.2965065418542
 20
392.6487703485978
 30
0.0
  0
LINE
  5
13A4
330
2
100
AcDbEntity
  8
0
100
AcDbLine
 10
843.9055046811503
 20
428.2267223990371
 30
0.0
 11
833.9070277295853
 21
428.4012464634102
 31
0.0
  0
ARC
  5
13A5
330
2
100
AcDbEntity
  8
0
100
AcDbCircle
 10
833.837218103836
 20
424.4018556827846
 30
0.0
 40
4.000000000000023
100
AcDbArc
 50
89.0000000000243
 51
178.9999999999982
  0
ARC
  5
13A6
330
2
100
AcDbEntity
  8
0
100
AcDbCircle
 10
843.8356950553991
 20
424.2273316184115
 30
0.0
 40
4.000000000000023
100
AcDbArc
 50
358.9999999999941
 51
89.0000000000243
  0
LINE
  5
13A7
330
2
100
AcDbEntity
  8
CENTER
  6
CENS
100
AcDbLine
 10
838.8364565796186
 20
431.5757042461615
 30
0.0
 11
838.8364565796186
 21
408.2157782437946
 31
0.0
  0
LINE
  5
13A9
330
2
100
AcDbEntity
  8
0
100
AcDbLine
 10
849.8364671886687
 20
362.5964051538126
 30
0.0
 11
849.8364671886687
 21
392.6487703485978
 31
0.0
  0
LINE
  5
13AA
330
2
100
AcDbEntity
  8
0
100
AcDbLine
 10
842.7358005170502
 20
415.1487703485978
 30
0.0
 11
845.8364671886696
 21
415.1487703485978
 31
0.0
  0
LINE
  5
13AB
330
2
100
AcDbEntity
  8
0
100
AcDbLine
 10
821.836467188671
 20
625.4648519888717
 30
0.0
 11
821.8364671886709
 21
704.7613165451532
 31
0.0
  0
LINE
  5
13AD
330
2
100
AcDbEntity
  8
0
100
AcDbLine
 10
809.8364671886709
 20
706.1130842670129
 30
0.0
 11
819.8539202596677
 21
706.0256632784617
 31
0.0
  0
LINE
  5
13AE
330
2
100
AcDbEntity
  8
0
100
AcDbLine
 10
828.8364671886709
 20
696.9534580331131
 30
0.0
 11
847.5491242464684
 21
696.6268273891899
 31
0.0
  0
LINE
  5
13AF
330
2
100
AcDbEntity
  8
0
100
AcDbLine
 10
849.836467188671
 20
695.165449461798
 30
0.0
 11
852.8364671886709
 21
695.1130842670129
 31
0.0
  0
LINE
  5
13B0
330
2
100
AcDbEntity
  8
0
100
AcDbLine
 10
809.8364671886709
 20
624.1130842670129
 30
0.0
 11
819.8539202596677
 21
624.2005052555631
 31
0.0
  0
LINE
  5
13B3
330
2
100
AcDbEntity
  8
0
100
AcDbLine
 10
849.836467188671
 20
695.165449461798
 30
0.0
 11
848.9030901230872
 21
696.0662422128172
 31
0.0
  0
LINE
  5
13B4
330
2
100
AcDbEntity
  8
0
100
AcDbLine
 10
828.8364671886709
 20
633.2727105009127
 30
0.0
 11
847.5491242464681
 21
633.5993411448352
 31
0.0
  0
LINE
  5
13B5
330
2
100
AcDbEntity
  8
0
100
AcDbLine
 10
849.836467188671
 20
635.0607190722278
 30
0.0
 11
852.8364671886709
 21
635.1130842670129
 31
0.0
  0
LINE
  5
13B6
330
2
100
AcDbEntity
  8
0
100
AcDbLine
 10
849.836467188671
 20
635.0607190722278
 30
0.0
 11
848.9030901230874
 21
634.1599263212083
 31
0.0
  0
LINE
  5
13B7
330
2
100
AcDbEntity
  8
0
100
AcDbLine
 10
852.8364671886709
 20
695.1130842670129
 30
0.0
 11
852.8364671886709
 21
635.1130842670129
 31
0.0
  0
LINE
  5
13B8
330
2
100
AcDbEntity
  8
0
100
AcDbLine
 10
849.836467188671
 20
635.0607190722278
 30
0.0
 11
849.836467188671
 21
695.165449461798
 31
0.0
  0
LINE
  5
13B9
330
2
100
AcDbEntity
  8
CENTER
  6
CENS
100
AcDbLine
 10
806.836467188671
 20
630.4648519888717
 30
0.0
 11
833.836467188671
 21
630.4648519888717
 31
0.0
  0
LINE
  5
13BA
330
2
100
AcDbEntity
  8
0
100
AcDbLine
 10
828.4364671886713
 20
635.4648519888717
 30
0.0
 11
828.4364671886713
 21
625.4648519888717
 31
0.0
  0
LINE
  5
13BB
330
2
100
AcDbEntity
  8
0
100
AcDbLine
 10
828.8364671886709
 20
626.1576723118999
 30
0.0
 11
828.8364671886709
 21
634.7720316658445
 31
0.0
  0
LINE
  5
13BC
330
2
100
AcDbEntity
  8
0
100
AcDbLine
 10
822.836467188671
 20
635.4648519888717
 30
0.0
 11
822.836467188671
 21
625.4648519888717
 31
0.0
  0
LINE
  5
13BD
330
2
100
AcDbEntity
  8
0
100
AcDbLine
 10
822.836467188671
 20
625.4648519888717
 30
0.0
 11
821.836467188671
 21
625.4648519888717
 31
0.0
  0
LINE
  5
13BE
330
2
100
AcDbEntity
  8
0
100
AcDbLine
 10
821.836467188671
 20
635.4648519888717
 30
0.0
 11
822.836467188671
 21
635.4648519888717
 31
0.0
  0
LINE
  5
13BF
330
2
100
AcDbEntity
  8
0
100
AcDbLine
 10
822.836467188671
 20
635.4648519888717
 30
0.0
 11
822.836467188671
 21
625.4648519888717
 31
0.0
  0
LINE
  5
13C0
330
2
100
AcDbEntity
  8
0
100
AcDbLine
 10
828.4364671886713
 20
635.4648519888717
 30
0.0
 11
822.836467188671
 21
635.4648519888717
 31
0.0
  0
LINE
  5
13C1
330
2
100
AcDbEntity
  8
0
100
AcDbLine
 10
822.836467188671
 20
625.4648519888717
 30
0.0
 11
828.4364671886713
 21
625.4648519888717
 31
0.0
  0
LINE
  5
13C2
330
2
100
AcDbEntity
  8
0
100
AcDbLine
 10
828.4364671886713
 20
625.4648519888717
 30
0.0
 11
828.8364671886709
 21
626.1576723118999
 31
0.0
  0
LINE
  5
13C3
330
2
100
AcDbEntity
  8
CENTER
  6
CENS
100
AcDbLine
 10
806.836467188671
 20
699.7613165451532
 30
0.0
 11
833.836467188671
 21
699.7613165451532
 31
0.0
  0
LINE
  5
13C4
330
2
100
AcDbEntity
  8
0
100
AcDbLine
 10
828.4364671886713
 20
694.7613165451532
 30
0.0
 11
828.4364671886713
 21
704.7613165451532
 31
0.0
  0
LINE
  5
13C5
330
2
100
AcDbEntity
  8
0
100
AcDbLine
 10
828.8364671886709
 20
704.0684962221259
 30
0.0
 11
828.8364671886709
 21
695.4541368681814
 31
0.0
  0
LINE
  5
13C6
330
2
100
AcDbEntity
  8
0
100
AcDbLine
 10
822.836467188671
 20
694.7613165451532
 30
0.0
 11
822.836467188671
 21
704.7613165451532
 31
0.0
  0
LINE
  5
13C7
330
2
100
AcDbEntity
  8
0
100
AcDbLine
 10
822.836467188671
 20
704.7613165451532
 30
0.0
 11
821.8364671886709
 21
704.7613165451532
 31
0.0
  0
LINE
  5
13C8
330
2
100
AcDbEntity
  8
0
100
AcDbLine
 10
821.836467188671
 20
694.7613165451532
 30
0.0
 11
822.836467188671
 21
694.7613165451532
 31
0.0
  0
LINE
  5
13C9
330
2
100
AcDbEntity
  8
0
100
AcDbLine
 10
822.836467188671
 20
694.7613165451532
 30
0.0
 11
822.836467188671
 21
704.7613165451532
 31
0.0
  0
LINE
  5
13CA
330
2
100
AcDbEntity
  8
0
100
AcDbLine
 10
828.4364671886713
 20
694.7613165451532
 30
0.0
 11
822.836467188671
 21
694.7613165451532
 31
0.0
  0
LINE
  5
13CB
330
2
100
AcDbEntity
  8
0
100
AcDbLine
 10
822.836467188671
 20
704.7613165451532
 30
0.0
 11
828.4364671886713
 21
704.7613165451532
 31
0.0
  0
LINE
  5
13CC
330
2
100
AcDbEntity
  8
0
100
AcDbLine
 10
828.4364671886713
 20
704.7613165451532
 30
0.0
 11
828.8364671886709
 21
704.0684962221259
 31
0.0
  0
LINE
  5
13CD
330
2
100
AcDbEntity
  8
0
100
AcDbLine
 10
828.4364671886713
 20
694.7613165451532
 30
0.0
 11
828.8364671886709
 21
695.4541368681804
 31
0.0
  0
LINE
  5
13CE
330
2
100
AcDbEntity
  8
0
100
AcDbLine
 10
828.8364671886709
 20
634.7720316658445
 30
0.0
 11
828.4364671886713
 21
635.4648519888717
 31
0.0
  0
CIRCLE
  5
13CF
330
2
100
AcDbEntity
  8
0
100
AcDbCircle
 10
838.8364565796209
 20
654.6130842670129
 30
0.0
 40
9.0
  0
LINE
  5
13D0
330
2
100
AcDbEntity
  8
CENTER
  6
CENS
100
AcDbLine
 10
838.8364565796191
 20
643.0269184216361
 30
0.0
 11
838.8364565796191
 21
666.1992501123879
 31
0.0
  0
LINE
  5
13D1
330
2
100
AcDbEntity
  8
CENTER
  6
CENS
100
AcDbLine
 10
850.4226224249949
 20
654.613084267012
 30
0.0
 11
827.2502907342431
 21
654.613084267012
 31
0.0
  0
LINE
  5
13D2
330
2
100
AcDbEntity
  8
0
100
AcDbLine
 10
80.86246813553861
 20
431.5614255139191
 30
0.0
 11
80.86246813553863
 21
353.0005380704565
 31
0.0
  0
LINE
  5
13D3
330
2
100
AcDbEntity
  8
0
100
AcDbLine
 10
92.86246813553816
 20
351.6487703485978
 30
0.0
 11
82.84501506454182
 21
351.7361913371488
 31
0.0
  0
LINE
  5
13D4
330
2
100
AcDbEntity
  8
0
100
AcDbLine
 10
73.86246813553862
 20
360.8083965824967
 30
0.0
 11
55.14981107774117
 21
361.1350272264207
 31
0.0
  0
LINE
  5
13D5
330
2
100
AcDbEntity
  8
0
100
AcDbLine
 10
52.86246813553862
 20
362.5964051538126
 30
0.0
 11
49.86246813553862
 21
362.6487703485977
 31
0.0
  0
LINE
  5
13D6
330
2
100
AcDbEntity
  8
0
100
AcDbLine
 10
92.86246813553816
 20
433.6487703485977
 30
0.0
 11
82.84501506454196
 21
433.5613493600474
 31
0.0
  0
LINE
  5
13D9
330
2
100
AcDbEntity
  8
0
100
AcDbLine
 10
52.86246813553862
 20
362.5964051538126
 30
0.0
 11
53.79584520112259
 21
361.6956124027935
 31
0.0
  0
LINE
  5
13DA
330
2
100
AcDbEntity
  8
0
100
AcDbLine
 10
73.86246813553862
 20
424.4891441146979
 30
0.0
 11
54.86384948818257
 21
424.1575219926619
 31
0.0
  0
LINE
  5
13DB
330
2
100
AcDbEntity
  8
0
100
AcDbLine
 10
52.86246813553862
 20
422.7011355433829
 30
0.0
 11
49.86246813553862
 21
422.6487703485977
 31
0.0
  0
LINE
  5
13DC
330
2
100
AcDbEntity
  8
0
100
AcDbLine
 10
52.86246813553862
 20
422.7011355433829
 30
0.0
 11
53.79584520112244
 21
423.6019282944019
 31
0.0
  0
LINE
  5
13DD
330
2
100
AcDbEntity
  8
0
100
AcDbLine
 10
49.86246813553862
 20
362.6487703485977
 30
0.0
 11
49.86246813553862
 21
422.6487703485977
 31
0.0
  0
LINE
  5
13DE
330
2
100
AcDbEntity
  8
CENTER
  6
CENS
100
AcDbLine
 10
95.86246813553817
 20
427.2970026267389
 30
0.0
 11
68.86246813553862
 21
427.2970026267389
 31
0.0
  0
LINE
  5
13DF
330
2
100
AcDbEntity
  8
0
100
AcDbLine
 10
74.26246813553825
 20
422.297002626739
 30
0.0
 11
74.26246813553825
 21
432.297002626739
 31
0.0
  0
LINE
  5
13E0
330
2
100
AcDbEntity
  8
0
100
AcDbLine
 10
73.86246813553862
 20
431.6041823037108
 30
0.0
 11
73.86246813553862
 21
422.9898229497663
 31
0.0
  0
LINE
  5
13E1
330
2
100
AcDbEntity
  8
0
100
AcDbLine
 10
79.86246813553862
 20
422.297002626739
 30
0.0
 11
79.86246813553862
 21
432.297002626739
 31
0.0
  0
LINE
  5
13E2
330
2
100
AcDbEntity
  8
0
100
AcDbLine
 10
79.86246813553862
 20
432.297002626739
 30
0.0
 11
80.86246813553861
 21
432.297002626739
 31
0.0
  0
LINE
  5
13E3
330
2
100
AcDbEntity
  8
0
100
AcDbLine
 10
80.86246813553861
 20
432.297002626739
 30
0.0
 11
80.86246813553861
 21
422.297002626739
 31
0.0
  0
LINE
  5
13E4
330
2
100
AcDbEntity
  8
0
100
AcDbLine
 10
80.86246813553861
 20
422.297002626739
 30
0.0
 11
79.86246813553862
 21
422.297002626739
 31
0.0
  0
LINE
  5
13E5
330
2
100
AcDbEntity
  8
0
100
AcDbLine
 10
79.86246813553862
 20
422.297002626739
 30
0.0
 11
79.86246813553862
 21
432.297002626739
 31
0.0
  0
LINE
  5
13E6
330
2
100
AcDbEntity
  8
0
100
AcDbLine
 10
74.26246813553825
 20
422.297002626739
 30
0.0
 11
79.86246813553862
 21
422.297002626739
 31
0.0
  0
LINE
  5
13E7
330
2
100
AcDbEntity
  8
0
100
AcDbLine
 10
79.86246813553862
 20
432.297002626739
 30
0.0
 11
74.26246813553825
 21
432.297002626739
 31
0.0
  0
LINE
  5
13E8
330
2
100
AcDbEntity
  8
0
100
AcDbLine
 10
74.26246813553825
 20
432.297002626739
 30
0.0
 11
73.86246813553862
 21
431.6041823037108
 31
0.0
  0
LINE
  5
13E9
330
2
100
AcDbEntity
  8
0
100
AcDbLine
 10
74.26246813553825
 20
422.297002626739
 30
0.0
 11
73.86246813553862
 21
422.9898229497663
 31
0.0
  0
LINE
  5
13EA
330
2
100
AcDbEntity
  8
CENTER
  6
CENS
100
AcDbLine
 10
95.86246813553817
 20
358.0005380704565
 30
0.0
 11
68.86246813553862
 21
358.0005380704565
 31
0.0
  0
LINE
  5
13EB
330
2
100
AcDbEntity
  8
0
100
AcDbLine
 10
74.26246813553825
 20
363.0005380704565
 30
0.0
 11
74.26246813553825
 21
353.0005380704565
 31
0.0
  0
LINE
  5
13EC
330
2
100
AcDbEntity
  8
0
100
AcDbLine
 10
73.86246813553862
 20
353.6933583934838
 30
0.0
 11
73.86246813553862
 21
362.3077177474293
 31
0.0
  0
LINE
  5
13ED
330
2
100
AcDbEntity
  8
0
100
AcDbLine
 10
79.86246813553862
 20
363.0005380704565
 30
0.0
 11
79.86246813553862
 21
353.0005380704565
 31
0.0
  0
LINE
  5
13EE
330
2
100
AcDbEntity
  8
0
100
AcDbLine
 10
79.86246813553862
 20
353.0005380704565
 30
0.0
 11
80.86246813553863
 21
353.0005380704565
 31
0.0
  0
LINE
  5
13EF
330
2
100
AcDbEntity
  8
0
100
AcDbLine
 10
80.86246813553861
 20
363.0005380704565
 30
0.0
 11
79.86246813553862
 21
363.0005380704565
 31
0.0
  0
LINE
  5
13F0
330
2
100
AcDbEntity
  8
0
100
AcDbLine
 10
79.86246813553862
 20
363.0005380704565
 30
0.0
 11
79.86246813553862
 21
353.0005380704565
 31
0.0
  0
LINE
  5
13F1
330
2
100
AcDbEntity
  8
0
100
AcDbLine
 10
74.26246813553825
 20
363.0005380704565
 30
0.0
 11
79.86246813553862
 21
363.0005380704565
 31
0.0
  0
LINE
  5
13F2
330
2
100
AcDbEntity
  8
0
100
AcDbLine
 10
79.86246813553862
 20
353.0005380704565
 30
0.0
 11
74.26246813553825
 21
353.0005380704565
 31
0.0
  0
LINE
  5
13F3
330
2
100
AcDbEntity
  8
0
100
AcDbLine
 10
74.26246813553825
 20
353.0005380704565
 30
0.0
 11
73.86246813553862
 21
353.6933583934838
 31
0.0
  0
LINE
  5
13F4
330
2
100
AcDbEntity
  8
0
100
AcDbLine
 10
74.26246813553825
 20
363.0005380704565
 30
0.0
 11
73.86246813553862
 21
362.3077177474293
 31
0.0
  0
LINE
  5
13F5
330
2
100
AcDbEntity
  8
0
100
AcDbLine
 10
58.79343064305704
 20
428.2267223990371
 30
0.0
 11
68.79190759462199
 21
428.4012464634102
 31
0.0
  0
ARC
  5
13F6
330
2
100
AcDbEntity
  8
0
100
AcDbCircle
 10
68.86171722037125
 20
424.4018556827846
 30
0.0
 40
4.000000000000023
100
AcDbArc
 50
1.000000000001775
 51
90.99999999997569
  0
ARC
  5
13F7
330
2
100
AcDbEntity
  8
0
100
AcDbCircle
 10
58.86324026880811
 20
424.2273316184115
 30
0.0
 40
4.000000000000023
100
AcDbArc
 50
90.99999999997569
 51
181.0000000000066
  0
LINE
  5
13F8
330
2
100
AcDbEntity
  8
CENTER
  6
CENS
100
AcDbLine
 10
63.86247874458877
 20
431.5757042461615
 30
0.0
 11
63.86247874458877
 21
408.2157782437946
 31
0.0
  0
LINE
  5
13FA
330
2
100
AcDbEntity
  8
0
100
AcDbLine
 10
52.86246813553862
 20
362.5964051538126
 30
0.0
 11
52.86246813553862
 21
422.7011355433837
 31
0.0
  0
LINE
  5
13FB
330
2
100
AcDbEntity
  8
CENTER
100
AcDbLine
 10
1096.840758264943
 20
365.6599829057364
 30
0.0
 11
1096.840758264943
 21
350.3410932351812
 31
0.0
  0
INSERT
  5
13FC
330
2
100
AcDbEntity
  8
0
100
AcDbBlockReference
  2
A$C79D50562
 10
1027.544293708661
 20
358.0005380704584
 30
0.0
  0
ARC
  5
13FD
330
2
100
AcDbEntity
  8
0
100
AcDbCircle
 10
1026.192525986802
 20
356.6487703485996
 30
0.0
 40
5.0
100
AcDbArc
 50
180.0
 51
270.0
  0
ARC
  5
13FE
330
2
100
AcDbEntity
  8
0
100
AcDbCircle
 10
1098.192525986802
 20
356.6487703485996
 30
0.0
 40
5.0
100
AcDbArc
 50
270.0
 51
0.0
  0
LINE
  5
13FF
330
2
100
AcDbEntity
  8
CENTER
100
AcDbLine
 10
1089.181313429666
 20
427.2970026267408
 30
0.0
 11
1104.50020310022
 21
427.2970026267408
 31
0.0
  0
LINE
  5
1400
330
2
100
AcDbEntity
  8
0
100
AcDbLine
 10
1026.192525986802
 20
433.6487703485996
 30
0.0
 11
1098.192525986802
 21
433.6487703485996
 31
0.0
  0
ARC
  5
1401
330
2
100
AcDbEntity
  8
0
100
AcDbCircle
 10
1087.192525986802
 20
417.6487703485996
 30
0.0
 40
5.0
100
AcDbArc
 50
0.0
 51
90.0
  0
ARC
  5
1402
330
2
100
AcDbEntity
  8
0
100
AcDbCircle
 10
1087.192525986802
 20
417.6487703485996
 30
0.0
 40
6.499999999999829
100
AcDbArc
 50
0.0
 51
90.0
  0
LINE
  5
1403
330
2
100
AcDbEntity
  8
CENTER
100
AcDbLine
 10
1089.181313429666
 20
358.0005380704584
 30
0.0
 11
1104.50020310022
 21
358.0005380704584
 31
0.0
  0
ARC
  5
1404
330
2
100
AcDbEntity
  8
0
100
AcDbCircle
 10
1087.192525986802
 20
367.6487703485996
 30
0.0
 40
5.0
100
AcDbArc
 50
270.0
 51
0.0
  0
ARC
  5
1405
330
2
100
AcDbEntity
  8
0
100
AcDbCircle
 10
1087.192525986802
 20
367.6487703485996
 30
0.0
 40
6.499999999999829
100
AcDbArc
 50
270.0
 51
0.0
  0
LINE
  5
1406
330
2
100
AcDbEntity
  8
0
100
AcDbLine
 10
1092.192525986802
 20
417.6487703485996
 30
0.0
 11
1092.192525986802
 21
367.6487703485996
 31
0.0
  0
LINE
  5
1407
330
2
100
AcDbEntity
  8
0
100
AcDbLine
 10
1032.192525986802
 20
417.6487703485996
 30
0.0
 11
1032.192525986802
 21
367.6487703485996
 31
0.0
  0
LINE
  5
1408
330
2
100
AcDbEntity
  8
0
100
AcDbLine
 10
1030.692525986802
 20
417.6487703485996
 30
0.0
 11
1030.692525986802
 21
367.6487703485996
 31
0.0
  0
CIRCLE
  5
1409
330
2
100
AcDbEntity
  8
0
100
AcDbCircle
 10
1062.192525986802
 20
392.6487703485996
 30
0.0
 40
25.00000000482703
  0
LINE
  5
140A
330
2
100
AcDbEntity
  8
0
100
AcDbLine
 10
1087.192525986802
 20
362.6487703485996
 30
0.0
 11
1037.192525986802
 21
362.6487703485996
 31
0.0
  0
LINE
  5
140B
330
2
100
AcDbEntity
  8
0
100
AcDbLine
 10
1087.192525986802
 20
361.1487703485996
 30
0.0
 11
1037.192525986802
 21
361.1487703485996
 31
0.0
  0
ARC
  5
140C
330
2
100
AcDbEntity
  8
0
100
AcDbCircle
 10
1037.192525986802
 20
367.6487703485996
 30
0.0
 40
5.0
100
AcDbArc
 50
180.0
 51
270.0
  0
ARC
  5
140D
330
2
100
AcDbEntity
  8
0
100
AcDbCircle
 10
1037.192525986802
 20
367.6487703485996
 30
0.0
 40
6.499999999999829
100
AcDbArc
 50
180.0
 51
270.0
  0
LINE
  5
140E
330
2
100
AcDbEntity
  8
CENTER
100
AcDbLine
 10
1037.443788645274
 20
371.3563157295717
 30
0.0
 11
1037.443788645274
 21
364.4437502845699
 31
0.0
  0
LINE
  5
140F
330
2
100
AcDbEntity
  8
CENTER
100
AcDbLine
 10
1033.987505922772
 20
367.9000330070699
 30
0.0
 11
1040.900071367774
 21
367.9000330070699
 31
0.0
  0
LINE
  5
1410
330
2
100
AcDbEntity
  8
CENTER
100
AcDbLine
 10
1083.484980605832
 20
367.9000330070699
 30
0.0
 11
1090.397546050832
 21
367.9000330070699
 31
0.0
  0
LINE
  5
1411
330
2
100
AcDbEntity
  8
CENTER
100
AcDbLine
 10
1086.941263328332
 20
371.3563157295717
 30
0.0
 11
1086.941263328332
 21
364.4437502845699
 31
0.0
  0
LINE
  5
1412
330
2
100
AcDbEntity
  8
0
100
AcDbLine
 10
1037.192525986802
 20
422.6487703485996
 30
0.0
 11
1087.192525986802
 21
422.6487703485996
 31
0.0
  0
LINE
  5
1413
330
2
100
AcDbEntity
  8
0
100
AcDbLine
 10
1037.192525986802
 20
424.1487703485995
 30
0.0
 11
1087.192525986802
 21
424.1487703485995
 31
0.0
  0
ARC
  5
1414
330
2
100
AcDbEntity
  8
0
100
AcDbCircle
 10
1026.192525986802
 20
428.6487703485995
 30
0.0
 40
5.0
100
AcDbArc
 50
180.0
 51
180.0
  0
LINE
  5
1415
330
2
100
AcDbEntity
  8
CENTER
100
AcDbLine
 10
1019.884848873384
 20
427.2970026267408
 30
0.0
 11
1035.20373854394
 21
427.2970026267408
 31
0.0
  0
LINE
  5
1416
330
2
100
AcDbEntity
  8
CENTER
100
AcDbLine
 10
1027.544293708661
 20
434.9564474620179
 30
0.0
 11
1027.544293708661
 21
419.6375577914627
 31
0.0
  0
ARC
  5
1417
330
2
100
AcDbEntity
  8
0
100
AcDbCircle
 10
1037.192525986802
 20
417.6487703485996
 30
0.0
 40
5.0
100
AcDbArc
 50
90.0
 51
180.0
  0
ARC
  5
1418
330
2
100
AcDbEntity
  8
0
100
AcDbCircle
 10
1037.192525986802
 20
417.6487703485996
 30
0.0
 40
6.499999999999829
100
AcDbArc
 50
90.0
 51
180.0
  0
LINE
  5
1419
330
2
100
AcDbEntity
  8
CENTER
100
AcDbLine
 10
1037.443788645274
 20
420.8537904126292
 30
0.0
 11
1037.443788645274
 21
413.9412249676275
 31
0.0
  0
LINE
  5
141A
330
2
100
AcDbEntity
  8
CENTER
100
AcDbLine
 10
1033.987505922772
 20
417.3975076901283
 30
0.0
 11
1040.900071367774
 21
417.3975076901283
 31
0.0
  0
LINE
  5
141B
330
2
100
AcDbEntity
  8
CENTER
100
AcDbLine
 10
1086.941263328332
 20
420.8537904126292
 30
0.0
 11
1086.941263328332
 21
413.9412249676275
 31
0.0
  0
LINE
  5
141C
330
2
100
AcDbEntity
  8
CENTER
100
AcDbLine
 10
1083.484980605832
 20
417.3975076901292
 30
0.0
 11
1090.397546050832
 21
417.3975076901292
 31
0.0
  0
LINE
  5
141D
330
2
100
AcDbEntity
  8
0
100
AcDbLine
 10
1093.692525986802
 20
417.6487703485996
 30
0.0
 11
1093.692525986802
 21
367.6487703485996
 31
0.0
  0
LINE
  5
141E
330
2
100
AcDbEntity
  8
CENTER
100
AcDbLine
 10
1096.840758264943
 20
434.9564474620179
 30
0.0
 11
1096.840758264943
 21
419.6375577914627
 31
0.0
  0
ARC
  5
141F
330
2
100
AcDbEntity
  8
0
100
AcDbCircle
 10
1098.192525986802
 20
428.6487703485995
 30
0.0
 40
5.0
100
AcDbArc
 50
0.0
 51
90.0
  0
CIRCLE
  5
1420
330
2
100
AcDbEntity
  8
CENTER
100
AcDbCircle
 10
1062.192525986802
 20
392.6487703485996
 30
0.0
 40
35.00000000000003
  0
LINE
  5
1421
330
2
100
AcDbEntity
  8
HIDS
100
AcDbLine
 10
1045.942525986802
 20
424.1487703485995
 30
0.0
 11
1045.942525986802
 21
408.2111448460887
 31
0.0
  0
LINE
  5
1422
330
2
100
AcDbEntity
  8
HIDS
100
AcDbLine
 10
1057.442525986802
 20
424.1487703485995
 30
0.0
 11
1057.442525986802
 21
414.6416669290879
 31
0.0
  0
LINE
  5
1423
330
2
100
AcDbEntity
  8
0
100
AcDbLine
 10
1098.192525986802
 20
351.6487703485996
 30
0.0
 11
1026.192525986802
 21
351.6487703485996
 31
0.0
  0
CIRCLE
  5
1424
330
2
100
AcDbEntity
  8
0
100
AcDbCircle
 10
1097.04394034068
 20
427.2970026267408
 30
0.0
 40
5.0
  0
CIRCLE
  5
1425
330
2
100
AcDbEntity
  8
0
100
AcDbCircle
 10
1097.04394034068
 20
427.2970026267408
 30
0.0
 40
4.307179676972423
  0
CIRCLE
  5
1426
330
2
100
AcDbEntity
  8
0
100
AcDbCircle
 10
1097.04394034068
 20
427.2970026267408
 30
0.0
 40
2.886751345948113
  0
LWPOLYLINE
  5
1427
330
2
100
AcDbEntity
  8
0
100
AcDbPolyline
 90
        6
 70
     1
 43
0.0
 10
1099.54394034068
 20
428.7403782997149
 10
1097.04394034068
 20
430.1837539726889
 10
1094.54394034068
 20
428.7403782997149
 10
1094.54394034068
 20
425.8536269537668
 10
1097.04394034068
 20
424.4102512807926
 10
1099.54394034068
 20
425.8536269537668
  0
CIRCLE
  5
1428
330
2
100
AcDbEntity
  8
0
100
AcDbCircle
 10
1097.04394034068
 20
358.0005380704584
 30
0.0
 40
5.0
  0
CIRCLE
  5
1429
330
2
100
AcDbEntity
  8
0
100
AcDbCircle
 10
1097.04394034068
 20
358.0005380704584
 30
0.0
 40
4.307179676972423
  0
CIRCLE
  5
142A
330
2
100
AcDbEntity
  8
0
100
AcDbCircle
 10
1097.04394034068
 20
358.0005380704584
 30
0.0
 40
2.886751345948113
  0
LWPOLYLINE
  5
142B
330
2
100
AcDbEntity
  8
0
100
AcDbPolyline
 90
        6
 70
     1
 43
0.0
 10
1099.54394034068
 20
359.4439137434324
 10
1097.04394034068
 20
360.8872894164065
 10
1094.54394034068
 20
359.4439137434324
 10
1094.54394034068
 20
356.5571623974843
 10
1097.04394034068
 20
355.1137867245102
 10
1099.54394034068
 20
356.5571623974843
  0
CIRCLE
  5
142C
330
2
100
AcDbEntity
  8
0
100
AcDbCircle
 10
1027.544293708661
 20
358.0005380704584
 30
0.0
 40
5.0
  0
CIRCLE
  5
142D
330
2
100
AcDbEntity
  8
0
100
AcDbCircle
 10
1027.544293708661
 20
358.0005380704584
 30
0.0
 40
4.307179676972423
  0
CIRCLE
  5
142E
330
2
100
AcDbEntity
  8
0
100
AcDbCircle
 10
1027.544293708661
 20
358.0005380704584
 30
0.0
 40
2.886751345948113
  0
LWPOLYLINE
  5
142F
330
2
100
AcDbEntity
  8
0
100
AcDbPolyline
 90
        6
 70
     1
 43
0.0
 10
1030.044293708661
 20
359.4439137434324
 10
1027.544293708661
 20
360.8872894164065
 10
1025.044293708661
 20
359.4439137434324
 10
1025.044293708661
 20
356.5571623974843
 10
1027.544293708661
 20
355.1137867245102
 10
1030.044293708661
 20
356.5571623974843
  0
CIRCLE
  5
1430
330
2
100
AcDbEntity
  8
0
100
AcDbCircle
 10
1027.544293708661
 20
427.2970026267408
 30
0.0
 40
5.0
  0
CIRCLE
  5
1431
330
2
100
AcDbEntity
  8
0
100
AcDbCircle
 10
1027.544293708661
 20
427.2970026267408
 30
0.0
 40
4.307179676972423
  0
CIRCLE
  5
1432
330
2
100
AcDbEntity
  8
0
100
AcDbCircle
 10
1027.544293708661
 20
427.2970026267408
 30
0.0
 40
2.886751345948113
  0
LWPOLYLINE
  5
1433
330
2
100
AcDbEntity
  8
0
100
AcDbPolyline
 90
        6
 70
     1
 43
0.0
 10
1030.044293708661
 20
428.7403782997149
 10
1027.544293708661
 20
430.1837539726889
 10
1025.044293708661
 20
428.7403782997149
 10
1025.044293708661
 20
425.8536269537668
 10
1027.544293708661
 20
424.4102512807926
 10
1030.044293708661
 20
425.8536269537668
  0
LINE
  5
1434
330
2
100
AcDbEntity
  8
HIDS
  6
SEKKEI_H
100
AcDbLine
 10
1053.35919265347
 20
391.8987703485996
 30
0.0
 11
1053.35919265347
 21
383.1154370152667
 31
0.0
  0
LINE
  5
1435
330
2
100
AcDbEntity
  8
HIDS
  6
SEKKEI_H
100
AcDbLine
 10
1050.025859320136
 20
391.8987703485996
 30
0.0
 11
1050.025859320136
 21
384.3100221078726
 31
0.0
  0
LINE
  5
1436
330
2
100
AcDbEntity
  8
HIDS
  6
SEKKEI_H
100
AcDbLine
 10
1049.692525986802
 20
391.8987703485996
 30
0.0
 11
1049.692525986802
 21
384.8185404669162
 31
0.0
  0
LINE
  5
1437
330
2
100
AcDbEntity
  8
CENTER
  6
CENS
100
AcDbLine
 10
1051.692525986802
 20
431.5757042461632
 30
0.0
 11
1051.692525986802
 21
381.1965200040427
 31
0.0
  0
LINE
  5
1438
330
2
100
AcDbEntity
  8
HIDS
  6
SEKKEI_H
100
AcDbLine
 10
1053.692525986802
 20
391.8987703485996
 30
0.0
 11
1053.692525986802
 21
380.5942068973586
 31
0.0
  0
LINE
  5
1439
330
2
100
AcDbEntity
  8
HIDS
  6
SEKKEI_H
100
AcDbLine
 10
1050.663323932888
 20
383.4487703485998
 30
0.0
 11
1051.692525986802
 21
383.4487703485998
 31
0.0
  0
LINE
  5
143A
330
2
100
AcDbEntity
  8
0
100
AcDbLine
 10
1050.492525986801
 20
382.6487703485996
 30
0.0
 11
1051.349901765701
 21
382.6487703485996
 31
0.0
  0
LINE
  5
143B
330
2
100
AcDbEntity
  8
0
100
AcDbLine
 10
1049.692525986802
 20
384.8185404669162
 30
0.0
 11
1049.692525986802
 21
383.4487703485998
 31
0.0
  0
LINE
  5
143C
330
2
100
AcDbEntity
  8
HOJO
100
AcDbLine
 10
1050.025859320136
 20
384.3100221078726
 30
0.0
 11
1050.025859320136
 21
383.1154370152667
 31
0.0
  0
LINE
  5
143D
330
2
100
AcDbEntity
  8
0
100
AcDbLine
 10
1049.692525986802
 20
383.4487703485998
 30
0.0
 11
1050.663323932888
 21
383.4487703485998
 31
0.0
  0
LINE
  5
143E
330
2
100
AcDbEntity
  8
0
100
AcDbLine
 10
1049.692525986802
 20
383.4487703485998
 30
0.0
 11
1050.492525986801
 21
382.6487703485996
 31
0.0
  0
LINE
  5
143F
330
2
100
AcDbEntity
  8
HIDS
  6
SEKKEI_H
100
AcDbLine
 10
1051.349901765701
 20
382.6487703485996
 30
0.0
 11
1051.692525986802
 21
382.6487703485996
 31
0.0
  0
LINE
  5
1440
330
2
100
AcDbEntity
  8
HIDS
  6
SEKKEI_H
100
AcDbLine
 10
1053.692525986802
 20
383.4487703485998
 30
0.0
 11
1052.892525986803
 21
382.6487703485996
 31
0.0
  0
LINE
  5
1441
330
2
100
AcDbEntity
  8
HIDS
  6
SEKKEI_H
100
AcDbLine
 10
1052.892525986803
 20
382.6487703485996
 30
0.0
 11
1051.692525986802
 21
382.6487703485996
 31
0.0
  0
LINE
  5
1442
330
2
100
AcDbEntity
  8
HIDS
  6
SEKKEI_H
100
AcDbLine
 10
1053.692525986802
 20
383.4487703485998
 30
0.0
 11
1051.692525986802
 21
383.4487703485998
 31
0.0
  0
LINE
  5
1443
330
2
100
AcDbEntity
  8
HIDS
  6
SEKKEI_H
100
AcDbLine
 10
1053.35919265347
 20
383.1154370152667
 30
0.0
 11
1053.35919265347
 21
380.8362887201597
 31
0.0
  0
LINE
  5
1444
330
2
100
AcDbEntity
  8
HIDS
  6
SEKKEI_H
100
AcDbLine
 10
1048.315836900425
 20
397.6487703485996
 30
0.0
 11
1055.192525986802
 21
397.6487703485996
 31
0.0
  0
LINE
  5
1445
330
2
100
AcDbEntity
  8
HIDS
  6
SEKKEI_H
100
AcDbLine
 10
1050.281501681564
 20
401.3487703485994
 30
0.0
 11
1055.192525986802
 21
401.3487703485994
 31
0.0
  0
LINE
  5
1446
330
2
100
AcDbEntity
  8
HIDS
  6
SEKKEI_H
100
AcDbLine
 10
1054.672910744532
 20
401.6487703485996
 30
0.0
 11
1050.506530094283
 21
401.6487703485996
 31
0.0
  0
LINE
  5
1447
330
2
100
AcDbEntity
  8
HIDS
  6
SEKKEI_H
100
AcDbLine
 10
1053.692525986802
 20
395.9821036819326
 30
0.0
 11
1049.692525986802
 21
395.9821036819326
 31
0.0
  0
LINE
  5
1448
330
2
100
AcDbEntity
  8
HIDS
  6
SEKKEI_H
100
AcDbLine
 10
1048.315836900425
 20
397.6487703485996
 30
0.0
 11
1055.692525986802
 21
397.6487703485996
 31
0.0
  0
LINE
  5
1449
330
2
100
AcDbEntity
  8
0
100
AcDbLine
 10
1047.461606124145
 20
393.3987703485996
 30
0.0
 11
1051.692525986802
 21
393.3987703485996
 31
0.0
  0
LINE
  5
144A
330
2
100
AcDbEntity
  8
0
100
AcDbLine
 10
1047.461606124145
 20
391.8987703485996
 30
0.0
 11
1051.692525986802
 21
391.8987703485996
 31
0.0
  0
LINE
  5
144B
330
2
100
AcDbEntity
  8
0
100
AcDbLine
 10
1048.192525986802
 20
401.3487703485994
 30
0.0
 11
1048.192525986802
 21
397.6487703485996
 31
0.0
  0
LINE
  5
144C
330
2
100
AcDbEntity
  8
0
100
AcDbLine
 10
1049.692525986802
 20
393.3987703485996
 30
0.0
 11
1049.692525986802
 21
391.8987703485996
 31
0.0
  0
LINE
  5
144D
330
2
100
AcDbEntity
  8
HOJO
100
AcDbLine
 10
1050.025859320136
 20
393.3987703485996
 30
0.0
 11
1050.025859320136
 21
391.8987703485996
 31
0.0
  0
LINE
  5
144E
330
2
100
AcDbEntity
  8
HIDS
  6
SEKKEI_H
100
AcDbLine
 10
1049.692525986802
 20
397.6487703485996
 30
0.0
 11
1050.025859320136
 21
395.9821036819326
 31
0.0
  0
LINE
  5
144F
330
2
100
AcDbEntity
  8
0
100
AcDbLine
 10
1048.192525986802
 20
397.6487703485996
 30
0.0
 11
1048.315836900425
 21
397.6487703485996
 31
0.0
  0
LINE
  5
1450
330
2
100
AcDbEntity
  8
HIDS
  6
SEKKEI_H
100
AcDbLine
 10
1050.025859320136
 20
395.9821036819326
 30
0.0
 11
1050.025859320136
 21
393.3987703485996
 31
0.0
  0
LINE
  5
1451
330
2
100
AcDbEntity
  8
HIDS
  6
SEKKEI_H
100
AcDbLine
 10
1049.692525986802
 20
397.6487703485996
 30
0.0
 11
1049.692525986802
 21
393.3987703485996
 31
0.0
  0
LINE
  5
1452
330
2
100
AcDbEntity
  8
HIDS
  6
SEKKEI_H
100
AcDbLine
 10
1049.192525986802
 20
397.6487703485996
 30
0.0
 11
1049.192525986802
 21
393.3987703485996
 31
0.0
  0
LINE
  5
1453
330
2
100
AcDbEntity
  8
0
100
AcDbLine
 10
1050.506530094283
 20
401.6487703485996
 30
0.0
 11
1048.712141229073
 21
401.6487703485996
 31
0.0
  0
LINE
  5
1454
330
2
100
AcDbEntity
  8
0
100
AcDbLine
 10
1048.192525986802
 20
401.3487703485994
 30
0.0
 11
1048.712141229073
 21
401.6487703485996
 31
0.0
  0
LINE
  5
1455
330
2
100
AcDbEntity
  8
0
100
AcDbLine
 10
1048.192525986802
 20
401.3487703485994
 30
0.0
 11
1050.281501681564
 21
401.3487703485994
 31
0.0
  0
LINE
  5
1456
330
2
100
AcDbEntity
  8
HIDS
  6
SEKKEI_H
100
AcDbLine
 10
1055.192525986802
 20
397.6487703485996
 30
0.0
 11
1055.192525986802
 21
401.3487703485994
 31
0.0
  0
LINE
  5
1457
330
2
100
AcDbEntity
  8
HIDS
  6
SEKKEI_H
100
AcDbLine
 10
1055.692525986802
 20
405.8893330254646
 30
0.0
 11
1055.692525986802
 21
397.6487703485996
 31
0.0
  0
LINE
  5
1458
330
2
100
AcDbEntity
  8
HOJO
100
AcDbLine
 10
1053.35919265347
 20
393.3987703485996
 30
0.0
 11
1053.35919265347
 21
391.8987703485996
 31
0.0
  0
LINE
  5
1459
330
2
100
AcDbEntity
  8
0
100
AcDbLine
 10
1053.692525986802
 20
393.3987703485996
 30
0.0
 11
1053.692525986802
 21
391.8987703485996
 31
0.0
  0
LINE
  5
145A
330
2
100
AcDbEntity
  8
0
100
AcDbLine
 10
1051.692525986802
 20
391.8987703485996
 30
0.0
 11
1055.232820533265
 21
391.8987703485996
 31
0.0
  0
LINE
  5
145B
330
2
100
AcDbEntity
  8
0
100
AcDbLine
 10
1051.692525986802
 20
393.3987703485996
 30
0.0
 11
1055.232820533265
 21
393.3987703485996
 31
0.0
  0
LINE
  5
145C
330
2
100
AcDbEntity
  8
HIDS
  6
SEKKEI_H
100
AcDbLine
 10
1053.692525986802
 20
397.6487703485996
 30
0.0
 11
1053.35919265347
 21
395.9821036819326
 31
0.0
  0
LINE
  5
145D
330
2
100
AcDbEntity
  8
HIDS
  6
SEKKEI_H
100
AcDbLine
 10
1053.692525986802
 20
397.6487703485996
 30
0.0
 11
1053.692525986802
 21
393.3987703485996
 31
0.0
  0
LINE
  5
145E
330
2
100
AcDbEntity
  8
HIDS
  6
SEKKEI_H
100
AcDbLine
 10
1053.35919265347
 20
395.9821036819326
 30
0.0
 11
1053.35919265347
 21
393.3987703485996
 31
0.0
  0
LINE
  5
145F
330
2
100
AcDbEntity
  8
HIDS
  6
SEKKEI_H
100
AcDbLine
 10
1054.192525986802
 20
397.6487703485996
 30
0.0
 11
1054.192525986802
 21
393.3987703485996
 31
0.0
  0
LINE
  5
1460
330
2
100
AcDbEntity
  8
HIDS
  6
SEKKEI_H
100
AcDbLine
 10
1054.672910744532
 20
401.6487703485996
 30
0.0
 11
1055.192525986802
 21
401.3487703485994
 31
0.0
  0
LINE
  5
1461
330
2
100
AcDbEntity
  8
0
100
AcDbLine
 10
1076.192525986802
 20
391.8987703485996
 30
0.0
 11
1069.152231440339
 21
391.8987703485996
 31
0.0
  0
LINE
  5
1462
330
2
100
AcDbEntity
  8
0
100
AcDbLine
 10
1069.152231440339
 20
393.3987703485996
 30
0.0
 11
1076.192525986802
 21
393.3987703485996
 31
0.0
  0
LINE
  5
1463
330
2
100
AcDbEntity
  8
0
100
AcDbLine
 10
1076.192525986802
 20
393.3987703485996
 30
0.0
 11
1076.192525986802
 21
391.8987703485996
 31
0.0
  0
ARC
  5
1464
330
2
100
AcDbEntity
  8
0
100
AcDbCircle
 10
1062.1925259868
 20
392.6487703486014
 30
0.0
 40
8.154700538378051
100
AcDbArc
 50
185.2770359348315
 51
354.7229640651684
  0
ARC
  5
1465
330
2
100
AcDbEntity
  8
0
100
AcDbCircle
 10
1062.1925259868
 20
392.6487703486014
 30
0.0
 40
8.154700538378051
100
AcDbArc
 50
5.277035934803723
 51
174.7229640651962
  0
CIRCLE
  5
1466
330
2
100
AcDbEntity
  8
0
100
AcDbCircle
 10
1062.192525986802
 20
392.6487703485996
 30
0.0
 40
7.000000000000113
  0
CIRCLE
  5
1467
330
2
100
AcDbEntity
  8
0
100
AcDbCircle
 10
1062.192525986804
 20
392.6487703485996
 30
0.0
 40
14.75000000000022
  0
LINE
  5
1468
330
2
100
AcDbEntity
  8
0
100
AcDbLine
 10
1046.817525986802
 20
428.4012464634121
 30
0.0
 11
1056.567525986802
 21
428.4012464634121
 31
0.0
  0
ARC
  5
1469
330
2
100
AcDbEntity
  8
0
100
AcDbCircle
 10
1046.817525986802
 20
424.151246463412
 30
0.0
 40
4.25
100
AcDbArc
 50
90.0
 51
179.9485848525427
  0
ARC
  5
146A
330
2
100
AcDbEntity
  8
0
100
AcDbCircle
 10
1056.317525986802
 20
424.151246463412
 30
0.0
 40
4.25
100
AcDbArc
 50
0.0
 51
90.0
  0
ARC
  5
146B
330
2
100
AcDbEntity
  8
0
100
AcDbCircle
 10
1026.192525986798
 20
428.6487703485995
 30
0.0
 40
5.0
100
AcDbArc
 50
90.0
 51
180.0
  0
CIRCLE
  5
146C
330
2
100
AcDbEntity
  8
0
100
AcDbCircle
 10
1037.443788645273
 20
417.3975076901302
 30
0.0
 40
2.0
  0
CIRCLE
  5
146D
330
2
100
AcDbEntity
  8
HOJO
100
AcDbCircle
 10
1037.443788645273
 20
417.3975076901302
 30
0.0
 40
2.5
  0
CIRCLE
  5
146E
330
2
100
AcDbEntity
  8
0
100
AcDbCircle
 10
1086.941263328327
 20
417.3975076901302
 30
0.0
 40
2.0
  0
CIRCLE
  5
146F
330
2
100
AcDbEntity
  8
HOJO
100
AcDbCircle
 10
1086.941263328327
 20
417.3975076901302
 30
0.0
 40
2.5
  0
CIRCLE
  5
1470
330
2
100
AcDbEntity
  8
0
100
AcDbCircle
 10
1037.443788645275
 20
367.9000330070699
 30
0.0
 40
2.0
  0
CIRCLE
  5
1471
330
2
100
AcDbEntity
  8
HOJO
100
AcDbCircle
 10
1037.443788645275
 20
367.9000330070699
 30
0.0
 40
2.5
  0
CIRCLE
  5
1472
330
2
100
AcDbEntity
  8
0
100
AcDbCircle
 10
1086.941263328329
 20
367.9000330070735
 30
0.0
 40
2.0
  0
CIRCLE
  5
1473
330
2
100
AcDbEntity
  8
HOJO
100
AcDbCircle
 10
1086.941263328329
 20
367.9000330070735
 30
0.0
 40
2.5
  0
CIRCLE
  5
1474
330
2
100
AcDbEntity
  8
0
100
AcDbCircle
 10
1062.1925259868
 20
392.6487703486014
 30
0.0
 40
22.5
  0
CIRCLE
  5
21A4
330
2
100
AcDbEntity
  8
0
100
AcDbCircle
 10
664.4264671886534
 20
392.6487703485959
 30
0.0
 40
33.07735
  0
ARC
  5
21A9
330
2
100
AcDbEntity
  8
0
100
AcDbCircle
 10
765.8434857878853
 20
624.1130842718444
 30
0.0
 40
2.0
100
AcDbArc
 50
269.9999999999974
 51
359.5000000000258
  0
ARC
  5
21FF
330
2
100
AcDbEntity
  8
0
100
AcDbCircle
 10
819.8364671886709
 20
704.0257394323333
 30
0.0
 40
2.0
100
AcDbArc
 50
0.0
 51
89.49999999999816
  0
ARC
  5
2202
330
2
100
AcDbEntity
  8
0
100
AcDbCircle
 10
819.8364671886709
 20
626.2004291016914
 30
0.0
 40
2.0
100
AcDbArc
 50
270.4999999999971
 51
0.0000000000000763
  0
ARC
  5
2203
330
2
100
AcDbEntity
  8
0
100
AcDbCircle
 10
819.8364671886688
 20
431.5614255139193
 30
0.0
 40
2.0
100
AcDbArc
 50
0.0
 51
89.50000000000288
  0
ARC
  5
2204
330
2
100
AcDbEntity
  8
0
100
AcDbCircle
 10
819.8364671886688
 20
353.7361151832771
 30
0.0
 40
2.0
100
AcDbArc
 50
270.5000000000018
 51
0.0
  0
ARC
  5
2205
330
2
100
AcDbEntity
  8
0
100
AcDbCircle
 10
82.86246813553862
 20
431.5614255139191
 30
0.0
 40
2.0
100
AcDbArc
 50
90.49999999999714
 51
180.0
  0
ARC
  5
2206
330
2
100
AcDbEntity
  8
0
100
AcDbCircle
 10
82.86246813553864
 20
353.7361151832772
 30
0.0
 40
2.0
100
AcDbArc
 50
180.0
 51
269.4999999999981
  0
ARC
  5
2207
330
2
100
AcDbEntity
  8
0
100
AcDbCircle
 10
847.5142194335941
 20
694.6271319988771
 30
0.0
 40
2.0
100
AcDbArc
 50
46.0177614527303
 51
89.00000000000034
  0
ARC
  5
2208
330
2
100
AcDbEntity
  8
0
100
AcDbCircle
 10
847.5142194335937
 20
635.5990365351479
 30
0.0
 40
2.0
100
AcDbArc
 50
270.9999999999969
 51
313.9822385472876
  0
ARC
  5
2209
330
2
100
AcDbEntity
  8
0
100
AcDbCircle
 10
847.5142194335919
 20
422.1628180804618
 30
0.0
 40
2.0
100
AcDbArc
 50
46.0177614527303
 51
89.00000000000034
  0
ARC
  5
220A
330
2
100
AcDbEntity
  8
0
100
AcDbCircle
 10
847.5142194335914
 20
363.1347226167335
 30
0.0
 40
2.0
100
AcDbArc
 50
271.0000000000023
 51
313.9822385472697
  0
ARC
  5
221D
330
2
100
AcDbEntity
  8
0
100
AcDbCircle
 10
55.18471589061567
 20
422.1628180804618
 30
0.0
 40
2.0
100
AcDbArc
 50
90.99999999999965
 51
133.9822385472697
  0
ARC
  5
221E
330
2
100
AcDbEntity
  8
0
100
AcDbCircle
 10
55.18471589061582
 20
363.1347226167335
 30
0.0
 40
2.0
100
AcDbArc
 50
226.0177614527302
 51
268.9999999999976
  0
ENDSEC
  0
SECTION
  2
OBJECTS
  0
DICTIONARY
  5
7
330
0
100
AcDbDictionary
  3
ACAD_COLOR
350
21D6
  3
ACAD_GROUP
350
75
  3
ACAD_LAYOUT
350
61
  3
ACAD_MATERIAL
350
21AC
  3
ACAD_MLEADERSTYLE
350
21FB
  3
ACAD_MLINESTYLE
350
76
  3
ACAD_PLOTSETTINGS
350
77
  3
ACAD_PLOTSTYLENAME
350
6
  3
ACAD_SCALELIST
350
21D9
  3
ACAD_TABLESTYLE
350
21D7
  3
ACAD_VISUALSTYLE
350
21C5
  3
ACADDIM
350
480
  3
ACDB_RECOMPOSE_DATA
350
2233
  3
ACDBHEADERROUNDTRIPXREC
350
226E
  3
ACDBVARIABLEDICTIONARY
350
102
  3
DWGPROPS
350
2234
  0
DICTIONARY
  5
223C
330
6E
100
AcDbDictionary
280
     1
  3
ACAD_XREC_ROUNDTRIP
360
223D
  0
DICTIONARY
  5
B16
330
66
100
AcDbDictionary
280
     1
  3
ACAD_LAYERSTATES
360
B17
  0
DICTIONARY
  5
221F
330
5E
100
AcDbDictionary
280
     1
  3
ACAD_XREC_ROUNDTRIP
360
2237
  3
ADSK_XREC_LAYER_RECONCILED
360
2220
  0
DICTIONARY
  5
2221
330
3E
100
AcDbDictionary
280
     1
  3
ACAD_XREC_ROUNDTRIP
360
2236
  3
ADSK_XREC_LAYER_RECONCILED
360
2222
  0
DICTIONARY
  5
2227
330
2B5
100
AcDbDictionary
280
     1
  3
ACAD_XREC_ROUNDTRIP
360
2243
  3
ADSK_XREC_LAYER_RECONCILED
360
2228
  0
DICTIONARY
  5
2229
330
2BA
100
AcDbDictionary
280
     1
  3
ACAD_XREC_ROUNDTRIP
360
2244
  3
ADSK_XREC_LAYER_RECONCILED
360
222A
  0
DICTIONARY
  5
222D
330
3FA
100
AcDbDictionary
280
     1
  3
ACAD_XREC_ROUNDTRIP
360
2246
  3
ADSK_XREC_LAYER_RECONCILED
360
222E
  0
DICTIONARY
  5
222F
330
478
100
AcDbDictionary
280
     1
  3
ACAD_XREC_ROUNDTRIP
360
2247
  3
ADSK_XREC_LAYER_RECONCILED
360
2230
  0
DICTIONARY
  5
2200
330
2
100
AcDbDictionary
280
     1
  3
ACAD_LAYOUTSELFREF
360
228F
  3
ACAD_SORTENTS
360
2201
  0
DICTIONARY
  5
2290
330
2268
100
AcDbDictionary
280
     1
  3
ACAD_LAYOUTSELFREF
360
2291
  0
DICTIONARY
  5
21D6
102
{ACAD_REACTORS
330
7
102
}
330
7
100
AcDbDictionary
  0
DICTIONARY
  5
75
102
{ACAD_REACTORS
330
7
102
}
330
7
100
AcDbDictionary
  0
DICTIONARY
  5
61
102
{ACAD_REACTORS
330
7
102
}
330
7
100
AcDbDictionary
  0
DICTIONARY
  5
21AC
102
{ACAD_REACTORS
330
7
102
}
330
7
100
AcDbDictionary
  3
BYBLOCK
350
21B5
  3
BYLAYER
350
21AD
  3
GLOBAL
350
21BD
  0
DICTIONARY
  5
21FB
102
{ACAD_REACTORS
330
7
102
}
330
7
100
AcDbDictionary
  3
STANDARD
350
21FC
  0
DICTIONARY
  5
76
102
{ACAD_REACTORS
330
7
102
}
330
7
100
AcDbDictionary
  3
STANDARD
350
78
  0
DICTIONARY
  5
77
102
{ACAD_REACTORS
330
7
102
}
330
7
100
AcDbDictionary
  0
ACDBDICTIONARYWDFLT
  5
6
102
{ACAD_REACTORS
330
7
102
}
330
7
100
AcDbDictionary
281
     1
  3
Normal
350
5
100
AcDbDictionaryWithDefault
340
5
  0
DICTIONARY
  5
21D9
102
{ACAD_REACTORS
330
7
102
}
330
7
100
AcDbDictionary
  3
A0
350
21DA
  3
A1
350
21DB
  3
A2
350
21DC
  3
A3
350
21DD
  3
A4
350
21DE
  3
A5
350
21DF
  3
A6
350
21E0
  3
A7
350
21E1
  3
A8
350
21E2
  3
A9
350
21E3
  3
B0
350
21E4
  3
B1
350
21E5
  3
B2
350
21E6
  3
B3
350
21E7
  3
B4
350
21E8
  3
B5
350
21E9
  3
B6
350
21EA
  3
B7
350
21EB
  3
B8
350
21EC
  3
B9
350
21ED
  3
C0
350
21EE
  3
C1
350
21EF
  3
C2
350
21F0
  3
C3
350
21F1
  3
C4
350
21F2
  3
C5
350
21F3
  3
C6
350
21F4
  3
C7
350
21F5
  3
C8
350
21F6
  3
C9
350
21F7
  3
D0
350
21F8
  3
D1
350
21F9
  3
D2
350
21FA
  0
DICTIONARY
  5
21D7
102
{ACAD_REACTORS
330
7
102
}
330
7
100
AcDbDictionary
  3
STANDARD
350
21D8
  0
DICTIONARY
  5
21C5
102
{ACAD_REACTORS
330
7
102
}
330
7
100
AcDbDictionary
  3
2DWIREFRAME
350
21CB
  3
3D_HIDDEN
350
21CD
  3
3DWIREFRAME
350
21CC
  3
BASIC
350
21CA
  3
BRIGHTEN
350
21D1
  3
COLORCHANGE
350
21D5
  3
CONCEPTUAL
350
21CE
  3
DIM
350
21D0
  3
FACEPATTERN
350
21D4
  3
FLAT
350
21C6
  3
FLATWITHEDGES
350
21C7
  3
GOURAUD
350
21C8
  3
GOURAUDWITHEDGES
350
21C9
  3
LINEPATTERN
350
21D3
  3
REALISTIC
350
21CF
  3
THICKEN
350
21D2
  0
XRECORD
  5
480
102
{ACAD_REACTORS
330
7
102
}
330
7
100
AcDbXrecord
 90
   990106
  3

 60
     0
 61
     0
 62
     1
 63
     3
 64
     1
 65
     0
 66
     0
 67
     3
 68
     1
 69
     0
 70
     0
 71
     0
 72
     0
 40
0.0
170
     2
340
0
  0
XRECORD
  5
2233
102
{ACAD_REACTORS
330
7
102
}
330
7
100
AcDbXrecord
 90
        1
330
21D8
  0
DICTIONARY
  5
226E
102
{ACAD_REACTORS
330
7
102
}
330
7
100
AcDbDictionary
  3
CEPSNTYPE
350
2278
  3
DIMSTYLEDATA
350
227C
  3
FINGERPRINTGUID
350
2279
  3
HYPERLINKBASE
350
2271
  3
INSUNITS
350
2277
  3
LAYOUTDICT
350
2273
  3
LWETCUNION
350
2276
  3
PLOTSETDICT
350
2274
  3
PLOTSTYLNAMDICT
350
2275
  3
PSVPSCALE
350
227B
  3
PUCSBASE
350
227F
  3
PUCSORGBACK
350
2285
  3
PUCSORGBOTTOM
350
2281
  3
PUCSORGFRONT
350
2284
  3
PUCSORGLEFT
350
2282
  3
PUCSORGRIGHT
350
2283
  3
PUCSORGTOP
350
2280
  3
PUCSORTHOREF
350
227D
  3
PUCSORTHOVIEW
350
227E
  3
STYLESHEET
350
2272
  3
TSTACKALIGN
350
226F
  3
TSTACKSIZE
350
2270
  3
UCSBASE
350
2288
  3
UCSORGBACK
350
228E
  3
UCSORGBOTTOM
350
228A
  3
UCSORGFRONT
350
228D
  3
UCSORGLEFT
350
228B
  3
UCSORGRIGHT
350
228C
  3
UCSORGTOP
350
2289
  3
UCSORTHOREF
350
2286
  3
UCSORTHOVIEW
350
2287
  3
VERSIONGUID
350
227A
  0
DICTIONARY
  5
102
102
{ACAD_REACTORS
330
7
102
}
330
7
100
AcDbDictionary
  3
CANNOSCALE
350
2254
  3
CMLEADERSTYLE
350
2253
  3
CTABLESTYLE
350
2252
  3
DIMASSOC
350
103
  3
INDEXCTL
350
2255
  3
SORTENTS
350
549
  0
XRECORD
  5
2234
102
{ACAD_REACTORS
330
7
102
}
330
7
100
AcDbXrecord
  1
DWGPROPS COOKIE
  2

  3

  4

  6

  7

  8
ymorima
  9

300
=
301
=
302
=
303
=
304
=
305
=
306
=
307
=
308
=
309
=
 40
0.0077307638888889
 41
2454412.723801354
 42
2454424.471840995
  1

 90
        0
  0
XRECORD
  5
223D
102
{ACAD_REACTORS
330
223C
102
}
330
223C
100
AcDbXrecord
102
VTR_0.000_0.000_1.000_1.000_VISUALSTYLE
340
21CB
102
VTR_0.000_0.000_1.000_1.000_GRIDDISPLAY
 70
     3
102
VTR_0.000_0.000_1.000_1.000_GRIDMAJOR
 70
     5
102
VTR_0.000_0.000_1.000_1.000_DEFAULTLIGHTING
280
     1
102
VTR_0.000_0.000_1.000_1.000_DEFAULTLIGHTINGTYPE
 70
     1
102
VTR_0.000_0.000_1.000_1.000_BRIGHTNESS
141
0.0
102
VTR_0.000_0.000_1.000_1.000_CONTRAST
142
0.0
  0
DICTIONARY
  5
B17
102
{ACAD_REACTORS
330
B16
102
}
330
B16
100
AcDbDictionary
  0
XRECORD
  5
2237
102
{ACAD_REACTORS
330
221F
102
}
330
221F
100
AcDbXrecord
102
MATERIAL
340
21BD
  0
XRECORD
  5
2220
102
{ACAD_REACTORS
330
221F
102
}
330
221F
100
AcDbXrecord
290
     1
  0
XRECORD
  5
2236
102
{ACAD_REACTORS
330
2221
102
}
330
2221
100
AcDbXrecord
102
MATERIAL
340
21BD
  0
XRECORD
  5
2222
102
{ACAD_REACTORS
330
2221
102
}
330
2221
100
AcDbXrecord
290
     1
  0
XRECORD
  5
2243
102
{ACAD_REACTORS
330
2227
102
}
330
2227
100
AcDbXrecord
102
MATERIAL
340
21BD
  0
XRECORD
  5
2228
102
{ACAD_REACTORS
330
2227
102
}
330
2227
100
AcDbXrecord
290
     1
  0
XRECORD
  5
2244
102
{ACAD_REACTORS
330
2229
102
}
330
2229
100
AcDbXrecord
102
MATERIAL
340
21BD
  0
XRECORD
  5
222A
102
{ACAD_REACTORS
330
2229
102
}
330
2229
100
AcDbXrecord
290
     1
  0
XRECORD
  5
2246
102
{ACAD_REACTORS
330
222D
102
}
330
222D
100
AcDbXrecord
102
MATERIAL
340
21BD
  0
XRECORD
  5
222E
102
{ACAD_REACTORS
330
222D
102
}
330
222D
100
AcDbXrecord
290
     1
  0
XRECORD
  5
2247
102
{ACAD_REACTORS
330
222F
102
}
330
222F
100
AcDbXrecord
102
MATERIAL
340
21BD
  0
XRECORD
  5
2230
102
{ACAD_REACTORS
330
222F
102
}
330
222F
100
AcDbXrecord
290
     1
  0
XRECORD
  5
228F
102
{ACAD_REACTORS
330
2200
102
}
330
2200
100
AcDbXrecord
340
2
  0
SORTENTSTABLE
  5
2201
102
{ACAD_REACTORS
330
2200
102
}
330
2200
100
AcDbSortentsTable
330
2
331
10F0
  5
10F0
331
13FC
  5
1408
331
12EF
  5
12EF
331
1151
  5
1151
331
125E
  5
125E
331
FFD
  5
FFD
331
1309
  5
1309
331
116B
  5
116B
331
1270
  5
1270
331
1416
  5
1422
331
100F
  5
100F
331
2205
  5
13E3
331
128A
  5
128A
331
1430
  5
143C
331
117D
  5
117D
331
1323
  5
1323
331
1029
  5
1029
331
12A4
  5
12A4
331
1442
  5
144E
331
1197
  5
1197
331
133D
  5
133D
331
FED
  5
FED
331
11B1
  5
11B1
331
1406
  5
1412
331
1007
  5
1007
331
127A
  5
127A
331
1420
  5
142C
331
1313
  5
1313
331
1019
  5
1019
331
1294
  5
1294
331
1187
  5
1187
331
132D
  5
132D
331
143A
  5
1446
331
1033
  5
1033
331
12AE
  5
12AE
331
144C
  5
1458
331
11A1
  5
11A1
331
1347
  5
1347
331
104D
  5
104D
331
12C8
  5
12C8
331
1466
  5
1472
331
11BB
  5
11BB
331
1359
  5
1359
331
1480
  5
148C
331
11D5
  5
11D5
331
1373
  5
1375
331
1023
  5
1023
331
129E
  5
129E
331
1337
  5
1337
331
103D
  5
103D
331
1456
  5
1462
331
12B8
  5
12B8
331
11AB
  5
11AB
331
1057
  5
1057
331
1470
  5
147C
331
11C5
  5
11C5
331
1363
  5
1363
331
12D2
  5
12D2
331
1071
  5
1071
331
148A
  5
1496
331
11DF
  5
11DF
331
137D
  5
1381
331
1083
  5
1083
331
14A4
  5
14B0
331
11F1
  5
11F1
331
1397
  5
139B
331
1047
  5
1047
331
120B
  5
120B
331
10FE
  5
10FE
331
1061
  5
1061
331
1118
  5
1118
331
147A
  5
1486
331
11CF
  5
11CF
331
107B
  5
107B
331
1387
  5
138B
331
1494
  5
14A0
331
108D
  5
108D
331
14AE
  5
2206
331
11FB
  5
11FB
331
13A1
  5
13A5
331
10A7
  5
10A7
331
1215
  5
1215
331
13BB
  5
13C3
331
1108
  5
1108
331
10C1
  5
10C1
331
122F
  5
122F
331
13CD
  5
13D5
331
1122
  5
1122
331
1249
  5
1249
331
113C
  5
113C
331
12DA
  5
12DA
331
149E
  5
14AA
331
1097
  5
1097
331
1205
  5
1205
331
13AB
  5
13AF
331
10B1
  5
10B1
331
13C5
  5
13CD
331
121F
  5
121F
331
1112
  5
1112
331
10CB
  5
10CB
331
1239
  5
1239
331
112C
  5
112C
331
10E5
  5
10E5
331
1253
  5
1253
331
13F1
  5
13FD
331
1146
  5
1146
331
12E4
  5
12E4
331
FF2
  5
FF2
331
1265
  5
1265
331
140B
  5
1417
331
1160
  5
1160
331
12FE
  5
12FE
331
10BB
  5
10BB
331
1172
  5
1172
331
1318
  5
1318
331
21A4
  5
221D
331
10D5
  5
10D5
331
1136
  5
1136
331
1243
  5
1243
331
13E1
  5
13ED
331
10EF
  5
10EF
331
13FB
  5
1407
331
12EE
  5
12EE
331
1150
  5
1150
331
125D
  5
125D
331
FFC
  5
FFC
331
126F
  5
126F
331
1415
  5
1421
331
1308
  5
1308
331
116A
  5
116A
331
100E
  5
100E
331
1289
  5
1289
331
142F
  5
143B
331
117C
  5
117C
331
1322
  5
1322
331
2204
  5
1373
331
1028
  5
1028
331
10DF
  5
10DF
331
1196
  5
1196
331
133C
  5
133C
331
12A3
  5
12A3
331
1441
  5
144D
331
FEC
  5
FEC
331
11B0
  5
11B0
331
1405
  5
1411
331
1006
  5
1006
331
141F
  5
142B
331
1279
  5
1279
331
1312
  5
1312
331
1018
  5
1018
331
1293
  5
1293
331
1186
  5
1186
331
132C
  5
132C
331
1439
  5
1445
331
1032
  5
1032
331
12AD
  5
12AD
331
144B
  5
1457
331
11A0
  5
11A0
331
1346
  5
1346
331
104C
  5
104C
331
12C7
  5
12C7
331
1465
  5
1471
331
11BA
  5
11BA
331
1358
  5
1358
331
11D4
  5
11D4
331
1372
  5
1374
331
1022
  5
1022
331
129D
  5
129D
331
1336
  5
1336
331
103C
  5
103C
331
12B7
  5
12B7
331
1455
  5
1461
331
11AA
  5
11AA
331
1056
  5
1056
331
146F
  5
147B
331
11C4
  5
11C4
331
1362
  5
1362
331
12D1
  5
12D1
331
1070
  5
1070
331
1489
  5
1495
331
11DE
  5
11DE
331
137C
  5
1380
331
1082
  5
1082
331
14A3
  5
14AF
331
11F0
  5
11F0
331
1396
  5
139A
331
1046
  5
1046
331
120A
  5
120A
331
13B0
  5
13B8
331
10FD
  5
10FD
331
145F
  5
146B
331
1060
  5
1060
331
1479
  5
1485
331
11CE
  5
11CE
331
107A
  5
107A
331
1493
  5
149F
331
1386
  5
138A
331
108C
  5
108C
331
14AD
  5
2205
331
11FA
  5
11FA
331
13A0
  5
13A4
331
10A6
  5
10A6
331
1214
  5
1214
331
13BA
  5
13C2
331
1107
  5
1107
331
10C0
  5
10C0
331
21A9
  5
221E
331
122E
  5
122E
331
13CC
  5
13D4
331
1121
  5
1121
331
1248
  5
1248
331
113B
  5
113B
331
12D9
  5
12D9
331
149D
  5
14A9
331
1096
  5
1096
331
1204
  5
1204
331
13AA
  5
13AE
331
10B0
  5
10B0
331
121E
  5
121E
331
1111
  5
1111
331
13C4
  5
13CC
331
10CA
  5
10CA
331
1238
  5
1238
331
13D6
  5
13E2
331
112B
  5
112B
331
10E4
  5
10E4
331
1252
  5
1252
331
13F0
  5
13FC
331
1145
  5
1145
331
12E3
  5
12E3
331
FF1
  5
FF1
331
1264
  5
1264
331
140A
  5
1416
331
115F
  5
115F
331
12FD
  5
12FD
331
10BA
  5
10BA
331
1171
  5
1171
331
10D4
  5
10D4
331
1242
  5
1242
331
13E0
  5
13EC
331
1135
  5
1135
331
10EE
  5
10EE
331
13FA
  5
1406
331
114F
  5
114F
331
12ED
  5
12ED
331
125C
  5
125C
331
FFB
  5
FFB
331
1307
  5
1307
331
1169
  5
1169
331
126E
  5
126E
331
1414
  5
1420
331
100D
  5
100D
331
2203
  5
136F
331
1288
  5
1288
331
142E
  5
143A
331
117B
  5
117B
331
1321
  5
1321
331
10DE
  5
10DE
331
12A2
  5
12A2
331
1440
  5
144C
331
1195
  5
1195
331
133B
  5
133B
331
FEB
  5
FEB
331
1404
  5
1410
331
12F7
  5
12F7
331
1005
  5
1005
331
141E
  5
142A
331
1278
  5
1278
331
1311
  5
1311
331
1017
  5
1017
331
1438
  5
1444
331
1185
  5
1185
331
132B
  5
132B
331
1292
  5
1292
331
1031
  5
1031
331
12AC
  5
12AC
331
144A
  5
1456
331
119F
  5
119F
331
1345
  5
1345
331
104B
  5
104B
331
12C6
  5
12C6
331
1464
  5
1470
331
11B9
  5
11B9
331
1357
  5
1357
331
11D3
  5
11D3
331
1371
  5
1372
331
1021
  5
1021
331
129C
  5
129C
331
118F
  5
118F
331
1335
  5
1335
331
103B
  5
103B
331
12B6
  5
12B6
331
1454
  5
1460
331
11A9
  5
11A9
331
134F
  5
134F
331
1055
  5
1055
331
146E
  5
147A
331
11C3
  5
11C3
331
1361
  5
1361
331
12D0
  5
12D0
331
106F
  5
106F
331
1488
  5
1494
331
11DD
  5
11DD
331
137B
  5
137F
331
1081
  5
1081
331
14A2
  5
14AE
331
11EF
  5
11EF
331
1395
  5
1399
331
1045
  5
1045
331
1209
  5
1209
331
10FC
  5
10FC
331
145E
  5
146A
331
105F
  5
105F
331
1478
  5
1484
331
11CD
  5
11CD
331
136B
  5
136B
331
1079
  5
1079
331
1492
  5
149E
331
11E7
  5
11E7
331
1385
  5
1389
331
108B
  5
108B
331
14AC
  5
2204
331
11F9
  5
11F9
331
139F
  5
13A3
331
10A5
  5
10A5
331
1213
  5
1213
331
13B9
  5
13C1
331
1106
  5
1106
331
122D
  5
122D
331
13CB
  5
13D3
331
1120
  5
1120
331
113A
  5
113A
331
12D8
  5
12D8
331
149C
  5
14A8
331
138F
  5
1393
331
1095
  5
1095
331
1203
  5
1203
331
13A9
  5
13AD
331
10AF
  5
10AF
331
13C3
  5
13CB
331
121D
  5
121D
331
1110
  5
1110
331
10C9
  5
10C9
331
1237
  5
1237
331
13D5
  5
13E1
331
112A
  5
112A
331
10E3
  5
10E3
331
1251
  5
1251
331
13EF
  5
13FB
331
1144
  5
1144
331
12E2
  5
12E2
331
FF0
  5
FF0
331
109F
  5
109F
331
1263
  5
1263
331
1409
  5
1415
331
115E
  5
115E
331
12FC
  5
12FC
331
10B9
  5
10B9
331
1170
  5
1170
331
1227
  5
1227
331
10D3
  5
10D3
331
13DF
  5
13EB
331
1241
  5
1241
331
1134
  5
1134
331
10ED
  5
10ED
331
114E
  5
114E
331
12EC
  5
12EC
331
125B
  5
125B
331
FFA
  5
FFA
331
126D
  5
126D
331
1413
  5
141F
331
1306
  5
1306
331
1168
  5
1168
331
100C
  5
100C
331
1287
  5
1287
331
142D
  5
1439
331
117A
  5
117A
331
1320
  5
1320
331
2202
  5
13B1
331
10DD
  5
10DD
331
1194
  5
1194
331
133A
  5
133A
331
12A1
  5
12A1
331
10F7
  5
10F7
331
FEA
  5
FEA
331
12F6
  5
12F6
331
1403
  5
140F
331
1004
  5
1004
331
1277
  5
1277
331
141D
  5
1429
331
1310
  5
1310
331
1016
  5
1016
331
1291
  5
1291
331
1437
  5
1443
331
1184
  5
1184
331
132A
  5
132A
331
1030
  5
1030
331
12AB
  5
12AB
331
1449
  5
1455
331
119E
  5
119E
331
1344
  5
1344
331
104A
  5
104A
331
11B8
  5
11B8
331
1356
  5
1356
331
12C5
  5
12C5
331
1463
  5
146F
331
11D2
  5
11D2
331
1427
  5
1433
331
1020
  5
1020
331
129B
  5
129B
331
118E
  5
118E
331
1334
  5
1334
331
103A
  5
103A
331
12B5
  5
12B5
331
1453
  5
145F
331
11A8
  5
11A8
331
134E
  5
134E
331
1054
  5
1054
331
12CF
  5
12CF
331
146D
  5
1479
331
11C2
  5
11C2
331
1360
  5
1360
331
106E
  5
106E
331
1487
  5
1493
331
11DC
  5
11DC
331
137A
  5
137D
331
1080
  5
1080
331
14A1
  5
14AD
331
11EE
  5
11EE
331
1394
  5
1398
331
1044
  5
1044
331
1208
  5
1208
331
10FB
  5
10FB
331
12BF
  5
12BF
331
145D
  5
1469
331
105E
  5
105E
331
1477
  5
1483
331
11CC
  5
11CC
331
136A
  5
136A
331
1078
  5
1078
331
1491
  5
149D
331
1384
  5
1388
331
11E6
  5
11E6
331
108A
  5
108A
331
14AB
  5
2203
331
11F8
  5
11F8
331
139E
  5
13A2
331
10A4
  5
10A4
331
1105
  5
1105
331
1212
  5
1212
331
13B8
  5
13C0
331
122C
  5
122C
331
13CA
  5
13D2
331
111F
  5
111F
331
1139
  5
1139
331
149B
  5
14A7
331
138E
  5
1392
331
1094
  5
1094
331
1202
  5
1202
331
10AE
  5
10AE
331
121C
  5
121C
331
110F
  5
110F
331
13C2
  5
13CA
331
10C8
  5
10C8
331
1236
  5
1236
331
13D4
  5
13DF
331
1129
  5
1129
331
10E2
  5
10E2
331
1250
  5
1250
331
13EE
  5
13FA
331
1143
  5
1143
331
12E1
  5
12E1
331
109E
  5
109E
331
1262
  5
1262
331
1408
  5
1414
331
115D
  5
115D
331
12FB
  5
12FB
331
10B8
  5
10B8
331
1226
  5
1226
331
10D2
  5
10D2
331
13DE
  5
13EA
331
1240
  5
1240
331
1133
  5
1133
331
10EC
  5
10EC
331
13F8
  5
1405
331
114D
  5
114D
331
12EB
  5
12EB
331
125A
  5
125A
331
FF9
  5
FF9
331
126C
  5
126C
331
1412
  5
141E
331
1167
  5
1167
331
1305
  5
1305
331
100B
  5
100B
331
1286
  5
1286
331
142C
  5
1438
331
1179
  5
1179
331
131F
  5
131F
331
10DC
  5
10DC
331
12A0
  5
12A0
331
1193
  5
1193
331
1339
  5
1339
331
10F6
  5
10F6
331
1402
  5
140E
331
1157
  5
1157
331
12F5
  5
12F5
331
1003
  5
1003
331
1276
  5
1276
331
141C
  5
1428
331
130F
  5
130F
331
1015
  5
1015
331
1183
  5
1183
331
1329
  5
1329
331
1290
  5
1290
331
1436
  5
1442
331
102F
  5
102F
331
12AA
  5
12AA
331
1448
  5
1454
331
119D
  5
119D
331
1343
  5
1343
331
1049
  5
1049
331
12C4
  5
12C4
331
1462
  5
146E
331
11B7
  5
11B7
331
1355
  5
1355
331
11D1
  5
11D1
331
1426
  5
1432
331
101F
  5
101F
331
129A
  5
129A
331
118D
  5
118D
331
1333
  5
1333
331
1039
  5
1039
331
11A7
  5
11A7
331
134D
  5
134D
331
12B4
  5
12B4
331
1452
  5
145E
331
1053
  5
1053
331
12CE
  5
12CE
331
146C
  5
1478
331
11C1
  5
11C1
331
135F
  5
135F
331
106D
  5
106D
331
1486
  5
1492
331
11DB
  5
11DB
331
1379
  5
137C
331
14A0
  5
14AC
331
11ED
  5
11ED
331
1393
  5
1397
331
1043
  5
1043
331
10FA
  5
10FA
331
12BE
  5
12BE
331
145C
  5
1468
331
105D
  5
105D
331
1476
  5
1482
331
11CB
  5
11CB
331
1369
  5
1369
331
1077
  5
1077
331
1490
  5
149C
331
11E5
  5
11E5
331
1383
  5
1387
331
1089
  5
1089
331
14AA
  5
2202
331
11F7
  5
11F7
331
139D
  5
13A1
331
10A3
  5
10A3
331
1211
  5
1211
331
13B7
  5
13BF
331
1104
  5
1104
331
1067
  5
1067
331
122B
  5
122B
331
13C9
  5
13D1
331
111E
  5
111E
331
1138
  5
1138
331
149A
  5
14A6
331
138D
  5
1391
331
1093
  5
1093
331
13A7
  5
13AB
331
1201
  5
1201
331
10AD
  5
10AD
331
121B
  5
121B
331
110E
  5
110E
331
13C1
  5
13C9
331
10C7
  5
10C7
331
1235
  5
1235
331
13D3
  5
13DC
331
1128
  5
1128
331
10E1
  5
10E1
331
124F
  5
124F
331
13ED
  5
13F9
331
1142
  5
1142
331
12E0
  5
12E0
331
109D
  5
109D
331
1261
  5
1261
331
115C
  5
115C
331
12FA
  5
12FA
331
10B7
  5
10B7
331
1225
  5
1225
331
10D1
  5
10D1
331
123F
  5
123F
331
13DD
  5
13E9
331
1132
  5
1132
331
10EB
  5
10EB
331
13F7
  5
1403
331
114C
  5
114C
331
12EA
  5
12EA
331
1259
  5
1259
331
FF8
  5
FF8
331
126B
  5
126B
331
1411
  5
141D
331
1166
  5
1166
331
1304
  5
1304
331
100A
  5
100A
331
1285
  5
1285
331
142B
  5
1437
331
1178
  5
1178
331
131E
  5
131E
331
10DB
  5
10DB
331
1192
  5
1192
331
1338
  5
1338
331
13E7
  5
13F3
331
10F5
  5
10F5
331
FE8
  5
FE8
331
1401
  5
140D
331
1156
  5
1156
331
12F4
  5
12F4
331
1002
  5
1002
331
1275
  5
1275
331
141B
  5
1427
331
130E
  5
130E
331
1014
  5
1014
331
128F
  5
128F
331
1435
  5
1441
331
1182
  5
1182
331
1328
  5
1328
331
220A
  5
137A
331
102E
  5
102E
331
12A9
  5
12A9
331
1447
  5
1453
331
119C
  5
119C
331
1342
  5
1342
331
1048
  5
1048
331
11B6
  5
11B6
331
1354
  5
1354
331
12C3
  5
12C3
331
1461
  5
146D
331
1C51
  5
220A
331
11D0
  5
11D0
331
127F
  5
127F
331
1425
  5
1431
331
101E
  5
101E
331
1299
  5
1299
331
118C
  5
118C
331
1332
  5
1332
331
143F
  5
144B
331
1038
  5
1038
331
12B3
  5
12B3
331
1451
  5
145D
331
11A6
  5
11A6
331
134C
  5
134C
331
1052
  5
1052
331
12CD
  5
12CD
331
146B
  5
1477
331
11C0
  5
11C0
331
135E
  5
135E
331
106C
  5
106C
331
11DA
  5
11DA
331
1378
  5
137B
331
1485
  5
1491
331
11EC
  5
11EC
331
1392
  5
1396
331
221E
  5
13E0
331
1042
  5
1042
331
10F9
  5
10F9
331
12BD
  5
12BD
331
145B
  5
1467
331
105C
  5
105C
331
1475
  5
1481
331
12D7
  5
12D7
331
11CA
  5
11CA
331
1368
  5
1368
331
1076
  5
1076
331
148F
  5
149B
331
1382
  5
1386
331
11E4
  5
11E4
331
1088
  5
1088
331
14A9
  5
21FF
331
11F6
  5
11F6
331
139C
  5
13A0
331
10A2
  5
10A2
331
1103
  5
1103
331
1210
  5
1210
331
13B6
  5
13BE
331
1066
  5
1066
331
122A
  5
122A
331
13C8
  5
13D0
331
111D
  5
111D
331
147F
  5
148B
331
1499
  5
14A5
331
138C
  5
1390
331
1092
  5
1092
331
13A6
  5
13AA
331
1200
  5
1200
331
10AC
  5
10AC
331
121A
  5
121A
331
110D
  5
110D
331
13C0
  5
13C8
331
10C6
  5
10C6
331
1127
  5
1127
331
1234
  5
1234
331
13D2
  5
13DA
331
10E0
  5
10E0
331
124E
  5
124E
331
13EC
  5
13F8
331
1141
  5
1141
331
12DF
  5
12DF
331
109C
  5
109C
331
1260
  5
1260
331
115B
  5
115B
331
12F9
  5
12F9
331
10B6
  5
10B6
331
1224
  5
1224
331
1117
  5
1117
331
10D0
  5
10D0
331
123E
  5
123E
331
13DC
  5
13E7
331
1131
  5
1131
331
10EA
  5
10EA
331
13F6
  5
1402
331
114B
  5
114B
331
12E9
  5
12E9
331
1258
  5
1258
331
FF7
  5
FF7
331
126A
  5
126A
331
1410
  5
141C
331
1165
  5
1165
331
1303
  5
1303
331
1009
  5
1009
331
1284
  5
1284
331
142A
  5
1436
331
1177
  5
1177
331
131D
  5
131D
331
10DA
  5
10DA
331
1191
  5
1191
331
13E6
  5
13F2
331
10F4
  5
10F4
331
FE7
  5
FE7
331
1400
  5
140C
331
1155
  5
1155
331
12F3
  5
12F3
331
1001
  5
1001
331
1274
  5
1274
331
141A
  5
1426
331
130D
  5
130D
331
116F
  5
116F
331
1013
  5
1013
331
2209
  5
137E
331
128E
  5
128E
331
1434
  5
1440
331
1181
  5
1181
331
1327
  5
1327
331
102D
  5
102D
331
12A8
  5
12A8
331
1446
  5
1452
331
119B
  5
119B
331
1341
  5
1341
331
12C2
  5
12C2
331
1460
  5
146C
331
11B5
  5
11B5
331
1353
  5
1353
331
127E
  5
127E
331
1424
  5
1430
331
1317
  5
1317
331
101D
  5
101D
331
1298
  5
1298
331
118B
  5
118B
331
1331
  5
1331
331
143E
  5
144A
331
1037
  5
1037
331
11A5
  5
11A5
331
134B
  5
134B
331
12B2
  5
12B2
331
1450
  5
145C
331
1051
  5
1051
331
12CC
  5
12CC
331
146A
  5
1476
331
11BF
  5
11BF
331
106B
  5
106B
331
1484
  5
1490
331
11D9
  5
11D9
331
1377
  5
1379
331
1027
  5
1027
331
11EB
  5
11EB
331
1391
  5
1395
331
221D
  5
13E8
331
10F8
  5
10F8
331
12BC
  5
12BC
331
145A
  5
1466
331
11AF
  5
11AF
331
105B
  5
105B
331
1367
  5
1367
331
12D6
  5
12D6
331
11C9
  5
11C9
331
1474
  5
1480
331
1075
  5
1075
331
148E
  5
149A
331
11E3
  5
11E3
331
1381
  5
1385
331
1087
  5
1087
331
14A8
  5
21A9
331
11F5
  5
11F5
331
139B
  5
139F
331
10A1
  5
10A1
331
120F
  5
120F
331
13B5
  5
13BD
331
1102
  5
1102
331
1065
  5
1065
331
1229
  5
1229
331
111C
  5
111C
331
147E
  5
148A
331
107F
  5
107F
331
1498
  5
14A4
331
138B
  5
138F
331
1091
  5
1091
331
11FF
  5
11FF
331
13A5
  5
13A9
331
10AB
  5
10AB
331
1219
  5
1219
331
13BF
  5
13C7
331
110C
  5
110C
331
10C5
  5
10C5
331
1233
  5
1233
331
13D1
  5
13D9
331
1126
  5
1126
331
124D
  5
124D
331
13EB
  5
13F7
331
1140
  5
1140
331
12DE
  5
12DE
331
109B
  5
109B
331
115A
  5
115A
331
12F8
  5
12F8
331
13AF
  5
13B7
331
10B5
  5
10B5
331
1116
  5
1116
331
1223
  5
1223
331
10CF
  5
10CF
331
123D
  5
123D
331
13DB
  5
13E6
331
1130
  5
1130
331
10E9
  5
10E9
331
1257
  5
1257
331
13F5
  5
1401
331
114A
  5
114A
331
12E8
  5
12E8
331
FF6
  5
FF6
331
1269
  5
1269
331
140F
  5
141B
331
1164
  5
1164
331
1302
  5
1302
331
1008
  5
1008
331
10BF
  5
10BF
331
1283
  5
1283
331
1429
  5
1435
331
1176
  5
1176
331
131C
  5
131C
331
10D9
  5
10D9
331
1190
  5
1190
331
1247
  5
1247
331
13E5
  5
13F1
331
10F3
  5
10F3
331
13FF
  5
140B
331
1154
  5
1154
331
12F2
  5
12F2
331
1000
  5
1000
331
1273
  5
1273
331
1419
  5
1425
331
130C
  5
130C
331
116E
  5
116E
331
1012
  5
1012
331
128D
  5
128D
331
1433
  5
143F
331
1180
  5
1180
331
1326
  5
1326
331
2208
  5
13BC
331
102C
  5
102C
331
12A7
  5
12A7
331
1445
  5
1451
331
119A
  5
119A
331
1340
  5
1340
331
12C1
  5
12C1
331
11B4
  5
11B4
331
1352
  5
1352
331
127D
  5
127D
331
1423
  5
142F
331
1316
  5
1316
331
101C
  5
101C
331
1297
  5
1297
331
118A
  5
118A
331
1330
  5
1330
331
143D
  5
1449
331
1036
  5
1036
331
12B1
  5
12B1
331
144F
  5
145B
331
11A4
  5
11A4
331
134A
  5
134A
331
1050
  5
1050
331
12CB
  5
12CB
331
1469
  5
1475
331
11BE
  5
11BE
331
135C
  5
135C
331
106A
  5
106A
331
11D8
  5
11D8
331
1483
  5
148F
331
1026
  5
1026
331
11EA
  5
11EA
331
1390
  5
1394
331
1040
  5
1040
331
12BB
  5
12BB
331
1459
  5
1465
331
11AE
  5
11AE
331
105A
  5
105A
331
1473
  5
147F
331
1366
  5
1366
331
12D5
  5
12D5
331
11C8
  5
11C8
331
1074
  5
1074
331
148D
  5
1499
331
1380
  5
1384
331
11E2
  5
11E2
331
1086
  5
1086
331
11F4
  5
11F4
331
139A
  5
139E
331
14A7
  5
21A4
331
10A0
  5
10A0
331
120E
  5
120E
331
13B4
  5
13BB
331
1101
  5
1101
331
1064
  5
1064
331
1228
  5
1228
331
111B
  5
111B
331
147D
  5
1489
331
107E
  5
107E
331
1497
  5
14A3
331
138A
  5
138E
331
1090
  5
1090
331
14B1
  5
2209
331
11FE
  5
11FE
331
13A4
  5
13A8
331
10AA
  5
10AA
331
1218
  5
1218
331
13BE
  5
13C6
331
110B
  5
110B
331
10C4
  5
10C4
331
1125
  5
1125
331
1232
  5
1232
331
13D0
  5
13D8
331
124C
  5
124C
331
13EA
  5
13F6
331
113F
  5
113F
331
12DD
  5
12DD
331
109A
  5
109A
331
1159
  5
1159
331
13AE
  5
13B6
331
10B4
  5
10B4
331
1222
  5
1222
331
1115
  5
1115
331
10CE
  5
10CE
331
123C
  5
123C
331
13DA
  5
13E5
331
112F
  5
112F
331
10E8
  5
10E8
331
1149
  5
1149
331
12E7
  5
12E7
331
1256
  5
1256
331
13F4
  5
1400
331
FF5
  5
FF5
331
1268
  5
1268
331
140E
  5
141A
331
1163
  5
1163
331
1301
  5
1301
331
10BE
  5
10BE
331
1282
  5
1282
331
1428
  5
1434
331
1175
  5
1175
331
131B
  5
131B
331
10D8
  5
10D8
331
1246
  5
1246
331
13E4
  5
13F0
331
10F2
  5
10F2
331
13FE
  5
140A
331
1153
  5
1153
331
12F1
  5
12F1
331
FFF
  5
FFF
331
1272
  5
1272
331
1418
  5
1424
331
130B
  5
130B
331
116D
  5
116D
331
1011
  5
1011
331
2207
  5
13BA
331
128C
  5
128C
331
1432
  5
143E
331
117F
  5
117F
331
1325
  5
1325
331
102B
  5
102B
331
12A6
  5
12A6
331
1444
  5
1450
331
1199
  5
1199
331
133F
  5
133F
331
FEF
  5
FEF
331
12C0
  5
12C0
331
11B3
  5
11B3
331
1351
  5
1351
331
21FF
  5
13B2
331
127C
  5
127C
331
1422
  5
142E
331
1315
  5
1315
331
101B
  5
101B
331
1296
  5
1296
331
132F
  5
132F
331
1189
  5
1189
331
143C
  5
1448
331
1035
  5
1035
331
1349
  5
1349
331
12B0
  5
12B0
331
144E
  5
145A
331
11A3
  5
11A3
331
104F
  5
104F
331
12CA
  5
12CA
331
1468
  5
1474
331
11BD
  5
11BD
331
135B
  5
135B
331
1069
  5
1069
331
1482
  5
148E
331
11D7
  5
11D7
331
1025
  5
1025
331
11E9
  5
11E9
331
103F
  5
103F
331
12BA
  5
12BA
331
1458
  5
1464
331
11AD
  5
11AD
331
1059
  5
1059
331
11C7
  5
11C7
331
1365
  5
1365
331
12D4
  5
12D4
331
1472
  5
147E
331
1073
  5
1073
331
148C
  5
1498
331
11E1
  5
11E1
331
137F
  5
1383
331
1085
  5
1085
331
14A6
  5
1C51
331
11F3
  5
11F3
331
1399
  5
139D
331
120D
  5
120D
331
13B3
  5
13B9
331
1100
  5
1100
331
1063
  5
1063
331
111A
  5
111A
331
147C
  5
1488
331
136F
  5
1370
331
107D
  5
107D
331
1389
  5
138D
331
1496
  5
14A2
331
108F
  5
108F
331
14B0
  5
2208
331
11FD
  5
11FD
331
13A3
  5
13A7
331
10A9
  5
10A9
331
1217
  5
1217
331
13BD
  5
13C5
331
110A
  5
110A
331
10C3
  5
10C3
331
1231
  5
1231
331
13CF
  5
13D7
331
1124
  5
1124
331
124B
  5
124B
331
13E9
  5
13F5
331
113E
  5
113E
331
12DC
  5
12DC
331
1099
  5
1099
331
1158
  5
1158
331
1207
  5
1207
331
13AD
  5
13B5
331
10B3
  5
10B3
331
13C7
  5
13CF
331
1114
  5
1114
331
1221
  5
1221
331
10CD
  5
10CD
331
123B
  5
123B
331
13D9
  5
13E4
331
112E
  5
112E
331
10E7
  5
10E7
331
1255
  5
1255
331
13F3
  5
13FF
331
1148
  5
1148
331
12E6
  5
12E6
331
FF4
  5
FF4
331
1267
  5
1267
331
140D
  5
1419
331
1162
  5
1162
331
1300
  5
1300
331
10BD
  5
10BD
331
1174
  5
1174
331
131A
  5
131A
331
1281
  5
1281
331
10D7
  5
10D7
331
1245
  5
1245
331
13E3
  5
13EF
331
10F1
  5
10F1
331
13FD
  5
1409
331
1152
  5
1152
331
12F0
  5
12F0
331
125F
  5
125F
331
FFE
  5
FFE
331
1271
  5
1271
331
1417
  5
1423
331
130A
  5
130A
331
116C
  5
116C
331
1010
  5
1010
331
128B
  5
128B
331
1431
  5
143D
331
117E
  5
117E
331
1324
  5
1324
331
2206
  5
13DB
331
102A
  5
102A
331
12A5
  5
12A5
331
1443
  5
144F
331
1198
  5
1198
331
133E
  5
133E
331
FEE
  5
FEE
331
11B2
  5
11B2
331
1350
  5
1350
331
1407
  5
1413
331
127B
  5
127B
331
1421
  5
142D
331
1314
  5
1314
331
101A
  5
101A
331
1295
  5
1295
331
132E
  5
132E
331
1188
  5
1188
331
143B
  5
1447
331
1034
  5
1034
331
12AF
  5
12AF
331
144D
  5
1459
331
11A2
  5
11A2
331
1348
  5
1348
331
104E
  5
104E
331
12C9
  5
12C9
331
1467
  5
1473
331
11BC
  5
11BC
331
135A
  5
135A
331
1068
  5
1068
331
1481
  5
148D
331
11D6
  5
11D6
331
1374
  5
1377
331
1024
  5
1024
331
11E8
  5
11E8
331
129F
  5
129F
331
103E
  5
103E
331
1457
  5
1463
331
12B9
  5
12B9
331
11AC
  5
11AC
331
1058
  5
1058
331
1471
  5
147D
331
11C6
  5
11C6
331
1364
  5
1364
331
12D3
  5
12D3
331
1072
  5
1072
331
148B
  5
1497
331
137E
  5
1382
331
11E0
  5
11E0
331
1084
  5
1084
331
11F2
  5
11F2
331
1398
  5
139C
331
14A5
  5
14B1
331
120C
  5
120C
331
10FF
  5
10FF
331
1062
  5
1062
331
1119
  5
1119
331
147B
  5
1487
331
136E
  5
136E
331
107C
  5
107C
331
1495
  5
14A1
331
1388
  5
138C
331
108E
  5
108E
331
14AF
  5
2207
331
11FC
  5
11FC
331
13A2
  5
13A6
331
10A8
  5
10A8
331
1216
  5
1216
331
13BC
  5
13C4
331
1109
  5
1109
331
10C2
  5
10C2
331
1230
  5
1230
331
13CE
  5
13D6
331
1123
  5
1123
331
124A
  5
124A
331
13E8
  5
13F4
331
113D
  5
113D
331
12DB
  5
12DB
331
149F
  5
14AB
331
1098
  5
1098
331
1206
  5
1206
331
10B2
  5
10B2
331
1220
  5
1220
331
1113
  5
1113
331
13C6
  5
13CE
331
10CC
  5
10CC
331
123A
  5
123A
331
112D
  5
112D
331
10E6
  5
10E6
331
1147
  5
1147
331
12E5
  5
12E5
331
1254
  5
1254
331
13F2
  5
13FE
331
FF3
  5
FF3
331
1266
  5
1266
331
140C
  5
1418
331
1161
  5
1161
331
12FF
  5
12FF
331
10BC
  5
10BC
331
1280
  5
1280
331
1173
  5
1173
331
1319
  5
1319
331
10D6
  5
10D6
331
1244
  5
1244
331
13E2
  5
13EE
331
1137
  5
1137
  0
XRECORD
  5
2291
102
{ACAD_REACTORS
330
2290
102
}
330
2290
100
AcDbXrecord
340
2268
  0
ACAD_PROXY_OBJECT
  5
21B5
102
{ACAD_XDICTIONARY
360
21B6
102
}
102
{ACAD_REACTORS
330
21AC
102
}
330
21AC
100
AcDbProxyObject
 90
      499
 91
      511
 93
     1340
310
42109E509B1BD8DAC02004014080404555555555555953FAA155555555555654FEA9AA400014080404555555555555953FAA155555555555654FEA9AA400000000000000E03F4080404555555555555953FAA155555555555654FEA9AA4014080404555555555555953FAA155555555555654FEA9AA4010201011555555555
310
55654FEA8555555555555953FAA6A9005020101155555555555654FEA8555555555555953FAA6A9002
 94
        0
1001
ACAD
1000
AcadProxyRoundTripData
1071
      504
1071
   655383
1070
     0
  0
ACAD_PROXY_OBJECT
  5
21AD
102
{ACAD_XDICTIONARY
360
21AE
102
}
102
{ACAD_REACTORS
330
21AC
102
}
330
21AC
100
AcDbProxyObject
 90
      499
 91
      511
 93
     1340
310
42109E53185E595C802004014080404555555555555953FAA155555555555654FEA9AA400014080404555555555555953FAA155555555555654FEA9AA400000000000000E03F4080404555555555555953FAA155555555555654FEA9AA4014080404555555555555953FAA155555555555654FEA9AA4010201011555555555
310
55654FEA8555555555555953FAA6A9005020101155555555555654FEA8555555555555953FAA6A9002
 94
        0
1001
ACAD
1000
AcadProxyRoundTripData
1071
      504
1071
   655383
1070
     0
  0
ACAD_PROXY_OBJECT
  5
21BD
102
{ACAD_XDICTIONARY
360
21BE
102
}
102
{ACAD_REACTORS
330
21AC
102
}
330
21AC
100
AcDbProxyObject
 90
      499
 91
      511
 93
     1332
310
41D1DB1BD8985B002004014080404555555555555953FAA155555555555654FEA9AA400014080404555555555555953FAA155555555555654FEA9AA400000000000000E03F4080404555555555555953FAA155555555555654FEA9AA4014080404555555555555953FAA155555555555654FEA9AA401020101155555555555
310
654FEA8555555555555953FAA6A9005020101155555555555654FEA8555555555555953FAA6A9000
 94
        0
1001
ACAD
1000
AcadProxyRoundTripData
1071
      504
1071
   655383
1070
     0
  0
ACAD_PROXY_OBJECT
  5
21FC
102
{ACAD_REACTORS
330
21FB
102
}
330
21FB
100
AcDbProxyObject
 90
      499
 91
      511
 93
      618
310
40901902A4063FBFFFFFE056BD1B81E855B9FC0AD7A3703D0AD73F4254DD185B99185C990000AD7A3703D0AC73F90141901A02B5E8DC0F42B1CFC02B5E8DC0F42B1CFE5764000000000000300FC6
340
6A
340
0
340
16
340
0
 94
        0
1001
ACAD_MLEADERVER
1070
     2
1001
ACAD
1000
AcadProxyRoundTripData
1071
      508
1071
   655383
1070
     0
  0
MLINESTYLE
  5
78
102
{ACAD_REACTORS
330
76
102
}
330
76
100
AcDbMlineStyle
  2
STANDARD
 70
     0
  3

 62
     0
 51
90.0
 52
90.0
 71
     2
 49
0.5
 62
   256
  6
BYLAYER
 49
-0.5
 62
   256
  6
BYLAYER
  0
ACDBPLACEHOLDER
  5
5
102
{ACAD_REACTORS
330
6
102
}
330
6
100
AcDbPlaceHolder
280
     0
  0
ACAD_PROXY_OBJECT
  5
21DA
102
{ACAD_REACTORS
330
21D9
102
}
330
21D9
100
AcDbProxyObject
 90
      499
 91
      511
 93
       49
310
904313A3100598
 94
        0
1001
ACAD
1000
AcadProxyRoundTripData
1071
      507
1071
   655383
1070
     0
  0
ACAD_PROXY_OBJECT
  5
21DB
102
{ACAD_REACTORS
330
21D9
102
}
330
21D9
100
AcDbProxyObject
 90
      499
 91
      511
 93
      113
310
904313A3200400000000000000406B
 94
        0
1001
ACAD
1000
AcadProxyRoundTripData
1071
      507
1071
   655383
1070
     0
  0
ACAD_PROXY_OBJECT
  5
21DC
102
{ACAD_REACTORS
330
21D9
102
}
330
21D9
100
AcDbProxyObject
 90
      499
 91
      511
 93
      113
310
904313A3400400000000000010406B
 94
        0
1001
ACAD
1000
AcadProxyRoundTripData
1071
      507
1071
   655383
1070
     0
  0
ACAD_PROXY_OBJECT
  5
21DD
102
{ACAD_REACTORS
330
21D9
102
}
330
21D9
100
AcDbProxyObject
 90
      499
 91
      511
 93
      113
310
904313A3500400000000000014406B
 94
        0
1001
ACAD
1000
AcadProxyRoundTripData
1071
      507
1071
   655383
1070
     0
  0
ACAD_PROXY_OBJECT
  5
21DE
102
{ACAD_REACTORS
330
21D9
102
}
330
21D9
100
AcDbProxyObject
 90
      499
 91
      511
 93
      113
310
904313A3800400000000000020406B
 94
        0
1001
ACAD
1000
AcadProxyRoundTripData
1071
      507
1071
   655383
1070
     0
  0
ACAD_PROXY_OBJECT
  5
21DF
102
{ACAD_REACTORS
330
21D9
102
}
330
21D9
100
AcDbProxyObject
 90
      499
 91
      511
 93
      121
310
905313A3130004000000000000244051
 94
        0
1001
ACAD
1000
AcadProxyRoundTripData
1071
      507
1071
   655383
1070
     0
  0
ACAD_PROXY_OBJECT
  5
21E0
102
{ACAD_REACTORS
330
21D9
102
}
330
21D9
100
AcDbProxyObject
 90
      499
 91
      511
 93
      121
310
905313A3136004000000000000304051
 94
        0
1001
ACAD
1000
AcadProxyRoundTripData
1071
      507
1071
   655383
1070
     0
  0
ACAD_PROXY_OBJECT
  5
21E1
102
{ACAD_REACTORS
330
21D9
102
}
330
21D9
100
AcDbProxyObject
 90
      499
 91
      511
 93
      121
310
905313A3230004000000000000344051
 94
        0
1001
ACAD
1000
AcadProxyRoundTripData
1071
      507
1071
   655383
1070
     0
  0
ACAD_PROXY_OBJECT
  5
21E2
102
{ACAD_REACTORS
330
21D9
102
}
330
21D9
100
AcDbProxyObject
 90
      499
 91
      511
 93
      121
310
905313A33300040000000000003E4051
 94
        0
1001
ACAD
1000
AcadProxyRoundTripData
1071
      507
1071
   655383
1070
     0
  0
ACAD_PROXY_OBJECT
  5
21E3
102
{ACAD_REACTORS
330
21D9
102
}
330
21D9
100
AcDbProxyObject
 90
      499
 91
      511
 93
      121
310
905313A3430004000000000000444051
 94
        0
1001
ACAD
1000
AcadProxyRoundTripData
1071
      507
1071
   655383
1070
     0
  0
ACAD_PROXY_OBJECT
  5
21E4
102
{ACAD_REACTORS
330
21D9
102
}
330
21D9
100
AcDbProxyObject
 90
      499
 91
      511
 93
      121
310
905313A3530004000000000000494051
 94
        0
1001
ACAD
1000
AcadProxyRoundTripData
1071
      507
1071
   655383
1070
     0
  0
ACAD_PROXY_OBJECT
  5
21E5
102
{ACAD_REACTORS
330
21D9
102
}
330
21D9
100
AcDbProxyObject
 90
      499
 91
      511
 93
      129
310
906313A313030004000000000000594038
 94
        0
1001
ACAD
1000
AcadProxyRoundTripData
1071
      507
1071
   655383
1070
     0
  0
ACAD_PROXY_OBJECT
  5
21E6
102
{ACAD_REACTORS
330
21D9
102
}
330
21D9
100
AcDbProxyObject
 90
      499
 91
      511
 93
      113
310
904323A31000000000000000010159
 94
        0
1001
ACAD
1000
AcadProxyRoundTripData
1071
      507
1071
   655383
1070
     0
  0
ACAD_PROXY_OBJECT
  5
21E7
102
{ACAD_REACTORS
330
21D9
102
}
330
21D9
100
AcDbProxyObject
 90
      499
 91
      511
 93
      113
310
904343A31000000000000000410159
 94
        0
1001
ACAD
1000
AcadProxyRoundTripData
1071
      507
1071
   655383
1070
     0
  0
ACAD_PROXY_OBJECT
  5
21E8
102
{ACAD_REACTORS
330
21D9
102
}
330
21D9
100
AcDbProxyObject
 90
      499
 91
      511
 93
      113
310
904383A31000000000000000810159
 94
        0
1001
ACAD
1000
AcadProxyRoundTripData
1071
      507
1071
   655383
1070
     0
  0
ACAD_PROXY_OBJECT
  5
21E9
102
{ACAD_REACTORS
330
21D9
102
}
330
21D9
100
AcDbProxyObject
 90
      499
 91
      511
 93
      121
310
90531303A31000000000000000910140
 94
        0
1001
ACAD
1000
AcadProxyRoundTripData
1071
      507
1071
   655383
1070
     0
  0
ACAD_PROXY_OBJECT
  5
21EA
102
{ACAD_REACTORS
330
21D9
102
}
330
21D9
100
AcDbProxyObject
 90
      499
 91
      511
 93
      129
310
9063130303A31000000000000001650138
 94
        0
1001
ACAD
1000
AcadProxyRoundTripData
1071
      507
1071
   655383
1070
     0
  0
ACAD_PROXY_OBJECT
  5
21EB
102
{ACAD_REACTORS
330
21D9
102
}
330
21D9
100
AcDbProxyObject
 90
      499
 91
      511
 93
      265
310
90F312F31323822203D2031272D302200000000000000200FC00000000000028402B
 94
        0
1001
ACAD
1000
AcadProxyRoundTripData
1071
      507
1071
   655383
1070
     0
  0
ACAD_PROXY_OBJECT
  5
21EC
102
{ACAD_REACTORS
330
21D9
102
}
330
21D9
100
AcDbProxyObject
 90
      499
 91
      511
 93
      257
310
90E312F363422203D2031272D302200000000000000240FC000000000000284040
 94
        0
1001
ACAD
1000
AcadProxyRoundTripData
1071
      507
1071
   655383
1070
     0
  0
ACAD_PROXY_OBJECT
  5
21ED
102
{ACAD_REACTORS
330
21D9
102
}
330
21D9
100
AcDbProxyObject
 90
      499
 91
      511
 93
      257
310
90E312F333222203D2031272D302200000000000000280FC000000000000284040
 94
        0
1001
ACAD
1000
AcadProxyRoundTripData
1071
      507
1071
   655383
1070
     0
  0
ACAD_PROXY_OBJECT
  5
21EE
102
{ACAD_REACTORS
330
21D9
102
}
330
21D9
100
AcDbProxyObject
 90
      499
 91
      511
 93
      257
310
90E312F313622203D2031272D3022000000000000002C0FC000000000000284040
 94
        0
1001
ACAD
1000
AcadProxyRoundTripData
1071
      507
1071
   655383
1070
     0
  0
ACAD_PROXY_OBJECT
  5
21EF
102
{ACAD_REACTORS
330
21D9
102
}
330
21D9
100
AcDbProxyObject
 90
      499
 91
      511
 93
      257
310
90E332F333222203D2031272D3022000000000000002E0FC000000000000284040
 94
        0
1001
ACAD
1000
AcadProxyRoundTripData
1071
      507
1071
   655383
1070
     0
  0
ACAD_PROXY_OBJECT
  5
21F0
102
{ACAD_REACTORS
330
21D9
102
}
330
21D9
100
AcDbProxyObject
 90
      499
 91
      511
 93
      249
310
90D312F3822203D2031272D302200000000000000300FC000000000000284040
 94
        0
1001
ACAD
1000
AcadProxyRoundTripData
1071
      507
1071
   655383
1070
     0
  0
ACAD_PROXY_OBJECT
  5
21F1
102
{ACAD_REACTORS
330
21D9
102
}
330
21D9
100
AcDbProxyObject
 90
      499
 91
      511
 93
      257
310
90E332F313622203D2031272D302200000000000000320FC000000000000284040
 94
        0
1001
ACAD
1000
AcadProxyRoundTripData
1071
      507
1071
   655383
1070
     0
  0
ACAD_PROXY_OBJECT
  5
21F2
102
{ACAD_REACTORS
330
21D9
102
}
330
21D9
100
AcDbProxyObject
 90
      499
 91
      511
 93
      249
310
90D312F3422203D2031272D302200000000000000340FC000000000000284040
 94
        0
1001
ACAD
1000
AcadProxyRoundTripData
1071
      507
1071
   655383
1070
     0
  0
ACAD_PROXY_OBJECT
  5
21F3
102
{ACAD_REACTORS
330
21D9
102
}
330
21D9
100
AcDbProxyObject
 90
      499
 91
      511
 93
      249
310
90D332F3822203D2031272D302200000000000000360FC000000000000284040
 94
        0
1001
ACAD
1000
AcadProxyRoundTripData
1071
      507
1071
   655383
1070
     0
  0
ACAD_PROXY_OBJECT
  5
21F4
102
{ACAD_REACTORS
330
21D9
102
}
330
21D9
100
AcDbProxyObject
 90
      499
 91
      511
 93
      249
310
90D312F3222203D2031272D302200000000000000380FC000000000000284040
 94
        0
1001
ACAD
1000
AcadProxyRoundTripData
1071
      507
1071
   655383
1070
     0
  0
ACAD_PROXY_OBJECT
  5
21F5
102
{ACAD_REACTORS
330
21D9
102
}
330
21D9
100
AcDbProxyObject
 90
      499
 91
      511
 93
      249
310
90D332F3422203D2031272D3022000000000000003A0FC000000000000284040
 94
        0
1001
ACAD
1000
AcadProxyRoundTripData
1071
      507
1071
   655383
1070
     0
  0
ACAD_PROXY_OBJECT
  5
21F6
102
{ACAD_REACTORS
330
21D9
102
}
330
21D9
100
AcDbProxyObject
 90
      499
 91
      511
 93
      169
310
90B3122203D2031272D3022004000000000000284020
 94
        0
1001
ACAD
1000
AcadProxyRoundTripData
1071
      507
1071
   655383
1070
     0
  0
ACAD_PROXY_OBJECT
  5
21F7
102
{ACAD_REACTORS
330
21D9
102
}
330
21D9
100
AcDbProxyObject
 90
      499
 91
      511
 93
      265
310
90F312D312F3222203D2031272D3022000000000000003E0FC00000000000028402B
 94
        0
1001
ACAD
1000
AcadProxyRoundTripData
1071
      507
1071
   655383
1070
     0
  0
ACAD_PROXY_OBJECT
  5
21F8
102
{ACAD_REACTORS
330
21D9
102
}
330
21D9
100
AcDbProxyObject
 90
      499
 91
      511
 93
      233
310
90B3322203D2031272D30220000000000000002100000000000000284000
 94
        0
1001
ACAD
1000
AcadProxyRoundTripData
1071
      507
1071
   655383
1070
     0
  0
ACAD_PROXY_OBJECT
  5
21F9
102
{ACAD_REACTORS
330
21D9
102
}
330
21D9
100
AcDbProxyObject
 90
      499
 91
      511
 93
      233
310
90B3622203D2031272D30220000000000000006100000000000000284000
 94
        0
1001
ACAD
1000
AcadProxyRoundTripData
1071
      507
1071
   655383
1070
     0
  0
ACAD_PROXY_OBJECT
  5
21FA
102
{ACAD_REACTORS
330
21D9
102
}
330
21D9
100
AcDbProxyObject
 90
      499
 91
      511
 93
      257
310
90E31272D3022203D2031272D3022000000000000000A100000000000000284040
 94
        0
1001
ACAD
1000
AcadProxyRoundTripData
1071
      507
1071
   655383
1070
     0
  0
ACAD_PROXY_OBJECT
  5
21D8
102
{ACAD_XDICTIONARY
360
2231
102
}
102
{ACAD_REACTORS
330
21D7
102
}
330
21D7
100
AcDbProxyObject
 90
      499
 91
      511
 93
     1849
310
4254DD185B99185C990028B81E85EB51B8AE3F2E07A17AD46E2B8FC02B5E8DC0F42B1CFD028000000C1008070000C3001FDFF8000000C1003FBFF000000182007F7FE00000030400FEFFC00000060801FDFF8000000C1003FBFF00000018200000000000000681FA0B0000001820100E000186003FBFF000000182007F7FE0
310
0000030400FEFFC00000060801FDFF8000000C1003FBFF000000182007F7FE000000304000AD7A3703D0AC73F4160000003040201C00030C007F7FE00000030400FEFFC00000060801FDFF8000000C1003FBFF000000182007F7FE00000030400FEFFC000000608000
340
16
340
16
340
16
 94
        0
1001
ACAD
1000
AcadProxyRoundTripData
1071
      506
1071
   655383
1070
     0
  0
ACAD_PROXY_OBJECT
  5
21CB
102
{ACAD_REACTORS
330
21C5
102
}
330
21C5
100
AcDbProxyObject
 90
      499
 91
      511
 93
      444
310
430C9915DA5C99599C985B59401049028333333333333E3BF0000000000000FB0107901411070040501600405405064090741402480A0340
 94
        0
1001
ACAD
1000
AcDbSavedByObjectVersion
1070
     0
1000
AcadProxyRoundTripData
1071
      505
1071
   655383
1070
     0
  0
ACAD_PROXY_OBJECT
  5
21CD
102
{ACAD_REACTORS
330
21C5
102
}
330
21C5
100
AcDbProxyObject
 90
      499
 91
      511
 93
      508
310
428CD108121A5919195B8010640502408333333333333E3BF0000000000000FB01079024090700405020000000000001110200405405064090740C02480A0340
 94
        0
1001
ACAD
1000
AcDbSavedByObjectVersion
1070
     0
1000
AcadProxyRoundTripData
1071
      505
1071
   655383
1070
     0
  0
ACAD_PROXY_OBJECT
  5
21CC
102
{ACAD_REACTORS
330
21C5
102
}
330
21C5
100
AcDbProxyObject
 90
      499
 91
      511
 93
      444
310
430CD915DA5C99599C985B59401059028333333333333E3BF0000000000000FB0107901411070040501600405405064090741402480A0340
 94
        0
1001
ACAD
1000
AcDbSavedByObjectVersion
1070
     0
1000
AcadProxyRoundTripData
1071
      505
1071
   655383
1070
     0
  0
ACAD_PROXY_OBJECT
  5
21CA
102
{ACAD_REACTORS
330
21C5
102
}
330
21C5
100
AcDbProxyObject
 90
      499
 91
      511
 93
      396
310
4190985CDA58C0107406404333333333333E3BF0000000000000FB0107A41107004050150841D405064090741402480A0356
 94
        0
1001
ACAD
1000
AcDbSavedByObjectVersion
1070
     0
1000
AcadProxyRoundTripData
1071
      505
1071
   655383
1070
     0
  0
ACAD_PROXY_OBJECT
  5
21D1
102
{ACAD_REACTORS
330
21C5
102
}
330
21C5
100
AcDbProxyObject
 90
      499
 91
      511
 93
      436
310
42509C9A59DA1D195B8010C409028333333333333E3BF0000000000000FB010790141107004050150841D405064090741402480A029956
 94
        0
1001
ACAD
1000
AcDbSavedByObjectVersion
1070
     0
1000
AcadProxyRoundTripData
1071
      505
1071
   655383
1070
     0
  0
ACAD_PROXY_OBJECT
  5
21D5
102
{ACAD_REACTORS
330
21C5
102
}
330
21C5
100
AcDbProxyObject
 90
      499
 91
      511
 93
      460
310
4310DBDB1BDC90DA185B99D9401104090240C333333333333E3BF0000000000000FB0108901411070040501508421405064090741402480A0354
 94
        0
1001
ACAD
1000
AcDbSavedByObjectVersion
1070
     0
1000
AcadProxyRoundTripData
1071
      505
1071
   655383
1070
     0
  0
ACAD_PROXY_OBJECT
  5
21CE
102
{ACAD_REACTORS
330
21C5
102
}
330
21C5
100
AcDbProxyObject
 90
      499
 91
      511
 93
      508
310
42D0DBDB98D95C1D1D585B0010940D028333333333333E3BF0000000000000FB0107902409070040501000000000000111010841D405064090740C02480A0340
 94
        0
1001
ACAD
1000
AcDbSavedByObjectVersion
1070
     0
1000
AcadProxyRoundTripData
1071
      505
1071
   655383
1070
     0
  0
ACAD_PROXY_OBJECT
  5
21D0
102
{ACAD_REACTORS
330
21C5
102
}
330
21C5
100
AcDbProxyObject
 90
      499
 91
      511
 93
      420
310
41111A5B4010B409028333333333333E3BF0000000000000FB010790141107004050150841D405064090741402480A02677FFFFFDB
 94
        0
1001
ACAD
1000
AcDbSavedByObjectVersion
1070
     0
1000
AcadProxyRoundTripData
1071
      505
1071
   655383
1070
     0
  0
ACAD_PROXY_OBJECT
  5
21D4
102
{ACAD_REACTORS
330
21C5
102
}
330
21C5
100
AcDbProxyObject
 90
      499
 91
      511
 93
      452
310
43119858D95C185D1D195C9B8010F409028333333333333E3BF0000000000000FB010790141107004050150841D405064090741402480A0350
 94
        0
1001
ACAD
1000
AcDbSavedByObjectVersion
1070
     0
1000
AcadProxyRoundTripData
1071
      505
1071
   655383
1070
     0
  0
ACAD_PROXY_OBJECT
  5
21C6
102
{ACAD_REACTORS
330
21C5
102
}
330
21C5
100
AcDbProxyObject
 90
      499
 91
      511
 93
      396
310
41519B185D00240901404333333333333E3BF0000000000000F9010740A41107004050150841D405064090741402480A1B55
 94
        0
1001
ACAD
1000
AcDbSavedByObjectVersion
1070
     0
1000
AcadProxyRoundTripData
1071
      505
1071
   655383
1070
     0
  0
ACAD_PROXY_OBJECT
  5
21C7
102
{ACAD_REACTORS
330
21C5
102
}
330
21C5
100
AcDbProxyObject
 90
      499
 91
      511
 93
      484
310
43919B185D15DA5D1A115919D95CC010140901404333333333333E3BF0000000000000F9010740901411070040501600405405064090741402480A1B50
 94
        0
1001
ACAD
1000
AcDbSavedByObjectVersion
1070
     0
1000
AcadProxyRoundTripData
1071
      505
1071
   655383
1070
     0
  0
ACAD_PROXY_OBJECT
  5
21C8
102
{ACAD_REACTORS
330
21C5
102
}
330
21C5
100
AcDbProxyObject
 90
      499
 91
      511
 93
      420
310
4211DBDD5C985D590010240902404333333333333E3BF0000000000000F9010740A411070040501641D405064090741402480A1B50
 94
        0
1001
ACAD
1000
AcDbSavedByObjectVersion
1070
     0
1000
AcadProxyRoundTripData
1071
      505
1071
   655383
1070
     0
  0
ACAD_PROXY_OBJECT
  5
21C9
102
{ACAD_REACTORS
330
21C5
102
}
330
21C5
100
AcDbProxyObject
 90
      499
 91
      511
 93
      508
310
4451DBDD5C985D5915DA5D1A115919D95CC010340902404333333333333E3BF0000000000000F9010740901411070040501600405405064090741402480A1B50
 94
        0
1001
ACAD
1000
AcDbSavedByObjectVersion
1070
     0
1000
AcadProxyRoundTripData
1071
      505
1071
   655383
1070
     0
  0
ACAD_PROXY_OBJECT
  5
21D3
102
{ACAD_REACTORS
330
21C5
102
}
330
21C5
100
AcDbProxyObject
 90
      499
 91
      511
 93
      452
310
43131A5B995C185D1D195C9B8010E409028333333333333E3BF0000000000000FB010790141107004050750841D405064090741402483A0350
 94
        0
1001
ACAD
1000
AcDbSavedByObjectVersion
1070
     0
1000
AcadProxyRoundTripData
1071
      505
1071
   655383
1070
     0
  0
ACAD_PROXY_OBJECT
  5
21CF
102
{ACAD_REACTORS
330
21C5
102
}
330
21C5
100
AcDbProxyObject
 90
      499
 91
      511
 93
      428
310
429499585B1A5CDD1A58C0108409028333333333333E3BF0000000000000FB01079019070040501508421405064090741402480A1B45
 94
        0
1001
ACAD
1000
AcDbSavedByObjectVersion
1070
     0
1000
AcadProxyRoundTripData
1071
      505
1071
   655383
1070
     0
  0
ACAD_PROXY_OBJECT
  5
21D2
102
{ACAD_REACTORS
330
21C5
102
}
330
21C5
100
AcDbProxyObject
 90
      499
 91
      511
 93
      420
310
42151A1A58DAD95B8010D409028333333333333E3BF0000000000000FB010790141107004050150C41D405064090741402480A0352
 94
        0
1001
ACAD
1000
AcDbSavedByObjectVersion
1070
     0
1000
AcadProxyRoundTripData
1071
      505
1071
   655383
1070
     0
  0
XRECORD
  5
2278
102
{ACAD_REACTORS
330
226E
102
}
330
226E
100
AcDbXrecord
 90
        0
  0
XRECORD
  5
227C
102
{ACAD_REACTORS
330
226E
102
}
330
226E
100
AcDbXrecord
1000
DSTYLE
1002
{
1070
   179
 70
     2
1070
   277
 70
     6
1002
}
  0
XRECORD
  5
2279
102
{ACAD_REACTORS
330
226E
102
}
330
226E
100
AcDbXrecord
  1
{6385560B-F4B1-4644-A7C2-A3E32AC3D232}
  0
XRECORD
  5
2271
102
{ACAD_REACTORS
330
226E
102
}
330
226E
100
AcDbXrecord
  1

  0
XRECORD
  5
2277
102
{ACAD_REACTORS
330
226E
102
}
330
226E
100
AcDbXrecord
 90
        0
  0
XRECORD
  5
2273
102
{ACAD_REACTORS
330
226E
102
}
330
226E
100
AcDbXrecord
340
61
  0
XRECORD
  5
2276
102
{ACAD_REACTORS
330
226E
102
}
330
226E
100
AcDbXrecord
 90
    10781
  0
XRECORD
  5
2274
102
{ACAD_REACTORS
330
226E
102
}
330
226E
100
AcDbXrecord
340
77
  0
XRECORD
  5
2275
102
{ACAD_REACTORS
330
226E
102
}
330
226E
100
AcDbXrecord
340
6
  0
XRECORD
  5
227B
102
{ACAD_REACTORS
330
226E
102
}
330
226E
100
AcDbXrecord
 40
0.0
  0
XRECORD
  5
227F
102
{ACAD_REACTORS
330
226E
102
}
330
226E
100
AcDbXrecord
340
0
  0
XRECORD
  5
2285
102
{ACAD_REACTORS
330
226E
102
}
330
226E
100
AcDbXrecord
 10
0.0
 20
0.0
 30
0.0
  0
XRECORD
  5
2281
102
{ACAD_REACTORS
330
226E
102
}
330
226E
100
AcDbXrecord
 10
0.0
 20
0.0
 30
0.0
  0
XRECORD
  5
2284
102
{ACAD_REACTORS
330
226E
102
}
330
226E
100
AcDbXrecord
 10
0.0
 20
0.0
 30
0.0
  0
XRECORD
  5
2282
102
{ACAD_REACTORS
330
226E
102
}
330
226E
100
AcDbXrecord
 10
0.0
 20
0.0
 30
0.0
  0
XRECORD
  5
2283
102
{ACAD_REACTORS
330
226E
102
}
330
226E
100
AcDbXrecord
 10
0.0
 20
0.0
 30
0.0
  0
XRECORD
  5
2280
102
{ACAD_REACTORS
330
226E
102
}
330
226E
100
AcDbXrecord
 10
0.0
 20
0.0
 30
0.0
  0
XRECORD
  5
227D
102
{ACAD_REACTORS
330
226E
102
}
330
226E
100
AcDbXrecord
340
0
  0
XRECORD
  5
227E
102
{ACAD_REACTORS
330
226E
102
}
330
226E
100
AcDbXrecord
 70
     0
  0
XRECORD
  5
2272
102
{ACAD_REACTORS
330
226E
102
}
330
226E
100
AcDbXrecord
  1
Sekkei.ctb
  0
XRECORD
  5
226F
102
{ACAD_REACTORS
330
226E
102
}
330
226E
100
AcDbXrecord
 90
        1
  0
XRECORD
  5
2270
102
{ACAD_REACTORS
330
226E
102
}
330
226E
100
AcDbXrecord
 90
       70
  0
XRECORD
  5
2288
102
{ACAD_REACTORS
330
226E
102
}
330
226E
100
AcDbXrecord
340
0
  0
XRECORD
  5
228E
102
{ACAD_REACTORS
330
226E
102
}
330
226E
100
AcDbXrecord
 10
0.0
 20
0.0
 30
0.0
  0
XRECORD
  5
228A
102
{ACAD_REACTORS
330
226E
102
}
330
226E
100
AcDbXrecord
 10
0.0
 20
0.0
 30
0.0
  0
XRECORD
  5
228D
102
{ACAD_REACTORS
330
226E
102
}
330
226E
100
AcDbXrecord
 10
0.0
 20
0.0
 30
0.0
  0
XRECORD
  5
228B
102
{ACAD_REACTORS
330
226E
102
}
330
226E
100
AcDbXrecord
 10
0.0
 20
0.0
 30
0.0
  0
XRECORD
  5
228C
102
{ACAD_REACTORS
330
226E
102
}
330
226E
100
AcDbXrecord
 10
0.0
 20
0.0
 30
0.0
  0
XRECORD
  5
2289
102
{ACAD_REACTORS
330
226E
102
}
330
226E
100
AcDbXrecord
 10
0.0
 20
0.0
 30
0.0
  0
XRECORD
  5
2286
102
{ACAD_REACTORS
330
226E
102
}
330
226E
100
AcDbXrecord
340
0
  0
XRECORD
  5
2287
102
{ACAD_REACTORS
330
226E
102
}
330
226E
100
AcDbXrecord
 70
     0
  0
XRECORD
  5
227A
102
{ACAD_REACTORS
330
226E
102
}
330
226E
100
AcDbXrecord
  1
{747DBBE2-8869-40CD-A4A2-E24E91352B1D}
  0
DICTIONARYVAR
  5
2254
102
{ACAD_REACTORS
330
102
102
}
330
102
100
DictionaryVariables
280
     0
  1
1:1
  0
DICTIONARYVAR
  5
2253
102
{ACAD_REACTORS
330
102
102
}
330
102
100
DictionaryVariables
280
     0
  1
STANDARD
  0
DICTIONARYVAR
  5
2252
102
{ACAD_REACTORS
330
102
102
}
330
102
100
DictionaryVariables
280
     0
  1
STANDARD
  0
DICTIONARYVAR
  5
103
102
{ACAD_REACTORS
330
102
102
}
330
102
100
DictionaryVariables
280
     0
  1
1
  0
DICTIONARYVAR
  5
2255
102
{ACAD_REACTORS
330
102
102
}
330
102
100
DictionaryVariables
280
     0
  1
0
  0
DICTIONARYVAR
  5
549
102
{ACAD_REACTORS
330
102
102
}
330
102
100
DictionaryVariables
280
     0
  1
96
  0
DICTIONARY
  5
21B6
330
21B5
100
AcDbDictionary
280
     1
  3
ACAD_XREC_ROUNDTRIP
360
224F
  3
BUMPTILE
360
21B8
  3
DIFFUSETILE
360
21B7
  3
OPACITYTILE
360
21BB
  3
REFLECTIONTILE
360
21BA
  3
REFRACTIONTILE
360
21BC
  3
SPECULARTILE
360
21B9
  0
DICTIONARY
  5
21AE
330
21AD
100
AcDbDictionary
280
     1
  3
ACAD_XREC_ROUNDTRIP
360
224E
  3
BUMPTILE
360
21B0
  3
DIFFUSETILE
360
21AF
  3
OPACITYTILE
360
21B3
  3
REFLECTIONTILE
360
21B2
  3
REFRACTIONTILE
360
21B4
  3
SPECULARTILE
360
21B1
  0
DICTIONARY
  5
21BE
330
21BD
100
AcDbDictionary
280
     1
  3
ACAD_XREC_ROUNDTRIP
360
2250
  3
BUMPTILE
360
21C0
  3
DIFFUSETILE
360
21BF
  3
OPACITYTILE
360
21C3
  3
REFLECTIONTILE
360
21C2
  3
REFRACTIONTILE
360
21C4
  3
SPECULARTILE
360
21C1
  0
DICTIONARY
  5
2231
330
21D8
100
AcDbDictionary
280
     1
  3
ACAD_ROUNDTRIP_2008_TABLES
360
2232
  3
ACAD_XREC_ROUNDTRIP
360
2251
  0
XRECORD
  5
224F
102
{ACAD_REACTORS
330
21B6
102
}
330
21B6
100
AcDbXrecord
102
MATERIAL
148
0.0
149
0.0
149
0.0
 93
        0
 94
      127
282
     0
 72
     0
 77
     0
171
     0
175
     0
179
     0
273
     0
  0
XRECORD
  5
21B8
102
{ACAD_REACTORS
330
21B6
102
}
330
21B6
100
AcDbXrecord
270
     1
271
     1
  0
XRECORD
  5
21B7
102
{ACAD_REACTORS
330
21B6
102
}
330
21B6
100
AcDbXrecord
270
     1
271
     1
  0
XRECORD
  5
21BB
102
{ACAD_REACTORS
330
21B6
102
}
330
21B6
100
AcDbXrecord
270
     1
271
     1
  0
XRECORD
  5
21BA
102
{ACAD_REACTORS
330
21B6
102
}
330
21B6
100
AcDbXrecord
270
     1
271
     1
  0
XRECORD
  5
21BC
102
{ACAD_REACTORS
330
21B6
102
}
330
21B6
100
AcDbXrecord
270
     1
271
     1
  0
XRECORD
  5
21B9
102
{ACAD_REACTORS
330
21B6
102
}
330
21B6
100
AcDbXrecord
270
     1
271
     1
  0
XRECORD
  5
224E
102
{ACAD_REACTORS
330
21AE
102
}
330
21AE
100
AcDbXrecord
102
MATERIAL
148
0.0
149
0.0
149
0.0
 93
        0
 94
      127
282
     0
 72
     0
 77
     0
171
     0
175
     0
179
     0
273
     0
  0
XRECORD
  5
21B0
102
{ACAD_REACTORS
330
21AE
102
}
330
21AE
100
AcDbXrecord
270
     1
271
     1
  0
XRECORD
  5
21AF
102
{ACAD_REACTORS
330
21AE
102
}
330
21AE
100
AcDbXrecord
270
     1
271
     1
  0
XRECORD
  5
21B3
102
{ACAD_REACTORS
330
21AE
102
}
330
21AE
100
AcDbXrecord
270
     1
271
     1
  0
XRECORD
  5
21B2
102
{ACAD_REACTORS
330
21AE
102
}
330
21AE
100
AcDbXrecord
270
     1
271
     1
  0
XRECORD
  5
21B4
102
{ACAD_REACTORS
330
21AE
102
}
330
21AE
100
AcDbXrecord
270
     1
271
     1
  0
XRECORD
  5
21B1
102
{ACAD_REACTORS
330
21AE
102
}
330
21AE
100
AcDbXrecord
270
     1
271
     1
  0
XRECORD
  5
2250
102
{ACAD_REACTORS
330
21BE
102
}
330
21BE
100
AcDbXrecord
102
MATERIAL
148
0.0
149
0.0
149
0.0
 93
        0
 94
      127
282
     0
 72
     0
 77
     0
171
     0
175
     0
179
     0
273
     0
  0
XRECORD
  5
21C0
102
{ACAD_REACTORS
330
21BE
102
}
330
21BE
100
AcDbXrecord
270
     1
271
     1
  0
XRECORD
  5
21BF
102
{ACAD_REACTORS
330
21BE
102
}
330
21BE
100
AcDbXrecord
270
     1
271
     1
  0
XRECORD
  5
21C3
102
{ACAD_REACTORS
330
21BE
102
}
330
21BE
100
AcDbXrecord
270
     1
271
     1
  0
XRECORD
  5
21C2
102
{ACAD_REACTORS
330
21BE
102
}
330
21BE
100
AcDbXrecord
270
     1
271
     1
  0
XRECORD
  5
21C4
102
{ACAD_REACTORS
330
21BE
102
}
330
21BE
100
AcDbXrecord
270
     1
271
     1
  0
XRECORD
  5
21C1
102
{ACAD_REACTORS
330
21BE
102
}
330
21BE
100
AcDbXrecord
270
     1
271
     1
  0
ACAD_PROXY_OBJECT
  5
2232
102
{ACAD_REACTORS
330
2231
102
}
330
2231
100
AcDbProxyObject
 90
      499
 91
      511
 93
     1044
310
40D054060020000020000003200101A000080002A5058000000C100000000000000340FE901405075F5449544C450041501A8000000C800406800020000A9416000000304000AD7A3703D0AC73FA409014217D2115051115480105406A0000003200101A000080002A5028000000C10002B5E8DC0F42B1CFE903409065F444
310
15441004
340
16
340
16
340
16
 94
        0
1001
ACAD
1000
AcadProxyRoundTripData
1071
      510
1071
   655383
1070
     0
  0
XRECORD
  5
2251
102
{ACAD_REACTORS
330
2231
102
}
330
2231
100
AcDbXrecord
102
ACAD_ROUNDTRIP_PRE2007_TABLESTYLE
 90
      512
 91
        0
  1

 92
      512
 93
        0
  2

 94
      512
 95
        0
  3

  0
ENDSEC
  0
EOF
