  0
SECTION
  2
HEADER
  9
$ACADVER
  1
AC1014
  9
$ACADMAINTVER
 70
     9
  9
$DWGCODEPAGE
  3
ANSI_932
  9
$INSBASE
 10
0.0
 20
0.0
 30
0.0
  9
$EXTMIN
 10
56.31675236336992
 20
92.88402531969239
 30
0.0
  9
$EXTMAX
 10
1149.146810214634
 20
756.2798769390753
 30
0.0
  9
$LIMMIN
 10
0.0
 20
0.0
  9
$LIMMAX
 10
297.0
 20
210.0
  9
$ORTHOMODE
 70
     1
  9
$REGENMODE
 70
     1
  9
$FILLMODE
 70
     1
  9
$QTEXTMODE
 70
     0
  9
$MIRRTEXT
 70
     0
  9
$DRAGMODE
 70
     2
  9
$LTSCALE
 40
3.0
  9
$OSMODE
 70
    37
  9
$ATTMODE
 70
     1
  9
$TEXTSIZE
 40
2.0
  9
$TRACEWID
 40
1.0
  9
$TEXTSTYLE
  7
STANDARD
  9
$CLAYER
  8
0
  9
$CELTYPE
  6
BYLAYER
  9
$CECOLOR
 62
   256
  9
$CELTSCALE
 40
1.0
  9
$DELOBJ
 70
     1
  9
$DISPSILH
 70
     0
  9
$DIMSCALE
 40
3.0
  9
$DIMASZ
 40
1.8
  9
$DIMEXO
 40
0.625
  9
$DIMDLI
 40
3.75
  9
$DIMRND
 40
0.0
  9
$DIMDLE
 40
0.0
  9
$DIMEXE
 40
0.8
  9
$DIMTP
 40
0.0
  9
$DIMTM
 40
0.0
  9
$DIMTXT
 40
1.8
  9
$DIMCEN
 40
2.5
  9
$DIMTSZ
 40
0.0
  9
$DIMTOL
 70
     0
  9
$DIMLIM
 70
     0
  9
$DIMTIH
 70
     0
  9
$DIMTOH
 70
     0
  9
$DIMSE1
 70
     0
  9
$DIMSE2
 70
     0
  9
$DIMTAD
 70
     1
  9
$DIMZIN
 70
     8
  9
$DIMBLK
  1

  9
$DIMASO
 70
     1
  9
$DIMSHO
 70
     1
  9
$DIMPOST
  1

  9
$DIMAPOST
  1

  9
$DIMALT
 70
     0
  9
$DIMALTD
 70
     4
  9
$DIMALTF
 40
0.0394
  9
$DIMLFAC
 40
1.0
  9
$DIMTOFL
 70
     1
  9
$DIMTVP
 40
0.0
  9
$DIMTIX
 70
     0
  9
$DIMSOXD
 70
     0
  9
$DIMSAH
 70
     0
  9
$DIMBLK1
  1

  9
$DIMBLK2
  1

  9
$DIMSTYLE
  2
STANDARD
  9
$DIMCLRD
 70
     0
  9
$DIMCLRE
 70
     0
  9
$DIMCLRT
 70
     0
  9
$DIMTFAC
 40
1.0
  9
$DIMGAP
 40
0.75
  9
$DIMJUST
 70
     0
  9
$DIMSD1
 70
     0
  9
$DIMSD2
 70
     0
  9
$DIMTOLJ
 70
     1
  9
$DIMTZIN
 70
     0
  9
$DIMALTZ
 70
     0
  9
$DIMALTTZ
 70
     0
  9
$DIMFIT
 70
     3
  9
$DIMUPT
 70
     0
  9
$DIMUNIT
 70
     8
  9
$DIMDEC
 70
     2
  9
$DIMTDEC
 70
     2
  9
$DIMALTU
 70
     8
  9
$DIMALTTD
 70
     4
  9
$DIMTXSTY
  7
STANDARD
  9
$DIMAUNIT
 70
     0
  9
$LUNITS
 70
     2
  9
$LUPREC
 70
     3
  9
$SKETCHINC
 40
1.0
  9
$FILLETRAD
 40
2.0
  9
$AUNITS
 70
     0
  9
$AUPREC
 70
     2
  9
$MENU
  1
.
  9
$ELEVATION
 40
0.0
  9
$PELEVATION
 40
0.0
  9
$THICKNESS
 40
0.0
  9
$LIMCHECK
 70
     0
  9
$BLIPMODE
 70
     0
  9
$CHAMFERA
 40
0.0
  9
$CHAMFERB
 40
0.0
  9
$CHAMFERC
 40
20.0
  9
$CHAMFERD
 40
0.0
  9
$SKPOLY
 70
     0
  9
$TDCREATE
 40
2454413.383856874
  9
$TDUPDATE
 40
2454424.602482454
  9
$TDINDWG
 40
0.0104038310
  9
$TDUSRTIMER
 40
0.0104038310
  9
$USRTIMER
 70
     1
  9
$ANGBASE
 50
0.0
  9
$ANGDIR
 70
     0
  9
$PDMODE
 70
     0
  9
$PDSIZE
 40
-10.0
  9
$PLINEWID
 40
0.0
  9
$COORDS
 70
     0
  9
$SPLFRAME
 70
     0
  9
$SPLINETYPE
 70
     6
  9
$SPLINESEGS
 70
     8
  9
$ATTDIA
 70
     0
  9
$ATTREQ
 70
     1
  9
$HANDLING
 70
-16383
  9
$HANDSEED
  5
1D57
  9
$SURFTAB1
 70
     6
  9
$SURFTAB2
 70
     6
  9
$SURFTYPE
 70
     6
  9
$SURFU
 70
     6
  9
$SURFV
 70
     6
  9
$UCSNAME
  2

  9
$UCSORG
 10
0.0
 20
0.0
 30
0.0
  9
$UCSXDIR
 10
1.0
 20
0.0
 30
0.0
  9
$UCSYDIR
 10
0.0
 20
1.0
 30
0.0
  9
$PUCSNAME
  2

  9
$PUCSORG
 10
0.0
 20
0.0
 30
0.0
  9
$PUCSXDIR
 10
1.0
 20
0.0
 30
0.0
  9
$PUCSYDIR
 10
0.0
 20
1.0
 30
0.0
  9
$USERI1
 70
     0
  9
$USERI2
 70
     0
  9
$USERI3
 70
     0
  9
$USERI4
 70
     0
  9
$USERI5
 70
     0
  9
$USERR1
 40
0.0
  9
$USERR2
 40
0.0
  9
$USERR3
 40
0.0
  9
$USERR4
 40
0.0
  9
$USERR5
 40
0.0
  9
$WORLDVIEW
 70
     1
  9
$SHADEDGE
 70
     3
  9
$SHADEDIF
 70
    70
  9
$TILEMODE
 70
     1
  9
$MAXACTVP
 70
    48
  9
$PINSBASE
 10
0.0
 20
0.0
 30
0.0
  9
$PLIMCHECK
 70
     0
  9
$PEXTMIN
 10
0.0
 20
0.0
 30
0.0
  9
$PEXTMAX
 10
0.0
 20
0.0
 30
0.0
  9
$PLIMMIN
 10
0.0
 20
0.0
  9
$PLIMMAX
 10
12.0
 20
9.0
  9
$UNITMODE
 70
     0
  9
$VISRETAIN
 70
     1
  9
$PLINEGEN
 70
     0
  9
$PSLTSCALE
 70
     1
  9
$TREEDEPTH
 70
  3020
  9
$PICKSTYLE
 70
     1
  9
$CMLSTYLE
  2
STANDARD
  9
$CMLJUST
 70
     0
  9
$CMLSCALE
 40
1.0
  9
$PROXYGRAPHICS
 70
     1
  9
$MEASUREMENT
 70
     0
  0
ENDSEC
  0
SECTION
  2
CLASSES
  0
CLASS
  1
DICTIONARYVAR
  2
AcDbDictionaryVar
  3
AutoCAD 2000
 90
        0
280
     0
281
     0
  0
CLASS
  1
ACDBDICTIONARYWDFLT
  2
AcDbDictionaryWithDefault
  3
AutoCAD 2000
 90
        0
280
     0
281
     0
  0
CLASS
  1
ACDBPLACEHOLDER
  2
AcDbPlaceHolder
  3
AutoCAD 2000
 90
        0
280
     0
281
     0
  0
CLASS
  1
LAYOUT
  2
AcDbLayout
  3
AutoCAD 2000
 90
        0
280
     0
281
     0
  0
CLASS
  1
MATERIAL
  2
AcDbMaterial
  3
ObjectDBX Classes
 90
     1153
280
     0
281
     0
  0
CLASS
  1
VISUALSTYLE
  2
AcDbVisualStyle
  3
ObjectDBX Classes
 90
     4095
280
     0
281
     0
  0
CLASS
  1
TABLESTYLE
  2
AcDbTableStyle
  3
ObjectDBX Classes
 90
     4095
280
     0
281
     0
  0
CLASS
  1
SCALE
  2
AcDbScale
  3
ObjectDBX Classes
 90
     1153
280
     0
281
     0
  0
CLASS
  1
MLEADERSTYLE
  2
AcDbMLeaderStyle
  3
ACDB_MLEADERSTYLE_CLASS
 90
     4095
280
     0
281
     0
  0
CLASS
  1
SORTENTSTABLE
  2
AcDbSortentsTable
  3
AutoCAD 2000
 90
        0
280
     0
281
     0
  0
CLASS
  1
CELLSTYLEMAP
  2
AcDbCellStyleMap
  3
ObjectDBX Classes
 90
     1152
280
     0
281
     0
  0
CLASS
  1
ACAD_PROXY_OBJECT_WRAPPER
  2
AcDbProxyObjectWrapper
  3
AutoCAD 2000
 90
        0
280
     0
281
     0
  0
CLASS
  1
LONG_TRANSACTION
  2
AcDbLongTransaction
  3
AutoCAD 2000
 90
        0
280
     0
281
     0
  0
CLASS
  1
LWPOLYLINE
  2
AcDbPolyline
  3
AutoCAD 2000
 90
        0
280
     0
281
     1
  0
CLASS
  1
HATCH
  2
AcDbHatch
  3
AutoCAD 2000
 90
        0
280
     0
281
     1
  0
CLASS
  1
XRECORD
  2
AcDbXrecord
  3
AutoCAD 2000
 90
        0
280
     0
281
     0
  0
ENDSEC
  0
SECTION
  2
TABLES
  0
TABLE
  2
VPORT
  5
6E
102
{ACAD_XDICTIONARY
360
1D01
102
}
330
0
100
AcDbSymbolTable
 70
     2
  0
VPORT
  5
1D32
330
6E
100
AcDbSymbolTableRecord
100
AcDbViewportTableRecord
  2
*ACTIVE
 70
     0
 10
0.0
 20
0.0
 11
1.0
 21
1.0
 12
611.2964225761668
 22
410.8518270006838
 13
0.0
 23
0.0
 14
10.0
 24
10.0
 15
10.0
 25
10.0
 16
0.0
 26
0.0
 36
1.0
 17
0.0
 27
0.0
 37
0.0
 40
695.557827550458
 41
1.753504672897196
 42
50.0
 43
0.0
 44
0.0
 50
0.0
 51
0.0
 71
     0
 72
   100
 73
     1
 74
     3
 75
     0
 76
     0
 77
     0
 78
     0
  0
ENDTAB
  0
TABLE
  2
LTYPE
  5
69
330
0
100
AcDbSymbolTable
 70
     7
  0
LTYPE
  5
6A
330
69
100
AcDbSymbolTableRecord
100
AcDbLinetypeTableRecord
  2
BYBLOCK
 70
     0
  3

 72
    65
 73
     0
 40
0.0
  0
LTYPE
  5
6B
330
69
100
AcDbSymbolTableRecord
100
AcDbLinetypeTableRecord
  2
BYLAYER
 70
     0
  3

 72
    65
 73
     0
 40
0.0
  0
LTYPE
  5
8
330
69
100
AcDbSymbolTableRecord
100
AcDbLinetypeTableRecord
  2
CONTINUOUS
 70
     0
  3
Solid line
 72
    65
 73
     0
 40
0.0
  0
LTYPE
  5
27C
330
69
100
AcDbSymbolTableRecord
100
AcDbLinetypeTableRecord
  2
SEKKEI_A2_
 70
     0
  3
center(A2)  ____ _ ____ _ ____ _ ____ _ ____ _ 
 72
    65
 73
     4
 40
14.28749999999999
 49
9.525
 74
     0
 49
-1.587499999999999
 74
     0
 49
1.587499999999999
 74
     0
 49
-1.587499999999999
 74
     0
  0
LTYPE
  5
48F
330
69
100
AcDbSymbolTableRecord
100
AcDbLinetypeTableRecord
  2
SEKKEI_H
 70
     0
  3
Hidden-S _ _ _ _ _ _ _ _ _ _ _ _ _ _ _ _ _
 72
    65
 73
     2
 40
2.381249999999999
 49
1.587499999999999
 74
     0
 49
-0.79375
 74
     0
  0
LTYPE
  5
7EF
330
69
100
AcDbSymbolTableRecord
100
AcDbLinetypeTableRecord
  2
PHANTOM3
 70
     0
  3
Phantom  ___ _ _ ___ _ _ ___ _ _ ___ _ _
 72
    65
 73
     6
 40
9.0
 49
4.0
 74
     0
 49
-1.0
 74
     0
 49
1.0
 74
     0
 49
-1.0
 74
     0
 49
1.0
 74
     0
 49
-1.0
 74
     0
  0
LTYPE
  5
7F0
330
69
100
AcDbSymbolTableRecord
100
AcDbLinetypeTableRecord
  2
HIDDEN3
 70
     0
  3
Hidden (.3x) _ _ _ _ _ _ _ _ _ _ _ _ _ _ _ _ _
 72
    65
 73
     2
 40
2.857499999999999
 49
1.905
 74
     0
 49
-0.9525
 74
     0
  0
LTYPE
  5
B15
330
69
100
AcDbSymbolTableRecord
100
AcDbLinetypeTableRecord
  2
CENS
 70
     0
  3
(一点鎖線１)---- - ---- - ---- - ---- - ---- - 
 72
    65
 73
     4
 40
7.0
 49
4.0
 74
     0
 49
-1.0
 74
     0
 49
1.0
 74
     0
 49
-1.0
 74
     0
  0
ENDTAB
  0
TABLE
  2
LAYER
  5
66
102
{ACAD_XDICTIONARY
360
B16
102
}
330
0
100
AcDbSymbolTable
 70
    10
  0
LAYER
  5
5E
102
{ACAD_XDICTIONARY
360
1CE4
102
}
330
66
100
AcDbSymbolTableRecord
100
AcDbLayerTableRecord
  2
0
 70
     0
 62
     7
  6
CONTINUOUS
  0
LAYER
  5
3E
102
{ACAD_XDICTIONARY
360
1CE6
102
}
330
66
100
AcDbSymbolTableRecord
100
AcDbLayerTableRecord
  2
CENTER
 70
     0
 62
     3
  6
SEKKEI_A2_
  0
LAYER
  5
2B5
102
{ACAD_XDICTIONARY
360
1CEC
102
}
330
66
100
AcDbSymbolTableRecord
100
AcDbLayerTableRecord
  2
HIDS
 70
     0
 62
     1
  6
HIDDEN3
  0
LAYER
  5
2BA
102
{ACAD_XDICTIONARY
360
1CEE
102
}
330
66
100
AcDbSymbolTableRecord
100
AcDbLayerTableRecord
  2
HOJO
 70
     0
 62
     4
  6
CONTINUOUS
  0
LAYER
  5
3FA
102
{ACAD_XDICTIONARY
360
1CF2
102
}
330
66
100
AcDbSymbolTableRecord
100
AcDbLayerTableRecord
  2
TITLE
 70
     0
 62
     4
  6
CONTINUOUS
  0
LAYER
  5
478
102
{ACAD_XDICTIONARY
360
1CF4
102
}
330
66
100
AcDbSymbolTableRecord
100
AcDbLayerTableRecord
  2
PHAS
 70
     0
 62
     2
  6
PHANTOM3
  0
ENDTAB
  0
TABLE
  2
STYLE
  5
67
330
0
100
AcDbSymbolTable
 70
     2
  0
STYLE
  5
16
330
67
100
AcDbSymbolTableRecord
100
AcDbTextStyleTableRecord
  2
STANDARD
 70
     0
 40
0.0
 41
1.0
 50
0.0
 71
     0
 42
2.0
  3
simplex.shx
  4
extfont.shx
  0
ENDTAB
  0
TABLE
  2
VIEW
  5
6C
330
0
100
AcDbSymbolTable
 70
     0
  0
ENDTAB
  0
TABLE
  2
UCS
  5
6D
330
0
100
AcDbSymbolTable
 70
     0
  0
ENDTAB
  0
TABLE
  2
APPID
  5
70
330
0
100
AcDbSymbolTable
 70
     2
  0
APPID
  5
71
330
70
100
AcDbSymbolTableRecord
100
AcDbRegAppTableRecord
  2
ACAD
 70
     0
  0
APPID
  5
1CC1
330
70
100
AcDbSymbolTableRecord
100
AcDbRegAppTableRecord
  2
ACAD_MLEADERVER
 70
     0
  0
ENDTAB
  0
TABLE
  2
DIMSTYLE
  5
72
330
0
100
AcDbSymbolTable
 70
     1
  0
DIMSTYLE
105
73
330
72
100
AcDbSymbolTableRecord
100
AcDbDimStyleTableRecord
  2
STANDARD
 70
     0
  3

  4

  5

  6

  7

 40
3.0
 41
1.8
 42
0.625
 43
3.75
 44
0.8
 45
0.0
 46
0.0
 47
0.0
 48
0.0
140
1.8
141
2.5
142
0.0
143
0.0394
144
1.0
145
0.0
146
1.0
147
0.75
 71
     0
 72
     0
 73
     0
 74
     0
 75
     0
 76
     0
 77
     1
 78
     8
170
     0
171
     4
172
     1
173
     0
174
     0
175
     0
176
     0
177
     0
178
     0
270
     8
271
     2
272
     2
273
     8
274
     4
340
16
275
     0
280
     0
281
     0
282
     0
283
     1
284
     0
285
     0
286
     0
287
     3
288
     0
  0
ENDTAB
  0
TABLE
  2
BLOCK_RECORD
  5
1
330
0
100
AcDbSymbolTable
 70
    57
  0
BLOCK_RECORD
  5
2
102
{ACAD_XDICTIONARY
360
1CC5
102
}
330
1
100
AcDbSymbolTableRecord
100
AcDbBlockTableRecord
  2
*MODEL_SPACE
  0
BLOCK_RECORD
  5
1D2D
102
{ACAD_XDICTIONARY
360
1D55
102
}
330
1
100
AcDbSymbolTableRecord
100
AcDbBlockTableRecord
  2
*PAPER_SPACE
  0
BLOCK_RECORD
  5
8DB
330
1
100
AcDbSymbolTableRecord
100
AcDbBlockTableRecord
  2
A$C79D50562
  0
ENDTAB
  0
ENDSEC
  0
SECTION
  2
BLOCKS
  0
BLOCK
  5
5D
330
2
100
AcDbEntity
  8
0
100
AcDbBlockBegin
  2
*MODEL_SPACE
 70
     0
 10
0.0
 20
0.0
 30
0.0
  3
*MODEL_SPACE
  1

  0
ENDBLK
  5
5F
330
2
100
AcDbEntity
  8
0
100
AcDbBlockEnd
  0
BLOCK
  5
1D2F
330
1D2D
100
AcDbEntity
 67
     1
  8
0
100
AcDbBlockBegin
  2
*PAPER_SPACE
 70
     0
 10
0.0
 20
0.0
 30
0.0
  3
*PAPER_SPACE
  1

  0
ENDBLK
  5
1D30
330
1D2D
100
AcDbEntity
 67
     1
  8
0
100
AcDbBlockEnd
  0
BLOCK
  5
8DE
330
8DB
100
AcDbEntity
  8
0
100
AcDbBlockBegin
  2
A$C79D50562
 70
     0
 10
0.0
 20
0.0
 30
0.0
  3
A$C79D50562
  1

  0
LINE
  5
8DC
330
8DB
100
AcDbEntity
  8
CENTER
100
AcDbLine
 10
0.0
 20
7.659444835277668
 30
0.0
 11
0.0
 21
-7.659444835277668
 31
0.0
  0
LINE
  5
8DD
330
8DB
100
AcDbEntity
  8
CENTER
100
AcDbLine
 10
-7.659444835277668
 20
0.0
 30
0.0
 11
7.659444835277668
 21
0.0
 31
0.0
  0
ENDBLK
  5
8DF
330
8DB
100
AcDbEntity
  8
0
100
AcDbBlockEnd
  0
ENDSEC
  0
SECTION
  2
ENTITIES
  0
TEXT
  5
FE8
330
2
100
AcDbEntity
  8
TITLE
100
AcDbText
 10
390.1179957131643
 20
685.5066968100564
 30
0.0
 40
7.5
  1
AFCZ28S-40~60M400S3
100
AcDbText
  0
TEXT
  5
FE9
330
2
100
AcDbEntity
  8
TITLE
100
AcDbText
 10
390.1179957131643
 20
674.0066968100563
 30
0.0
 40
7.5
  1
AFCZ28S-40~60L400S3
100
AcDbText
  0
LINE
  5
FEC
330
2
100
AcDbEntity
  8
CENTER
100
AcDbLine
 10
611.1556477519563
 20
685.7798769390754
 30
0.0
 11
879.2907514165001
 21
685.7798769390751
 31
0.0
  0
LINE
  5
FED
330
2
100
AcDbEntity
  8
CENTER
100
AcDbLine
 10
254.7267523633684
 20
483.315563020658
 30
0.0
 11
254.7267523633684
 21
343.315563020658
 31
0.0
  0
LINE
  5
FEE
330
2
100
AcDbEntity
  8
CENTER
100
AcDbLine
 10
680.8807514165011
 20
756.2798769390753
 30
0.0
 11
680.8807514165011
 21
598.7798769390754
 31
0.0
  0
LINE
  5
FEF
330
2
100
AcDbEntity
  8
CENTER
100
AcDbLine
 10
742.9015666966709
 20
351.2947477404908
 30
0.0
 11
618.8599361363278
 21
475.3363783008327
 31
0.0
  0
LINE
  5
FF0
330
2
100
AcDbEntity
  8
CENTER
100
AcDbLine
 10
618.8599361363296
 20
351.294747740489
 30
0.0
 11
742.9015666966726
 21
475.3363783008307
 31
0.0
  0
LINE
  5
FF1
330
2
100
AcDbEntity
  8
CENTER
100
AcDbLine
 10
680.8807514165011
 20
333.3155630206617
 30
0.0
 11
680.8807514165011
 21
493.3155630206617
 31
0.0
  0
LINE
  5
FF2
330
2
100
AcDbEntity
  8
CENTER
100
AcDbLine
 10
600.8807514164994
 20
413.3155630206599
 30
0.0
 11
879.2907514165001
 21
413.3155630206599
 31
0.0
  0
LINE
  5
FF3
330
2
100
AcDbEntity
  8
CENTER
100
AcDbLine
 10
631.3832767334409
 20
453.8130377037193
 30
0.0
 11
631.3832767334409
 21
471.8130377037192
 31
0.0
  0
LINE
  5
FF4
330
2
100
AcDbEntity
  8
CENTER
100
AcDbLine
 10
622.3832767334409
 20
462.8130377037193
 30
0.0
 11
640.3832767334408
 21
462.8130377037193
 31
0.0
  0
LINE
  5
FF5
330
2
100
AcDbEntity
  8
CENTER
100
AcDbLine
 10
730.3782260995596
 20
453.8130377037193
 30
0.0
 11
730.3782260995596
 21
471.8130377037192
 31
0.0
  0
LINE
  5
FF6
330
2
100
AcDbEntity
  8
CENTER
100
AcDbLine
 10
739.3782260995597
 20
462.8130377037175
 30
0.0
 11
721.3782260995596
 21
462.8130377037175
 31
0.0
  0
LINE
  5
FF7
330
2
100
AcDbEntity
  8
CENTER
100
AcDbLine
 10
730.3782260995578
 20
372.8180883376041
 30
0.0
 11
730.3782260995578
 21
354.8180883376041
 31
0.0
  0
LINE
  5
FF8
330
2
100
AcDbEntity
  8
CENTER
100
AcDbLine
 10
739.3782260995578
 20
363.8180883376041
 30
0.0
 11
721.3782260995579
 21
363.8180883376041
 31
0.0
  0
LINE
  5
FF9
330
2
100
AcDbEntity
  8
CENTER
100
AcDbLine
 10
631.3832767334417
 20
372.8180883376005
 30
0.0
 11
631.3832767334417
 21
354.8180883376005
 31
0.0
  0
LINE
  5
FFA
330
2
100
AcDbEntity
  8
CENTER
100
AcDbLine
 10
622.3832767334418
 20
363.8180883376023
 30
0.0
 11
640.3832767334417
 21
363.8180883376023
 31
0.0
  0
ARC
  5
FFB
330
2
100
AcDbEntity
  8
0
100
AcDbCircle
 10
680.8807514164948
 20
603.3155630206618
 30
0.0
 40
250.0
100
AcDbArc
 50
264.7203967176031
 51
275.2796032823967
  0
ARC
  5
FFC
330
2
100
AcDbEntity
  8
0
100
AcDbCircle
 10
680.8807514165002
 20
223.3155630206617
 30
0.0
 40
250.0
100
AcDbArc
 50
84.72039671760322
 51
95.27960328239677
  0
CIRCLE
  5
FFD
330
2
100
AcDbEntity
  8
0
100
AcDbCircle
 10
680.8807514164993
 20
413.3155630206617
 30
0.0
 40
40.0
  0
CIRCLE
  5
FFE
330
2
100
AcDbEntity
  8
0
100
AcDbCircle
 10
680.8807514164993
 20
413.3155630206617
 30
0.0
 40
32.5
  0
CIRCLE
  5
FFF
330
2
100
AcDbEntity
  8
CENTER
100
AcDbCircle
 10
680.8807514164993
 20
413.3155630206617
 30
0.0
 40
70.0
  0
CIRCLE
  5
1000
330
2
100
AcDbEntity
  8
0
100
AcDbCircle
 10
680.8807514164993
 20
413.3155630206617
 30
0.0
 40
55.0
  0
ARC
  5
1001
330
2
100
AcDbEntity
  8
0
100
AcDbCircle
 10
870.8807514164993
 20
413.3155630206617
 30
0.0
 40
250.0
100
AcDbArc
 50
174.7203967175517
 51
185.2796032824482
  0
ARC
  5
1002
330
2
100
AcDbEntity
  8
0
100
AcDbCircle
 10
630.8807514164993
 20
363.3155630206617
 30
0.0
 40
10.0
100
AcDbArc
 50
180.0
 51
270.0
  0
ARC
  5
1003
330
2
100
AcDbEntity
  8
0
100
AcDbCircle
 10
628.8807514164993
 20
367.3155630206653
 30
0.0
 40
8.0
100
AcDbArc
 50
169.7661103968427
 51
180.0
  0
LINE
  5
1004
330
2
100
AcDbEntity
  8
0
100
AcDbLine
 10
620.8807514164994
 20
363.3155630206617
 30
0.0
 11
620.8807514164994
 21
367.3155630206653
 31
0.0
  0
CIRCLE
  5
1005
330
2
100
AcDbEntity
  8
HOJO
100
AcDbCircle
 10
631.3832767334409
 20
363.8180883376041
 30
0.0
 40
4.0
  0
LINE
  5
1006
330
2
100
AcDbEntity
  8
0
100
AcDbLine
 10
630.8807514164993
 20
353.3155630206617
 30
0.0
 11
634.8807514165039
 21
353.3155630206617
 31
0.0
  0
ARC
  5
1007
330
2
100
AcDbEntity
  8
0
100
AcDbCircle
 10
634.8807514165039
 20
361.3155630206599
 30
0.0
 40
8.0
100
AcDbArc
 50
270.0
 51
280.2338896031038
  0
CIRCLE
  5
1008
330
2
100
AcDbEntity
  8
0
100
AcDbCircle
 10
631.3832767334409
 20
363.8180883376041
 30
0.0
 40
3.2
  0
CIRCLE
  5
1009
330
2
100
AcDbEntity
  8
0
100
AcDbCircle
 10
631.3832767334409
 20
462.8130377037211
 30
0.0
 40
3.2
  0
CIRCLE
  5
100A
330
2
100
AcDbEntity
  8
HOJO
100
AcDbCircle
 10
631.3832767334409
 20
462.8130377037211
 30
0.0
 40
4.0
  0
ARC
  5
100B
330
2
100
AcDbEntity
  8
0
100
AcDbCircle
 10
630.8807514164985
 20
463.3155630206617
 30
0.0
 40
10.0
100
AcDbArc
 50
90.0
 51
180.0
  0
LINE
  5
100C
330
2
100
AcDbEntity
  8
0
100
AcDbLine
 10
620.8807514164994
 20
459.315563020658
 30
0.0
 11
620.8807514164984
 21
463.3155630206617
 31
0.0
  0
ARC
  5
100D
330
2
100
AcDbEntity
  8
0
100
AcDbCircle
 10
628.8807514164993
 20
459.315563020658
 30
0.0
 40
8.0
100
AcDbArc
 50
180.0
 51
190.2338896031572
  0
LINE
  5
100E
330
2
100
AcDbEntity
  8
0
100
AcDbLine
 10
630.8807514164985
 20
473.3155630206617
 30
0.0
 11
634.880751416503
 21
473.3155630206617
 31
0.0
  0
ARC
  5
100F
330
2
100
AcDbEntity
  8
0
100
AcDbCircle
 10
634.880751416503
 20
465.3155630206617
 30
0.0
 40
8.0
100
AcDbArc
 50
79.76611039689619
 51
90.0
  0
LINE
  5
1010
330
2
100
AcDbEntity
  8
0
100
AcDbLine
 10
814.2907514165001
 20
452.8155630206617
 30
0.0
 11
814.2907514165001
 21
373.8155630206617
 31
0.0
  0
LINE
  5
1011
330
2
100
AcDbEntity
  8
0
100
AcDbLine
 10
826.2907514165002
 20
454.8155630206617
 30
0.0
 11
826.2907514165002
 21
371.8155630206617
 31
0.0
  0
LINE
  5
1012
330
2
100
AcDbEntity
  8
0
100
AcDbLine
 10
784.3807514165021
 20
378.3155630206617
 30
0.0
 11
784.3807514164975
 21
448.3155630206617
 31
0.0
  0
LINE
  5
1013
330
2
100
AcDbEntity
  8
0
100
AcDbLine
 10
740.8807514164993
 20
363.3155630206617
 30
0.0
 11
740.8807514164993
 21
463.3155630206617
 31
0.0
  0
ARC
  5
1014
330
2
100
AcDbEntity
  8
0
100
AcDbCircle
 10
776.3807514165021
 20
378.3155630206617
 30
0.0
 40
8.0
100
AcDbArc
 50
270.0
 51
0.0
  0
LINE
  5
1015
330
2
100
AcDbEntity
  8
0
100
AcDbLine
 10
776.3807514165021
 20
370.3155630206617
 30
0.0
 11
748.8181425311515
 21
370.3155630206617
 31
0.0
  0
ARC
  5
1016
330
2
100
AcDbEntity
  8
0
100
AcDbCircle
 10
730.8807514164993
 20
363.3155630206617
 30
0.0
 40
10.0
100
AcDbArc
 50
270.0
 51
0.0
  0
CIRCLE
  5
1017
330
2
100
AcDbEntity
  8
HOJO
100
AcDbCircle
 10
730.3782260995578
 20
363.8180883376041
 30
0.0
 40
4.0
  0
LINE
  5
1018
330
2
100
AcDbEntity
  8
0
100
AcDbLine
 10
726.8807514164957
 20
353.3155630206617
 30
0.0
 11
730.8807514164993
 21
353.3155630206617
 31
0.0
  0
ARC
  5
1019
330
2
100
AcDbEntity
  8
0
100
AcDbCircle
 10
726.8807514164957
 20
361.3155630206599
 30
0.0
 40
8.0
100
AcDbArc
 50
259.7661103968961
 51
270.0
  0
CIRCLE
  5
101A
330
2
100
AcDbEntity
  8
0
100
AcDbCircle
 10
730.3782260995578
 20
363.8180883376041
 30
0.0
 40
3.2
  0
ARC
  5
101B
330
2
100
AcDbEntity
  8
0
100
AcDbCircle
 10
816.2907514165
 20
374.3155630206617
 30
0.0
 40
2.0
100
AcDbArc
 50
180.0
 51
270.0
  0
LINE
  5
101C
330
2
100
AcDbEntity
  8
0
100
AcDbLine
 10
826.2907514165002
 20
372.3155630206617
 30
0.0
 11
816.2907514165
 21
372.3155630206617
 31
0.0
  0
CIRCLE
  5
101D
330
2
100
AcDbEntity
  8
0
100
AcDbCircle
 10
730.3782260995578
 20
462.8130377037211
 30
0.0
 40
3.2
  0
CIRCLE
  5
101E
330
2
100
AcDbEntity
  8
HOJO
100
AcDbCircle
 10
730.3782260995578
 20
462.8130377037211
 30
0.0
 40
4.0
  0
ARC
  5
101F
330
2
100
AcDbEntity
  8
0
100
AcDbCircle
 10
730.8807514164993
 20
463.3155630206617
 30
0.0
 40
10.0
100
AcDbArc
 50
0.0
 51
90.0
  0
ARC
  5
1020
330
2
100
AcDbEntity
  8
0
100
AcDbCircle
 10
748.8529521721105
 20
464.3155630206617
 30
0.0
 40
8.0
100
AcDbArc
 50
183.1847385366747
 51
270.0
  0
LINE
  5
1021
330
2
100
AcDbEntity
  8
0
100
AcDbLine
 10
776.3807514164975
 20
456.3155630206617
 30
0.0
 11
748.8529521721105
 21
456.3155630206617
 31
0.0
  0
ARC
  5
1022
330
2
100
AcDbEntity
  8
0
100
AcDbCircle
 10
776.3807514164975
 20
448.3155630206617
 30
0.0
 40
8.0
100
AcDbArc
 50
0.0
 51
90.0
  0
LINE
  5
1023
330
2
100
AcDbEntity
  8
0
100
AcDbLine
 10
726.8807514164966
 20
473.3155630206617
 30
0.0
 11
730.8807514164993
 21
473.3155630206617
 31
0.0
  0
ARC
  5
1024
330
2
100
AcDbEntity
  8
0
100
AcDbCircle
 10
726.8807514164966
 20
465.3155630206617
 30
0.0
 40
8.0
100
AcDbArc
 50
90.0
 51
100.2338896031037
  0
ARC
  5
1025
330
2
100
AcDbEntity
  8
0
100
AcDbCircle
 10
816.2907514165
 20
452.3155630206617
 30
0.0
 40
2.0
100
AcDbArc
 50
90.0
 51
180.0
  0
LINE
  5
1026
330
2
100
AcDbEntity
  8
0
100
AcDbLine
 10
816.2907514165
 20
454.3155630206617
 30
0.0
 11
826.2907514165002
 21
454.3155630206617
 31
0.0
  0
LINE
  5
1027
330
2
100
AcDbEntity
  8
CENTER
100
AcDbLine
 10
324.726752363352
 20
413.3155630206599
 30
0.0
 11
56.31675236336992
 21
413.3155630206599
 31
0.0
  0
LINE
  5
1028
330
2
100
AcDbEntity
  8
0
100
AcDbLine
 10
151.2267523633683
 20
448.3155630206598
 30
0.0
 11
151.2267523633683
 21
378.3155630206599
 31
0.0
  0
LINE
  5
1029
330
2
100
AcDbEntity
  8
0
100
AcDbLine
 10
109.3167523633694
 20
371.8155630206599
 30
0.0
 11
109.3167523633694
 21
454.8155630206599
 31
0.0
  0
LINE
  5
102A
330
2
100
AcDbEntity
  8
0
100
AcDbLine
 10
121.3167523633694
 20
373.8155630206599
 30
0.0
 11
121.3167523633694
 21
452.8155630206598
 31
0.0
  0
LINE
  5
102B
330
2
100
AcDbEntity
  8
0
100
AcDbLine
 10
109.3167523633694
 20
454.3155630206599
 30
0.0
 11
119.3167523633694
 21
454.3155630206599
 31
0.0
  0
ARC
  5
102C
330
2
100
AcDbEntity
  8
0
100
AcDbCircle
 10
119.3167523633694
 20
452.3155630206598
 30
0.0
 40
2.0
100
AcDbArc
 50
0.0
 51
90.0
  0
LINE
  5
102D
330
2
100
AcDbEntity
  8
0
100
AcDbLine
 10
119.3167523633694
 20
372.3155630206599
 30
0.0
 11
109.3167523633694
 21
372.3155630206599
 31
0.0
  0
ARC
  5
102E
330
2
100
AcDbEntity
  8
0
100
AcDbCircle
 10
119.3167523633694
 20
374.3155630206599
 30
0.0
 40
2.0
100
AcDbArc
 50
270.0
 51
0.0
  0
LINE
  5
102F
330
2
100
AcDbEntity
  8
0
100
AcDbLine
 10
718.9493738668873
 20
621.7798769439085
 30
0.0
 11
642.8121289661151
 21
621.7798769439085
 31
0.0
  0
LINE
  5
1030
330
2
100
AcDbEntity
  8
0
100
AcDbLine
 10
621.5483568024977
 20
640.7798769439066
 30
0.0
 11
740.2087825966166
 21
640.7798769439084
 31
0.0
  0
LINE
  5
1031
330
2
100
AcDbEntity
  8
0
100
AcDbLine
 10
625.8807514165011
 20
635.7798769439066
 30
0.0
 11
735.8807514165012
 21
635.7798769439066
 31
0.0
  0
LINE
  5
1032
330
2
100
AcDbEntity
  8
0
100
AcDbLine
 10
621.5483568024977
 20
640.7798769439066
 30
0.0
 11
620.8807514165012
 21
717.2798769444504
 31
0.0
  0
LINE
  5
1033
330
2
100
AcDbEntity
  8
0
100
AcDbLine
 10
625.8807514165011
 20
635.7798769439066
 30
0.0
 11
625.8807514165011
 21
640.7798769439066
 31
0.0
  0
LINE
  5
1034
330
2
100
AcDbEntity
  8
0
100
AcDbLine
 10
826.290751416502
 20
726.7798769390753
 30
0.0
 11
826.2907514165028
 21
644.7798769390754
 31
0.0
  0
LINE
  5
1035
330
2
100
AcDbEntity
  8
0
100
AcDbLine
 10
741.7132031480898
 20
642.7798769439085
 30
0.0
 11
782.2977700157166
 21
642.7798769439066
 31
0.0
  0
LINE
  5
1036
330
2
100
AcDbEntity
  8
0
100
AcDbLine
 10
735.8807514165012
 20
635.7798769439084
 30
0.0
 11
735.8807514165012
 21
640.7798769439084
 31
0.0
  0
LINE
  5
1038
330
2
100
AcDbEntity
  8
0
100
AcDbLine
 10
826.2907514165028
 20
644.7798769390754
 30
0.0
 11
816.2390651582738
 21
644.7798769390754
 31
0.0
  0
LINE
  5
1039
330
2
100
AcDbEntity
  8
0
100
AcDbLine
 10
816.2390651584148
 20
726.7798769390753
 30
0.0
 11
826.290751416502
 21
726.7798769390753
 31
0.0
  0
ARC
  5
103A
330
2
100
AcDbEntity
  8
0
100
AcDbCircle
 10
542.2807704485815
 20
443.6808805372709
 30
0.0
 40
80.0
100
AcDbArc
 50
354.7203967175517
 51
10.23388960315723
  0
ARC
  5
103B
330
2
100
AcDbEntity
  8
0
100
AcDbCircle
 10
542.2807704485815
 20
382.9502455040544
 30
0.0
 40
80.0
100
AcDbArc
 50
349.7661103968427
 51
5.279603282448266
  0
ARC
  5
103C
330
2
100
AcDbEntity
  8
0
100
AcDbCircle
 10
650.5154338998948
 20
274.7155820527438
 30
0.0
 40
80.0
100
AcDbArc
 50
84.72039671760322
 51
100.2338896031037
  0
ARC
  5
103D
330
2
100
AcDbEntity
  8
0
100
AcDbCircle
 10
711.2460689331012
 20
274.7155820527438
 30
0.0
 40
80.0
100
AcDbArc
 50
79.76611039689619
 51
95.27960328239677
  0
ARC
  5
103E
330
2
100
AcDbEntity
  8
0
100
AcDbCircle
 10
711.2460689331076
 20
551.9155439885778
 30
0.0
 40
80.0
100
AcDbArc
 50
264.7203967176031
 51
280.2338896031038
  0
ARC
  5
103F
330
2
100
AcDbEntity
  8
0
100
AcDbCircle
 10
650.515433899892
 20
551.9155439885778
 30
0.0
 40
80.0
100
AcDbArc
 50
259.7661103968961
 51
275.2796032823967
  0
ARC
  5
1040
330
2
100
AcDbEntity
  8
0
100
AcDbCircle
 10
718.9493738668873
 20
623.7798769439066
 30
0.0
 40
2.0
100
AcDbArc
 50
270.0
 51
357.9999999999963
  0
ARC
  5
1041
330
2
100
AcDbEntity
  8
0
100
AcDbCircle
 10
642.8121289661151
 20
623.7798769439066
 30
0.0
 40
2.0
100
AcDbArc
 50
182.0000000000036
 51
270.0
  0
LINE
  5
1042
330
2
100
AcDbEntity
  8
0
100
AcDbLine
 10
640.4592647480415
 20
633.8496759373117
 30
0.0
 11
640.8133473120772
 21
623.7100779505015
 31
0.0
  0
ARC
  5
1043
330
2
100
AcDbEntity
  8
0
100
AcDbCircle
 10
638.4604830940036
 20
633.7798769439066
 30
0.0
 40
2.0
100
AcDbArc
 50
2.000000000003654
 51
90.0
  0
LINE
  5
1044
330
2
100
AcDbEntity
  8
0
100
AcDbLine
 10
721.3022380849618
 20
633.8496759373117
 30
0.0
 11
720.9481555209252
 21
623.7100779505015
 31
0.0
  0
ARC
  5
1045
330
2
100
AcDbEntity
  8
0
100
AcDbCircle
 10
723.3010197389996
 20
633.7798769439066
 30
0.0
 40
2.0
100
AcDbArc
 50
90.0
 51
177.9999999999963
  0
LINE
  5
1046
330
2
100
AcDbEntity
  8
0
100
AcDbLine
 10
673.7389806667354
 20
361.3155630206489
 30
0.0
 11
676.6189819080675
 21
361.3155630206489
 31
0.0
  0
LINE
  5
1047
330
2
100
AcDbEntity
  8
0
100
AcDbLine
 10
677.7389806667408
 20
369.3155630206599
 30
0.0
 11
673.7389806667354
 21
361.3155630206489
 31
0.0
  0
ARC
  5
1048
330
2
100
AcDbEntity
  8
0
100
AcDbCircle
 10
684.3789079067512
 20
366.5955630206569
 30
0.0
 40
2.720000000003957
100
AcDbArc
 50
307.5189678668324
 51
90.0
  0
LINE
  5
1049
330
2
100
AcDbEntity
  8
0
100
AcDbLine
 10
686.0354532864105
 20
364.4381902190413
 30
0.0
 11
688.0225221662652
 21
361.3155630206489
 31
0.0
  0
LINE
  5
104A
330
2
100
AcDbEntity
  8
0
100
AcDbLine
 10
685.1425209249339
 20
361.3155630206489
 30
0.0
 11
688.0225221662652
 21
361.3155630206489
 31
0.0
  0
LINE
  5
104B
330
2
100
AcDbEntity
  8
0
100
AcDbLine
 10
679.2589806667431
 20
361.3155630206489
 30
0.0
 11
681.6589079067464
 21
361.3155630206489
 31
0.0
  0
LINE
  5
104C
330
2
100
AcDbEntity
  8
0
100
AcDbLine
 10
677.2189819080679
 20
362.5155630206515
 30
0.0
 11
676.6189819080675
 21
361.3155630206489
 31
0.0
  0
LINE
  5
104D
330
2
100
AcDbEntity
  8
0
100
AcDbLine
 10
677.2189819080679
 20
362.5155630206515
 30
0.0
 11
679.2589806667431
 21
362.5155630206497
 31
0.0
  0
LINE
  5
104E
330
2
100
AcDbEntity
  8
0
100
AcDbLine
 10
679.2589806667431
 20
362.5155630206497
 30
0.0
 11
679.2589806667431
 21
361.3155630206489
 31
0.0
  0
LINE
  5
104F
330
2
100
AcDbEntity
  8
0
100
AcDbLine
 10
678.4989819080704
 20
365.0755630206528
 30
0.0
 11
679.2589806667431
 21
365.0755630206546
 31
0.0
  0
LINE
  5
1050
330
2
100
AcDbEntity
  8
0
100
AcDbLine
 10
679.2589806667431
 20
366.5955605380001
 30
0.0
 11
679.2589806667431
 21
365.0755630206546
 31
0.0
  0
LINE
  5
1051
330
2
100
AcDbEntity
  8
0
100
AcDbLine
 10
679.2589806667431
 20
366.5955605380001
 30
0.0
 11
678.4989819080704
 21
365.0755630206528
 31
0.0
  0
LINE
  5
1052
330
2
100
AcDbEntity
  8
0
100
AcDbLine
 10
681.9989806667465
 20
366.2555630206549
 30
0.0
 11
685.1425209249339
 21
361.3155630206489
 31
0.0
  0
LINE
  5
1053
330
2
100
AcDbEntity
  8
0
100
AcDbLine
 10
681.6589079067464
 20
366.5955630206569
 30
0.0
 11
681.6589079067464
 21
361.3155630206489
 31
0.0
  0
LINE
  5
1054
330
2
100
AcDbEntity
  8
0
100
AcDbLine
 10
681.6589079067464
 20
366.5955630206569
 30
0.0
 11
684.2089806667493
 21
366.5955630206569
 31
0.0
  0
LINE
  5
1055
330
2
100
AcDbEntity
  8
0
100
AcDbLine
 10
681.9989806667465
 20
366.2555630206549
 30
0.0
 11
684.2089806667511
 21
366.2555630206549
 31
0.0
  0
ARC
  5
1056
330
2
100
AcDbEntity
  8
0
100
AcDbCircle
 10
684.2089806667511
 20
366.4255630206568
 30
0.0
 40
0.1700000000002474
100
AcDbArc
 50
270.0
 51
90.0
  0
LINE
  5
1057
330
2
100
AcDbEntity
  8
0
100
AcDbLine
 10
677.7389806667408
 20
369.3155630206599
 30
0.0
 11
684.3789079067512
 21
369.3155630206599
 31
0.0
  0
ARC
  5
1058
330
2
100
AcDbEntity
  8
0
100
AcDbCircle
 10
809.1581078462644
 20
721.7798769390753
 30
0.0
 40
5.0
100
AcDbArc
 50
270.0
 51
358.499999999906
  0
ARC
  5
1059
330
2
100
AcDbEntity
  8
0
100
AcDbCircle
 10
778.1928577777391
 20
686.7798769390754
 30
0.0
 40
1.0
100
AcDbArc
 50
181.5000000001981
 51
270.0
  0
LINE
  5
105A
330
2
100
AcDbEntity
  8
0
100
AcDbLine
 10
787.6077642141592
 20
683.2798769390754
 30
0.0
 11
799.1088890781996
 21
683.2798769390754
 31
0.0
  0
LINE
  5
105B
330
2
100
AcDbEntity
  8
0
100
AcDbLine
 10
787.6077642145103
 20
688.2798769390753
 30
0.0
 11
799.108889078285
 21
688.2798769390753
 31
0.0
  0
LINE
  5
105C
330
2
100
AcDbEntity
  8
0
100
AcDbLine
 10
814.2397505084639
 20
724.8322308356962
 30
0.0
 11
813.2171286321375
 21
685.7798769390754
 31
0.0
  0
ARC
  5
105D
330
2
100
AcDbEntity
  8
0
100
AcDbCircle
 10
816.2390651582738
 20
646.7798769390753
 30
0.0
 40
2.0
100
AcDbArc
 50
181.4999999999897
 51
270.0
  0
ARC
  5
105E
330
2
100
AcDbEntity
  8
0
100
AcDbCircle
 10
816.2390651584148
 20
724.7798769390754
 30
0.0
 40
2.0
100
AcDbArc
 50
90.0
 51
178.499999999906
  0
LINE
  5
105F
330
2
100
AcDbEntity
  8
0
100
AcDbLine
 10
813.2171286320829
 20
685.7798769390754
 30
0.0
 11
814.2397505083229
 21
646.72752304246
 31
0.0
  0
ARC
  5
1060
330
2
100
AcDbEntity
  8
0
100
AcDbCircle
 10
809.1581078461297
 20
649.7798769390754
 30
0.0
 40
5.0
100
AcDbArc
 50
1.499999999989693
 51
90.0
  0
LINE
  5
1061
330
2
100
AcDbEntity
  8
0
100
AcDbLine
 10
776.3938443771451
 20
717.2798769444396
 30
0.0
 11
777.1932004527646
 21
686.753699990764
 31
0.0
  0
LINE
  5
1062
330
2
100
AcDbEntity
  8
0
100
AcDbLine
 10
805.7132220292663
 20
716.7798769390754
 30
0.0
 11
809.1581078462644
 21
716.7798769390754
 31
0.0
  0
LINE
  5
1063
330
2
100
AcDbEntity
  8
0
100
AcDbLine
 10
805.7132220292663
 20
654.7798769390754
 30
0.0
 11
809.1581078461297
 21
654.7798769390754
 31
0.0
  0
LINE
  5
1064
330
2
100
AcDbEntity
  8
0
100
AcDbLine
 10
802.7142500543398
 20
713.8584077840002
 30
0.0
 11
801.9789878479226
 21
685.7798769390754
 31
0.0
  0
ARC
  5
1065
330
2
100
AcDbEntity
  8
0
100
AcDbCircle
 10
799.108889078285
 20
691.2798769390754
 30
0.0
 40
3.0
100
AcDbArc
 50
270.0
 51
358.5000000001145
  0
ARC
  5
1066
330
2
100
AcDbEntity
  8
0
100
AcDbCircle
 10
805.7132220292663
 20
713.7798769390753
 30
0.0
 40
3.0
100
AcDbArc
 50
90.0
 51
178.5000000001145
  0
ARC
  5
1067
330
2
100
AcDbEntity
  8
0
100
AcDbCircle
 10
800.8398248568612
 20
717.2798769390754
 30
0.0
 40
3.0
100
AcDbArc
 50
270.0
 51
324.3146652873072
  0
ARC
  5
1068
330
2
100
AcDbEntity
  8
0
100
AcDbCircle
 10
797.7288623179304
 20
714.2798769390753
 30
0.0
 40
5.0
100
AcDbArc
 50
270.0
 51
356.416678301528
  0
LINE
  5
1069
330
2
100
AcDbEntity
  8
0
100
AcDbLine
 10
802.7142500543398
 20
657.7013460941486
 30
0.0
 11
801.9789878478206
 21
685.7798769390754
 31
0.0
  0
ARC
  5
106A
330
2
100
AcDbEntity
  8
0
100
AcDbCircle
 10
805.7132220292663
 20
657.7798769390754
 30
0.0
 40
3.0
100
AcDbArc
 50
181.5000000000939
 51
270.0
  0
ARC
  5
106B
330
2
100
AcDbEntity
  8
0
100
AcDbCircle
 10
800.8398248568621
 20
654.2798769390754
 30
0.0
 40
3.0
100
AcDbArc
 50
35.6853347126928
 51
90.0
  0
ARC
  5
106C
330
2
100
AcDbEntity
  8
0
100
AcDbCircle
 10
797.7288623179304
 20
657.2798769390754
 30
0.0
 40
5.0
100
AcDbArc
 50
3.583321698471985
 51
90.0
  0
ARC
  5
106D
330
2
100
AcDbEntity
  8
0
100
AcDbCircle
 10
799.1088890781996
 20
680.2798769390753
 30
0.0
 40
3.0
100
AcDbArc
 50
1.500000000093941
 51
90.0
  0
LINE
  5
106E
330
2
100
AcDbEntity
  8
0
100
AcDbLine
 10
797.7288623179304
 20
709.2798769390753
 30
0.0
 11
789.4071224118727
 21
709.2798769390753
 31
0.0
  0
LINE
  5
106F
330
2
100
AcDbEntity
  8
0
100
AcDbLine
 10
800.8398248568612
 20
714.2798769390753
 30
0.0
 11
787.3808656516569
 21
714.2798769390753
 31
0.0
  0
LINE
  5
1070
330
2
100
AcDbEntity
  8
0
100
AcDbLine
 10
797.7288623179304
 20
662.2798769390754
 30
0.0
 11
789.4071224117526
 21
662.2798769390754
 31
0.0
  0
LINE
  5
1071
330
2
100
AcDbEntity
  8
0
100
AcDbLine
 10
800.8398248568621
 20
657.2798769390754
 30
0.0
 11
787.3808656516524
 21
657.2798769390754
 31
0.0
  0
LINE
  5
1072
330
2
100
AcDbEntity
  8
0
100
AcDbLine
 10
778.1928577777391
 20
685.7798769390754
 30
0.0
 11
784.3807514165011
 21
685.7798769390754
 31
0.0
  0
LINE
  5
1073
330
2
100
AcDbEntity
  8
0
100
AcDbLine
 10
787.3807514165003
 20
410.8155630206598
 30
0.0
 11
799.8431232595778
 21
410.8155630206598
 31
0.0
  0
LINE
  5
1074
330
2
100
AcDbEntity
  8
0
100
AcDbLine
 10
787.3807514164994
 20
415.8155630206598
 30
0.0
 11
799.8431232595933
 21
415.8155630206598
 31
0.0
  0
ARC
  5
1075
330
2
100
AcDbEntity
  8
0
100
AcDbCircle
 10
799.8431232595933
 20
418.8155630206598
 30
0.0
 40
3.0
100
AcDbArc
 50
270.0
 51
359.9999999998958
  0
LINE
  5
1076
330
2
100
AcDbEntity
  8
0
100
AcDbLine
 10
789.3807514165021
 20
389.8155630206599
 30
0.0
 11
797.8587635482101
 21
389.8155630206599
 31
0.0
  0
LINE
  5
1077
330
2
100
AcDbEntity
  8
0
100
AcDbLine
 10
787.3807514165021
 20
384.8155630206599
 30
0.0
 11
800.969726087141
 21
384.8155630206599
 31
0.0
  0
LINE
  5
1078
330
2
100
AcDbEntity
  8
0
100
AcDbLine
 10
789.3807514164976
 20
436.8155630206599
 30
0.0
 11
797.8587635482875
 21
436.8155630206599
 31
0.0
  0
LINE
  5
1079
330
2
100
AcDbEntity
  8
0
100
AcDbLine
 10
787.3807514164975
 20
441.8155630206599
 30
0.0
 11
800.9697260872192
 21
441.8155630206599
 31
0.0
  0
ARC
  5
107A
330
2
100
AcDbEntity
  8
0
100
AcDbCircle
 10
805.8431232596232
 20
441.3155630206599
 30
0.0
 40
3.0
100
AcDbArc
 50
90.0
 51
176.416678301528
  0
ARC
  5
107B
330
2
100
AcDbEntity
  8
0
100
AcDbCircle
 10
800.9697260872192
 20
444.8155630206598
 30
0.0
 40
3.0
100
AcDbArc
 50
270.0
 51
324.3146652873072
  0
ARC
  5
107C
330
2
100
AcDbEntity
  8
0
100
AcDbCircle
 10
797.8587635482875
 20
441.8155630206599
 30
0.0
 40
5.0
100
AcDbArc
 50
270.0
 51
356.416678301528
  0
LINE
  5
107D
330
2
100
AcDbEntity
  8
0
100
AcDbLine
 10
802.8431232596233
 20
441.3155630206635
 30
0.0
 11
802.843123259546
 21
385.3155630206635
 31
0.0
  0
ARC
  5
107E
330
2
100
AcDbEntity
  8
0
100
AcDbCircle
 10
805.8431232595459
 20
385.3155630206599
 30
0.0
 40
3.0
100
AcDbArc
 50
179.9999999998957
 51
270.0
  0
ARC
  5
107F
330
2
100
AcDbEntity
  8
0
100
AcDbCircle
 10
800.969726087141
 20
381.8155630206599
 30
0.0
 40
3.0
100
AcDbArc
 50
35.6853347126928
 51
90.0
  0
ARC
  5
1080
330
2
100
AcDbEntity
  8
0
100
AcDbCircle
 10
797.8587635482101
 20
384.8155630206599
 30
0.0
 40
5.0
100
AcDbArc
 50
3.583321698471985
 51
90.0
  0
ARC
  5
1081
330
2
100
AcDbEntity
  8
0
100
AcDbCircle
 10
799.8431232595778
 20
407.8155630206599
 30
0.0
 40
3.0
100
AcDbArc
 50
359.9999999998958
 51
90.0
  0
ARC
  5
1082
330
2
100
AcDbEntity
  8
0
100
AcDbCircle
 10
809.2907514164346
 20
377.3155630206598
 30
0.0
 40
5.0
100
AcDbArc
 50
0.0
 51
90.0
  0
ARC
  5
1083
330
2
100
AcDbEntity
  8
0
100
AcDbCircle
 10
809.2907514164346
 20
449.3155630206599
 30
0.0
 40
5.0
100
AcDbArc
 50
270.0
 51
0.0
  0
LINE
  5
1084
330
2
100
AcDbEntity
  8
0
100
AcDbLine
 10
805.8431232595459
 20
382.3155630206599
 30
0.0
 11
809.2907514164346
 21
382.3155630206599
 31
0.0
  0
LINE
  5
1085
330
2
100
AcDbEntity
  8
0
100
AcDbLine
 10
805.8431232596232
 20
444.3155630206598
 30
0.0
 11
809.2907514164346
 21
444.3155630206598
 31
0.0
  0
ARC
  5
1086
330
2
100
AcDbEntity
  8
0
100
AcDbCircle
 10
789.3807514164976
 20
441.8155630206599
 30
0.0
 40
5.0
100
AcDbArc
 50
180.0
 51
270.0
  0
ARC
  5
1087
330
2
100
AcDbEntity
  8
0
100
AcDbCircle
 10
789.3807514165021
 20
384.8155630206599
 30
0.0
 40
5.0
100
AcDbArc
 50
90.0
 51
180.0
  0
ARC
  5
1088
330
2
100
AcDbEntity
  8
0
100
AcDbCircle
 10
787.3807514165021
 20
381.8155630206599
 30
0.0
 40
3.0
100
AcDbArc
 50
90.0
 51
180.0
  0
ARC
  5
1089
330
2
100
AcDbEntity
  8
0
100
AcDbCircle
 10
787.3807514165003
 20
407.8155630206599
 30
0.0
 40
3.0
100
AcDbArc
 50
90.0
 51
180.0
  0
ARC
  5
108A
330
2
100
AcDbEntity
  8
0
100
AcDbCircle
 10
787.3807514164994
 20
418.8155630206598
 30
0.0
 40
3.0
100
AcDbArc
 50
180.0
 51
270.0
  0
ARC
  5
108B
330
2
100
AcDbEntity
  8
0
100
AcDbCircle
 10
787.3807514164975
 20
444.8155630206598
 30
0.0
 40
3.0
100
AcDbArc
 50
180.0
 51
270.0
  0
ARC
  5
108C
330
2
100
AcDbEntity
  8
0
100
AcDbCircle
 10
148.2267523633684
 20
407.8155630206617
 30
0.0
 40
3.0
100
AcDbArc
 50
0.0
 51
90.0
  0
ARC
  5
108D
330
2
100
AcDbEntity
  8
0
100
AcDbCircle
 10
135.7643805202744
 20
407.8155630206617
 30
0.0
 40
3.0
100
AcDbArc
 50
90.0
 51
179.9999999998957
  0
LINE
  5
108E
330
2
100
AcDbEntity
  8
0
100
AcDbLine
 10
148.2267523633684
 20
415.8155630206617
 30
0.0
 11
135.7643805202899
 21
415.8155630206617
 31
0.0
  0
ARC
  5
108F
330
2
100
AcDbEntity
  8
0
100
AcDbCircle
 10
148.2267523633684
 20
418.8155630206617
 30
0.0
 40
3.0
100
AcDbArc
 50
270.0
 51
0.0
  0
ARC
  5
1090
330
2
100
AcDbEntity
  8
0
100
AcDbCircle
 10
135.7643805202899
 20
418.8155630206617
 30
0.0
 40
3.0
100
AcDbArc
 50
179.9999999998957
 51
270.0
  0
LINE
  5
1091
330
2
100
AcDbEntity
  8
0
100
AcDbLine
 10
148.2267523633684
 20
410.8155630206617
 30
0.0
 11
135.7643805202744
 21
410.8155630206617
 31
0.0
  0
LINE
  5
1092
330
2
100
AcDbEntity
  8
0
100
AcDbLine
 10
129.7643805202444
 20
382.3155630206617
 30
0.0
 11
126.3167523634331
 21
382.3155630206617
 31
0.0
  0
ARC
  5
1093
330
2
100
AcDbEntity
  8
0
100
AcDbCircle
 10
126.3167523634331
 20
377.3155630206617
 30
0.0
 40
5.0
100
AcDbArc
 50
90.0
 51
180.0
  0
LINE
  5
1094
330
2
100
AcDbEntity
  8
0
100
AcDbLine
 10
148.2267523633702
 20
384.8155630206617
 30
0.0
 11
134.6377776926485
 21
384.8155630206617
 31
0.0
  0
LINE
  5
1095
330
2
100
AcDbEntity
  8
0
100
AcDbLine
 10
146.2267523633702
 20
389.8155630206617
 30
0.0
 11
137.7487402315803
 21
389.8155630206617
 31
0.0
  0
ARC
  5
1096
330
2
100
AcDbEntity
  8
0
100
AcDbCircle
 10
146.2267523633702
 20
384.8155630206617
 30
0.0
 40
5.0
100
AcDbArc
 50
0.0
 51
90.0
  0
ARC
  5
1097
330
2
100
AcDbEntity
  8
0
100
AcDbCircle
 10
148.2267523633702
 20
381.8155630206617
 30
0.0
 40
3.0
100
AcDbArc
 50
0.0
 51
90.0
  0
ARC
  5
1098
330
2
100
AcDbEntity
  8
0
100
AcDbCircle
 10
134.6377776926485
 20
381.8155630206617
 30
0.0
 40
3.0
100
AcDbArc
 50
90.0
 51
144.3146652873071
  0
ARC
  5
1099
330
2
100
AcDbEntity
  8
0
100
AcDbCircle
 10
129.7643805202444
 20
385.3155630206617
 30
0.0
 40
3.0
100
AcDbArc
 50
270.0
 51
356.416678301528
  0
ARC
  5
109A
330
2
100
AcDbEntity
  8
0
100
AcDbCircle
 10
137.7487402315803
 20
384.8155630206617
 30
0.0
 40
5.0
100
AcDbArc
 50
90.0
 51
176.416678301528
  0
LINE
  5
109B
330
2
100
AcDbEntity
  8
0
100
AcDbLine
 10
132.7643805202444
 20
385.315563020658
 30
0.0
 11
132.7643805203217
 21
441.315563020658
 31
0.0
  0
LINE
  5
109C
330
2
100
AcDbEntity
  8
0
100
AcDbLine
 10
146.2267523633665
 20
436.8155630206617
 30
0.0
 11
137.7487402316576
 21
436.8155630206617
 31
0.0
  0
ARC
  5
109D
330
2
100
AcDbEntity
  8
0
100
AcDbCircle
 10
146.2267523633665
 20
441.8155630206617
 30
0.0
 40
5.0
100
AcDbArc
 50
270.0
 51
0.0
  0
ARC
  5
109E
330
2
100
AcDbEntity
  8
0
100
AcDbCircle
 10
137.7487402316576
 20
441.8155630206617
 30
0.0
 40
5.0
100
AcDbArc
 50
183.583321698472
 51
270.0
  0
LINE
  5
109F
330
2
100
AcDbEntity
  8
0
100
AcDbLine
 10
148.2267523633665
 20
441.8155630206617
 30
0.0
 11
134.6377776927267
 21
441.8155630206617
 31
0.0
  0
ARC
  5
10A0
330
2
100
AcDbEntity
  8
0
100
AcDbCircle
 10
148.2267523633665
 20
444.8155630206617
 30
0.0
 40
3.0
100
AcDbArc
 50
270.0
 51
0.0
  0
ARC
  5
10A1
330
2
100
AcDbEntity
  8
0
100
AcDbCircle
 10
134.6377776927267
 20
444.8155630206617
 30
0.0
 40
3.0
100
AcDbArc
 50
215.6853347126927
 51
270.0
  0
ARC
  5
10A2
330
2
100
AcDbEntity
  8
0
100
AcDbCircle
 10
129.7643805203217
 20
441.3155630206617
 30
0.0
 40
3.0
100
AcDbArc
 50
359.9999999998958
 51
90.0
  0
LINE
  5
10A3
330
2
100
AcDbEntity
  8
0
100
AcDbLine
 10
129.7643805203217
 20
444.3155630206617
 30
0.0
 11
126.3167523634331
 21
444.3155630206617
 31
0.0
  0
ARC
  5
10A4
330
2
100
AcDbEntity
  8
0
100
AcDbCircle
 10
126.3167523634331
 20
449.3155630206617
 30
0.0
 40
5.0
100
AcDbArc
 50
180.0
 51
270.0
  0
LINE
  5
10A5
330
2
100
AcDbEntity
  8
0
100
AcDbLine
 10
630.8807514164993
 20
716.7798769390754
 30
0.0
 11
630.8807514164985
 21
642.2798769390754
 31
0.0
  0
LINE
  5
10A6
330
2
100
AcDbEntity
  8
0
100
AcDbLine
 10
634.8807514165002
 20
716.7798769390754
 30
0.0
 11
634.8807514164994
 21
642.2798769390754
 31
0.0
  0
LINE
  5
10A7
330
2
100
AcDbEntity
  8
0
100
AcDbLine
 10
657.8767229948227
 20
716.7798769390754
 30
0.0
 11
657.8767229948218
 21
642.2798769390754
 31
0.0
  0
LINE
  5
10A8
330
2
100
AcDbEntity
  8
0
100
AcDbLine
 10
730.880751416503
 20
716.7798769390754
 30
0.0
 11
730.8807514165021
 21
642.2798769390754
 31
0.0
  0
LINE
  5
10A9
330
2
100
AcDbEntity
  8
0
100
AcDbLine
 10
726.880751416503
 20
716.7798769390754
 30
0.0
 11
726.880751416503
 21
642.2798769390754
 31
0.0
  0
LINE
  5
10AA
330
2
100
AcDbEntity
  8
0
100
AcDbLine
 10
703.8847798381795
 20
716.7798769390754
 30
0.0
 11
703.8847798381795
 21
642.2798769390754
 31
0.0
  0
LINE
  5
10AB
330
2
100
AcDbEntity
  8
0
100
AcDbLine
 10
813.2171286321101
 20
685.779876938033
 30
0.0
 11
826.2907514165028
 21
685.7798769390754
 31
0.0
  0
LINE
  5
10AC
330
2
100
AcDbEntity
  8
0
100
AcDbLine
 10
119.3167523633694
 20
371.8155630206599
 30
0.0
 11
109.3167523633694
 21
371.8155630206599
 31
0.0
  0
ARC
  5
10AD
330
2
100
AcDbEntity
  8
0
100
AcDbCircle
 10
119.3167523633694
 20
373.8155630206599
 30
0.0
 40
2.0
100
AcDbArc
 50
270.0
 51
0.0
  0
LINE
  5
10AE
330
2
100
AcDbEntity
  8
0
100
AcDbLine
 10
109.3167523633694
 20
454.8155630206599
 30
0.0
 11
119.3167523633694
 21
454.8155630206599
 31
0.0
  0
ARC
  5
10AF
330
2
100
AcDbEntity
  8
0
100
AcDbCircle
 10
119.3167523633694
 20
452.8155630206598
 30
0.0
 40
2.0
100
AcDbArc
 50
0.0
 51
90.0
  0
LINE
  5
10B0
330
2
100
AcDbEntity
  8
0
100
AcDbLine
 10
816.2907514165
 20
454.8155630206617
 30
0.0
 11
826.2907514165002
 21
454.8155630206617
 31
0.0
  0
ARC
  5
10B1
330
2
100
AcDbEntity
  8
0
100
AcDbCircle
 10
816.2907514165
 20
452.8155630206617
 30
0.0
 40
2.0
100
AcDbArc
 50
90.0
 51
180.0
  0
LINE
  5
10B2
330
2
100
AcDbEntity
  8
0
100
AcDbLine
 10
826.2907514165002
 20
371.8155630206617
 30
0.0
 11
816.2907514165
 21
371.8155630206617
 31
0.0
  0
ARC
  5
10B3
330
2
100
AcDbEntity
  8
0
100
AcDbCircle
 10
816.2907514165
 20
373.8155630206617
 30
0.0
 40
2.0
100
AcDbArc
 50
180.0
 51
270.0
  0
LINE
  5
10B4
330
2
100
AcDbEntity
  8
CENTER
100
AcDbLine
 10
460.2575427279082
 20
343.5904593560691
 30
0.0
 11
460.2575427279091
 21
483.0406666852526
 31
0.0
  0
LINE
  5
10B5
330
2
100
AcDbEntity
  8
CENTER
100
AcDbLine
 10
369.7575427279086
 20
413.3155630206617
 30
0.0
 11
547.2575427279091
 21
413.3155630206617
 31
0.0
  0
LINE
  5
10B6
330
2
100
AcDbEntity
  8
0
100
AcDbLine
 10
428.7575427279164
 20
473.3155630206617
 30
0.0
 11
505.2575427279073
 21
472.647957634668
 31
0.0
  0
LINE
  5
10B7
330
2
100
AcDbEntity
  8
0
100
AcDbLine
 10
428.7575427279109
 20
353.3155630206599
 30
0.0
 11
505.2575427279091
 21
353.9831684066536
 31
0.0
  0
LINE
  5
10B8
330
2
100
AcDbEntity
  8
0
100
AcDbLine
 10
505.2575427279091
 20
353.9831684066536
 30
0.0
 11
505.2575427279073
 21
472.647957634668
 31
0.0
  0
LINE
  5
10B9
330
2
100
AcDbEntity
  8
0
100
AcDbLine
 10
510.2575427279082
 20
358.3155630206598
 30
0.0
 11
510.2575427279082
 21
468.3155630206599
 31
0.0
  0
LINE
  5
10BA
330
2
100
AcDbEntity
  8
0
100
AcDbLine
 10
510.2575427279082
 20
358.3155630206598
 30
0.0
 11
505.2575427279082
 21
358.3155630206598
 31
0.0
  0
LINE
  5
10BB
330
2
100
AcDbEntity
  8
0
100
AcDbLine
 10
510.2575427279082
 20
468.3155630206599
 30
0.0
 11
505.2575427279082
 21
468.3155630206599
 31
0.0
  0
LINE
  5
10BC
330
2
100
AcDbEntity
  8
0
100
AcDbLine
 10
524.2575427279091
 20
375.2469405702756
 30
0.0
 11
524.2575427279091
 21
451.3841854710478
 31
0.0
  0
ARC
  5
10BD
330
2
100
AcDbEntity
  8
0
100
AcDbCircle
 10
522.2575427279091
 20
451.3841854710478
 30
0.0
 40
2.0
100
AcDbArc
 50
0.0
 51
87.99999999999636
  0
ARC
  5
10BE
330
2
100
AcDbEntity
  8
0
100
AcDbCircle
 10
522.2575427279091
 20
375.2469405702756
 30
0.0
 40
2.0
100
AcDbArc
 50
272.0000000000036
 51
0.0
  0
LINE
  5
10BF
330
2
100
AcDbEntity
  8
0
100
AcDbLine
 10
512.187743734504
 20
372.894076352202
 30
0.0
 11
522.3273417213142
 21
373.2481589162377
 31
0.0
  0
ARC
  5
10C0
330
2
100
AcDbEntity
  8
0
100
AcDbCircle
 10
512.2575427279082
 20
370.8952946981641
 30
0.0
 40
2.0
100
AcDbArc
 50
92.00000000000365
 51
180.0
  0
LINE
  5
10C1
330
2
100
AcDbEntity
  8
0
100
AcDbLine
 10
512.187743734504
 20
453.7370496891232
 30
0.0
 11
522.3273417213142
 21
453.3829671250857
 31
0.0
  0
ARC
  5
10C2
330
2
100
AcDbEntity
  8
0
100
AcDbCircle
 10
512.2575427279082
 20
455.7358313431611
 30
0.0
 40
2.0
100
AcDbArc
 50
180.0
 51
267.9999999999963
  0
LINE
  5
10C3
330
2
100
AcDbEntity
  8
0
100
AcDbLine
 10
784.3807514165002
 20
717.2798769439066
 30
0.0
 11
784.6556477522129
 21
685.7798769439066
 31
0.0
  0
ARC
  5
10C4
330
2
100
AcDbEntity
  8
0
100
AcDbCircle
 10
787.3808656516996
 20
717.2798769390754
 30
0.0
 40
3.0
100
AcDbArc
 50
180.5000000005908
 51
270.0
  0
ARC
  5
10C5
330
2
100
AcDbEntity
  8
0
100
AcDbCircle
 10
789.4071224118727
 20
714.2798769390753
 30
0.0
 40
5.0
100
AcDbArc
 50
180.5000000005908
 51
270.0
  0
ARC
  5
10C6
330
2
100
AcDbEntity
  8
0
100
AcDbCircle
 10
787.6077642145103
 20
691.2798769390754
 30
0.0
 40
3.0
100
AcDbArc
 50
180.5000000005908
 51
270.0
  0
LINE
  5
10C7
330
2
100
AcDbEntity
  8
0
100
AcDbLine
 10
784.2976938618451
 20
644.7624238729107
 30
0.0
 11
784.6556477518909
 21
685.7798769439066
 31
0.0
  0
ARC
  5
10C8
330
2
100
AcDbEntity
  8
0
100
AcDbCircle
 10
787.3808656516104
 20
654.2798769390754
 30
0.0
 40
3.0
100
AcDbArc
 50
90.0
 51
179.5000000000344
  0
ARC
  5
10C9
330
2
100
AcDbEntity
  8
0
100
AcDbCircle
 10
789.4071224117526
 20
657.2798769390754
 30
0.0
 40
5.0
100
AcDbArc
 50
90.0
 51
179.5000000000344
  0
ARC
  5
10CA
330
2
100
AcDbEntity
  8
0
100
AcDbCircle
 10
787.6077642141592
 20
680.2798769390753
 30
0.0
 40
3.0
100
AcDbArc
 50
90.0
 51
179.5000000000344
  0
LINE
  5
10CB
330
2
100
AcDbEntity
  8
0
100
AcDbLine
 10
740.8763879826131
 20
717.2798769444414
 30
0.0
 11
740.2087825966166
 21
640.7798769439084
 31
0.0
  0
ARC
  5
10CC
330
2
100
AcDbEntity
  8
0
100
AcDbCircle
 10
741.7132031480898
 20
641.2798769439084
 30
0.0
 40
1.5
100
AcDbArc
 50
90.0
 51
179.5000000000344
  0
LINE
  5
10CD
330
2
100
AcDbEntity
  8
0
100
AcDbLine
 10
504.2575427279082
 20
463.3155630206617
 30
0.0
 11
428.7575427279164
 21
463.3155630206617
 31
0.0
  0
LINE
  5
10CE
330
2
100
AcDbEntity
  8
0
100
AcDbLine
 10
504.2575427279082
 20
459.315563020658
 30
0.0
 11
428.7575427279164
 21
459.315563020658
 31
0.0
  0
LINE
  5
10CF
330
2
100
AcDbEntity
  8
0
100
AcDbLine
 10
504.2575427279082
 20
436.3195914423319
 30
0.0
 11
428.7575427279145
 21
436.3195914423319
 31
0.0
  0
LINE
  5
10D0
330
2
100
AcDbEntity
  8
0
100
AcDbLine
 10
504.2575427279091
 20
363.3155630206617
 30
0.0
 11
428.7575427279164
 21
363.3155630206617
 31
0.0
  0
LINE
  5
10D1
330
2
100
AcDbEntity
  8
0
100
AcDbLine
 10
504.2575427279091
 20
367.3155630206653
 30
0.0
 11
428.7575427279164
 21
367.3155630206653
 31
0.0
  0
LINE
  5
10D2
330
2
100
AcDbEntity
  8
0
100
AcDbLine
 10
504.2575427279082
 20
390.3115345989915
 30
0.0
 11
428.7575427279145
 21
390.3115345989915
 31
0.0
  0
ARC
  5
10D3
330
2
100
AcDbEntity
  8
0
100
AcDbCircle
 10
748.8529521721105
 20
362.315563020658
 30
0.0
 40
8.0
100
AcDbArc
 50
90.0
 51
176.8152614633251
  0
CIRCLE
  5
10D4
330
2
100
AcDbEntity
  8
HOJO
100
AcDbCircle
 10
307.7267523633484
 20
448.8155630206581
 30
0.0
 40
2.5
  0
LINE
  5
10D5
330
2
100
AcDbEntity
  8
CENTER
100
AcDbLine
 10
315.4767523633484
 20
463.3155630206599
 30
0.0
 11
293.9767523633483
 21
463.315563020658
 31
0.0
  0
CIRCLE
  5
10D6
330
2
100
AcDbEntity
  8
HOJO
100
AcDbCircle
 10
307.7267523633484
 20
377.8155630206599
 30
0.0
 40
2.5
  0
LINE
  5
10D7
330
2
100
AcDbEntity
  8
CENTER
100
AcDbLine
 10
181.726752363352
 20
450.8155630206599
 30
0.0
 11
165.726752363352
 21
450.815563020658
 31
0.0
  0
LINE
  5
10D8
330
2
100
AcDbEntity
  8
CENTER
100
AcDbLine
 10
173.726752363352
 20
458.8155630206599
 30
0.0
 11
173.726752363352
 21
442.8155630206599
 31
0.0
  0
LINE
  5
10D9
330
2
100
AcDbEntity
  8
CENTER
100
AcDbLine
 10
159.2267523633502
 20
459.0655630206581
 30
0.0
 11
159.226752363352
 21
437.5655630206581
 31
0.0
  0
LINE
  5
10DA
330
2
100
AcDbEntity
  8
CENTER
100
AcDbLine
 10
169.976752363352
 20
448.3155630206598
 30
0.0
 11
148.476752363352
 21
448.3155630206581
 31
0.0
  0
CIRCLE
  5
10DB
330
2
100
AcDbEntity
  8
HOJO
100
AcDbCircle
 10
173.726752363352
 20
450.8155630206599
 30
0.0
 40
2.5
  0
CIRCLE
  5
10DC
330
2
100
AcDbEntity
  8
HOJO
100
AcDbCircle
 10
173.726752363352
 20
375.8155630206581
 30
0.0
 40
2.5
  0
LINE
  5
10DD
330
2
100
AcDbEntity
  8
0
100
AcDbLine
 10
285.726752363352
 20
365.3155630206599
 30
0.0
 11
223.726752363352
 21
365.3155630206581
 31
0.0
  0
LINE
  5
10DE
330
2
100
AcDbEntity
  8
0
100
AcDbLine
 10
285.726752363352
 20
461.3155630206581
 30
0.0
 11
223.726752363352
 21
461.3155630206581
 31
0.0
  0
CIRCLE
  5
10DF
330
2
100
AcDbEntity
  8
0
100
AcDbCircle
 10
254.726752363352
 20
413.315563020658
 30
0.0
 40
39.99999999999994
  0
CIRCLE
  5
10E0
330
2
100
AcDbEntity
  8
0
100
AcDbCircle
 10
254.726752363352
 20
413.315563020658
 30
0.0
 40
39.49999999999994
  0
CIRCLE
  5
10E1
330
2
100
AcDbEntity
  8
0
100
AcDbCircle
 10
254.726752363352
 20
413.315563020658
 30
0.0
 40
37.49999999999994
  0
LINE
  5
10E2
330
2
100
AcDbEntity
  8
0
100
AcDbLine
 10
285.726752363352
 20
367.3155630206599
 30
0.0
 11
223.726752363352
 21
367.3155630206581
 31
0.0
  0
ARC
  5
10E3
330
2
100
AcDbEntity
  8
0
100
AcDbCircle
 10
254.7267523633511
 20
223.3155630206581
 30
0.0
 40
250.0
100
AcDbArc
 50
84.72039671760322
 51
95.27960328239677
  0
ARC
  5
10E4
330
2
100
AcDbEntity
  8
0
100
AcDbCircle
 10
254.7267523633511
 20
603.3155630206581
 30
0.0
 40
250.0
100
AcDbArc
 50
264.7203967176031
 51
275.2796032823967
  0
LINE
  5
10E5
330
2
100
AcDbEntity
  8
0
100
AcDbLine
 10
285.726752363352
 20
459.315563020658
 30
0.0
 11
223.726752363352
 21
459.315563020658
 31
0.0
  0
CIRCLE
  5
10E6
330
2
100
AcDbEntity
  8
0
100
AcDbCircle
 10
254.7267523633511
 20
413.315563020658
 30
0.0
 40
32.5
  0
LINE
  5
10E7
330
2
100
AcDbEntity
  8
0
100
AcDbLine
 10
302.726752363352
 20
444.3155630206581
 30
0.0
 11
302.7267523633511
 21
382.3155630206599
 31
0.0
  0
ARC
  5
10E8
330
2
100
AcDbEntity
  8
0
100
AcDbCircle
 10
64.72675236335203
 20
413.315563020658
 30
0.0
 40
250.0
100
AcDbArc
 50
354.7203967175517
 51
5.279603282448266
  0
LINE
  5
10E9
330
2
100
AcDbEntity
  8
0
100
AcDbLine
 10
300.726752363352
 20
444.3155630206581
 30
0.0
 11
300.7267523633511
 21
382.3155630206599
 31
0.0
  0
ARC
  5
10EA
330
2
100
AcDbEntity
  8
0
100
AcDbCircle
 10
304.7267523633502
 20
463.3155630206599
 30
0.0
 40
10.0
100
AcDbArc
 50
0.0
 51
90.0
  0
CIRCLE
  5
10EB
330
2
100
AcDbEntity
  8
0
100
AcDbCircle
 10
307.7267523633484
 20
448.8155630206581
 30
0.0
 40
4.0
  0
CIRCLE
  5
10EC
330
2
100
AcDbEntity
  8
0
100
AcDbCircle
 10
307.7267523633484
 20
448.8155630206581
 30
0.0
 40
3.5
  0
CIRCLE
  5
10ED
330
2
100
AcDbEntity
  8
0
100
AcDbCircle
 10
307.7267523633484
 20
448.8155630206581
 30
0.0
 40
2.0
  0
LINE
  5
10EE
330
2
100
AcDbEntity
  8
0
100
AcDbLine
 10
304.7267523633483
 20
454.8155630206599
 30
0.0
 11
311.837116962509
 21
454.8155630206599
 31
0.0
  0
ARC
  5
10EF
330
2
100
AcDbEntity
  8
0
100
AcDbCircle
 10
311.837116962509
 20
452.8155630206598
 30
0.0
 40
2.0
100
AcDbArc
 50
353.604056903697
 51
90.0
  0
ARC
  5
10F0
330
2
100
AcDbEntity
  8
0
100
AcDbCircle
 10
393.326733331268
 20
443.6808805372672
 30
0.0
 40
80.0
100
AcDbArc
 50
169.7661103968427
 51
185.2796032824482
  0
LINE
  5
10F1
330
2
100
AcDbEntity
  8
0
100
AcDbLine
 10
314.7267523633502
 20
463.315563020658
 30
0.0
 11
314.7267523633502
 21
459.3155630206545
 31
0.0
  0
ARC
  5
10F2
330
2
100
AcDbEntity
  8
0
100
AcDbCircle
 10
306.7267523633502
 20
459.3155630206545
 30
0.0
 40
8.0
100
AcDbArc
 50
349.7661103968427
 51
0.0
  0
ARC
  5
10F3
330
2
100
AcDbEntity
  8
0
100
AcDbCircle
 10
285.726752363352
 20
444.3155630206581
 30
0.0
 40
17.0
100
AcDbArc
 50
0.0
 51
90.0
  0
ARC
  5
10F4
330
2
100
AcDbEntity
  8
0
100
AcDbCircle
 10
285.726752363352
 20
444.3155630206581
 30
0.0
 40
15.0
100
AcDbArc
 50
0.0
 51
90.0
  0
ARC
  5
10F5
330
2
100
AcDbEntity
  8
0
100
AcDbCircle
 10
304.7267523633483
 20
463.3155630206599
 30
0.0
 40
8.5
100
AcDbArc
 50
180.0
 51
270.0
  0
ARC
  5
10F6
330
2
100
AcDbEntity
  8
0
100
AcDbCircle
 10
285.0920698799611
 20
551.915543988576
 30
0.0
 40
80.0
100
AcDbArc
 50
264.7203967176031
 51
280.2338896031295
  0
LINE
  5
10F7
330
2
100
AcDbEntity
  8
0
100
AcDbLine
 10
296.2267523633483
 20
463.315563020658
 30
0.0
 11
296.2267523633483
 21
470.425927619815
 31
0.0
  0
LINE
  5
10F8
330
2
100
AcDbEntity
  8
0
100
AcDbLine
 10
304.726752363352
 20
473.3155630206581
 30
0.0
 11
300.7267523633483
 21
473.3155630206581
 31
0.0
  0
ARC
  5
10F9
330
2
100
AcDbEntity
  8
0
100
AcDbCircle
 10
294.2267523633483
 20
470.425927619815
 30
0.0
 40
2.0
100
AcDbArc
 50
0.0
 51
96.39594309627756
  0
ARC
  5
10FA
330
2
100
AcDbEntity
  8
0
100
AcDbCircle
 10
300.7267523633483
 20
465.3155630206581
 30
0.0
 40
8.0
100
AcDbArc
 50
90.0
 51
100.2338896031295
  0
ARC
  5
10FB
330
2
100
AcDbEntity
  8
0
100
AcDbCircle
 10
393.326733331268
 20
382.9502455040471
 30
0.0
 40
80.0
100
AcDbArc
 50
174.7203967175517
 51
190.2338896031572
  0
ARC
  5
10FC
330
2
100
AcDbEntity
  8
0
100
AcDbCircle
 10
304.726752363352
 20
363.3155630206581
 30
0.0
 40
10.0
100
AcDbArc
 50
270.0
 51
0.0
  0
CIRCLE
  5
10FD
330
2
100
AcDbEntity
  8
0
100
AcDbCircle
 10
307.7267523633484
 20
377.8155630206599
 30
0.0
 40
2.0
  0
CIRCLE
  5
10FE
330
2
100
AcDbEntity
  8
0
100
AcDbCircle
 10
307.7267523633484
 20
377.8155630206599
 30
0.0
 40
3.5
  0
CIRCLE
  5
10FF
330
2
100
AcDbEntity
  8
0
100
AcDbCircle
 10
307.7267523633484
 20
377.8155630206599
 30
0.0
 40
4.0
  0
LINE
  5
1100
330
2
100
AcDbEntity
  8
0
100
AcDbLine
 10
304.7267523633483
 20
371.8155630206581
 30
0.0
 11
311.8371169625081
 21
371.8155630206581
 31
0.0
  0
ARC
  5
1101
330
2
100
AcDbEntity
  8
0
100
AcDbCircle
 10
311.8371169625081
 20
373.8155630206581
 30
0.0
 40
2.0
100
AcDbArc
 50
270.0
 51
6.395943096302968
  0
ARC
  5
1102
330
2
100
AcDbEntity
  8
0
100
AcDbCircle
 10
306.7267523633502
 20
367.3155630206617
 30
0.0
 40
8.0
100
AcDbArc
 50
0.0
 51
10.23388960315723
  0
LINE
  5
1103
330
2
100
AcDbEntity
  8
0
100
AcDbLine
 10
314.7267523633502
 20
363.3155630206581
 30
0.0
 11
314.7267523633502
 21
367.3155630206617
 31
0.0
  0
LINE
  5
1104
330
2
100
AcDbEntity
  8
0
100
AcDbLine
 10
296.2267523633483
 20
363.3155630206599
 30
0.0
 11
296.2267523633483
 21
356.205198421501
 31
0.0
  0
ARC
  5
1105
330
2
100
AcDbEntity
  8
0
100
AcDbCircle
 10
285.7267523633511
 20
382.3155630206599
 30
0.0
 40
17.0
100
AcDbArc
 50
270.0
 51
0.0
  0
ARC
  5
1106
330
2
100
AcDbEntity
  8
0
100
AcDbCircle
 10
285.7267523633511
 20
382.3155630206599
 30
0.0
 40
15.0
100
AcDbArc
 50
270.0
 51
0.0
  0
ARC
  5
1107
330
2
100
AcDbEntity
  8
0
100
AcDbCircle
 10
304.7267523633483
 20
363.3155630206581
 30
0.0
 40
8.5
100
AcDbArc
 50
90.0
 51
180.0
  0
ARC
  5
1108
330
2
100
AcDbEntity
  8
0
100
AcDbCircle
 10
285.0920698799611
 20
274.7155820527402
 30
0.0
 40
80.0
100
AcDbArc
 50
79.76611039687047
 51
95.27960328239677
  0
LINE
  5
1109
330
2
100
AcDbEntity
  8
0
100
AcDbLine
 10
304.726752363352
 20
353.315563020658
 30
0.0
 11
300.7267523633483
 21
353.315563020658
 31
0.0
  0
ARC
  5
110A
330
2
100
AcDbEntity
  8
0
100
AcDbCircle
 10
294.2267523633483
 20
356.205198421501
 30
0.0
 40
2.0
100
AcDbArc
 50
263.6040569037224
 51
0.0
  0
ARC
  5
110B
330
2
100
AcDbEntity
  8
0
100
AcDbCircle
 10
300.7267523633483
 20
361.3155630206581
 30
0.0
 40
8.0
100
AcDbArc
 50
259.7661103968704
 51
270.0
  0
LINE
  5
110C
330
2
100
AcDbEntity
  8
0
100
AcDbLine
 10
206.726752363352
 20
444.3155630206581
 30
0.0
 11
206.7267523633511
 21
382.3155630206581
 31
0.0
  0
LINE
  5
110D
330
2
100
AcDbEntity
  8
0
100
AcDbLine
 10
208.726752363352
 20
444.3155630206581
 30
0.0
 11
208.7267523633511
 21
382.3155630206581
 31
0.0
  0
LINE
  5
110E
330
2
100
AcDbEntity
  8
0
100
AcDbLine
 10
194.7267523633392
 20
463.315563020658
 30
0.0
 11
194.7267523633502
 21
363.3155630206581
 31
0.0
  0
LINE
  5
110F
330
2
100
AcDbEntity
  8
0
100
AcDbLine
 10
151.2267523633502
 20
448.3155630206581
 30
0.0
 11
151.2267523633502
 21
378.315563020658
 31
0.0
  0
ARC
  5
1110
330
2
100
AcDbEntity
  8
0
100
AcDbCircle
 10
223.726752363352
 20
444.3155630206581
 30
0.0
 40
17.0
100
AcDbArc
 50
90.0
 51
180.0
  0
ARC
  5
1111
330
2
100
AcDbEntity
  8
0
100
AcDbCircle
 10
223.726752363352
 20
444.3155630206581
 30
0.0
 40
15.0
100
AcDbArc
 50
90.0
 51
180.0
  0
ARC
  5
1112
330
2
100
AcDbEntity
  8
0
100
AcDbCircle
 10
224.361434846741
 20
551.915543988576
 30
0.0
 40
80.0
100
AcDbArc
 50
259.7661103968704
 51
275.2796032823967
  0
LINE
  5
1113
330
2
100
AcDbEntity
  8
0
100
AcDbLine
 10
159.2267523633502
 20
456.3155630206581
 30
0.0
 11
186.7545516077273
 21
456.3155630206581
 31
0.0
  0
ARC
  5
1114
330
2
100
AcDbEntity
  8
0
100
AcDbCircle
 10
186.7545516077273
 20
464.3155630206581
 30
0.0
 40
8.0
100
AcDbArc
 50
270.0
 51
356.8152614632215
  0
ARC
  5
1115
330
2
100
AcDbEntity
  8
0
100
AcDbCircle
 10
204.7267523633393
 20
463.315563020658
 30
0.0
 40
10.0
100
AcDbArc
 50
90.0
 51
180.0
  0
ARC
  5
1116
330
2
100
AcDbEntity
  8
0
100
AcDbCircle
 10
208.7267523633547
 20
465.3155630206581
 30
0.0
 40
8.0
100
AcDbArc
 50
79.76611039687047
 51
90.0
  0
LINE
  5
1117
330
2
100
AcDbEntity
  8
0
100
AcDbLine
 10
204.7267523633502
 20
473.3155630206581
 30
0.0
 11
208.7267523633538
 21
473.3155630206581
 31
0.0
  0
CIRCLE
  5
1118
330
2
100
AcDbEntity
  8
0
100
AcDbCircle
 10
173.726752363352
 20
450.815563020658
 30
0.0
 40
3.5
  0
CIRCLE
  5
1119
330
2
100
AcDbEntity
  8
0
100
AcDbCircle
 10
173.726752363352
 20
450.815563020658
 30
0.0
 40
4.0
  0
ARC
  5
111A
330
2
100
AcDbEntity
  8
0
100
AcDbCircle
 10
159.2267523633502
 20
448.3155630206581
 30
0.0
 40
8.0
100
AcDbArc
 50
90.0
 51
180.0
  0
LINE
  5
111B
330
2
100
AcDbEntity
  8
0
100
AcDbLine
 10
167.7267523633575
 20
448.3155630206544
 30
0.0
 11
167.7267523633611
 21
454.3155630206599
 31
0.0
  0
ARC
  5
111C
330
2
100
AcDbEntity
  8
0
100
AcDbCircle
 10
159.2267523633575
 20
448.3155630206581
 30
0.0
 40
8.5
100
AcDbArc
 50
269.9999999999478
 51
359.9999999998958
  0
CIRCLE
  5
111D
330
2
100
AcDbEntity
  8
0
100
AcDbCircle
 10
173.726752363352
 20
450.815563020658
 30
0.0
 40
2.0
  0
LINE
  5
111E
330
2
100
AcDbEntity
  8
0
100
AcDbLine
 10
159.226752363352
 20
439.8155630206581
 30
0.0
 11
153.226752363352
 21
439.8155630206617
 31
0.0
  0
ARC
  5
111F
330
2
100
AcDbEntity
  8
0
100
AcDbCircle
 10
223.7267523633511
 20
382.3155630206581
 30
0.0
 40
17.0
100
AcDbArc
 50
180.0
 51
270.0
  0
ARC
  5
1120
330
2
100
AcDbEntity
  8
0
100
AcDbCircle
 10
223.7267523633511
 20
382.3155630206581
 30
0.0
 40
15.0
100
AcDbArc
 50
180.0
 51
270.0
  0
ARC
  5
1121
330
2
100
AcDbEntity
  8
0
100
AcDbCircle
 10
224.361434846741
 20
274.7155820527402
 30
0.0
 40
80.0
100
AcDbArc
 50
84.72039671760322
 51
100.2338896031295
  0
ARC
  5
1122
330
2
100
AcDbEntity
  8
0
100
AcDbCircle
 10
159.2267523633575
 20
378.315563020658
 30
0.0
 40
8.5
100
AcDbArc
 50
0.0
 51
90.00000000002605
  0
LINE
  5
1123
330
2
100
AcDbEntity
  8
0
100
AcDbLine
 10
159.226752363352
 20
386.815563020658
 30
0.0
 11
153.226752363352
 21
386.8155630206562
 31
0.0
  0
LINE
  5
1124
330
2
100
AcDbEntity
  8
0
100
AcDbLine
 10
159.2267523633502
 20
370.315563020658
 30
0.0
 11
186.7545516077391
 21
370.315563020658
 31
0.0
  0
ARC
  5
1125
330
2
100
AcDbEntity
  8
0
100
AcDbCircle
 10
204.7267523633502
 20
363.3155630206599
 30
0.0
 40
10.0
100
AcDbArc
 50
180.0
 51
270.0
  0
ARC
  5
1126
330
2
100
AcDbEntity
  8
0
100
AcDbCircle
 10
186.7545516077391
 20
362.315563020658
 30
0.0
 40
8.0
100
AcDbArc
 50
3.184738536778398
 51
90.0
  0
ARC
  5
1127
330
2
100
AcDbEntity
  8
0
100
AcDbCircle
 10
208.7267523633538
 20
361.3155630206581
 30
0.0
 40
8.0
100
AcDbArc
 50
270.0
 51
280.2338896031295
  0
LINE
  5
1128
330
2
100
AcDbEntity
  8
0
100
AcDbLine
 10
204.7267523633502
 20
353.315563020658
 30
0.0
 11
208.7267523633538
 21
353.315563020658
 31
0.0
  0
CIRCLE
  5
1129
330
2
100
AcDbEntity
  8
0
100
AcDbCircle
 10
173.726752363352
 20
375.8155630206581
 30
0.0
 40
4.0
  0
LINE
  5
112A
330
2
100
AcDbEntity
  8
0
100
AcDbLine
 10
167.7267523633575
 20
378.3155630206635
 30
0.0
 11
167.7267523633611
 21
372.315563020658
 31
0.0
  0
CIRCLE
  5
112B
330
2
100
AcDbEntity
  8
0
100
AcDbCircle
 10
173.726752363352
 20
375.8155630206581
 30
0.0
 40
3.5
  0
CIRCLE
  5
112C
330
2
100
AcDbEntity
  8
0
100
AcDbCircle
 10
173.726752363352
 20
375.8155630206581
 30
0.0
 40
2.0
  0
ARC
  5
112D
330
2
100
AcDbEntity
  8
0
100
AcDbCircle
 10
159.2267523633502
 20
378.315563020658
 30
0.0
 40
8.0
100
AcDbArc
 50
180.0
 51
270.0
  0
CIRCLE
  5
112E
330
2
100
AcDbEntity
  8
0
100
AcDbCircle
 10
254.726752363352
 20
413.315563020658
 30
0.0
 40
33.07735
  0
CIRCLE
  5
112F
330
2
100
AcDbEntity
  8
0
100
AcDbCircle
 10
254.726752363352
 20
413.315563020658
 30
0.0
 40
36.92264999999999
  0
ARC
  5
1130
330
2
100
AcDbEntity
  8
0
100
AcDbCircle
 10
169.7267523633611
 20
454.315563020658
 30
0.0
 40
2.0
100
AcDbArc
 50
90.0
 51
179.9999999998957
  0
ARC
  5
1131
330
2
100
AcDbEntity
  8
0
100
AcDbCircle
 10
153.2267523633502
 20
437.8155630206617
 30
0.0
 40
2.0
100
AcDbArc
 50
89.99999999994789
 51
180.0
  0
ARC
  5
1132
330
2
100
AcDbEntity
  8
0
100
AcDbCircle
 10
153.2267523633502
 20
388.8155630206562
 30
0.0
 40
2.0
100
AcDbArc
 50
180.0
 51
270.000000000026
  0
ARC
  5
1133
330
2
100
AcDbEntity
  8
0
100
AcDbCircle
 10
169.7267523633611
 20
372.315563020658
 30
0.0
 40
2.0
100
AcDbArc
 50
180.0
 51
270.0
  0
LINE
  5
1134
330
2
100
AcDbEntity
  8
CENTER
100
AcDbLine
 10
304.7267523633483
 20
452.5655630206599
 30
0.0
 11
304.7267523633502
 21
474.0655630206599
 31
0.0
  0
LINE
  5
1135
330
2
100
AcDbEntity
  8
0
100
AcDbLine
 10
213.1201506455529
 20
371.7089613028599
 30
0.0
 11
211.7059370831805
 21
370.2947477404865
 31
0.0
  0
LINE
  5
1136
330
2
100
AcDbEntity
  8
0
100
AcDbLine
 10
297.7475676435226
 20
370.2947477404884
 30
0.0
 11
296.3333540811493
 21
371.7089613028617
 31
0.0
  0
LINE
  5
1137
330
2
100
AcDbEntity
  8
0
100
AcDbLine
 10
297.7475676435226
 20
456.3363783008296
 30
0.0
 11
296.3333540811502
 21
454.9221647384563
 31
0.0
  0
LINE
  5
1138
330
2
100
AcDbEntity
  8
0
100
AcDbLine
 10
213.1201506455538
 20
454.9221647384563
 30
0.0
 11
211.7059370831805
 21
456.3363783008296
 31
0.0
  0
LINE
  5
1139
330
2
100
AcDbEntity
  8
CENTER
100
AcDbLine
 10
315.4767523633484
 20
363.3155630206599
 30
0.0
 11
293.9767523633483
 21
363.3155630206617
 31
0.0
  0
LINE
  5
113A
330
2
100
AcDbEntity
  8
CENTER
100
AcDbLine
 10
181.726752363352
 20
375.8155630206617
 30
0.0
 11
165.726752363352
 21
375.8155630206617
 31
0.0
  0
LINE
  5
113B
330
2
100
AcDbEntity
  8
CENTER
100
AcDbLine
 10
173.726752363352
 20
367.8155630206617
 30
0.0
 11
173.726752363352
 21
383.8155630206617
 31
0.0
  0
LINE
  5
113C
330
2
100
AcDbEntity
  8
CENTER
100
AcDbLine
 10
159.2267523633502
 20
367.5655630206617
 30
0.0
 11
159.226752363352
 21
389.0655630206617
 31
0.0
  0
LINE
  5
113D
330
2
100
AcDbEntity
  8
CENTER
100
AcDbLine
 10
169.976752363352
 20
378.3155630206617
 30
0.0
 11
148.476752363352
 21
378.3155630206617
 31
0.0
  0
LINE
  5
113E
330
2
100
AcDbEntity
  8
CENTER
100
AcDbLine
 10
304.7267523633483
 20
374.0655630206599
 30
0.0
 11
304.7267523633502
 21
352.5655630206599
 31
0.0
  0
CIRCLE
  5
113F
330
2
100
AcDbEntity
  8
0
100
AcDbCircle
 10
159.226752363352
 20
448.3155630206581
 30
0.0
 40
5.63397459621558
  0
CIRCLE
  5
1140
330
2
100
AcDbEntity
  8
0
100
AcDbCircle
 10
159.226752363352
 20
448.3155630206581
 30
0.0
 40
6.5
  0
LINE
  5
1141
330
2
100
AcDbEntity
  8
0
100
AcDbLine
 10
162.226752363352
 20
446.5835122130899
 30
0.0
 11
162.226752363352
 21
450.047613828228
 31
0.0
  0
LINE
  5
1142
330
2
100
AcDbEntity
  8
0
100
AcDbLine
 10
156.226752363352
 20
450.047613828228
 30
0.0
 11
156.226752363352
 21
446.5835122130899
 31
0.0
  0
LINE
  5
1143
330
2
100
AcDbEntity
  8
0
100
AcDbLine
 10
159.226752363352
 20
444.8514614055217
 30
0.0
 11
162.226752363352
 21
446.5835122130899
 31
0.0
  0
LINE
  5
1144
330
2
100
AcDbEntity
  8
0
100
AcDbLine
 10
156.226752363352
 20
446.5835122130899
 30
0.0
 11
159.226752363352
 21
444.8514614055199
 31
0.0
  0
LINE
  5
1145
330
2
100
AcDbEntity
  8
0
100
AcDbLine
 10
156.226752363352
 20
450.047613828228
 30
0.0
 11
159.226752363352
 21
451.7796646357962
 31
0.0
  0
LINE
  5
1146
330
2
100
AcDbEntity
  8
0
100
AcDbLine
 10
159.226752363352
 20
451.7796646357962
 30
0.0
 11
162.226752363352
 21
450.047613828228
 31
0.0
  0
CIRCLE
  5
1147
330
2
100
AcDbEntity
  8
0
100
AcDbCircle
 10
304.7267523633483
 20
463.315563020658
 30
0.0
 40
5.63397459621558
  0
CIRCLE
  5
1148
330
2
100
AcDbEntity
  8
0
100
AcDbCircle
 10
304.7267523633483
 20
463.315563020658
 30
0.0
 40
6.5
  0
LINE
  5
1149
330
2
100
AcDbEntity
  8
0
100
AcDbLine
 10
307.7267523633484
 20
461.5835122130899
 30
0.0
 11
307.7267523633484
 21
465.0476138282281
 31
0.0
  0
LINE
  5
114A
330
2
100
AcDbEntity
  8
0
100
AcDbLine
 10
301.7267523633484
 20
465.0476138282281
 30
0.0
 11
301.7267523633484
 21
461.5835122130899
 31
0.0
  0
LINE
  5
114B
330
2
100
AcDbEntity
  8
0
100
AcDbLine
 10
304.7267523633483
 20
459.8514614055217
 30
0.0
 11
307.7267523633484
 21
461.5835122130899
 31
0.0
  0
LINE
  5
114C
330
2
100
AcDbEntity
  8
0
100
AcDbLine
 10
301.7267523633484
 20
461.5835122130899
 30
0.0
 11
304.7267523633483
 21
459.8514614055217
 31
0.0
  0
LINE
  5
114D
330
2
100
AcDbEntity
  8
0
100
AcDbLine
 10
301.7267523633484
 20
465.0476138282281
 30
0.0
 11
304.7267523633483
 21
466.7796646357962
 31
0.0
  0
LINE
  5
114E
330
2
100
AcDbEntity
  8
0
100
AcDbLine
 10
304.7267523633483
 20
466.7796646357962
 30
0.0
 11
307.7267523633484
 21
465.0476138282281
 31
0.0
  0
CIRCLE
  5
114F
330
2
100
AcDbEntity
  8
0
100
AcDbCircle
 10
159.226752363352
 20
378.3155630206617
 30
0.0
 40
5.63397459621558
  0
CIRCLE
  5
1150
330
2
100
AcDbEntity
  8
0
100
AcDbCircle
 10
159.226752363352
 20
378.3155630206617
 30
0.0
 40
6.5
  0
LINE
  5
1151
330
2
100
AcDbEntity
  8
0
100
AcDbLine
 10
162.226752363352
 20
376.5835122130935
 30
0.0
 11
162.226752363352
 21
380.0476138282299
 31
0.0
  0
LINE
  5
1152
330
2
100
AcDbEntity
  8
0
100
AcDbLine
 10
156.226752363352
 20
380.0476138282299
 30
0.0
 11
156.226752363352
 21
376.5835122130917
 31
0.0
  0
LINE
  5
1153
330
2
100
AcDbEntity
  8
0
100
AcDbLine
 10
159.226752363352
 20
374.8514614055236
 30
0.0
 11
162.226752363352
 21
376.5835122130935
 31
0.0
  0
LINE
  5
1154
330
2
100
AcDbEntity
  8
0
100
AcDbLine
 10
156.226752363352
 20
376.5835122130917
 30
0.0
 11
159.226752363352
 21
374.8514614055236
 31
0.0
  0
LINE
  5
1155
330
2
100
AcDbEntity
  8
0
100
AcDbLine
 10
156.226752363352
 20
380.0476138282299
 30
0.0
 11
159.226752363352
 21
381.7796646357998
 31
0.0
  0
LINE
  5
1156
330
2
100
AcDbEntity
  8
0
100
AcDbLine
 10
159.226752363352
 20
381.7796646357998
 30
0.0
 11
162.226752363352
 21
380.0476138282299
 31
0.0
  0
CIRCLE
  5
1157
330
2
100
AcDbEntity
  8
0
100
AcDbCircle
 10
304.7267523633483
 20
363.3155630206617
 30
0.0
 40
5.63397459621558
  0
CIRCLE
  5
1158
330
2
100
AcDbEntity
  8
0
100
AcDbCircle
 10
304.7267523633483
 20
363.3155630206617
 30
0.0
 40
6.5
  0
LINE
  5
1159
330
2
100
AcDbEntity
  8
0
100
AcDbLine
 10
307.7267523633484
 20
361.5835122130917
 30
0.0
 11
307.7267523633484
 21
365.0476138282298
 31
0.0
  0
LINE
  5
115A
330
2
100
AcDbEntity
  8
0
100
AcDbLine
 10
301.7267523633484
 20
365.0476138282298
 30
0.0
 11
301.7267523633484
 21
361.5835122130917
 31
0.0
  0
LINE
  5
115B
330
2
100
AcDbEntity
  8
0
100
AcDbLine
 10
304.7267523633483
 20
359.8514614055236
 30
0.0
 11
307.7267523633484
 21
361.5835122130917
 31
0.0
  0
LINE
  5
115C
330
2
100
AcDbEntity
  8
0
100
AcDbLine
 10
301.7267523633484
 20
361.5835122130917
 30
0.0
 11
304.7267523633483
 21
359.8514614055236
 31
0.0
  0
LINE
  5
115D
330
2
100
AcDbEntity
  8
0
100
AcDbLine
 10
301.7267523633484
 20
365.0476138282298
 30
0.0
 11
304.7267523633483
 21
366.7796646357998
 31
0.0
  0
LINE
  5
115E
330
2
100
AcDbEntity
  8
0
100
AcDbLine
 10
304.7267523633483
 20
366.7796646357998
 30
0.0
 11
307.7267523633484
 21
365.0476138282298
 31
0.0
  0
LINE
  5
115F
330
2
100
AcDbEntity
  8
0
100
AcDbLine
 10
412.2575427279082
 20
471.1889472809249
 30
0.0
 11
412.2575427279082
 21
469.8155630206617
 31
0.0
  0
LINE
  5
1160
330
2
100
AcDbEntity
  8
HIDS
100
AcDbLine
 10
412.2575427279082
 20
469.8155630206617
 30
0.0
 11
412.2575427279082
 21
456.8155630206617
 31
0.0
  0
LINE
  5
1161
330
2
100
AcDbEntity
  8
0
100
AcDbLine
 10
412.2575427279082
 20
456.8155630206617
 30
0.0
 11
412.2575427279082
 21
369.8155630206617
 31
0.0
  0
LINE
  5
1162
330
2
100
AcDbEntity
  8
HIDS
100
AcDbLine
 10
412.2575427279072
 20
369.8155630206617
 30
0.0
 11
412.2575427279082
 21
356.8155630206617
 31
0.0
  0
LINE
  5
1163
330
2
100
AcDbEntity
  8
0
100
AcDbLine
 10
412.2575427279082
 20
356.8155630206617
 30
0.0
 11
412.2575427279082
 21
355.4421787604002
 31
0.0
  0
ARC
  5
1164
330
2
100
AcDbEntity
  8
0
100
AcDbCircle
 10
414.2575427279082
 20
355.4421787604002
 30
0.0
 40
2.0
100
AcDbArc
 50
180.0
 51
269.5000000000345
  0
LINE
  5
1165
330
2
100
AcDbEntity
  8
0
100
AcDbLine
 10
428.7575427279109
 20
473.3155630206617
 30
0.0
 11
428.7575427279182
 21
353.3155630206617
 31
0.0
  0
LINE
  5
1166
330
2
100
AcDbEntity
  8
0
100
AcDbLine
 10
406.457542727908
 20
450.8155630206617
 30
0.0
 11
409.7575427279082
 21
450.8155630206617
 31
0.0
  0
LINE
  5
1167
330
2
100
AcDbEntity
  8
HIDS
100
AcDbLine
 10
410.2575427279082
 20
368.1439901454083
 30
0.0
 11
410.2575427279082
 21
369.8155630206617
 31
0.0
  0
LINE
  5
1168
330
2
100
AcDbEntity
  8
0
100
AcDbLine
 10
410.2575427279082
 20
369.8155630206617
 30
0.0
 11
410.2575427279082
 21
456.8155630206617
 31
0.0
  0
LINE
  5
1169
330
2
100
AcDbEntity
  8
HIDS
100
AcDbLine
 10
410.2575427279082
 20
456.8155630206617
 30
0.0
 11
410.2575427279082
 21
458.4871358959168
 31
0.0
  0
LINE
  5
116A
330
2
100
AcDbEntity
  8
HIDS
100
AcDbLine
 10
411.6717562902815
 20
460.7297765830351
 30
0.0
 11
410.8433291655349
 21
459.9013494582884
 31
0.0
  0
LINE
  5
116B
330
2
100
AcDbEntity
  8
0
100
AcDbLine
 10
410.2575427279082
 20
453.3155630206617
 30
0.0
 11
409.7575427279082
 21
452.8155630206617
 31
0.0
  0
LINE
  5
116C
330
2
100
AcDbEntity
  8
0
100
AcDbLine
 10
402.7575427279073
 20
450.8155630206617
 30
0.0
 11
404.0575427279074
 21
450.8155630206617
 31
0.0
  0
LINE
  5
116D
330
2
100
AcDbEntity
  8
0
100
AcDbLine
 10
406.2575427279073
 20
450.6155630206627
 30
0.0
 11
406.457542727908
 21
450.8155630206617
 31
0.0
  0
LINE
  5
116E
330
2
100
AcDbEntity
  8
0
100
AcDbLine
 10
404.457542727908
 20
450.1155630206628
 30
0.0
 11
406.0575427279075
 21
450.1155630206628
 31
0.0
  0
LINE
  5
116F
330
2
100
AcDbEntity
  8
0
100
AcDbLine
 10
402.7575427279082
 20
450.8155630206617
 30
0.0
 11
401.7575427279073
 21
450.2382127514717
 31
0.0
  0
LINE
  5
1170
330
2
100
AcDbEntity
  8
0
100
AcDbLine
 10
428.7575427279182
 20
353.3155630206617
 30
0.0
 11
414.2400896569117
 21
353.4422549142725
 31
0.0
  0
LINE
  5
1171
330
2
100
AcDbEntity
  8
HIDS
100
AcDbLine
 10
411.6717562902815
 20
365.9013494582883
 30
0.0
 11
410.8433291655349
 21
366.729776583035
 31
0.0
  0
LINE
  5
1172
330
2
100
AcDbEntity
  8
0
100
AcDbLine
 10
401.7575427279082
 20
450.2382127514717
 30
0.0
 11
401.7575427279082
 21
376.3929132898517
 31
0.0
  0
LINE
  5
1173
330
2
100
AcDbEntity
  8
0
100
AcDbLine
 10
406.457542727908
 20
375.8155630206617
 30
0.0
 11
409.7575427279082
 21
375.8155630206617
 31
0.0
  0
LINE
  5
1174
330
2
100
AcDbEntity
  8
0
100
AcDbLine
 10
409.7575427279082
 20
373.8155630206617
 30
0.0
 11
409.7575427279082
 21
452.8155630206617
 31
0.0
  0
LINE
  5
1175
330
2
100
AcDbEntity
  8
0
100
AcDbLine
 10
410.2575427279082
 20
373.3155630206617
 30
0.0
 11
409.7575427279082
 21
373.8155630206617
 31
0.0
  0
LINE
  5
1176
330
2
100
AcDbEntity
  8
0
100
AcDbLine
 10
402.7575427279082
 20
375.8155630206617
 30
0.0
 11
404.0575427279084
 21
375.8155630206617
 31
0.0
  0
LINE
  5
1177
330
2
100
AcDbEntity
  8
0
100
AcDbLine
 10
404.2575427279082
 20
376.0155630206624
 30
0.0
 11
404.2575427279082
 21
450.6155630206627
 31
0.0
  0
LINE
  5
1178
330
2
100
AcDbEntity
  8
0
100
AcDbLine
 10
406.2575427279082
 20
376.0155630206624
 30
0.0
 11
406.2575427279082
 21
450.6155630206627
 31
0.0
  0
LINE
  5
1179
330
2
100
AcDbEntity
  8
0
100
AcDbLine
 10
406.2575427279082
 20
376.0155630206624
 30
0.0
 11
406.457542727908
 21
375.8155630206617
 31
0.0
  0
LINE
  5
117A
330
2
100
AcDbEntity
  8
0
100
AcDbLine
 10
402.7575427279082
 20
375.8155630206617
 30
0.0
 11
401.7575427279082
 21
376.3929132898517
 31
0.0
  0
ARC
  5
117B
330
2
100
AcDbEntity
  8
HIDS
100
AcDbCircle
 10
412.2575427279082
 20
458.4871358959168
 30
0.0
 40
2.0
100
AcDbArc
 50
134.9999999999812
 51
180.0
  0
ARC
  5
117C
330
2
100
AcDbEntity
  8
HIDS
100
AcDbCircle
 10
410.2575427279082
 20
462.1439901454084
 30
0.0
 40
2.0
100
AcDbArc
 50
314.9999999999812
 51
0.0
  0
ARC
  5
117D
330
2
100
AcDbEntity
  8
HIDS
100
AcDbCircle
 10
412.2575427279082
 20
368.1439901454083
 30
0.0
 40
2.0
100
AcDbArc
 50
180.0
 51
225.0000000000187
  0
ARC
  5
117E
330
2
100
AcDbEntity
  8
HIDS
100
AcDbCircle
 10
410.2575427279082
 20
364.487135895915
 30
0.0
 40
2.0
100
AcDbArc
 50
0.0
 51
45.00000000001871
  0
ARC
  5
117F
330
2
100
AcDbEntity
  8
0
100
AcDbCircle
 10
404.0575427279084
 20
376.0155630206624
 30
0.0
 40
0.2
100
AcDbArc
 50
270.0
 51
0.0
  0
ARC
  5
1180
330
2
100
AcDbEntity
  8
0
100
AcDbCircle
 10
404.457542727908
 20
376.3155630206617
 30
0.0
 40
0.2
100
AcDbArc
 50
90.0
 51
180.0
  0
ARC
  5
1181
330
2
100
AcDbEntity
  8
0
100
AcDbCircle
 10
406.0575427279084
 20
376.3155630206617
 30
0.0
 40
0.2
100
AcDbArc
 50
0.0
 51
90.0
  0
ARC
  5
1182
330
2
100
AcDbEntity
  8
0
100
AcDbCircle
 10
404.0575427279074
 20
450.6155630206627
 30
0.0
 40
0.2
100
AcDbArc
 50
0.0
 51
90.0
  0
ARC
  5
1183
330
2
100
AcDbEntity
  8
0
100
AcDbCircle
 10
404.457542727908
 20
450.3155630206617
 30
0.0
 40
0.2
100
AcDbArc
 50
180.0
 51
270.0
  0
ARC
  5
1184
330
2
100
AcDbEntity
  8
0
100
AcDbCircle
 10
406.0575427279075
 20
450.3155630206617
 30
0.0
 40
0.2
100
AcDbArc
 50
270.0
 51
0.0
  0
LINE
  5
1185
330
2
100
AcDbEntity
  8
0
100
AcDbLine
 10
402.7575427279082
 20
375.8155630206617
 30
0.0
 11
402.7575427279082
 21
450.8155630206617
 31
0.0
  0
LINE
  5
1186
330
2
100
AcDbEntity
  8
0
100
AcDbLine
 10
406.457542727908
 20
375.8155630206617
 30
0.0
 11
406.457542727908
 21
450.8155630206617
 31
0.0
  0
LINE
  5
1187
330
2
100
AcDbEntity
  8
0
100
AcDbLine
 10
418.7575427277672
 20
371.3199074153651
 30
0.0
 11
418.7575427277672
 21
354.3941429091661
 31
0.0
  0
LINE
  5
1188
330
2
100
AcDbEntity
  8
0
100
AcDbLine
 10
418.261905995517
 20
371.8198883768997
 30
0.0
 11
414.2400896569117
 21
371.8549862363649
 31
0.0
  0
ARC
  5
1189
330
2
100
AcDbEntity
  8
0
100
AcDbCircle
 10
418.2575427277672
 20
371.3199074153651
 30
0.0
 40
0.5
100
AcDbArc
 50
0.0
 51
89.5000000000345
  0
ARC
  5
118A
330
2
100
AcDbEntity
  8
0
100
AcDbCircle
 10
419.7575427277672
 20
354.3941429091661
 30
0.0
 40
1.0
100
AcDbArc
 50
180.0
 51
269.4999999999824
  0
ARC
  5
118B
330
2
100
AcDbEntity
  8
0
100
AcDbCircle
 10
414.2575427279082
 20
373.8549100824927
 30
0.0
 40
2.0
100
AcDbArc
 50
180.0
 51
269.5000000000345
  0
ARC
  5
118C
330
2
100
AcDbEntity
  8
0
100
AcDbCircle
 10
414.2575427279082
 20
471.1889472809249
 30
0.0
 40
2.0
100
AcDbArc
 50
90.49999999996549
 51
180.0
  0
LINE
  5
118D
330
2
100
AcDbEntity
  8
0
100
AcDbLine
 10
428.7575427279109
 20
473.3155630206617
 30
0.0
 11
414.2400896569117
 21
473.1888711270527
 31
0.0
  0
LINE
  5
118E
330
2
100
AcDbEntity
  8
0
100
AcDbLine
 10
418.7575427277672
 20
455.3112186259602
 30
0.0
 11
418.7575427277672
 21
472.2369831321572
 31
0.0
  0
LINE
  5
118F
330
2
100
AcDbEntity
  8
0
100
AcDbLine
 10
418.261905995517
 20
454.8112376644255
 30
0.0
 11
414.2400896569117
 21
454.7761398049585
 31
0.0
  0
ARC
  5
1190
330
2
100
AcDbEntity
  8
0
100
AcDbCircle
 10
418.2575427277672
 20
455.3112186259602
 30
0.0
 40
0.5
100
AcDbArc
 50
270.4999999999654
 51
0.0
  0
ARC
  5
1191
330
2
100
AcDbEntity
  8
0
100
AcDbCircle
 10
419.7575427277672
 20
472.2369831321572
 30
0.0
 40
1.0
100
AcDbArc
 50
90.50000000001761
 51
180.0
  0
ARC
  5
1192
330
2
100
AcDbEntity
  8
0
100
AcDbCircle
 10
414.2575427279082
 20
452.7762159588307
 30
0.0
 40
2.0
100
AcDbArc
 50
90.49999999996549
 51
180.0
  0
LINE
  5
1193
330
2
100
AcDbEntity
  8
0
100
AcDbLine
 10
408.7575427277672
 20
457.6815884244457
 30
0.0
 11
408.7575427277672
 21
468.9495376168776
 31
0.0
  0
LINE
  5
1194
330
2
100
AcDbEntity
  8
0
100
AcDbLine
 10
416.7575427277673
 20
456.8155630206617
 30
0.0
 11
416.7575427277681
 21
469.8155630206617
 31
0.0
  0
LINE
  5
1195
330
2
100
AcDbEntity
  8
0
100
AcDbLine
 10
409.2575427277672
 20
469.8155630206617
 30
0.0
 11
408.7575427277672
 21
468.9495376168776
 31
0.0
  0
LINE
  5
1196
330
2
100
AcDbEntity
  8
0
100
AcDbLine
 10
418.7575427277672
 20
469.8155630206617
 30
0.0
 11
416.7575427277673
 21
469.8155630206617
 31
0.0
  0
LINE
  5
1197
330
2
100
AcDbEntity
  8
0
100
AcDbLine
 10
416.7575427277673
 20
469.8155630206617
 30
0.0
 11
409.2575427277672
 21
469.8155630206617
 31
0.0
  0
LINE
  5
1198
330
2
100
AcDbEntity
  8
CENTER
  6
CENS
100
AcDbLine
 10
435.5174250197626
 20
463.3155630206617
 30
0.0
 11
405.7575427277672
 21
463.3155630206617
 31
0.0
  0
LINE
  5
1199
330
2
100
AcDbEntity
  8
0
100
AcDbLine
 10
409.2575427277672
 20
456.8155630206617
 30
0.0
 11
408.7575427277672
 21
457.6815884244457
 31
0.0
  0
LINE
  5
119A
330
2
100
AcDbEntity
  8
0
100
AcDbLine
 10
418.7575427277672
 20
456.8155630206617
 30
0.0
 11
416.7575427277673
 21
456.8155630206617
 31
0.0
  0
LINE
  5
119B
330
2
100
AcDbEntity
  8
0
100
AcDbLine
 10
416.7575427277673
 20
456.8155630206617
 30
0.0
 11
409.2575427277672
 21
456.8155630206617
 31
0.0
  0
LINE
  5
119C
330
2
100
AcDbEntity
  8
0
100
AcDbLine
 10
409.2575427277672
 20
456.8155630206617
 30
0.0
 11
409.2575427277672
 21
469.8155630206617
 31
0.0
  0
LINE
  5
119D
330
2
100
AcDbEntity
  8
0
100
AcDbLine
 10
419.7488161922694
 20
363.3155630206617
 30
0.0
 11
428.7575427279164
 21
363.3155630206617
 31
0.0
  0
LINE
  5
119E
330
2
100
AcDbEntity
  8
0
100
AcDbLine
 10
419.7488161922694
 20
367.3155630206653
 30
0.0
 11
428.7575427279164
 21
367.3155630206653
 31
0.0
  0
LINE
  5
119F
330
2
100
AcDbEntity
  8
0
100
AcDbLine
 10
414.2400896569117
 20
390.311534598966
 30
0.0
 11
428.7575427279145
 21
390.311534598966
 31
0.0
  0
LINE
  5
11A0
330
2
100
AcDbEntity
  8
0
100
AcDbLine
 10
419.7488161922694
 20
463.3155630206635
 30
0.0
 11
428.7575427279164
 21
463.3155630206635
 31
0.0
  0
LINE
  5
11A1
330
2
100
AcDbEntity
  8
0
100
AcDbLine
 10
419.7488161922694
 20
459.3155630206599
 30
0.0
 11
428.7575427279164
 21
459.3155630206599
 31
0.0
  0
LINE
  5
11A2
330
2
100
AcDbEntity
  8
0
100
AcDbLine
 10
414.2400896569117
 20
436.3195914423574
 30
0.0
 11
428.7575427279145
 21
436.3195914423574
 31
0.0
  0
LINE
  5
11A3
330
2
100
AcDbEntity
  8
0
100
AcDbLine
 10
408.7575427277672
 20
368.9495376168776
 30
0.0
 11
408.7575427277672
 21
357.6815884244476
 31
0.0
  0
LINE
  5
11A4
330
2
100
AcDbEntity
  8
0
100
AcDbLine
 10
416.7575427277673
 20
369.8155630206617
 30
0.0
 11
416.7575427277681
 21
356.8155630206617
 31
0.0
  0
LINE
  5
11A5
330
2
100
AcDbEntity
  8
0
100
AcDbLine
 10
409.2575427277672
 20
356.8155630206617
 30
0.0
 11
408.7575427277672
 21
357.6815884244476
 31
0.0
  0
LINE
  5
11A6
330
2
100
AcDbEntity
  8
0
100
AcDbLine
 10
418.7575427277672
 20
356.8155630206617
 30
0.0
 11
416.7575427277673
 21
356.8155630206617
 31
0.0
  0
LINE
  5
11A7
330
2
100
AcDbEntity
  8
0
100
AcDbLine
 10
416.7575427277673
 20
356.8155630206617
 30
0.0
 11
409.2575427277672
 21
356.8155630206617
 31
0.0
  0
LINE
  5
11A8
330
2
100
AcDbEntity
  8
CENTER
  6
CENS
100
AcDbLine
 10
435.5174250197626
 20
363.3155630206617
 30
0.0
 11
405.7575427277672
 21
363.3155630206617
 31
0.0
  0
LINE
  5
11A9
330
2
100
AcDbEntity
  8
0
100
AcDbLine
 10
418.7575427277672
 20
369.8155630206617
 30
0.0
 11
416.7575427277673
 21
369.8155630206617
 31
0.0
  0
LINE
  5
11AA
330
2
100
AcDbEntity
  8
0
100
AcDbLine
 10
416.7575427277673
 20
369.8155630206617
 30
0.0
 11
409.2575427277672
 21
369.8155630206617
 31
0.0
  0
LINE
  5
11AB
330
2
100
AcDbEntity
  8
0
100
AcDbLine
 10
409.2575427277672
 20
369.8155630206617
 30
0.0
 11
409.2575427277672
 21
356.8155630206617
 31
0.0
  0
LINE
  5
11AC
330
2
100
AcDbEntity
  8
0
100
AcDbLine
 10
409.2575427277672
 20
369.8155630206617
 30
0.0
 11
408.7575427277672
 21
368.9495376168776
 31
0.0
  0
LINE
  5
11AD
330
2
100
AcDbEntity
  8
0
100
AcDbLine
 10
738.898128995311
 20
733.7798769444523
 30
0.0
 11
637.3807514165203
 21
733.7798769444523
 31
0.0
  0
LINE
  5
11AE
330
2
100
AcDbEntity
  8
HIDS
100
AcDbLine
 10
637.3807514165203
 20
733.7798769444523
 30
0.0
 11
624.3807514165203
 21
733.7798769444523
 31
0.0
  0
LINE
  5
11AF
330
2
100
AcDbEntity
  8
0
100
AcDbLine
 10
624.3807514165203
 20
733.7798769444523
 30
0.0
 11
623.0073671562388
 21
733.7798769444523
 31
0.0
  0
ARC
  5
11B0
330
2
100
AcDbEntity
  8
0
100
AcDbCircle
 10
623.0073671562388
 20
731.7798769444523
 30
0.0
 40
2.0
100
AcDbArc
 50
90.0
 51
179.5000000000344
  0
LINE
  5
11B1
330
2
100
AcDbEntity
  8
0
100
AcDbLine
 10
784.3807514164975
 20
717.2798769449926
 30
0.0
 11
784.2802401262645
 21
728.7973300154496
 31
0.0
  0
ARC
  5
11B2
330
2
100
AcDbEntity
  8
0
100
AcDbCircle
 10
782.2803162801367
 20
728.7798769444523
 30
0.0
 40
2.0
100
AcDbArc
 50
0.4999999999654926
 51
72.52932876218832
  0
ARC
  5
11B3
330
2
100
AcDbEntity
  8
HIDS
100
AcDbCircle
 10
782.2803162801367
 20
728.7798769444523
 30
0.0
 40
2.0
100
AcDbArc
 50
72.52932876218832
 51
90.0
  0
ARC
  5
11B4
330
2
100
AcDbEntity
  8
0
100
AcDbCircle
 10
783.3021715279985
 20
726.2798769445942
 30
0.0
 40
1.0
100
AcDbArc
 50
0.4999999999654926
 51
90.0
  0
LINE
  5
11B5
330
2
100
AcDbEntity
  8
0
100
AcDbLine
 10
784.3807514165011
 20
717.2798769444523
 30
0.0
 11
620.8807514165012
 21
717.2798769444432
 31
0.0
  0
LINE
  5
11B6
330
2
100
AcDbEntity
  8
HIDS
100
AcDbLine
 10
782.2803162801367
 20
730.7798769444523
 30
0.0
 11
769.8807514165194
 21
730.7798769444523
 31
0.0
  0
LINE
  5
11B7
330
2
100
AcDbEntity
  8
0
100
AcDbLine
 10
769.8807514165194
 20
730.7798769444523
 30
0.0
 11
741.8982432304686
 21
730.7798769444523
 31
0.0
  0
LINE
  5
11B8
330
2
100
AcDbEntity
  8
0
100
AcDbLine
 10
718.3807514165011
 20
739.5798769444533
 30
0.0
 11
718.3807514165011
 21
736.2798769444523
 31
0.0
  0
LINE
  5
11B9
330
2
100
AcDbEntity
  8
HIDS
100
AcDbLine
 10
635.7091785412478
 20
735.7798769444523
 30
0.0
 11
637.3807514165194
 21
735.7798769444523
 31
0.0
  0
LINE
  5
11BA
330
2
100
AcDbEntity
  8
0
100
AcDbLine
 10
637.3807514165203
 20
735.7798769444523
 30
0.0
 11
726.0523242917554
 21
735.7798769444523
 31
0.0
  0
LINE
  5
11BB
330
2
100
AcDbEntity
  8
0
100
AcDbLine
 10
728.2949649788745
 20
734.3656633820789
 30
0.0
 11
727.4665378541278
 21
735.1940905068256
 31
0.0
  0
LINE
  5
11BC
330
2
100
AcDbEntity
  8
0
100
AcDbLine
 10
720.8807514165012
 20
735.7798769444523
 30
0.0
 11
720.3807514165012
 21
736.2798769444523
 31
0.0
  0
LINE
  5
11BD
330
2
100
AcDbEntity
  8
0
100
AcDbLine
 10
718.3807514165011
 20
743.2798769444541
 30
0.0
 11
718.3807514165011
 21
741.979876944453
 31
0.0
  0
LINE
  5
11BE
330
2
100
AcDbEntity
  8
0
100
AcDbLine
 10
718.1807514165013
 20
739.7798769444541
 30
0.0
 11
718.3807514165011
 21
739.5798769444533
 31
0.0
  0
LINE
  5
11BF
330
2
100
AcDbEntity
  8
0
100
AcDbLine
 10
717.6807514165013
 20
741.5798769444534
 30
0.0
 11
717.6807514165013
 21
739.979876944453
 31
0.0
  0
LINE
  5
11C0
330
2
100
AcDbEntity
  8
0
100
AcDbLine
 10
718.3807514165011
 20
743.2798769444523
 30
0.0
 11
717.8034011473112
 21
744.2798769444541
 31
0.0
  0
LINE
  5
11C1
330
2
100
AcDbEntity
  8
0
100
AcDbLine
 10
620.8807514165012
 20
717.2798769444432
 30
0.0
 11
621.0074433101111
 21
731.7973300154497
 31
0.0
  0
LINE
  5
11C2
330
2
100
AcDbEntity
  8
HIDS
100
AcDbLine
 10
633.4665378541278
 20
734.3656633820789
 30
0.0
 11
634.2949649788745
 21
735.1940905068256
 31
0.0
  0
LINE
  5
11C3
330
2
100
AcDbEntity
  8
0
100
AcDbLine
 10
717.8034011473112
 20
744.2798769444523
 30
0.0
 11
643.9581016856911
 21
744.2798769444523
 31
0.0
  0
LINE
  5
11C4
330
2
100
AcDbEntity
  8
0
100
AcDbLine
 10
643.3807514165011
 20
739.5798769444533
 30
0.0
 11
643.3807514165011
 21
736.2798769444523
 31
0.0
  0
LINE
  5
11C5
330
2
100
AcDbEntity
  8
0
100
AcDbLine
 10
641.3807514165012
 20
736.2798769444523
 30
0.0
 11
720.3807514165012
 21
736.2798769444523
 31
0.0
  0
LINE
  5
11C6
330
2
100
AcDbEntity
  8
0
100
AcDbLine
 10
640.8807514165012
 20
735.7798769444523
 30
0.0
 11
641.3807514165012
 21
736.2798769444523
 31
0.0
  0
LINE
  5
11C7
330
2
100
AcDbEntity
  8
0
100
AcDbLine
 10
643.3807514165011
 20
743.2798769444523
 30
0.0
 11
643.3807514165011
 21
741.979876944453
 31
0.0
  0
LINE
  5
11C8
330
2
100
AcDbEntity
  8
0
100
AcDbLine
 10
643.5807514165019
 20
741.7798769444523
 30
0.0
 11
718.1807514165013
 21
741.7798769444523
 31
0.0
  0
LINE
  5
11C9
330
2
100
AcDbEntity
  8
0
100
AcDbLine
 10
643.580751416501
 20
739.7798769444523
 30
0.0
 11
718.1807514165022
 21
739.7798769444523
 31
0.0
  0
LINE
  5
11CA
330
2
100
AcDbEntity
  8
0
100
AcDbLine
 10
644.080751416501
 20
741.5798769444534
 30
0.0
 11
644.080751416501
 21
739.979876944453
 31
0.0
  0
LINE
  5
11CB
330
2
100
AcDbEntity
  8
0
100
AcDbLine
 10
643.580751416501
 20
739.7798769444523
 30
0.0
 11
643.3807514165011
 21
739.5798769444533
 31
0.0
  0
LINE
  5
11CC
330
2
100
AcDbEntity
  8
0
100
AcDbLine
 10
643.3807514165011
 20
743.2798769444523
 30
0.0
 11
643.9581016856911
 21
744.2798769444523
 31
0.0
  0
ARC
  5
11CD
330
2
100
AcDbEntity
  8
0
100
AcDbCircle
 10
726.0523242917554
 20
733.7798769444523
 30
0.0
 40
2.0
100
AcDbArc
 50
45.00000000001871
 51
90.0
  0
ARC
  5
11CE
330
2
100
AcDbEntity
  8
0
100
AcDbCircle
 10
729.7091785412479
 20
735.7798769444523
 30
0.0
 40
2.0
100
AcDbArc
 50
225.0000000000187
 51
270.0
  0
ARC
  5
11CF
330
2
100
AcDbEntity
  8
HIDS
100
AcDbCircle
 10
635.7091785412478
 20
733.7798769444523
 30
0.0
 40
2.0
100
AcDbArc
 50
90.0
 51
134.9999999999812
  0
ARC
  5
11D0
330
2
100
AcDbEntity
  8
HIDS
100
AcDbCircle
 10
632.0523242917545
 20
735.7798769444523
 30
0.0
 40
2.0
100
AcDbArc
 50
270.0
 51
314.9999999999812
  0
LINE
  5
11D1
330
2
100
AcDbEntity
  8
0
100
AcDbLine
 10
740.8980528414397
 20
731.7973300154497
 30
0.0
 11
740.8982813074047
 21
731.7711504089545
 31
0.0
  0
ARC
  5
11D2
330
2
100
AcDbEntity
  8
0
100
AcDbCircle
 10
741.8982432304686
 20
731.7798769444523
 30
0.0
 40
1.0
100
AcDbArc
 50
180.4999999999655
 51
270.0
  0
ARC
  5
11D3
330
2
100
AcDbEntity
  8
0
100
AcDbCircle
 10
738.898128995311
 20
731.7798769444523
 30
0.0
 40
2.0
100
AcDbArc
 50
0.4999999999654926
 51
90.0
  0
ARC
  5
11D4
330
2
100
AcDbEntity
  8
0
100
AcDbCircle
 10
643.5807514165019
 20
741.979876944453
 30
0.0
 40
0.2
100
AcDbArc
 50
180.0
 51
270.0
  0
ARC
  5
11D5
330
2
100
AcDbEntity
  8
0
100
AcDbCircle
 10
643.8807514165012
 20
741.5798769444534
 30
0.0
 40
0.2
100
AcDbArc
 50
0.0
 51
90.0
  0
ARC
  5
11D6
330
2
100
AcDbEntity
  8
0
100
AcDbCircle
 10
643.8807514165012
 20
739.979876944453
 30
0.0
 40
0.2
100
AcDbArc
 50
270.0
 51
0.0
  0
ARC
  5
11D7
330
2
100
AcDbEntity
  8
0
100
AcDbCircle
 10
718.1807514165013
 20
741.979876944453
 30
0.0
 40
0.2
100
AcDbArc
 50
270.0
 51
0.0
  0
ARC
  5
11D8
330
2
100
AcDbEntity
  8
0
100
AcDbCircle
 10
717.8807514165011
 20
741.5798769444534
 30
0.0
 40
0.2
100
AcDbArc
 50
90.0
 51
180.0
  0
ARC
  5
11D9
330
2
100
AcDbEntity
  8
0
100
AcDbCircle
 10
717.8807514165011
 20
739.979876944453
 30
0.0
 40
0.2
100
AcDbArc
 50
180.0
 51
270.0
  0
LINE
  5
11DA
330
2
100
AcDbEntity
  8
0
100
AcDbLine
 10
643.3807514165011
 20
743.2798769444523
 30
0.0
 11
718.3807514165011
 21
743.2798769444523
 31
0.0
  0
LINE
  5
11DB
330
2
100
AcDbEntity
  8
0
100
AcDbLine
 10
643.3807514165011
 20
739.5798769444533
 30
0.0
 11
718.3807514165011
 21
739.5798769444533
 31
0.0
  0
LINE
  5
11DC
330
2
100
AcDbEntity
  8
0
100
AcDbLine
 10
740.8807514165012
 20
717.2798769444504
 30
0.0
 11
740.8807514165012
 21
732.0429517151803
 31
0.0
  0
LINE
  5
11DD
330
2
100
AcDbEntity
  8
0
100
AcDbLine
 10
767.959651914299
 20
727.7667884704404
 30
0.0
 11
767.9317523239453
 21
728.8322308410731
 31
0.0
  0
LINE
  5
11DE
330
2
100
AcDbEntity
  8
0
100
AcDbLine
 10
768.4594805767867
 20
727.2798769445942
 30
0.0
 11
783.3021715279985
 21
727.2798769445942
 31
0.0
  0
ARC
  5
11DF
330
2
100
AcDbEntity
  8
0
100
AcDbCircle
 10
768.4594805767867
 20
727.7798769445942
 30
0.0
 40
0.5
100
AcDbArc
 50
181.4999999999897
 51
270.0
  0
ARC
  5
11E0
330
2
100
AcDbEntity
  8
0
100
AcDbCircle
 10
765.9324376739943
 20
728.7798769444577
 30
0.0
 40
2.0
100
AcDbArc
 50
1.499999999989693
 51
90.0
  0
LINE
  5
11E1
330
2
100
AcDbEntity
  8
0
100
AcDbLine
 10
638.8850958112036
 20
727.2798769445942
 30
0.0
 11
621.9593313050056
 21
727.2798769445942
 31
0.0
  0
LINE
  5
11E2
330
2
100
AcDbEntity
  8
0
100
AcDbLine
 10
639.3850767727383
 20
727.7755136768444
 30
0.0
 11
639.4201746322043
 21
731.7973300154497
 31
0.0
  0
ARC
  5
11E3
330
2
100
AcDbEntity
  8
0
100
AcDbCircle
 10
638.8850958112036
 20
727.7798769445942
 30
0.0
 40
0.5
100
AcDbArc
 50
270.0
 51
359.5000000000345
  0
ARC
  5
11E4
330
2
100
AcDbEntity
  8
0
100
AcDbCircle
 10
621.9593313050056
 20
726.2798769445942
 30
0.0
 40
1.0
100
AcDbArc
 50
90.0
 51
179.5000000000344
  0
ARC
  5
11E5
330
2
100
AcDbEntity
  8
0
100
AcDbCircle
 10
641.4200984783321
 20
731.7798769444523
 30
0.0
 40
2.0
100
AcDbArc
 50
90.0
 51
179.5000000000344
  0
LINE
  5
11E6
330
2
100
AcDbEntity
  8
0
100
AcDbLine
 10
630.8807514165002
 20
726.288603480092
 30
0.0
 11
630.8807514165002
 21
717.2798769444432
 31
0.0
  0
LINE
  5
11E7
330
2
100
AcDbEntity
  8
0
100
AcDbLine
 10
634.8807514165039
 20
726.288603480092
 30
0.0
 11
634.8807514165039
 21
717.2798769444432
 31
0.0
  0
LINE
  5
11E8
330
2
100
AcDbEntity
  8
0
100
AcDbLine
 10
657.8767229948055
 20
731.7973300154497
 30
0.0
 11
657.8767229948055
 21
717.279876944445
 31
0.0
  0
LINE
  5
11E9
330
2
100
AcDbEntity
  8
0
100
AcDbLine
 10
730.8807514165021
 20
731.7973300154497
 30
0.0
 11
730.8807514165021
 21
717.2798769444432
 31
0.0
  0
LINE
  5
11EA
330
2
100
AcDbEntity
  8
0
100
AcDbLine
 10
726.8807514164985
 20
731.7973300154497
 30
0.0
 11
726.8807514164985
 21
717.2798769444432
 31
0.0
  0
LINE
  5
11EB
330
2
100
AcDbEntity
  8
0
100
AcDbLine
 10
703.8847798381969
 20
731.7973300154497
 30
0.0
 11
703.8847798381969
 21
717.279876944445
 31
0.0
  0
LINE
  5
11EC
330
2
100
AcDbEntity
  8
0
100
AcDbLine
 10
770.7467768203043
 20
737.2798769445942
 30
0.0
 11
782.0147260127352
 21
737.2798769445924
 31
0.0
  0
LINE
  5
11ED
330
2
100
AcDbEntity
  8
0
100
AcDbLine
 10
769.8807514165194
 20
729.2798769445924
 30
0.0
 11
782.8807514165194
 21
729.2798769445924
 31
0.0
  0
LINE
  5
11EE
330
2
100
AcDbEntity
  8
0
100
AcDbLine
 10
782.8807514165194
 20
736.7798769445924
 30
0.0
 11
782.0147260127352
 21
737.2798769445924
 31
0.0
  0
LINE
  5
11EF
330
2
100
AcDbEntity
  8
0
100
AcDbLine
 10
782.8807514165194
 20
727.2798769445923
 30
0.0
 11
782.8807514165194
 21
729.2798769445924
 31
0.0
  0
LINE
  5
11F0
330
2
100
AcDbEntity
  8
0
100
AcDbLine
 10
782.8807514165194
 20
729.2798769445924
 30
0.0
 11
782.8807514165194
 21
736.7798769445924
 31
0.0
  0
LINE
  5
11F1
330
2
100
AcDbEntity
  8
CENTER
  6
CENS
100
AcDbLine
 10
776.3807514165193
 20
711.0058849546874
 30
0.0
 11
776.3807514165193
 21
740.2798769445942
 31
0.0
  0
LINE
  5
11F2
330
2
100
AcDbEntity
  8
0
100
AcDbLine
 10
769.8807514165194
 20
736.7798769445942
 30
0.0
 11
770.7467768203034
 21
737.2798769445924
 31
0.0
  0
LINE
  5
11F3
330
2
100
AcDbEntity
  8
0
100
AcDbLine
 10
769.8807514165194
 20
727.2798769445942
 30
0.0
 11
769.8807514165194
 21
729.2798769445941
 31
0.0
  0
LINE
  5
11F4
330
2
100
AcDbEntity
  8
0
100
AcDbLine
 10
769.8807514165194
 20
729.2798769445941
 30
0.0
 11
769.8807514165194
 21
736.7798769445942
 31
0.0
  0
LINE
  5
11F5
330
2
100
AcDbEntity
  8
0
100
AcDbLine
 10
769.8807514165194
 20
736.7798769445942
 30
0.0
 11
782.8807514165194
 21
736.7798769445924
 31
0.0
  0
LINE
  5
11F6
330
2
100
AcDbEntity
  8
0
100
AcDbLine
 10
625.2467768203053
 20
737.2798769445942
 30
0.0
 11
636.5147260127352
 21
737.2798769445942
 31
0.0
  0
LINE
  5
11F7
330
2
100
AcDbEntity
  8
0
100
AcDbLine
 10
624.3807514165203
 20
729.2798769445941
 30
0.0
 11
637.3807514165203
 21
729.2798769445924
 31
0.0
  0
LINE
  5
11F8
330
2
100
AcDbEntity
  8
0
100
AcDbLine
 10
637.3807514165203
 20
736.7798769445942
 30
0.0
 11
636.5147260127352
 21
737.2798769445942
 31
0.0
  0
LINE
  5
11F9
330
2
100
AcDbEntity
  8
0
100
AcDbLine
 10
637.3807514165203
 20
727.2798769445942
 30
0.0
 11
637.3807514165203
 21
729.2798769445941
 31
0.0
  0
LINE
  5
11FA
330
2
100
AcDbEntity
  8
0
100
AcDbLine
 10
637.3807514165203
 20
729.2798769445941
 30
0.0
 11
637.3807514165203
 21
736.7798769445942
 31
0.0
  0
LINE
  5
11FB
330
2
100
AcDbEntity
  8
CENTER
  6
CENS
100
AcDbLine
 10
630.8807514165202
 20
711.0058849546874
 30
0.0
 11
630.8807514165202
 21
740.2798769445942
 31
0.0
  0
LINE
  5
11FC
330
2
100
AcDbEntity
  8
0
100
AcDbLine
 10
624.3807514165203
 20
736.7798769445942
 30
0.0
 11
625.2467768203053
 21
737.2798769445942
 31
0.0
  0
LINE
  5
11FD
330
2
100
AcDbEntity
  8
0
100
AcDbLine
 10
624.3807514165203
 20
727.2798769445942
 30
0.0
 11
624.3807514165203
 21
729.2798769445941
 31
0.0
  0
LINE
  5
11FE
330
2
100
AcDbEntity
  8
0
100
AcDbLine
 10
624.3807514165203
 20
729.2798769445941
 30
0.0
 11
624.3807514165203
 21
736.7798769445942
 31
0.0
  0
LINE
  5
11FF
330
2
100
AcDbEntity
  8
0
100
AcDbLine
 10
624.3807514165203
 20
736.7798769445942
 30
0.0
 11
637.3807514165203
 21
736.7798769445942
 31
0.0
  0
LINE
  5
1200
330
2
100
AcDbEntity
  8
CENTER
100
AcDbLine
 10
494.0263267245766
 20
92.88402531969239
 30
0.0
 11
494.0263267245766
 21
232.3342326488747
 31
0.0
  0
LINE
  5
1201
330
2
100
AcDbEntity
  8
CENTER
100
AcDbLine
 10
423.5263267245775
 20
162.6091289842858
 30
0.0
 11
581.0263267245775
 21
162.6091289842858
 31
0.0
  0
LINE
  5
1202
330
2
100
AcDbEntity
  8
0
100
AcDbLine
 10
462.5263267245848
 20
222.609128984284
 30
0.0
 11
539.0263267245757
 21
221.9415235982903
 31
0.0
  0
LINE
  5
1203
330
2
100
AcDbEntity
  8
0
100
AcDbLine
 10
462.5263267245793
 20
102.609128984284
 30
0.0
 11
539.0263267245775
 21
103.2767343702759
 31
0.0
  0
LINE
  5
1204
330
2
100
AcDbEntity
  8
0
100
AcDbLine
 10
539.0263267245775
 20
103.2767343702759
 30
0.0
 11
539.0263267245765
 21
143.5008096079579
 31
0.0
  0
LINE
  5
1205
330
2
100
AcDbEntity
  8
0
100
AcDbLine
 10
539.0263267245765
 20
181.7174483606119
 30
0.0
 11
539.0263267245757
 21
221.9415235982903
 31
0.0
  0
LINE
  5
1206
330
2
100
AcDbEntity
  8
0
100
AcDbLine
 10
544.0263267245766
 20
107.609128984284
 30
0.0
 11
544.0263267245766
 21
142.5491252343669
 31
0.0
  0
LINE
  5
1207
330
2
100
AcDbEntity
  8
0
100
AcDbLine
 10
544.0263267245766
 20
182.6691327342029
 30
0.0
 11
544.0263267245766
 21
217.609128984284
 31
0.0
  0
LINE
  5
1208
330
2
100
AcDbEntity
  8
0
100
AcDbLine
 10
544.0263267245766
 20
107.609128984284
 30
0.0
 11
539.0263267245765
 21
107.609128984284
 31
0.0
  0
LINE
  5
1209
330
2
100
AcDbEntity
  8
0
100
AcDbLine
 10
544.0263267245766
 20
217.609128984284
 30
0.0
 11
539.0263267245765
 21
217.609128984284
 31
0.0
  0
LINE
  5
120A
330
2
100
AcDbEntity
  8
0
100
AcDbLine
 10
462.5263267245793
 20
102.609128984284
 30
0.0
 11
462.5263267245811
 21
142.3492954834125
 31
0.0
  0
LINE
  5
120B
330
2
100
AcDbEntity
  8
0
100
AcDbLine
 10
558.0263267245775
 20
124.5405065338997
 30
0.0
 11
558.0263267245775
 21
140.6090829842848
 31
0.0
  0
LINE
  5
120C
330
2
100
AcDbEntity
  8
0
100
AcDbLine
 10
558.0263267245775
 20
184.6090829842848
 30
0.0
 11
558.0263267245775
 21
200.6777514346719
 31
0.0
  0
ARC
  5
120D
330
2
100
AcDbEntity
  8
0
100
AcDbCircle
 10
556.0263267245775
 20
200.6777514346719
 30
0.0
 40
2.0
100
AcDbArc
 50
0.0
 51
87.99999999999636
  0
ARC
  5
120E
330
2
100
AcDbEntity
  8
0
100
AcDbCircle
 10
556.0263267245775
 20
124.5405065338997
 30
0.0
 40
2.0
100
AcDbArc
 50
272.0000000000036
 51
0.0
  0
LINE
  5
120F
330
2
100
AcDbEntity
  8
0
100
AcDbLine
 10
545.9565277311724
 20
122.1876423158261
 30
0.0
 11
556.0961257179826
 21
122.5417248798618
 31
0.0
  0
ARC
  5
1210
330
2
100
AcDbEntity
  8
0
100
AcDbCircle
 10
546.0263267245766
 20
120.1888606617882
 30
0.0
 40
2.0
100
AcDbArc
 50
92.00000000000365
 51
180.0
  0
LINE
  5
1211
330
2
100
AcDbEntity
  8
0
100
AcDbLine
 10
545.9565277311724
 20
203.0306156527455
 30
0.0
 11
556.0961257179826
 21
202.6765330887098
 31
0.0
  0
ARC
  5
1212
330
2
100
AcDbEntity
  8
0
100
AcDbCircle
 10
546.0263267245766
 20
205.0293973067834
 30
0.0
 40
2.0
100
AcDbArc
 50
180.0
 51
267.9999999999963
  0
LINE
  5
1213
330
2
100
AcDbEntity
  8
0
100
AcDbLine
 10
538.0263267245766
 20
212.609128984284
 30
0.0
 11
462.5263267245848
 21
212.609128984284
 31
0.0
  0
LINE
  5
1214
330
2
100
AcDbEntity
  8
0
100
AcDbLine
 10
538.0263267245766
 20
208.6091289842822
 30
0.0
 11
462.5263267245848
 21
208.6091289842822
 31
0.0
  0
LINE
  5
1215
330
2
100
AcDbEntity
  8
0
100
AcDbLine
 10
538.0263267245766
 20
185.6131574059561
 30
0.0
 11
462.526326724583
 21
185.6131574059561
 31
0.0
  0
LINE
  5
1216
330
2
100
AcDbEntity
  8
0
100
AcDbLine
 10
538.0263267245775
 20
112.6091289842858
 30
0.0
 11
462.5263267245848
 21
112.6091289842858
 31
0.0
  0
LINE
  5
1217
330
2
100
AcDbEntity
  8
0
100
AcDbLine
 10
538.0263267245775
 20
116.6091289842895
 30
0.0
 11
462.5263267245848
 21
116.6091289842895
 31
0.0
  0
LINE
  5
1218
330
2
100
AcDbEntity
  8
0
100
AcDbLine
 10
538.0263267245766
 20
139.6051005626156
 30
0.0
 11
462.526326724583
 21
139.6051005626156
 31
0.0
  0
LINE
  5
1219
330
2
100
AcDbEntity
  8
0
100
AcDbLine
 10
446.0263267245766
 20
220.4825132445473
 30
0.0
 11
446.0263267245766
 21
219.109128984284
 31
0.0
  0
LINE
  5
121A
330
2
100
AcDbEntity
  8
HIDS
100
AcDbLine
 10
446.0263267245766
 20
219.109128984284
 30
0.0
 11
446.0263267245766
 21
206.109128984284
 31
0.0
  0
LINE
  5
121B
330
2
100
AcDbEntity
  8
0
100
AcDbLine
 10
446.0263267245766
 20
206.109128984284
 30
0.0
 11
446.0263267245766
 21
196.3461675165378
 31
0.0
  0
LINE
  5
121C
330
2
100
AcDbEntity
  8
0
100
AcDbLine
 10
446.0263267245766
 20
128.872090452032
 30
0.0
 11
446.0263267245766
 21
119.1091289842858
 31
0.0
  0
LINE
  5
121D
330
2
100
AcDbEntity
  8
HIDS
100
AcDbLine
 10
446.0263267245757
 20
119.1091289842858
 30
0.0
 11
446.0263267245766
 21
106.1091289842858
 31
0.0
  0
LINE
  5
121E
330
2
100
AcDbEntity
  8
0
100
AcDbLine
 10
446.0263267245766
 20
106.1091289842858
 30
0.0
 11
446.0263267245766
 21
104.7357447240226
 31
0.0
  0
ARC
  5
121F
330
2
100
AcDbEntity
  8
0
100
AcDbCircle
 10
448.0263267245766
 20
104.7357447240226
 30
0.0
 40
2.0
100
AcDbArc
 50
180.0
 51
269.5000000000345
  0
LINE
  5
1220
330
2
100
AcDbEntity
  8
0
100
AcDbLine
 10
462.5263267245793
 20
222.6091289842858
 30
0.0
 11
462.5263267245811
 21
182.8689624851574
 31
0.0
  0
LINE
  5
1221
330
2
100
AcDbEntity
  8
0
100
AcDbLine
 10
440.2263267245764
 20
200.1091289842858
 30
0.0
 11
443.5263267245765
 21
200.1091289842858
 31
0.0
  0
LINE
  5
1222
330
2
100
AcDbEntity
  8
HIDS
100
AcDbLine
 10
444.0263267245766
 20
117.4375561090307
 30
0.0
 11
444.0263267245766
 21
119.1091289842858
 31
0.0
  0
LINE
  5
1223
330
2
100
AcDbEntity
  8
0
100
AcDbLine
 10
444.0263267245766
 20
119.1091289842858
 30
0.0
 11
444.0263267245766
 21
128.602209668548
 31
0.0
  0
LINE
  5
1224
330
2
100
AcDbEntity
  8
0
100
AcDbLine
 10
444.0263267245766
 20
196.6160483000237
 30
0.0
 11
444.0263267245766
 21
206.109128984284
 31
0.0
  0
LINE
  5
1225
330
2
100
AcDbEntity
  8
HIDS
100
AcDbLine
 10
444.0263267245766
 20
206.109128984284
 30
0.0
 11
444.0263267245766
 21
207.7807018595391
 31
0.0
  0
LINE
  5
1226
330
2
100
AcDbEntity
  8
HIDS
100
AcDbLine
 10
445.4405402869499
 20
210.0233425466591
 30
0.0
 11
444.6121131622033
 21
209.1949154219125
 31
0.0
  0
LINE
  5
1227
330
2
100
AcDbEntity
  8
0
100
AcDbLine
 10
444.0263267245766
 20
202.6091289842858
 30
0.0
 11
443.5263267245765
 21
202.1091289842858
 31
0.0
  0
LINE
  5
1228
330
2
100
AcDbEntity
  8
0
100
AcDbLine
 10
436.5263267245757
 20
200.1091289842858
 30
0.0
 11
437.8263267245759
 21
200.1091289842858
 31
0.0
  0
LINE
  5
1229
330
2
100
AcDbEntity
  8
0
100
AcDbLine
 10
440.0263267245756
 20
199.9091289842851
 30
0.0
 11
440.2263267245764
 21
200.1091289842858
 31
0.0
  0
LINE
  5
122A
330
2
100
AcDbEntity
  8
0
100
AcDbLine
 10
438.2263267245764
 20
199.4091289842851
 30
0.0
 11
439.8263267245758
 21
199.4091289842851
 31
0.0
  0
LINE
  5
122B
330
2
100
AcDbEntity
  8
0
100
AcDbLine
 10
436.5263267245766
 20
200.1091289842858
 30
0.0
 11
435.5263267245756
 21
199.5317787150958
 31
0.0
  0
LINE
  5
122C
330
2
100
AcDbEntity
  8
0
100
AcDbLine
 10
436.5263267245766
 20
195.1091289842858
 30
0.0
 11
446.5263267245766
 21
195.109128984284
 31
0.0
  0
LINE
  5
122D
330
2
100
AcDbEntity
  8
0
100
AcDbLine
 10
446.5263267245766
 20
195.5043852980085
 30
0.0
 11
447.4537637812375
 21
195.5286710920351
 31
0.0
  0
LINE
  5
122E
330
2
100
AcDbEntity
  8
0
100
AcDbLine
 10
435.5263267245766
 20
195.686479253474
 30
0.0
 11
436.5263267245766
 21
195.1091289842858
 31
0.0
  0
LINE
  5
122F
330
2
100
AcDbEntity
  8
0
100
AcDbLine
 10
462.5263267245866
 20
102.6091289842858
 30
0.0
 11
448.0088736535801
 21
102.7358208778948
 31
0.0
  0
LINE
  5
1230
330
2
100
AcDbEntity
  8
HIDS
100
AcDbLine
 10
445.4405402869499
 20
115.1949154219125
 30
0.0
 11
444.6121131622033
 21
116.0233425466592
 31
0.0
  0
LINE
  5
1231
330
2
100
AcDbEntity
  8
0
100
AcDbLine
 10
446.5263267245766
 20
129.7138726705613
 30
0.0
 11
446.5263267245775
 21
140.6090829842848
 31
0.0
  0
LINE
  5
1232
330
2
100
AcDbEntity
  8
0
100
AcDbLine
 10
446.5263267245766
 20
184.6090829842848
 30
0.0
 11
446.5263267245766
 21
195.5043852980085
 31
0.0
  0
LINE
  5
1233
330
2
100
AcDbEntity
  8
0
100
AcDbLine
 10
435.5263267245766
 20
199.5317787150958
 30
0.0
 11
435.5263267245775
 21
184.6090829842848
 31
0.0
  0
LINE
  5
1234
330
2
100
AcDbEntity
  8
0
100
AcDbLine
 10
435.5263267245775
 20
140.6090829842848
 30
0.0
 11
435.5263267245766
 21
125.6864792534758
 31
0.0
  0
LINE
  5
1235
330
2
100
AcDbEntity
  8
0
100
AcDbLine
 10
436.5263267245766
 20
195.1091289842858
 30
0.0
 11
436.5263267245766
 21
184.6090829842848
 31
0.0
  0
LINE
  5
1236
330
2
100
AcDbEntity
  8
0
100
AcDbLine
 10
436.5263267245766
 20
140.6090829842848
 30
0.0
 11
436.5263267245766
 21
130.1091289842858
 31
0.0
  0
LINE
  5
1237
330
2
100
AcDbEntity
  8
0
100
AcDbLine
 10
440.2263267245764
 20
125.1091289842858
 30
0.0
 11
443.5263267245765
 21
125.1091289842858
 31
0.0
  0
LINE
  5
1238
330
2
100
AcDbEntity
  8
0
100
AcDbLine
 10
436.5263267245766
 20
130.1091289842858
 30
0.0
 11
446.5263267245766
 21
130.1091289842858
 31
0.0
  0
LINE
  5
1239
330
2
100
AcDbEntity
  8
0
100
AcDbLine
 10
443.5263267245765
 20
123.1091289842858
 30
0.0
 11
443.5263267245765
 21
128.578317364943
 31
0.0
  0
LINE
  5
123A
330
2
100
AcDbEntity
  8
0
100
AcDbLine
 10
443.5263267245765
 20
196.6399406036286
 30
0.0
 11
443.5263267245765
 21
202.1091289842858
 31
0.0
  0
LINE
  5
123B
330
2
100
AcDbEntity
  8
0
100
AcDbLine
 10
444.0263267245766
 20
122.6091289842858
 30
0.0
 11
443.5263267245765
 21
123.1091289842858
 31
0.0
  0
LINE
  5
123C
330
2
100
AcDbEntity
  8
0
100
AcDbLine
 10
436.5263267245766
 20
125.1091289842858
 30
0.0
 11
437.8263267245768
 21
125.1091289842858
 31
0.0
  0
LINE
  5
123D
330
2
100
AcDbEntity
  8
0
100
AcDbLine
 10
438.0263267245766
 20
125.3091289842847
 30
0.0
 11
438.0263267245766
 21
128.0530984723479
 31
0.0
  0
LINE
  5
123E
330
2
100
AcDbEntity
  8
0
100
AcDbLine
 10
438.0263267245766
 20
197.1651594962238
 30
0.0
 11
438.0263267245766
 21
199.9091289842851
 31
0.0
  0
LINE
  5
123F
330
2
100
AcDbEntity
  8
0
100
AcDbLine
 10
440.0263267245766
 20
125.3091289842847
 30
0.0
 11
440.0263267245766
 21
128.3945240779027
 31
0.0
  0
LINE
  5
1240
330
2
100
AcDbEntity
  8
0
100
AcDbLine
 10
440.0263267245766
 20
196.8237338906653
 30
0.0
 11
440.0263267245766
 21
199.9091289842851
 31
0.0
  0
LINE
  5
1241
330
2
100
AcDbEntity
  8
0
100
AcDbLine
 10
438.2263267245764
 20
125.8091289842847
 30
0.0
 11
439.8263267245767
 21
125.8091289842847
 31
0.0
  0
LINE
  5
1242
330
2
100
AcDbEntity
  8
0
100
AcDbLine
 10
440.0263267245766
 20
125.3091289842847
 30
0.0
 11
440.2263267245764
 21
125.1091289842858
 31
0.0
  0
LINE
  5
1243
330
2
100
AcDbEntity
  8
0
100
AcDbLine
 10
436.5263267245766
 20
125.1091289842858
 30
0.0
 11
435.5263267245766
 21
125.6864792534758
 31
0.0
  0
LINE
  5
1244
330
2
100
AcDbEntity
  8
0
100
AcDbLine
 10
435.5263267245766
 20
129.5317787150958
 30
0.0
 11
436.5263267245766
 21
130.1091289842858
 31
0.0
  0
LINE
  5
1245
330
2
100
AcDbEntity
  8
0
100
AcDbLine
 10
446.5263267245766
 20
129.7138726705613
 30
0.0
 11
447.4537637812375
 21
129.6895868765365
 31
0.0
  0
ARC
  5
1246
330
2
100
AcDbEntity
  8
HIDS
100
AcDbCircle
 10
446.0263267245766
 20
207.7807018595391
 30
0.0
 40
2.0
100
AcDbArc
 50
134.9999999999812
 51
180.0
  0
ARC
  5
1247
330
2
100
AcDbEntity
  8
HIDS
100
AcDbCircle
 10
444.0263267245766
 20
211.4375561090325
 30
0.0
 40
2.0
100
AcDbArc
 50
314.9999999999812
 51
0.0
  0
ARC
  5
1248
330
2
100
AcDbEntity
  8
HIDS
100
AcDbCircle
 10
446.0263267245766
 20
117.4375561090307
 30
0.0
 40
2.0
100
AcDbArc
 50
180.0
 51
225.0000000000187
  0
ARC
  5
1249
330
2
100
AcDbEntity
  8
HIDS
100
AcDbCircle
 10
444.0263267245766
 20
113.7807018595391
 30
0.0
 40
2.0
100
AcDbArc
 50
0.0
 51
45.00000000001871
  0
ARC
  5
124A
330
2
100
AcDbEntity
  8
0
100
AcDbCircle
 10
437.8263267245768
 20
125.3091289842847
 30
0.0
 40
0.2
100
AcDbArc
 50
270.0
 51
0.0
  0
ARC
  5
124B
330
2
100
AcDbEntity
  8
0
100
AcDbCircle
 10
438.2263267245764
 20
125.6091289842858
 30
0.0
 40
0.2
100
AcDbArc
 50
90.0
 51
180.0
  0
ARC
  5
124C
330
2
100
AcDbEntity
  8
0
100
AcDbCircle
 10
439.8263267245767
 20
125.6091289842858
 30
0.0
 40
0.2
100
AcDbArc
 50
0.0
 51
90.0
  0
ARC
  5
124D
330
2
100
AcDbEntity
  8
0
100
AcDbCircle
 10
437.8263267245759
 20
199.9091289842851
 30
0.0
 40
0.2
100
AcDbArc
 50
0.0
 51
90.0
  0
ARC
  5
124E
330
2
100
AcDbEntity
  8
0
100
AcDbCircle
 10
438.2263267245764
 20
199.6091289842858
 30
0.0
 40
0.2
100
AcDbArc
 50
180.0
 51
270.0
  0
ARC
  5
124F
330
2
100
AcDbEntity
  8
0
100
AcDbCircle
 10
439.8263267245758
 20
199.6091289842858
 30
0.0
 40
0.2
100
AcDbArc
 50
270.0
 51
0.0
  0
LINE
  5
1250
330
2
100
AcDbEntity
  8
0
100
AcDbLine
 10
436.5263267245766
 20
125.1091289842858
 30
0.0
 11
436.5263267245766
 21
127.594696135329
 31
0.0
  0
LINE
  5
1251
330
2
100
AcDbEntity
  8
0
100
AcDbLine
 10
436.5263267245766
 20
197.6235618332409
 30
0.0
 11
436.5263267245766
 21
200.1091289842858
 31
0.0
  0
LINE
  5
1252
330
2
100
AcDbEntity
  8
0
100
AcDbLine
 10
440.2263267245764
 20
125.1091289842858
 30
0.0
 11
440.2263267245764
 21
128.4138871986903
 31
0.0
  0
LINE
  5
1253
330
2
100
AcDbEntity
  8
0
100
AcDbLine
 10
440.2263267245764
 20
196.8043707698795
 30
0.0
 11
440.2263267245764
 21
200.1091289842858
 31
0.0
  0
LINE
  5
1254
330
2
100
AcDbEntity
  8
0
100
AcDbLine
 10
452.5263267244356
 20
120.6134733789874
 30
0.0
 11
452.5263267244356
 21
103.6877088727903
 31
0.0
  0
LINE
  5
1255
330
2
100
AcDbEntity
  8
0
100
AcDbLine
 10
452.0306899921854
 20
121.113454340522
 30
0.0
 11
448.0088736535801
 21
121.1485521999872
 31
0.0
  0
ARC
  5
1256
330
2
100
AcDbEntity
  8
0
100
AcDbCircle
 10
452.0263267244356
 20
120.6134733789874
 30
0.0
 40
0.5
100
AcDbArc
 50
0.0
 51
89.5000000000345
  0
ARC
  5
1257
330
2
100
AcDbEntity
  8
0
100
AcDbCircle
 10
453.5263267244356
 20
103.6877088727903
 30
0.0
 40
1.0
100
AcDbArc
 50
180.0
 51
269.4999999999824
  0
ARC
  5
1258
330
2
100
AcDbEntity
  8
0
100
AcDbCircle
 10
448.0263267245766
 20
123.1484760461168
 30
0.0
 40
2.0
100
AcDbArc
 50
180.0
 51
269.5000000000345
  0
ARC
  5
1259
330
2
100
AcDbEntity
  8
0
100
AcDbCircle
 10
448.0263267245766
 20
220.4825132445473
 30
0.0
 40
2.0
100
AcDbArc
 50
90.49999999996549
 51
180.0
  0
LINE
  5
125A
330
2
100
AcDbEntity
  8
0
100
AcDbLine
 10
462.5263267245793
 20
222.6091289842858
 30
0.0
 11
448.0088736535801
 21
222.4824370906751
 31
0.0
  0
LINE
  5
125B
330
2
100
AcDbEntity
  8
0
100
AcDbLine
 10
452.5263267244356
 20
204.6047845895825
 30
0.0
 11
452.5263267244356
 21
221.5305490957813
 31
0.0
  0
LINE
  5
125C
330
2
100
AcDbEntity
  8
0
100
AcDbLine
 10
452.0306899921854
 20
204.1048036280478
 30
0.0
 11
448.0088736535801
 21
204.0697057685826
 31
0.0
  0
ARC
  5
125D
330
2
100
AcDbEntity
  8
0
100
AcDbCircle
 10
452.0263267244356
 20
204.6047845895825
 30
0.0
 40
0.5
100
AcDbArc
 50
270.4999999999654
 51
0.0
  0
ARC
  5
125E
330
2
100
AcDbEntity
  8
0
100
AcDbCircle
 10
453.5263267244356
 20
221.5305490957813
 30
0.0
 40
1.0
100
AcDbArc
 50
90.50000000001761
 51
180.0
  0
ARC
  5
125F
330
2
100
AcDbEntity
  8
0
100
AcDbCircle
 10
448.0263267245766
 20
202.069781922453
 30
0.0
 40
2.0
100
AcDbArc
 50
90.49999999996549
 51
180.0
  0
LINE
  5
1260
330
2
100
AcDbEntity
  8
0
100
AcDbLine
 10
442.5263267244356
 20
206.9751543880699
 30
0.0
 11
442.5263267244356
 21
218.2431035804999
 31
0.0
  0
LINE
  5
1261
330
2
100
AcDbEntity
  8
0
100
AcDbLine
 10
450.5263267244356
 20
206.109128984284
 30
0.0
 11
450.5263267244365
 21
219.109128984284
 31
0.0
  0
LINE
  5
1262
330
2
100
AcDbEntity
  8
0
100
AcDbLine
 10
443.0263267244356
 20
219.109128984284
 30
0.0
 11
442.5263267244356
 21
218.2431035804999
 31
0.0
  0
LINE
  5
1263
330
2
100
AcDbEntity
  8
0
100
AcDbLine
 10
452.5263267244356
 20
219.109128984284
 30
0.0
 11
450.5263267244356
 21
219.109128984284
 31
0.0
  0
LINE
  5
1264
330
2
100
AcDbEntity
  8
0
100
AcDbLine
 10
450.5263267244356
 20
219.109128984284
 30
0.0
 11
443.0263267244356
 21
219.109128984284
 31
0.0
  0
LINE
  5
1265
330
2
100
AcDbEntity
  8
CENTER
  6
CENS
100
AcDbLine
 10
469.286209016431
 20
212.609128984284
 30
0.0
 11
439.5263267244356
 21
212.609128984284
 31
0.0
  0
LINE
  5
1266
330
2
100
AcDbEntity
  8
0
100
AcDbLine
 10
443.0263267244356
 20
206.109128984284
 30
0.0
 11
442.5263267244356
 21
206.9751543880699
 31
0.0
  0
LINE
  5
1267
330
2
100
AcDbEntity
  8
0
100
AcDbLine
 10
452.5263267244356
 20
206.109128984284
 30
0.0
 11
450.5263267244356
 21
206.109128984284
 31
0.0
  0
LINE
  5
1268
330
2
100
AcDbEntity
  8
0
100
AcDbLine
 10
450.5263267244356
 20
206.109128984284
 30
0.0
 11
443.0263267244356
 21
206.109128984284
 31
0.0
  0
LINE
  5
1269
330
2
100
AcDbEntity
  8
0
100
AcDbLine
 10
443.0263267244356
 20
206.109128984284
 30
0.0
 11
443.0263267244356
 21
219.109128984284
 31
0.0
  0
LINE
  5
126A
330
2
100
AcDbEntity
  8
0
100
AcDbLine
 10
453.5176001889379
 20
112.609128984284
 30
0.0
 11
462.5263267245848
 21
112.609128984284
 31
0.0
  0
LINE
  5
126B
330
2
100
AcDbEntity
  8
0
100
AcDbLine
 10
453.5176001889379
 20
116.6091289842876
 30
0.0
 11
462.5263267245848
 21
116.6091289842876
 31
0.0
  0
LINE
  5
126C
330
2
100
AcDbEntity
  8
0
100
AcDbLine
 10
449.3050317471008
 20
139.6051005625901
 30
0.0
 11
462.526326724583
 21
139.6051005625901
 31
0.0
  0
LINE
  5
126D
330
2
100
AcDbEntity
  8
0
100
AcDbLine
 10
453.5176001889379
 20
212.6091289842858
 30
0.0
 11
462.5263267245848
 21
212.6091289842858
 31
0.0
  0
LINE
  5
126E
330
2
100
AcDbEntity
  8
0
100
AcDbLine
 10
453.5176001889379
 20
208.6091289842822
 30
0.0
 11
462.5263267245848
 21
208.6091289842822
 31
0.0
  0
LINE
  5
126F
330
2
100
AcDbEntity
  8
0
100
AcDbLine
 10
449.3050317471008
 20
185.6131574059815
 30
0.0
 11
462.526326724583
 21
185.6131574059815
 31
0.0
  0
LINE
  5
1270
330
2
100
AcDbEntity
  8
0
100
AcDbLine
 10
442.5263267244356
 20
118.2431035804999
 30
0.0
 11
442.5263267244356
 21
106.9751543880699
 31
0.0
  0
LINE
  5
1271
330
2
100
AcDbEntity
  8
0
100
AcDbLine
 10
450.5263267244356
 20
119.1091289842858
 30
0.0
 11
450.5263267244365
 21
106.1091289842858
 31
0.0
  0
LINE
  5
1272
330
2
100
AcDbEntity
  8
0
100
AcDbLine
 10
443.0263267244356
 20
106.1091289842858
 30
0.0
 11
442.5263267244356
 21
106.9751543880699
 31
0.0
  0
LINE
  5
1273
330
2
100
AcDbEntity
  8
0
100
AcDbLine
 10
452.5263267244356
 20
106.1091289842858
 30
0.0
 11
450.5263267244356
 21
106.1091289842858
 31
0.0
  0
LINE
  5
1274
330
2
100
AcDbEntity
  8
0
100
AcDbLine
 10
450.5263267244356
 20
106.1091289842858
 30
0.0
 11
443.0263267244356
 21
106.1091289842858
 31
0.0
  0
LINE
  5
1275
330
2
100
AcDbEntity
  8
CENTER
  6
CENS
100
AcDbLine
 10
469.286209016431
 20
112.6091289842858
 30
0.0
 11
439.5263267244356
 21
112.6091289842858
 31
0.0
  0
LINE
  5
1276
330
2
100
AcDbEntity
  8
0
100
AcDbLine
 10
452.5263267244356
 20
119.1091289842858
 30
0.0
 11
450.5263267244356
 21
119.1091289842858
 31
0.0
  0
LINE
  5
1277
330
2
100
AcDbEntity
  8
0
100
AcDbLine
 10
450.5263267244356
 20
119.1091289842858
 30
0.0
 11
443.0263267244356
 21
119.1091289842858
 31
0.0
  0
LINE
  5
1278
330
2
100
AcDbEntity
  8
0
100
AcDbLine
 10
443.0263267244356
 20
119.1091289842858
 30
0.0
 11
443.0263267244356
 21
106.1091289842858
 31
0.0
  0
LINE
  5
1279
330
2
100
AcDbEntity
  8
0
100
AcDbLine
 10
443.0263267244356
 20
119.1091289842858
 30
0.0
 11
442.5263267244356
 21
118.2431035805017
 31
0.0
  0
LINE
  5
127A
330
2
100
AcDbEntity
  8
0
100
AcDbLine
 10
534.0263267245775
 20
177.1090829842848
 30
0.0
 11
463.5263267245774
 21
177.1090829842848
 31
0.0
  0
LINE
  5
127B
330
2
100
AcDbEntity
  8
0
100
AcDbLine
 10
571.0263267245775
 20
179.9090859842851
 30
0.0
 11
433.5263267245775
 21
179.9090859842851
 31
0.0
  0
LINE
  5
127C
330
2
100
AcDbEntity
  8
0
100
AcDbLine
 10
433.5263267245775
 20
184.6090829842848
 30
0.0
 11
433.5263267245775
 21
140.6090829842848
 31
0.0
  0
LINE
  5
127D
330
2
100
AcDbEntity
  8
0
100
AcDbLine
 10
449.5993366236072
 20
140.6090829842848
 30
0.0
 11
433.5263267245775
 21
140.6090829842848
 31
0.0
  0
LINE
  5
127E
330
2
100
AcDbEntity
  8
0
100
AcDbLine
 10
449.5993644327366
 20
184.6090829842848
 30
0.0
 11
433.5263267245775
 21
184.6090829842848
 31
0.0
  0
LINE
  5
127F
330
2
100
AcDbEntity
  8
0
100
AcDbLine
 10
448.1763207245769
 20
176.6090829842848
 30
0.0
 11
435.5263267245775
 21
176.6090829842848
 31
0.0
  0
LINE
  5
1280
330
2
100
AcDbEntity
  8
0
100
AcDbLine
 10
448.1762217651651
 20
148.6090822731891
 30
0.0
 11
435.5262277654749
 21
148.6091742731893
 31
0.0
  0
LINE
  5
1281
330
2
100
AcDbEntity
  8
0
100
AcDbLine
 10
435.526328864111
 20
148.6090822728489
 30
0.0
 11
435.526324585044
 21
176.6090842195544
 31
0.0
  0
LINE
  5
1282
330
2
100
AcDbEntity
  8
0
100
AcDbLine
 10
435.5261700109115
 20
148.6090829851615
 30
0.0
 11
433.5261570854165
 21
147.4543963729008
 31
0.0
  0
LINE
  5
1283
330
2
100
AcDbEntity
  8
0
100
AcDbLine
 10
435.5263267245775
 20
176.6090829842848
 30
0.0
 11
433.5263267245775
 21
177.7637919842852
 31
0.0
  0
LINE
  5
1284
330
2
100
AcDbEntity
  8
0
100
AcDbLine
 10
463.5263267245774
 20
177.1090829842848
 30
0.0
 11
463.5263267245774
 21
148.109082984272
 31
0.0
  0
LINE
  5
1285
330
2
100
AcDbEntity
  8
0
100
AcDbLine
 10
448.1763228641105
 20
147.9090852728492
 30
0.0
 11
448.1763185850443
 21
177.3090799842845
 31
0.0
  0
LINE
  5
1286
330
2
100
AcDbEntity
  8
0
100
AcDbLine
 10
449.526328864111
 20
147.9090852728492
 30
0.0
 11
449.5263245850448
 21
177.3090799842843
 31
0.0
  0
LINE
  5
1287
330
2
100
AcDbEntity
  8
0
100
AcDbLine
 10
449.526328864111
 20
147.9090852728492
 30
0.0
 11
448.1763228641105
 21
147.9090852728492
 31
0.0
  0
LINE
  5
1288
330
2
100
AcDbEntity
  8
0
100
AcDbLine
 10
463.5263267245774
 20
148.6091742728492
 30
0.0
 11
449.526328864111
 21
148.6091742728492
 31
0.0
  0
LINE
  5
1289
330
2
100
AcDbEntity
  8
0
100
AcDbLine
 10
463.5263267245774
 20
176.6090829842848
 30
0.0
 11
449.5263267245775
 21
176.6090829842848
 31
0.0
  0
LINE
  5
128A
330
2
100
AcDbEntity
  8
0
100
AcDbLine
 10
449.5263245850448
 20
177.3090799842843
 30
0.0
 11
448.1763185850443
 21
177.3090799842845
 31
0.0
  0
LINE
  5
128B
330
2
100
AcDbEntity
  8
0
100
AcDbLine
 10
571.0263267245775
 20
184.6090829842848
 30
0.0
 11
571.0263267245775
 21
140.6090829842848
 31
0.0
  0
LINE
  5
128C
330
2
100
AcDbEntity
  8
0
100
AcDbLine
 10
571.0263267245775
 20
140.6090829842848
 30
0.0
 11
545.3067769048796
 21
140.6090829842848
 31
0.0
  0
LINE
  5
128D
330
2
100
AcDbEntity
  8
0
100
AcDbLine
 10
571.0263267245775
 20
184.6090829842848
 30
0.0
 11
545.3067506130012
 21
184.6090829842848
 31
0.0
  0
LINE
  5
128E
330
2
100
AcDbEntity
  8
0
100
AcDbLine
 10
549.0263267245775
 20
176.6090829842848
 30
0.0
 11
534.0263267245775
 21
176.6090829842848
 31
0.0
  0
LINE
  5
128F
330
2
100
AcDbEntity
  8
0
100
AcDbLine
 10
549.0262967711498
 20
148.6091400403253
 30
0.0
 11
534.0263267245775
 21
148.6091541294387
 31
0.0
  0
LINE
  5
1290
330
2
100
AcDbEntity
  8
0
100
AcDbLine
 10
534.0263267245775
 20
177.1090829842848
 30
0.0
 11
534.0263267245775
 21
148.1091749842723
 31
0.0
  0
LINE
  5
1291
330
2
100
AcDbEntity
  8
0
100
AcDbLine
 10
566.5261658424271
 20
148.1093004258925
 30
0.0
 11
559.5261658418869
 21
148.1091653929958
 31
0.0
  0
LINE
  5
1292
330
2
100
AcDbEntity
  8
0
100
AcDbLine
 10
559.5261658418869
 20
148.1091653929958
 30
0.0
 11
559.5262736074967
 21
177.1091289842858
 31
0.0
  0
LINE
  5
1293
330
2
100
AcDbEntity
  8
0
100
AcDbLine
 10
550.3763012734782
 20
147.9091401519414
 30
0.0
 11
550.3763641756752
 21
177.3090799842843
 31
0.0
  0
LINE
  5
1294
330
2
100
AcDbEntity
  8
0
100
AcDbLine
 10
549.0262952734813
 20
147.9091430403274
 30
0.0
 11
549.0263581756728
 21
177.3090799842845
 31
0.0
  0
LINE
  5
1295
330
2
100
AcDbEntity
  8
0
100
AcDbLine
 10
550.3763012734782
 20
147.9091401519414
 30
0.0
 11
549.0262952734813
 21
147.9091430403274
 31
0.0
  0
LINE
  5
1296
330
2
100
AcDbEntity
  8
0
100
AcDbLine
 10
559.5261676489001
 20
148.6091207847873
 30
0.0
 11
550.3763027711467
 21
148.6091371519393
 31
0.0
  0
LINE
  5
1297
330
2
100
AcDbEntity
  8
0
100
AcDbLine
 10
566.5262736075676
 20
177.1091289842857
 30
0.0
 11
566.5261658424271
 21
148.1093004258925
 31
0.0
  0
LINE
  5
1298
330
2
100
AcDbEntity
  8
0
100
AcDbLine
 10
569.0262967710916
 20
148.6090865519524
 30
0.0
 11
569.0263566780989
 21
176.609100278085
 31
0.0
  0
LINE
  5
1299
330
2
100
AcDbEntity
  8
0
100
AcDbLine
 10
569.0262967710916
 20
148.6090865519524
 30
0.0
 11
566.5261676488901
 21
148.6091036685081
 31
0.0
  0
LINE
  5
129A
330
2
100
AcDbEntity
  8
0
100
AcDbLine
 10
569.0263267245775
 20
148.6090829842848
 30
0.0
 11
571.0263267245775
 21
147.4543739842844
 31
0.0
  0
LINE
  5
129B
330
2
100
AcDbEntity
  8
0
100
AcDbLine
 10
566.5262736075676
 20
177.1091289842857
 30
0.0
 11
559.5262736074967
 21
177.1091289842858
 31
0.0
  0
LINE
  5
129C
330
2
100
AcDbEntity
  8
0
100
AcDbLine
 10
550.3763641756752
 20
177.3090799842843
 30
0.0
 11
549.0263581756728
 21
177.3090799842845
 31
0.0
  0
LINE
  5
129D
330
2
100
AcDbEntity
  8
0
  6
CONTINUOUS
 62
     4
100
AcDbLine
 10
560.0262197245776
 20
179.9090859842851
 30
0.0
 11
560.0262197245776
 21
184.6090829842848
 31
0.0
  0
LINE
  5
129E
330
2
100
AcDbEntity
  8
0
  6
CONTINUOUS
 62
     7
100
AcDbLine
 10
560.626219724578
 20
179.9090859842851
 30
0.0
 11
560.626219724578
 21
184.6090829842848
 31
0.0
  0
LINE
  5
129F
330
2
100
AcDbEntity
  8
0
100
AcDbLine
 10
559.5262197245777
 20
176.6090829842848
 30
0.0
 11
550.376332724578
 21
176.6090829842848
 31
0.0
  0
LINE
  5
12A0
330
2
100
AcDbEntity
  8
0
  6
CONTINUOUS
 62
     7
100
AcDbLine
 10
565.4262197245773
 20
179.9090859842851
 30
0.0
 11
565.4262197245773
 21
184.6090829842848
 31
0.0
  0
LINE
  5
12A1
330
2
100
AcDbEntity
  8
0
  6
CONTINUOUS
 62
     4
100
AcDbLine
 10
566.0262197245777
 20
179.9090859842851
 30
0.0
 11
566.0262197245777
 21
184.6090829842848
 31
0.0
  0
LINE
  5
12A2
330
2
100
AcDbEntity
  8
0
100
AcDbLine
 10
569.0263267245775
 20
176.6090829842848
 30
0.0
 11
566.5262197245777
 21
176.6090829842848
 31
0.0
  0
LINE
  5
12A3
330
2
100
AcDbEntity
  8
0
100
AcDbLine
 10
569.0263267245775
 20
176.6090829842848
 30
0.0
 11
571.0263267245775
 21
177.7637919842852
 31
0.0
  0
LINE
  5
12A4
330
2
100
AcDbEntity
  8
0
100
AcDbLine
 10
534.0263267245775
 20
148.1091749842723
 30
0.0
 11
463.5263267245774
 21
148.109082984272
 31
0.0
  0
LINE
  5
12A5
330
2
100
AcDbEntity
  8
0
100
AcDbLine
 10
557.0263267245775
 20
195.1091289842858
 30
0.0
 11
547.0263267245775
 21
195.1091289842858
 31
0.0
  0
LINE
  5
12A6
330
2
100
AcDbEntity
  8
0
100
AcDbLine
 10
557.0263267245775
 20
130.1091289842858
 30
0.0
 11
547.0263267245775
 21
130.1091289842858
 31
0.0
  0
LINE
  5
12A7
330
2
100
AcDbEntity
  8
0
100
AcDbLine
 10
557.0263267245775
 20
195.1091289842858
 30
0.0
 11
557.0263267245766
 21
184.6090829842848
 31
0.0
  0
LINE
  5
12A8
330
2
100
AcDbEntity
  8
0
100
AcDbLine
 10
557.0263267245775
 20
140.6090829842848
 30
0.0
 11
557.0263267245775
 21
130.1091289842858
 31
0.0
  0
LINE
  5
12A9
330
2
100
AcDbEntity
  8
0
100
AcDbLine
 10
558.0263267245775
 20
129.5317787150958
 30
0.0
 11
557.0263267245775
 21
130.1091289842858
 31
0.0
  0
LINE
  5
12AA
330
2
100
AcDbEntity
  8
0
100
AcDbLine
 10
558.0263267245775
 20
195.6864792534758
 30
0.0
 11
557.0263267245775
 21
195.1091289842858
 31
0.0
  0
LINE
  5
12AB
330
2
100
AcDbEntity
  8
0
100
AcDbLine
 10
547.0263267245775
 20
195.2818049646718
 30
0.0
 11
547.0263267245775
 21
184.6090829842848
 31
0.0
  0
LINE
  5
12AC
330
2
100
AcDbEntity
  8
0
100
AcDbLine
 10
547.0263267245775
 20
140.6090829842848
 30
0.0
 11
547.0263267245775
 21
129.9364530039017
 31
0.0
  0
LINE
  5
12AD
330
2
100
AcDbEntity
  8
0
100
AcDbLine
 10
547.0263267245775
 20
129.9364530039017
 30
0.0
 11
545.7221724932044
 21
129.9023025234834
 31
0.0
  0
LINE
  5
12AE
330
2
100
AcDbEntity
  8
0
100
AcDbLine
 10
547.0263267245775
 20
195.2818049646718
 30
0.0
 11
545.7221724932044
 21
195.3159554450882
 31
0.0
  0
SPLINE
  5
12AF
330
2
100
AcDbEntity
  8
HOJO
100
AcDbSpline
210
0.0
220
0.0
230
1.0
 70
     8
 71
     3
 72
    27
 73
    23
 74
     0
 42
0.0000000001
 43
0.0000000001
 40
1.115194340024553
 40
1.115194340024553
 40
1.115194340024553
 40
1.115194340024553
 40
4.11856902600964
 40
9.276492718429681
 40
13.10167008618774
 40
18.71184964488228
 40
23.95716555156286
 40
27.01619251471695
 40
39.17039536596644
 40
50.24697446103543
 40
58.53434931408898
 40
73.56157927628713
 40
85.17772611937518
 40
102.3462877726335
 40
113.633446065556
 40
121.5743876800089
 40
126.5250688064399
 40
130.7795985444939
 40
134.8620682382245
 40
140.0229493905749
 40
145.1226728683104
 40
146.9851630635393
 40
146.9851630635393
 40
146.9851630635393
 40
146.9851630635393
 10
435.5263267245766
 20
197.9944375756801
 30
0.0
 10
436.4727447211919
 20
197.6279360648092
 30
0.0
 10
439.0470028349957
 20
196.7219906544175
 30
0.0
 10
442.8644288172247
 20
196.7176321824496
 30
0.0
 10
448.6000082492558
 20
196.335347785676
 30
0.0
 10
448.0505683835856
 20
190.0145745745264
 30
0.0
 10
449.1894738617741
 20
185.9764463140269
 30
0.0
 10
451.3427375124385
 20
178.7176550683104
 30
0.0
 10
463.1836029841545
 20
184.3231160793381
 30
0.0
 10
472.7558712704905
 20
182.9201501767562
 30
0.0
 10
484.3315676945051
 20
181.0682763542369
 30
0.0
 10
495.9493322635037
 20
184.1683703027299
 30
0.0
 10
510.2989357093076
 20
180.0039323416764
 30
0.0
 10
524.0962954351691
 20
183.6838087651901
 30
0.0
 10
535.0640922006999
 20
181.7969386104193
 30
0.0
 10
545.4743174830302
 20
181.3703904322625
 30
0.0
 10
545.7187166992119
 20
188.211569875151
 30
0.0
 10
545.3234914383704
 20
192.2007115799621
 30
0.0
 10
545.6426776586706
 20
197.6505029384804
 30
0.0
 10
551.5750475086108
 20
197.4535196164612
 30
0.0
 10
555.5162052260359
 20
197.6249572012545
 30
0.0
 10
557.5041963934984
 20
198.7723278771952
 30
0.0
 10
558.0263267245775
 20
199.1161554295683
 30
0.0
  0
SPLINE
  5
12B0
330
2
100
AcDbEntity
  8
HOJO
100
AcDbSpline
210
0.0
220
0.0
230
1.0
 70
     8
 71
     3
 72
    27
 73
    23
 74
     0
 42
0.0000000001
 43
0.0000000001
 40
1.115194340024553
 40
1.115194340024553
 40
1.115194340024553
 40
1.115194340024553
 40
4.11856902600964
 40
9.276492718429681
 40
13.10167008618774
 40
18.71184964488228
 40
23.95716555156286
 40
27.01619251471695
 40
39.17039536596644
 40
50.24697446103543
 40
58.53434931408898
 40
73.56157927628713
 40
85.17772611937518
 40
102.3462877726335
 40
113.633446065556
 40
121.5743876800089
 40
126.5250688064399
 40
130.7795985444939
 40
134.8620682382245
 40
140.0229493905749
 40
145.1226728683104
 40
146.9851630635393
 40
146.9851630635393
 40
146.9851630635393
 40
146.9851630635393
 10
435.5263267245766
 20
127.2238203928915
 30
0.0
 10
436.4727447211919
 20
127.5903219037606
 30
0.0
 10
439.0470028349957
 20
128.4962673141523
 30
0.0
 10
442.8644288172247
 20
128.500625786122
 30
0.0
 10
448.6000082492558
 20
128.8829101828939
 30
0.0
 10
448.0505683835856
 20
135.2036833940434
 30
0.0
 10
449.1894738617741
 20
139.2418116545429
 30
0.0
 10
451.3427375124385
 20
146.5006029002613
 30
0.0
 10
463.1836029841545
 20
140.8951418892317
 30
0.0
 10
472.7558712704905
 20
142.2981077918135
 30
0.0
 10
484.3315676945051
 20
144.1499816143347
 30
0.0
 10
495.9493322635037
 20
141.0498876658418
 30
0.0
 10
510.2989357093076
 20
145.2143256268934
 30
0.0
 10
524.0962954351691
 20
141.5344492033797
 30
0.0
 10
535.0640922006999
 20
143.4213193581505
 30
0.0
 10
545.4743174830302
 20
143.8478675363073
 30
0.0
 10
545.7187166992119
 20
137.0066880934206
 30
0.0
 10
545.3234914383704
 20
133.0175463886077
 30
0.0
 10
545.6426776586706
 20
127.5677550300894
 30
0.0
 10
551.5750475086108
 20
127.7647383521086
 30
0.0
 10
555.5162052260359
 20
127.5933007673153
 30
0.0
 10
557.5041963934984
 20
126.4459300913765
 30
0.0
 10
558.0263267245775
 20
126.1021025390034
 30
0.0
  0
LINE
  5
12B1
330
2
100
AcDbEntity
  8
CENTER
  6
CENS
100
AcDbLine
 10
563.0262197245777
 20
171.1045404572684
 30
0.0
 11
563.0262197245777
 21
193.4136285113014
 31
0.0
  0
LINE
  5
12B2
330
2
100
AcDbEntity
  8
0
100
AcDbLine
 10
436.5263267245766
 20
195.1091289842858
 30
0.0
 11
446.5263267245766
 21
184.6090829842848
 31
0.0
  0
LINE
  5
12B3
330
2
100
AcDbEntity
  8
0
100
AcDbLine
 10
446.5263267245766
 20
195.109128984284
 30
0.0
 11
436.5263267245766
 21
184.6090829842848
 31
0.0
  0
LINE
  5
12B4
330
2
100
AcDbEntity
  8
0
100
AcDbLine
 10
436.5263267245766
 20
140.6090829842848
 30
0.0
 11
446.5263267245766
 21
130.1091289842858
 31
0.0
  0
LINE
  5
12B5
330
2
100
AcDbEntity
  8
0
100
AcDbLine
 10
446.5263267245775
 20
140.6090829842848
 30
0.0
 11
436.5263267245766
 21
130.1091289842858
 31
0.0
  0
LINE
  5
12B6
330
2
100
AcDbEntity
  8
0
100
AcDbLine
 10
547.0263267245775
 20
195.1091289842858
 30
0.0
 11
557.0263267245766
 21
184.6090829842848
 31
0.0
  0
LINE
  5
12B7
330
2
100
AcDbEntity
  8
0
100
AcDbLine
 10
557.0263267245775
 20
195.1091289842858
 30
0.0
 11
547.0263267245775
 21
184.6090829842848
 31
0.0
  0
LINE
  5
12B8
330
2
100
AcDbEntity
  8
0
100
AcDbLine
 10
547.0263267245775
 20
140.6090829842848
 30
0.0
 11
557.0263267245775
 21
130.1091289842858
 31
0.0
  0
LINE
  5
12B9
330
2
100
AcDbEntity
  8
0
100
AcDbLine
 10
547.0263267245775
 20
130.1091289842858
 30
0.0
 11
557.0263267245775
 21
140.6090829842848
 31
0.0
  0
LINE
  5
12BA
330
2
100
AcDbEntity
  8
0
100
AcDbLine
 10
399.7575427279091
 20
435.3155170206625
 30
0.0
 11
399.7575427279091
 21
391.3155170206625
 31
0.0
  0
LINE
  5
12BB
330
2
100
AcDbEntity
  8
0
100
AcDbLine
 10
401.7575427279082
 20
391.3155170206625
 30
0.0
 11
399.7575427279091
 21
391.3155170206625
 31
0.0
  0
LINE
  5
12BC
330
2
100
AcDbEntity
  8
0
100
AcDbLine
 10
401.7575427279091
 20
435.3155170206625
 30
0.0
 11
399.7575427279091
 21
435.3155170206625
 31
0.0
  0
LINE
  5
12BD
330
2
100
AcDbEntity
  8
0
100
AcDbLine
 10
537.2575427279091
 20
435.3155170206625
 30
0.0
 11
537.2575427279091
 21
391.3155170206625
 31
0.0
  0
LINE
  5
12BE
330
2
100
AcDbEntity
  8
0
100
AcDbLine
 10
537.2575427279091
 20
391.3155170206625
 30
0.0
 11
524.2575427279091
 21
391.3155170206625
 31
0.0
  0
LINE
  5
12BF
330
2
100
AcDbEntity
  8
0
100
AcDbLine
 10
537.2575427279091
 20
435.3155170206625
 30
0.0
 11
524.2575427279091
 21
435.3155170206625
 31
0.0
  0
CIRCLE
  5
12C0
330
2
100
AcDbEntity
  8
HOJO
100
AcDbCircle
 10
529.2574357279092
 20
413.3155630206617
 30
0.0
 40
3.0
  0
CIRCLE
  5
12C1
330
2
100
AcDbEntity
  8
0
100
AcDbCircle
 10
529.2574357279092
 20
413.3155630206617
 30
0.0
 40
2.5
  0
LINE
  5
12C2
330
2
100
AcDbEntity
  8
CENTER
100
AcDbLine
 10
529.2574357279083
 20
418.591984613007
 30
0.0
 11
529.2574357279083
 21
408.0391414283164
 31
0.0
  0
LINE
  5
12C3
330
2
100
AcDbEntity
  8
0
100
AcDbLine
 10
702.880705416501
 20
746.2798769390754
 30
0.0
 11
658.8807054165011
 21
746.2798769390754
 31
0.0
  0
LINE
  5
12C4
330
2
100
AcDbEntity
  8
0
100
AcDbLine
 10
658.8807054165011
 20
744.2798769390754
 30
0.0
 11
658.8807054165011
 21
746.2798769390754
 31
0.0
  0
LINE
  5
12C5
330
2
100
AcDbEntity
  8
0
100
AcDbLine
 10
702.880705416501
 20
744.2798769390754
 30
0.0
 11
702.880705416501
 21
746.2798769390754
 31
0.0
  0
LINE
  5
12C6
330
2
100
AcDbEntity
  8
0
100
AcDbLine
 10
702.880705416501
 20
608.7798769390754
 30
0.0
 11
658.8807054165011
 21
608.7798769390754
 31
0.0
  0
LINE
  5
12C7
330
2
100
AcDbEntity
  8
0
100
AcDbLine
 10
658.8807054165011
 20
608.7798769390754
 30
0.0
 11
658.8807054165011
 21
621.7798769390753
 31
0.0
  0
LINE
  5
12C8
330
2
100
AcDbEntity
  8
0
100
AcDbLine
 10
702.880705416501
 20
608.7798769390754
 30
0.0
 11
702.880705416501
 21
621.7798769390736
 31
0.0
  0
CIRCLE
  5
12C9
330
2
100
AcDbEntity
  8
HOJO
100
AcDbCircle
 10
680.8807514165011
 20
616.7799839390752
 30
0.0
 40
3.0
  0
CIRCLE
  5
12CA
330
2
100
AcDbEntity
  8
0
100
AcDbCircle
 10
680.8807514165011
 20
616.7799839390752
 30
0.0
 40
2.5
  0
LINE
  5
12CB
330
2
100
AcDbEntity
  8
CENTER
100
AcDbLine
 10
686.1571730088464
 20
616.7799839390752
 30
0.0
 11
675.6043298241559
 21
616.7799839390752
 31
0.0
  0
ARC
  5
12CC
330
2
100
AcDbEntity
  8
0
100
AcDbCircle
 10
254.7267523633684
 20
413.3155630206599
 30
0.0
 40
14.0
100
AcDbArc
 50
106.6015495990172
 51
73.39845040098274
  0
LINE
  5
12CD
330
2
100
AcDbEntity
  8
0
100
AcDbLine
 10
250.7267523633684
 20
430.6155660206601
 30
0.0
 11
258.7267523633684
 21
430.6155660206601
 31
0.0
  0
LINE
  5
12CE
330
2
100
AcDbEntity
  8
0
100
AcDbLine
 10
250.7267523633684
 20
430.6155660206601
 30
0.0
 11
250.7267523633684
 21
426.7319708856573
 31
0.0
  0
LINE
  5
12CF
330
2
100
AcDbEntity
  8
0
100
AcDbLine
 10
258.7267523633684
 20
430.6155660206601
 30
0.0
 11
258.7267523633684
 21
426.7319708856573
 31
0.0
  0
ARC
  5
12D0
330
2
100
AcDbEntity
  8
0
100
AcDbCircle
 10
254.7267523633684
 20
413.3155630206599
 30
0.0
 40
15.15463467198318
100
AcDbArc
 50
105.3043129627657
 51
74.69568703723425
  0
CIRCLE
  5
12D1
330
2
100
AcDbEntity
  8
0
100
AcDbCircle
 10
254.7267523633684
 20
413.3155630206599
 30
0.0
 40
21.99995400000011
  0
ARC
  5
12D2
330
2
100
AcDbEntity
  8
0
100
AcDbCircle
 10
680.8807514165011
 20
413.3155630206599
 30
0.0
 40
14.0
100
AcDbArc
 50
106.6015495990172
 51
73.39845040098274
  0
LINE
  5
12D3
330
2
100
AcDbEntity
  8
0
100
AcDbLine
 10
676.8807514165011
 20
430.6155660206584
 30
0.0
 11
684.8807514165011
 21
430.6155660206584
 31
0.0
  0
LINE
  5
12D4
330
2
100
AcDbEntity
  8
0
100
AcDbLine
 10
676.8807514165011
 20
430.6155660206584
 30
0.0
 11
676.8807514165011
 21
426.7319708856573
 31
0.0
  0
LINE
  5
12D5
330
2
100
AcDbEntity
  8
0
100
AcDbLine
 10
684.8807514165011
 20
430.6155660206584
 30
0.0
 11
684.8807514165011
 21
426.7319708856573
 31
0.0
  0
ARC
  5
12D6
330
2
100
AcDbEntity
  8
0
100
AcDbCircle
 10
680.8807514165011
 20
413.3155630206599
 30
0.0
 40
15.15463467198318
100
AcDbArc
 50
105.3043129627657
 51
74.69568703723425
  0
CIRCLE
  5
12D7
330
2
100
AcDbEntity
  8
0
100
AcDbCircle
 10
680.8807514165011
 20
413.3155630206599
 30
0.0
 40
21.99995400000011
  0
LINE
  5
12D8
330
2
100
AcDbEntity
  8
CENTER
100
AcDbLine
 10
307.7267523633456
 20
455.9747204188148
 30
0.0
 11
307.7267523633456
 21
441.6564056225012
 31
0.0
  0
LINE
  5
12D9
330
2
100
AcDbEntity
  8
CENTER
100
AcDbLine
 10
300.5675949651888
 20
448.8155630206581
 30
0.0
 11
314.8859097615024
 21
448.8155630206581
 31
0.0
  0
LINE
  5
12DA
330
2
100
AcDbEntity
  8
CENTER
100
AcDbLine
 10
307.7267523633465
 20
370.6564056225049
 30
0.0
 11
307.7267523633465
 21
384.9747204188185
 31
0.0
  0
LINE
  5
12DB
330
2
100
AcDbEntity
  8
CENTER
100
AcDbLine
 10
300.5675949651897
 20
377.8155630206617
 30
0.0
 11
314.8859097615034
 21
377.8155630206617
 31
0.0
  0
LINE
  5
12DD
330
2
100
AcDbEntity
  8
0
100
AcDbLine
 10
404.457542727908
 20
376.5155630206606
 30
0.0
 11
406.0575427279075
 21
376.5155630206606
 31
0.0
  0
LINE
  5
12DE
330
2
100
AcDbEntity
  8
PHAS
100
AcDbLine
 10
402.4051855085965
 20
373.9351713608363
 30
0.0
 11
409.2575427279082
 21
373.8155630206617
 31
0.0
  0
LINE
  5
12DF
330
2
100
AcDbEntity
  8
PHAS
100
AcDbLine
 10
399.457542727908
 20
376.934714446306
 30
0.0
 11
399.4575427279089
 21
449.6964115950183
 31
0.0
  0
LINE
  5
12E0
330
2
100
AcDbEntity
  8
PHAS
100
AcDbLine
 10
379.7575427279082
 20
389.984702696505
 30
0.0
 11
379.7575427279082
 21
436.6464233448184
 31
0.0
  0
ARC
  5
12E1
330
2
100
AcDbEntity
  8
PHAS
100
AcDbCircle
 10
402.457542727908
 20
376.934714446306
 30
0.0
 40
3.0
100
AcDbArc
 50
180.0
 51
268.9999999999721
  0
ARC
  5
12E2
330
2
100
AcDbEntity
  8
PHAS
100
AcDbCircle
 10
398.457542727908
 20
381.4764633894844
 30
0.0
 40
1.0
100
AcDbArc
 50
0.0
 51
79.99999999999483
  0
ARC
  5
12E3
330
2
100
AcDbEntity
  8
PHAS
100
AcDbCircle
 10
384.7575427279082
 20
389.984702696505
 30
0.0
 40
5.0
100
AcDbArc
 50
180.0
 51
259.9999999999948
  0
LINE
  5
12E4
330
2
100
AcDbEntity
  8
PHAS
100
AcDbLine
 10
383.8893018395731
 20
385.0606639314443
 30
0.0
 11
398.631190905575
 21
382.4612711424967
 31
0.0
  0
ARC
  5
12E5
330
2
100
AcDbEntity
  8
PHAS
100
AcDbCircle
 10
398.457542727908
 20
445.154662651839
 30
0.0
 40
1.0
100
AcDbArc
 50
280.0000000000051
 51
0.0
  0
ARC
  5
12E6
330
2
100
AcDbEntity
  8
PHAS
100
AcDbCircle
 10
384.7575427279082
 20
436.6464233448184
 30
0.0
 40
5.0
100
AcDbArc
 50
100.0000000000051
 51
180.0
  0
LINE
  5
12E7
330
2
100
AcDbEntity
  8
PHAS
100
AcDbLine
 10
383.8893018395731
 20
441.5704621098799
 30
0.0
 11
398.631190905575
 21
444.1698548988276
 31
0.0
  0
LINE
  5
12E8
330
2
100
AcDbEntity
  8
PHAS
100
AcDbLine
 10
409.2575427279082
 20
452.8155630206617
 30
0.0
 11
409.2575427279082
 21
373.8155630206617
 31
0.0
  0
LINE
  5
12E9
330
2
100
AcDbEntity
  8
PHAS
100
AcDbLine
 10
402.4051855085965
 20
452.6959546804871
 30
0.0
 11
409.2575427279082
 21
452.8155630206617
 31
0.0
  0
ARC
  5
12EA
330
2
100
AcDbEntity
  8
PHAS
100
AcDbCircle
 10
402.457542727908
 20
449.6964115950174
 30
0.0
 40
3.0
100
AcDbArc
 50
91.00000000002784
 51
180.0
  0
LINE
  5
1329
330
2
100
AcDbEntity
  8
CENTER
100
AcDbLine
 10
1078.646810214635
 20
483.0406666852551
 30
0.0
 11
1078.646810214635
 21
343.5904593560728
 31
0.0
  0
LINE
  5
132A
330
2
100
AcDbEntity
  8
CENTER
100
AcDbLine
 10
1149.146810214634
 20
413.3155630206617
 30
0.0
 11
991.6468102146348
 21
413.3155630206617
 31
0.0
  0
LINE
  5
132B
330
2
100
AcDbEntity
  8
0
100
AcDbLine
 10
1110.146810214627
 20
353.3155630206635
 30
0.0
 11
1033.646810214635
 21
353.9831684066573
 31
0.0
  0
LINE
  5
132C
330
2
100
AcDbEntity
  8
0
100
AcDbLine
 10
1110.146810214635
 20
473.3155630206635
 30
0.0
 11
1033.646810214635
 21
472.6479576346716
 31
0.0
  0
LINE
  5
132D
330
2
100
AcDbEntity
  8
0
100
AcDbLine
 10
1035.646810214635
 20
453.6784255151703
 30
0.0
 11
1035.646810214635
 21
372.9527005261604
 31
0.0
  0
LINE
  5
132E
330
2
100
AcDbEntity
  8
0
100
AcDbLine
 10
1033.646810214635
 20
472.6479576346716
 30
0.0
 11
1033.646810214635
 21
353.9831684066573
 31
0.0
  0
LINE
  5
132F
330
2
100
AcDbEntity
  8
0
100
AcDbLine
 10
1028.646810214635
 20
468.3155630206635
 30
0.0
 11
1028.646810214635
 21
358.3155630206635
 31
0.0
  0
LINE
  5
1330
330
2
100
AcDbEntity
  8
0
100
AcDbLine
 10
1028.646810214635
 20
468.3155630206635
 30
0.0
 11
1033.646810214635
 21
468.3155630206635
 31
0.0
  0
LINE
  5
1331
330
2
100
AcDbEntity
  8
0
100
AcDbLine
 10
1028.646810214635
 20
358.3155630206635
 30
0.0
 11
1033.646810214635
 21
358.3155630206635
 31
0.0
  0
LINE
  5
1332
330
2
100
AcDbEntity
  8
0
100
AcDbLine
 10
1119.646811086784
 20
449.3761668311087
 30
0.0
 11
1119.646811086784
 21
377.2549592102147
 31
0.0
  0
LINE
  5
1333
330
2
100
AcDbEntity
  8
0
100
AcDbLine
 10
1110.146810214635
 20
473.3155630206635
 30
0.0
 11
1110.146810214635
 21
454.4314166792025
 31
0.0
  0
LINE
  5
1334
330
2
100
AcDbEntity
  8
0
100
AcDbLine
 10
1110.146810214628
 20
372.1997093621227
 30
0.0
 11
1110.146810214627
 21
353.3155630206635
 31
0.0
  0
LINE
  5
1335
330
2
100
AcDbEntity
  8
0
100
AcDbLine
 10
1114.707782162871
 20
454.3757950700761
 30
0.0
 11
1078.646810214636
 21
454.8155630206781
 31
0.0
  0
LINE
  5
1336
330
2
100
AcDbEntity
  8
0
100
AcDbLine
 10
1042.585839138552
 20
454.3757950807099
 30
0.0
 11
1078.646810214636
 21
454.8155630206635
 31
0.0
  0
LINE
  5
1337
330
2
100
AcDbEntity
  8
0
100
AcDbLine
 10
1114.707781290721
 20
372.2553309606116
 30
0.0
 11
1078.646810214636
 21
371.8155630206617
 31
0.0
  0
LINE
  5
1338
330
2
100
AcDbEntity
  8
0
100
AcDbLine
 10
1042.585839138552
 20
372.2553309606134
 30
0.0
 11
1078.646810214636
 21
371.8155630206617
 31
0.0
  0
ARC
  5
1339
330
2
100
AcDbEntity
  8
0
100
AcDbCircle
 10
1114.646811086784
 20
449.3761668311087
 30
0.0
 40
5.0
100
AcDbArc
 50
0.0
 51
89.30130561700025
  0
ARC
  5
133A
330
2
100
AcDbEntity
  8
0
100
AcDbCircle
 10
1114.646811086784
 20
377.2549592102147
 30
0.0
 40
5.0
100
AcDbArc
 50
270.6986943829997
 51
0.0
  0
ARC
  5
133B
330
2
100
AcDbEntity
  8
0
100
AcDbCircle
 10
1042.646809342488
 20
449.3761668311087
 30
0.0
 40
5.0
100
AcDbArc
 50
90.69869438299972
 51
180.0
  0
LINE
  5
133C
330
2
100
AcDbEntity
  8
0
100
AcDbLine
 10
1037.646809342488
 20
449.3761668311087
 30
0.0
 11
1037.646809342487
 21
377.2549592102147
 31
0.0
  0
ARC
  5
133D
330
2
100
AcDbEntity
  8
0
100
AcDbCircle
 10
1042.646809342487
 20
377.2549592102147
 30
0.0
 40
5.0
100
AcDbArc
 50
180.0
 51
269.3013056170002
  0
LINE
  5
133E
330
2
100
AcDbEntity
  8
0
100
AcDbLine
 10
1014.646810214635
 20
451.3841854710478
 30
0.0
 11
1014.646810214635
 21
375.2469405702756
 31
0.0
  0
ARC
  5
133F
330
2
100
AcDbEntity
  8
0
100
AcDbCircle
 10
1016.646810214635
 20
375.2469405702756
 30
0.0
 40
2.0
100
AcDbArc
 50
180.0
 51
267.9999999999963
  0
ARC
  5
1340
330
2
100
AcDbEntity
  8
0
100
AcDbCircle
 10
1016.646810214635
 20
451.3841854710478
 30
0.0
 40
2.0
100
AcDbArc
 50
92.00000000000365
 51
180.0
  0
LINE
  5
1341
330
2
100
AcDbEntity
  8
0
100
AcDbLine
 10
1026.71660920804
 20
453.7370496891214
 30
0.0
 11
1016.57701122123
 21
453.3829671250857
 31
0.0
  0
ARC
  5
1342
330
2
100
AcDbEntity
  8
0
100
AcDbCircle
 10
1026.646810214635
 20
455.7358313431593
 30
0.0
 40
2.0
100
AcDbArc
 50
272.0000000000036
 51
0.0
  0
LINE
  5
1343
330
2
100
AcDbEntity
  8
0
100
AcDbLine
 10
1026.71660920804
 20
372.894076352202
 30
0.0
 11
1016.57701122123
 21
373.2481589162377
 31
0.0
  0
ARC
  5
1344
330
2
100
AcDbEntity
  8
0
100
AcDbCircle
 10
1026.646810214635
 20
370.8952946981641
 30
0.0
 40
2.0
100
AcDbArc
 50
0.0
 51
87.99999999999636
  0
LINE
  5
1345
330
2
100
AcDbEntity
  8
0
100
AcDbLine
 10
1110.146810214628
 20
370.3199264545598
 30
0.0
 11
1037.629357143639
 21
370.9527766800308
 31
0.0
  0
LINE
  5
1346
330
2
100
AcDbEntity
  8
0
100
AcDbLine
 10
1110.146810214635
 20
456.311199586769
 30
0.0
 11
1037.629357143639
 21
455.678349361298
 31
0.0
  0
LINE
  5
1347
330
2
100
AcDbEntity
  8
0
100
AcDbLine
 10
1110.146810214633
 20
455.7614069159551
 30
0.0
 11
1078.646810214635
 21
456.0363032513611
 31
0.0
  0
LINE
  5
1348
330
2
100
AcDbEntity
  8
0
100
AcDbLine
 10
1110.146810214633
 20
370.8697191253738
 30
0.0
 11
1078.646810214635
 21
370.5948227899659
 31
0.0
  0
ARC
  5
1349
330
2
100
AcDbEntity
  8
0
100
AcDbCircle
 10
1037.646810214635
 20
453.6784255151703
 30
0.0
 40
2.0
100
AcDbArc
 50
90.49999999996549
 51
180.0
  0
ARC
  5
134A
330
2
100
AcDbEntity
  8
0
100
AcDbCircle
 10
1037.646810214635
 20
372.9527005261604
 30
0.0
 40
2.0
100
AcDbArc
 50
180.0
 51
269.4999999999824
  0
LINE
  5
134B
330
2
100
AcDbEntity
  8
0
100
AcDbLine
 10
1126.64681021464
 20
471.1889472809249
 30
0.0
 11
1126.64681021464
 21
454.8155630206599
 31
0.0
  0
LINE
  5
134C
330
2
100
AcDbEntity
  8
0
100
AcDbLine
 10
1126.64681021464
 20
441.8155630206599
 30
0.0
 11
1126.64681021464
 21
384.8155630206635
 31
0.0
  0
LINE
  5
134D
330
2
100
AcDbEntity
  8
0
100
AcDbLine
 10
1126.64681021464
 20
371.8155630206635
 30
0.0
 11
1126.64681021464
 21
355.4421787604002
 31
0.0
  0
ARC
  5
134E
330
2
100
AcDbEntity
  8
0
100
AcDbCircle
 10
1124.64681021464
 20
355.4421787604002
 30
0.0
 40
2.0
100
AcDbArc
 50
270.4999999999654
 51
0.0
  0
LINE
  5
134F
330
2
100
AcDbEntity
  8
0
100
AcDbLine
 10
1110.146810214638
 20
473.3155630206617
 30
0.0
 11
1110.146810214637
 21
454.4314166792025
 31
0.0
  0
LINE
  5
1350
330
2
100
AcDbEntity
  8
0
100
AcDbLine
 10
1110.146810214633
 20
372.1997093621227
 30
0.0
 11
1110.146810214631
 21
353.3155630206617
 31
0.0
  0
LINE
  5
1351
330
2
100
AcDbEntity
  8
0
100
AcDbLine
 10
1120.146810214636
 20
454.2456719215621
 30
0.0
 11
1120.146810214636
 21
440.3155630206598
 31
0.0
  0
ARC
  5
1352
330
2
100
AcDbEntity
  8
0
100
AcDbCircle
 10
1118.146810214636
 20
454.2456719215621
 30
0.0
 40
2.0
100
AcDbArc
 50
0.0
 51
89.49999999998238
  0
LINE
  5
1353
330
2
100
AcDbEntity
  8
0
100
AcDbLine
 10
1123.646810214636
 20
441.8155630206599
 30
0.0
 11
1123.646810214633
 21
384.8155630206635
 31
0.0
  0
ARC
  5
1354
330
2
100
AcDbEntity
  8
0
100
AcDbCircle
 10
1121.646810214637
 20
454.2151278842954
 30
0.0
 40
2.0
100
AcDbArc
 50
17.47067123731572
 51
89.49999999998238
  0
LINE
  5
1355
330
2
100
AcDbEntity
  8
0
100
AcDbLine
 10
1132.446810214641
 20
450.8155630206617
 30
0.0
 11
1130.146810214636
 21
450.8155630206617
 31
0.0
  0
LINE
  5
1356
330
2
100
AcDbEntity
  8
0
100
AcDbLine
 10
1128.64681021464
 20
368.1439901454083
 30
0.0
 11
1128.646810214641
 21
371.8155630206635
 31
0.0
  0
LINE
  5
1357
330
2
100
AcDbEntity
  8
0
100
AcDbLine
 10
1128.646810214641
 20
384.8155630206635
 30
0.0
 11
1128.64681021464
 21
441.8155630206599
 31
0.0
  0
LINE
  5
1358
330
2
100
AcDbEntity
  8
0
100
AcDbLine
 10
1128.64681021464
 20
454.8155630206599
 30
0.0
 11
1128.64681021464
 21
458.4871358959168
 31
0.0
  0
LINE
  5
1359
330
2
100
AcDbEntity
  8
0
100
AcDbLine
 10
1127.232596652267
 20
460.7297765830351
 30
0.0
 11
1128.061023777013
 21
459.9013494582884
 31
0.0
  0
LINE
  5
135A
330
2
100
AcDbEntity
  8
0
100
AcDbLine
 10
1136.146810214641
 20
450.8155630206617
 30
0.0
 11
1134.846810214641
 21
450.8155630206617
 31
0.0
  0
LINE
  5
135B
330
2
100
AcDbEntity
  8
0
100
AcDbLine
 10
1132.646810214641
 20
450.6155630206627
 30
0.0
 11
1132.446810214641
 21
450.8155630206617
 31
0.0
  0
LINE
  5
135C
330
2
100
AcDbEntity
  8
0
100
AcDbLine
 10
1134.446810214641
 20
450.1155630206628
 30
0.0
 11
1132.84681021464
 21
450.1155630206628
 31
0.0
  0
LINE
  5
135D
330
2
100
AcDbEntity
  8
0
100
AcDbLine
 10
1136.14681021464
 20
450.8155630206617
 30
0.0
 11
1137.146810214641
 21
450.2382127514717
 31
0.0
  0
LINE
  5
135E
330
2
100
AcDbEntity
  8
0
100
AcDbLine
 10
1110.146810214631
 20
353.3155630206617
 30
0.0
 11
1124.664263285637
 21
353.4422549142725
 31
0.0
  0
LINE
  5
135F
330
2
100
AcDbEntity
  8
0
100
AcDbLine
 10
1127.232596652267
 20
365.9013494582883
 30
0.0
 11
1128.061023777013
 21
366.729776583035
 31
0.0
  0
LINE
  5
1360
330
2
100
AcDbEntity
  8
0
100
AcDbLine
 10
1137.14681021464
 20
450.2382127514717
 30
0.0
 11
1137.14681021464
 21
376.3929132898517
 31
0.0
  0
LINE
  5
1361
330
2
100
AcDbEntity
  8
0
100
AcDbLine
 10
1132.446810214641
 20
375.8155630206617
 30
0.0
 11
1130.146810214636
 21
375.8155630206617
 31
0.0
  0
LINE
  5
1362
330
2
100
AcDbEntity
  8
0
100
AcDbLine
 10
1129.14681021464
 20
384.8155630206635
 30
0.0
 11
1129.14681021464
 21
441.8155630206599
 31
0.0
  0
LINE
  5
1363
330
2
100
AcDbEntity
  8
0
100
AcDbLine
 10
1136.14681021464
 20
375.8155630206617
 30
0.0
 11
1134.846810214641
 21
375.8155630206617
 31
0.0
  0
LINE
  5
1364
330
2
100
AcDbEntity
  8
0
100
AcDbLine
 10
1134.64681021464
 20
376.0155630206624
 30
0.0
 11
1134.64681021464
 21
450.6155630206627
 31
0.0
  0
LINE
  5
1365
330
2
100
AcDbEntity
  8
0
100
AcDbLine
 10
1132.64681021464
 20
376.0155630206624
 30
0.0
 11
1132.64681021464
 21
450.6155630206627
 31
0.0
  0
LINE
  5
1366
330
2
100
AcDbEntity
  8
0
100
AcDbLine
 10
1134.446810214641
 20
376.5155630206624
 30
0.0
 11
1132.84681021464
 21
376.5155630206624
 31
0.0
  0
LINE
  5
1367
330
2
100
AcDbEntity
  8
0
100
AcDbLine
 10
1132.64681021464
 20
376.0155630206624
 30
0.0
 11
1132.446810214641
 21
375.8155630206617
 31
0.0
  0
LINE
  5
1368
330
2
100
AcDbEntity
  8
0
100
AcDbLine
 10
1136.14681021464
 20
375.8155630206617
 30
0.0
 11
1137.14681021464
 21
376.3929132898517
 31
0.0
  0
ARC
  5
1369
330
2
100
AcDbEntity
  8
0
100
AcDbCircle
 10
1126.64681021464
 20
458.4871358959168
 30
0.0
 40
2.0
100
AcDbArc
 50
0.0
 51
45.00000000001871
  0
ARC
  5
136A
330
2
100
AcDbEntity
  8
0
100
AcDbCircle
 10
1128.64681021464
 20
462.1439901454084
 30
0.0
 40
2.0
100
AcDbArc
 50
180.0
 51
225.0000000000187
  0
ARC
  5
136B
330
2
100
AcDbEntity
  8
0
100
AcDbCircle
 10
1126.64681021464
 20
368.1439901454083
 30
0.0
 40
2.0
100
AcDbArc
 50
314.9999999999812
 51
0.0
  0
ARC
  5
136C
330
2
100
AcDbEntity
  8
0
100
AcDbCircle
 10
1128.64681021464
 20
364.487135895915
 30
0.0
 40
2.0
100
AcDbArc
 50
134.9999999999812
 51
180.0
  0
ARC
  5
136D
330
2
100
AcDbEntity
  8
0
100
AcDbCircle
 10
1134.846810214641
 20
376.0155630206624
 30
0.0
 40
0.2
100
AcDbArc
 50
180.0
 51
270.0
  0
ARC
  5
136E
330
2
100
AcDbEntity
  8
0
100
AcDbCircle
 10
1134.446810214641
 20
376.3155630206617
 30
0.0
 40
0.2
100
AcDbArc
 50
0.0
 51
90.0
  0
ARC
  5
136F
330
2
100
AcDbEntity
  8
0
100
AcDbCircle
 10
1132.84681021464
 20
376.3155630206617
 30
0.0
 40
0.2
100
AcDbArc
 50
90.0
 51
180.0
  0
ARC
  5
1370
330
2
100
AcDbEntity
  8
0
100
AcDbCircle
 10
1134.846810214641
 20
450.6155630206627
 30
0.0
 40
0.2
100
AcDbArc
 50
90.0
 51
180.0
  0
ARC
  5
1371
330
2
100
AcDbEntity
  8
0
100
AcDbCircle
 10
1134.446810214641
 20
450.3155630206617
 30
0.0
 40
0.2
100
AcDbArc
 50
270.0
 51
0.0
  0
ARC
  5
1372
330
2
100
AcDbEntity
  8
0
100
AcDbCircle
 10
1132.84681021464
 20
450.3155630206617
 30
0.0
 40
0.2
100
AcDbArc
 50
180.0
 51
270.0
  0
LINE
  5
1373
330
2
100
AcDbEntity
  8
0
100
AcDbLine
 10
1136.14681021464
 20
375.8155630206617
 30
0.0
 11
1136.14681021464
 21
450.8155630206617
 31
0.0
  0
LINE
  5
1374
330
2
100
AcDbEntity
  8
0
100
AcDbLine
 10
1132.446810214641
 20
375.8155630206617
 30
0.0
 11
1132.446810214641
 21
450.8155630206617
 31
0.0
  0
ARC
  5
1375
330
2
100
AcDbEntity
  8
0
100
AcDbCircle
 10
1124.64681021464
 20
471.1889472809249
 30
0.0
 40
2.0
100
AcDbArc
 50
0.0
 51
89.5000000000345
  0
LINE
  5
1376
330
2
100
AcDbEntity
  8
0
100
AcDbLine
 10
1110.146810214638
 20
473.3155630206617
 30
0.0
 11
1124.664263285637
 21
473.1888711270527
 31
0.0
  0
LINE
  5
1377
330
2
100
AcDbEntity
  8
0
100
AcDbLine
 10
1110.146810214636
 20
456.3155630206598
 30
0.0
 11
1121.664263285633
 21
456.2150517304232
 31
0.0
  0
LINE
  5
1378
330
2
100
AcDbEntity
  8
0
100
AcDbLine
 10
1120.646810214636
 20
439.8155630206598
 30
0.0
 11
1121.646810214636
 21
439.8155630206598
 31
0.0
  0
ARC
  5
1379
330
2
100
AcDbEntity
  8
0
100
AcDbCircle
 10
1120.646810214635
 20
440.3155630206598
 30
0.0
 40
0.5
100
AcDbArc
 50
179.9999999998957
 51
270.0000000000521
  0
ARC
  5
137A
330
2
100
AcDbEntity
  8
0
100
AcDbCircle
 10
1121.646810214636
 20
437.8155630206599
 30
0.0
 40
2.0
100
AcDbArc
 50
0.0
 51
90.0
  0
LINE
  5
137B
330
2
100
AcDbEntity
  8
0
100
AcDbLine
 10
1120.146810214636
 20
372.3854541197612
 30
0.0
 11
1120.146810214636
 21
386.3155630206635
 31
0.0
  0
ARC
  5
137C
330
2
100
AcDbEntity
  8
0
100
AcDbCircle
 10
1118.146810214636
 20
372.3854541197612
 30
0.0
 40
2.0
100
AcDbArc
 50
270.5000000000175
 51
0.0
  0
LINE
  5
137D
330
2
100
AcDbEntity
  8
0
100
AcDbLine
 10
1120.646810214636
 20
386.8155630206635
 30
0.0
 11
1121.646810214636
 21
386.8155630206635
 31
0.0
  0
ARC
  5
137E
330
2
100
AcDbEntity
  8
0
100
AcDbCircle
 10
1120.646810214635
 20
386.3155630206635
 30
0.0
 40
0.5
100
AcDbArc
 50
89.99999999994789
 51
180.0000000001042
  0
ARC
  5
137F
330
2
100
AcDbEntity
  8
0
100
AcDbCircle
 10
1121.646810214636
 20
388.8155630206635
 30
0.0
 40
2.0
100
AcDbArc
 50
270.0
 51
0.0
  0
LINE
  5
1380
330
2
100
AcDbEntity
  8
0
100
AcDbLine
 10
1110.146810214636
 20
370.3155630206635
 30
0.0
 11
1121.664263285629
 21
370.4160743109002
 31
0.0
  0
ARC
  5
1381
330
2
100
AcDbEntity
  8
0
100
AcDbCircle
 10
1121.646810214633
 20
372.415998157028
 30
0.0
 40
2.0
100
AcDbArc
 50
270.5000000000175
 51
342.5293287626843
  0
LINE
  5
1382
330
2
100
AcDbEntity
  8
CENTER
  6
CENS
100
AcDbLine
 10
1131.64681021464
 20
448.3155630206598
 30
0.0
 11
1105.146810214636
 21
448.3155630206598
 31
0.0
  0
LINE
  5
1383
330
2
100
AcDbEntity
  8
0
100
AcDbLine
 10
1130.146810214636
 20
442.6815884244458
 30
0.0
 11
1130.146810214636
 21
453.9495376168757
 31
0.0
  0
LINE
  5
1384
330
2
100
AcDbEntity
  8
0
100
AcDbLine
 10
1120.146810214636
 20
441.8155630206599
 30
0.0
 11
1120.146810214636
 21
454.8155630206599
 31
0.0
  0
LINE
  5
1385
330
2
100
AcDbEntity
  8
0
100
AcDbLine
 10
1122.146810214636
 20
441.8155630206599
 30
0.0
 11
1122.146810214635
 21
454.8155630206599
 31
0.0
  0
LINE
  5
1386
330
2
100
AcDbEntity
  8
0
100
AcDbLine
 10
1129.646810214636
 20
454.8155630206599
 30
0.0
 11
1130.146810214636
 21
453.9495376168757
 31
0.0
  0
LINE
  5
1387
330
2
100
AcDbEntity
  8
0
100
AcDbLine
 10
1120.146810214636
 20
454.8155630206599
 30
0.0
 11
1122.146810214636
 21
454.8155630206599
 31
0.0
  0
LINE
  5
1388
330
2
100
AcDbEntity
  8
0
100
AcDbLine
 10
1122.146810214636
 20
454.8155630206599
 30
0.0
 11
1129.646810214636
 21
454.8155630206599
 31
0.0
  0
LINE
  5
1389
330
2
100
AcDbEntity
  8
0
100
AcDbLine
 10
1129.646810214636
 20
441.8155630206599
 30
0.0
 11
1130.146810214636
 21
442.6815884244439
 31
0.0
  0
LINE
  5
138A
330
2
100
AcDbEntity
  8
0
100
AcDbLine
 10
1120.146810214636
 20
441.8155630206599
 30
0.0
 11
1122.146810214636
 21
441.8155630206599
 31
0.0
  0
LINE
  5
138B
330
2
100
AcDbEntity
  8
0
100
AcDbLine
 10
1122.146810214636
 20
441.8155630206599
 30
0.0
 11
1129.646810214636
 21
441.8155630206599
 31
0.0
  0
LINE
  5
138C
330
2
100
AcDbEntity
  8
0
100
AcDbLine
 10
1129.646810214636
 20
441.8155630206599
 30
0.0
 11
1129.646810214636
 21
454.8155630206599
 31
0.0
  0
LINE
  5
138D
330
2
100
AcDbEntity
  8
CENTER
  6
CENS
100
AcDbLine
 10
1131.64681021464
 20
378.3155630206635
 30
0.0
 11
1105.146810214636
 21
378.3155630206635
 31
0.0
  0
LINE
  5
138E
330
2
100
AcDbEntity
  8
0
100
AcDbLine
 10
1130.146810214636
 20
383.9495376168794
 30
0.0
 11
1130.146810214636
 21
372.6815884244476
 31
0.0
  0
LINE
  5
138F
330
2
100
AcDbEntity
  8
0
100
AcDbLine
 10
1120.146810214636
 20
384.8155630206635
 30
0.0
 11
1120.146810214636
 21
371.8155630206635
 31
0.0
  0
LINE
  5
1390
330
2
100
AcDbEntity
  8
0
100
AcDbLine
 10
1122.146810214636
 20
384.8155630206635
 30
0.0
 11
1122.146810214635
 21
371.8155630206635
 31
0.0
  0
LINE
  5
1391
330
2
100
AcDbEntity
  8
0
100
AcDbLine
 10
1129.646810214636
 20
371.8155630206635
 30
0.0
 11
1130.146810214636
 21
372.6815884244476
 31
0.0
  0
LINE
  5
1392
330
2
100
AcDbEntity
  8
0
100
AcDbLine
 10
1120.146810214636
 20
371.8155630206635
 30
0.0
 11
1122.146810214636
 21
371.8155630206635
 31
0.0
  0
LINE
  5
1393
330
2
100
AcDbEntity
  8
0
100
AcDbLine
 10
1122.146810214636
 20
371.8155630206635
 30
0.0
 11
1129.646810214636
 21
371.8155630206635
 31
0.0
  0
LINE
  5
1394
330
2
100
AcDbEntity
  8
0
100
AcDbLine
 10
1129.646810214636
 20
384.8155630206635
 30
0.0
 11
1130.146810214636
 21
383.9495376168794
 31
0.0
  0
LINE
  5
1395
330
2
100
AcDbEntity
  8
0
100
AcDbLine
 10
1122.146810214636
 20
384.8155630206635
 30
0.0
 11
1129.646810214636
 21
384.8155630206635
 31
0.0
  0
LINE
  5
1396
330
2
100
AcDbEntity
  8
0
100
AcDbLine
 10
1129.646810214636
 20
384.8155630206635
 30
0.0
 11
1129.646810214636
 21
371.8155630206635
 31
0.0
  0
LINE
  5
1397
330
2
100
AcDbEntity
  8
0
100
AcDbLine
 10
1122.146810214636
 20
384.8155630206635
 30
0.0
 11
1120.146810214636
 21
384.8155630206635
 31
0.0
  0
LINE
  5
1398
330
2
100
AcDbEntity
  8
0
100
AcDbLine
 10
1139.146810214634
 20
391.3156090206645
 30
0.0
 11
1139.146810214634
 21
435.3156090206645
 31
0.0
  0
LINE
  5
1399
330
2
100
AcDbEntity
  8
0
100
AcDbLine
 10
1137.146810214635
 20
435.3156090206645
 30
0.0
 11
1139.146810214634
 21
435.3156090206645
 31
0.0
  0
LINE
  5
139A
330
2
100
AcDbEntity
  8
0
100
AcDbLine
 10
1137.146810214634
 20
391.3156090206645
 30
0.0
 11
1139.146810214634
 21
391.3156090206645
 31
0.0
  0
LINE
  5
139B
330
2
100
AcDbEntity
  8
0
100
AcDbLine
 10
1001.646810214634
 20
391.3156090206645
 30
0.0
 11
1001.646810214634
 21
435.3156090206645
 31
0.0
  0
LINE
  5
139C
330
2
100
AcDbEntity
  8
0
100
AcDbLine
 10
1001.646810214634
 20
435.3156090206645
 30
0.0
 11
1014.646810214634
 21
435.3156090206645
 31
0.0
  0
LINE
  5
139D
330
2
100
AcDbEntity
  8
0
100
AcDbLine
 10
1001.646810214634
 20
391.3156090206645
 30
0.0
 11
1014.646810214634
 21
391.3156090206645
 31
0.0
  0
LINE
  5
139E
330
2
100
AcDbEntity
  8
0
100
AcDbLine
 10
1130.146810214776
 20
457.6815884244457
 30
0.0
 11
1130.146810214776
 21
468.9495376168776
 31
0.0
  0
LINE
  5
139F
330
2
100
AcDbEntity
  8
0
100
AcDbLine
 10
1129.646810214776
 20
469.8155630206617
 30
0.0
 11
1130.146810214776
 21
468.9495376168776
 31
0.0
  0
LINE
  5
13A0
330
2
100
AcDbEntity
  8
0
100
AcDbLine
 10
1126.646810214641
 20
469.8155630206617
 30
0.0
 11
1129.646810214776
 21
469.8155630206617
 31
0.0
  0
LINE
  5
13A1
330
2
100
AcDbEntity
  8
CENTER
  6
CENS
100
AcDbLine
 10
1103.386927922781
 20
463.3155630206617
 30
0.0
 11
1133.146810214776
 21
463.3155630206617
 31
0.0
  0
LINE
  5
13A2
330
2
100
AcDbEntity
  8
0
100
AcDbLine
 10
1129.646810214776
 20
456.8155630206617
 30
0.0
 11
1130.146810214776
 21
457.6815884244457
 31
0.0
  0
LINE
  5
13A3
330
2
100
AcDbEntity
  8
0
100
AcDbLine
 10
1128.64681021464
 20
456.8155630206617
 30
0.0
 11
1129.646810214776
 21
456.8155630206617
 31
0.0
  0
LINE
  5
13A4
330
2
100
AcDbEntity
  8
0
100
AcDbLine
 10
1129.646810214776
 20
456.8155630206617
 30
0.0
 11
1129.646810214776
 21
469.8155630206617
 31
0.0
  0
LINE
  5
13A5
330
2
100
AcDbEntity
  8
0
100
AcDbLine
 10
1130.146810214776
 20
368.9495376168776
 30
0.0
 11
1130.146810214776
 21
357.6815884244476
 31
0.0
  0
LINE
  5
13A6
330
2
100
AcDbEntity
  8
0
100
AcDbLine
 10
1129.646810214776
 20
356.8155630206617
 30
0.0
 11
1130.146810214776
 21
357.6815884244476
 31
0.0
  0
LINE
  5
13A7
330
2
100
AcDbEntity
  8
0
100
AcDbLine
 10
1126.646810214639
 20
356.8155630206617
 30
0.0
 11
1129.646810214776
 21
356.8155630206617
 31
0.0
  0
LINE
  5
13A8
330
2
100
AcDbEntity
  8
CENTER
  6
CENS
100
AcDbLine
 10
1103.386927922781
 20
363.3155630206617
 30
0.0
 11
1133.146810214776
 21
363.3155630206617
 31
0.0
  0
LINE
  5
13A9
330
2
100
AcDbEntity
  8
0
100
AcDbLine
 10
1128.646810214641
 20
369.8155630206617
 30
0.0
 11
1129.646810214776
 21
369.8155630206617
 31
0.0
  0
LINE
  5
13AA
330
2
100
AcDbEntity
  8
0
100
AcDbLine
 10
1129.646810214776
 20
369.8155630206617
 30
0.0
 11
1129.646810214776
 21
356.8155630206617
 31
0.0
  0
LINE
  5
13AB
330
2
100
AcDbEntity
  8
0
100
AcDbLine
 10
1129.646810214776
 20
369.8155630206617
 30
0.0
 11
1130.146810214776
 21
368.9495376168776
 31
0.0
  0
LINE
  5
13AC
330
2
100
AcDbEntity
  8
0
100
AcDbLine
 10
838.2907514165003
 20
452.2282181859814
 30
0.0
 11
838.2907514165001
 21
422.3547249141126
 31
0.0
  0
LINE
  5
13AD
330
2
100
AcDbEntity
  8
0
100
AcDbLine
 10
838.2907514165001
 20
413.3155630206599
 30
0.0
 11
838.2907514164999
 21
373.6673307425196
 31
0.0
  0
LINE
  5
13AF
330
2
100
AcDbEntity
  8
0
100
AcDbLine
 10
826.2907514165002
 20
372.3155630206599
 30
0.0
 11
836.3082044874968
 21
372.4029840092109
 31
0.0
  0
LINE
  5
13B0
330
2
100
AcDbEntity
  8
0
100
AcDbLine
 10
845.2907514165001
 20
381.4751892545597
 30
0.0
 11
864.0034084742975
 21
381.8018198984828
 31
0.0
  0
LINE
  5
13B1
330
2
100
AcDbEntity
  8
0
100
AcDbLine
 10
866.2907514165
 20
383.2631978258747
 30
0.0
 11
869.2907514165002
 21
383.3155630206599
 31
0.0
  0
LINE
  5
13B2
330
2
100
AcDbEntity
  8
0
100
AcDbLine
 10
826.2907514165002
 20
454.3155630206599
 30
0.0
 11
836.3082044874969
 21
454.2281420321097
 31
0.0
  0
LINE
  5
13B3
330
2
100
AcDbEntity
  8
0
100
AcDbLine
 10
859.1900847448817
 20
435.8155630206598
 30
0.0
 11
862.290751416501
 21
435.8155630206598
 31
0.0
  0
LINE
  5
13B6
330
2
100
AcDbEntity
  8
0
100
AcDbLine
 10
866.2907514165
 20
383.2631978258747
 30
0.0
 11
865.3573743509161
 21
382.3624050748556
 31
0.0
  0
LINE
  5
13B7
330
2
100
AcDbEntity
  8
0
100
AcDbLine
 10
845.2907514165001
 20
445.15593678676
 30
0.0
 11
864.2893700638564
 21
444.8243146647241
 31
0.0
  0
LINE
  5
13B8
330
2
100
AcDbEntity
  8
0
100
AcDbLine
 10
866.2907514165
 20
443.367928215445
 30
0.0
 11
869.2907514165002
 21
443.3155630206599
 31
0.0
  0
LINE
  5
13B9
330
2
100
AcDbEntity
  8
0
100
AcDbLine
 10
866.2907514165
 20
443.367928215445
 30
0.0
 11
865.3573743509161
 21
444.2687209664641
 31
0.0
  0
LINE
  5
13BA
330
2
100
AcDbEntity
  8
0
100
AcDbLine
 10
869.2907514165002
 20
383.3155630206599
 30
0.0
 11
869.2907514165002
 21
443.3155630206599
 31
0.0
  0
LINE
  5
13BB
330
2
100
AcDbEntity
  8
0
100
AcDbLine
 10
866.2907514165
 20
443.367928215445
 30
0.0
 11
866.2907514165
 21
439.812843622744
 31
0.0
  0
LINE
  5
13BC
330
2
100
AcDbEntity
  8
CENTER
100
AcDbLine
 10
1113.295042492776
 20
386.3267755778008
 30
0.0
 11
1113.295042492776
 21
371.0078859072456
 31
0.0
  0
INSERT
  5
13BD
330
2
100
AcDbEntity
  8
0
100
AcDbBlockReference
  2
A$C79D50562
 10
1043.998577936494
 20
378.6673307425236
 30
0.0
  0
ARC
  5
13BE
330
2
100
AcDbEntity
  8
0
100
AcDbCircle
 10
1042.646810214635
 20
377.315563020664
 30
0.0
 40
5.0
100
AcDbArc
 50
180.0
 51
270.0
  0
ARC
  5
13BF
330
2
100
AcDbEntity
  8
0
100
AcDbCircle
 10
1114.646810214635
 20
377.315563020664
 30
0.0
 40
5.0
100
AcDbArc
 50
270.0
 51
0.0
  0
LINE
  5
13C0
330
2
100
AcDbEntity
  8
CENTER
100
AcDbLine
 10
1105.635597657499
 20
447.9637952988043
 30
0.0
 11
1120.954487328054
 21
447.9637952988043
 31
0.0
  0
LINE
  5
13C1
330
2
100
AcDbEntity
  8
0
100
AcDbLine
 10
1042.646810214635
 20
454.315563020664
 30
0.0
 11
1114.646810214635
 21
454.315563020664
 31
0.0
  0
ARC
  5
13C2
330
2
100
AcDbEntity
  8
0
100
AcDbCircle
 10
1103.646810214635
 20
438.315563020664
 30
0.0
 40
5.0
100
AcDbArc
 50
0.0
 51
90.0
  0
ARC
  5
13C3
330
2
100
AcDbEntity
  8
0
100
AcDbCircle
 10
1103.646810214635
 20
438.315563020664
 30
0.0
 40
6.499999999999829
100
AcDbArc
 50
0.0
 51
90.0
  0
LINE
  5
13C4
330
2
100
AcDbEntity
  8
CENTER
100
AcDbLine
 10
1105.635597657499
 20
378.6673307425236
 30
0.0
 11
1120.954487328054
 21
378.6673307425236
 31
0.0
  0
ARC
  5
13C5
330
2
100
AcDbEntity
  8
0
100
AcDbCircle
 10
1103.646810214635
 20
388.315563020664
 30
0.0
 40
5.0
100
AcDbArc
 50
270.0
 51
0.0
  0
ARC
  5
13C6
330
2
100
AcDbEntity
  8
0
100
AcDbCircle
 10
1103.646810214635
 20
388.315563020664
 30
0.0
 40
6.499999999999829
100
AcDbArc
 50
270.0
 51
0.0
  0
LINE
  5
13C7
330
2
100
AcDbEntity
  8
0
100
AcDbLine
 10
1108.646810214635
 20
438.315563020664
 30
0.0
 11
1108.646810214635
 21
388.315563020664
 31
0.0
  0
LINE
  5
13C8
330
2
100
AcDbEntity
  8
0
100
AcDbLine
 10
1048.646810214635
 20
438.315563020664
 30
0.0
 11
1048.646810214635
 21
388.315563020664
 31
0.0
  0
LINE
  5
13C9
330
2
100
AcDbEntity
  8
0
100
AcDbLine
 10
1047.146810214635
 20
438.315563020664
 30
0.0
 11
1047.146810214635
 21
388.315563020664
 31
0.0
  0
CIRCLE
  5
13CA
330
2
100
AcDbEntity
  8
0
100
AcDbCircle
 10
1078.646810214635
 20
413.315563020664
 30
0.0
 40
25.00000000482703
  0
LINE
  5
13CB
330
2
100
AcDbEntity
  8
0
100
AcDbLine
 10
1103.646810214635
 20
383.315563020664
 30
0.0
 11
1053.646810214635
 21
383.315563020664
 31
0.0
  0
LINE
  5
13CC
330
2
100
AcDbEntity
  8
0
100
AcDbLine
 10
1103.646810214635
 20
381.815563020664
 30
0.0
 11
1053.646810214635
 21
381.815563020664
 31
0.0
  0
ARC
  5
13CD
330
2
100
AcDbEntity
  8
0
100
AcDbCircle
 10
1053.646810214635
 20
388.315563020664
 30
0.0
 40
5.0
100
AcDbArc
 50
180.0
 51
270.0
  0
ARC
  5
13CE
330
2
100
AcDbEntity
  8
0
100
AcDbCircle
 10
1053.646810214635
 20
388.315563020664
 30
0.0
 40
6.499999999999829
100
AcDbArc
 50
180.0
 51
270.0
  0
LINE
  5
13CF
330
2
100
AcDbEntity
  8
CENTER
100
AcDbLine
 10
1053.898072873107
 20
392.023108401636
 30
0.0
 11
1053.898072873107
 21
385.1105429566334
 31
0.0
  0
LINE
  5
13D0
330
2
100
AcDbEntity
  8
CENTER
100
AcDbLine
 10
1050.441790150606
 20
388.5668256791351
 30
0.0
 11
1057.354355595607
 21
388.5668256791351
 31
0.0
  0
LINE
  5
13D1
330
2
100
AcDbEntity
  8
CENTER
100
AcDbLine
 10
1099.939264833665
 20
388.5668256791351
 30
0.0
 11
1106.851830278665
 21
388.5668256791351
 31
0.0
  0
LINE
  5
13D2
330
2
100
AcDbEntity
  8
CENTER
100
AcDbLine
 10
1103.395547556165
 20
392.0231084016351
 30
0.0
 11
1103.395547556165
 21
385.1105429566334
 31
0.0
  0
LINE
  5
13D3
330
2
100
AcDbEntity
  8
0
100
AcDbLine
 10
1053.646810214635
 20
443.3155630206639
 30
0.0
 11
1103.646810214635
 21
443.3155630206639
 31
0.0
  0
LINE
  5
13D4
330
2
100
AcDbEntity
  8
0
100
AcDbLine
 10
1053.646810214635
 20
444.815563020664
 30
0.0
 11
1103.646810214635
 21
444.815563020664
 31
0.0
  0
ARC
  5
13D5
330
2
100
AcDbEntity
  8
0
100
AcDbCircle
 10
1042.646810214635
 20
449.315563020664
 30
0.0
 40
5.0
100
AcDbArc
 50
180.0
 51
180.0
  0
LINE
  5
13D6
330
2
100
AcDbEntity
  8
CENTER
100
AcDbLine
 10
1036.339133101217
 20
447.9637952988043
 30
0.0
 11
1051.658022771773
 21
447.9637952988043
 31
0.0
  0
LINE
  5
13D7
330
2
100
AcDbEntity
  8
CENTER
100
AcDbLine
 10
1043.998577936494
 20
455.6232401340823
 30
0.0
 11
1043.998577936494
 21
440.3043504635272
 31
0.0
  0
ARC
  5
13D8
330
2
100
AcDbEntity
  8
0
100
AcDbCircle
 10
1053.646810214635
 20
438.315563020664
 30
0.0
 40
5.0
100
AcDbArc
 50
90.0
 51
180.0
  0
ARC
  5
13D9
330
2
100
AcDbEntity
  8
0
100
AcDbCircle
 10
1053.646810214635
 20
438.315563020664
 30
0.0
 40
6.499999999999829
100
AcDbArc
 50
90.0
 51
180.0
  0
LINE
  5
13DA
330
2
100
AcDbEntity
  8
CENTER
100
AcDbLine
 10
1053.898072873107
 20
441.5205830846946
 30
0.0
 11
1053.898072873107
 21
434.6080176396919
 31
0.0
  0
LINE
  5
13DB
330
2
100
AcDbEntity
  8
CENTER
100
AcDbLine
 10
1050.441790150606
 20
438.0643003621927
 30
0.0
 11
1057.354355595607
 21
438.0643003621927
 31
0.0
  0
LINE
  5
13DC
330
2
100
AcDbEntity
  8
CENTER
100
AcDbLine
 10
1103.395547556165
 20
441.5205830846946
 30
0.0
 11
1103.395547556165
 21
434.6080176396919
 31
0.0
  0
LINE
  5
13DD
330
2
100
AcDbEntity
  8
CENTER
100
AcDbLine
 10
1099.939264833665
 20
438.0643003621927
 30
0.0
 11
1106.851830278665
 21
438.0643003621927
 31
0.0
  0
LINE
  5
13DE
330
2
100
AcDbEntity
  8
0
100
AcDbLine
 10
1110.146810214635
 20
438.315563020664
 30
0.0
 11
1110.146810214635
 21
388.315563020664
 31
0.0
  0
LINE
  5
13DF
330
2
100
AcDbEntity
  8
CENTER
100
AcDbLine
 10
1113.295042492776
 20
455.6232401340823
 30
0.0
 11
1113.295042492776
 21
440.3043504635272
 31
0.0
  0
ARC
  5
13E0
330
2
100
AcDbEntity
  8
0
100
AcDbCircle
 10
1114.646810214635
 20
449.315563020664
 30
0.0
 40
5.0
100
AcDbArc
 50
0.0
 51
90.0
  0
CIRCLE
  5
13E1
330
2
100
AcDbEntity
  8
CENTER
100
AcDbCircle
 10
1078.646810214635
 20
413.315563020664
 30
0.0
 40
35.00000000000003
  0
LINE
  5
13E2
330
2
100
AcDbEntity
  8
HIDS
100
AcDbLine
 10
1062.396810214635
 20
444.815563020664
 30
0.0
 11
1062.396810214635
 21
428.8779375181504
 31
0.0
  0
LINE
  5
13E3
330
2
100
AcDbEntity
  8
HIDS
100
AcDbLine
 10
1073.896810214635
 20
444.815563020664
 30
0.0
 11
1073.896810214635
 21
435.3084596011514
 31
0.0
  0
LINE
  5
13E4
330
2
100
AcDbEntity
  8
0
100
AcDbLine
 10
1114.646810214635
 20
372.3155630206639
 30
0.0
 11
1042.646810214635
 21
372.3155630206639
 31
0.0
  0
LINE
  5
13E5
330
2
100
AcDbEntity
  8
0
100
AcDbLine
 10
838.2907514165028
 20
646.1316446609339
 30
0.0
 11
838.2907514165029
 21
725.4281092172154
 31
0.0
  0
LINE
  5
13E7
330
2
100
AcDbEntity
  8
0
100
AcDbLine
 10
826.2907514165028
 20
726.7798769390751
 30
0.0
 11
836.3082044874998
 21
726.6924559505239
 31
0.0
  0
LINE
  5
13E8
330
2
100
AcDbEntity
  8
0
100
AcDbLine
 10
845.2907514165028
 20
717.6202507051753
 30
0.0
 11
864.0034084743001
 21
717.2936200612521
 31
0.0
  0
LINE
  5
13E9
330
2
100
AcDbEntity
  8
0
100
AcDbLine
 10
866.2907514165029
 20
715.8322421338594
 30
0.0
 11
869.2907514165028
 21
715.7798769390751
 31
0.0
  0
LINE
  5
13EA
330
2
100
AcDbEntity
  8
0
100
AcDbLine
 10
826.2907514165028
 20
644.7798769390751
 30
0.0
 11
836.3082044874996
 21
644.8672979276254
 31
0.0
  0
LINE
  5
13ED
330
2
100
AcDbEntity
  8
0
100
AcDbLine
 10
866.2907514165029
 20
715.8322421338594
 30
0.0
 11
865.3573743509193
 21
716.7330348848789
 31
0.0
  0
LINE
  5
13EE
330
2
100
AcDbEntity
  8
0
100
AcDbLine
 10
845.2907514165028
 20
653.9395031729741
 30
0.0
 11
864.0034084743003
 21
654.2661338168982
 31
0.0
  0
LINE
  5
13EF
330
2
100
AcDbEntity
  8
0
100
AcDbLine
 10
866.2907514165029
 20
655.72751174429
 30
0.0
 11
869.2907514165028
 21
655.7798769390752
 31
0.0
  0
LINE
  5
13F0
330
2
100
AcDbEntity
  8
0
100
AcDbLine
 10
866.2907514165029
 20
655.72751174429
 30
0.0
 11
865.3573743509189
 21
654.826718993271
 31
0.0
  0
LINE
  5
13F1
330
2
100
AcDbEntity
  8
0
100
AcDbLine
 10
869.2907514165028
 20
715.7798769390751
 30
0.0
 11
869.2907514165028
 21
655.7798769390752
 31
0.0
  0
LINE
  5
13F2
330
2
100
AcDbEntity
  8
0
100
AcDbLine
 10
866.2907514165029
 20
655.72751174429
 30
0.0
 11
866.2907514165029
 21
715.8322421338594
 31
0.0
  0
CIRCLE
  5
13F3
330
2
100
AcDbEntity
  8
0
100
AcDbCircle
 10
1113.498224568513
 20
447.9637952988043
 30
0.0
 40
5.0
  0
CIRCLE
  5
13F4
330
2
100
AcDbEntity
  8
0
100
AcDbCircle
 10
1113.498224568513
 20
447.9637952988043
 30
0.0
 40
4.307179676972423
  0
CIRCLE
  5
13F5
330
2
100
AcDbEntity
  8
0
100
AcDbCircle
 10
1113.498224568513
 20
447.9637952988043
 30
0.0
 40
2.886751345948113
  0
LWPOLYLINE
  5
13F6
330
2
100
AcDbEntity
  8
0
100
AcDbPolyline
 90
        6
 70
     1
 43
0.0
 10
1115.998224568513
 20
449.4071709717784
 10
1113.498224568513
 20
450.8505466447524
 10
1110.998224568513
 20
449.4071709717784
 10
1110.998224568513
 20
446.5204196258302
 10
1113.498224568513
 20
445.0770439528561
 10
1115.998224568513
 20
446.5204196258302
  0
CIRCLE
  5
13F7
330
2
100
AcDbEntity
  8
0
100
AcDbCircle
 10
1113.498224568513
 20
378.6673307425236
 30
0.0
 40
5.0
  0
CIRCLE
  5
13F8
330
2
100
AcDbEntity
  8
0
100
AcDbCircle
 10
1113.498224568513
 20
378.6673307425236
 30
0.0
 40
4.307179676972423
  0
CIRCLE
  5
13F9
330
2
100
AcDbEntity
  8
0
100
AcDbCircle
 10
1113.498224568513
 20
378.6673307425236
 30
0.0
 40
2.886751345948113
  0
LWPOLYLINE
  5
13FA
330
2
100
AcDbEntity
  8
0
100
AcDbPolyline
 90
        6
 70
     1
 43
0.0
 10
1115.998224568513
 20
380.1107064154977
 10
1113.498224568513
 20
381.5540820884718
 10
1110.998224568513
 20
380.1107064154977
 10
1110.998224568513
 20
377.2239550695496
 10
1113.498224568513
 20
375.7805793965755
 10
1115.998224568513
 20
377.2239550695496
  0
CIRCLE
  5
13FB
330
2
100
AcDbEntity
  8
0
100
AcDbCircle
 10
1043.998577936494
 20
378.6673307425236
 30
0.0
 40
5.0
  0
CIRCLE
  5
13FC
330
2
100
AcDbEntity
  8
0
100
AcDbCircle
 10
1043.998577936494
 20
378.6673307425236
 30
0.0
 40
4.307179676972423
  0
CIRCLE
  5
13FD
330
2
100
AcDbEntity
  8
0
100
AcDbCircle
 10
1043.998577936494
 20
378.6673307425236
 30
0.0
 40
2.886751345948113
  0
LWPOLYLINE
  5
13FE
330
2
100
AcDbEntity
  8
0
100
AcDbPolyline
 90
        6
 70
     1
 43
0.0
 10
1046.498577936494
 20
380.1107064154977
 10
1043.998577936494
 20
381.5540820884718
 10
1041.498577936494
 20
380.1107064154977
 10
1041.498577936494
 20
377.2239550695496
 10
1043.998577936494
 20
375.7805793965755
 10
1046.498577936494
 20
377.2239550695496
  0
CIRCLE
  5
13FF
330
2
100
AcDbEntity
  8
0
100
AcDbCircle
 10
1043.998577936494
 20
447.9637952988043
 30
0.0
 40
5.0
  0
CIRCLE
  5
1400
330
2
100
AcDbEntity
  8
0
100
AcDbCircle
 10
1043.998577936494
 20
447.9637952988043
 30
0.0
 40
4.307179676972423
  0
CIRCLE
  5
1401
330
2
100
AcDbEntity
  8
0
100
AcDbCircle
 10
1043.998577936494
 20
447.9637952988043
 30
0.0
 40
2.886751345948113
  0
LWPOLYLINE
  5
1402
330
2
100
AcDbEntity
  8
0
100
AcDbPolyline
 90
        6
 70
     1
 43
0.0
 10
1046.498577936494
 20
449.4071709717784
 10
1043.998577936494
 20
450.8505466447524
 10
1041.498577936494
 20
449.4071709717784
 10
1041.498577936494
 20
446.5204196258302
 10
1043.998577936494
 20
445.0770439528561
 10
1046.498577936494
 20
446.5204196258302
  0
LINE
  5
1403
330
2
100
AcDbEntity
  8
CENTER
  6
CENS
100
AcDbLine
 10
823.2907514165001
 20
447.9637952988002
 30
0.0
 11
850.2907514165
 21
447.9637952988002
 31
0.0
  0
LINE
  5
1404
330
2
100
AcDbEntity
  8
0
100
AcDbLine
 10
844.8907514165005
 20
442.9637952988001
 30
0.0
 11
844.8907514165005
 21
452.9637952988002
 31
0.0
  0
LINE
  5
1405
330
2
100
AcDbEntity
  8
0
100
AcDbLine
 10
845.2907514165001
 20
452.2709749757729
 30
0.0
 11
845.2907514165001
 21
443.6566156218283
 31
0.0
  0
LINE
  5
1406
330
2
100
AcDbEntity
  8
0
100
AcDbLine
 10
839.2907514165001
 20
442.9637952988001
 30
0.0
 11
839.2907514165001
 21
452.9637952988002
 31
0.0
  0
LINE
  5
1407
330
2
100
AcDbEntity
  8
0
100
AcDbLine
 10
839.2907514165001
 20
452.9637952988002
 30
0.0
 11
838.2907514165001
 21
452.9637952988002
 31
0.0
  0
LINE
  5
1408
330
2
100
AcDbEntity
  8
0
100
AcDbLine
 10
838.2907514165001
 20
452.9637952988002
 30
0.0
 11
838.2907514165001
 21
442.9637952988001
 31
0.0
  0
LINE
  5
1409
330
2
100
AcDbEntity
  8
0
100
AcDbLine
 10
838.2907514165001
 20
442.9637952988001
 30
0.0
 11
839.2907514165001
 21
442.9637952988001
 31
0.0
  0
LINE
  5
140A
330
2
100
AcDbEntity
  8
0
100
AcDbLine
 10
839.2907514165001
 20
442.9637952988001
 30
0.0
 11
839.2907514165001
 21
452.9637952988002
 31
0.0
  0
LINE
  5
140B
330
2
100
AcDbEntity
  8
0
100
AcDbLine
 10
844.8907514165005
 20
442.9637952988001
 30
0.0
 11
839.2907514165001
 21
442.9637952988001
 31
0.0
  0
LINE
  5
140C
330
2
100
AcDbEntity
  8
0
100
AcDbLine
 10
839.2907514165001
 20
452.9637952988002
 30
0.0
 11
844.8907514165005
 21
452.9637952988002
 31
0.0
  0
LINE
  5
140D
330
2
100
AcDbEntity
  8
0
100
AcDbLine
 10
844.8907514165005
 20
452.9637952988002
 30
0.0
 11
845.2907514165001
 21
452.2709749757729
 31
0.0
  0
LINE
  5
140E
330
2
100
AcDbEntity
  8
0
100
AcDbLine
 10
844.8907514165005
 20
442.9637952988001
 30
0.0
 11
845.2907514165001
 21
443.6566156218283
 31
0.0
  0
LINE
  5
140F
330
2
100
AcDbEntity
  8
CENTER
  6
CENS
100
AcDbLine
 10
823.2907514165001
 20
378.6673307425195
 30
0.0
 11
850.2907514165
 21
378.6673307425195
 31
0.0
  0
LINE
  5
1410
330
2
100
AcDbEntity
  8
0
100
AcDbLine
 10
844.8907514165005
 20
383.6673307425196
 30
0.0
 11
844.8907514165005
 21
373.6673307425196
 31
0.0
  0
LINE
  5
1411
330
2
100
AcDbEntity
  8
0
100
AcDbLine
 10
845.2907514165001
 20
374.3601510655468
 30
0.0
 11
845.2907514165001
 21
382.9745104194914
 31
0.0
  0
LINE
  5
1412
330
2
100
AcDbEntity
  8
0
100
AcDbLine
 10
839.2907514165001
 20
383.6673307425196
 30
0.0
 11
839.2907514165001
 21
373.6673307425196
 31
0.0
  0
LINE
  5
1413
330
2
100
AcDbEntity
  8
0
100
AcDbLine
 10
839.2907514165001
 20
373.6673307425196
 30
0.0
 11
838.2907514164999
 21
373.6673307425196
 31
0.0
  0
LINE
  5
1414
330
2
100
AcDbEntity
  8
0
100
AcDbLine
 10
838.2907514165001
 20
383.6673307425196
 30
0.0
 11
839.2907514165001
 21
383.6673307425196
 31
0.0
  0
LINE
  5
1415
330
2
100
AcDbEntity
  8
0
100
AcDbLine
 10
839.2907514165001
 20
383.6673307425196
 30
0.0
 11
839.2907514165001
 21
373.6673307425196
 31
0.0
  0
LINE
  5
1416
330
2
100
AcDbEntity
  8
0
100
AcDbLine
 10
844.8907514165005
 20
383.6673307425196
 30
0.0
 11
839.2907514165001
 21
383.6673307425196
 31
0.0
  0
LINE
  5
1417
330
2
100
AcDbEntity
  8
0
100
AcDbLine
 10
839.2907514165001
 20
373.6673307425196
 30
0.0
 11
844.8907514165005
 21
373.6673307425196
 31
0.0
  0
LINE
  5
1418
330
2
100
AcDbEntity
  8
0
100
AcDbLine
 10
844.8907514165005
 20
373.6673307425186
 30
0.0
 11
845.2907514165001
 21
374.3601510655468
 31
0.0
  0
LINE
  5
1419
330
2
100
AcDbEntity
  8
0
100
AcDbLine
 10
844.8907514165005
 20
383.6673307425196
 30
0.0
 11
845.2907514165001
 21
382.9745104194914
 31
0.0
  0
LINE
  5
141A
330
2
100
AcDbEntity
  8
CENTER
  6
CENS
100
AcDbLine
 10
823.2907514165029
 20
651.1316446609339
 30
0.0
 11
850.2907514165029
 21
651.1316446609339
 31
0.0
  0
LINE
  5
141B
330
2
100
AcDbEntity
  8
0
100
AcDbLine
 10
844.8907514165032
 20
656.1316446609339
 30
0.0
 11
844.8907514165032
 21
646.1316446609339
 31
0.0
  0
LINE
  5
141C
330
2
100
AcDbEntity
  8
0
100
AcDbLine
 10
845.2907514165028
 20
646.8244649839611
 30
0.0
 11
845.2907514165028
 21
655.4388243379066
 31
0.0
  0
LINE
  5
141D
330
2
100
AcDbEntity
  8
0
100
AcDbLine
 10
839.2907514165028
 20
656.1316446609339
 30
0.0
 11
839.2907514165028
 21
646.1316446609339
 31
0.0
  0
LINE
  5
141E
330
2
100
AcDbEntity
  8
0
100
AcDbLine
 10
839.2907514165028
 20
646.1316446609339
 30
0.0
 11
838.2907514165028
 21
646.1316446609339
 31
0.0
  0
LINE
  5
141F
330
2
100
AcDbEntity
  8
0
100
AcDbLine
 10
838.2907514165028
 20
656.1316446609339
 30
0.0
 11
839.2907514165028
 21
656.1316446609339
 31
0.0
  0
LINE
  5
1420
330
2
100
AcDbEntity
  8
0
100
AcDbLine
 10
839.2907514165028
 20
656.1316446609339
 30
0.0
 11
839.2907514165028
 21
646.1316446609339
 31
0.0
  0
LINE
  5
1421
330
2
100
AcDbEntity
  8
0
100
AcDbLine
 10
844.8907514165032
 20
656.1316446609339
 30
0.0
 11
839.2907514165028
 21
656.1316446609339
 31
0.0
  0
LINE
  5
1422
330
2
100
AcDbEntity
  8
0
100
AcDbLine
 10
839.2907514165028
 20
646.1316446609339
 30
0.0
 11
844.8907514165032
 21
646.1316446609339
 31
0.0
  0
LINE
  5
1423
330
2
100
AcDbEntity
  8
0
100
AcDbLine
 10
844.8907514165032
 20
646.1316446609339
 30
0.0
 11
845.2907514165028
 21
646.8244649839611
 31
0.0
  0
LINE
  5
1424
330
2
100
AcDbEntity
  8
CENTER
  6
CENS
100
AcDbLine
 10
823.2907514165029
 20
720.4281092172155
 30
0.0
 11
850.2907514165029
 21
720.4281092172155
 31
0.0
  0
LINE
  5
1425
330
2
100
AcDbEntity
  8
0
100
AcDbLine
 10
844.8907514165032
 20
715.4281092172155
 30
0.0
 11
844.8907514165032
 21
725.4281092172154
 31
0.0
  0
LINE
  5
1426
330
2
100
AcDbEntity
  8
0
100
AcDbLine
 10
845.2907514165028
 20
724.7352888941882
 30
0.0
 11
845.2907514165028
 21
716.1209295402436
 31
0.0
  0
LINE
  5
1427
330
2
100
AcDbEntity
  8
0
100
AcDbLine
 10
839.2907514165028
 20
715.4281092172155
 30
0.0
 11
839.2907514165028
 21
725.4281092172154
 31
0.0
  0
LINE
  5
1428
330
2
100
AcDbEntity
  8
0
100
AcDbLine
 10
839.2907514165028
 20
725.4281092172154
 30
0.0
 11
838.2907514165029
 21
725.4281092172154
 31
0.0
  0
LINE
  5
1429
330
2
100
AcDbEntity
  8
0
100
AcDbLine
 10
838.2907514165028
 20
715.4281092172155
 30
0.0
 11
839.2907514165028
 21
715.4281092172155
 31
0.0
  0
LINE
  5
142A
330
2
100
AcDbEntity
  8
0
100
AcDbLine
 10
839.2907514165028
 20
715.4281092172155
 30
0.0
 11
839.2907514165028
 21
725.4281092172154
 31
0.0
  0
LINE
  5
142B
330
2
100
AcDbEntity
  8
0
100
AcDbLine
 10
844.8907514165032
 20
715.4281092172155
 30
0.0
 11
839.2907514165028
 21
715.4281092172155
 31
0.0
  0
LINE
  5
142C
330
2
100
AcDbEntity
  8
0
100
AcDbLine
 10
839.2907514165028
 20
725.4281092172154
 30
0.0
 11
844.8907514165032
 21
725.4281092172154
 31
0.0
  0
LINE
  5
142D
330
2
100
AcDbEntity
  8
0
100
AcDbLine
 10
844.8907514165032
 20
725.4281092172163
 30
0.0
 11
845.2907514165028
 21
724.7352888941882
 31
0.0
  0
LINE
  5
142E
330
2
100
AcDbEntity
  8
0
100
AcDbLine
 10
844.8907514165032
 20
715.4281092172155
 30
0.0
 11
845.2907514165028
 21
716.1209295402436
 31
0.0
  0
LINE
  5
142F
330
2
100
AcDbEntity
  8
0
100
AcDbLine
 10
845.2907514165028
 20
655.4388243379066
 30
0.0
 11
844.8907514165032
 21
656.1316446609339
 31
0.0
  0
LINE
  5
1430
330
2
100
AcDbEntity
  8
0
100
AcDbLine
 10
859.7907408074481
 20
420.3155630206608
 30
0.0
 11
849.7907408074482
 21
420.3155630206608
 31
0.0
  0
LINE
  5
1431
330
2
100
AcDbEntity
  8
0
100
AcDbLine
 10
859.7907408074481
 20
420.3155630206599
 30
0.0
 11
859.7907408074481
 21
413.3155630206599
 31
0.0
  0
LINE
  5
1432
330
2
100
AcDbEntity
  8
0
100
AcDbLine
 10
861.7907408074481
 20
421.470263559039
 30
0.0
 11
859.7907408074481
 21
420.3155630206599
 31
0.0
  0
LINE
  5
1433
330
2
100
AcDbEntity
  8
0
100
AcDbLine
 10
832.7907408074482
 20
420.5655630206599
 30
0.0
 11
832.7907408074482
 21
413.3155630206599
 31
0.0
  0
LINE
  5
1434
330
2
100
AcDbEntity
  8
0
100
AcDbLine
 10
859.7907408074481
 20
420.3155630206599
 30
0.0
 11
849.7907408074482
 21
420.3155630206599
 31
0.0
  0
LINE
  5
1435
330
2
100
AcDbEntity
  8
0
100
AcDbLine
 10
854.7029549861219
 20
428.0655630206599
 30
0.0
 11
861.7907408074481
 21
428.0655630206599
 31
0.0
  0
LINE
  5
1436
330
2
100
AcDbEntity
  8
0
100
AcDbLine
 10
861.7907408074481
 20
428.0655630206599
 30
0.0
 11
861.7907408074481
 21
413.3155630206599
 31
0.0
  0
LINE
  5
1437
330
2
100
AcDbEntity
  8
0
100
AcDbLine
 10
847.7907408074482
 20
423.6002442073829
 30
0.0
 11
847.7907408074482
 21
413.3155630206599
 31
0.0
  0
LINE
  5
1438
330
2
100
AcDbEntity
  8
0
100
AcDbLine
 10
849.7907408074482
 20
424.1256443548151
 30
0.0
 11
849.7907408074482
 21
413.3155630206599
 31
0.0
  0
LINE
  5
1439
330
2
100
AcDbEntity
  8
0
100
AcDbLine
 10
840.7907408074482
 20
420.5655630206599
 30
0.0
 11
832.7907408074482
 21
420.5655630206599
 31
0.0
  0
LINE
  5
143A
330
2
100
AcDbEntity
  8
0
100
AcDbLine
 10
840.7907408074482
 20
413.3155630206599
 30
0.0
 11
840.7907408074482
 21
420.5655630206599
 31
0.0
  0
LINE
  5
143B
330
2
100
AcDbEntity
  8
0
100
AcDbLine
 10
847.7907408074482
 20
420.3155630206599
 30
0.0
 11
840.7907408074482
 21
420.3155630206599
 31
0.0
  0
LINE
  5
143C
330
2
100
AcDbEntity
  8
0
100
AcDbLine
 10
829.0379640577159
 20
413.3155630206599
 30
0.0
 11
832.7907408074482
 21
419.8155630206598
 31
0.0
  0
LINE
  5
143D
330
2
100
AcDbEntity
  8
0
100
AcDbLine
 10
862.2907514165001
 20
438.3155630206599
 30
0.0
 11
869.2907514165002
 21
438.3155630206599
 31
0.0
  0
LINE
  5
143E
330
2
100
AcDbEntity
  8
0
100
AcDbLine
 10
862.2907514165001
 20
438.3155630206599
 30
0.0
 11
862.2907514165001
 21
413.3155630206599
 31
0.0
  0
SPLINE
  5
143F
330
2
100
AcDbEntity
  8
HOJO
100
AcDbSpline
210
0.0
220
0.0
230
1.0
 70
     8
 71
     3
 72
    20
 73
    16
 74
     0
 42
0.0000000001
 43
0.0000000001
 40
0.0
 40
0.0
 40
0.0
 40
0.0
 40
5.311626210389601
 40
7.954639692924123
 40
10.24579206730457
 40
14.18281221953265
 40
18.83794314114633
 40
26.54246833222011
 40
31.19712602527561
 40
34.95638115537181
 40
42.12378530287149
 40
45.78553747213095
 40
50.20353689726185
 40
53.26513166942802
 40
54.23175360515262
 40
54.23175360515262
 40
54.23175360515262
 40
54.23175360515262
 10
869.2907514165002
 20
440.0030117426765
 30
0.0
 10
867.5777722506103
 20
439.8949696924498
 30
0.0
 10
865.0124313311991
 20
439.7331669700458
 30
0.0
 10
861.2406774441225
 20
439.4810342978778
 30
0.0
 10
859.9215362279885
 20
436.5485928129116
 30
0.0
 10
857.4863268596985
 20
433.8940839896156
 30
0.0
 10
855.6482785165483
 20
428.7427885564517
 30
0.0
 10
851.5234421070712
 20
424.0330412048266
 30
0.0
 10
846.0457946040644
 20
423.3957097704066
 30
0.0
 10
841.1324090944983
 20
422.5416861388482
 30
0.0
 10
836.2984097477404
 20
422.2055456170771
 30
0.0
 10
831.2606829831004
 20
421.8021708681723
 30
0.0
 10
828.189532361732
 20
417.599967871313
 30
0.0
 10
827.1895580670063
 20
414.9217273504233
 30
0.0
 10
826.8335185417729
 20
413.6267143203519
 30
0.0
 10
826.7507907696856
 20
413.3155630206599
 30
0.0
  0
LINE
  5
1440
330
2
100
AcDbEntity
  8
HIDS
  6
SEKKEI_H
100
AcDbLine
 10
1069.813476881303
 20
412.5655630206639
 30
0.0
 11
1069.813476881303
 21
403.7822296873302
 31
0.0
  0
LINE
  5
1441
330
2
100
AcDbEntity
  8
HIDS
  6
SEKKEI_H
100
AcDbLine
 10
1066.480143547969
 20
412.5655630206639
 30
0.0
 11
1066.480143547969
 21
404.976814779937
 31
0.0
  0
LINE
  5
1442
330
2
100
AcDbEntity
  8
HIDS
  6
SEKKEI_H
100
AcDbLine
 10
1066.146810214635
 20
412.5655630206639
 30
0.0
 11
1066.146810214635
 21
405.4853331389814
 31
0.0
  0
LINE
  5
1443
330
2
100
AcDbEntity
  8
CENTER
  6
CENS
100
AcDbLine
 10
1068.146810214635
 20
452.2424969182276
 30
0.0
 11
1068.146810214635
 21
401.8633126761071
 31
0.0
  0
LINE
  5
1444
330
2
100
AcDbEntity
  8
HIDS
  6
SEKKEI_H
100
AcDbLine
 10
1070.146810214635
 20
412.5655630206639
 30
0.0
 11
1070.146810214635
 21
401.260999569423
 31
0.0
  0
LINE
  5
1445
330
2
100
AcDbEntity
  8
HIDS
  6
SEKKEI_H
100
AcDbLine
 10
1067.117608160721
 20
404.1155630206642
 30
0.0
 11
1068.146810214635
 21
404.1155630206642
 31
0.0
  0
LINE
  5
1446
330
2
100
AcDbEntity
  8
0
100
AcDbLine
 10
1066.946810214635
 20
403.315563020664
 30
0.0
 11
1067.804185993534
 21
403.315563020664
 31
0.0
  0
LINE
  5
1447
330
2
100
AcDbEntity
  8
0
100
AcDbLine
 10
1066.146810214635
 20
405.4853331389814
 30
0.0
 11
1066.146810214635
 21
404.1155630206642
 31
0.0
  0
LINE
  5
1448
330
2
100
AcDbEntity
  8
HOJO
100
AcDbLine
 10
1066.480143547969
 20
404.976814779937
 30
0.0
 11
1066.480143547969
 21
403.7822296873302
 31
0.0
  0
LINE
  5
1449
330
2
100
AcDbEntity
  8
0
100
AcDbLine
 10
1066.146810214635
 20
404.1155630206642
 30
0.0
 11
1067.117608160721
 21
404.1155630206642
 31
0.0
  0
LINE
  5
144A
330
2
100
AcDbEntity
  8
0
100
AcDbLine
 10
1066.146810214635
 20
404.1155630206642
 30
0.0
 11
1066.946810214635
 21
403.315563020664
 31
0.0
  0
LINE
  5
144B
330
2
100
AcDbEntity
  8
HIDS
  6
SEKKEI_H
100
AcDbLine
 10
1067.804185993534
 20
403.315563020664
 30
0.0
 11
1068.146810214635
 21
403.315563020664
 31
0.0
  0
LINE
  5
144C
330
2
100
AcDbEntity
  8
HIDS
  6
SEKKEI_H
100
AcDbLine
 10
1070.146810214635
 20
404.1155630206642
 30
0.0
 11
1069.346810214636
 21
403.315563020664
 31
0.0
  0
LINE
  5
144D
330
2
100
AcDbEntity
  8
HIDS
  6
SEKKEI_H
100
AcDbLine
 10
1069.346810214636
 20
403.315563020664
 30
0.0
 11
1068.146810214635
 21
403.315563020664
 31
0.0
  0
LINE
  5
144E
330
2
100
AcDbEntity
  8
HIDS
  6
SEKKEI_H
100
AcDbLine
 10
1070.146810214635
 20
404.1155630206642
 30
0.0
 11
1068.146810214635
 21
404.1155630206642
 31
0.0
  0
LINE
  5
144F
330
2
100
AcDbEntity
  8
HIDS
  6
SEKKEI_H
100
AcDbLine
 10
1069.813476881303
 20
403.7822296873302
 30
0.0
 11
1069.813476881303
 21
401.503081392225
 31
0.0
  0
LINE
  5
1450
330
2
100
AcDbEntity
  8
HIDS
  6
SEKKEI_H
100
AcDbLine
 10
1064.770121128258
 20
418.3155630206639
 30
0.0
 11
1071.646810214635
 21
418.3155630206639
 31
0.0
  0
LINE
  5
1451
330
2
100
AcDbEntity
  8
HIDS
  6
SEKKEI_H
100
AcDbLine
 10
1066.735785909397
 20
422.0155630206638
 30
0.0
 11
1071.646810214635
 21
422.0155630206638
 31
0.0
  0
LINE
  5
1452
330
2
100
AcDbEntity
  8
HIDS
  6
SEKKEI_H
100
AcDbLine
 10
1071.127194972365
 20
422.3155630206639
 30
0.0
 11
1066.960814322116
 21
422.3155630206639
 31
0.0
  0
LINE
  5
1453
330
2
100
AcDbEntity
  8
HIDS
  6
SEKKEI_H
100
AcDbLine
 10
1070.146810214635
 20
416.648896353997
 30
0.0
 11
1066.146810214635
 21
416.648896353997
 31
0.0
  0
LINE
  5
1454
330
2
100
AcDbEntity
  8
HIDS
  6
SEKKEI_H
100
AcDbLine
 10
1064.770121128258
 20
418.3155630206639
 30
0.0
 11
1072.146810214635
 21
418.3155630206639
 31
0.0
  0
LINE
  5
1455
330
2
100
AcDbEntity
  8
0
100
AcDbLine
 10
1063.915890351978
 20
414.065563020664
 30
0.0
 11
1068.146810214635
 21
414.065563020664
 31
0.0
  0
LINE
  5
1456
330
2
100
AcDbEntity
  8
0
100
AcDbLine
 10
1063.915890351978
 20
412.5655630206639
 30
0.0
 11
1068.146810214635
 21
412.5655630206639
 31
0.0
  0
LINE
  5
1457
330
2
100
AcDbEntity
  8
0
100
AcDbLine
 10
1064.646810214635
 20
422.0155630206638
 30
0.0
 11
1064.646810214635
 21
418.3155630206639
 31
0.0
  0
LINE
  5
1458
330
2
100
AcDbEntity
  8
0
100
AcDbLine
 10
1066.146810214635
 20
414.065563020664
 30
0.0
 11
1066.146810214635
 21
412.5655630206639
 31
0.0
  0
LINE
  5
1459
330
2
100
AcDbEntity
  8
HOJO
100
AcDbLine
 10
1066.480143547969
 20
414.065563020664
 30
0.0
 11
1066.480143547969
 21
412.5655630206639
 31
0.0
  0
LINE
  5
145A
330
2
100
AcDbEntity
  8
HIDS
  6
SEKKEI_H
100
AcDbLine
 10
1066.146810214635
 20
418.3155630206639
 30
0.0
 11
1066.480143547969
 21
416.648896353997
 31
0.0
  0
LINE
  5
145B
330
2
100
AcDbEntity
  8
0
100
AcDbLine
 10
1064.646810214635
 20
418.3155630206639
 30
0.0
 11
1064.770121128258
 21
418.3155630206639
 31
0.0
  0
LINE
  5
145C
330
2
100
AcDbEntity
  8
HIDS
  6
SEKKEI_H
100
AcDbLine
 10
1066.480143547969
 20
416.648896353997
 30
0.0
 11
1066.480143547969
 21
414.065563020664
 31
0.0
  0
LINE
  5
145D
330
2
100
AcDbEntity
  8
HIDS
  6
SEKKEI_H
100
AcDbLine
 10
1066.146810214635
 20
418.3155630206639
 30
0.0
 11
1066.146810214635
 21
414.065563020664
 31
0.0
  0
LINE
  5
145E
330
2
100
AcDbEntity
  8
HIDS
  6
SEKKEI_H
100
AcDbLine
 10
1065.646810214635
 20
418.3155630206639
 30
0.0
 11
1065.646810214635
 21
414.065563020664
 31
0.0
  0
LINE
  5
145F
330
2
100
AcDbEntity
  8
0
100
AcDbLine
 10
1066.960814322116
 20
422.3155630206639
 30
0.0
 11
1065.166425456906
 21
422.3155630206639
 31
0.0
  0
LINE
  5
1460
330
2
100
AcDbEntity
  8
0
100
AcDbLine
 10
1064.646810214635
 20
422.0155630206638
 30
0.0
 11
1065.166425456906
 21
422.3155630206639
 31
0.0
  0
LINE
  5
1461
330
2
100
AcDbEntity
  8
0
100
AcDbLine
 10
1064.646810214635
 20
422.0155630206638
 30
0.0
 11
1066.735785909397
 21
422.0155630206638
 31
0.0
  0
LINE
  5
1462
330
2
100
AcDbEntity
  8
HIDS
  6
SEKKEI_H
100
AcDbLine
 10
1071.646810214635
 20
418.3155630206639
 30
0.0
 11
1071.646810214635
 21
422.0155630206638
 31
0.0
  0
LINE
  5
1463
330
2
100
AcDbEntity
  8
HIDS
  6
SEKKEI_H
100
AcDbLine
 10
1072.146810214635
 20
426.5561256975299
 30
0.0
 11
1072.146810214635
 21
418.3155630206639
 31
0.0
  0
LINE
  5
1464
330
2
100
AcDbEntity
  8
HOJO
100
AcDbLine
 10
1069.813476881303
 20
414.065563020664
 30
0.0
 11
1069.813476881303
 21
412.5655630206639
 31
0.0
  0
LINE
  5
1465
330
2
100
AcDbEntity
  8
0
100
AcDbLine
 10
1070.146810214635
 20
414.065563020664
 30
0.0
 11
1070.146810214635
 21
412.5655630206639
 31
0.0
  0
LINE
  5
1466
330
2
100
AcDbEntity
  8
0
100
AcDbLine
 10
1068.146810214635
 20
412.5655630206639
 30
0.0
 11
1071.687104761098
 21
412.5655630206639
 31
0.0
  0
LINE
  5
1467
330
2
100
AcDbEntity
  8
0
100
AcDbLine
 10
1068.146810214635
 20
414.065563020664
 30
0.0
 11
1071.687104761098
 21
414.065563020664
 31
0.0
  0
LINE
  5
1468
330
2
100
AcDbEntity
  8
HIDS
  6
SEKKEI_H
100
AcDbLine
 10
1070.146810214635
 20
418.3155630206639
 30
0.0
 11
1069.813476881303
 21
416.648896353997
 31
0.0
  0
LINE
  5
1469
330
2
100
AcDbEntity
  8
HIDS
  6
SEKKEI_H
100
AcDbLine
 10
1070.146810214635
 20
418.3155630206639
 30
0.0
 11
1070.146810214635
 21
414.065563020664
 31
0.0
  0
LINE
  5
146A
330
2
100
AcDbEntity
  8
HIDS
  6
SEKKEI_H
100
AcDbLine
 10
1069.813476881303
 20
416.648896353997
 30
0.0
 11
1069.813476881303
 21
414.065563020664
 31
0.0
  0
LINE
  5
146B
330
2
100
AcDbEntity
  8
HIDS
  6
SEKKEI_H
100
AcDbLine
 10
1070.646810214635
 20
418.3155630206639
 30
0.0
 11
1070.646810214635
 21
414.065563020664
 31
0.0
  0
LINE
  5
146C
330
2
100
AcDbEntity
  8
HIDS
  6
SEKKEI_H
100
AcDbLine
 10
1071.127194972365
 20
422.3155630206639
 30
0.0
 11
1071.646810214635
 21
422.0155630206638
 31
0.0
  0
LINE
  5
146D
330
2
100
AcDbEntity
  8
0
100
AcDbLine
 10
1092.646810214635
 20
412.5655630206639
 30
0.0
 11
1085.606515668172
 21
412.5655630206639
 31
0.0
  0
LINE
  5
146E
330
2
100
AcDbEntity
  8
0
100
AcDbLine
 10
1085.606515668172
 20
414.065563020664
 30
0.0
 11
1092.646810214635
 21
414.065563020664
 31
0.0
  0
LINE
  5
146F
330
2
100
AcDbEntity
  8
0
100
AcDbLine
 10
1092.646810214635
 20
414.065563020664
 30
0.0
 11
1092.646810214635
 21
412.5655630206639
 31
0.0
  0
ARC
  5
1470
330
2
100
AcDbEntity
  8
0
100
AcDbCircle
 10
1078.646810214633
 20
413.3155630206649
 30
0.0
 40
8.154700538378051
100
AcDbArc
 50
185.2770359348315
 51
354.7229640651684
  0
ARC
  5
1471
330
2
100
AcDbEntity
  8
0
100
AcDbCircle
 10
1078.646810214633
 20
413.3155630206649
 30
0.0
 40
8.154700538378051
100
AcDbArc
 50
5.277035934805344
 51
174.7229640651946
  0
CIRCLE
  5
1472
330
2
100
AcDbEntity
  8
0
100
AcDbCircle
 10
1078.646810214635
 20
413.315563020664
 30
0.0
 40
7.000000000000113
  0
CIRCLE
  5
1473
330
2
100
AcDbEntity
  8
HOJO
100
AcDbCircle
 10
1053.898072873107
 20
438.0643003621927
 30
0.0
 40
2.0
  0
CIRCLE
  5
1474
330
2
100
AcDbEntity
  8
0
100
AcDbCircle
 10
1053.898072873107
 20
438.0643003621927
 30
0.0
 40
1.6
  0
CIRCLE
  5
1475
330
2
100
AcDbEntity
  8
HOJO
100
AcDbCircle
 10
1103.395547556165
 20
438.0643003621927
 30
0.0
 40
2.0
  0
CIRCLE
  5
1476
330
2
100
AcDbEntity
  8
0
100
AcDbCircle
 10
1103.395547556165
 20
438.0643003621927
 30
0.0
 40
1.6
  0
CIRCLE
  5
1477
330
2
100
AcDbEntity
  8
HOJO
100
AcDbCircle
 10
1103.395547556165
 20
388.5668256791351
 30
0.0
 40
2.0
  0
CIRCLE
  5
1478
330
2
100
AcDbEntity
  8
0
100
AcDbCircle
 10
1103.395547556165
 20
388.5668256791351
 30
0.0
 40
1.6
  0
CIRCLE
  5
1479
330
2
100
AcDbEntity
  8
HOJO
100
AcDbCircle
 10
1053.898072873107
 20
388.5668256791351
 30
0.0
 40
2.0
  0
CIRCLE
  5
147A
330
2
100
AcDbEntity
  8
0
100
AcDbCircle
 10
1053.898072873107
 20
388.5668256791351
 30
0.0
 40
1.6
  0
CIRCLE
  5
147C
330
2
100
AcDbEntity
  8
0
100
AcDbCircle
 10
1078.646810214637
 20
413.315563020664
 30
0.0
 40
14.75000000000022
  0
CIRCLE
  5
147D
330
2
100
AcDbEntity
  8
0
100
AcDbCircle
 10
855.2907408074528
 20
675.2798769390751
 30
0.0
 40
9.0
  0
LINE
  5
147E
330
2
100
AcDbEntity
  8
CENTER
  6
CENS
100
AcDbLine
 10
855.2907408074508
 20
663.6937110936992
 30
0.0
 11
855.2907408074508
 21
686.8660427844511
 31
0.0
  0
LINE
  5
147F
330
2
100
AcDbEntity
  8
CENTER
  6
CENS
100
AcDbLine
 10
866.8769066528268
 20
675.2798769390751
 30
0.0
 11
843.7045749620748
 21
675.2798769390751
 31
0.0
  0
LINE
  5
1480
330
2
100
AcDbEntity
  8
0
100
AcDbLine
 10
860.3597889089817
 20
448.8935150710992
 30
0.0
 11
850.3613119574167
 21
449.0680391354714
 31
0.0
  0
ARC
  5
1481
330
2
100
AcDbEntity
  8
0
100
AcDbCircle
 10
850.2915023316674
 20
445.0686483548458
 30
0.0
 40
4.000000000000023
100
AcDbArc
 50
89.0000000000243
 51
178.9999999999982
  0
ARC
  5
1482
330
2
100
AcDbEntity
  8
0
100
AcDbCircle
 10
860.2899792832307
 20
444.8941242904735
 30
0.0
 40
4.000000000000023
100
AcDbArc
 50
358.9999999999966
 51
89.0000000000243
  0
LINE
  5
1483
330
2
100
AcDbEntity
  8
CENTER
  6
CENS
100
AcDbLine
 10
855.2907408074499
 20
452.2424969182235
 30
0.0
 11
855.2907408074499
 21
428.8825709158567
 31
0.0
  0
LINE
  5
1485
330
2
100
AcDbEntity
  8
0
100
AcDbLine
 10
866.2907514165
 20
383.2631978258747
 30
0.0
 11
866.2907514165
 21
413.3155630206599
 31
0.0
  0
LINE
  5
1486
330
2
100
AcDbEntity
  8
0
100
AcDbLine
 10
1063.271810214635
 20
449.0680391354755
 30
0.0
 11
1073.021810214635
 21
449.0680391354755
 31
0.0
  0
ARC
  5
1487
330
2
100
AcDbEntity
  8
0
100
AcDbCircle
 10
1063.271810214635
 20
444.8180391354755
 30
0.0
 40
4.25
100
AcDbArc
 50
90.0
 51
179.9485848525427
  0
ARC
  5
1488
330
2
100
AcDbEntity
  8
0
100
AcDbCircle
 10
1072.771810214635
 20
444.8180391354755
 30
0.0
 40
4.25
100
AcDbArc
 50
0.0
 51
90.0
  0
ARC
  5
1489
330
2
100
AcDbEntity
  8
0
100
AcDbCircle
 10
1042.646810214632
 20
449.315563020664
 30
0.0
 40
5.0
100
AcDbArc
 50
90.0
 51
180.0
  0
LINE
  5
148A
330
2
100
AcDbEntity
  8
0
100
AcDbLine
 10
97.31675236336945
 20
452.2282181859814
 30
0.0
 11
97.31675236336945
 21
373.6673307425196
 31
0.0
  0
LINE
  5
148B
330
2
100
AcDbEntity
  8
0
100
AcDbLine
 10
109.3167523633694
 20
372.3155630206599
 30
0.0
 11
99.29929929237264
 21
372.4029840092109
 31
0.0
  0
LINE
  5
148C
330
2
100
AcDbEntity
  8
0
100
AcDbLine
 10
90.31675236336946
 20
381.4751892545597
 30
0.0
 11
71.60409530557209
 21
381.8018198984828
 31
0.0
  0
LINE
  5
148D
330
2
100
AcDbEntity
  8
0
100
AcDbLine
 10
69.31675236336946
 20
383.2631978258747
 30
0.0
 11
66.31675236336945
 21
383.3155630206599
 31
0.0
  0
LINE
  5
148E
330
2
100
AcDbEntity
  8
0
100
AcDbLine
 10
109.3167523633694
 20
454.3155630206599
 30
0.0
 11
99.2992992923728
 21
454.2281420321097
 31
0.0
  0
LINE
  5
1491
330
2
100
AcDbEntity
  8
0
100
AcDbLine
 10
69.31675236336946
 20
383.2631978258747
 30
0.0
 11
70.25012942895341
 21
382.3624050748556
 31
0.0
  0
LINE
  5
1492
330
2
100
AcDbEntity
  8
0
100
AcDbLine
 10
90.31675236336946
 20
445.15593678676
 30
0.0
 11
71.31813371601339
 21
444.8243146647242
 31
0.0
  0
LINE
  5
1493
330
2
100
AcDbEntity
  8
0
100
AcDbLine
 10
69.31675236336946
 20
443.367928215445
 30
0.0
 11
66.31675236336945
 21
443.3155630206599
 31
0.0
  0
LINE
  5
1494
330
2
100
AcDbEntity
  8
0
100
AcDbLine
 10
69.31675236336946
 20
443.367928215445
 30
0.0
 11
70.25012942895334
 21
444.2687209664641
 31
0.0
  0
LINE
  5
1495
330
2
100
AcDbEntity
  8
0
100
AcDbLine
 10
66.31675236336945
 20
383.3155630206599
 30
0.0
 11
66.31675236336945
 21
443.3155630206599
 31
0.0
  0
LINE
  5
1496
330
2
100
AcDbEntity
  8
CENTER
  6
CENS
100
AcDbLine
 10
112.3167523633694
 20
447.9637952988002
 30
0.0
 11
85.31675236336946
 21
447.9637952988002
 31
0.0
  0
LINE
  5
1497
330
2
100
AcDbEntity
  8
0
100
AcDbLine
 10
90.71675236336909
 20
442.9637952988001
 30
0.0
 11
90.71675236336909
 21
452.9637952988002
 31
0.0
  0
LINE
  5
1498
330
2
100
AcDbEntity
  8
0
100
AcDbLine
 10
90.31675236336946
 20
452.2709749757729
 30
0.0
 11
90.31675236336946
 21
443.6566156218283
 31
0.0
  0
LINE
  5
1499
330
2
100
AcDbEntity
  8
0
100
AcDbLine
 10
96.31675236336945
 20
442.9637952988001
 30
0.0
 11
96.31675236336945
 21
452.9637952988002
 31
0.0
  0
LINE
  5
149A
330
2
100
AcDbEntity
  8
0
100
AcDbLine
 10
96.31675236336945
 20
452.9637952988002
 30
0.0
 11
97.31675236336947
 21
452.9637952988002
 31
0.0
  0
LINE
  5
149B
330
2
100
AcDbEntity
  8
0
100
AcDbLine
 10
97.31675236336947
 20
452.9637952988002
 30
0.0
 11
97.31675236336947
 21
442.9637952988001
 31
0.0
  0
LINE
  5
149C
330
2
100
AcDbEntity
  8
0
100
AcDbLine
 10
97.31675236336947
 20
442.9637952988001
 30
0.0
 11
96.31675236336945
 21
442.9637952988001
 31
0.0
  0
LINE
  5
149D
330
2
100
AcDbEntity
  8
0
100
AcDbLine
 10
96.31675236336945
 20
442.9637952988001
 30
0.0
 11
96.31675236336945
 21
452.9637952988002
 31
0.0
  0
LINE
  5
149E
330
2
100
AcDbEntity
  8
0
100
AcDbLine
 10
90.71675236336909
 20
442.9637952988001
 30
0.0
 11
96.31675236336945
 21
442.9637952988001
 31
0.0
  0
LINE
  5
149F
330
2
100
AcDbEntity
  8
0
100
AcDbLine
 10
96.31675236336945
 20
452.9637952988002
 30
0.0
 11
90.71675236336909
 21
452.9637952988002
 31
0.0
  0
LINE
  5
14A0
330
2
100
AcDbEntity
  8
0
100
AcDbLine
 10
90.71675236336909
 20
452.9637952988002
 30
0.0
 11
90.31675236336946
 21
452.2709749757729
 31
0.0
  0
LINE
  5
14A1
330
2
100
AcDbEntity
  8
0
100
AcDbLine
 10
90.71675236336909
 20
442.9637952988001
 30
0.0
 11
90.31675236336946
 21
443.6566156218283
 31
0.0
  0
LINE
  5
14A2
330
2
100
AcDbEntity
  8
CENTER
  6
CENS
100
AcDbLine
 10
112.3167523633694
 20
378.6673307425195
 30
0.0
 11
85.31675236336946
 21
378.6673307425195
 31
0.0
  0
LINE
  5
14A3
330
2
100
AcDbEntity
  8
0
100
AcDbLine
 10
90.71675236336909
 20
383.6673307425196
 30
0.0
 11
90.71675236336909
 21
373.6673307425196
 31
0.0
  0
LINE
  5
14A4
330
2
100
AcDbEntity
  8
0
100
AcDbLine
 10
90.31675236336946
 20
374.3601510655468
 30
0.0
 11
90.31675236336946
 21
382.9745104194914
 31
0.0
  0
LINE
  5
14A5
330
2
100
AcDbEntity
  8
0
100
AcDbLine
 10
96.31675236336945
 20
383.6673307425196
 30
0.0
 11
96.31675236336945
 21
373.6673307425196
 31
0.0
  0
LINE
  5
14A6
330
2
100
AcDbEntity
  8
0
100
AcDbLine
 10
96.31675236336945
 20
373.6673307425196
 30
0.0
 11
97.31675236336945
 21
373.6673307425196
 31
0.0
  0
LINE
  5
14A7
330
2
100
AcDbEntity
  8
0
100
AcDbLine
 10
97.31675236336947
 20
383.6673307425196
 30
0.0
 11
96.31675236336945
 21
383.6673307425196
 31
0.0
  0
LINE
  5
14A8
330
2
100
AcDbEntity
  8
0
100
AcDbLine
 10
96.31675236336945
 20
383.6673307425196
 30
0.0
 11
96.31675236336945
 21
373.6673307425196
 31
0.0
  0
LINE
  5
14A9
330
2
100
AcDbEntity
  8
0
100
AcDbLine
 10
90.71675236336909
 20
383.6673307425196
 30
0.0
 11
96.31675236336945
 21
383.6673307425196
 31
0.0
  0
LINE
  5
14AA
330
2
100
AcDbEntity
  8
0
100
AcDbLine
 10
96.31675236336945
 20
373.6673307425196
 30
0.0
 11
90.71675236336909
 21
373.6673307425196
 31
0.0
  0
LINE
  5
14AB
330
2
100
AcDbEntity
  8
0
100
AcDbLine
 10
90.71675236336909
 20
373.6673307425186
 30
0.0
 11
90.31675236336946
 21
374.3601510655468
 31
0.0
  0
LINE
  5
14AC
330
2
100
AcDbEntity
  8
0
100
AcDbLine
 10
90.71675236336909
 20
383.6673307425196
 30
0.0
 11
90.31675236336946
 21
382.9745104194914
 31
0.0
  0
LINE
  5
14AD
330
2
100
AcDbEntity
  8
0
100
AcDbLine
 10
75.24771487088788
 20
448.8935150710992
 30
0.0
 11
85.24619182245283
 21
449.0680391354714
 31
0.0
  0
ARC
  5
14AE
330
2
100
AcDbEntity
  8
0
100
AcDbCircle
 10
85.31600144820208
 20
445.0686483548458
 30
0.0
 40
4.000000000000023
100
AcDbArc
 50
1.000000000001775
 51
90.99999999997569
  0
ARC
  5
14AF
330
2
100
AcDbEntity
  8
0
100
AcDbCircle
 10
75.31752449663895
 20
444.8941242904735
 30
0.0
 40
4.000000000000023
100
AcDbArc
 50
90.99999999997569
 51
181.000000000005
  0
LINE
  5
14B0
330
2
100
AcDbEntity
  8
CENTER
  6
CENS
100
AcDbLine
 10
80.31676297241961
 20
452.2424969182235
 30
0.0
 11
80.31676297241961
 21
428.8825709158567
 31
0.0
  0
LINE
  5
14B2
330
2
100
AcDbEntity
  8
0
100
AcDbLine
 10
69.31675236336946
 20
383.2631978258747
 30
0.0
 11
69.31675236336946
 21
443.367928215445
 31
0.0
  0
CIRCLE
  5
14B3
330
2
100
AcDbEntity
  8
0
100
AcDbCircle
 10
1078.646810214635
 20
413.315563020664
 30
0.0
 40
22.5
  0
CIRCLE
  5
1C68
330
2
100
AcDbEntity
  8
0
100
AcDbCircle
 10
680.8807514164848
 20
413.315563020658
 30
0.0
 40
33.07735
  0
ARC
  5
1C6D
330
2
100
AcDbEntity
  8
0
100
AcDbCircle
 10
782.2977700157167
 20
644.7798769439066
 30
0.0
 40
2.0
100
AcDbArc
 50
269.9999999999974
 51
359.5000000000258
  0
ARC
  5
1CC4
330
2
100
AcDbEntity
  8
0
100
AcDbCircle
 10
836.290751416503
 20
724.6925321043955
 30
0.0
 40
2.0
100
AcDbArc
 50
0.0
 51
89.49999999999816
  0
ARC
  5
1CC7
330
2
100
AcDbEntity
  8
0
100
AcDbCircle
 10
836.2907514165028
 20
646.8672217737537
 30
0.0
 40
2.0
100
AcDbArc
 50
270.4999999999971
 51
359.9999999999998
  0
ARC
  5
1CC8
330
2
100
AcDbEntity
  8
0
100
AcDbCircle
 10
836.2907514165001
 20
452.2282181859814
 30
0.0
 40
2.0
100
AcDbArc
 50
0.0
 51
89.50000000000288
  0
ARC
  5
1CC9
330
2
100
AcDbEntity
  8
0
100
AcDbCircle
 10
836.2907514165
 20
374.4029078553392
 30
0.0
 40
2.0
100
AcDbArc
 50
270.5000000000018
 51
0.0
  0
ARC
  5
1CCA
330
2
100
AcDbEntity
  8
0
100
AcDbCircle
 10
99.31675236336944
 20
452.2282181859814
 30
0.0
 40
2.0
100
AcDbArc
 50
90.49999999999711
 51
180.0
  0
ARC
  5
1CCB
330
2
100
AcDbEntity
  8
0
100
AcDbCircle
 10
99.31675236336944
 20
374.4029078553393
 30
0.0
 40
2.0
100
AcDbArc
 50
180.0
 51
269.4999999999981
  0
ARC
  5
1CCC
330
2
100
AcDbEntity
  8
0
100
AcDbCircle
 10
71.63900011844664
 20
383.8015152887957
 30
0.0
 40
2.0
100
AcDbArc
 50
226.0177614527302
 51
269.0000000000003
  0
ARC
  5
1CCD
330
2
100
AcDbEntity
  8
0
100
AcDbCircle
 10
71.63900011844657
 20
442.829610752524
 30
0.0
 40
2.0
100
AcDbArc
 50
90.99999999999965
 51
133.9822385472697
  0
ARC
  5
1CCE
330
2
100
AcDbEntity
  8
0
100
AcDbCircle
 10
863.9685036614229
 20
383.8015152887957
 30
0.0
 40
2.0
100
AcDbArc
 50
270.9999999999996
 51
313.9822385472697
  0
ARC
  5
1CD8
330
2
100
AcDbEntity
  8
0
100
AcDbCircle
 10
863.9685036614229
 20
442.829610752524
 30
0.0
 40
2.0
100
AcDbArc
 50
46.0177614527303
 51
89.00000000000034
  0
ARC
  5
1CE2
330
2
100
AcDbEntity
  8
0
100
AcDbCircle
 10
863.9685036614258
 20
656.265829207211
 30
0.0
 40
2.0
100
AcDbArc
 50
271.0000000000023
 51
313.9822385472697
  0
ARC
  5
1CE3
330
2
100
AcDbEntity
  8
0
100
AcDbCircle
 10
863.9685036614256
 20
715.2939246709393
 30
0.0
 40
2.0
100
AcDbArc
 50
46.01776145271228
 51
89.00000000000034
  0
ENDSEC
  0
SECTION
  2
OBJECTS
  0
DICTIONARY
  5
7
330
0
100
AcDbDictionary
  3
ACAD_COLOR
350
1C9A
  3
ACAD_GROUP
350
75
  3
ACAD_LAYOUT
350
61
  3
ACAD_MATERIAL
350
1C70
  3
ACAD_MLEADERSTYLE
350
1CBF
  3
ACAD_MLINESTYLE
350
76
  3
ACAD_PLOTSETTINGS
350
77
  3
ACAD_PLOTSTYLENAME
350
6
  3
ACAD_SCALELIST
350
1C9D
  3
ACAD_TABLESTYLE
350
1C9B
  3
ACAD_VISUALSTYLE
350
1C89
  3
ACADDIM
350
480
  3
ACDB_RECOMPOSE_DATA
350
1CF8
  3
ACDBHEADERROUNDTRIPXREC
350
1D33
  3
ACDBVARIABLEDICTIONARY
350
102
  3
DWGPROPS
350
1CF9
  0
DICTIONARY
  5
1D01
330
6E
100
AcDbDictionary
280
     1
  3
ACAD_XREC_ROUNDTRIP
360
1D02
  0
DICTIONARY
  5
B16
330
66
100
AcDbDictionary
280
     1
  3
ACAD_LAYERSTATES
360
B17
  0
DICTIONARY
  5
1CE4
330
5E
100
AcDbDictionary
280
     1
  3
ACAD_XREC_ROUNDTRIP
360
1CFC
  3
ADSK_XREC_LAYER_RECONCILED
360
1CE5
  0
DICTIONARY
  5
1CE6
330
3E
100
AcDbDictionary
280
     1
  3
ACAD_XREC_ROUNDTRIP
360
1CFB
  3
ADSK_XREC_LAYER_RECONCILED
360
1CE7
  0
DICTIONARY
  5
1CEC
330
2B5
100
AcDbDictionary
280
     1
  3
ACAD_XREC_ROUNDTRIP
360
1D08
  3
ADSK_XREC_LAYER_RECONCILED
360
1CED
  0
DICTIONARY
  5
1CEE
330
2BA
100
AcDbDictionary
280
     1
  3
ACAD_XREC_ROUNDTRIP
360
1D09
  3
ADSK_XREC_LAYER_RECONCILED
360
1CEF
  0
DICTIONARY
  5
1CF2
330
3FA
100
AcDbDictionary
280
     1
  3
ACAD_XREC_ROUNDTRIP
360
1D0B
  3
ADSK_XREC_LAYER_RECONCILED
360
1CF3
  0
DICTIONARY
  5
1CF4
330
478
100
AcDbDictionary
280
     1
  3
ACAD_XREC_ROUNDTRIP
360
1D0C
  3
ADSK_XREC_LAYER_RECONCILED
360
1CF5
  0
DICTIONARY
  5
1CC5
330
2
100
AcDbDictionary
280
     1
  3
ACAD_LAYOUTSELFREF
360
1D54
  3
ACAD_SORTENTS
360
1CC6
  0
DICTIONARY
  5
1D55
330
1D2D
100
AcDbDictionary
280
     1
  3
ACAD_LAYOUTSELFREF
360
1D56
  0
DICTIONARY
  5
1C9A
102
{ACAD_REACTORS
330
7
102
}
330
7
100
AcDbDictionary
  0
DICTIONARY
  5
75
102
{ACAD_REACTORS
330
7
102
}
330
7
100
AcDbDictionary
  0
DICTIONARY
  5
61
102
{ACAD_REACTORS
330
7
102
}
330
7
100
AcDbDictionary
  0
DICTIONARY
  5
1C70
102
{ACAD_REACTORS
330
7
102
}
330
7
100
AcDbDictionary
  3
BYBLOCK
350
1C79
  3
BYLAYER
350
1C71
  3
GLOBAL
350
1C81
  0
DICTIONARY
  5
1CBF
102
{ACAD_REACTORS
330
7
102
}
330
7
100
AcDbDictionary
  3
STANDARD
350
1CC0
  0
DICTIONARY
  5
76
102
{ACAD_REACTORS
330
7
102
}
330
7
100
AcDbDictionary
  3
STANDARD
350
78
  0
DICTIONARY
  5
77
102
{ACAD_REACTORS
330
7
102
}
330
7
100
AcDbDictionary
  0
ACDBDICTIONARYWDFLT
  5
6
102
{ACAD_REACTORS
330
7
102
}
330
7
100
AcDbDictionary
281
     1
  3
Normal
350
5
100
AcDbDictionaryWithDefault
340
5
  0
DICTIONARY
  5
1C9D
102
{ACAD_REACTORS
330
7
102
}
330
7
100
AcDbDictionary
  3
A0
350
1C9E
  3
A1
350
1C9F
  3
A2
350
1CA0
  3
A3
350
1CA1
  3
A4
350
1CA2
  3
A5
350
1CA3
  3
A6
350
1CA4
  3
A7
350
1CA5
  3
A8
350
1CA6
  3
A9
350
1CA7
  3
B0
350
1CA8
  3
B1
350
1CA9
  3
B2
350
1CAA
  3
B3
350
1CAB
  3
B4
350
1CAC
  3
B5
350
1CAD
  3
B6
350
1CAE
  3
B7
350
1CAF
  3
B8
350
1CB0
  3
B9
350
1CB1
  3
C0
350
1CB2
  3
C1
350
1CB3
  3
C2
350
1CB4
  3
C3
350
1CB5
  3
C4
350
1CB6
  3
C5
350
1CB7
  3
C6
350
1CB8
  3
C7
350
1CB9
  3
C8
350
1CBA
  3
C9
350
1CBB
  3
D0
350
1CBC
  3
D1
350
1CBD
  3
D2
350
1CBE
  0
DICTIONARY
  5
1C9B
102
{ACAD_REACTORS
330
7
102
}
330
7
100
AcDbDictionary
  3
STANDARD
350
1C9C
  0
DICTIONARY
  5
1C89
102
{ACAD_REACTORS
330
7
102
}
330
7
100
AcDbDictionary
  3
2DWIREFRAME
350
1C8F
  3
3D_HIDDEN
350
1C91
  3
3DWIREFRAME
350
1C90
  3
BASIC
350
1C8E
  3
BRIGHTEN
350
1C95
  3
COLORCHANGE
350
1C99
  3
CONCEPTUAL
350
1C92
  3
DIM
350
1C94
  3
FACEPATTERN
350
1C98
  3
FLAT
350
1C8A
  3
FLATWITHEDGES
350
1C8B
  3
GOURAUD
350
1C8C
  3
GOURAUDWITHEDGES
350
1C8D
  3
LINEPATTERN
350
1C97
  3
REALISTIC
350
1C93
  3
THICKEN
350
1C96
  0
XRECORD
  5
480
102
{ACAD_REACTORS
330
7
102
}
330
7
100
AcDbXrecord
 90
   990106
  3

 60
     0
 61
     0
 62
     1
 63
     3
 64
     1
 65
     0
 66
     0
 67
     3
 68
     1
 69
     0
 70
     0
 71
     0
 72
     0
 40
0.0
170
     2
340
0
  0
XRECORD
  5
1CF8
102
{ACAD_REACTORS
330
7
102
}
330
7
100
AcDbXrecord
 90
        1
330
1C9C
  0
DICTIONARY
  5
1D33
102
{ACAD_REACTORS
330
7
102
}
330
7
100
AcDbDictionary
  3
CEPSNTYPE
350
1D3D
  3
DIMSTYLEDATA
350
1D41
  3
FINGERPRINTGUID
350
1D3E
  3
HYPERLINKBASE
350
1D36
  3
INSUNITS
350
1D3C
  3
LAYOUTDICT
350
1D38
  3
LWETCUNION
350
1D3B
  3
PLOTSETDICT
350
1D39
  3
PLOTSTYLNAMDICT
350
1D3A
  3
PSVPSCALE
350
1D40
  3
PUCSBASE
350
1D44
  3
PUCSORGBACK
350
1D4A
  3
PUCSORGBOTTOM
350
1D46
  3
PUCSORGFRONT
350
1D49
  3
PUCSORGLEFT
350
1D47
  3
PUCSORGRIGHT
350
1D48
  3
PUCSORGTOP
350
1D45
  3
PUCSORTHOREF
350
1D42
  3
PUCSORTHOVIEW
350
1D43
  3
STYLESHEET
350
1D37
  3
TSTACKALIGN
350
1D34
  3
TSTACKSIZE
350
1D35
  3
UCSBASE
350
1D4D
  3
UCSORGBACK
350
1D53
  3
UCSORGBOTTOM
350
1D4F
  3
UCSORGFRONT
350
1D52
  3
UCSORGLEFT
350
1D50
  3
UCSORGRIGHT
350
1D51
  3
UCSORGTOP
350
1D4E
  3
UCSORTHOREF
350
1D4B
  3
UCSORTHOVIEW
350
1D4C
  3
VERSIONGUID
350
1D3F
  0
DICTIONARY
  5
102
102
{ACAD_REACTORS
330
7
102
}
330
7
100
AcDbDictionary
  3
CANNOSCALE
350
1D19
  3
CMLEADERSTYLE
350
1D18
  3
CTABLESTYLE
350
1D17
  3
DIMASSOC
350
103
  3
INDEXCTL
350
1D1A
  3
SORTENTS
350
549
  0
XRECORD
  5
1CF9
102
{ACAD_REACTORS
330
7
102
}
330
7
100
AcDbXrecord
  1
DWGPROPS COOKIE
  2

  3

  4

  6

  7

  8
ymorima
  9

300
=
301
=
302
=
303
=
304
=
305
=
306
=
307
=
308
=
309
=
 40
0.0102195486111111
 41
2454413.383856874
 42
2454424.473925775
  1

 90
        0
  0
XRECORD
  5
1D02
102
{ACAD_REACTORS
330
1D01
102
}
330
1D01
100
AcDbXrecord
102
VTR_0.000_0.000_1.000_1.000_VISUALSTYLE
340
1C8F
102
VTR_0.000_0.000_1.000_1.000_GRIDDISPLAY
 70
     3
102
VTR_0.000_0.000_1.000_1.000_GRIDMAJOR
 70
     5
102
VTR_0.000_0.000_1.000_1.000_DEFAULTLIGHTING
280
     1
102
VTR_0.000_0.000_1.000_1.000_DEFAULTLIGHTINGTYPE
 70
     1
102
VTR_0.000_0.000_1.000_1.000_BRIGHTNESS
141
0.0
102
VTR_0.000_0.000_1.000_1.000_CONTRAST
142
0.0
  0
DICTIONARY
  5
B17
102
{ACAD_REACTORS
330
B16
102
}
330
B16
100
AcDbDictionary
  0
XRECORD
  5
1CFC
102
{ACAD_REACTORS
330
1CE4
102
}
330
1CE4
100
AcDbXrecord
102
MATERIAL
340
1C81
  0
XRECORD
  5
1CE5
102
{ACAD_REACTORS
330
1CE4
102
}
330
1CE4
100
AcDbXrecord
290
     1
  0
XRECORD
  5
1CFB
102
{ACAD_REACTORS
330
1CE6
102
}
330
1CE6
100
AcDbXrecord
102
MATERIAL
340
1C81
  0
XRECORD
  5
1CE7
102
{ACAD_REACTORS
330
1CE6
102
}
330
1CE6
100
AcDbXrecord
290
     1
  0
XRECORD
  5
1D08
102
{ACAD_REACTORS
330
1CEC
102
}
330
1CEC
100
AcDbXrecord
102
MATERIAL
340
1C81
  0
XRECORD
  5
1CED
102
{ACAD_REACTORS
330
1CEC
102
}
330
1CEC
100
AcDbXrecord
290
     1
  0
XRECORD
  5
1D09
102
{ACAD_REACTORS
330
1CEE
102
}
330
1CEE
100
AcDbXrecord
102
MATERIAL
340
1C81
  0
XRECORD
  5
1CEF
102
{ACAD_REACTORS
330
1CEE
102
}
330
1CEE
100
AcDbXrecord
290
     1
  0
XRECORD
  5
1D0B
102
{ACAD_REACTORS
330
1CF2
102
}
330
1CF2
100
AcDbXrecord
102
MATERIAL
340
1C81
  0
XRECORD
  5
1CF3
102
{ACAD_REACTORS
330
1CF2
102
}
330
1CF2
100
AcDbXrecord
290
     1
  0
XRECORD
  5
1D0C
102
{ACAD_REACTORS
330
1CF4
102
}
330
1CF4
100
AcDbXrecord
102
MATERIAL
340
1C81
  0
XRECORD
  5
1CF5
102
{ACAD_REACTORS
330
1CF4
102
}
330
1CF4
100
AcDbXrecord
290
     1
  0
XRECORD
  5
1D54
102
{ACAD_REACTORS
330
1CC5
102
}
330
1CC5
100
AcDbXrecord
340
2
  0
SORTENTSTABLE
  5
1CC6
102
{ACAD_REACTORS
330
1CC5
102
}
330
1CC5
100
AcDbSortentsTable
330
2
331
1001
  5
1001
331
133D
  5
133D
331
13B2
  5
13B4
331
1427
  5
142F
331
149C
  5
14A8
331
11BA
  5
11BA
331
122F
  5
122F
331
1145
  5
1145
331
1076
  5
1076
331
10EB
  5
10EB
331
12A4
  5
12A4
331
134E
  5
134E
331
13C3
  5
13C7
331
1438
  5
1440
331
11CB
  5
11CB
331
1240
  5
1240
331
1156
  5
1156
331
1087
  5
1087
331
1012
  5
1012
331
10FC
  5
10FC
331
12B5
  5
12B5
331
14AD
  5
1CC9
331
1449
  5
1451
331
101B
  5
101B
331
1090
  5
1090
331
135F
  5
135F
331
13D4
  5
13D8
331
1167
  5
1167
331
11DC
  5
11DC
331
1251
  5
1251
331
12C6
  5
12C6
331
12F3
  5
12F3
331
1368
  5
1368
331
13DD
  5
13E1
331
1452
  5
145A
331
11ED
  5
11ED
331
1178
  5
1178
331
102C
  5
102C
331
10A1
  5
10A1
331
1262
  5
1262
331
12D7
  5
12D7
331
1CC4
  5
13EB
331
1181
  5
1181
331
10B2
  5
10B2
331
103D
  5
103D
331
1304
  5
1304
331
1379
  5
1379
331
13EE
  5
13F5
331
1463
  5
146B
331
110C
  5
110C
331
1315
  5
1315
331
138A
  5
138A
331
13FF
  5
1407
331
1474
  5
147D
331
1192
  5
1192
331
1207
  5
1207
331
10C3
  5
10C3
331
127C
  5
127C
331
104E
  5
104E
331
111D
  5
111D
331
11A3
  5
11A3
331
1218
  5
1218
331
10D4
  5
10D4
331
105F
  5
105F
331
1326
  5
1326
331
139B
  5
139B
331
1410
  5
1418
331
1485
  5
148D
331
112E
  5
112E
331
128D
  5
128D
331
1337
  5
1337
331
13AC
  5
13AC
331
1421
  5
1429
331
1496
  5
14A2
331
11B4
  5
11B4
331
1229
  5
1229
331
10E5
  5
10E5
331
129E
  5
129E
331
FFB
  5
FFB
331
1070
  5
1070
331
113F
  5
113F
331
1348
  5
1348
331
11C5
  5
11C5
331
123A
  5
123A
331
10F6
  5
10F6
331
100C
  5
100C
331
1081
  5
1081
331
13BD
  5
13C1
331
1432
  5
143A
331
14A7
  5
14B3
331
1150
  5
1150
331
12AF
  5
12AF
331
13CE
  5
13D2
331
1359
  5
1359
331
1443
  5
144B
331
11D6
  5
11D6
331
124B
  5
124B
331
1107
  5
1107
331
12C0
  5
12C0
331
1161
  5
1161
331
12ED
  5
12ED
331
1362
  5
1362
331
11E7
  5
11E7
331
125C
  5
125C
331
12D1
  5
12D1
331
1026
  5
1026
331
109B
  5
109B
331
1172
  5
1172
331
12FE
  5
12FE
331
1373
  5
1373
331
13E8
  5
13F0
331
145D
  5
1465
331
12E2
  5
12E2
331
10AC
  5
10AC
331
126D
  5
126D
331
130F
  5
130F
331
1384
  5
1384
331
13F9
  5
1401
331
1201
  5
1201
331
1276
  5
1276
331
10BD
  5
10BD
331
1048
  5
1048
331
146E
  5
1476
331
1117
  5
1117
331
118C
  5
118C
331
18E6
  5
1CD8
331
1059
  5
1059
331
1320
  5
1320
331
1395
  5
1395
331
140A
  5
1412
331
147F
  5
1487
331
1128
  5
1128
331
1212
  5
1212
331
1287
  5
1287
331
10CE
  5
10CE
331
119D
  5
119D
331
1331
  5
1331
331
13A6
  5
13A6
331
141B
  5
1423
331
1223
  5
1223
331
1298
  5
1298
331
10DF
  5
10DF
331
106A
  5
106A
331
1139
  5
1139
331
FF5
  5
FF5
331
11AE
  5
11AE
331
10F0
  5
10F0
331
107B
  5
107B
331
114A
  5
114A
331
1342
  5
1342
331
13B7
  5
13BA
331
142C
  5
1434
331
14A1
  5
14AD
331
1006
  5
1006
331
1234
  5
1234
331
12A9
  5
12A9
331
11BF
  5
11BF
331
1353
  5
1353
331
13C8
  5
13CC
331
143D
  5
1445
331
14B2
  5
1CCD
331
1245
  5
1245
331
12BA
  5
12BA
331
1101
  5
1101
331
1017
  5
1017
331
108C
  5
108C
331
115B
  5
115B
331
11D0
  5
11D0
331
1095
  5
1095
331
116C
  5
116C
331
144E
  5
1456
331
1020
  5
1020
331
11E1
  5
11E1
331
1256
  5
1256
331
12CB
  5
12CB
331
136D
  5
136D
331
13E2
  5
13E6
331
1457
  5
145F
331
12F8
  5
12F8
331
1267
  5
1267
331
11F2
  5
11F2
331
10A6
  5
10A6
331
1031
  5
1031
331
117D
  5
117D
331
1CC9
  5
13AF
331
1309
  5
1309
331
1270
  5
1270
331
10B7
  5
10B7
331
1111
  5
1111
331
1186
  5
1186
331
137E
  5
137E
331
13F3
  5
13FB
331
1468
  5
1470
331
1042
  5
1042
331
11FB
  5
11FB
331
1CE2
  5
13F8
331
138F
  5
138F
331
1404
  5
140C
331
1479
  5
1482
331
131A
  5
131A
331
1281
  5
1281
331
10C8
  5
10C8
331
1122
  5
1122
331
1197
  5
1197
331
1053
  5
1053
331
120C
  5
120C
331
13A0
  5
13A0
331
132B
  5
132B
331
1292
  5
1292
331
10D9
  5
10D9
331
1133
  5
1133
331
11A8
  5
11A8
331
1415
  5
141D
331
148A
  5
1492
331
FEF
  5
FEF
331
1064
  5
1064
331
121D
  5
121D
331
13B1
  5
13B3
331
1426
  5
142E
331
149B
  5
14A7
331
1000
  5
1000
331
133C
  5
133C
331
12A3
  5
12A3
331
10EA
  5
10EA
331
1144
  5
1144
331
11B9
  5
11B9
331
1075
  5
1075
331
122E
  5
122E
331
13C2
  5
13C6
331
134D
  5
134D
331
12B4
  5
12B4
331
10FB
  5
10FB
331
1155
  5
1155
331
11CA
  5
11CA
331
1086
  5
1086
331
1437
  5
143F
331
14AC
  5
1CC7
331
1011
  5
1011
331
123F
  5
123F
331
135E
  5
135E
331
13D3
  5
13D7
331
1448
  5
1450
331
101A
  5
101A
331
12C5
  5
12C5
331
1166
  5
1166
331
11DB
  5
11DB
331
1250
  5
1250
331
13DC
  5
13E0
331
1451
  5
1459
331
12F2
  5
12F2
331
1367
  5
1367
331
12D6
  5
12D6
331
1177
  5
1177
331
11EC
  5
11EC
331
102B
  5
102B
331
10A0
  5
10A0
331
1261
  5
1261
331
1180
  5
1180
331
110B
  5
110B
331
13ED
  5
13F3
331
1462
  5
146A
331
103C
  5
103C
331
10B1
  5
10B1
331
1303
  5
1303
331
1378
  5
1378
331
12E7
  5
12E7
331
13FE
  5
1406
331
1473
  5
147C
331
1314
  5
1314
331
1389
  5
1389
331
1191
  5
1191
331
1206
  5
1206
331
111C
  5
111C
331
104D
  5
104D
331
10C2
  5
10C2
331
127B
  5
127B
331
11A2
  5
11A2
331
112D
  5
112D
331
140F
  5
1417
331
FE9
  5
FE9
331
105E
  5
105E
331
10D3
  5
10D3
331
1325
  5
1325
331
139A
  5
139A
331
1217
  5
1217
331
128C
  5
128C
331
1420
  5
1428
331
1495
  5
14A1
331
1336
  5
1336
331
13AB
  5
13AB
331
11B3
  5
11B3
331
1228
  5
1228
331
113E
  5
113E
331
FFA
  5
FFA
331
106F
  5
106F
331
10E4
  5
10E4
331
129D
  5
129D
331
11C4
  5
11C4
331
1239
  5
1239
331
114F
  5
114F
331
1431
  5
1439
331
14A6
  5
14B2
331
100B
  5
100B
331
1080
  5
1080
331
10F5
  5
10F5
331
1347
  5
1347
331
13BC
  5
13C0
331
12AE
  5
12AE
331
1442
  5
144A
331
13CD
  5
13D1
331
1358
  5
1358
331
11D5
  5
11D5
331
124A
  5
124A
331
1160
  5
1160
331
1106
  5
1106
331
12BF
  5
12BF
331
12EC
  5
12EC
331
1361
  5
1361
331
1171
  5
1171
331
11E6
  5
11E6
331
1025
  5
1025
331
109A
  5
109A
331
125B
  5
125B
331
12D0
  5
12D0
331
145C
  5
1464
331
12FD
  5
12FD
331
1372
  5
1372
331
13E7
  5
13EF
331
12E1
  5
12E1
331
1036
  5
1036
331
10AB
  5
10AB
331
11F7
  5
11F7
331
126C
  5
126C
331
1CCE
  5
13B9
331
130E
  5
130E
331
1383
  5
1383
331
13F8
  5
1400
331
118B
  5
118B
331
1200
  5
1200
331
1116
  5
1116
331
146D
  5
1475
331
1047
  5
1047
331
10BC
  5
10BC
331
1275
  5
1275
331
147E
  5
1486
331
1058
  5
1058
331
131F
  5
131F
331
1394
  5
1394
331
1409
  5
1411
331
119C
  5
119C
331
1211
  5
1211
331
1127
  5
1127
331
10CD
  5
10CD
331
1286
  5
1286
331
1330
  5
1330
331
13A5
  5
13A5
331
141A
  5
1422
331
11AD
  5
11AD
331
1222
  5
1222
331
1138
  5
1138
331
FF4
  5
FF4
331
1069
  5
1069
331
10DE
  5
10DE
331
1297
  5
1297
331
1149
  5
1149
331
14A0
  5
14AC
331
1005
  5
1005
331
107A
  5
107A
331
1341
  5
1341
331
13B6
  5
13B8
331
142B
  5
1433
331
11BE
  5
11BE
331
1233
  5
1233
331
10EF
  5
10EF
331
12A8
  5
12A8
331
1352
  5
1352
331
13C7
  5
13CB
331
143C
  5
1444
331
11CF
  5
11CF
331
1244
  5
1244
331
115A
  5
115A
331
1100
  5
1100
331
12B9
  5
12B9
331
1016
  5
1016
331
108B
  5
108B
331
116B
  5
116B
331
11E0
  5
11E0
331
144D
  5
1455
331
101F
  5
101F
331
1094
  5
1094
331
1255
  5
1255
331
12CA
  5
12CA
331
12F7
  5
12F7
331
136C
  5
136C
331
13E1
  5
13E5
331
1456
  5
145E
331
1266
  5
1266
331
117C
  5
117C
331
1030
  5
1030
331
10A5
  5
10A5
331
11F1
  5
11F1
331
12DB
  5
12DB
331
1CC8
  5
13AD
331
1308
  5
1308
331
1185
  5
1185
331
11FA
  5
11FA
331
1110
  5
1110
331
1041
  5
1041
331
10B6
  5
10B6
331
137D
  5
137D
331
13F2
  5
13FA
331
1467
  5
146F
331
1319
  5
1319
331
138E
  5
138E
331
1403
  5
140B
331
1478
  5
1481
331
1196
  5
1196
331
120B
  5
120B
331
1121
  5
1121
331
1052
  5
1052
331
10C7
  5
10C7
331
1280
  5
1280
331
132A
  5
132A
331
11A7
  5
11A7
331
121C
  5
121C
331
1132
  5
1132
331
FEE
  5
FEE
331
1063
  5
1063
331
10D8
  5
10D8
331
1291
  5
1291
331
139F
  5
139F
331
1414
  5
141C
331
1489
  5
1491
331
133B
  5
133B
331
13B0
  5
13B2
331
1425
  5
142D
331
149A
  5
14A6
331
11B8
  5
11B8
331
122D
  5
122D
331
1143
  5
1143
331
FFF
  5
FFF
331
1074
  5
1074
331
10E9
  5
10E9
331
12A2
  5
12A2
331
134C
  5
134C
331
13C1
  5
13C5
331
11C9
  5
11C9
331
123E
  5
123E
331
1154
  5
1154
331
1085
  5
1085
331
1010
  5
1010
331
10FA
  5
10FA
331
12B3
  5
12B3
331
1436
  5
143E
331
14AB
  5
1CC4
331
1019
  5
1019
331
1447
  5
144F
331
135D
  5
135D
331
13D2
  5
13D6
331
1165
  5
1165
331
11DA
  5
11DA
331
124F
  5
124F
331
12C4
  5
12C4
331
12F1
  5
12F1
331
1366
  5
1366
331
13DB
  5
13DF
331
1450
  5
1458
331
1176
  5
1176
331
11EB
  5
11EB
331
102A
  5
102A
331
109F
  5
109F
331
1260
  5
1260
331
12D5
  5
12D5
331
10B0
  5
10B0
331
103B
  5
103B
331
1302
  5
1302
331
1377
  5
1377
331
1461
  5
1469
331
110A
  5
110A
331
12E6
  5
12E6
331
1313
  5
1313
331
1388
  5
1388
331
13FD
  5
1405
331
1472
  5
147A
331
1190
  5
1190
331
1205
  5
1205
331
10C1
  5
10C1
331
127A
  5
127A
331
104C
  5
104C
331
111B
  5
111B
331
11A1
  5
11A1
331
10D2
  5
10D2
331
105D
  5
105D
331
112C
  5
112C
331
1324
  5
1324
331
1399
  5
1399
331
140E
  5
1416
331
1483
  5
148C
331
FE8
  5
FE8
331
1216
  5
1216
331
128B
  5
128B
331
1335
  5
1335
331
1C68
  5
1CE2
331
13AA
  5
13AA
331
141F
  5
1427
331
1494
  5
14A0
331
11B2
  5
11B2
331
1227
  5
1227
331
10E3
  5
10E3
331
129C
  5
129C
331
106E
  5
106E
331
113D
  5
113D
331
FF9
  5
FF9
331
11C3
  5
11C3
331
1238
  5
1238
331
10F4
  5
10F4
331
107F
  5
107F
331
114E
  5
114E
331
1346
  5
1346
331
13BB
  5
13BF
331
1430
  5
1438
331
14A5
  5
14B1
331
100A
  5
100A
331
12AD
  5
12AD
331
1357
  5
1357
331
13CC
  5
13D0
331
1441
  5
1449
331
11D4
  5
11D4
331
1249
  5
1249
331
1105
  5
1105
331
12BE
  5
12BE
331
115F
  5
115F
331
1360
  5
1360
331
11E5
  5
11E5
331
125A
  5
125A
331
1099
  5
1099
331
1170
  5
1170
331
1024
  5
1024
331
12CF
  5
12CF
331
12FC
  5
12FC
331
1371
  5
1371
331
145B
  5
1463
331
12E0
  5
12E0
331
10AA
  5
10AA
331
11F6
  5
11F6
331
126B
  5
126B
331
1035
  5
1035
331
130D
  5
130D
331
1382
  5
1382
331
1CCD
  5
149E
331
11FF
  5
11FF
331
1274
  5
1274
331
10BB
  5
10BB
331
1115
  5
1115
331
118A
  5
118A
331
13F7
  5
13FF
331
146C
  5
1474
331
1046
  5
1046
331
131E
  5
131E
331
1393
  5
1393
331
1408
  5
1410
331
147D
  5
1485
331
1210
  5
1210
331
1285
  5
1285
331
10CC
  5
10CC
331
1126
  5
1126
331
119B
  5
119B
331
1057
  5
1057
331
132F
  5
132F
331
13A4
  5
13A4
331
1419
  5
1421
331
1221
  5
1221
331
1296
  5
1296
331
10DD
  5
10DD
331
1137
  5
1137
331
11AC
  5
11AC
331
148E
  5
149B
331
FF3
  5
FF3
331
1068
  5
1068
331
1148
  5
1148
331
1340
  5
1340
331
142A
  5
1432
331
149F
  5
14AB
331
1004
  5
1004
331
1079
  5
1079
331
1232
  5
1232
331
12A7
  5
12A7
331
10EE
  5
10EE
331
11BD
  5
11BD
331
1351
  5
1351
331
13C6
  5
13CA
331
143B
  5
1443
331
14B0
  5
1CCC
331
1243
  5
1243
331
12B8
  5
12B8
331
10FF
  5
10FF
331
1015
  5
1015
331
108A
  5
108A
331
1159
  5
1159
331
11CE
  5
11CE
331
116A
  5
116A
331
13D7
  5
13DB
331
144C
  5
1454
331
101E
  5
101E
331
1093
  5
1093
331
1254
  5
1254
331
12C9
  5
12C9
331
11DF
  5
11DF
331
136B
  5
136B
331
13E0
  5
13E4
331
1455
  5
145D
331
12F6
  5
12F6
331
1265
  5
1265
331
11F0
  5
11F0
331
12DA
  5
12DA
331
117B
  5
117B
331
102F
  5
102F
331
10A4
  5
10A4
331
1CC7
  5
13EA
331
1184
  5
1184
331
11F9
  5
11F9
331
110F
  5
110F
331
137C
  5
137C
331
13F1
  5
13F9
331
1466
  5
146E
331
1040
  5
1040
331
1307
  5
1307
331
10B5
  5
10B5
331
138D
  5
138D
331
1402
  5
140A
331
1477
  5
1480
331
1318
  5
1318
331
127F
  5
127F
331
1195
  5
1195
331
120A
  5
120A
331
1120
  5
1120
331
1051
  5
1051
331
10C6
  5
10C6
331
1329
  5
1329
331
1290
  5
1290
331
11A6
  5
11A6
331
121B
  5
121B
331
1131
  5
1131
331
139E
  5
139E
331
1413
  5
141B
331
1488
  5
1490
331
FED
  5
FED
331
1062
  5
1062
331
10D7
  5
10D7
331
13AF
  5
13B1
331
1424
  5
142C
331
1499
  5
14A5
331
1C6D
  5
1CE3
331
133A
  5
133A
331
12A1
  5
12A1
331
11B7
  5
11B7
331
122C
  5
122C
331
1142
  5
1142
331
FFE
  5
FFE
331
1073
  5
1073
331
10E8
  5
10E8
331
13C0
  5
13C4
331
134B
  5
134B
331
12B2
  5
12B2
331
11C8
  5
11C8
331
123D
  5
123D
331
1153
  5
1153
331
1435
  5
143D
331
14AA
  5
1C6D
331
100F
  5
100F
331
1084
  5
1084
331
10F9
  5
10F9
331
1446
  5
144E
331
135C
  5
135C
331
13D1
  5
13D5
331
1018
  5
1018
331
12C3
  5
12C3
331
1164
  5
1164
331
11D9
  5
11D9
331
124E
  5
124E
331
13DA
  5
13DE
331
12F0
  5
12F0
331
1365
  5
1365
331
12D4
  5
12D4
331
1175
  5
1175
331
11EA
  5
11EA
331
1029
  5
1029
331
109E
  5
109E
331
125F
  5
125F
331
1109
  5
1109
331
1460
  5
1468
331
103A
  5
103A
331
1301
  5
1301
331
1376
  5
1376
331
10AF
  5
10AF
331
12E5
  5
12E5
331
13FC
  5
1404
331
1471
  5
1479
331
1312
  5
1312
331
1387
  5
1387
331
118F
  5
118F
331
1204
  5
1204
331
111A
  5
111A
331
104B
  5
104B
331
10C0
  5
10C0
331
1279
  5
1279
331
11A0
  5
11A0
331
112B
  5
112B
331
140D
  5
1415
331
1482
  5
148B
331
105C
  5
105C
331
10D1
  5
10D1
331
1323
  5
1323
331
1398
  5
1398
331
1215
  5
1215
331
128A
  5
128A
331
141E
  5
1426
331
1493
  5
149F
331
1334
  5
1334
331
13A9
  5
13A9
331
11B1
  5
11B1
331
1226
  5
1226
331
113C
  5
113C
331
FF8
  5
FF8
331
106D
  5
106D
331
10E2
  5
10E2
331
129B
  5
129B
331
11C2
  5
11C2
331
114D
  5
114D
331
142F
  5
1437
331
14A4
  5
14B0
331
1009
  5
1009
331
107E
  5
107E
331
10F3
  5
10F3
331
1345
  5
1345
331
13BA
  5
13BE
331
1237
  5
1237
331
12AC
  5
12AC
331
1440
  5
1448
331
1356
  5
1356
331
13CB
  5
13CF
331
11D3
  5
11D3
331
1248
  5
1248
331
115E
  5
115E
331
1104
  5
1104
331
12BD
  5
12BD
331
108F
  5
108F
331
12EA
  5
12EA
331
116F
  5
116F
331
11E4
  5
11E4
331
1023
  5
1023
331
1098
  5
1098
331
1259
  5
1259
331
12CE
  5
12CE
331
145A
  5
1462
331
12FB
  5
12FB
331
1370
  5
1370
331
13E5
  5
13E9
331
12DF
  5
12DF
331
1034
  5
1034
331
10A9
  5
10A9
331
11F5
  5
11F5
331
126A
  5
126A
331
1CCC
  5
1499
331
130C
  5
130C
331
1381
  5
1381
331
1189
  5
1189
331
11FE
  5
11FE
331
1114
  5
1114
331
146B
  5
1473
331
1045
  5
1045
331
10BA
  5
10BA
331
1273
  5
1273
331
13F6
  5
13FE
331
147C
  5
1484
331
131D
  5
131D
331
1392
  5
1392
331
1407
  5
140F
331
119A
  5
119A
331
120F
  5
120F
331
1125
  5
1125
331
1056
  5
1056
331
10CB
  5
10CB
331
1284
  5
1284
331
132E
  5
132E
331
13A3
  5
13A3
331
1418
  5
1420
331
11AB
  5
11AB
331
1220
  5
1220
331
1136
  5
1136
331
148D
  5
149A
331
FF2
  5
FF2
331
1067
  5
1067
331
10DC
  5
10DC
331
1295
  5
1295
331
149E
  5
14AA
331
1003
  5
1003
331
1078
  5
1078
331
133F
  5
133F
331
1429
  5
1431
331
11BC
  5
11BC
331
1231
  5
1231
331
1147
  5
1147
331
10ED
  5
10ED
331
12A6
  5
12A6
331
1350
  5
1350
331
13C5
  5
13C9
331
143A
  5
1442
331
11CD
  5
11CD
331
1242
  5
1242
331
1158
  5
1158
331
10FE
  5
10FE
331
12B7
  5
12B7
331
14AF
  5
1CCB
331
1014
  5
1014
331
1089
  5
1089
331
1169
  5
1169
331
144B
  5
1453
331
101D
  5
101D
331
1092
  5
1092
331
13D6
  5
13DA
331
11DE
  5
11DE
331
1253
  5
1253
331
12C8
  5
12C8
331
12F5
  5
12F5
331
136A
  5
136A
331
13DF
  5
13E3
331
1454
  5
145C
331
11EF
  5
11EF
331
117A
  5
117A
331
102E
  5
102E
331
10A3
  5
10A3
331
1264
  5
1264
331
12D9
  5
12D9
331
1183
  5
1183
331
11F8
  5
11F8
331
10B4
  5
10B4
331
103F
  5
103F
331
1306
  5
1306
331
137B
  5
137B
331
13F0
  5
13F7
331
1465
  5
146D
331
110E
  5
110E
331
1317
  5
1317
331
138C
  5
138C
331
1401
  5
1409
331
1476
  5
147F
331
1194
  5
1194
331
1209
  5
1209
331
10C5
  5
10C5
331
127E
  5
127E
331
1050
  5
1050
331
111F
  5
111F
331
1328
  5
1328
331
11A5
  5
11A5
331
121A
  5
121A
331
10D6
  5
10D6
331
FEC
  5
FEC
331
1061
  5
1061
331
139D
  5
139D
331
1412
  5
141A
331
1487
  5
148F
331
1130
  5
1130
331
128F
  5
128F
331
1339
  5
1339
331
1423
  5
142B
331
1498
  5
14A4
331
11B6
  5
11B6
331
122B
  5
122B
331
10E7
  5
10E7
331
12A0
  5
12A0
331
FFD
  5
FFD
331
1072
  5
1072
331
1141
  5
1141
331
134A
  5
134A
331
11C7
  5
11C7
331
123C
  5
123C
331
10F8
  5
10F8
331
12B1
  5
12B1
331
100E
  5
100E
331
1083
  5
1083
331
13BF
  5
13C3
331
1434
  5
143C
331
14A9
  5
1C68
331
1152
  5
1152
331
1445
  5
144D
331
135B
  5
135B
331
13D0
  5
13D4
331
11D8
  5
11D8
331
124D
  5
124D
331
12C2
  5
12C2
331
1163
  5
1163
331
12EF
  5
12EF
331
1364
  5
1364
331
13D9
  5
13DD
331
11E9
  5
11E9
331
125E
  5
125E
331
12D3
  5
12D3
331
1028
  5
1028
331
109D
  5
109D
331
1174
  5
1174
331
1039
  5
1039
331
1300
  5
1300
331
1375
  5
1375
331
13EA
  5
13F2
331
145F
  5
1467
331
1108
  5
1108
331
12E4
  5
12E4
331
10AE
  5
10AE
331
126F
  5
126F
331
1311
  5
1311
331
1386
  5
1386
331
13FB
  5
1403
331
1470
  5
1478
331
1203
  5
1203
331
1278
  5
1278
331
10BF
  5
10BF
331
104A
  5
104A
331
1119
  5
1119
331
118E
  5
118E
331
10D0
  5
10D0
331
105B
  5
105B
331
1322
  5
1322
331
1397
  5
1397
331
140C
  5
1414
331
1481
  5
148A
331
112A
  5
112A
331
1214
  5
1214
331
1289
  5
1289
331
119F
  5
119F
331
1333
  5
1333
331
13A8
  5
13A8
331
141D
  5
1425
331
1492
  5
149D
331
1225
  5
1225
331
129A
  5
129A
331
10E1
  5
10E1
331
106C
  5
106C
331
113B
  5
113B
331
FF7
  5
FF7
331
11B0
  5
11B0
331
10F2
  5
10F2
331
107D
  5
107D
331
114C
  5
114C
331
1344
  5
1344
331
13B9
  5
13BC
331
142E
  5
1436
331
14A3
  5
14AF
331
1008
  5
1008
331
11C1
  5
11C1
331
1236
  5
1236
331
12AB
  5
12AB
331
1355
  5
1355
331
13CA
  5
13CE
331
143F
  5
1447
331
1247
  5
1247
331
12BC
  5
12BC
331
1103
  5
1103
331
108E
  5
108E
331
115D
  5
115D
331
11D2
  5
11D2
331
12E9
  5
12E9
331
1258
  5
1258
331
1097
  5
1097
331
116E
  5
116E
331
1022
  5
1022
331
11E3
  5
11E3
331
12CD
  5
12CD
331
136F
  5
136F
331
13E4
  5
13E8
331
1459
  5
1461
331
12FA
  5
12FA
331
12DE
  5
12DE
331
117F
  5
117F
331
10A8
  5
10A8
331
11F4
  5
11F4
331
1269
  5
1269
331
1033
  5
1033
331
1380
  5
1380
331
1CCB
  5
1493
331
130B
  5
130B
331
1272
  5
1272
331
10B9
  5
10B9
331
1113
  5
1113
331
1188
  5
1188
331
13F5
  5
13FD
331
146A
  5
1472
331
1044
  5
1044
331
11FD
  5
11FD
331
1391
  5
1391
331
1406
  5
140E
331
131C
  5
131C
331
1283
  5
1283
331
10CA
  5
10CA
331
1124
  5
1124
331
1199
  5
1199
331
1055
  5
1055
331
120E
  5
120E
331
13A2
  5
13A2
331
132D
  5
132D
331
1294
  5
1294
331
10DB
  5
10DB
331
1135
  5
1135
331
11AA
  5
11AA
331
1417
  5
141F
331
148C
  5
1498
331
FF1
  5
FF1
331
1066
  5
1066
331
121F
  5
121F
331
13B3
  5
13B6
331
1428
  5
1430
331
149D
  5
14A9
331
1002
  5
1002
331
133E
  5
133E
331
12A5
  5
12A5
331
10EC
  5
10EC
331
1146
  5
1146
331
11BB
  5
11BB
331
1077
  5
1077
331
1230
  5
1230
331
13C4
  5
13C8
331
1439
  5
1441
331
134F
  5
134F
331
12B6
  5
12B6
331
10FD
  5
10FD
331
1088
  5
1088
331
1157
  5
1157
331
11CC
  5
11CC
331
1241
  5
1241
331
14AE
  5
1CCA
331
1013
  5
1013
331
1168
  5
1168
331
13D5
  5
13D9
331
144A
  5
1452
331
101C
  5
101C
331
1091
  5
1091
331
12C7
  5
12C7
331
11DD
  5
11DD
331
1252
  5
1252
331
13DE
  5
13E2
331
1453
  5
145B
331
12F4
  5
12F4
331
1369
  5
1369
331
12D8
  5
12D8
331
11EE
  5
11EE
331
1179
  5
1179
331
102D
  5
102D
331
10A2
  5
10A2
331
1263
  5
1263
331
1182
  5
1182
331
110D
  5
110D
331
13EF
  5
13F6
331
1464
  5
146C
331
103E
  5
103E
331
10B3
  5
10B3
331
1305
  5
1305
331
137A
  5
137A
331
1400
  5
1408
331
1475
  5
147E
331
1316
  5
1316
331
138B
  5
138B
331
1193
  5
1193
331
1208
  5
1208
331
111E
  5
111E
331
104F
  5
104F
331
10C4
  5
10C4
331
127D
  5
127D
331
11A4
  5
11A4
331
1219
  5
1219
331
112F
  5
112F
331
1411
  5
1419
331
1486
  5
148E
331
1060
  5
1060
331
10D5
  5
10D5
331
1327
  5
1327
331
139C
  5
139C
331
128E
  5
128E
331
1422
  5
142A
331
1497
  5
14A3
331
1338
  5
1338
331
13AD
  5
13AE
331
11B5
  5
11B5
331
122A
  5
122A
331
1140
  5
1140
331
FFC
  5
FFC
331
1071
  5
1071
331
10E6
  5
10E6
331
129F
  5
129F
331
1349
  5
1349
331
11C6
  5
11C6
331
123B
  5
123B
331
1151
  5
1151
331
1433
  5
143B
331
14A8
  5
18E6
331
100D
  5
100D
331
1082
  5
1082
331
10F7
  5
10F7
331
12B0
  5
12B0
331
13BE
  5
13C2
331
1444
  5
144C
331
135A
  5
135A
331
13CF
  5
13D3
331
1162
  5
1162
331
11D7
  5
11D7
331
124C
  5
124C
331
12C1
  5
12C1
331
12EE
  5
12EE
331
1363
  5
1363
331
13D8
  5
13DC
331
1173
  5
1173
331
11E8
  5
11E8
331
1027
  5
1027
331
109C
  5
109C
331
125D
  5
125D
331
12D2
  5
12D2
331
145E
  5
1466
331
1038
  5
1038
331
12FF
  5
12FF
331
1374
  5
1374
331
13E9
  5
13F1
331
1CD8
  5
13BD
331
126E
  5
126E
331
10AD
  5
10AD
331
12E3
  5
12E3
331
1310
  5
1310
331
1385
  5
1385
331
13FA
  5
1402
331
118D
  5
118D
331
1202
  5
1202
331
1118
  5
1118
331
146F
  5
1477
331
1049
  5
1049
331
10BE
  5
10BE
331
1277
  5
1277
331
1129
  5
1129
331
1480
  5
1488
331
105A
  5
105A
331
1321
  5
1321
331
1396
  5
1396
331
140B
  5
1413
331
119E
  5
119E
331
1213
  5
1213
331
10CF
  5
10CF
331
1288
  5
1288
331
1491
  5
149C
331
1332
  5
1332
331
13A7
  5
13A7
331
141C
  5
1424
331
11AF
  5
11AF
331
1224
  5
1224
331
113A
  5
113A
331
FF6
  5
FF6
331
106B
  5
106B
331
10E0
  5
10E0
331
1299
  5
1299
331
11C0
  5
11C0
331
114B
  5
114B
331
14A2
  5
14AE
331
1007
  5
1007
331
107C
  5
107C
331
10F1
  5
10F1
331
1343
  5
1343
331
13B8
  5
13BB
331
142D
  5
1435
331
1235
  5
1235
331
12AA
  5
12AA
331
14B3
  5
1CCE
331
1354
  5
1354
331
13C9
  5
13CD
331
143E
  5
1446
331
11D1
  5
11D1
331
1246
  5
1246
331
115C
  5
115C
331
1102
  5
1102
331
12BB
  5
12BB
331
108D
  5
108D
331
12E8
  5
12E8
331
116D
  5
116D
331
11E2
  5
11E2
331
144F
  5
1457
331
1021
  5
1021
331
1096
  5
1096
331
1257
  5
1257
331
12CC
  5
12CC
331
12F9
  5
12F9
331
136E
  5
136E
331
13E3
  5
13E7
331
1458
  5
1460
331
12DD
  5
12DD
331
117E
  5
117E
331
1032
  5
1032
331
10A7
  5
10A7
331
11F3
  5
11F3
331
1268
  5
1268
331
1CCA
  5
1495
331
130A
  5
130A
331
1187
  5
1187
331
11FC
  5
11FC
331
1112
  5
1112
331
1043
  5
1043
331
10B8
  5
10B8
331
1271
  5
1271
331
137F
  5
137F
331
13F4
  5
13FC
331
1469
  5
1471
331
1CE3
  5
13F4
331
131B
  5
131B
331
1390
  5
1390
331
1405
  5
140D
331
147A
  5
1483
331
1198
  5
1198
331
120D
  5
120D
331
1123
  5
1123
331
1054
  5
1054
331
10C9
  5
10C9
331
1282
  5
1282
331
132C
  5
132C
331
13A1
  5
13A1
331
11A9
  5
11A9
331
121E
  5
121E
331
1134
  5
1134
331
FF0
  5
FF0
331
1065
  5
1065
331
10DA
  5
10DA
331
1293
  5
1293
331
1416
  5
141E
331
148B
  5
1497
  0
XRECORD
  5
1D56
102
{ACAD_REACTORS
330
1D55
102
}
330
1D55
100
AcDbXrecord
340
1D2D
  0
ACAD_PROXY_OBJECT
  5
1C79
102
{ACAD_XDICTIONARY
360
1C7A
102
}
102
{ACAD_REACTORS
330
1C70
102
}
330
1C70
100
AcDbProxyObject
 90
      499
 91
      511
 93
     1340
310
42109E509B1BD8DAC02004014080404555555555555953FAA155555555555654FEA9AA400014080404555555555555953FAA155555555555654FEA9AA400000000000000E03F4080404555555555555953FAA155555555555654FEA9AA4014080404555555555555953FAA155555555555654FEA9AA4010201011555555555
310
55654FEA8555555555555953FAA6A9005020101155555555555654FEA8555555555555953FAA6A9002
 94
        0
1001
ACAD
1000
AcadProxyRoundTripData
1071
      504
1071
   655383
1070
     0
  0
ACAD_PROXY_OBJECT
  5
1C71
102
{ACAD_XDICTIONARY
360
1C72
102
}
102
{ACAD_REACTORS
330
1C70
102
}
330
1C70
100
AcDbProxyObject
 90
      499
 91
      511
 93
     1340
310
42109E53185E595C802004014080404555555555555953FAA155555555555654FEA9AA400014080404555555555555953FAA155555555555654FEA9AA400000000000000E03F4080404555555555555953FAA155555555555654FEA9AA4014080404555555555555953FAA155555555555654FEA9AA4010201011555555555
310
55654FEA8555555555555953FAA6A9005020101155555555555654FEA8555555555555953FAA6A9002
 94
        0
1001
ACAD
1000
AcadProxyRoundTripData
1071
      504
1071
   655383
1070
     0
  0
ACAD_PROXY_OBJECT
  5
1C81
102
{ACAD_XDICTIONARY
360
1C82
102
}
102
{ACAD_REACTORS
330
1C70
102
}
330
1C70
100
AcDbProxyObject
 90
      499
 91
      511
 93
     1332
310
41D1DB1BD8985B002004014080404555555555555953FAA155555555555654FEA9AA400014080404555555555555953FAA155555555555654FEA9AA400000000000000E03F4080404555555555555953FAA155555555555654FEA9AA4014080404555555555555953FAA155555555555654FEA9AA401020101155555555555
310
654FEA8555555555555953FAA6A9005020101155555555555654FEA8555555555555953FAA6A9000
 94
        0
1001
ACAD
1000
AcadProxyRoundTripData
1071
      504
1071
   655383
1070
     0
  0
ACAD_PROXY_OBJECT
  5
1CC0
102
{ACAD_REACTORS
330
1CBF
102
}
330
1CBF
100
AcDbProxyObject
 90
      499
 91
      511
 93
      618
310
40901902A4063FBFFFFFE056BD1B81E855B9FC0AD7A3703D0AD73F4254DD185B99185C990000AD7A3703D0AC73F90141901A02B5E8DC0F42B1CFC02B5E8DC0F42B1CFE5764000000000000300FC6
340
6A
340
0
340
16
340
0
 94
        0
1001
ACAD_MLEADERVER
1070
     2
1001
ACAD
1000
AcadProxyRoundTripData
1071
      508
1071
   655383
1070
     0
  0
MLINESTYLE
  5
78
102
{ACAD_REACTORS
330
76
102
}
330
76
100
AcDbMlineStyle
  2
STANDARD
 70
     0
  3

 62
     0
 51
90.0
 52
90.0
 71
     2
 49
0.5
 62
   256
  6
BYLAYER
 49
-0.5
 62
   256
  6
BYLAYER
  0
ACDBPLACEHOLDER
  5
5
102
{ACAD_REACTORS
330
6
102
}
330
6
100
AcDbPlaceHolder
280
     0
  0
ACAD_PROXY_OBJECT
  5
1C9E
102
{ACAD_REACTORS
330
1C9D
102
}
330
1C9D
100
AcDbProxyObject
 90
      499
 91
      511
 93
       49
310
904313A3100598
 94
        0
1001
ACAD
1000
AcadProxyRoundTripData
1071
      507
1071
   655383
1070
     0
  0
ACAD_PROXY_OBJECT
  5
1C9F
102
{ACAD_REACTORS
330
1C9D
102
}
330
1C9D
100
AcDbProxyObject
 90
      499
 91
      511
 93
      113
310
904313A3200400000000000000406B
 94
        0
1001
ACAD
1000
AcadProxyRoundTripData
1071
      507
1071
   655383
1070
     0
  0
ACAD_PROXY_OBJECT
  5
1CA0
102
{ACAD_REACTORS
330
1C9D
102
}
330
1C9D
100
AcDbProxyObject
 90
      499
 91
      511
 93
      113
310
904313A3400400000000000010406B
 94
        0
1001
ACAD
1000
AcadProxyRoundTripData
1071
      507
1071
   655383
1070
     0
  0
ACAD_PROXY_OBJECT
  5
1CA1
102
{ACAD_REACTORS
330
1C9D
102
}
330
1C9D
100
AcDbProxyObject
 90
      499
 91
      511
 93
      113
310
904313A3500400000000000014406B
 94
        0
1001
ACAD
1000
AcadProxyRoundTripData
1071
      507
1071
   655383
1070
     0
  0
ACAD_PROXY_OBJECT
  5
1CA2
102
{ACAD_REACTORS
330
1C9D
102
}
330
1C9D
100
AcDbProxyObject
 90
      499
 91
      511
 93
      113
310
904313A3800400000000000020406B
 94
        0
1001
ACAD
1000
AcadProxyRoundTripData
1071
      507
1071
   655383
1070
     0
  0
ACAD_PROXY_OBJECT
  5
1CA3
102
{ACAD_REACTORS
330
1C9D
102
}
330
1C9D
100
AcDbProxyObject
 90
      499
 91
      511
 93
      121
310
905313A3130004000000000000244051
 94
        0
1001
ACAD
1000
AcadProxyRoundTripData
1071
      507
1071
   655383
1070
     0
  0
ACAD_PROXY_OBJECT
  5
1CA4
102
{ACAD_REACTORS
330
1C9D
102
}
330
1C9D
100
AcDbProxyObject
 90
      499
 91
      511
 93
      121
310
905313A3136004000000000000304051
 94
        0
1001
ACAD
1000
AcadProxyRoundTripData
1071
      507
1071
   655383
1070
     0
  0
ACAD_PROXY_OBJECT
  5
1CA5
102
{ACAD_REACTORS
330
1C9D
102
}
330
1C9D
100
AcDbProxyObject
 90
      499
 91
      511
 93
      121
310
905313A3230004000000000000344051
 94
        0
1001
ACAD
1000
AcadProxyRoundTripData
1071
      507
1071
   655383
1070
     0
  0
ACAD_PROXY_OBJECT
  5
1CA6
102
{ACAD_REACTORS
330
1C9D
102
}
330
1C9D
100
AcDbProxyObject
 90
      499
 91
      511
 93
      121
310
905313A33300040000000000003E4051
 94
        0
1001
ACAD
1000
AcadProxyRoundTripData
1071
      507
1071
   655383
1070
     0
  0
ACAD_PROXY_OBJECT
  5
1CA7
102
{ACAD_REACTORS
330
1C9D
102
}
330
1C9D
100
AcDbProxyObject
 90
      499
 91
      511
 93
      121
310
905313A3430004000000000000444051
 94
        0
1001
ACAD
1000
AcadProxyRoundTripData
1071
      507
1071
   655383
1070
     0
  0
ACAD_PROXY_OBJECT
  5
1CA8
102
{ACAD_REACTORS
330
1C9D
102
}
330
1C9D
100
AcDbProxyObject
 90
      499
 91
      511
 93
      121
310
905313A3530004000000000000494051
 94
        0
1001
ACAD
1000
AcadProxyRoundTripData
1071
      507
1071
   655383
1070
     0
  0
ACAD_PROXY_OBJECT
  5
1CA9
102
{ACAD_REACTORS
330
1C9D
102
}
330
1C9D
100
AcDbProxyObject
 90
      499
 91
      511
 93
      129
310
906313A313030004000000000000594038
 94
        0
1001
ACAD
1000
AcadProxyRoundTripData
1071
      507
1071
   655383
1070
     0
  0
ACAD_PROXY_OBJECT
  5
1CAA
102
{ACAD_REACTORS
330
1C9D
102
}
330
1C9D
100
AcDbProxyObject
 90
      499
 91
      511
 93
      113
310
904323A31000000000000000010159
 94
        0
1001
ACAD
1000
AcadProxyRoundTripData
1071
      507
1071
   655383
1070
     0
  0
ACAD_PROXY_OBJECT
  5
1CAB
102
{ACAD_REACTORS
330
1C9D
102
}
330
1C9D
100
AcDbProxyObject
 90
      499
 91
      511
 93
      113
310
904343A31000000000000000410159
 94
        0
1001
ACAD
1000
AcadProxyRoundTripData
1071
      507
1071
   655383
1070
     0
  0
ACAD_PROXY_OBJECT
  5
1CAC
102
{ACAD_REACTORS
330
1C9D
102
}
330
1C9D
100
AcDbProxyObject
 90
      499
 91
      511
 93
      113
310
904383A31000000000000000810159
 94
        0
1001
ACAD
1000
AcadProxyRoundTripData
1071
      507
1071
   655383
1070
     0
  0
ACAD_PROXY_OBJECT
  5
1CAD
102
{ACAD_REACTORS
330
1C9D
102
}
330
1C9D
100
AcDbProxyObject
 90
      499
 91
      511
 93
      121
310
90531303A31000000000000000910140
 94
        0
1001
ACAD
1000
AcadProxyRoundTripData
1071
      507
1071
   655383
1070
     0
  0
ACAD_PROXY_OBJECT
  5
1CAE
102
{ACAD_REACTORS
330
1C9D
102
}
330
1C9D
100
AcDbProxyObject
 90
      499
 91
      511
 93
      129
310
9063130303A31000000000000001650138
 94
        0
1001
ACAD
1000
AcadProxyRoundTripData
1071
      507
1071
   655383
1070
     0
  0
ACAD_PROXY_OBJECT
  5
1CAF
102
{ACAD_REACTORS
330
1C9D
102
}
330
1C9D
100
AcDbProxyObject
 90
      499
 91
      511
 93
      265
310
90F312F31323822203D2031272D302200000000000000200FC00000000000028402B
 94
        0
1001
ACAD
1000
AcadProxyRoundTripData
1071
      507
1071
   655383
1070
     0
  0
ACAD_PROXY_OBJECT
  5
1CB0
102
{ACAD_REACTORS
330
1C9D
102
}
330
1C9D
100
AcDbProxyObject
 90
      499
 91
      511
 93
      257
310
90E312F363422203D2031272D302200000000000000240FC000000000000284040
 94
        0
1001
ACAD
1000
AcadProxyRoundTripData
1071
      507
1071
   655383
1070
     0
  0
ACAD_PROXY_OBJECT
  5
1CB1
102
{ACAD_REACTORS
330
1C9D
102
}
330
1C9D
100
AcDbProxyObject
 90
      499
 91
      511
 93
      257
310
90E312F333222203D2031272D302200000000000000280FC000000000000284040
 94
        0
1001
ACAD
1000
AcadProxyRoundTripData
1071
      507
1071
   655383
1070
     0
  0
ACAD_PROXY_OBJECT
  5
1CB2
102
{ACAD_REACTORS
330
1C9D
102
}
330
1C9D
100
AcDbProxyObject
 90
      499
 91
      511
 93
      257
310
90E312F313622203D2031272D3022000000000000002C0FC000000000000284040
 94
        0
1001
ACAD
1000
AcadProxyRoundTripData
1071
      507
1071
   655383
1070
     0
  0
ACAD_PROXY_OBJECT
  5
1CB3
102
{ACAD_REACTORS
330
1C9D
102
}
330
1C9D
100
AcDbProxyObject
 90
      499
 91
      511
 93
      257
310
90E332F333222203D2031272D3022000000000000002E0FC000000000000284040
 94
        0
1001
ACAD
1000
AcadProxyRoundTripData
1071
      507
1071
   655383
1070
     0
  0
ACAD_PROXY_OBJECT
  5
1CB4
102
{ACAD_REACTORS
330
1C9D
102
}
330
1C9D
100
AcDbProxyObject
 90
      499
 91
      511
 93
      249
310
90D312F3822203D2031272D302200000000000000300FC000000000000284040
 94
        0
1001
ACAD
1000
AcadProxyRoundTripData
1071
      507
1071
   655383
1070
     0
  0
ACAD_PROXY_OBJECT
  5
1CB5
102
{ACAD_REACTORS
330
1C9D
102
}
330
1C9D
100
AcDbProxyObject
 90
      499
 91
      511
 93
      257
310
90E332F313622203D2031272D302200000000000000320FC000000000000284040
 94
        0
1001
ACAD
1000
AcadProxyRoundTripData
1071
      507
1071
   655383
1070
     0
  0
ACAD_PROXY_OBJECT
  5
1CB6
102
{ACAD_REACTORS
330
1C9D
102
}
330
1C9D
100
AcDbProxyObject
 90
      499
 91
      511
 93
      249
310
90D312F3422203D2031272D302200000000000000340FC000000000000284040
 94
        0
1001
ACAD
1000
AcadProxyRoundTripData
1071
      507
1071
   655383
1070
     0
  0
ACAD_PROXY_OBJECT
  5
1CB7
102
{ACAD_REACTORS
330
1C9D
102
}
330
1C9D
100
AcDbProxyObject
 90
      499
 91
      511
 93
      249
310
90D332F3822203D2031272D302200000000000000360FC000000000000284040
 94
        0
1001
ACAD
1000
AcadProxyRoundTripData
1071
      507
1071
   655383
1070
     0
  0
ACAD_PROXY_OBJECT
  5
1CB8
102
{ACAD_REACTORS
330
1C9D
102
}
330
1C9D
100
AcDbProxyObject
 90
      499
 91
      511
 93
      249
310
90D312F3222203D2031272D302200000000000000380FC000000000000284040
 94
        0
1001
ACAD
1000
AcadProxyRoundTripData
1071
      507
1071
   655383
1070
     0
  0
ACAD_PROXY_OBJECT
  5
1CB9
102
{ACAD_REACTORS
330
1C9D
102
}
330
1C9D
100
AcDbProxyObject
 90
      499
 91
      511
 93
      249
310
90D332F3422203D2031272D3022000000000000003A0FC000000000000284040
 94
        0
1001
ACAD
1000
AcadProxyRoundTripData
1071
      507
1071
   655383
1070
     0
  0
ACAD_PROXY_OBJECT
  5
1CBA
102
{ACAD_REACTORS
330
1C9D
102
}
330
1C9D
100
AcDbProxyObject
 90
      499
 91
      511
 93
      169
310
90B3122203D2031272D3022004000000000000284020
 94
        0
1001
ACAD
1000
AcadProxyRoundTripData
1071
      507
1071
   655383
1070
     0
  0
ACAD_PROXY_OBJECT
  5
1CBB
102
{ACAD_REACTORS
330
1C9D
102
}
330
1C9D
100
AcDbProxyObject
 90
      499
 91
      511
 93
      265
310
90F312D312F3222203D2031272D3022000000000000003E0FC00000000000028402B
 94
        0
1001
ACAD
1000
AcadProxyRoundTripData
1071
      507
1071
   655383
1070
     0
  0
ACAD_PROXY_OBJECT
  5
1CBC
102
{ACAD_REACTORS
330
1C9D
102
}
330
1C9D
100
AcDbProxyObject
 90
      499
 91
      511
 93
      233
310
90B3322203D2031272D30220000000000000002100000000000000284000
 94
        0
1001
ACAD
1000
AcadProxyRoundTripData
1071
      507
1071
   655383
1070
     0
  0
ACAD_PROXY_OBJECT
  5
1CBD
102
{ACAD_REACTORS
330
1C9D
102
}
330
1C9D
100
AcDbProxyObject
 90
      499
 91
      511
 93
      233
310
90B3622203D2031272D30220000000000000006100000000000000284000
 94
        0
1001
ACAD
1000
AcadProxyRoundTripData
1071
      507
1071
   655383
1070
     0
  0
ACAD_PROXY_OBJECT
  5
1CBE
102
{ACAD_REACTORS
330
1C9D
102
}
330
1C9D
100
AcDbProxyObject
 90
      499
 91
      511
 93
      257
310
90E31272D3022203D2031272D3022000000000000000A100000000000000284040
 94
        0
1001
ACAD
1000
AcadProxyRoundTripData
1071
      507
1071
   655383
1070
     0
  0
ACAD_PROXY_OBJECT
  5
1C9C
102
{ACAD_XDICTIONARY
360
1CF6
102
}
102
{ACAD_REACTORS
330
1C9B
102
}
330
1C9B
100
AcDbProxyObject
 90
      499
 91
      511
 93
     1849
310
4254DD185B99185C990028B81E85EB51B8AE3F2E07A17AD46E2B8FC02B5E8DC0F42B1CFD028000000C1008070000C3001FDFF8000000C1003FBFF000000182007F7FE00000030400FEFFC00000060801FDFF8000000C1003FBFF00000018200000000000000681FA0B0000001820100E000186003FBFF000000182007F7FE0
310
0000030400FEFFC00000060801FDFF8000000C1003FBFF000000182007F7FE000000304000AD7A3703D0AC73F4160000003040201C00030C007F7FE00000030400FEFFC00000060801FDFF8000000C1003FBFF000000182007F7FE00000030400FEFFC00000060802C
340
16
340
16
340
16
 94
        0
1001
ACAD
1000
AcadProxyRoundTripData
1071
      506
1071
   655383
1070
     0
  0
ACAD_PROXY_OBJECT
  5
1C8F
102
{ACAD_REACTORS
330
1C89
102
}
330
1C89
100
AcDbProxyObject
 90
      499
 91
      511
 93
      444
310
430C9915DA5C99599C985B59401049028333333333333E3BF0000000000000FB0107901411070040501600405405064090741402480A0340
 94
        0
1001
ACAD
1000
AcDbSavedByObjectVersion
1070
     0
1000
AcadProxyRoundTripData
1071
      505
1071
   655383
1070
     0
  0
ACAD_PROXY_OBJECT
  5
1C91
102
{ACAD_REACTORS
330
1C89
102
}
330
1C89
100
AcDbProxyObject
 90
      499
 91
      511
 93
      508
310
428CD108121A5919195B8010640502408333333333333E3BF0000000000000FB01079024090700405020000000000001110200405405064090740C02480A0340
 94
        0
1001
ACAD
1000
AcDbSavedByObjectVersion
1070
     0
1000
AcadProxyRoundTripData
1071
      505
1071
   655383
1070
     0
  0
ACAD_PROXY_OBJECT
  5
1C90
102
{ACAD_REACTORS
330
1C89
102
}
330
1C89
100
AcDbProxyObject
 90
      499
 91
      511
 93
      444
310
430CD915DA5C99599C985B59401059028333333333333E3BF0000000000000FB0107901411070040501600405405064090741402480A0340
 94
        0
1001
ACAD
1000
AcDbSavedByObjectVersion
1070
     0
1000
AcadProxyRoundTripData
1071
      505
1071
   655383
1070
     0
  0
ACAD_PROXY_OBJECT
  5
1C8E
102
{ACAD_REACTORS
330
1C89
102
}
330
1C89
100
AcDbProxyObject
 90
      499
 91
      511
 93
      396
310
4190985CDA58C0107406404333333333333E3BF0000000000000FB0107A41107004050150841D405064090741402480A0356
 94
        0
1001
ACAD
1000
AcDbSavedByObjectVersion
1070
     0
1000
AcadProxyRoundTripData
1071
      505
1071
   655383
1070
     0
  0
ACAD_PROXY_OBJECT
  5
1C95
102
{ACAD_REACTORS
330
1C89
102
}
330
1C89
100
AcDbProxyObject
 90
      499
 91
      511
 93
      436
310
42509C9A59DA1D195B8010C409028333333333333E3BF0000000000000FB010790141107004050150841D405064090741402480A029956
 94
        0
1001
ACAD
1000
AcDbSavedByObjectVersion
1070
     0
1000
AcadProxyRoundTripData
1071
      505
1071
   655383
1070
     0
  0
ACAD_PROXY_OBJECT
  5
1C99
102
{ACAD_REACTORS
330
1C89
102
}
330
1C89
100
AcDbProxyObject
 90
      499
 91
      511
 93
      460
310
4310DBDB1BDC90DA185B99D9401104090240C333333333333E3BF0000000000000FB0108901411070040501508421405064090741402480A0354
 94
        0
1001
ACAD
1000
AcDbSavedByObjectVersion
1070
     0
1000
AcadProxyRoundTripData
1071
      505
1071
   655383
1070
     0
  0
ACAD_PROXY_OBJECT
  5
1C92
102
{ACAD_REACTORS
330
1C89
102
}
330
1C89
100
AcDbProxyObject
 90
      499
 91
      511
 93
      508
310
42D0DBDB98D95C1D1D585B0010940D028333333333333E3BF0000000000000FB0107902409070040501000000000000111010841D405064090740C02480A0340
 94
        0
1001
ACAD
1000
AcDbSavedByObjectVersion
1070
     0
1000
AcadProxyRoundTripData
1071
      505
1071
   655383
1070
     0
  0
ACAD_PROXY_OBJECT
  5
1C94
102
{ACAD_REACTORS
330
1C89
102
}
330
1C89
100
AcDbProxyObject
 90
      499
 91
      511
 93
      420
310
41111A5B4010B409028333333333333E3BF0000000000000FB010790141107004050150841D405064090741402480A02677FFFFFDB
 94
        0
1001
ACAD
1000
AcDbSavedByObjectVersion
1070
     0
1000
AcadProxyRoundTripData
1071
      505
1071
   655383
1070
     0
  0
ACAD_PROXY_OBJECT
  5
1C98
102
{ACAD_REACTORS
330
1C89
102
}
330
1C89
100
AcDbProxyObject
 90
      499
 91
      511
 93
      452
310
43119858D95C185D1D195C9B8010F409028333333333333E3BF0000000000000FB010790141107004050150841D405064090741402480A0350
 94
        0
1001
ACAD
1000
AcDbSavedByObjectVersion
1070
     0
1000
AcadProxyRoundTripData
1071
      505
1071
   655383
1070
     0
  0
ACAD_PROXY_OBJECT
  5
1C8A
102
{ACAD_REACTORS
330
1C89
102
}
330
1C89
100
AcDbProxyObject
 90
      499
 91
      511
 93
      396
310
41519B185D00240901404333333333333E3BF0000000000000F9010740A41107004050150841D405064090741402480A1B55
 94
        0
1001
ACAD
1000
AcDbSavedByObjectVersion
1070
     0
1000
AcadProxyRoundTripData
1071
      505
1071
   655383
1070
     0
  0
ACAD_PROXY_OBJECT
  5
1C8B
102
{ACAD_REACTORS
330
1C89
102
}
330
1C89
100
AcDbProxyObject
 90
      499
 91
      511
 93
      484
310
43919B185D15DA5D1A115919D95CC010140901404333333333333E3BF0000000000000F9010740901411070040501600405405064090741402480A1B50
 94
        0
1001
ACAD
1000
AcDbSavedByObjectVersion
1070
     0
1000
AcadProxyRoundTripData
1071
      505
1071
   655383
1070
     0
  0
ACAD_PROXY_OBJECT
  5
1C8C
102
{ACAD_REACTORS
330
1C89
102
}
330
1C89
100
AcDbProxyObject
 90
      499
 91
      511
 93
      420
310
4211DBDD5C985D590010240902404333333333333E3BF0000000000000F9010740A411070040501641D405064090741402480A1B50
 94
        0
1001
ACAD
1000
AcDbSavedByObjectVersion
1070
     0
1000
AcadProxyRoundTripData
1071
      505
1071
   655383
1070
     0
  0
ACAD_PROXY_OBJECT
  5
1C8D
102
{ACAD_REACTORS
330
1C89
102
}
330
1C89
100
AcDbProxyObject
 90
      499
 91
      511
 93
      508
310
4451DBDD5C985D5915DA5D1A115919D95CC010340902404333333333333E3BF0000000000000F9010740901411070040501600405405064090741402480A1B50
 94
        0
1001
ACAD
1000
AcDbSavedByObjectVersion
1070
     0
1000
AcadProxyRoundTripData
1071
      505
1071
   655383
1070
     0
  0
ACAD_PROXY_OBJECT
  5
1C97
102
{ACAD_REACTORS
330
1C89
102
}
330
1C89
100
AcDbProxyObject
 90
      499
 91
      511
 93
      452
310
43131A5B995C185D1D195C9B8010E409028333333333333E3BF0000000000000FB010790141107004050750841D405064090741402483A0350
 94
        0
1001
ACAD
1000
AcDbSavedByObjectVersion
1070
     0
1000
AcadProxyRoundTripData
1071
      505
1071
   655383
1070
     0
  0
ACAD_PROXY_OBJECT
  5
1C93
102
{ACAD_REACTORS
330
1C89
102
}
330
1C89
100
AcDbProxyObject
 90
      499
 91
      511
 93
      428
310
429499585B1A5CDD1A58C0108409028333333333333E3BF0000000000000FB01079019070040501508421405064090741402480A1B45
 94
        0
1001
ACAD
1000
AcDbSavedByObjectVersion
1070
     0
1000
AcadProxyRoundTripData
1071
      505
1071
   655383
1070
     0
  0
ACAD_PROXY_OBJECT
  5
1C96
102
{ACAD_REACTORS
330
1C89
102
}
330
1C89
100
AcDbProxyObject
 90
      499
 91
      511
 93
      420
310
42151A1A58DAD95B8010D409028333333333333E3BF0000000000000FB010790141107004050150C41D405064090741402480A0352
 94
        0
1001
ACAD
1000
AcDbSavedByObjectVersion
1070
     0
1000
AcadProxyRoundTripData
1071
      505
1071
   655383
1070
     0
  0
XRECORD
  5
1D3D
102
{ACAD_REACTORS
330
1D33
102
}
330
1D33
100
AcDbXrecord
 90
        0
  0
XRECORD
  5
1D41
102
{ACAD_REACTORS
330
1D33
102
}
330
1D33
100
AcDbXrecord
1000
DSTYLE
1002
{
1070
   179
 70
     2
1070
   277
 70
     6
1002
}
  0
XRECORD
  5
1D3E
102
{ACAD_REACTORS
330
1D33
102
}
330
1D33
100
AcDbXrecord
  1
{6385560B-F4B1-4644-A7C2-A3E32AC3D232}
  0
XRECORD
  5
1D36
102
{ACAD_REACTORS
330
1D33
102
}
330
1D33
100
AcDbXrecord
  1

  0
XRECORD
  5
1D3C
102
{ACAD_REACTORS
330
1D33
102
}
330
1D33
100
AcDbXrecord
 90
        0
  0
XRECORD
  5
1D38
102
{ACAD_REACTORS
330
1D33
102
}
330
1D33
100
AcDbXrecord
340
61
  0
XRECORD
  5
1D3B
102
{ACAD_REACTORS
330
1D33
102
}
330
1D33
100
AcDbXrecord
 90
    10781
  0
XRECORD
  5
1D39
102
{ACAD_REACTORS
330
1D33
102
}
330
1D33
100
AcDbXrecord
340
77
  0
XRECORD
  5
1D3A
102
{ACAD_REACTORS
330
1D33
102
}
330
1D33
100
AcDbXrecord
340
6
  0
XRECORD
  5
1D40
102
{ACAD_REACTORS
330
1D33
102
}
330
1D33
100
AcDbXrecord
 40
0.0
  0
XRECORD
  5
1D44
102
{ACAD_REACTORS
330
1D33
102
}
330
1D33
100
AcDbXrecord
340
0
  0
XRECORD
  5
1D4A
102
{ACAD_REACTORS
330
1D33
102
}
330
1D33
100
AcDbXrecord
 10
0.0
 20
0.0
 30
0.0
  0
XRECORD
  5
1D46
102
{ACAD_REACTORS
330
1D33
102
}
330
1D33
100
AcDbXrecord
 10
0.0
 20
0.0
 30
0.0
  0
XRECORD
  5
1D49
102
{ACAD_REACTORS
330
1D33
102
}
330
1D33
100
AcDbXrecord
 10
0.0
 20
0.0
 30
0.0
  0
XRECORD
  5
1D47
102
{ACAD_REACTORS
330
1D33
102
}
330
1D33
100
AcDbXrecord
 10
0.0
 20
0.0
 30
0.0
  0
XRECORD
  5
1D48
102
{ACAD_REACTORS
330
1D33
102
}
330
1D33
100
AcDbXrecord
 10
0.0
 20
0.0
 30
0.0
  0
XRECORD
  5
1D45
102
{ACAD_REACTORS
330
1D33
102
}
330
1D33
100
AcDbXrecord
 10
0.0
 20
0.0
 30
0.0
  0
XRECORD
  5
1D42
102
{ACAD_REACTORS
330
1D33
102
}
330
1D33
100
AcDbXrecord
340
0
  0
XRECORD
  5
1D43
102
{ACAD_REACTORS
330
1D33
102
}
330
1D33
100
AcDbXrecord
 70
     0
  0
XRECORD
  5
1D37
102
{ACAD_REACTORS
330
1D33
102
}
330
1D33
100
AcDbXrecord
  1
Sekkei.ctb
  0
XRECORD
  5
1D34
102
{ACAD_REACTORS
330
1D33
102
}
330
1D33
100
AcDbXrecord
 90
        1
  0
XRECORD
  5
1D35
102
{ACAD_REACTORS
330
1D33
102
}
330
1D33
100
AcDbXrecord
 90
       70
  0
XRECORD
  5
1D4D
102
{ACAD_REACTORS
330
1D33
102
}
330
1D33
100
AcDbXrecord
340
0
  0
XRECORD
  5
1D53
102
{ACAD_REACTORS
330
1D33
102
}
330
1D33
100
AcDbXrecord
 10
0.0
 20
0.0
 30
0.0
  0
XRECORD
  5
1D4F
102
{ACAD_REACTORS
330
1D33
102
}
330
1D33
100
AcDbXrecord
 10
0.0
 20
0.0
 30
0.0
  0
XRECORD
  5
1D52
102
{ACAD_REACTORS
330
1D33
102
}
330
1D33
100
AcDbXrecord
 10
0.0
 20
0.0
 30
0.0
  0
XRECORD
  5
1D50
102
{ACAD_REACTORS
330
1D33
102
}
330
1D33
100
AcDbXrecord
 10
0.0
 20
0.0
 30
0.0
  0
XRECORD
  5
1D51
102
{ACAD_REACTORS
330
1D33
102
}
330
1D33
100
AcDbXrecord
 10
0.0
 20
0.0
 30
0.0
  0
XRECORD
  5
1D4E
102
{ACAD_REACTORS
330
1D33
102
}
330
1D33
100
AcDbXrecord
 10
0.0
 20
0.0
 30
0.0
  0
XRECORD
  5
1D4B
102
{ACAD_REACTORS
330
1D33
102
}
330
1D33
100
AcDbXrecord
340
0
  0
XRECORD
  5
1D4C
102
{ACAD_REACTORS
330
1D33
102
}
330
1D33
100
AcDbXrecord
 70
     0
  0
XRECORD
  5
1D3F
102
{ACAD_REACTORS
330
1D33
102
}
330
1D33
100
AcDbXrecord
  1
{4944C7F6-F7A6-44F5-ACF3-0B37B789BC9F}
  0
DICTIONARYVAR
  5
1D19
102
{ACAD_REACTORS
330
102
102
}
330
102
100
DictionaryVariables
280
     0
  1
1:1
  0
DICTIONARYVAR
  5
1D18
102
{ACAD_REACTORS
330
102
102
}
330
102
100
DictionaryVariables
280
     0
  1
STANDARD
  0
DICTIONARYVAR
  5
1D17
102
{ACAD_REACTORS
330
102
102
}
330
102
100
DictionaryVariables
280
     0
  1
STANDARD
  0
DICTIONARYVAR
  5
103
102
{ACAD_REACTORS
330
102
102
}
330
102
100
DictionaryVariables
280
     0
  1
1
  0
DICTIONARYVAR
  5
1D1A
102
{ACAD_REACTORS
330
102
102
}
330
102
100
DictionaryVariables
280
     0
  1
0
  0
DICTIONARYVAR
  5
549
102
{ACAD_REACTORS
330
102
102
}
330
102
100
DictionaryVariables
280
     0
  1
96
  0
DICTIONARY
  5
1C7A
330
1C79
100
AcDbDictionary
280
     1
  3
ACAD_XREC_ROUNDTRIP
360
1D14
  3
BUMPTILE
360
1C7C
  3
DIFFUSETILE
360
1C7B
  3
OPACITYTILE
360
1C7F
  3
REFLECTIONTILE
360
1C7E
  3
REFRACTIONTILE
360
1C80
  3
SPECULARTILE
360
1C7D
  0
DICTIONARY
  5
1C72
330
1C71
100
AcDbDictionary
280
     1
  3
ACAD_XREC_ROUNDTRIP
360
1D13
  3
BUMPTILE
360
1C74
  3
DIFFUSETILE
360
1C73
  3
OPACITYTILE
360
1C77
  3
REFLECTIONTILE
360
1C76
  3
REFRACTIONTILE
360
1C78
  3
SPECULARTILE
360
1C75
  0
DICTIONARY
  5
1C82
330
1C81
100
AcDbDictionary
280
     1
  3
ACAD_XREC_ROUNDTRIP
360
1D15
  3
BUMPTILE
360
1C84
  3
DIFFUSETILE
360
1C83
  3
OPACITYTILE
360
1C87
  3
REFLECTIONTILE
360
1C86
  3
REFRACTIONTILE
360
1C88
  3
SPECULARTILE
360
1C85
  0
DICTIONARY
  5
1CF6
330
1C9C
100
AcDbDictionary
280
     1
  3
ACAD_ROUNDTRIP_2008_TABLES
360
1CF7
  3
ACAD_XREC_ROUNDTRIP
360
1D16
  0
XRECORD
  5
1D14
102
{ACAD_REACTORS
330
1C7A
102
}
330
1C7A
100
AcDbXrecord
102
MATERIAL
148
0.0
149
0.0
149
0.0
 93
        0
 94
      127
282
     0
 72
     0
 77
     0
171
     0
175
     0
179
     0
273
     0
  0
XRECORD
  5
1C7C
102
{ACAD_REACTORS
330
1C7A
102
}
330
1C7A
100
AcDbXrecord
270
     1
271
     1
  0
XRECORD
  5
1C7B
102
{ACAD_REACTORS
330
1C7A
102
}
330
1C7A
100
AcDbXrecord
270
     1
271
     1
  0
XRECORD
  5
1C7F
102
{ACAD_REACTORS
330
1C7A
102
}
330
1C7A
100
AcDbXrecord
270
     1
271
     1
  0
XRECORD
  5
1C7E
102
{ACAD_REACTORS
330
1C7A
102
}
330
1C7A
100
AcDbXrecord
270
     1
271
     1
  0
XRECORD
  5
1C80
102
{ACAD_REACTORS
330
1C7A
102
}
330
1C7A
100
AcDbXrecord
270
     1
271
     1
  0
XRECORD
  5
1C7D
102
{ACAD_REACTORS
330
1C7A
102
}
330
1C7A
100
AcDbXrecord
270
     1
271
     1
  0
XRECORD
  5
1D13
102
{ACAD_REACTORS
330
1C72
102
}
330
1C72
100
AcDbXrecord
102
MATERIAL
148
0.0
149
0.0
149
0.0
 93
        0
 94
      127
282
     0
 72
     0
 77
     0
171
     0
175
     0
179
     0
273
     0
  0
XRECORD
  5
1C74
102
{ACAD_REACTORS
330
1C72
102
}
330
1C72
100
AcDbXrecord
270
     1
271
     1
  0
XRECORD
  5
1C73
102
{ACAD_REACTORS
330
1C72
102
}
330
1C72
100
AcDbXrecord
270
     1
271
     1
  0
XRECORD
  5
1C77
102
{ACAD_REACTORS
330
1C72
102
}
330
1C72
100
AcDbXrecord
270
     1
271
     1
  0
XRECORD
  5
1C76
102
{ACAD_REACTORS
330
1C72
102
}
330
1C72
100
AcDbXrecord
270
     1
271
     1
  0
XRECORD
  5
1C78
102
{ACAD_REACTORS
330
1C72
102
}
330
1C72
100
AcDbXrecord
270
     1
271
     1
  0
XRECORD
  5
1C75
102
{ACAD_REACTORS
330
1C72
102
}
330
1C72
100
AcDbXrecord
270
     1
271
     1
  0
XRECORD
  5
1D15
102
{ACAD_REACTORS
330
1C82
102
}
330
1C82
100
AcDbXrecord
102
MATERIAL
148
0.0
149
0.0
149
0.0
 93
        0
 94
      127
282
     0
 72
     0
 77
     0
171
     0
175
     0
179
     0
273
     0
  0
XRECORD
  5
1C84
102
{ACAD_REACTORS
330
1C82
102
}
330
1C82
100
AcDbXrecord
270
     1
271
     1
  0
XRECORD
  5
1C83
102
{ACAD_REACTORS
330
1C82
102
}
330
1C82
100
AcDbXrecord
270
     1
271
     1
  0
XRECORD
  5
1C87
102
{ACAD_REACTORS
330
1C82
102
}
330
1C82
100
AcDbXrecord
270
     1
271
     1
  0
XRECORD
  5
1C86
102
{ACAD_REACTORS
330
1C82
102
}
330
1C82
100
AcDbXrecord
270
     1
271
     1
  0
XRECORD
  5
1C88
102
{ACAD_REACTORS
330
1C82
102
}
330
1C82
100
AcDbXrecord
270
     1
271
     1
  0
XRECORD
  5
1C85
102
{ACAD_REACTORS
330
1C82
102
}
330
1C82
100
AcDbXrecord
270
     1
271
     1
  0
ACAD_PROXY_OBJECT
  5
1CF7
102
{ACAD_REACTORS
330
1CF6
102
}
330
1CF6
100
AcDbProxyObject
 90
      499
 91
      511
 93
     1044
310
40D054060020000020000003200101A000080002A5058000000C100000000000000340FE901405075F5449544C450041501A8000000C800406800020000A9416000000304000AD7A3703D0AC73FA409014217D2115051115480105406A0000003200101A000080002A5028000000C10002B5E8DC0F42B1CFE903409065F444
310
15441004
340
16
340
16
340
16
 94
        0
1001
ACAD
1000
AcadProxyRoundTripData
1071
      510
1071
   655383
1070
     0
  0
XRECORD
  5
1D16
102
{ACAD_REACTORS
330
1CF6
102
}
330
1CF6
100
AcDbXrecord
102
ACAD_ROUNDTRIP_PRE2007_TABLESTYLE
 90
      512
 91
        0
  1

 92
      512
 93
        0
  2

 94
      512
 95
        0
  3

  0
ENDSEC
  0
EOF
