  0
SECTION
  2
HEADER
  9
$ACADVER
  1
AC1014
  9
$ACADMAINTVER
 70
     9
  9
$DWGCODEPAGE
  3
ANSI_932
  9
$INSBASE
 10
0.0
 20
0.0
 30
0.0
  9
$EXTMIN
 10
39.41773362817525
 20
92.88402238433121
 30
0.0
  9
$EXTMAX
 10
1127.24779147944
 20
756.2798740037142
 30
0.0
  9
$LIMMIN
 10
0.0
 20
0.0
  9
$LIMMAX
 10
297.0
 20
210.0
  9
$ORTHOMODE
 70
     1
  9
$REGENMODE
 70
     1
  9
$FILLMODE
 70
     1
  9
$QTEXTMODE
 70
     0
  9
$MIRRTEXT
 70
     0
  9
$DRAGMODE
 70
     2
  9
$LTSCALE
 40
3.0
  9
$OSMODE
 70
    37
  9
$ATTMODE
 70
     1
  9
$TEXTSIZE
 40
2.0
  9
$TRACEWID
 40
1.0
  9
$TEXTSTYLE
  7
STANDARD
  9
$CLAYER
  8
0
  9
$CELTYPE
  6
BYLAYER
  9
$CECOLOR
 62
   256
  9
$CELTSCALE
 40
1.0
  9
$DELOBJ
 70
     1
  9
$DISPSILH
 70
     0
  9
$DIMSCALE
 40
3.0
  9
$DIMASZ
 40
1.8
  9
$DIMEXO
 40
0.625
  9
$DIMDLI
 40
3.75
  9
$DIMRND
 40
0.0
  9
$DIMDLE
 40
0.0
  9
$DIMEXE
 40
0.8
  9
$DIMTP
 40
0.0
  9
$DIMTM
 40
0.0
  9
$DIMTXT
 40
1.8
  9
$DIMCEN
 40
2.5
  9
$DIMTSZ
 40
0.0
  9
$DIMTOL
 70
     0
  9
$DIMLIM
 70
     0
  9
$DIMTIH
 70
     0
  9
$DIMTOH
 70
     0
  9
$DIMSE1
 70
     0
  9
$DIMSE2
 70
     0
  9
$DIMTAD
 70
     1
  9
$DIMZIN
 70
     8
  9
$DIMBLK
  1

  9
$DIMASO
 70
     1
  9
$DIMSHO
 70
     1
  9
$DIMPOST
  1

  9
$DIMAPOST
  1

  9
$DIMALT
 70
     0
  9
$DIMALTD
 70
     4
  9
$DIMALTF
 40
0.0394
  9
$DIMLFAC
 40
1.0
  9
$DIMTOFL
 70
     1
  9
$DIMTVP
 40
0.0
  9
$DIMTIX
 70
     0
  9
$DIMSOXD
 70
     0
  9
$DIMSAH
 70
     0
  9
$DIMBLK1
  1

  9
$DIMBLK2
  1

  9
$DIMSTYLE
  2
STANDARD
  9
$DIMCLRD
 70
     0
  9
$DIMCLRE
 70
     0
  9
$DIMCLRT
 70
     0
  9
$DIMTFAC
 40
1.0
  9
$DIMGAP
 40
0.75
  9
$DIMJUST
 70
     0
  9
$DIMSD1
 70
     0
  9
$DIMSD2
 70
     0
  9
$DIMTOLJ
 70
     1
  9
$DIMTZIN
 70
     0
  9
$DIMALTZ
 70
     0
  9
$DIMALTTZ
 70
     0
  9
$DIMFIT
 70
     3
  9
$DIMUPT
 70
     0
  9
$DIMUNIT
 70
     8
  9
$DIMDEC
 70
     2
  9
$DIMTDEC
 70
     2
  9
$DIMALTU
 70
     8
  9
$DIMALTTD
 70
     4
  9
$DIMTXSTY
  7
STANDARD
  9
$DIMAUNIT
 70
     0
  9
$LUNITS
 70
     2
  9
$LUPREC
 70
     3
  9
$SKETCHINC
 40
1.0
  9
$FILLETRAD
 40
2.0
  9
$AUNITS
 70
     0
  9
$AUPREC
 70
     2
  9
$MENU
  1
.
  9
$ELEVATION
 40
0.0
  9
$PELEVATION
 40
0.0
  9
$THICKNESS
 40
0.0
  9
$LIMCHECK
 70
     0
  9
$BLIPMODE
 70
     0
  9
$CHAMFERA
 40
0.0
  9
$CHAMFERB
 40
0.0
  9
$CHAMFERC
 40
20.0
  9
$CHAMFERD
 40
0.0
  9
$SKPOLY
 70
     0
  9
$TDCREATE
 40
2454413.386270613
  9
$TDUPDATE
 40
2454424.602682106
  9
$TDINDWG
 40
0.0088711574
  9
$TDUSRTIMER
 40
0.0088711574
  9
$USRTIMER
 70
     1
  9
$ANGBASE
 50
0.0
  9
$ANGDIR
 70
     0
  9
$PDMODE
 70
     0
  9
$PDSIZE
 40
-10.0
  9
$PLINEWID
 40
0.0
  9
$COORDS
 70
     0
  9
$SPLFRAME
 70
     0
  9
$SPLINETYPE
 70
     6
  9
$SPLINESEGS
 70
     8
  9
$ATTDIA
 70
     0
  9
$ATTREQ
 70
     1
  9
$HANDLING
 70
-16383
  9
$HANDSEED
  5
19A0
  9
$SURFTAB1
 70
     6
  9
$SURFTAB2
 70
     6
  9
$SURFTYPE
 70
     6
  9
$SURFU
 70
     6
  9
$SURFV
 70
     6
  9
$UCSNAME
  2

  9
$UCSORG
 10
0.0
 20
0.0
 30
0.0
  9
$UCSXDIR
 10
1.0
 20
0.0
 30
0.0
  9
$UCSYDIR
 10
0.0
 20
1.0
 30
0.0
  9
$PUCSNAME
  2

  9
$PUCSORG
 10
0.0
 20
0.0
 30
0.0
  9
$PUCSXDIR
 10
1.0
 20
0.0
 30
0.0
  9
$PUCSYDIR
 10
0.0
 20
1.0
 30
0.0
  9
$USERI1
 70
     0
  9
$USERI2
 70
     0
  9
$USERI3
 70
     0
  9
$USERI4
 70
     0
  9
$USERI5
 70
     0
  9
$USERR1
 40
0.0
  9
$USERR2
 40
0.0
  9
$USERR3
 40
0.0
  9
$USERR4
 40
0.0
  9
$USERR5
 40
0.0
  9
$WORLDVIEW
 70
     1
  9
$SHADEDGE
 70
     3
  9
$SHADEDIF
 70
    70
  9
$TILEMODE
 70
     1
  9
$MAXACTVP
 70
    48
  9
$PINSBASE
 10
0.0
 20
0.0
 30
0.0
  9
$PLIMCHECK
 70
     0
  9
$PEXTMIN
 10
0.0
 20
0.0
 30
0.0
  9
$PEXTMAX
 10
0.0
 20
0.0
 30
0.0
  9
$PLIMMIN
 10
0.0
 20
0.0
  9
$PLIMMAX
 10
12.0
 20
9.0
  9
$UNITMODE
 70
     0
  9
$VISRETAIN
 70
     1
  9
$PLINEGEN
 70
     0
  9
$PSLTSCALE
 70
     1
  9
$TREEDEPTH
 70
  3020
  9
$PICKSTYLE
 70
     1
  9
$CMLSTYLE
  2
STANDARD
  9
$CMLJUST
 70
     0
  9
$CMLSCALE
 40
1.0
  9
$PROXYGRAPHICS
 70
     1
  9
$MEASUREMENT
 70
     0
  0
ENDSEC
  0
SECTION
  2
CLASSES
  0
CLASS
  1
DICTIONARYVAR
  2
AcDbDictionaryVar
  3
AutoCAD 2000
 90
        0
280
     0
281
     0
  0
CLASS
  1
ACDBDICTIONARYWDFLT
  2
AcDbDictionaryWithDefault
  3
AutoCAD 2000
 90
        0
280
     0
281
     0
  0
CLASS
  1
ACDBPLACEHOLDER
  2
AcDbPlaceHolder
  3
AutoCAD 2000
 90
        0
280
     0
281
     0
  0
CLASS
  1
LAYOUT
  2
AcDbLayout
  3
AutoCAD 2000
 90
        0
280
     0
281
     0
  0
CLASS
  1
MATERIAL
  2
AcDbMaterial
  3
ObjectDBX Classes
 90
     1153
280
     0
281
     0
  0
CLASS
  1
VISUALSTYLE
  2
AcDbVisualStyle
  3
ObjectDBX Classes
 90
     4095
280
     0
281
     0
  0
CLASS
  1
TABLESTYLE
  2
AcDbTableStyle
  3
ObjectDBX Classes
 90
     4095
280
     0
281
     0
  0
CLASS
  1
SCALE
  2
AcDbScale
  3
ObjectDBX Classes
 90
     1153
280
     0
281
     0
  0
CLASS
  1
MLEADERSTYLE
  2
AcDbMLeaderStyle
  3
ACDB_MLEADERSTYLE_CLASS
 90
     4095
280
     0
281
     0
  0
CLASS
  1
CELLSTYLEMAP
  2
AcDbCellStyleMap
  3
ObjectDBX Classes
 90
     1152
280
     0
281
     0
  0
CLASS
  1
ACAD_PROXY_OBJECT_WRAPPER
  2
AcDbProxyObjectWrapper
  3
AutoCAD 2000
 90
        0
280
     0
281
     0
  0
CLASS
  1
LONG_TRANSACTION
  2
AcDbLongTransaction
  3
AutoCAD 2000
 90
        0
280
     0
281
     0
  0
CLASS
  1
LWPOLYLINE
  2
AcDbPolyline
  3
AutoCAD 2000
 90
        0
280
     0
281
     1
  0
CLASS
  1
HATCH
  2
AcDbHatch
  3
AutoCAD 2000
 90
        0
280
     0
281
     1
  0
CLASS
  1
XRECORD
  2
AcDbXrecord
  3
AutoCAD 2000
 90
        0
280
     0
281
     0
  0
ENDSEC
  0
SECTION
  2
TABLES
  0
TABLE
  2
VPORT
  5
6E
102
{ACAD_XDICTIONARY
360
193A
102
}
330
0
100
AcDbSymbolTable
 70
     2
  0
VPORT
  5
197A
330
6E
100
AcDbSymbolTableRecord
100
AcDbViewportTableRecord
  2
*ACTIVE
 70
     0
 10
0.0
 20
0.0
 11
1.0
 21
1.0
 12
657.0718534846121
 22
410.8518254060383
 13
0.0
 23
0.0
 14
10.0
 24
10.0
 15
10.0
 25
10.0
 16
0.0
 26
0.0
 36
1.0
 17
0.0
 27
0.0
 37
0.0
 40
707.6573728963803
 41
1.753504672897196
 42
50.0
 43
0.0
 44
0.0
 50
0.0
 51
0.0
 71
     0
 72
   100
 73
     1
 74
     3
 75
     0
 76
     0
 77
     0
 78
     0
  0
ENDTAB
  0
TABLE
  2
LTYPE
  5
69
330
0
100
AcDbSymbolTable
 70
     6
  0
LTYPE
  5
6A
330
69
100
AcDbSymbolTableRecord
100
AcDbLinetypeTableRecord
  2
BYBLOCK
 70
     0
  3

 72
    65
 73
     0
 40
0.0
  0
LTYPE
  5
6B
330
69
100
AcDbSymbolTableRecord
100
AcDbLinetypeTableRecord
  2
BYLAYER
 70
     0
  3

 72
    65
 73
     0
 40
0.0
  0
LTYPE
  5
8
330
69
100
AcDbSymbolTableRecord
100
AcDbLinetypeTableRecord
  2
CONTINUOUS
 70
     0
  3
Solid line
 72
    65
 73
     0
 40
0.0
  0
LTYPE
  5
27C
330
69
100
AcDbSymbolTableRecord
100
AcDbLinetypeTableRecord
  2
SEKKEI_A2_
 70
     0
  3
center(A2)  ____ _ ____ _ ____ _ ____ _ ____ _ 
 72
    65
 73
     4
 40
14.28749999999999
 49
9.525
 74
     0
 49
-1.587499999999999
 74
     0
 49
1.587499999999999
 74
     0
 49
-1.587499999999999
 74
     0
  0
LTYPE
  5
7EF
330
69
100
AcDbSymbolTableRecord
100
AcDbLinetypeTableRecord
  2
PHANTOM3
 70
     0
  3
Phantom  ___ _ _ ___ _ _ ___ _ _ ___ _ _
 72
    65
 73
     6
 40
9.0
 49
4.0
 74
     0
 49
-1.0
 74
     0
 49
1.0
 74
     0
 49
-1.0
 74
     0
 49
1.0
 74
     0
 49
-1.0
 74
     0
  0
LTYPE
  5
7F0
330
69
100
AcDbSymbolTableRecord
100
AcDbLinetypeTableRecord
  2
HIDDEN3
 70
     0
  3
Hidden (.3x) _ _ _ _ _ _ _ _ _ _ _ _ _ _ _ _ _
 72
    65
 73
     2
 40
2.857499999999999
 49
1.905
 74
     0
 49
-0.9525
 74
     0
  0
LTYPE
  5
B0E
330
69
100
AcDbSymbolTableRecord
100
AcDbLinetypeTableRecord
  2
CENS
 70
     0
  3
(一点鎖線１)---- - ---- - ---- - ---- - ---- - 
 72
    65
 73
     4
 40
7.0
 49
4.0
 74
     0
 49
-1.0
 74
     0
 49
1.0
 74
     0
 49
-1.0
 74
     0
  0
ENDTAB
  0
TABLE
  2
LAYER
  5
66
102
{ACAD_XDICTIONARY
360
B0F
102
}
330
0
100
AcDbSymbolTable
 70
    10
  0
LAYER
  5
5E
102
{ACAD_XDICTIONARY
360
191D
102
}
330
66
100
AcDbSymbolTableRecord
100
AcDbLayerTableRecord
  2
0
 70
     0
 62
     7
  6
CONTINUOUS
  0
LAYER
  5
3E
102
{ACAD_XDICTIONARY
360
191F
102
}
330
66
100
AcDbSymbolTableRecord
100
AcDbLayerTableRecord
  2
CENTER
 70
     0
 62
     3
  6
SEKKEI_A2_
  0
LAYER
  5
2B5
102
{ACAD_XDICTIONARY
360
1925
102
}
330
66
100
AcDbSymbolTableRecord
100
AcDbLayerTableRecord
  2
HIDS
 70
     0
 62
     1
  6
HIDDEN3
  0
LAYER
  5
2BA
102
{ACAD_XDICTIONARY
360
1927
102
}
330
66
100
AcDbSymbolTableRecord
100
AcDbLayerTableRecord
  2
HOJO
 70
     0
 62
     4
  6
CONTINUOUS
  0
LAYER
  5
3FA
102
{ACAD_XDICTIONARY
360
192B
102
}
330
66
100
AcDbSymbolTableRecord
100
AcDbLayerTableRecord
  2
TITLE
 70
     0
 62
     4
  6
CONTINUOUS
  0
LAYER
  5
478
102
{ACAD_XDICTIONARY
360
192D
102
}
330
66
100
AcDbSymbolTableRecord
100
AcDbLayerTableRecord
  2
PHAS
 70
     0
 62
     2
  6
PHANTOM3
  0
ENDTAB
  0
TABLE
  2
STYLE
  5
67
330
0
100
AcDbSymbolTable
 70
     2
  0
STYLE
  5
16
330
67
100
AcDbSymbolTableRecord
100
AcDbTextStyleTableRecord
  2
STANDARD
 70
     0
 40
0.0
 41
1.0
 50
0.0
 71
     0
 42
2.0
  3
simplex.shx
  4
extfont.shx
  0
ENDTAB
  0
TABLE
  2
VIEW
  5
6C
330
0
100
AcDbSymbolTable
 70
     0
  0
ENDTAB
  0
TABLE
  2
UCS
  5
6D
330
0
100
AcDbSymbolTable
 70
     0
  0
ENDTAB
  0
TABLE
  2
APPID
  5
70
330
0
100
AcDbSymbolTable
 70
     3
  0
APPID
  5
71
330
70
100
AcDbSymbolTableRecord
100
AcDbRegAppTableRecord
  2
ACAD
 70
     0
  0
APPID
  5
18AA
330
70
100
AcDbSymbolTableRecord
100
AcDbRegAppTableRecord
  2
ACAD_MLEADERVER
 70
     0
  0
APPID
  5
191C
330
70
100
AcDbSymbolTableRecord
100
AcDbRegAppTableRecord
  2
ACAD_DSTYLE_DIMRADIAL_EXTENSION
 70
     0
  0
ENDTAB
  0
TABLE
  2
DIMSTYLE
  5
72
330
0
100
AcDbSymbolTable
 70
     1
  0
DIMSTYLE
105
73
330
72
100
AcDbSymbolTableRecord
100
AcDbDimStyleTableRecord
  2
STANDARD
 70
     0
  3

  4

  5

  6

  7

 40
3.0
 41
1.8
 42
0.625
 43
3.75
 44
0.8
 45
0.0
 46
0.0
 47
0.0
 48
0.0
140
1.8
141
2.5
142
0.0
143
0.0394
144
1.0
145
0.0
146
1.0
147
0.75
 71
     0
 72
     0
 73
     0
 74
     0
 75
     0
 76
     0
 77
     1
 78
     8
170
     0
171
     4
172
     1
173
     0
174
     0
175
     0
176
     0
177
     0
178
     0
270
     8
271
     2
272
     2
273
     8
274
     4
340
16
275
     0
280
     0
281
     0
282
     0
283
     1
284
     0
285
     0
286
     0
287
     3
288
     0
  0
ENDTAB
  0
TABLE
  2
BLOCK_RECORD
  5
1
330
0
100
AcDbSymbolTable
 70
    55
  0
BLOCK_RECORD
  5
2
102
{ACAD_XDICTIONARY
360
199C
102
}
330
1
100
AcDbSymbolTableRecord
100
AcDbBlockTableRecord
  2
*MODEL_SPACE
  0
BLOCK_RECORD
  5
1975
102
{ACAD_XDICTIONARY
360
199E
102
}
330
1
100
AcDbSymbolTableRecord
100
AcDbBlockTableRecord
  2
*PAPER_SPACE
  0
ENDTAB
  0
ENDSEC
  0
SECTION
  2
BLOCKS
  0
BLOCK
  5
5D
330
2
100
AcDbEntity
  8
0
100
AcDbBlockBegin
  2
*MODEL_SPACE
 70
     0
 10
0.0
 20
0.0
 30
0.0
  3
*MODEL_SPACE
  1

  0
ENDBLK
  5
5F
330
2
100
AcDbEntity
  8
0
100
AcDbBlockEnd
  0
BLOCK
  5
1977
330
1975
100
AcDbEntity
 67
     1
  8
0
100
AcDbBlockBegin
  2
*PAPER_SPACE
 70
     0
 10
0.0
 20
0.0
 30
0.0
  3
*PAPER_SPACE
  1

  0
ENDBLK
  5
1978
330
1975
100
AcDbEntity
 67
     1
  8
0
100
AcDbBlockEnd
  0
ENDSEC
  0
SECTION
  2
ENTITIES
  0
TEXT
  5
FE1
330
2
100
AcDbEntity
  8
TITLE
100
AcDbText
 10
384.5980975728936
 20
688.4556440349306
 30
0.0
 40
7.5
  1
AFCZ28S-10~30M750S1
100
AcDbText
  0
TEXT
  5
FE2
330
2
100
AcDbEntity
  8
TITLE
100
AcDbText
 10
384.5980975728936
 20
676.9556440349306
 30
0.0
 40
7.5
  1
AFCZ28S-10~30L750S1
100
AcDbText
  0
LINE
  5
FE4
330
2
100
AcDbEntity
  8
CENTER
100
AcDbLine
 10
600.2566290167622
 20
685.7798740037142
 30
0.0
 11
880.3917326813063
 21
685.7798740037138
 31
0.0
  0
LINE
  5
FE5
330
2
100
AcDbEntity
  8
CENTER
100
AcDbLine
 10
249.8277336281741
 20
483.3155600852968
 30
0.0
 11
249.8277336281741
 21
343.3155600852969
 31
0.0
  0
LINE
  5
FE6
330
2
100
AcDbEntity
  8
CENTER
100
AcDbLine
 10
669.981732681307
 20
756.2798740037142
 30
0.0
 11
669.981732681307
 21
598.7798740037142
 31
0.0
  0
LINE
  5
FE7
330
2
100
AcDbEntity
  8
CENTER
100
AcDbLine
 10
732.0025479614766
 20
351.2947448051296
 30
0.0
 11
607.9609174011336
 21
475.3363753654716
 31
0.0
  0
LINE
  5
FE8
330
2
100
AcDbEntity
  8
CENTER
100
AcDbLine
 10
607.9609174011355
 20
351.2947448051278
 30
0.0
 11
732.0025479614785
 21
475.3363753654695
 31
0.0
  0
LINE
  5
FE9
330
2
100
AcDbEntity
  8
CENTER
100
AcDbLine
 10
669.981732681307
 20
333.3155600853005
 30
0.0
 11
669.981732681307
 21
493.3155600853005
 31
0.0
  0
LINE
  5
FEA
330
2
100
AcDbEntity
  8
CENTER
100
AcDbLine
 10
589.9817326813051
 20
413.3155600852987
 30
0.0
 11
880.3917326813063
 21
413.3155600852988
 31
0.0
  0
LINE
  5
FEB
330
2
100
AcDbEntity
  8
CENTER
100
AcDbLine
 10
620.4842579982466
 20
453.8130347683581
 30
0.0
 11
620.4842579982466
 21
471.8130347683581
 31
0.0
  0
LINE
  5
FEC
330
2
100
AcDbEntity
  8
CENTER
100
AcDbLine
 10
611.4842579982466
 20
462.8130347683581
 30
0.0
 11
629.4842579982466
 21
462.8130347683581
 31
0.0
  0
LINE
  5
FED
330
2
100
AcDbEntity
  8
CENTER
100
AcDbLine
 10
719.4792073643655
 20
453.8130347683581
 30
0.0
 11
719.4792073643655
 21
471.8130347683581
 31
0.0
  0
LINE
  5
FEE
330
2
100
AcDbEntity
  8
CENTER
100
AcDbLine
 10
728.4792073643655
 20
462.8130347683563
 30
0.0
 11
710.4792073643655
 21
462.8130347683563
 31
0.0
  0
LINE
  5
FEF
330
2
100
AcDbEntity
  8
CENTER
100
AcDbLine
 10
719.4792073643636
 20
372.8180854022429
 30
0.0
 11
719.4792073643636
 21
354.8180854022429
 31
0.0
  0
LINE
  5
FF0
330
2
100
AcDbEntity
  8
CENTER
100
AcDbLine
 10
728.4792073643636
 20
363.8180854022429
 30
0.0
 11
710.4792073643636
 21
363.8180854022429
 31
0.0
  0
LINE
  5
FF1
330
2
100
AcDbEntity
  8
CENTER
100
AcDbLine
 10
620.4842579982475
 20
372.8180854022393
 30
0.0
 11
620.4842579982475
 21
354.8180854022393
 31
0.0
  0
LINE
  5
FF2
330
2
100
AcDbEntity
  8
CENTER
100
AcDbLine
 10
611.4842579982475
 20
363.8180854022411
 30
0.0
 11
629.4842579982476
 21
363.8180854022411
 31
0.0
  0
ARC
  5
FF3
330
2
100
AcDbEntity
  8
0
100
AcDbCircle
 10
669.9817326813006
 20
603.3155600853006
 30
0.0
 40
250.0
100
AcDbArc
 50
264.7203967176031
 51
275.2796032823967
  0
ARC
  5
FF4
330
2
100
AcDbEntity
  8
0
100
AcDbCircle
 10
669.9817326813061
 20
223.3155600853005
 30
0.0
 40
250.0
100
AcDbArc
 50
84.72039671760322
 51
95.27960328239677
  0
CIRCLE
  5
FF5
330
2
100
AcDbEntity
  8
0
100
AcDbCircle
 10
669.9817326813051
 20
413.3155600853005
 30
0.0
 40
40.0
  0
CIRCLE
  5
FF6
330
2
100
AcDbEntity
  8
0
100
AcDbCircle
 10
669.9817326813051
 20
413.3155600853005
 30
0.0
 40
32.5
  0
CIRCLE
  5
FF7
330
2
100
AcDbEntity
  8
CENTER
100
AcDbCircle
 10
669.9817326813051
 20
413.3155600853005
 30
0.0
 40
70.0
  0
CIRCLE
  5
FF8
330
2
100
AcDbEntity
  8
0
100
AcDbCircle
 10
669.9817326813051
 20
413.3155600853005
 30
0.0
 40
55.0
  0
ARC
  5
FF9
330
2
100
AcDbEntity
  8
0
100
AcDbCircle
 10
859.9817326813051
 20
413.3155600853005
 30
0.0
 40
250.0
100
AcDbArc
 50
174.7203967175509
 51
185.279603282449
  0
ARC
  5
FFA
330
2
100
AcDbEntity
  8
0
100
AcDbCircle
 10
619.9817326813051
 20
363.3155600853005
 30
0.0
 40
10.0
100
AcDbArc
 50
180.0
 51
270.0
  0
ARC
  5
FFB
330
2
100
AcDbEntity
  8
0
100
AcDbCircle
 10
617.9817326813052
 20
367.3155600853041
 30
0.0
 40
8.0
100
AcDbArc
 50
169.7661103968419
 51
180.0
  0
LINE
  5
FFC
330
2
100
AcDbEntity
  8
0
100
AcDbLine
 10
609.9817326813051
 20
363.3155600853005
 30
0.0
 11
609.9817326813051
 21
367.3155600853041
 31
0.0
  0
CIRCLE
  5
FFD
330
2
100
AcDbEntity
  8
HOJO
100
AcDbCircle
 10
620.4842579982466
 20
363.8180854022429
 30
0.0
 40
4.0
  0
LINE
  5
FFE
330
2
100
AcDbEntity
  8
0
100
AcDbLine
 10
619.9817326813051
 20
353.3155600853005
 30
0.0
 11
623.9817326813096
 21
353.3155600853005
 31
0.0
  0
ARC
  5
FFF
330
2
100
AcDbEntity
  8
0
100
AcDbCircle
 10
623.9817326813096
 20
361.3155600852987
 30
0.0
 40
8.0
100
AcDbArc
 50
270.0
 51
280.2338896031166
  0
CIRCLE
  5
1000
330
2
100
AcDbEntity
  8
0
100
AcDbCircle
 10
620.4842579982466
 20
363.8180854022429
 30
0.0
 40
3.2
  0
CIRCLE
  5
1001
330
2
100
AcDbEntity
  8
0
100
AcDbCircle
 10
620.4842579982466
 20
462.8130347683599
 30
0.0
 40
3.2
  0
CIRCLE
  5
1002
330
2
100
AcDbEntity
  8
HOJO
100
AcDbCircle
 10
620.4842579982466
 20
462.8130347683599
 30
0.0
 40
4.0
  0
ARC
  5
1003
330
2
100
AcDbEntity
  8
0
100
AcDbCircle
 10
619.9817326813042
 20
463.3155600853005
 30
0.0
 40
10.0
100
AcDbArc
 50
90.0
 51
180.0
  0
LINE
  5
1004
330
2
100
AcDbEntity
  8
0
100
AcDbLine
 10
609.9817326813051
 20
459.3155600852969
 30
0.0
 11
609.9817326813043
 21
463.3155600853005
 31
0.0
  0
ARC
  5
1005
330
2
100
AcDbEntity
  8
0
100
AcDbCircle
 10
617.9817326813052
 20
459.3155600852969
 30
0.0
 40
8.0
100
AcDbArc
 50
180.0
 51
190.233889603158
  0
LINE
  5
1006
330
2
100
AcDbEntity
  8
0
100
AcDbLine
 10
619.9817326813042
 20
473.3155600853005
 30
0.0
 11
623.9817326813088
 21
473.3155600853005
 31
0.0
  0
ARC
  5
1007
330
2
100
AcDbEntity
  8
0
100
AcDbCircle
 10
623.9817326813088
 20
465.3155600853005
 30
0.0
 40
8.0
100
AcDbArc
 50
79.76611039688333
 51
90.0
  0
LINE
  5
1008
330
2
100
AcDbEntity
  8
0
100
AcDbLine
 10
803.3917326813059
 20
452.8155600853005
 30
0.0
 11
803.3917326813059
 21
373.8155600853005
 31
0.0
  0
LINE
  5
1009
330
2
100
AcDbEntity
  8
0
100
AcDbLine
 10
815.391732681306
 20
454.8155600853005
 30
0.0
 11
815.391732681306
 21
371.8155600853005
 31
0.0
  0
LINE
  5
100A
330
2
100
AcDbEntity
  8
0
100
AcDbLine
 10
773.4817326813079
 20
378.3155600853005
 30
0.0
 11
773.4817326813034
 21
448.3155600853005
 31
0.0
  0
LINE
  5
100B
330
2
100
AcDbEntity
  8
0
100
AcDbLine
 10
729.9817326813052
 20
363.3155600853005
 30
0.0
 11
729.9817326813052
 21
463.3155600853005
 31
0.0
  0
ARC
  5
100C
330
2
100
AcDbEntity
  8
0
100
AcDbCircle
 10
765.4817326813079
 20
378.3155600853005
 30
0.0
 40
8.0
100
AcDbArc
 50
270.0
 51
0.0
  0
LINE
  5
100D
330
2
100
AcDbEntity
  8
0
100
AcDbLine
 10
765.4817326813079
 20
370.3155600853005
 30
0.0
 11
737.9191237959574
 21
370.3155600853005
 31
0.0
  0
ARC
  5
100E
330
2
100
AcDbEntity
  8
0
100
AcDbCircle
 10
719.9817326813051
 20
363.3155600853005
 30
0.0
 40
10.0
100
AcDbArc
 50
270.0
 51
0.0
  0
CIRCLE
  5
100F
330
2
100
AcDbEntity
  8
HOJO
100
AcDbCircle
 10
719.4792073643636
 20
363.8180854022429
 30
0.0
 40
4.0
  0
LINE
  5
1010
330
2
100
AcDbEntity
  8
0
100
AcDbLine
 10
715.9817326813015
 20
353.3155600853005
 30
0.0
 11
719.9817326813051
 21
353.3155600853005
 31
0.0
  0
ARC
  5
1011
330
2
100
AcDbEntity
  8
0
100
AcDbCircle
 10
715.9817326813015
 20
361.3155600852987
 30
0.0
 40
8.0
100
AcDbArc
 50
259.7661103968833
 51
270.0
  0
CIRCLE
  5
1012
330
2
100
AcDbEntity
  8
0
100
AcDbCircle
 10
719.4792073643636
 20
363.8180854022429
 30
0.0
 40
3.2
  0
ARC
  5
1013
330
2
100
AcDbEntity
  8
0
100
AcDbCircle
 10
805.391732681306
 20
374.3155600853005
 30
0.0
 40
2.0
100
AcDbArc
 50
180.0
 51
270.0
  0
LINE
  5
1014
330
2
100
AcDbEntity
  8
0
100
AcDbLine
 10
815.391732681306
 20
372.3155600853005
 30
0.0
 11
805.391732681306
 21
372.3155600853005
 31
0.0
  0
CIRCLE
  5
1015
330
2
100
AcDbEntity
  8
0
100
AcDbCircle
 10
719.4792073643636
 20
462.8130347683599
 30
0.0
 40
3.2
  0
CIRCLE
  5
1016
330
2
100
AcDbEntity
  8
HOJO
100
AcDbCircle
 10
719.4792073643636
 20
462.8130347683599
 30
0.0
 40
4.0
  0
ARC
  5
1017
330
2
100
AcDbEntity
  8
0
100
AcDbCircle
 10
719.9817326813051
 20
463.3155600853005
 30
0.0
 40
10.0
100
AcDbArc
 50
0.0
 51
90.0
  0
ARC
  5
1018
330
2
100
AcDbEntity
  8
0
100
AcDbCircle
 10
737.9539334369162
 20
464.3155600853005
 30
0.0
 40
8.0
100
AcDbArc
 50
183.184738536674
 51
270.0
  0
LINE
  5
1019
330
2
100
AcDbEntity
  8
0
100
AcDbLine
 10
765.4817326813033
 20
456.3155600853005
 30
0.0
 11
737.9539334369162
 21
456.3155600853005
 31
0.0
  0
ARC
  5
101A
330
2
100
AcDbEntity
  8
0
100
AcDbCircle
 10
765.4817326813033
 20
448.3155600853005
 30
0.0
 40
8.0
100
AcDbArc
 50
0.0
 51
90.0
  0
LINE
  5
101B
330
2
100
AcDbEntity
  8
0
100
AcDbLine
 10
715.9817326813024
 20
473.3155600853005
 30
0.0
 11
719.9817326813051
 21
473.3155600853005
 31
0.0
  0
ARC
  5
101C
330
2
100
AcDbEntity
  8
0
100
AcDbCircle
 10
715.9817326813024
 20
465.3155600853005
 30
0.0
 40
8.0
100
AcDbArc
 50
90.0
 51
100.2338896031166
  0
ARC
  5
101D
330
2
100
AcDbEntity
  8
0
100
AcDbCircle
 10
805.391732681306
 20
452.3155600853005
 30
0.0
 40
2.0
100
AcDbArc
 50
90.0
 51
180.0
  0
LINE
  5
101E
330
2
100
AcDbEntity
  8
0
100
AcDbLine
 10
805.391732681306
 20
454.3155600853005
 30
0.0
 11
815.391732681306
 21
454.3155600853005
 31
0.0
  0
LINE
  5
101F
330
2
100
AcDbEntity
  8
CENTER
100
AcDbLine
 10
319.8277336281578
 20
413.3155600852987
 30
0.0
 11
39.41773362817525
 21
413.3155600852986
 31
0.0
  0
LINE
  5
1020
330
2
100
AcDbEntity
  8
0
100
AcDbLine
 10
146.3277336281741
 20
448.3155600852987
 30
0.0
 11
146.3277336281741
 21
378.3155600852987
 31
0.0
  0
LINE
  5
1021
330
2
100
AcDbEntity
  8
0
100
AcDbLine
 10
104.4177336281752
 20
371.8155600852987
 30
0.0
 11
104.4177336281752
 21
454.8155600852987
 31
0.0
  0
LINE
  5
1022
330
2
100
AcDbEntity
  8
0
100
AcDbLine
 10
116.4177336281752
 20
373.8155600852987
 30
0.0
 11
116.4177336281752
 21
452.8155600852987
 31
0.0
  0
LINE
  5
1023
330
2
100
AcDbEntity
  8
0
100
AcDbLine
 10
104.4177336281752
 20
454.3155600852987
 30
0.0
 11
114.4177336281752
 21
454.3155600852987
 31
0.0
  0
ARC
  5
1024
330
2
100
AcDbEntity
  8
0
100
AcDbCircle
 10
114.4177336281752
 20
452.3155600852986
 30
0.0
 40
2.0
100
AcDbArc
 50
0.0
 51
90.0
  0
LINE
  5
1025
330
2
100
AcDbEntity
  8
0
100
AcDbLine
 10
114.4177336281752
 20
372.3155600852987
 30
0.0
 11
104.4177336281752
 21
372.3155600852987
 31
0.0
  0
ARC
  5
1026
330
2
100
AcDbEntity
  8
0
100
AcDbCircle
 10
114.4177336281752
 20
374.3155600852987
 30
0.0
 40
2.0
100
AcDbArc
 50
270.0
 51
0.0
  0
LINE
  5
1027
330
2
100
AcDbEntity
  8
0
100
AcDbLine
 10
708.050355131693
 20
621.7798740085473
 30
0.0
 11
631.9131102309208
 21
621.7798740085473
 31
0.0
  0
LINE
  5
1028
330
2
100
AcDbEntity
  8
0
100
AcDbLine
 10
610.6493380673034
 20
640.7798740085454
 30
0.0
 11
729.3097638614224
 21
640.7798740085472
 31
0.0
  0
LINE
  5
1029
330
2
100
AcDbEntity
  8
0
100
AcDbLine
 10
614.981732681307
 20
635.7798740085454
 30
0.0
 11
724.981732681307
 21
635.7798740085454
 31
0.0
  0
LINE
  5
102A
330
2
100
AcDbEntity
  8
0
100
AcDbLine
 10
610.6493380673034
 20
640.7798740085454
 30
0.0
 11
609.9817326813069
 21
717.2798740090893
 31
0.0
  0
LINE
  5
102B
330
2
100
AcDbEntity
  8
0
100
AcDbLine
 10
614.981732681307
 20
635.7798740085454
 30
0.0
 11
614.981732681307
 21
640.7798740085454
 31
0.0
  0
LINE
  5
102C
330
2
100
AcDbEntity
  8
0
100
AcDbLine
 10
815.3917326813077
 20
726.7798740037142
 30
0.0
 11
815.3917326813086
 21
644.7798740037142
 31
0.0
  0
LINE
  5
102D
330
2
100
AcDbEntity
  8
0
100
AcDbLine
 10
730.8141844128956
 20
642.7798740085473
 30
0.0
 11
771.3987512805224
 21
642.7798740085453
 31
0.0
  0
LINE
  5
102E
330
2
100
AcDbEntity
  8
0
100
AcDbLine
 10
724.981732681307
 20
635.7798740085472
 30
0.0
 11
724.981732681307
 21
640.7798740085472
 31
0.0
  0
LINE
  5
1030
330
2
100
AcDbEntity
  8
0
100
AcDbLine
 10
815.3917326813086
 20
644.7798740037142
 30
0.0
 11
805.3400464230797
 21
644.7798740037142
 31
0.0
  0
LINE
  5
1031
330
2
100
AcDbEntity
  8
0
100
AcDbLine
 10
805.3400464232206
 20
726.7798740037142
 30
0.0
 11
815.3917326813077
 21
726.7798740037142
 31
0.0
  0
ARC
  5
1032
330
2
100
AcDbEntity
  8
0
100
AcDbCircle
 10
531.3817517133872
 20
443.6808776019097
 30
0.0
 40
80.0
100
AcDbArc
 50
354.7203967175501
 51
10.23388960315803
  0
ARC
  5
1033
330
2
100
AcDbEntity
  8
0
100
AcDbCircle
 10
531.3817517133872
 20
382.9502425686932
 30
0.0
 40
80.0
100
AcDbArc
 50
349.7661103968419
 51
5.279603282449078
  0
ARC
  5
1034
330
2
100
AcDbEntity
  8
0
100
AcDbCircle
 10
639.6164151647005
 20
274.7155791173826
 30
0.0
 40
80.0
100
AcDbArc
 50
84.72039671760322
 51
100.2338896031166
  0
ARC
  5
1035
330
2
100
AcDbEntity
  8
0
100
AcDbCircle
 10
700.347050197907
 20
274.7155791173826
 30
0.0
 40
80.0
100
AcDbArc
 50
79.76611039688333
 51
95.27960328239677
  0
ARC
  5
1036
330
2
100
AcDbEntity
  8
0
100
AcDbCircle
 10
700.3470501979133
 20
551.9155410532166
 30
0.0
 40
80.0
100
AcDbArc
 50
264.7203967176031
 51
280.2338896031166
  0
ARC
  5
1037
330
2
100
AcDbEntity
  8
0
100
AcDbCircle
 10
639.6164151646978
 20
551.9155410532166
 30
0.0
 40
80.0
100
AcDbArc
 50
259.7661103968833
 51
275.2796032823967
  0
ARC
  5
1038
330
2
100
AcDbEntity
  8
0
100
AcDbCircle
 10
708.050355131693
 20
623.7798740085454
 30
0.0
 40
2.0
100
AcDbArc
 50
270.0
 51
357.9999999999963
  0
ARC
  5
1039
330
2
100
AcDbEntity
  8
0
100
AcDbCircle
 10
631.9131102309208
 20
623.7798740085454
 30
0.0
 40
2.0
100
AcDbArc
 50
182.0000000000036
 51
270.0
  0
LINE
  5
103A
330
2
100
AcDbEntity
  8
0
100
AcDbLine
 10
629.5602460128472
 20
633.8496730019506
 30
0.0
 11
629.9143285768829
 21
623.7100750151403
 31
0.0
  0
ARC
  5
103B
330
2
100
AcDbEntity
  8
0
100
AcDbCircle
 10
627.5614643588093
 20
633.7798740085454
 30
0.0
 40
2.0
100
AcDbArc
 50
2.000000000003654
 51
90.0
  0
LINE
  5
103C
330
2
100
AcDbEntity
  8
0
100
AcDbLine
 10
710.4032193497675
 20
633.8496730019506
 30
0.0
 11
710.0491367857309
 21
623.7100750151403
 31
0.0
  0
ARC
  5
103D
330
2
100
AcDbEntity
  8
0
100
AcDbCircle
 10
712.4020010038054
 20
633.7798740085454
 30
0.0
 40
2.0
100
AcDbArc
 50
90.0
 51
177.9999999999963
  0
LINE
  5
103E
330
2
100
AcDbEntity
  8
0
100
AcDbLine
 10
662.8399619315412
 20
361.3155600852878
 30
0.0
 11
665.7199631728733
 21
361.3155600852878
 31
0.0
  0
LINE
  5
103F
330
2
100
AcDbEntity
  8
0
100
AcDbLine
 10
666.8399619315466
 20
369.3155600852987
 30
0.0
 11
662.8399619315412
 21
361.3155600852878
 31
0.0
  0
ARC
  5
1040
330
2
100
AcDbEntity
  8
0
100
AcDbCircle
 10
673.479889171557
 20
366.5955600852957
 30
0.0
 40
2.720000000003957
100
AcDbArc
 50
307.5189678668223
 51
90.0
  0
LINE
  5
1041
330
2
100
AcDbEntity
  8
0
100
AcDbLine
 10
675.1364345512163
 20
364.4381872836802
 30
0.0
 11
677.1235034310709
 21
361.3155600852878
 31
0.0
  0
LINE
  5
1042
330
2
100
AcDbEntity
  8
0
100
AcDbLine
 10
674.2435021897397
 20
361.3155600852878
 30
0.0
 11
677.1235034310709
 21
361.3155600852878
 31
0.0
  0
LINE
  5
1043
330
2
100
AcDbEntity
  8
0
100
AcDbLine
 10
668.3599619315489
 20
361.3155600852878
 30
0.0
 11
670.7598891715522
 21
361.3155600852878
 31
0.0
  0
LINE
  5
1044
330
2
100
AcDbEntity
  8
0
100
AcDbLine
 10
666.3199631728737
 20
362.5155600852903
 30
0.0
 11
665.7199631728733
 21
361.3155600852878
 31
0.0
  0
LINE
  5
1045
330
2
100
AcDbEntity
  8
0
100
AcDbLine
 10
666.3199631728737
 20
362.5155600852903
 30
0.0
 11
668.3599619315489
 21
362.5155600852885
 31
0.0
  0
LINE
  5
1046
330
2
100
AcDbEntity
  8
0
100
AcDbLine
 10
668.3599619315489
 20
362.5155600852885
 30
0.0
 11
668.3599619315489
 21
361.3155600852878
 31
0.0
  0
LINE
  5
1047
330
2
100
AcDbEntity
  8
0
100
AcDbLine
 10
667.5999631728761
 20
365.0755600852916
 30
0.0
 11
668.3599619315489
 21
365.0755600852935
 31
0.0
  0
LINE
  5
1048
330
2
100
AcDbEntity
  8
0
100
AcDbLine
 10
668.3599619315489
 20
366.5955576026389
 30
0.0
 11
668.3599619315489
 21
365.0755600852935
 31
0.0
  0
LINE
  5
1049
330
2
100
AcDbEntity
  8
0
100
AcDbLine
 10
668.3599619315489
 20
366.5955576026389
 30
0.0
 11
667.5999631728761
 21
365.0755600852916
 31
0.0
  0
LINE
  5
104A
330
2
100
AcDbEntity
  8
0
100
AcDbLine
 10
671.0999619315523
 20
366.2555600852937
 30
0.0
 11
674.2435021897397
 21
361.3155600852878
 31
0.0
  0
LINE
  5
104B
330
2
100
AcDbEntity
  8
0
100
AcDbLine
 10
670.7598891715522
 20
366.5955600852957
 30
0.0
 11
670.7598891715522
 21
361.3155600852878
 31
0.0
  0
LINE
  5
104C
330
2
100
AcDbEntity
  8
0
100
AcDbLine
 10
670.7598891715522
 20
366.5955600852957
 30
0.0
 11
673.3099619315551
 21
366.5955600852957
 31
0.0
  0
LINE
  5
104D
330
2
100
AcDbEntity
  8
0
100
AcDbLine
 10
671.0999619315523
 20
366.2555600852937
 30
0.0
 11
673.3099619315569
 21
366.2555600852937
 31
0.0
  0
ARC
  5
104E
330
2
100
AcDbEntity
  8
0
100
AcDbCircle
 10
673.3099619315569
 20
366.4255600852956
 30
0.0
 40
0.1700000000002474
100
AcDbArc
 50
270.0
 51
90.0
  0
LINE
  5
104F
330
2
100
AcDbEntity
  8
0
100
AcDbLine
 10
666.8399619315466
 20
369.3155600852987
 30
0.0
 11
673.479889171557
 21
369.3155600852987
 31
0.0
  0
ARC
  5
1050
330
2
100
AcDbEntity
  8
0
100
AcDbCircle
 10
798.2590891110701
 20
721.7798740037141
 30
0.0
 40
5.0
100
AcDbArc
 50
270.0
 51
358.499999999906
  0
ARC
  5
1051
330
2
100
AcDbEntity
  8
0
100
AcDbCircle
 10
767.2938390425449
 20
686.7798740037142
 30
0.0
 40
1.0
100
AcDbArc
 50
181.5000000001981
 51
270.0
  0
LINE
  5
1052
330
2
100
AcDbEntity
  8
0
100
AcDbLine
 10
776.708745478965
 20
683.2798740037142
 30
0.0
 11
788.2098703430053
 21
683.2798740037142
 31
0.0
  0
LINE
  5
1053
330
2
100
AcDbEntity
  8
0
100
AcDbLine
 10
776.7087454793161
 20
688.2798740037141
 30
0.0
 11
788.2098703430909
 21
688.2798740037141
 31
0.0
  0
LINE
  5
1054
330
2
100
AcDbEntity
  8
0
100
AcDbLine
 10
803.3407317732697
 20
724.8322279003351
 30
0.0
 11
802.3181098969432
 21
685.7798740037142
 31
0.0
  0
ARC
  5
1055
330
2
100
AcDbEntity
  8
0
100
AcDbCircle
 10
805.3400464230797
 20
646.7798740037141
 30
0.0
 40
2.0
100
AcDbArc
 50
181.4999999999897
 51
270.0
  0
ARC
  5
1056
330
2
100
AcDbEntity
  8
0
100
AcDbCircle
 10
805.3400464232206
 20
724.7798740037142
 30
0.0
 40
2.0
100
AcDbArc
 50
90.0
 51
178.499999999906
  0
LINE
  5
1057
330
2
100
AcDbEntity
  8
0
100
AcDbLine
 10
802.3181098968887
 20
685.7798740037142
 30
0.0
 11
803.3407317731287
 21
646.7275201070988
 31
0.0
  0
ARC
  5
1058
330
2
100
AcDbEntity
  8
0
100
AcDbCircle
 10
798.2590891109355
 20
649.7798740037142
 30
0.0
 40
5.0
100
AcDbArc
 50
1.499999999989693
 51
90.0
  0
LINE
  5
1059
330
2
100
AcDbEntity
  8
0
100
AcDbLine
 10
765.4948256419508
 20
717.2798740090784
 30
0.0
 11
766.2941817175703
 21
686.7536970554028
 31
0.0
  0
LINE
  5
105A
330
2
100
AcDbEntity
  8
0
100
AcDbLine
 10
794.8142032940721
 20
716.7798740037142
 30
0.0
 11
798.2590891110701
 21
716.7798740037142
 31
0.0
  0
LINE
  5
105B
330
2
100
AcDbEntity
  8
0
100
AcDbLine
 10
794.8142032940721
 20
654.7798740037142
 30
0.0
 11
798.2590891109355
 21
654.7798740037142
 31
0.0
  0
LINE
  5
105C
330
2
100
AcDbEntity
  8
0
100
AcDbLine
 10
791.8152313191455
 20
713.8584048486391
 30
0.0
 11
791.0799691127283
 21
685.7798740037142
 31
0.0
  0
ARC
  5
105D
330
2
100
AcDbEntity
  8
0
100
AcDbCircle
 10
788.2098703430909
 20
691.2798740037142
 30
0.0
 40
3.0
100
AcDbArc
 50
270.0
 51
358.5000000001145
  0
ARC
  5
105E
330
2
100
AcDbEntity
  8
0
100
AcDbCircle
 10
794.8142032940721
 20
713.7798740037141
 30
0.0
 40
3.0
100
AcDbArc
 50
90.0
 51
178.5000000001145
  0
ARC
  5
105F
330
2
100
AcDbEntity
  8
0
100
AcDbCircle
 10
789.940806121667
 20
717.2798740037142
 30
0.0
 40
3.0
100
AcDbArc
 50
270.0
 51
324.314665287309
  0
ARC
  5
1060
330
2
100
AcDbEntity
  8
0
100
AcDbCircle
 10
786.8298435827361
 20
714.2798740037142
 30
0.0
 40
5.0
100
AcDbArc
 50
270.0
 51
356.416678301528
  0
LINE
  5
1061
330
2
100
AcDbEntity
  8
0
100
AcDbLine
 10
791.8152313191455
 20
657.7013431587874
 30
0.0
 11
791.0799691126265
 21
685.7798740037142
 31
0.0
  0
ARC
  5
1062
330
2
100
AcDbEntity
  8
0
100
AcDbCircle
 10
794.8142032940721
 20
657.7798740037142
 30
0.0
 40
3.0
100
AcDbArc
 50
181.5000000000939
 51
270.0
  0
ARC
  5
1063
330
2
100
AcDbEntity
  8
0
100
AcDbCircle
 10
789.9408061216679
 20
654.2798740037142
 30
0.0
 40
3.0
100
AcDbArc
 50
35.68533471269101
 51
90.0
  0
ARC
  5
1064
330
2
100
AcDbEntity
  8
0
100
AcDbCircle
 10
786.8298435827361
 20
657.2798740037142
 30
0.0
 40
5.0
100
AcDbArc
 50
3.583321698471985
 51
90.0
  0
ARC
  5
1065
330
2
100
AcDbEntity
  8
0
100
AcDbCircle
 10
788.2098703430053
 20
680.2798740037141
 30
0.0
 40
3.0
100
AcDbArc
 50
1.500000000093941
 51
90.0
  0
LINE
  5
1066
330
2
100
AcDbEntity
  8
0
100
AcDbLine
 10
786.8298435827361
 20
709.2798740037141
 30
0.0
 11
778.5081036766785
 21
709.2798740037141
 31
0.0
  0
LINE
  5
1067
330
2
100
AcDbEntity
  8
0
100
AcDbLine
 10
789.940806121667
 20
714.2798740037142
 30
0.0
 11
776.4818469164627
 21
714.2798740037142
 31
0.0
  0
LINE
  5
1068
330
2
100
AcDbEntity
  8
0
100
AcDbLine
 10
786.8298435827361
 20
662.2798740037142
 30
0.0
 11
778.5081036765584
 21
662.2798740037142
 31
0.0
  0
LINE
  5
1069
330
2
100
AcDbEntity
  8
0
100
AcDbLine
 10
789.9408061216679
 20
657.2798740037142
 30
0.0
 11
776.4818469164581
 21
657.2798740037142
 31
0.0
  0
LINE
  5
106A
330
2
100
AcDbEntity
  8
0
100
AcDbLine
 10
767.2938390425449
 20
685.7798740037142
 30
0.0
 11
773.481732681307
 21
685.7798740037142
 31
0.0
  0
LINE
  5
106B
330
2
100
AcDbEntity
  8
0
100
AcDbLine
 10
776.481732681306
 20
410.8155600852986
 30
0.0
 11
788.9441045243836
 21
410.8155600852986
 31
0.0
  0
LINE
  5
106C
330
2
100
AcDbEntity
  8
0
100
AcDbLine
 10
776.4817326813052
 20
415.8155600852987
 30
0.0
 11
788.9441045243991
 21
415.8155600852987
 31
0.0
  0
ARC
  5
106D
330
2
100
AcDbEntity
  8
0
100
AcDbCircle
 10
788.9441045243991
 20
418.8155600852986
 30
0.0
 40
3.0
100
AcDbArc
 50
270.0
 51
359.9999999998958
  0
LINE
  5
106E
330
2
100
AcDbEntity
  8
0
100
AcDbLine
 10
778.4817326813079
 20
389.8155600852987
 30
0.0
 11
786.9597448130159
 21
389.8155600852987
 31
0.0
  0
LINE
  5
106F
330
2
100
AcDbEntity
  8
0
100
AcDbLine
 10
776.4817326813079
 20
384.8155600852987
 30
0.0
 11
790.0707073519468
 21
384.8155600852987
 31
0.0
  0
LINE
  5
1070
330
2
100
AcDbEntity
  8
0
100
AcDbLine
 10
778.4817326813033
 20
436.8155600852987
 30
0.0
 11
786.9597448130932
 21
436.8155600852987
 31
0.0
  0
LINE
  5
1071
330
2
100
AcDbEntity
  8
0
100
AcDbLine
 10
776.4817326813033
 20
441.8155600852987
 30
0.0
 11
790.070707352025
 21
441.8155600852987
 31
0.0
  0
ARC
  5
1072
330
2
100
AcDbEntity
  8
0
100
AcDbCircle
 10
794.9441045244291
 20
441.3155600852987
 30
0.0
 40
3.0
100
AcDbArc
 50
90.0
 51
176.416678301528
  0
ARC
  5
1073
330
2
100
AcDbEntity
  8
0
100
AcDbCircle
 10
790.070707352025
 20
444.8155600852987
 30
0.0
 40
3.0
100
AcDbArc
 50
270.0
 51
324.314665287309
  0
ARC
  5
1074
330
2
100
AcDbEntity
  8
0
100
AcDbCircle
 10
786.9597448130932
 20
441.8155600852987
 30
0.0
 40
5.0
100
AcDbArc
 50
270.0
 51
356.416678301528
  0
LINE
  5
1075
330
2
100
AcDbEntity
  8
0
100
AcDbLine
 10
791.9441045244291
 20
441.3155600853023
 30
0.0
 11
791.9441045243518
 21
385.3155600853023
 31
0.0
  0
ARC
  5
1076
330
2
100
AcDbEntity
  8
0
100
AcDbCircle
 10
794.9441045243518
 20
385.3155600852987
 30
0.0
 40
3.0
100
AcDbArc
 50
179.9999999998957
 51
270.0
  0
ARC
  5
1077
330
2
100
AcDbEntity
  8
0
100
AcDbCircle
 10
790.0707073519468
 20
381.8155600852987
 30
0.0
 40
3.0
100
AcDbArc
 50
35.68533471269101
 51
90.0
  0
ARC
  5
1078
330
2
100
AcDbEntity
  8
0
100
AcDbCircle
 10
786.9597448130159
 20
384.8155600852987
 30
0.0
 40
5.0
100
AcDbArc
 50
3.583321698471985
 51
90.0
  0
ARC
  5
1079
330
2
100
AcDbEntity
  8
0
100
AcDbCircle
 10
788.9441045243836
 20
407.8155600852987
 30
0.0
 40
3.0
100
AcDbArc
 50
359.9999999998958
 51
90.0
  0
ARC
  5
107A
330
2
100
AcDbEntity
  8
0
100
AcDbCircle
 10
798.3917326812404
 20
377.3155600852987
 30
0.0
 40
5.0
100
AcDbArc
 50
0.0
 51
90.0
  0
ARC
  5
107B
330
2
100
AcDbEntity
  8
0
100
AcDbCircle
 10
798.3917326812404
 20
449.3155600852987
 30
0.0
 40
5.0
100
AcDbArc
 50
270.0
 51
0.0
  0
LINE
  5
107C
330
2
100
AcDbEntity
  8
0
100
AcDbLine
 10
794.9441045243518
 20
382.3155600852987
 30
0.0
 11
798.3917326812404
 21
382.3155600852987
 31
0.0
  0
LINE
  5
107D
330
2
100
AcDbEntity
  8
0
100
AcDbLine
 10
794.9441045244291
 20
444.3155600852987
 30
0.0
 11
798.3917326812404
 21
444.3155600852987
 31
0.0
  0
ARC
  5
107E
330
2
100
AcDbEntity
  8
0
100
AcDbCircle
 10
778.4817326813033
 20
441.8155600852987
 30
0.0
 40
5.0
100
AcDbArc
 50
180.0
 51
270.0
  0
ARC
  5
107F
330
2
100
AcDbEntity
  8
0
100
AcDbCircle
 10
778.4817326813079
 20
384.8155600852987
 30
0.0
 40
5.0
100
AcDbArc
 50
90.0
 51
180.0
  0
ARC
  5
1080
330
2
100
AcDbEntity
  8
0
100
AcDbCircle
 10
776.4817326813079
 20
381.8155600852987
 30
0.0
 40
3.0
100
AcDbArc
 50
90.0
 51
180.0
  0
ARC
  5
1081
330
2
100
AcDbEntity
  8
0
100
AcDbCircle
 10
776.481732681306
 20
407.8155600852987
 30
0.0
 40
3.0
100
AcDbArc
 50
90.0
 51
180.0
  0
ARC
  5
1082
330
2
100
AcDbEntity
  8
0
100
AcDbCircle
 10
776.4817326813052
 20
418.8155600852986
 30
0.0
 40
3.0
100
AcDbArc
 50
180.0
 51
270.0
  0
ARC
  5
1083
330
2
100
AcDbEntity
  8
0
100
AcDbCircle
 10
776.4817326813033
 20
444.8155600852987
 30
0.0
 40
3.0
100
AcDbArc
 50
180.0
 51
270.0
  0
ARC
  5
1084
330
2
100
AcDbEntity
  8
0
100
AcDbCircle
 10
143.3277336281742
 20
407.8155600853005
 30
0.0
 40
3.0
100
AcDbArc
 50
0.0
 51
90.0
  0
ARC
  5
1085
330
2
100
AcDbEntity
  8
0
100
AcDbCircle
 10
130.8653617850802
 20
407.8155600853005
 30
0.0
 40
3.0
100
AcDbArc
 50
90.0
 51
179.9999999998957
  0
LINE
  5
1086
330
2
100
AcDbEntity
  8
0
100
AcDbLine
 10
143.3277336281742
 20
415.8155600853005
 30
0.0
 11
130.8653617850957
 21
415.8155600853005
 31
0.0
  0
ARC
  5
1087
330
2
100
AcDbEntity
  8
0
100
AcDbCircle
 10
143.3277336281742
 20
418.8155600853005
 30
0.0
 40
3.0
100
AcDbArc
 50
270.0
 51
0.0
  0
ARC
  5
1088
330
2
100
AcDbEntity
  8
0
100
AcDbCircle
 10
130.8653617850957
 20
418.8155600853005
 30
0.0
 40
3.0
100
AcDbArc
 50
179.9999999998957
 51
270.0
  0
LINE
  5
1089
330
2
100
AcDbEntity
  8
0
100
AcDbLine
 10
143.3277336281742
 20
410.8155600853005
 30
0.0
 11
130.8653617850802
 21
410.8155600853005
 31
0.0
  0
LINE
  5
108A
330
2
100
AcDbEntity
  8
0
100
AcDbLine
 10
124.8653617850502
 20
382.3155600853005
 30
0.0
 11
121.4177336282389
 21
382.3155600853005
 31
0.0
  0
ARC
  5
108B
330
2
100
AcDbEntity
  8
0
100
AcDbCircle
 10
121.4177336282389
 20
377.3155600853005
 30
0.0
 40
5.0
100
AcDbArc
 50
90.0
 51
180.0
  0
LINE
  5
108C
330
2
100
AcDbEntity
  8
0
100
AcDbLine
 10
143.327733628176
 20
384.8155600853005
 30
0.0
 11
129.7387589574543
 21
384.8155600853005
 31
0.0
  0
LINE
  5
108D
330
2
100
AcDbEntity
  8
0
100
AcDbLine
 10
141.327733628176
 20
389.8155600853005
 30
0.0
 11
132.8497214963861
 21
389.8155600853005
 31
0.0
  0
ARC
  5
108E
330
2
100
AcDbEntity
  8
0
100
AcDbCircle
 10
141.327733628176
 20
384.8155600853005
 30
0.0
 40
5.0
100
AcDbArc
 50
0.0
 51
90.0
  0
ARC
  5
108F
330
2
100
AcDbEntity
  8
0
100
AcDbCircle
 10
143.327733628176
 20
381.8155600853005
 30
0.0
 40
3.0
100
AcDbArc
 50
0.0
 51
90.0
  0
ARC
  5
1090
330
2
100
AcDbEntity
  8
0
100
AcDbCircle
 10
129.7387589574543
 20
381.8155600853005
 30
0.0
 40
3.0
100
AcDbArc
 50
90.0
 51
144.314665287309
  0
ARC
  5
1091
330
2
100
AcDbEntity
  8
0
100
AcDbCircle
 10
124.8653617850502
 20
385.3155600853005
 30
0.0
 40
3.0
100
AcDbArc
 50
270.0
 51
356.416678301528
  0
ARC
  5
1092
330
2
100
AcDbEntity
  8
0
100
AcDbCircle
 10
132.8497214963861
 20
384.8155600853005
 30
0.0
 40
5.0
100
AcDbArc
 50
90.0
 51
176.416678301528
  0
LINE
  5
1093
330
2
100
AcDbEntity
  8
0
100
AcDbLine
 10
127.8653617850502
 20
385.3155600852969
 30
0.0
 11
127.8653617851275
 21
441.3155600852968
 31
0.0
  0
LINE
  5
1094
330
2
100
AcDbEntity
  8
0
100
AcDbLine
 10
141.3277336281723
 20
436.8155600853005
 30
0.0
 11
132.8497214964634
 21
436.8155600853005
 31
0.0
  0
ARC
  5
1095
330
2
100
AcDbEntity
  8
0
100
AcDbCircle
 10
141.3277336281723
 20
441.8155600853005
 30
0.0
 40
5.0
100
AcDbArc
 50
270.0
 51
0.0
  0
ARC
  5
1096
330
2
100
AcDbEntity
  8
0
100
AcDbCircle
 10
132.8497214964634
 20
441.8155600853005
 30
0.0
 40
5.0
100
AcDbArc
 50
183.583321698472
 51
270.0
  0
LINE
  5
1097
330
2
100
AcDbEntity
  8
0
100
AcDbLine
 10
143.3277336281723
 20
441.8155600853005
 30
0.0
 11
129.7387589575325
 21
441.8155600853005
 31
0.0
  0
ARC
  5
1098
330
2
100
AcDbEntity
  8
0
100
AcDbCircle
 10
143.3277336281723
 20
444.8155600853005
 30
0.0
 40
3.0
100
AcDbArc
 50
270.0
 51
0.0
  0
ARC
  5
1099
330
2
100
AcDbEntity
  8
0
100
AcDbCircle
 10
129.7387589575325
 20
444.8155600853005
 30
0.0
 40
3.0
100
AcDbArc
 50
215.685334712691
 51
270.0
  0
ARC
  5
109A
330
2
100
AcDbEntity
  8
0
100
AcDbCircle
 10
124.8653617851275
 20
441.3155600853005
 30
0.0
 40
3.0
100
AcDbArc
 50
359.9999999998958
 51
90.0
  0
LINE
  5
109B
330
2
100
AcDbEntity
  8
0
100
AcDbLine
 10
124.8653617851275
 20
444.3155600853005
 30
0.0
 11
121.4177336282389
 21
444.3155600853005
 31
0.0
  0
ARC
  5
109C
330
2
100
AcDbEntity
  8
0
100
AcDbCircle
 10
121.4177336282389
 20
449.3155600853005
 30
0.0
 40
5.0
100
AcDbArc
 50
180.0
 51
270.0
  0
LINE
  5
109D
330
2
100
AcDbEntity
  8
0
100
AcDbLine
 10
619.9817326813051
 20
716.7798740037142
 30
0.0
 11
619.9817326813042
 21
642.2798740037142
 31
0.0
  0
LINE
  5
109E
330
2
100
AcDbEntity
  8
0
100
AcDbLine
 10
623.981732681306
 20
716.7798740037142
 30
0.0
 11
623.9817326813051
 21
642.2798740037142
 31
0.0
  0
LINE
  5
109F
330
2
100
AcDbEntity
  8
0
100
AcDbLine
 10
646.9777042596286
 20
716.7798740037142
 30
0.0
 11
646.9777042596277
 21
642.2798740037142
 31
0.0
  0
LINE
  5
10A0
330
2
100
AcDbEntity
  8
0
100
AcDbLine
 10
719.9817326813088
 20
716.7798740037142
 30
0.0
 11
719.9817326813079
 21
642.2798740037142
 31
0.0
  0
LINE
  5
10A1
330
2
100
AcDbEntity
  8
0
100
AcDbLine
 10
715.9817326813088
 20
716.7798740037142
 30
0.0
 11
715.9817326813088
 21
642.2798740037142
 31
0.0
  0
LINE
  5
10A2
330
2
100
AcDbEntity
  8
0
100
AcDbLine
 10
692.9857611029854
 20
716.7798740037142
 30
0.0
 11
692.9857611029854
 21
642.2798740037142
 31
0.0
  0
LINE
  5
10A3
330
2
100
AcDbEntity
  8
0
100
AcDbLine
 10
802.3181098969159
 20
685.7798740026719
 30
0.0
 11
815.3917326813086
 21
685.7798740037142
 31
0.0
  0
LINE
  5
10A4
330
2
100
AcDbEntity
  8
0
100
AcDbLine
 10
114.4177336281752
 20
371.8155600852987
 30
0.0
 11
104.4177336281752
 21
371.8155600852987
 31
0.0
  0
ARC
  5
10A5
330
2
100
AcDbEntity
  8
0
100
AcDbCircle
 10
114.4177336281752
 20
373.8155600852987
 30
0.0
 40
2.0
100
AcDbArc
 50
270.0
 51
0.0
  0
LINE
  5
10A6
330
2
100
AcDbEntity
  8
0
100
AcDbLine
 10
104.4177336281752
 20
454.8155600852987
 30
0.0
 11
114.4177336281752
 21
454.8155600852987
 31
0.0
  0
ARC
  5
10A7
330
2
100
AcDbEntity
  8
0
100
AcDbCircle
 10
114.4177336281752
 20
452.8155600852987
 30
0.0
 40
2.0
100
AcDbArc
 50
0.0
 51
90.0
  0
LINE
  5
10A8
330
2
100
AcDbEntity
  8
0
100
AcDbLine
 10
805.391732681306
 20
454.8155600853005
 30
0.0
 11
815.391732681306
 21
454.8155600853005
 31
0.0
  0
ARC
  5
10A9
330
2
100
AcDbEntity
  8
0
100
AcDbCircle
 10
805.391732681306
 20
452.8155600853005
 30
0.0
 40
2.0
100
AcDbArc
 50
90.0
 51
180.0
  0
LINE
  5
10AA
330
2
100
AcDbEntity
  8
0
100
AcDbLine
 10
815.391732681306
 20
371.8155600853005
 30
0.0
 11
805.391732681306
 21
371.8155600853005
 31
0.0
  0
ARC
  5
10AB
330
2
100
AcDbEntity
  8
0
100
AcDbCircle
 10
805.391732681306
 20
373.8155600853005
 30
0.0
 40
2.0
100
AcDbArc
 50
180.0
 51
270.0
  0
LINE
  5
10AC
330
2
100
AcDbEntity
  8
CENTER
100
AcDbLine
 10
453.358523992714
 20
343.590456420708
 30
0.0
 11
453.3585239927149
 21
483.0406637498914
 31
0.0
  0
LINE
  5
10AD
330
2
100
AcDbEntity
  8
CENTER
100
AcDbLine
 10
362.8585239927144
 20
413.3155600853005
 30
0.0
 11
540.3585239927149
 21
413.3155600853005
 31
0.0
  0
LINE
  5
10AE
330
2
100
AcDbEntity
  8
0
100
AcDbLine
 10
421.8585239927222
 20
473.3155600853005
 30
0.0
 11
498.3585239927131
 21
472.6479546993068
 31
0.0
  0
LINE
  5
10AF
330
2
100
AcDbEntity
  8
0
100
AcDbLine
 10
421.8585239927167
 20
353.3155600852987
 30
0.0
 11
498.3585239927149
 21
353.9831654712924
 31
0.0
  0
LINE
  5
10B0
330
2
100
AcDbEntity
  8
0
100
AcDbLine
 10
498.3585239927149
 20
353.9831654712924
 30
0.0
 11
498.3585239927131
 21
472.6479546993068
 31
0.0
  0
LINE
  5
10B1
330
2
100
AcDbEntity
  8
0
100
AcDbLine
 10
503.358523992714
 20
358.3155600852987
 30
0.0
 11
503.358523992714
 21
468.3155600852987
 31
0.0
  0
LINE
  5
10B2
330
2
100
AcDbEntity
  8
0
100
AcDbLine
 10
503.358523992714
 20
358.3155600852987
 30
0.0
 11
498.358523992714
 21
358.3155600852987
 31
0.0
  0
LINE
  5
10B3
330
2
100
AcDbEntity
  8
0
100
AcDbLine
 10
503.358523992714
 20
468.3155600852987
 30
0.0
 11
498.358523992714
 21
468.3155600852987
 31
0.0
  0
LINE
  5
10B4
330
2
100
AcDbEntity
  8
0
100
AcDbLine
 10
517.3585239927149
 20
375.2469376349144
 30
0.0
 11
517.3585239927149
 21
451.3841825356866
 31
0.0
  0
ARC
  5
10B5
330
2
100
AcDbEntity
  8
0
100
AcDbCircle
 10
515.3585239927149
 20
451.3841825356866
 30
0.0
 40
2.0
100
AcDbArc
 50
0.0
 51
87.99999999999636
  0
ARC
  5
10B6
330
2
100
AcDbEntity
  8
0
100
AcDbCircle
 10
515.3585239927149
 20
375.2469376349144
 30
0.0
 40
2.0
100
AcDbArc
 50
272.0000000000036
 51
0.0
  0
LINE
  5
10B7
330
2
100
AcDbEntity
  8
0
100
AcDbLine
 10
505.2887249993098
 20
372.8940734168408
 30
0.0
 11
515.42832298612
 21
373.2481559808765
 31
0.0
  0
ARC
  5
10B8
330
2
100
AcDbEntity
  8
0
100
AcDbCircle
 10
505.358523992714
 20
370.8952917628029
 30
0.0
 40
2.0
100
AcDbArc
 50
92.00000000000365
 51
180.0
  0
LINE
  5
10B9
330
2
100
AcDbEntity
  8
0
100
AcDbLine
 10
505.2887249993098
 20
453.737046753762
 30
0.0
 11
515.42832298612
 21
453.3829641897245
 31
0.0
  0
ARC
  5
10BA
330
2
100
AcDbEntity
  8
0
100
AcDbCircle
 10
505.358523992714
 20
455.7358284077999
 30
0.0
 40
2.0
100
AcDbArc
 50
180.0
 51
267.9999999999963
  0
LINE
  5
10BB
330
2
100
AcDbEntity
  8
0
100
AcDbLine
 10
773.481732681306
 20
717.2798740085454
 30
0.0
 11
773.7566290170186
 21
685.7798740085454
 31
0.0
  0
ARC
  5
10BC
330
2
100
AcDbEntity
  8
0
100
AcDbCircle
 10
776.4818469165054
 20
717.2798740037142
 30
0.0
 40
3.0
100
AcDbArc
 50
180.5000000005908
 51
270.0
  0
ARC
  5
10BD
330
2
100
AcDbEntity
  8
0
100
AcDbCircle
 10
778.5081036766785
 20
714.2798740037142
 30
0.0
 40
5.0
100
AcDbArc
 50
180.5000000005908
 51
270.0
  0
ARC
  5
10BE
330
2
100
AcDbEntity
  8
0
100
AcDbCircle
 10
776.7087454793161
 20
691.2798740037142
 30
0.0
 40
3.0
100
AcDbArc
 50
180.5000000005908
 51
270.0
  0
LINE
  5
10BF
330
2
100
AcDbEntity
  8
0
100
AcDbLine
 10
773.3986751266509
 20
644.7624209375494
 30
0.0
 11
773.7566290166967
 21
685.7798740085454
 31
0.0
  0
ARC
  5
10C0
330
2
100
AcDbEntity
  8
0
100
AcDbCircle
 10
776.4818469164163
 20
654.2798740037142
 30
0.0
 40
3.0
100
AcDbArc
 50
90.0
 51
179.5000000000344
  0
ARC
  5
10C1
330
2
100
AcDbEntity
  8
0
100
AcDbCircle
 10
778.5081036765584
 20
657.2798740037142
 30
0.0
 40
5.0
100
AcDbArc
 50
90.0
 51
179.5000000000344
  0
ARC
  5
10C2
330
2
100
AcDbEntity
  8
0
100
AcDbCircle
 10
776.708745478965
 20
680.2798740037141
 30
0.0
 40
3.0
100
AcDbArc
 50
90.0
 51
179.5000000000344
  0
LINE
  5
10C3
330
2
100
AcDbEntity
  8
0
100
AcDbLine
 10
729.9773692474189
 20
717.2798740090802
 30
0.0
 11
729.3097638614224
 21
640.7798740085472
 31
0.0
  0
ARC
  5
10C4
330
2
100
AcDbEntity
  8
0
100
AcDbCircle
 10
730.8141844128956
 20
641.2798740085472
 30
0.0
 40
1.5
100
AcDbArc
 50
90.0
 51
179.5000000000344
  0
LINE
  5
10C5
330
2
100
AcDbEntity
  8
0
100
AcDbLine
 10
497.358523992714
 20
463.3155600853005
 30
0.0
 11
421.8585239927222
 21
463.3155600853005
 31
0.0
  0
LINE
  5
10C6
330
2
100
AcDbEntity
  8
0
100
AcDbLine
 10
497.358523992714
 20
459.3155600852969
 30
0.0
 11
421.8585239927222
 21
459.3155600852969
 31
0.0
  0
LINE
  5
10C7
330
2
100
AcDbEntity
  8
0
100
AcDbLine
 10
497.358523992714
 20
436.3195885069707
 30
0.0
 11
421.8585239927204
 21
436.3195885069707
 31
0.0
  0
LINE
  5
10C8
330
2
100
AcDbEntity
  8
0
100
AcDbLine
 10
497.3585239927149
 20
363.3155600853005
 30
0.0
 11
421.8585239927222
 21
363.3155600853005
 31
0.0
  0
LINE
  5
10C9
330
2
100
AcDbEntity
  8
0
100
AcDbLine
 10
497.3585239927149
 20
367.3155600853041
 30
0.0
 11
421.8585239927222
 21
367.3155600853041
 31
0.0
  0
LINE
  5
10CA
330
2
100
AcDbEntity
  8
0
100
AcDbLine
 10
497.358523992714
 20
390.3115316636302
 30
0.0
 11
421.8585239927204
 21
390.3115316636302
 31
0.0
  0
ARC
  5
10CB
330
2
100
AcDbEntity
  8
0
100
AcDbCircle
 10
737.9539334369162
 20
362.3155600852969
 30
0.0
 40
8.0
100
AcDbArc
 50
90.0
 51
176.8152614633259
  0
CIRCLE
  5
10CC
330
2
100
AcDbEntity
  8
HOJO
100
AcDbCircle
 10
302.8277336281541
 20
448.8155600852969
 30
0.0
 40
2.5
  0
LINE
  5
10CD
330
2
100
AcDbEntity
  8
CENTER
100
AcDbLine
 10
310.5777336281541
 20
463.3155600852987
 30
0.0
 11
289.0777336281542
 21
463.3155600852969
 31
0.0
  0
CIRCLE
  5
10CE
330
2
100
AcDbEntity
  8
HOJO
100
AcDbCircle
 10
302.8277336281541
 20
377.8155600852987
 30
0.0
 40
2.5
  0
LINE
  5
10CF
330
2
100
AcDbEntity
  8
CENTER
100
AcDbLine
 10
176.8277336281578
 20
450.8155600852987
 30
0.0
 11
160.8277336281578
 21
450.8155600852969
 31
0.0
  0
LINE
  5
10D0
330
2
100
AcDbEntity
  8
CENTER
100
AcDbLine
 10
168.8277336281578
 20
458.8155600852987
 30
0.0
 11
168.8277336281578
 21
442.8155600852987
 31
0.0
  0
LINE
  5
10D1
330
2
100
AcDbEntity
  8
CENTER
100
AcDbLine
 10
154.327733628156
 20
459.0655600852969
 30
0.0
 11
154.3277336281578
 21
437.5655600852969
 31
0.0
  0
LINE
  5
10D2
330
2
100
AcDbEntity
  8
CENTER
100
AcDbLine
 10
165.0777336281578
 20
448.3155600852987
 30
0.0
 11
143.5777336281578
 21
448.3155600852969
 31
0.0
  0
CIRCLE
  5
10D3
330
2
100
AcDbEntity
  8
HOJO
100
AcDbCircle
 10
168.8277336281578
 20
450.8155600852987
 30
0.0
 40
2.5
  0
CIRCLE
  5
10D4
330
2
100
AcDbEntity
  8
HOJO
100
AcDbCircle
 10
168.8277336281578
 20
375.8155600852969
 30
0.0
 40
2.5
  0
LINE
  5
10D5
330
2
100
AcDbEntity
  8
0
100
AcDbLine
 10
280.8277336281578
 20
365.3155600852987
 30
0.0
 11
218.8277336281578
 21
365.3155600852969
 31
0.0
  0
LINE
  5
10D6
330
2
100
AcDbEntity
  8
0
100
AcDbLine
 10
280.8277336281578
 20
461.3155600852969
 30
0.0
 11
218.8277336281578
 21
461.3155600852969
 31
0.0
  0
CIRCLE
  5
10D7
330
2
100
AcDbEntity
  8
0
100
AcDbCircle
 10
249.8277336281578
 20
413.3155600852969
 30
0.0
 40
39.99999999999994
  0
CIRCLE
  5
10D8
330
2
100
AcDbEntity
  8
0
100
AcDbCircle
 10
249.8277336281578
 20
413.3155600852969
 30
0.0
 40
39.49999999999994
  0
CIRCLE
  5
10D9
330
2
100
AcDbEntity
  8
0
100
AcDbCircle
 10
249.8277336281578
 20
413.3155600852969
 30
0.0
 40
37.49999999999994
  0
LINE
  5
10DA
330
2
100
AcDbEntity
  8
0
100
AcDbLine
 10
280.8277336281578
 20
367.3155600852987
 30
0.0
 11
218.8277336281578
 21
367.3155600852969
 31
0.0
  0
ARC
  5
10DB
330
2
100
AcDbEntity
  8
0
100
AcDbCircle
 10
249.8277336281569
 20
223.3155600852969
 30
0.0
 40
250.0
100
AcDbArc
 50
84.72039671760322
 51
95.27960328239677
  0
ARC
  5
10DC
330
2
100
AcDbEntity
  8
0
100
AcDbCircle
 10
249.8277336281569
 20
603.3155600852969
 30
0.0
 40
250.0
100
AcDbArc
 50
264.7203967176031
 51
275.2796032823967
  0
LINE
  5
10DD
330
2
100
AcDbEntity
  8
0
100
AcDbLine
 10
280.8277336281578
 20
459.3155600852969
 30
0.0
 11
218.8277336281578
 21
459.3155600852969
 31
0.0
  0
CIRCLE
  5
10DE
330
2
100
AcDbEntity
  8
0
100
AcDbCircle
 10
249.8277336281569
 20
413.3155600852969
 30
0.0
 40
32.5
  0
LINE
  5
10DF
330
2
100
AcDbEntity
  8
0
100
AcDbLine
 10
297.8277336281578
 20
444.3155600852969
 30
0.0
 11
297.8277336281569
 21
382.3155600852987
 31
0.0
  0
ARC
  5
10E0
330
2
100
AcDbEntity
  8
0
100
AcDbCircle
 10
59.82773362815783
 20
413.3155600852969
 30
0.0
 40
250.0
100
AcDbArc
 50
354.7203967175501
 51
5.279603282449078
  0
LINE
  5
10E1
330
2
100
AcDbEntity
  8
0
100
AcDbLine
 10
295.8277336281578
 20
444.3155600852969
 30
0.0
 11
295.8277336281568
 21
382.3155600852987
 31
0.0
  0
ARC
  5
10E2
330
2
100
AcDbEntity
  8
0
100
AcDbCircle
 10
299.827733628156
 20
463.3155600852987
 30
0.0
 40
10.0
100
AcDbArc
 50
0.0
 51
90.0
  0
CIRCLE
  5
10E3
330
2
100
AcDbEntity
  8
0
100
AcDbCircle
 10
302.8277336281541
 20
448.8155600852969
 30
0.0
 40
4.0
  0
CIRCLE
  5
10E4
330
2
100
AcDbEntity
  8
0
100
AcDbCircle
 10
302.8277336281541
 20
448.8155600852969
 30
0.0
 40
3.5
  0
CIRCLE
  5
10E5
330
2
100
AcDbEntity
  8
0
100
AcDbCircle
 10
302.8277336281541
 20
448.8155600852969
 30
0.0
 40
2.0
  0
LINE
  5
10E6
330
2
100
AcDbEntity
  8
0
100
AcDbLine
 10
299.8277336281542
 20
454.8155600852987
 30
0.0
 11
306.9380982273148
 21
454.8155600852987
 31
0.0
  0
ARC
  5
10E7
330
2
100
AcDbEntity
  8
0
100
AcDbCircle
 10
306.9380982273148
 20
452.8155600852987
 30
0.0
 40
2.0
100
AcDbArc
 50
353.604056903697
 51
90.0
  0
ARC
  5
10E8
330
2
100
AcDbEntity
  8
0
100
AcDbCircle
 10
388.4277145960739
 20
443.680877601906
 30
0.0
 40
80.0
100
AcDbArc
 50
169.7661103968419
 51
185.279603282449
  0
LINE
  5
10E9
330
2
100
AcDbEntity
  8
0
100
AcDbLine
 10
309.827733628156
 20
463.3155600852969
 30
0.0
 11
309.827733628156
 21
459.3155600852933
 31
0.0
  0
ARC
  5
10EA
330
2
100
AcDbEntity
  8
0
100
AcDbCircle
 10
301.827733628156
 20
459.3155600852933
 30
0.0
 40
8.0
100
AcDbArc
 50
349.7661103968419
 51
0.0
  0
ARC
  5
10EB
330
2
100
AcDbEntity
  8
0
100
AcDbCircle
 10
280.8277336281578
 20
444.3155600852969
 30
0.0
 40
17.0
100
AcDbArc
 50
0.0
 51
90.0
  0
ARC
  5
10EC
330
2
100
AcDbEntity
  8
0
100
AcDbCircle
 10
280.8277336281578
 20
444.3155600852969
 30
0.0
 40
15.0
100
AcDbArc
 50
0.0
 51
90.0
  0
ARC
  5
10ED
330
2
100
AcDbEntity
  8
0
100
AcDbCircle
 10
299.8277336281542
 20
463.3155600852987
 30
0.0
 40
8.5
100
AcDbArc
 50
180.0
 51
270.0
  0
ARC
  5
10EE
330
2
100
AcDbEntity
  8
0
100
AcDbCircle
 10
280.1930511447669
 20
551.9155410532148
 30
0.0
 40
80.0
100
AcDbArc
 50
264.7203967176031
 51
280.2338896031299
  0
LINE
  5
10EF
330
2
100
AcDbEntity
  8
0
100
AcDbLine
 10
291.3277336281542
 20
463.3155600852969
 30
0.0
 11
291.3277336281542
 21
470.4259246844539
 31
0.0
  0
LINE
  5
10F0
330
2
100
AcDbEntity
  8
0
100
AcDbLine
 10
299.8277336281578
 20
473.3155600852969
 30
0.0
 11
295.8277336281541
 21
473.3155600852969
 31
0.0
  0
ARC
  5
10F1
330
2
100
AcDbEntity
  8
0
100
AcDbCircle
 10
289.3277336281542
 20
470.4259246844539
 30
0.0
 40
2.0
100
AcDbArc
 50
0.0
 51
96.39594309627756
  0
ARC
  5
10F2
330
2
100
AcDbEntity
  8
0
100
AcDbCircle
 10
295.8277336281541
 20
465.3155600852969
 30
0.0
 40
8.0
100
AcDbArc
 50
90.0
 51
100.2338896031299
  0
ARC
  5
10F3
330
2
100
AcDbEntity
  8
0
100
AcDbCircle
 10
388.4277145960739
 20
382.9502425686859
 30
0.0
 40
80.0
100
AcDbArc
 50
174.7203967175509
 51
190.233889603158
  0
ARC
  5
10F4
330
2
100
AcDbEntity
  8
0
100
AcDbCircle
 10
299.8277336281578
 20
363.3155600852969
 30
0.0
 40
10.0
100
AcDbArc
 50
270.0
 51
0.0
  0
CIRCLE
  5
10F5
330
2
100
AcDbEntity
  8
0
100
AcDbCircle
 10
302.8277336281541
 20
377.8155600852987
 30
0.0
 40
2.0
  0
CIRCLE
  5
10F6
330
2
100
AcDbEntity
  8
0
100
AcDbCircle
 10
302.8277336281541
 20
377.8155600852987
 30
0.0
 40
3.5
  0
CIRCLE
  5
10F7
330
2
100
AcDbEntity
  8
0
100
AcDbCircle
 10
302.8277336281541
 20
377.8155600852987
 30
0.0
 40
4.0
  0
LINE
  5
10F8
330
2
100
AcDbEntity
  8
0
100
AcDbLine
 10
299.8277336281542
 20
371.8155600852969
 30
0.0
 11
306.9380982273139
 21
371.8155600852969
 31
0.0
  0
ARC
  5
10F9
330
2
100
AcDbEntity
  8
0
100
AcDbCircle
 10
306.9380982273139
 20
373.8155600852969
 30
0.0
 40
2.0
100
AcDbArc
 50
270.0
 51
6.395943096302968
  0
ARC
  5
10FA
330
2
100
AcDbEntity
  8
0
100
AcDbCircle
 10
301.827733628156
 20
367.3155600853005
 30
0.0
 40
8.0
100
AcDbArc
 50
0.0
 51
10.23388960315803
  0
LINE
  5
10FB
330
2
100
AcDbEntity
  8
0
100
AcDbLine
 10
309.827733628156
 20
363.3155600852969
 30
0.0
 11
309.827733628156
 21
367.3155600853005
 31
0.0
  0
LINE
  5
10FC
330
2
100
AcDbEntity
  8
0
100
AcDbLine
 10
291.3277336281542
 20
363.3155600852987
 30
0.0
 11
291.3277336281542
 21
356.2051954861398
 31
0.0
  0
ARC
  5
10FD
330
2
100
AcDbEntity
  8
0
100
AcDbCircle
 10
280.8277336281569
 20
382.3155600852987
 30
0.0
 40
17.0
100
AcDbArc
 50
270.0
 51
0.0
  0
ARC
  5
10FE
330
2
100
AcDbEntity
  8
0
100
AcDbCircle
 10
280.8277336281569
 20
382.3155600852987
 30
0.0
 40
15.0
100
AcDbArc
 50
270.0
 51
0.0
  0
ARC
  5
10FF
330
2
100
AcDbEntity
  8
0
100
AcDbCircle
 10
299.8277336281542
 20
363.3155600852969
 30
0.0
 40
8.5
100
AcDbArc
 50
90.0
 51
180.0
  0
ARC
  5
1100
330
2
100
AcDbEntity
  8
0
100
AcDbCircle
 10
280.1930511447669
 20
274.715579117379
 30
0.0
 40
80.0
100
AcDbArc
 50
79.76611039687009
 51
95.27960328239677
  0
LINE
  5
1101
330
2
100
AcDbEntity
  8
0
100
AcDbLine
 10
299.8277336281578
 20
353.3155600852968
 30
0.0
 11
295.8277336281541
 21
353.3155600852968
 31
0.0
  0
ARC
  5
1102
330
2
100
AcDbEntity
  8
0
100
AcDbCircle
 10
289.3277336281542
 20
356.2051954861398
 30
0.0
 40
2.0
100
AcDbArc
 50
263.6040569037224
 51
0.0
  0
ARC
  5
1103
330
2
100
AcDbEntity
  8
0
100
AcDbCircle
 10
295.8277336281541
 20
361.3155600852969
 30
0.0
 40
8.0
100
AcDbArc
 50
259.76611039687
 51
270.0
  0
LINE
  5
1104
330
2
100
AcDbEntity
  8
0
100
AcDbLine
 10
201.8277336281578
 20
444.3155600852969
 30
0.0
 11
201.8277336281569
 21
382.3155600852969
 31
0.0
  0
LINE
  5
1105
330
2
100
AcDbEntity
  8
0
100
AcDbLine
 10
203.8277336281578
 20
444.3155600852969
 30
0.0
 11
203.8277336281569
 21
382.3155600852969
 31
0.0
  0
LINE
  5
1106
330
2
100
AcDbEntity
  8
0
100
AcDbLine
 10
189.827733628145
 20
463.3155600852969
 30
0.0
 11
189.827733628156
 21
363.3155600852969
 31
0.0
  0
LINE
  5
1107
330
2
100
AcDbEntity
  8
0
100
AcDbLine
 10
146.327733628156
 20
448.3155600852969
 30
0.0
 11
146.327733628156
 21
378.3155600852968
 31
0.0
  0
ARC
  5
1108
330
2
100
AcDbEntity
  8
0
100
AcDbCircle
 10
218.8277336281578
 20
444.3155600852969
 30
0.0
 40
17.0
100
AcDbArc
 50
90.0
 51
180.0
  0
ARC
  5
1109
330
2
100
AcDbEntity
  8
0
100
AcDbCircle
 10
218.8277336281578
 20
444.3155600852969
 30
0.0
 40
15.0
100
AcDbArc
 50
90.0
 51
180.0
  0
ARC
  5
110A
330
2
100
AcDbEntity
  8
0
100
AcDbCircle
 10
219.4624161115468
 20
551.9155410532148
 30
0.0
 40
80.0
100
AcDbArc
 50
259.76611039687
 51
275.2796032823967
  0
LINE
  5
110B
330
2
100
AcDbEntity
  8
0
100
AcDbLine
 10
154.327733628156
 20
456.3155600852969
 30
0.0
 11
181.8555328725331
 21
456.3155600852969
 31
0.0
  0
ARC
  5
110C
330
2
100
AcDbEntity
  8
0
100
AcDbCircle
 10
181.8555328725331
 20
464.3155600852969
 30
0.0
 40
8.0
100
AcDbArc
 50
270.0
 51
356.8152614632215
  0
ARC
  5
110D
330
2
100
AcDbEntity
  8
0
100
AcDbCircle
 10
199.827733628145
 20
463.3155600852969
 30
0.0
 40
10.0
100
AcDbArc
 50
90.0
 51
180.0
  0
ARC
  5
110E
330
2
100
AcDbEntity
  8
0
100
AcDbCircle
 10
203.8277336281605
 20
465.3155600852969
 30
0.0
 40
8.0
100
AcDbArc
 50
79.76611039687009
 51
90.0
  0
LINE
  5
110F
330
2
100
AcDbEntity
  8
0
100
AcDbLine
 10
199.827733628156
 20
473.3155600852969
 30
0.0
 11
203.8277336281596
 21
473.3155600852969
 31
0.0
  0
CIRCLE
  5
1110
330
2
100
AcDbEntity
  8
0
100
AcDbCircle
 10
168.8277336281578
 20
450.8155600852969
 30
0.0
 40
3.5
  0
CIRCLE
  5
1111
330
2
100
AcDbEntity
  8
0
100
AcDbCircle
 10
168.8277336281578
 20
450.8155600852969
 30
0.0
 40
4.0
  0
ARC
  5
1112
330
2
100
AcDbEntity
  8
0
100
AcDbCircle
 10
154.327733628156
 20
448.3155600852969
 30
0.0
 40
8.0
100
AcDbArc
 50
90.0
 51
180.0
  0
LINE
  5
1113
330
2
100
AcDbEntity
  8
0
100
AcDbLine
 10
162.8277336281632
 20
448.3155600852932
 30
0.0
 11
162.8277336281669
 21
454.3155600852987
 31
0.0
  0
ARC
  5
1114
330
2
100
AcDbEntity
  8
0
100
AcDbCircle
 10
154.3277336281632
 20
448.3155600852969
 30
0.0
 40
8.5
100
AcDbArc
 50
269.9999999999478
 51
359.9999999998958
  0
CIRCLE
  5
1115
330
2
100
AcDbEntity
  8
0
100
AcDbCircle
 10
168.8277336281578
 20
450.8155600852969
 30
0.0
 40
2.0
  0
LINE
  5
1116
330
2
100
AcDbEntity
  8
0
100
AcDbLine
 10
154.3277336281578
 20
439.8155600852969
 30
0.0
 11
148.3277336281578
 21
439.8155600853005
 31
0.0
  0
ARC
  5
1117
330
2
100
AcDbEntity
  8
0
100
AcDbCircle
 10
218.8277336281569
 20
382.3155600852969
 30
0.0
 40
17.0
100
AcDbArc
 50
180.0
 51
270.0
  0
ARC
  5
1118
330
2
100
AcDbEntity
  8
0
100
AcDbCircle
 10
218.8277336281569
 20
382.3155600852969
 30
0.0
 40
15.0
100
AcDbArc
 50
180.0
 51
270.0
  0
ARC
  5
1119
330
2
100
AcDbEntity
  8
0
100
AcDbCircle
 10
219.4624161115468
 20
274.715579117379
 30
0.0
 40
80.0
100
AcDbArc
 50
84.72039671760322
 51
100.2338896031299
  0
ARC
  5
111A
330
2
100
AcDbEntity
  8
0
100
AcDbCircle
 10
154.3277336281632
 20
378.3155600852968
 30
0.0
 40
8.5
100
AcDbArc
 50
0.0
 51
90.00000000002605
  0
LINE
  5
111B
330
2
100
AcDbEntity
  8
0
100
AcDbLine
 10
154.3277336281578
 20
386.8155600852969
 30
0.0
 11
148.3277336281578
 21
386.8155600852951
 31
0.0
  0
LINE
  5
111C
330
2
100
AcDbEntity
  8
0
100
AcDbLine
 10
154.327733628156
 20
370.3155600852969
 30
0.0
 11
181.8555328725449
 21
370.3155600852969
 31
0.0
  0
ARC
  5
111D
330
2
100
AcDbEntity
  8
0
100
AcDbCircle
 10
199.827733628156
 20
363.3155600852987
 30
0.0
 40
10.0
100
AcDbArc
 50
180.0
 51
270.0
  0
ARC
  5
111E
330
2
100
AcDbEntity
  8
0
100
AcDbCircle
 10
181.8555328725449
 20
362.3155600852969
 30
0.0
 40
8.0
100
AcDbArc
 50
3.184738536778398
 51
90.0
  0
ARC
  5
111F
330
2
100
AcDbEntity
  8
0
100
AcDbCircle
 10
203.8277336281596
 20
361.3155600852969
 30
0.0
 40
8.0
100
AcDbArc
 50
270.0
 51
280.2338896031299
  0
LINE
  5
1120
330
2
100
AcDbEntity
  8
0
100
AcDbLine
 10
199.827733628156
 20
353.3155600852968
 30
0.0
 11
203.8277336281596
 21
353.3155600852968
 31
0.0
  0
CIRCLE
  5
1121
330
2
100
AcDbEntity
  8
0
100
AcDbCircle
 10
168.8277336281578
 20
375.8155600852969
 30
0.0
 40
4.0
  0
LINE
  5
1122
330
2
100
AcDbEntity
  8
0
100
AcDbLine
 10
162.8277336281632
 20
378.3155600853023
 30
0.0
 11
162.8277336281669
 21
372.3155600852969
 31
0.0
  0
CIRCLE
  5
1123
330
2
100
AcDbEntity
  8
0
100
AcDbCircle
 10
168.8277336281578
 20
375.8155600852969
 30
0.0
 40
3.5
  0
CIRCLE
  5
1124
330
2
100
AcDbEntity
  8
0
100
AcDbCircle
 10
168.8277336281578
 20
375.8155600852969
 30
0.0
 40
2.0
  0
ARC
  5
1125
330
2
100
AcDbEntity
  8
0
100
AcDbCircle
 10
154.327733628156
 20
378.3155600852968
 30
0.0
 40
8.0
100
AcDbArc
 50
180.0
 51
270.0
  0
CIRCLE
  5
1126
330
2
100
AcDbEntity
  8
0
100
AcDbCircle
 10
249.8277336281578
 20
413.3155600852969
 30
0.0
 40
33.07735
  0
CIRCLE
  5
1127
330
2
100
AcDbEntity
  8
0
100
AcDbCircle
 10
249.8277336281578
 20
413.3155600852969
 30
0.0
 40
36.92264999999999
  0
ARC
  5
1128
330
2
100
AcDbEntity
  8
0
100
AcDbCircle
 10
164.8277336281669
 20
454.3155600852968
 30
0.0
 40
2.0
100
AcDbArc
 50
90.0
 51
179.9999999998957
  0
ARC
  5
1129
330
2
100
AcDbEntity
  8
0
100
AcDbCircle
 10
148.327733628156
 20
437.8155600853005
 30
0.0
 40
2.0
100
AcDbArc
 50
89.99999999994789
 51
180.0
  0
ARC
  5
112A
330
2
100
AcDbEntity
  8
0
100
AcDbCircle
 10
148.327733628156
 20
388.8155600852951
 30
0.0
 40
2.0
100
AcDbArc
 50
180.0
 51
270.000000000026
  0
ARC
  5
112B
330
2
100
AcDbEntity
  8
0
100
AcDbCircle
 10
164.8277336281669
 20
372.3155600852969
 30
0.0
 40
2.0
100
AcDbArc
 50
180.0
 51
270.0
  0
LINE
  5
112C
330
2
100
AcDbEntity
  8
CENTER
100
AcDbLine
 10
299.8277336281542
 20
452.5655600852987
 30
0.0
 11
299.827733628156
 21
474.0655600852987
 31
0.0
  0
LINE
  5
112D
330
2
100
AcDbEntity
  8
0
100
AcDbLine
 10
208.2211319103587
 20
371.7089583674987
 30
0.0
 11
206.8069183479863
 21
370.2947448051253
 31
0.0
  0
LINE
  5
112E
330
2
100
AcDbEntity
  8
0
100
AcDbLine
 10
292.8485489083284
 20
370.2947448051272
 30
0.0
 11
291.4343353459551
 21
371.7089583675005
 31
0.0
  0
LINE
  5
112F
330
2
100
AcDbEntity
  8
0
100
AcDbLine
 10
292.8485489083284
 20
456.3363753654684
 30
0.0
 11
291.434335345956
 21
454.9221618030951
 31
0.0
  0
LINE
  5
1130
330
2
100
AcDbEntity
  8
0
100
AcDbLine
 10
208.2211319103596
 20
454.9221618030951
 30
0.0
 11
206.8069183479863
 21
456.3363753654684
 31
0.0
  0
LINE
  5
1131
330
2
100
AcDbEntity
  8
CENTER
100
AcDbLine
 10
310.5777336281541
 20
363.3155600852987
 30
0.0
 11
289.0777336281542
 21
363.3155600853005
 31
0.0
  0
LINE
  5
1132
330
2
100
AcDbEntity
  8
CENTER
100
AcDbLine
 10
176.8277336281578
 20
375.8155600853005
 30
0.0
 11
160.8277336281578
 21
375.8155600853005
 31
0.0
  0
LINE
  5
1133
330
2
100
AcDbEntity
  8
CENTER
100
AcDbLine
 10
168.8277336281578
 20
367.8155600853005
 30
0.0
 11
168.8277336281578
 21
383.8155600853005
 31
0.0
  0
LINE
  5
1134
330
2
100
AcDbEntity
  8
CENTER
100
AcDbLine
 10
154.327733628156
 20
367.5655600853005
 30
0.0
 11
154.3277336281578
 21
389.0655600853005
 31
0.0
  0
LINE
  5
1135
330
2
100
AcDbEntity
  8
CENTER
100
AcDbLine
 10
165.0777336281578
 20
378.3155600853005
 30
0.0
 11
143.5777336281578
 21
378.3155600853005
 31
0.0
  0
LINE
  5
1136
330
2
100
AcDbEntity
  8
CENTER
100
AcDbLine
 10
299.8277336281542
 20
374.0655600852987
 30
0.0
 11
299.827733628156
 21
352.5655600852987
 31
0.0
  0
CIRCLE
  5
1137
330
2
100
AcDbEntity
  8
0
100
AcDbCircle
 10
154.3277336281578
 20
448.3155600852969
 30
0.0
 40
5.63397459621558
  0
CIRCLE
  5
1138
330
2
100
AcDbEntity
  8
0
100
AcDbCircle
 10
154.3277336281578
 20
448.3155600852969
 30
0.0
 40
6.5
  0
LINE
  5
1139
330
2
100
AcDbEntity
  8
0
100
AcDbLine
 10
157.3277336281578
 20
446.5835092777287
 30
0.0
 11
157.3277336281578
 21
450.0476108928668
 31
0.0
  0
LINE
  5
113A
330
2
100
AcDbEntity
  8
0
100
AcDbLine
 10
151.3277336281578
 20
450.0476108928668
 30
0.0
 11
151.3277336281578
 21
446.5835092777287
 31
0.0
  0
LINE
  5
113B
330
2
100
AcDbEntity
  8
0
100
AcDbLine
 10
154.3277336281578
 20
444.8514584701605
 30
0.0
 11
157.3277336281578
 21
446.5835092777287
 31
0.0
  0
LINE
  5
113C
330
2
100
AcDbEntity
  8
0
100
AcDbLine
 10
151.3277336281578
 20
446.5835092777287
 30
0.0
 11
154.3277336281578
 21
444.8514584701587
 31
0.0
  0
LINE
  5
113D
330
2
100
AcDbEntity
  8
0
100
AcDbLine
 10
151.3277336281578
 20
450.0476108928668
 30
0.0
 11
154.3277336281578
 21
451.779661700435
 31
0.0
  0
LINE
  5
113E
330
2
100
AcDbEntity
  8
0
100
AcDbLine
 10
154.3277336281578
 20
451.779661700435
 30
0.0
 11
157.3277336281578
 21
450.0476108928668
 31
0.0
  0
CIRCLE
  5
113F
330
2
100
AcDbEntity
  8
0
100
AcDbCircle
 10
299.8277336281542
 20
463.3155600852969
 30
0.0
 40
5.63397459621558
  0
CIRCLE
  5
1140
330
2
100
AcDbEntity
  8
0
100
AcDbCircle
 10
299.8277336281542
 20
463.3155600852969
 30
0.0
 40
6.5
  0
LINE
  5
1141
330
2
100
AcDbEntity
  8
0
100
AcDbLine
 10
302.8277336281541
 20
461.5835092777287
 30
0.0
 11
302.8277336281541
 21
465.0476108928669
 31
0.0
  0
LINE
  5
1142
330
2
100
AcDbEntity
  8
0
100
AcDbLine
 10
296.8277336281541
 20
465.0476108928669
 30
0.0
 11
296.8277336281541
 21
461.5835092777287
 31
0.0
  0
LINE
  5
1143
330
2
100
AcDbEntity
  8
0
100
AcDbLine
 10
299.8277336281542
 20
459.8514584701606
 30
0.0
 11
302.8277336281541
 21
461.5835092777287
 31
0.0
  0
LINE
  5
1144
330
2
100
AcDbEntity
  8
0
100
AcDbLine
 10
296.8277336281541
 20
461.5835092777287
 30
0.0
 11
299.8277336281542
 21
459.8514584701606
 31
0.0
  0
LINE
  5
1145
330
2
100
AcDbEntity
  8
0
100
AcDbLine
 10
296.8277336281541
 20
465.0476108928669
 30
0.0
 11
299.8277336281542
 21
466.779661700435
 31
0.0
  0
LINE
  5
1146
330
2
100
AcDbEntity
  8
0
100
AcDbLine
 10
299.8277336281542
 20
466.779661700435
 30
0.0
 11
302.8277336281541
 21
465.0476108928669
 31
0.0
  0
CIRCLE
  5
1147
330
2
100
AcDbEntity
  8
0
100
AcDbCircle
 10
154.3277336281578
 20
378.3155600853005
 30
0.0
 40
5.63397459621558
  0
CIRCLE
  5
1148
330
2
100
AcDbEntity
  8
0
100
AcDbCircle
 10
154.3277336281578
 20
378.3155600853005
 30
0.0
 40
6.5
  0
LINE
  5
1149
330
2
100
AcDbEntity
  8
0
100
AcDbLine
 10
157.3277336281578
 20
376.5835092777324
 30
0.0
 11
157.3277336281578
 21
380.0476108928687
 31
0.0
  0
LINE
  5
114A
330
2
100
AcDbEntity
  8
0
100
AcDbLine
 10
151.3277336281578
 20
380.0476108928687
 30
0.0
 11
151.3277336281578
 21
376.5835092777305
 31
0.0
  0
LINE
  5
114B
330
2
100
AcDbEntity
  8
0
100
AcDbLine
 10
154.3277336281578
 20
374.8514584701624
 30
0.0
 11
157.3277336281578
 21
376.5835092777324
 31
0.0
  0
LINE
  5
114C
330
2
100
AcDbEntity
  8
0
100
AcDbLine
 10
151.3277336281578
 20
376.5835092777305
 30
0.0
 11
154.3277336281578
 21
374.8514584701624
 31
0.0
  0
LINE
  5
114D
330
2
100
AcDbEntity
  8
0
100
AcDbLine
 10
151.3277336281578
 20
380.0476108928687
 30
0.0
 11
154.3277336281578
 21
381.7796617004386
 31
0.0
  0
LINE
  5
114E
330
2
100
AcDbEntity
  8
0
100
AcDbLine
 10
154.3277336281578
 20
381.7796617004386
 30
0.0
 11
157.3277336281578
 21
380.0476108928687
 31
0.0
  0
CIRCLE
  5
114F
330
2
100
AcDbEntity
  8
0
100
AcDbCircle
 10
299.8277336281542
 20
363.3155600853005
 30
0.0
 40
5.63397459621558
  0
CIRCLE
  5
1150
330
2
100
AcDbEntity
  8
0
100
AcDbCircle
 10
299.8277336281542
 20
363.3155600853005
 30
0.0
 40
6.5
  0
LINE
  5
1151
330
2
100
AcDbEntity
  8
0
100
AcDbLine
 10
302.8277336281541
 20
361.5835092777305
 30
0.0
 11
302.8277336281541
 21
365.0476108928687
 31
0.0
  0
LINE
  5
1152
330
2
100
AcDbEntity
  8
0
100
AcDbLine
 10
296.8277336281541
 20
365.0476108928687
 30
0.0
 11
296.8277336281541
 21
361.5835092777305
 31
0.0
  0
LINE
  5
1153
330
2
100
AcDbEntity
  8
0
100
AcDbLine
 10
299.8277336281542
 20
359.8514584701624
 30
0.0
 11
302.8277336281541
 21
361.5835092777305
 31
0.0
  0
LINE
  5
1154
330
2
100
AcDbEntity
  8
0
100
AcDbLine
 10
296.8277336281541
 20
361.5835092777305
 30
0.0
 11
299.8277336281542
 21
359.8514584701624
 31
0.0
  0
LINE
  5
1155
330
2
100
AcDbEntity
  8
0
100
AcDbLine
 10
296.8277336281541
 20
365.0476108928687
 30
0.0
 11
299.8277336281542
 21
366.7796617004386
 31
0.0
  0
LINE
  5
1156
330
2
100
AcDbEntity
  8
0
100
AcDbLine
 10
299.8277336281542
 20
366.7796617004386
 30
0.0
 11
302.8277336281541
 21
365.0476108928687
 31
0.0
  0
LINE
  5
1157
330
2
100
AcDbEntity
  8
0
100
AcDbLine
 10
405.358523992714
 20
471.1889443455638
 30
0.0
 11
405.358523992714
 21
469.8155600853005
 31
0.0
  0
LINE
  5
1158
330
2
100
AcDbEntity
  8
HIDS
100
AcDbLine
 10
405.358523992714
 20
469.8155600853005
 30
0.0
 11
405.358523992714
 21
456.8155600853005
 31
0.0
  0
LINE
  5
1159
330
2
100
AcDbEntity
  8
0
100
AcDbLine
 10
405.358523992714
 20
456.8155600853005
 30
0.0
 11
405.358523992714
 21
369.8155600853005
 31
0.0
  0
LINE
  5
115A
330
2
100
AcDbEntity
  8
HIDS
100
AcDbLine
 10
405.3585239927131
 20
369.8155600853005
 30
0.0
 11
405.358523992714
 21
356.8155600853005
 31
0.0
  0
LINE
  5
115B
330
2
100
AcDbEntity
  8
0
100
AcDbLine
 10
405.358523992714
 20
356.8155600853005
 30
0.0
 11
405.358523992714
 21
355.442175825039
 31
0.0
  0
ARC
  5
115C
330
2
100
AcDbEntity
  8
0
100
AcDbCircle
 10
407.3585239927139
 20
355.442175825039
 30
0.0
 40
2.0
100
AcDbArc
 50
180.0
 51
269.5000000000345
  0
LINE
  5
115D
330
2
100
AcDbEntity
  8
0
100
AcDbLine
 10
421.8585239927167
 20
473.3155600853005
 30
0.0
 11
421.858523992724
 21
353.3155600853005
 31
0.0
  0
LINE
  5
115E
330
2
100
AcDbEntity
  8
0
100
AcDbLine
 10
399.5585239927138
 20
450.8155600853005
 30
0.0
 11
402.858523992714
 21
450.8155600853005
 31
0.0
  0
LINE
  5
115F
330
2
100
AcDbEntity
  8
HIDS
100
AcDbLine
 10
403.3585239927139
 20
368.1439872100472
 30
0.0
 11
403.3585239927139
 21
369.8155600853005
 31
0.0
  0
LINE
  5
1160
330
2
100
AcDbEntity
  8
0
100
AcDbLine
 10
403.3585239927139
 20
369.8155600853005
 30
0.0
 11
403.3585239927139
 21
456.8155600853005
 31
0.0
  0
LINE
  5
1161
330
2
100
AcDbEntity
  8
HIDS
100
AcDbLine
 10
403.3585239927139
 20
456.8155600853005
 30
0.0
 11
403.3585239927139
 21
458.4871329605556
 31
0.0
  0
LINE
  5
1162
330
2
100
AcDbEntity
  8
HIDS
100
AcDbLine
 10
404.7727375550874
 20
460.7297736476739
 30
0.0
 11
403.9443104303407
 21
459.9013465229272
 31
0.0
  0
LINE
  5
1163
330
2
100
AcDbEntity
  8
0
100
AcDbLine
 10
403.3585239927139
 20
453.3155600853005
 30
0.0
 11
402.858523992714
 21
452.8155600853005
 31
0.0
  0
LINE
  5
1164
330
2
100
AcDbEntity
  8
0
100
AcDbLine
 10
395.8585239927131
 20
450.8155600853005
 30
0.0
 11
397.1585239927133
 21
450.8155600853005
 31
0.0
  0
LINE
  5
1165
330
2
100
AcDbEntity
  8
0
100
AcDbLine
 10
399.3585239927131
 20
450.6155600853016
 30
0.0
 11
399.5585239927138
 21
450.8155600853005
 31
0.0
  0
LINE
  5
1166
330
2
100
AcDbEntity
  8
0
100
AcDbLine
 10
397.5585239927138
 20
450.1155600853016
 30
0.0
 11
399.1585239927132
 21
450.1155600853016
 31
0.0
  0
LINE
  5
1167
330
2
100
AcDbEntity
  8
0
100
AcDbLine
 10
395.858523992714
 20
450.8155600853005
 30
0.0
 11
394.8585239927131
 21
450.2382098161105
 31
0.0
  0
LINE
  5
1168
330
2
100
AcDbEntity
  8
0
100
AcDbLine
 10
421.858523992724
 20
353.3155600853005
 30
0.0
 11
407.3410709217175
 21
353.4422519789113
 31
0.0
  0
LINE
  5
1169
330
2
100
AcDbEntity
  8
HIDS
100
AcDbLine
 10
404.7727375550874
 20
365.9013465229272
 30
0.0
 11
403.9443104303407
 21
366.7297736476738
 31
0.0
  0
LINE
  5
116A
330
2
100
AcDbEntity
  8
0
100
AcDbLine
 10
394.858523992714
 20
450.2382098161105
 30
0.0
 11
394.858523992714
 21
376.3929103544905
 31
0.0
  0
LINE
  5
116B
330
2
100
AcDbEntity
  8
0
100
AcDbLine
 10
399.5585239927138
 20
375.8155600853005
 30
0.0
 11
402.858523992714
 21
375.8155600853005
 31
0.0
  0
LINE
  5
116C
330
2
100
AcDbEntity
  8
0
100
AcDbLine
 10
402.858523992714
 20
373.8155600853005
 30
0.0
 11
402.858523992714
 21
452.8155600853005
 31
0.0
  0
LINE
  5
116D
330
2
100
AcDbEntity
  8
0
100
AcDbLine
 10
403.3585239927139
 20
373.3155600853005
 30
0.0
 11
402.858523992714
 21
373.8155600853005
 31
0.0
  0
LINE
  5
116E
330
2
100
AcDbEntity
  8
0
100
AcDbLine
 10
395.858523992714
 20
375.8155600853005
 30
0.0
 11
397.1585239927142
 21
375.8155600853005
 31
0.0
  0
LINE
  5
116F
330
2
100
AcDbEntity
  8
0
100
AcDbLine
 10
397.358523992714
 20
376.0155600853012
 30
0.0
 11
397.358523992714
 21
450.6155600853016
 31
0.0
  0
LINE
  5
1170
330
2
100
AcDbEntity
  8
0
100
AcDbLine
 10
399.358523992714
 20
376.0155600853012
 30
0.0
 11
399.358523992714
 21
450.6155600853016
 31
0.0
  0
LINE
  5
1171
330
2
100
AcDbEntity
  8
0
100
AcDbLine
 10
399.358523992714
 20
376.0155600853012
 30
0.0
 11
399.5585239927138
 21
375.8155600853005
 31
0.0
  0
LINE
  5
1172
330
2
100
AcDbEntity
  8
0
100
AcDbLine
 10
395.858523992714
 20
375.8155600853005
 30
0.0
 11
394.858523992714
 21
376.3929103544905
 31
0.0
  0
ARC
  5
1173
330
2
100
AcDbEntity
  8
HIDS
100
AcDbCircle
 10
405.358523992714
 20
458.4871329605556
 30
0.0
 40
2.0
100
AcDbArc
 50
134.9999999999905
 51
180.0
  0
ARC
  5
1174
330
2
100
AcDbEntity
  8
HIDS
100
AcDbCircle
 10
403.3585239927139
 20
462.1439872100472
 30
0.0
 40
2.0
100
AcDbArc
 50
314.9999999999905
 51
0.0
  0
ARC
  5
1175
330
2
100
AcDbEntity
  8
HIDS
100
AcDbCircle
 10
405.358523992714
 20
368.1439872100472
 30
0.0
 40
2.0
100
AcDbArc
 50
180.0
 51
225.0000000000095
  0
ARC
  5
1176
330
2
100
AcDbEntity
  8
HIDS
100
AcDbCircle
 10
403.3585239927139
 20
364.4871329605539
 30
0.0
 40
2.0
100
AcDbArc
 50
0.0
 51
45.00000000000949
  0
ARC
  5
1177
330
2
100
AcDbEntity
  8
0
100
AcDbCircle
 10
397.1585239927142
 20
376.0155600853012
 30
0.0
 40
0.2
100
AcDbArc
 50
270.0
 51
0.0
  0
ARC
  5
1178
330
2
100
AcDbEntity
  8
0
100
AcDbCircle
 10
397.5585239927138
 20
376.3155600853005
 30
0.0
 40
0.2
100
AcDbArc
 50
90.0
 51
180.0
  0
ARC
  5
1179
330
2
100
AcDbEntity
  8
0
100
AcDbCircle
 10
399.1585239927142
 20
376.3155600853005
 30
0.0
 40
0.2
100
AcDbArc
 50
0.0
 51
90.0
  0
ARC
  5
117A
330
2
100
AcDbEntity
  8
0
100
AcDbCircle
 10
397.1585239927133
 20
450.6155600853016
 30
0.0
 40
0.2
100
AcDbArc
 50
0.0
 51
90.0
  0
ARC
  5
117B
330
2
100
AcDbEntity
  8
0
100
AcDbCircle
 10
397.5585239927138
 20
450.3155600853005
 30
0.0
 40
0.2
100
AcDbArc
 50
180.0
 51
270.0
  0
ARC
  5
117C
330
2
100
AcDbEntity
  8
0
100
AcDbCircle
 10
399.1585239927132
 20
450.3155600853005
 30
0.0
 40
0.2
100
AcDbArc
 50
270.0
 51
0.0
  0
LINE
  5
117D
330
2
100
AcDbEntity
  8
0
100
AcDbLine
 10
395.858523992714
 20
375.8155600853005
 30
0.0
 11
395.858523992714
 21
450.8155600853005
 31
0.0
  0
LINE
  5
117E
330
2
100
AcDbEntity
  8
0
100
AcDbLine
 10
399.5585239927138
 20
375.8155600853005
 30
0.0
 11
399.5585239927138
 21
450.8155600853005
 31
0.0
  0
LINE
  5
117F
330
2
100
AcDbEntity
  8
0
100
AcDbLine
 10
411.858523992573
 20
371.3199044800039
 30
0.0
 11
411.858523992573
 21
354.394139973805
 31
0.0
  0
LINE
  5
1180
330
2
100
AcDbEntity
  8
0
100
AcDbLine
 10
411.3628872603228
 20
371.8198854415386
 30
0.0
 11
407.3410709217175
 21
371.8549833010037
 31
0.0
  0
ARC
  5
1181
330
2
100
AcDbEntity
  8
0
100
AcDbCircle
 10
411.358523992573
 20
371.3199044800039
 30
0.0
 40
0.5
100
AcDbArc
 50
0.0
 51
89.5000000000345
  0
ARC
  5
1182
330
2
100
AcDbEntity
  8
0
100
AcDbCircle
 10
412.8585239925731
 20
354.394139973805
 30
0.0
 40
1.0
100
AcDbArc
 50
180.0
 51
269.4999999999824
  0
ARC
  5
1183
330
2
100
AcDbEntity
  8
0
100
AcDbCircle
 10
407.3585239927139
 20
373.8549071471315
 30
0.0
 40
2.0
100
AcDbArc
 50
180.0
 51
269.5000000000345
  0
ARC
  5
1184
330
2
100
AcDbEntity
  8
0
100
AcDbCircle
 10
407.3585239927139
 20
471.1889443455638
 30
0.0
 40
2.0
100
AcDbArc
 50
90.49999999996549
 51
180.0
  0
LINE
  5
1185
330
2
100
AcDbEntity
  8
0
100
AcDbLine
 10
421.8585239927167
 20
473.3155600853005
 30
0.0
 11
407.3410709217175
 21
473.1888681916916
 31
0.0
  0
LINE
  5
1186
330
2
100
AcDbEntity
  8
0
100
AcDbLine
 10
411.858523992573
 20
455.311215690599
 30
0.0
 11
411.858523992573
 21
472.236980196796
 31
0.0
  0
LINE
  5
1187
330
2
100
AcDbEntity
  8
0
100
AcDbLine
 10
411.3628872603228
 20
454.8112347290643
 30
0.0
 11
407.3410709217175
 21
454.7761368695973
 31
0.0
  0
ARC
  5
1188
330
2
100
AcDbEntity
  8
0
100
AcDbCircle
 10
411.358523992573
 20
455.311215690599
 30
0.0
 40
0.5
100
AcDbArc
 50
270.4999999999654
 51
0.0
  0
ARC
  5
1189
330
2
100
AcDbEntity
  8
0
100
AcDbCircle
 10
412.8585239925731
 20
472.236980196796
 30
0.0
 40
1.0
100
AcDbArc
 50
90.50000000001761
 51
180.0
  0
ARC
  5
118A
330
2
100
AcDbEntity
  8
0
100
AcDbCircle
 10
407.3585239927139
 20
452.7762130234695
 30
0.0
 40
2.0
100
AcDbArc
 50
90.49999999996549
 51
180.0
  0
LINE
  5
118B
330
2
100
AcDbEntity
  8
0
100
AcDbLine
 10
401.858523992573
 20
457.6815854890845
 30
0.0
 11
401.858523992573
 21
468.9495346815165
 31
0.0
  0
LINE
  5
118C
330
2
100
AcDbEntity
  8
0
100
AcDbLine
 10
409.858523992573
 20
456.8155600853005
 30
0.0
 11
409.8585239925739
 21
469.8155600853005
 31
0.0
  0
LINE
  5
118D
330
2
100
AcDbEntity
  8
0
100
AcDbLine
 10
402.358523992573
 20
469.8155600853005
 30
0.0
 11
401.858523992573
 21
468.9495346815165
 31
0.0
  0
LINE
  5
118E
330
2
100
AcDbEntity
  8
0
100
AcDbLine
 10
411.858523992573
 20
469.8155600853005
 30
0.0
 11
409.858523992573
 21
469.8155600853005
 31
0.0
  0
LINE
  5
118F
330
2
100
AcDbEntity
  8
0
100
AcDbLine
 10
409.858523992573
 20
469.8155600853005
 30
0.0
 11
402.358523992573
 21
469.8155600853005
 31
0.0
  0
LINE
  5
1190
330
2
100
AcDbEntity
  8
CENTER
  6
CENS
100
AcDbLine
 10
428.6184062845684
 20
463.3155600853005
 30
0.0
 11
398.858523992573
 21
463.3155600853005
 31
0.0
  0
LINE
  5
1191
330
2
100
AcDbEntity
  8
0
100
AcDbLine
 10
402.358523992573
 20
456.8155600853005
 30
0.0
 11
401.858523992573
 21
457.6815854890845
 31
0.0
  0
LINE
  5
1192
330
2
100
AcDbEntity
  8
0
100
AcDbLine
 10
411.858523992573
 20
456.8155600853005
 30
0.0
 11
409.858523992573
 21
456.8155600853005
 31
0.0
  0
LINE
  5
1193
330
2
100
AcDbEntity
  8
0
100
AcDbLine
 10
409.858523992573
 20
456.8155600853005
 30
0.0
 11
402.358523992573
 21
456.8155600853005
 31
0.0
  0
LINE
  5
1194
330
2
100
AcDbEntity
  8
0
100
AcDbLine
 10
402.358523992573
 20
456.8155600853005
 30
0.0
 11
402.358523992573
 21
469.8155600853005
 31
0.0
  0
LINE
  5
1195
330
2
100
AcDbEntity
  8
0
100
AcDbLine
 10
412.8497974570753
 20
363.3155600853005
 30
0.0
 11
421.8585239927222
 21
363.3155600853005
 31
0.0
  0
LINE
  5
1196
330
2
100
AcDbEntity
  8
0
100
AcDbLine
 10
412.8497974570753
 20
367.3155600853041
 30
0.0
 11
421.8585239927222
 21
367.3155600853041
 31
0.0
  0
LINE
  5
1197
330
2
100
AcDbEntity
  8
0
100
AcDbLine
 10
407.3410709217175
 20
390.3115316636048
 30
0.0
 11
421.8585239927204
 21
390.3115316636048
 31
0.0
  0
LINE
  5
1198
330
2
100
AcDbEntity
  8
0
100
AcDbLine
 10
412.8497974570753
 20
463.3155600853023
 30
0.0
 11
421.8585239927222
 21
463.3155600853023
 31
0.0
  0
LINE
  5
1199
330
2
100
AcDbEntity
  8
0
100
AcDbLine
 10
412.8497974570753
 20
459.3155600852987
 30
0.0
 11
421.8585239927222
 21
459.3155600852987
 31
0.0
  0
LINE
  5
119A
330
2
100
AcDbEntity
  8
0
100
AcDbLine
 10
407.3410709217175
 20
436.3195885069962
 30
0.0
 11
421.8585239927204
 21
436.3195885069962
 31
0.0
  0
LINE
  5
119B
330
2
100
AcDbEntity
  8
0
100
AcDbLine
 10
401.858523992573
 20
368.9495346815164
 30
0.0
 11
401.858523992573
 21
357.6815854890864
 31
0.0
  0
LINE
  5
119C
330
2
100
AcDbEntity
  8
0
100
AcDbLine
 10
409.858523992573
 20
369.8155600853005
 30
0.0
 11
409.8585239925739
 21
356.8155600853005
 31
0.0
  0
LINE
  5
119D
330
2
100
AcDbEntity
  8
0
100
AcDbLine
 10
402.358523992573
 20
356.8155600853005
 30
0.0
 11
401.858523992573
 21
357.6815854890864
 31
0.0
  0
LINE
  5
119E
330
2
100
AcDbEntity
  8
0
100
AcDbLine
 10
411.858523992573
 20
356.8155600853005
 30
0.0
 11
409.858523992573
 21
356.8155600853005
 31
0.0
  0
LINE
  5
119F
330
2
100
AcDbEntity
  8
0
100
AcDbLine
 10
409.858523992573
 20
356.8155600853005
 30
0.0
 11
402.358523992573
 21
356.8155600853005
 31
0.0
  0
LINE
  5
11A0
330
2
100
AcDbEntity
  8
CENTER
  6
CENS
100
AcDbLine
 10
428.6184062845684
 20
363.3155600853005
 30
0.0
 11
398.858523992573
 21
363.3155600853005
 31
0.0
  0
LINE
  5
11A1
330
2
100
AcDbEntity
  8
0
100
AcDbLine
 10
411.858523992573
 20
369.8155600853005
 30
0.0
 11
409.858523992573
 21
369.8155600853005
 31
0.0
  0
LINE
  5
11A2
330
2
100
AcDbEntity
  8
0
100
AcDbLine
 10
409.858523992573
 20
369.8155600853005
 30
0.0
 11
402.358523992573
 21
369.8155600853005
 31
0.0
  0
LINE
  5
11A3
330
2
100
AcDbEntity
  8
0
100
AcDbLine
 10
402.358523992573
 20
369.8155600853005
 30
0.0
 11
402.358523992573
 21
356.8155600853005
 31
0.0
  0
LINE
  5
11A4
330
2
100
AcDbEntity
  8
0
100
AcDbLine
 10
402.358523992573
 20
369.8155600853005
 30
0.0
 11
401.858523992573
 21
368.9495346815164
 31
0.0
  0
LINE
  5
11A5
330
2
100
AcDbEntity
  8
0
100
AcDbLine
 10
727.9991102601168
 20
733.7798740090911
 30
0.0
 11
626.481732681326
 21
733.7798740090911
 31
0.0
  0
LINE
  5
11A6
330
2
100
AcDbEntity
  8
HIDS
100
AcDbLine
 10
626.481732681326
 20
733.7798740090911
 30
0.0
 11
613.481732681326
 21
733.7798740090911
 31
0.0
  0
LINE
  5
11A7
330
2
100
AcDbEntity
  8
0
100
AcDbLine
 10
613.481732681326
 20
733.7798740090911
 30
0.0
 11
612.1083484210446
 21
733.7798740090911
 31
0.0
  0
ARC
  5
11A8
330
2
100
AcDbEntity
  8
0
100
AcDbCircle
 10
612.1083484210446
 20
731.7798740090911
 30
0.0
 40
2.0
100
AcDbArc
 50
90.0
 51
179.5000000000344
  0
LINE
  5
11A9
330
2
100
AcDbEntity
  8
0
100
AcDbLine
 10
773.4817326813034
 20
717.2798740096314
 30
0.0
 11
773.3812213910703
 21
728.7973270800884
 31
0.0
  0
ARC
  5
11AA
330
2
100
AcDbEntity
  8
0
100
AcDbCircle
 10
771.3812975449425
 20
728.7798740090911
 30
0.0
 40
2.0
100
AcDbArc
 50
0.4999999999654926
 51
72.52932876217645
  0
ARC
  5
11AB
330
2
100
AcDbEntity
  8
HIDS
100
AcDbCircle
 10
771.3812975449425
 20
728.7798740090911
 30
0.0
 40
2.0
100
AcDbArc
 50
72.52932876217645
 51
90.0
  0
ARC
  5
11AC
330
2
100
AcDbEntity
  8
0
100
AcDbCircle
 10
772.4031527928043
 20
726.279874009233
 30
0.0
 40
1.0
100
AcDbArc
 50
0.4999999999654926
 51
90.0
  0
LINE
  5
11AD
330
2
100
AcDbEntity
  8
0
100
AcDbLine
 10
773.481732681307
 20
717.2798740090911
 30
0.0
 11
609.9817326813069
 21
717.279874009082
 31
0.0
  0
LINE
  5
11AE
330
2
100
AcDbEntity
  8
HIDS
100
AcDbLine
 10
771.3812975449425
 20
730.7798740090911
 30
0.0
 11
758.9817326813252
 21
730.7798740090911
 31
0.0
  0
LINE
  5
11AF
330
2
100
AcDbEntity
  8
0
100
AcDbLine
 10
758.9817326813252
 20
730.7798740090911
 30
0.0
 11
730.9992244952743
 21
730.7798740090911
 31
0.0
  0
LINE
  5
11B0
330
2
100
AcDbEntity
  8
0
100
AcDbLine
 10
707.481732681307
 20
739.5798740090922
 30
0.0
 11
707.481732681307
 21
736.2798740090911
 31
0.0
  0
LINE
  5
11B1
330
2
100
AcDbEntity
  8
HIDS
100
AcDbLine
 10
624.8101598060536
 20
735.7798740090911
 30
0.0
 11
626.4817326813251
 21
735.7798740090911
 31
0.0
  0
LINE
  5
11B2
330
2
100
AcDbEntity
  8
0
100
AcDbLine
 10
626.481732681326
 20
735.7798740090911
 30
0.0
 11
715.1533055565612
 21
735.7798740090911
 31
0.0
  0
LINE
  5
11B3
330
2
100
AcDbEntity
  8
0
100
AcDbLine
 10
717.3959462436803
 20
734.3656604467177
 30
0.0
 11
716.5675191189336
 21
735.1940875714644
 31
0.0
  0
LINE
  5
11B4
330
2
100
AcDbEntity
  8
0
100
AcDbLine
 10
709.9817326813069
 20
735.7798740090911
 30
0.0
 11
709.4817326813069
 21
736.2798740090911
 31
0.0
  0
LINE
  5
11B5
330
2
100
AcDbEntity
  8
0
100
AcDbLine
 10
707.481732681307
 20
743.2798740090929
 30
0.0
 11
707.481732681307
 21
741.9798740090918
 31
0.0
  0
LINE
  5
11B6
330
2
100
AcDbEntity
  8
0
100
AcDbLine
 10
707.2817326813072
 20
739.7798740090929
 30
0.0
 11
707.481732681307
 21
739.5798740090922
 31
0.0
  0
LINE
  5
11B7
330
2
100
AcDbEntity
  8
0
100
AcDbLine
 10
706.7817326813071
 20
741.5798740090922
 30
0.0
 11
706.7817326813071
 21
739.9798740090918
 31
0.0
  0
LINE
  5
11B8
330
2
100
AcDbEntity
  8
0
100
AcDbLine
 10
707.481732681307
 20
743.2798740090911
 30
0.0
 11
706.904382412117
 21
744.2798740090929
 31
0.0
  0
LINE
  5
11B9
330
2
100
AcDbEntity
  8
0
100
AcDbLine
 10
609.9817326813069
 20
717.279874009082
 30
0.0
 11
610.1084245749168
 21
731.7973270800885
 31
0.0
  0
LINE
  5
11BA
330
2
100
AcDbEntity
  8
HIDS
100
AcDbLine
 10
622.5675191189337
 20
734.3656604467177
 30
0.0
 11
623.3959462436803
 21
735.1940875714644
 31
0.0
  0
LINE
  5
11BB
330
2
100
AcDbEntity
  8
0
100
AcDbLine
 10
706.904382412117
 20
744.2798740090911
 30
0.0
 11
633.059082950497
 21
744.2798740090911
 31
0.0
  0
LINE
  5
11BC
330
2
100
AcDbEntity
  8
0
100
AcDbLine
 10
632.481732681307
 20
739.5798740090922
 30
0.0
 11
632.481732681307
 21
736.2798740090911
 31
0.0
  0
LINE
  5
11BD
330
2
100
AcDbEntity
  8
0
100
AcDbLine
 10
630.4817326813069
 20
736.2798740090911
 30
0.0
 11
709.4817326813069
 21
736.2798740090911
 31
0.0
  0
LINE
  5
11BE
330
2
100
AcDbEntity
  8
0
100
AcDbLine
 10
629.9817326813069
 20
735.7798740090911
 30
0.0
 11
630.4817326813069
 21
736.2798740090911
 31
0.0
  0
LINE
  5
11BF
330
2
100
AcDbEntity
  8
0
100
AcDbLine
 10
632.481732681307
 20
743.2798740090911
 30
0.0
 11
632.481732681307
 21
741.9798740090918
 31
0.0
  0
LINE
  5
11C0
330
2
100
AcDbEntity
  8
0
100
AcDbLine
 10
632.6817326813077
 20
741.7798740090911
 30
0.0
 11
707.2817326813072
 21
741.7798740090911
 31
0.0
  0
LINE
  5
11C1
330
2
100
AcDbEntity
  8
0
100
AcDbLine
 10
632.6817326813068
 20
739.7798740090911
 30
0.0
 11
707.2817326813081
 21
739.7798740090911
 31
0.0
  0
LINE
  5
11C2
330
2
100
AcDbEntity
  8
0
100
AcDbLine
 10
633.1817326813068
 20
741.5798740090922
 30
0.0
 11
633.1817326813068
 21
739.9798740090918
 31
0.0
  0
LINE
  5
11C3
330
2
100
AcDbEntity
  8
0
100
AcDbLine
 10
632.6817326813068
 20
739.7798740090911
 30
0.0
 11
632.481732681307
 21
739.5798740090922
 31
0.0
  0
LINE
  5
11C4
330
2
100
AcDbEntity
  8
0
100
AcDbLine
 10
632.481732681307
 20
743.2798740090911
 30
0.0
 11
633.059082950497
 21
744.2798740090911
 31
0.0
  0
ARC
  5
11C5
330
2
100
AcDbEntity
  8
0
100
AcDbCircle
 10
715.1533055565612
 20
733.7798740090911
 30
0.0
 40
2.0
100
AcDbArc
 50
45.00000000000949
 51
90.0
  0
ARC
  5
11C6
330
2
100
AcDbEntity
  8
0
100
AcDbCircle
 10
718.8101598060536
 20
735.7798740090911
 30
0.0
 40
2.0
100
AcDbArc
 50
225.0000000000095
 51
270.0
  0
ARC
  5
11C7
330
2
100
AcDbEntity
  8
HIDS
100
AcDbCircle
 10
624.8101598060536
 20
733.7798740090911
 30
0.0
 40
2.0
100
AcDbArc
 50
90.0
 51
134.9999999999905
  0
ARC
  5
11C8
330
2
100
AcDbEntity
  8
HIDS
100
AcDbCircle
 10
621.1533055565602
 20
735.7798740090911
 30
0.0
 40
2.0
100
AcDbArc
 50
270.0
 51
314.9999999999905
  0
LINE
  5
11C9
330
2
100
AcDbEntity
  8
0
100
AcDbLine
 10
729.9990341062454
 20
731.7973270800885
 30
0.0
 11
729.9992625722104
 21
731.7711474735934
 31
0.0
  0
ARC
  5
11CA
330
2
100
AcDbEntity
  8
0
100
AcDbCircle
 10
730.9992244952743
 20
731.7798740090911
 30
0.0
 40
1.0
100
AcDbArc
 50
180.4999999999655
 51
270.0
  0
ARC
  5
11CB
330
2
100
AcDbEntity
  8
0
100
AcDbCircle
 10
727.9991102601168
 20
731.7798740090911
 30
0.0
 40
2.0
100
AcDbArc
 50
0.4999999999654926
 51
90.0
  0
ARC
  5
11CC
330
2
100
AcDbEntity
  8
0
100
AcDbCircle
 10
632.6817326813077
 20
741.9798740090918
 30
0.0
 40
0.2
100
AcDbArc
 50
180.0
 51
270.0
  0
ARC
  5
11CD
330
2
100
AcDbEntity
  8
0
100
AcDbCircle
 10
632.981732681307
 20
741.5798740090922
 30
0.0
 40
0.2
100
AcDbArc
 50
0.0
 51
90.0
  0
ARC
  5
11CE
330
2
100
AcDbEntity
  8
0
100
AcDbCircle
 10
632.981732681307
 20
739.9798740090918
 30
0.0
 40
0.2
100
AcDbArc
 50
270.0
 51
0.0
  0
ARC
  5
11CF
330
2
100
AcDbEntity
  8
0
100
AcDbCircle
 10
707.2817326813072
 20
741.9798740090918
 30
0.0
 40
0.2
100
AcDbArc
 50
270.0
 51
0.0
  0
ARC
  5
11D0
330
2
100
AcDbEntity
  8
0
100
AcDbCircle
 10
706.981732681307
 20
741.5798740090922
 30
0.0
 40
0.2
100
AcDbArc
 50
90.0
 51
180.0
  0
ARC
  5
11D1
330
2
100
AcDbEntity
  8
0
100
AcDbCircle
 10
706.981732681307
 20
739.9798740090918
 30
0.0
 40
0.2
100
AcDbArc
 50
180.0
 51
270.0
  0
LINE
  5
11D2
330
2
100
AcDbEntity
  8
0
100
AcDbLine
 10
632.481732681307
 20
743.2798740090911
 30
0.0
 11
707.481732681307
 21
743.2798740090911
 31
0.0
  0
LINE
  5
11D3
330
2
100
AcDbEntity
  8
0
100
AcDbLine
 10
632.481732681307
 20
739.5798740090922
 30
0.0
 11
707.481732681307
 21
739.5798740090922
 31
0.0
  0
LINE
  5
11D4
330
2
100
AcDbEntity
  8
0
100
AcDbLine
 10
729.9817326813069
 20
717.2798740090893
 30
0.0
 11
729.9817326813069
 21
732.0429487798191
 31
0.0
  0
LINE
  5
11D5
330
2
100
AcDbEntity
  8
0
100
AcDbLine
 10
757.0606331791047
 20
727.7667855350792
 30
0.0
 11
757.0327335887512
 21
728.8322279057119
 31
0.0
  0
LINE
  5
11D6
330
2
100
AcDbEntity
  8
0
100
AcDbLine
 10
757.5604618415925
 20
727.279874009233
 30
0.0
 11
772.4031527928043
 21
727.279874009233
 31
0.0
  0
ARC
  5
11D7
330
2
100
AcDbEntity
  8
0
100
AcDbCircle
 10
757.5604618415925
 20
727.779874009233
 30
0.0
 40
0.5
100
AcDbArc
 50
181.4999999999897
 51
270.0
  0
ARC
  5
11D8
330
2
100
AcDbEntity
  8
0
100
AcDbCircle
 10
755.0334189388002
 20
728.7798740090965
 30
0.0
 40
2.0
100
AcDbArc
 50
1.499999999989693
 51
90.0
  0
LINE
  5
11D9
330
2
100
AcDbEntity
  8
0
100
AcDbLine
 10
627.9860770760095
 20
727.279874009233
 30
0.0
 11
611.0603125698114
 21
727.279874009233
 31
0.0
  0
LINE
  5
11DA
330
2
100
AcDbEntity
  8
0
100
AcDbLine
 10
628.4860580375441
 20
727.7755107414832
 30
0.0
 11
628.5211558970102
 21
731.7973270800885
 31
0.0
  0
ARC
  5
11DB
330
2
100
AcDbEntity
  8
0
100
AcDbCircle
 10
627.9860770760095
 20
727.779874009233
 30
0.0
 40
0.5
100
AcDbArc
 50
270.0
 51
359.5000000000345
  0
ARC
  5
11DC
330
2
100
AcDbEntity
  8
0
100
AcDbCircle
 10
611.0603125698114
 20
726.279874009233
 30
0.0
 40
1.0
100
AcDbArc
 50
90.0
 51
179.5000000000344
  0
ARC
  5
11DD
330
2
100
AcDbEntity
  8
0
100
AcDbCircle
 10
630.521079743138
 20
731.7798740090911
 30
0.0
 40
2.0
100
AcDbArc
 50
90.0
 51
179.5000000000344
  0
LINE
  5
11DE
330
2
100
AcDbEntity
  8
0
100
AcDbLine
 10
619.9817326813061
 20
726.2886005447308
 30
0.0
 11
619.9817326813061
 21
717.279874009082
 31
0.0
  0
LINE
  5
11DF
330
2
100
AcDbEntity
  8
0
100
AcDbLine
 10
623.9817326813096
 20
726.2886005447308
 30
0.0
 11
623.9817326813096
 21
717.279874009082
 31
0.0
  0
LINE
  5
11E0
330
2
100
AcDbEntity
  8
0
100
AcDbLine
 10
646.9777042596112
 20
731.7973270800885
 30
0.0
 11
646.9777042596112
 21
717.2798740090838
 31
0.0
  0
LINE
  5
11E1
330
2
100
AcDbEntity
  8
0
100
AcDbLine
 10
719.9817326813079
 20
731.7973270800885
 30
0.0
 11
719.9817326813079
 21
717.279874009082
 31
0.0
  0
LINE
  5
11E2
330
2
100
AcDbEntity
  8
0
100
AcDbLine
 10
715.9817326813042
 20
731.7973270800885
 30
0.0
 11
715.9817326813042
 21
717.279874009082
 31
0.0
  0
LINE
  5
11E3
330
2
100
AcDbEntity
  8
0
100
AcDbLine
 10
692.9857611030026
 20
731.7973270800885
 30
0.0
 11
692.9857611030026
 21
717.2798740090838
 31
0.0
  0
LINE
  5
11E4
330
2
100
AcDbEntity
  8
0
100
AcDbLine
 10
759.8477580851102
 20
737.279874009233
 30
0.0
 11
771.1157072775411
 21
737.2798740092312
 31
0.0
  0
LINE
  5
11E5
330
2
100
AcDbEntity
  8
0
100
AcDbLine
 10
758.9817326813252
 20
729.2798740092312
 30
0.0
 11
771.9817326813251
 21
729.2798740092312
 31
0.0
  0
LINE
  5
11E6
330
2
100
AcDbEntity
  8
0
100
AcDbLine
 10
771.9817326813251
 20
736.7798740092312
 30
0.0
 11
771.1157072775411
 21
737.2798740092312
 31
0.0
  0
LINE
  5
11E7
330
2
100
AcDbEntity
  8
0
100
AcDbLine
 10
771.9817326813251
 20
727.2798740092312
 30
0.0
 11
771.9817326813251
 21
729.2798740092312
 31
0.0
  0
LINE
  5
11E8
330
2
100
AcDbEntity
  8
0
100
AcDbLine
 10
771.9817326813251
 20
729.2798740092312
 30
0.0
 11
771.9817326813251
 21
736.7798740092312
 31
0.0
  0
LINE
  5
11E9
330
2
100
AcDbEntity
  8
CENTER
  6
CENS
100
AcDbLine
 10
765.4817326813251
 20
711.0058820193262
 30
0.0
 11
765.4817326813251
 21
740.279874009233
 31
0.0
  0
LINE
  5
11EA
330
2
100
AcDbEntity
  8
0
100
AcDbLine
 10
758.9817326813252
 20
736.779874009233
 30
0.0
 11
759.8477580851092
 21
737.2798740092312
 31
0.0
  0
LINE
  5
11EB
330
2
100
AcDbEntity
  8
0
100
AcDbLine
 10
758.9817326813252
 20
727.279874009233
 30
0.0
 11
758.9817326813252
 21
729.2798740092329
 31
0.0
  0
LINE
  5
11EC
330
2
100
AcDbEntity
  8
0
100
AcDbLine
 10
758.9817326813252
 20
729.2798740092329
 30
0.0
 11
758.9817326813252
 21
736.779874009233
 31
0.0
  0
LINE
  5
11ED
330
2
100
AcDbEntity
  8
0
100
AcDbLine
 10
758.9817326813252
 20
736.779874009233
 30
0.0
 11
771.9817326813251
 21
736.7798740092312
 31
0.0
  0
LINE
  5
11EE
330
2
100
AcDbEntity
  8
0
100
AcDbLine
 10
614.3477580851111
 20
737.279874009233
 30
0.0
 11
625.6157072775411
 21
737.279874009233
 31
0.0
  0
LINE
  5
11EF
330
2
100
AcDbEntity
  8
0
100
AcDbLine
 10
613.481732681326
 20
729.2798740092329
 30
0.0
 11
626.481732681326
 21
729.2798740092312
 31
0.0
  0
LINE
  5
11F0
330
2
100
AcDbEntity
  8
0
100
AcDbLine
 10
626.481732681326
 20
736.779874009233
 30
0.0
 11
625.6157072775411
 21
737.279874009233
 31
0.0
  0
LINE
  5
11F1
330
2
100
AcDbEntity
  8
0
100
AcDbLine
 10
626.481732681326
 20
727.279874009233
 30
0.0
 11
626.481732681326
 21
729.2798740092329
 31
0.0
  0
LINE
  5
11F2
330
2
100
AcDbEntity
  8
0
100
AcDbLine
 10
626.481732681326
 20
729.2798740092329
 30
0.0
 11
626.481732681326
 21
736.779874009233
 31
0.0
  0
LINE
  5
11F3
330
2
100
AcDbEntity
  8
CENTER
  6
CENS
100
AcDbLine
 10
619.9817326813261
 20
711.0058820193262
 30
0.0
 11
619.9817326813261
 21
740.279874009233
 31
0.0
  0
LINE
  5
11F4
330
2
100
AcDbEntity
  8
0
100
AcDbLine
 10
613.481732681326
 20
736.779874009233
 30
0.0
 11
614.3477580851111
 21
737.279874009233
 31
0.0
  0
LINE
  5
11F5
330
2
100
AcDbEntity
  8
0
100
AcDbLine
 10
613.481732681326
 20
727.279874009233
 30
0.0
 11
613.481732681326
 21
729.2798740092329
 31
0.0
  0
LINE
  5
11F6
330
2
100
AcDbEntity
  8
0
100
AcDbLine
 10
613.481732681326
 20
729.2798740092329
 30
0.0
 11
613.481732681326
 21
736.779874009233
 31
0.0
  0
LINE
  5
11F7
330
2
100
AcDbEntity
  8
0
100
AcDbLine
 10
613.481732681326
 20
736.779874009233
 30
0.0
 11
626.481732681326
 21
736.779874009233
 31
0.0
  0
LINE
  5
11F8
330
2
100
AcDbEntity
  8
CENTER
100
AcDbLine
 10
487.1273079893824
 20
92.88402238433121
 30
0.0
 11
487.1273079893824
 21
232.3342297135135
 31
0.0
  0
LINE
  5
11F9
330
2
100
AcDbEntity
  8
CENTER
100
AcDbLine
 10
416.6273079893833
 20
162.6091260489246
 30
0.0
 11
574.1273079893833
 21
162.6091260489246
 31
0.0
  0
LINE
  5
11FA
330
2
100
AcDbEntity
  8
0
100
AcDbLine
 10
455.6273079893905
 20
222.6091260489228
 30
0.0
 11
532.1273079893814
 21
221.9415206629291
 31
0.0
  0
LINE
  5
11FB
330
2
100
AcDbEntity
  8
0
100
AcDbLine
 10
455.6273079893851
 20
102.6091260489228
 30
0.0
 11
532.1273079893833
 21
103.2767314349147
 31
0.0
  0
LINE
  5
11FC
330
2
100
AcDbEntity
  8
0
100
AcDbLine
 10
532.1273079893833
 20
103.2767314349147
 30
0.0
 11
532.1273079893824
 21
143.5008066725967
 31
0.0
  0
LINE
  5
11FD
330
2
100
AcDbEntity
  8
0
100
AcDbLine
 10
532.1273079893824
 20
181.7174454252507
 30
0.0
 11
532.1273079893814
 21
221.9415206629291
 31
0.0
  0
LINE
  5
11FE
330
2
100
AcDbEntity
  8
0
100
AcDbLine
 10
537.1273079893824
 20
107.6091260489228
 30
0.0
 11
537.1273079893824
 21
142.5491222990057
 31
0.0
  0
LINE
  5
11FF
330
2
100
AcDbEntity
  8
0
100
AcDbLine
 10
537.1273079893824
 20
182.6691297988417
 30
0.0
 11
537.1273079893824
 21
217.6091260489228
 31
0.0
  0
LINE
  5
1200
330
2
100
AcDbEntity
  8
0
100
AcDbLine
 10
537.1273079893824
 20
107.6091260489228
 30
0.0
 11
532.1273079893824
 21
107.6091260489228
 31
0.0
  0
LINE
  5
1201
330
2
100
AcDbEntity
  8
0
100
AcDbLine
 10
537.1273079893824
 20
217.6091260489228
 30
0.0
 11
532.1273079893824
 21
217.6091260489228
 31
0.0
  0
LINE
  5
1202
330
2
100
AcDbEntity
  8
0
100
AcDbLine
 10
455.6273079893851
 20
102.6091260489228
 30
0.0
 11
455.6273079893869
 21
142.3492925480513
 31
0.0
  0
LINE
  5
1203
330
2
100
AcDbEntity
  8
0
100
AcDbLine
 10
551.1273079893832
 20
124.5405035985385
 30
0.0
 11
551.1273079893832
 21
140.6090800489236
 31
0.0
  0
LINE
  5
1204
330
2
100
AcDbEntity
  8
0
100
AcDbLine
 10
551.1273079893832
 20
184.6090800489236
 30
0.0
 11
551.1273079893832
 21
200.6777484993107
 31
0.0
  0
ARC
  5
1205
330
2
100
AcDbEntity
  8
0
100
AcDbCircle
 10
549.1273079893833
 20
200.6777484993107
 30
0.0
 40
2.0
100
AcDbArc
 50
0.0
 51
87.99999999999636
  0
ARC
  5
1206
330
2
100
AcDbEntity
  8
0
100
AcDbCircle
 10
549.1273079893833
 20
124.5405035985385
 30
0.0
 40
2.0
100
AcDbArc
 50
272.0000000000036
 51
0.0
  0
LINE
  5
1207
330
2
100
AcDbEntity
  8
0
100
AcDbLine
 10
539.0575089959781
 20
122.1876393804649
 30
0.0
 11
549.1971069827884
 21
122.5417219445007
 31
0.0
  0
ARC
  5
1208
330
2
100
AcDbEntity
  8
0
100
AcDbCircle
 10
539.1273079893823
 20
120.1888577264271
 30
0.0
 40
2.0
100
AcDbArc
 50
92.00000000000365
 51
180.0
  0
LINE
  5
1209
330
2
100
AcDbEntity
  8
0
100
AcDbLine
 10
539.0575089959781
 20
203.0306127173843
 30
0.0
 11
549.1971069827884
 21
202.6765301533486
 31
0.0
  0
ARC
  5
120A
330
2
100
AcDbEntity
  8
0
100
AcDbCircle
 10
539.1273079893823
 20
205.0293943714222
 30
0.0
 40
2.0
100
AcDbArc
 50
180.0
 51
267.9999999999963
  0
LINE
  5
120B
330
2
100
AcDbEntity
  8
0
100
AcDbLine
 10
531.1273079893823
 20
212.6091260489228
 30
0.0
 11
455.6273079893905
 21
212.6091260489228
 31
0.0
  0
LINE
  5
120C
330
2
100
AcDbEntity
  8
0
100
AcDbLine
 10
531.1273079893823
 20
208.609126048921
 30
0.0
 11
455.6273079893905
 21
208.609126048921
 31
0.0
  0
LINE
  5
120D
330
2
100
AcDbEntity
  8
0
100
AcDbLine
 10
531.1273079893823
 20
185.6131544705949
 30
0.0
 11
455.6273079893887
 21
185.6131544705949
 31
0.0
  0
LINE
  5
120E
330
2
100
AcDbEntity
  8
0
100
AcDbLine
 10
531.1273079893833
 20
112.6091260489246
 30
0.0
 11
455.6273079893905
 21
112.6091260489246
 31
0.0
  0
LINE
  5
120F
330
2
100
AcDbEntity
  8
0
100
AcDbLine
 10
531.1273079893833
 20
116.6091260489283
 30
0.0
 11
455.6273079893905
 21
116.6091260489283
 31
0.0
  0
LINE
  5
1210
330
2
100
AcDbEntity
  8
0
100
AcDbLine
 10
531.1273079893823
 20
139.6050976272544
 30
0.0
 11
455.6273079893887
 21
139.6050976272544
 31
0.0
  0
LINE
  5
1211
330
2
100
AcDbEntity
  8
0
100
AcDbLine
 10
439.1273079893823
 20
220.4825103091861
 30
0.0
 11
439.1273079893823
 21
219.1091260489228
 31
0.0
  0
LINE
  5
1212
330
2
100
AcDbEntity
  8
HIDS
100
AcDbLine
 10
439.1273079893823
 20
219.1091260489228
 30
0.0
 11
439.1273079893823
 21
206.1091260489228
 31
0.0
  0
LINE
  5
1213
330
2
100
AcDbEntity
  8
0
100
AcDbLine
 10
439.1273079893823
 20
206.1091260489228
 30
0.0
 11
439.1273079893823
 21
196.3461645811766
 31
0.0
  0
LINE
  5
1214
330
2
100
AcDbEntity
  8
0
100
AcDbLine
 10
439.1273079893823
 20
128.8720875166708
 30
0.0
 11
439.1273079893823
 21
119.1091260489246
 31
0.0
  0
LINE
  5
1215
330
2
100
AcDbEntity
  8
HIDS
100
AcDbLine
 10
439.1273079893815
 20
119.1091260489246
 30
0.0
 11
439.1273079893823
 21
106.1091260489246
 31
0.0
  0
LINE
  5
1216
330
2
100
AcDbEntity
  8
0
100
AcDbLine
 10
439.1273079893823
 20
106.1091260489246
 30
0.0
 11
439.1273079893823
 21
104.7357417886614
 31
0.0
  0
ARC
  5
1217
330
2
100
AcDbEntity
  8
0
100
AcDbCircle
 10
441.1273079893824
 20
104.7357417886614
 30
0.0
 40
2.0
100
AcDbArc
 50
180.0
 51
269.5000000000345
  0
LINE
  5
1218
330
2
100
AcDbEntity
  8
0
100
AcDbLine
 10
455.6273079893851
 20
222.6091260489246
 30
0.0
 11
455.6273079893869
 21
182.8689595497962
 31
0.0
  0
LINE
  5
1219
330
2
100
AcDbEntity
  8
0
100
AcDbLine
 10
433.3273079893822
 20
200.1091260489246
 30
0.0
 11
436.6273079893824
 21
200.1091260489246
 31
0.0
  0
LINE
  5
121A
330
2
100
AcDbEntity
  8
HIDS
100
AcDbLine
 10
437.1273079893824
 20
117.4375531736695
 30
0.0
 11
437.1273079893824
 21
119.1091260489246
 31
0.0
  0
LINE
  5
121B
330
2
100
AcDbEntity
  8
0
100
AcDbLine
 10
437.1273079893824
 20
119.1091260489246
 30
0.0
 11
437.1273079893824
 21
128.6022067331868
 31
0.0
  0
LINE
  5
121C
330
2
100
AcDbEntity
  8
0
100
AcDbLine
 10
437.1273079893824
 20
196.6160453646624
 30
0.0
 11
437.1273079893824
 21
206.1091260489228
 31
0.0
  0
LINE
  5
121D
330
2
100
AcDbEntity
  8
HIDS
100
AcDbLine
 10
437.1273079893824
 20
206.1091260489228
 30
0.0
 11
437.1273079893824
 21
207.780698924178
 31
0.0
  0
LINE
  5
121E
330
2
100
AcDbEntity
  8
HIDS
100
AcDbLine
 10
438.5415215517557
 20
210.0233396112979
 30
0.0
 11
437.713094427009
 21
209.1949124865513
 31
0.0
  0
LINE
  5
121F
330
2
100
AcDbEntity
  8
0
100
AcDbLine
 10
437.1273079893824
 20
202.6091260489246
 30
0.0
 11
436.6273079893824
 21
202.1091260489246
 31
0.0
  0
LINE
  5
1220
330
2
100
AcDbEntity
  8
0
100
AcDbLine
 10
429.6273079893815
 20
200.1091260489246
 30
0.0
 11
430.9273079893817
 21
200.1091260489246
 31
0.0
  0
LINE
  5
1221
330
2
100
AcDbEntity
  8
0
100
AcDbLine
 10
433.1273079893815
 20
199.9091260489239
 30
0.0
 11
433.3273079893822
 21
200.1091260489246
 31
0.0
  0
LINE
  5
1222
330
2
100
AcDbEntity
  8
0
100
AcDbLine
 10
431.3273079893822
 20
199.4091260489239
 30
0.0
 11
432.9273079893816
 21
199.4091260489239
 31
0.0
  0
LINE
  5
1223
330
2
100
AcDbEntity
  8
0
100
AcDbLine
 10
429.6273079893824
 20
200.1091260489246
 30
0.0
 11
428.6273079893815
 21
199.5317757797346
 31
0.0
  0
LINE
  5
1224
330
2
100
AcDbEntity
  8
0
100
AcDbLine
 10
429.6273079893824
 20
195.1091260489246
 30
0.0
 11
439.6273079893823
 21
195.1091260489228
 31
0.0
  0
LINE
  5
1225
330
2
100
AcDbEntity
  8
0
100
AcDbLine
 10
439.6273079893823
 20
195.5043823626473
 30
0.0
 11
440.5547450460432
 21
195.5286681566739
 31
0.0
  0
LINE
  5
1226
330
2
100
AcDbEntity
  8
0
100
AcDbLine
 10
428.6273079893824
 20
195.6864763181128
 30
0.0
 11
429.6273079893824
 21
195.1091260489246
 31
0.0
  0
LINE
  5
1227
330
2
100
AcDbEntity
  8
0
100
AcDbLine
 10
455.6273079893924
 20
102.6091260489246
 30
0.0
 11
441.109854918386
 21
102.7358179425336
 31
0.0
  0
LINE
  5
1228
330
2
100
AcDbEntity
  8
HIDS
100
AcDbLine
 10
438.5415215517557
 20
115.1949124865513
 30
0.0
 11
437.713094427009
 21
116.023339611298
 31
0.0
  0
LINE
  5
1229
330
2
100
AcDbEntity
  8
0
100
AcDbLine
 10
439.6273079893823
 20
129.7138697352001
 30
0.0
 11
439.6273079893833
 21
140.6090800489236
 31
0.0
  0
LINE
  5
122A
330
2
100
AcDbEntity
  8
0
100
AcDbLine
 10
439.6273079893823
 20
184.6090800489236
 30
0.0
 11
439.6273079893823
 21
195.5043823626473
 31
0.0
  0
LINE
  5
122B
330
2
100
AcDbEntity
  8
0
100
AcDbLine
 10
428.6273079893824
 20
199.5317757797346
 30
0.0
 11
428.6273079893833
 21
184.6090800489236
 31
0.0
  0
LINE
  5
122C
330
2
100
AcDbEntity
  8
0
100
AcDbLine
 10
428.6273079893833
 20
140.6090800489236
 30
0.0
 11
428.6273079893824
 21
125.6864763181146
 31
0.0
  0
LINE
  5
122D
330
2
100
AcDbEntity
  8
0
100
AcDbLine
 10
429.6273079893824
 20
195.1091260489246
 30
0.0
 11
429.6273079893824
 21
184.6090800489236
 31
0.0
  0
LINE
  5
122E
330
2
100
AcDbEntity
  8
0
100
AcDbLine
 10
429.6273079893824
 20
140.6090800489236
 30
0.0
 11
429.6273079893824
 21
130.1091260489246
 31
0.0
  0
LINE
  5
122F
330
2
100
AcDbEntity
  8
0
100
AcDbLine
 10
433.3273079893822
 20
125.1091260489246
 30
0.0
 11
436.6273079893824
 21
125.1091260489246
 31
0.0
  0
LINE
  5
1230
330
2
100
AcDbEntity
  8
0
100
AcDbLine
 10
429.6273079893824
 20
130.1091260489246
 30
0.0
 11
439.6273079893823
 21
130.1091260489246
 31
0.0
  0
LINE
  5
1231
330
2
100
AcDbEntity
  8
0
100
AcDbLine
 10
436.6273079893824
 20
123.1091260489246
 30
0.0
 11
436.6273079893824
 21
128.5783144295818
 31
0.0
  0
LINE
  5
1232
330
2
100
AcDbEntity
  8
0
100
AcDbLine
 10
436.6273079893824
 20
196.6399376682674
 30
0.0
 11
436.6273079893824
 21
202.1091260489246
 31
0.0
  0
LINE
  5
1233
330
2
100
AcDbEntity
  8
0
100
AcDbLine
 10
437.1273079893824
 20
122.6091260489246
 30
0.0
 11
436.6273079893824
 21
123.1091260489246
 31
0.0
  0
LINE
  5
1234
330
2
100
AcDbEntity
  8
0
100
AcDbLine
 10
429.6273079893824
 20
125.1091260489246
 30
0.0
 11
430.9273079893825
 21
125.1091260489246
 31
0.0
  0
LINE
  5
1235
330
2
100
AcDbEntity
  8
0
100
AcDbLine
 10
431.1273079893823
 20
125.3091260489235
 30
0.0
 11
431.1273079893823
 21
128.0530955369867
 31
0.0
  0
LINE
  5
1236
330
2
100
AcDbEntity
  8
0
100
AcDbLine
 10
431.1273079893823
 20
197.1651565608626
 30
0.0
 11
431.1273079893823
 21
199.9091260489239
 31
0.0
  0
LINE
  5
1237
330
2
100
AcDbEntity
  8
0
100
AcDbLine
 10
433.1273079893824
 20
125.3091260489235
 30
0.0
 11
433.1273079893824
 21
128.3945211425415
 31
0.0
  0
LINE
  5
1238
330
2
100
AcDbEntity
  8
0
100
AcDbLine
 10
433.1273079893824
 20
196.8237309553041
 30
0.0
 11
433.1273079893824
 21
199.9091260489239
 31
0.0
  0
LINE
  5
1239
330
2
100
AcDbEntity
  8
0
100
AcDbLine
 10
431.3273079893822
 20
125.8091260489235
 30
0.0
 11
432.9273079893826
 21
125.8091260489235
 31
0.0
  0
LINE
  5
123A
330
2
100
AcDbEntity
  8
0
100
AcDbLine
 10
433.1273079893824
 20
125.3091260489235
 30
0.0
 11
433.3273079893822
 21
125.1091260489246
 31
0.0
  0
LINE
  5
123B
330
2
100
AcDbEntity
  8
0
100
AcDbLine
 10
429.6273079893824
 20
125.1091260489246
 30
0.0
 11
428.6273079893824
 21
125.6864763181146
 31
0.0
  0
LINE
  5
123C
330
2
100
AcDbEntity
  8
0
100
AcDbLine
 10
428.6273079893824
 20
129.5317757797346
 30
0.0
 11
429.6273079893824
 21
130.1091260489246
 31
0.0
  0
LINE
  5
123D
330
2
100
AcDbEntity
  8
0
100
AcDbLine
 10
439.6273079893823
 20
129.7138697352001
 30
0.0
 11
440.5547450460432
 21
129.6895839411753
 31
0.0
  0
ARC
  5
123E
330
2
100
AcDbEntity
  8
HIDS
100
AcDbCircle
 10
439.1273079893823
 20
207.780698924178
 30
0.0
 40
2.0
100
AcDbArc
 50
134.9999999999905
 51
180.0
  0
ARC
  5
123F
330
2
100
AcDbEntity
  8
HIDS
100
AcDbCircle
 10
437.1273079893824
 20
211.4375531736713
 30
0.0
 40
2.0
100
AcDbArc
 50
314.9999999999905
 51
0.0
  0
ARC
  5
1240
330
2
100
AcDbEntity
  8
HIDS
100
AcDbCircle
 10
439.1273079893823
 20
117.4375531736695
 30
0.0
 40
2.0
100
AcDbArc
 50
180.0
 51
225.0000000000095
  0
ARC
  5
1241
330
2
100
AcDbEntity
  8
HIDS
100
AcDbCircle
 10
437.1273079893824
 20
113.780698924178
 30
0.0
 40
2.0
100
AcDbArc
 50
0.0
 51
45.00000000000949
  0
ARC
  5
1242
330
2
100
AcDbEntity
  8
0
100
AcDbCircle
 10
430.9273079893825
 20
125.3091260489235
 30
0.0
 40
0.2
100
AcDbArc
 50
270.0
 51
0.0
  0
ARC
  5
1243
330
2
100
AcDbEntity
  8
0
100
AcDbCircle
 10
431.3273079893822
 20
125.6091260489246
 30
0.0
 40
0.2
100
AcDbArc
 50
90.0
 51
180.0
  0
ARC
  5
1244
330
2
100
AcDbEntity
  8
0
100
AcDbCircle
 10
432.9273079893826
 20
125.6091260489246
 30
0.0
 40
0.2
100
AcDbArc
 50
0.0
 51
90.0
  0
ARC
  5
1245
330
2
100
AcDbEntity
  8
0
100
AcDbCircle
 10
430.9273079893817
 20
199.9091260489239
 30
0.0
 40
0.2
100
AcDbArc
 50
0.0
 51
90.0
  0
ARC
  5
1246
330
2
100
AcDbEntity
  8
0
100
AcDbCircle
 10
431.3273079893822
 20
199.6091260489246
 30
0.0
 40
0.2
100
AcDbArc
 50
180.0
 51
270.0
  0
ARC
  5
1247
330
2
100
AcDbEntity
  8
0
100
AcDbCircle
 10
432.9273079893816
 20
199.6091260489246
 30
0.0
 40
0.2
100
AcDbArc
 50
270.0
 51
0.0
  0
LINE
  5
1248
330
2
100
AcDbEntity
  8
0
100
AcDbLine
 10
429.6273079893824
 20
125.1091260489246
 30
0.0
 11
429.6273079893824
 21
127.5946931999678
 31
0.0
  0
LINE
  5
1249
330
2
100
AcDbEntity
  8
0
100
AcDbLine
 10
429.6273079893824
 20
197.6235588978797
 30
0.0
 11
429.6273079893824
 21
200.1091260489246
 31
0.0
  0
LINE
  5
124A
330
2
100
AcDbEntity
  8
0
100
AcDbLine
 10
433.3273079893822
 20
125.1091260489246
 30
0.0
 11
433.3273079893822
 21
128.4138842633291
 31
0.0
  0
LINE
  5
124B
330
2
100
AcDbEntity
  8
0
100
AcDbLine
 10
433.3273079893822
 20
196.8043678345183
 30
0.0
 11
433.3273079893822
 21
200.1091260489246
 31
0.0
  0
LINE
  5
124C
330
2
100
AcDbEntity
  8
0
100
AcDbLine
 10
445.6273079892414
 20
120.6134704436262
 30
0.0
 11
445.6273079892414
 21
103.6877059374291
 31
0.0
  0
LINE
  5
124D
330
2
100
AcDbEntity
  8
0
100
AcDbLine
 10
445.1316712569912
 20
121.1134514051608
 30
0.0
 11
441.109854918386
 21
121.148549264626
 31
0.0
  0
ARC
  5
124E
330
2
100
AcDbEntity
  8
0
100
AcDbCircle
 10
445.1273079892414
 20
120.6134704436262
 30
0.0
 40
0.5
100
AcDbArc
 50
0.0
 51
89.5000000000345
  0
ARC
  5
124F
330
2
100
AcDbEntity
  8
0
100
AcDbCircle
 10
446.6273079892414
 20
103.6877059374291
 30
0.0
 40
1.0
100
AcDbArc
 50
180.0
 51
269.4999999999824
  0
ARC
  5
1250
330
2
100
AcDbEntity
  8
0
100
AcDbCircle
 10
441.1273079893824
 20
123.1484731107556
 30
0.0
 40
2.0
100
AcDbArc
 50
180.0
 51
269.5000000000345
  0
ARC
  5
1251
330
2
100
AcDbEntity
  8
0
100
AcDbCircle
 10
441.1273079893824
 20
220.4825103091861
 30
0.0
 40
2.0
100
AcDbArc
 50
90.49999999996549
 51
180.0
  0
LINE
  5
1252
330
2
100
AcDbEntity
  8
0
100
AcDbLine
 10
455.6273079893851
 20
222.6091260489246
 30
0.0
 11
441.109854918386
 21
222.4824341553139
 31
0.0
  0
LINE
  5
1253
330
2
100
AcDbEntity
  8
0
100
AcDbLine
 10
445.6273079892414
 20
204.6047816542213
 30
0.0
 11
445.6273079892414
 21
221.5305461604202
 31
0.0
  0
LINE
  5
1254
330
2
100
AcDbEntity
  8
0
100
AcDbLine
 10
445.1316712569912
 20
204.1048006926866
 30
0.0
 11
441.109854918386
 21
204.0697028332214
 31
0.0
  0
ARC
  5
1255
330
2
100
AcDbEntity
  8
0
100
AcDbCircle
 10
445.1273079892414
 20
204.6047816542213
 30
0.0
 40
0.5
100
AcDbArc
 50
270.4999999999654
 51
0.0
  0
ARC
  5
1256
330
2
100
AcDbEntity
  8
0
100
AcDbCircle
 10
446.6273079892414
 20
221.5305461604202
 30
0.0
 40
1.0
100
AcDbArc
 50
90.50000000001761
 51
180.0
  0
ARC
  5
1257
330
2
100
AcDbEntity
  8
0
100
AcDbCircle
 10
441.1273079893824
 20
202.0697789870918
 30
0.0
 40
2.0
100
AcDbArc
 50
90.49999999996549
 51
180.0
  0
LINE
  5
1258
330
2
100
AcDbEntity
  8
0
100
AcDbLine
 10
435.6273079892414
 20
206.9751514527087
 30
0.0
 11
435.6273079892414
 21
218.2431006451387
 31
0.0
  0
LINE
  5
1259
330
2
100
AcDbEntity
  8
0
100
AcDbLine
 10
443.6273079892414
 20
206.1091260489228
 30
0.0
 11
443.6273079892423
 21
219.1091260489228
 31
0.0
  0
LINE
  5
125A
330
2
100
AcDbEntity
  8
0
100
AcDbLine
 10
436.1273079892414
 20
219.1091260489228
 30
0.0
 11
435.6273079892414
 21
218.2431006451387
 31
0.0
  0
LINE
  5
125B
330
2
100
AcDbEntity
  8
0
100
AcDbLine
 10
445.6273079892414
 20
219.1091260489228
 30
0.0
 11
443.6273079892414
 21
219.1091260489228
 31
0.0
  0
LINE
  5
125C
330
2
100
AcDbEntity
  8
0
100
AcDbLine
 10
443.6273079892414
 20
219.1091260489228
 30
0.0
 11
436.1273079892414
 21
219.1091260489228
 31
0.0
  0
LINE
  5
125D
330
2
100
AcDbEntity
  8
CENTER
  6
CENS
100
AcDbLine
 10
462.3871902812368
 20
212.6091260489228
 30
0.0
 11
432.6273079892414
 21
212.6091260489228
 31
0.0
  0
LINE
  5
125E
330
2
100
AcDbEntity
  8
0
100
AcDbLine
 10
436.1273079892414
 20
206.1091260489228
 30
0.0
 11
435.6273079892414
 21
206.9751514527087
 31
0.0
  0
LINE
  5
125F
330
2
100
AcDbEntity
  8
0
100
AcDbLine
 10
445.6273079892414
 20
206.1091260489228
 30
0.0
 11
443.6273079892414
 21
206.1091260489228
 31
0.0
  0
LINE
  5
1260
330
2
100
AcDbEntity
  8
0
100
AcDbLine
 10
443.6273079892414
 20
206.1091260489228
 30
0.0
 11
436.1273079892414
 21
206.1091260489228
 31
0.0
  0
LINE
  5
1261
330
2
100
AcDbEntity
  8
0
100
AcDbLine
 10
436.1273079892414
 20
206.1091260489228
 30
0.0
 11
436.1273079892414
 21
219.1091260489228
 31
0.0
  0
LINE
  5
1262
330
2
100
AcDbEntity
  8
0
100
AcDbLine
 10
446.6185814537436
 20
112.6091260489228
 30
0.0
 11
455.6273079893905
 21
112.6091260489228
 31
0.0
  0
LINE
  5
1263
330
2
100
AcDbEntity
  8
0
100
AcDbLine
 10
446.6185814537436
 20
116.6091260489265
 30
0.0
 11
455.6273079893905
 21
116.6091260489265
 31
0.0
  0
LINE
  5
1264
330
2
100
AcDbEntity
  8
0
100
AcDbLine
 10
442.4060130119066
 20
139.6050976272289
 30
0.0
 11
455.6273079893887
 21
139.6050976272289
 31
0.0
  0
LINE
  5
1265
330
2
100
AcDbEntity
  8
0
100
AcDbLine
 10
446.6185814537436
 20
212.6091260489246
 30
0.0
 11
455.6273079893905
 21
212.6091260489246
 31
0.0
  0
LINE
  5
1266
330
2
100
AcDbEntity
  8
0
100
AcDbLine
 10
446.6185814537436
 20
208.609126048921
 30
0.0
 11
455.6273079893905
 21
208.609126048921
 31
0.0
  0
LINE
  5
1267
330
2
100
AcDbEntity
  8
0
100
AcDbLine
 10
442.4060130119066
 20
185.6131544706203
 30
0.0
 11
455.6273079893887
 21
185.6131544706203
 31
0.0
  0
LINE
  5
1268
330
2
100
AcDbEntity
  8
0
100
AcDbLine
 10
435.6273079892414
 20
118.2431006451387
 30
0.0
 11
435.6273079892414
 21
106.9751514527087
 31
0.0
  0
LINE
  5
1269
330
2
100
AcDbEntity
  8
0
100
AcDbLine
 10
443.6273079892414
 20
119.1091260489246
 30
0.0
 11
443.6273079892423
 21
106.1091260489246
 31
0.0
  0
LINE
  5
126A
330
2
100
AcDbEntity
  8
0
100
AcDbLine
 10
436.1273079892414
 20
106.1091260489246
 30
0.0
 11
435.6273079892414
 21
106.9751514527087
 31
0.0
  0
LINE
  5
126B
330
2
100
AcDbEntity
  8
0
100
AcDbLine
 10
445.6273079892414
 20
106.1091260489246
 30
0.0
 11
443.6273079892414
 21
106.1091260489246
 31
0.0
  0
LINE
  5
126C
330
2
100
AcDbEntity
  8
0
100
AcDbLine
 10
443.6273079892414
 20
106.1091260489246
 30
0.0
 11
436.1273079892414
 21
106.1091260489246
 31
0.0
  0
LINE
  5
126D
330
2
100
AcDbEntity
  8
CENTER
  6
CENS
100
AcDbLine
 10
462.3871902812368
 20
112.6091260489246
 30
0.0
 11
432.6273079892414
 21
112.6091260489246
 31
0.0
  0
LINE
  5
126E
330
2
100
AcDbEntity
  8
0
100
AcDbLine
 10
445.6273079892414
 20
119.1091260489246
 30
0.0
 11
443.6273079892414
 21
119.1091260489246
 31
0.0
  0
LINE
  5
126F
330
2
100
AcDbEntity
  8
0
100
AcDbLine
 10
443.6273079892414
 20
119.1091260489246
 30
0.0
 11
436.1273079892414
 21
119.1091260489246
 31
0.0
  0
LINE
  5
1270
330
2
100
AcDbEntity
  8
0
100
AcDbLine
 10
436.1273079892414
 20
119.1091260489246
 30
0.0
 11
436.1273079892414
 21
106.1091260489246
 31
0.0
  0
LINE
  5
1271
330
2
100
AcDbEntity
  8
0
100
AcDbLine
 10
436.1273079892414
 20
119.1091260489246
 30
0.0
 11
435.6273079892414
 21
118.2431006451406
 31
0.0
  0
LINE
  5
1272
330
2
100
AcDbEntity
  8
0
100
AcDbLine
 10
527.1273079893833
 20
177.1090800489236
 30
0.0
 11
456.6273079893833
 21
177.1090800489236
 31
0.0
  0
LINE
  5
1273
330
2
100
AcDbEntity
  8
0
100
AcDbLine
 10
564.1273079893833
 20
179.9090830489239
 30
0.0
 11
426.6273079893833
 21
179.9090830489239
 31
0.0
  0
LINE
  5
1274
330
2
100
AcDbEntity
  8
0
100
AcDbLine
 10
426.6273079893833
 20
184.6090800489236
 30
0.0
 11
426.6273079893833
 21
140.6090800489236
 31
0.0
  0
LINE
  5
1275
330
2
100
AcDbEntity
  8
0
100
AcDbLine
 10
442.7003178884131
 20
140.6090800489236
 30
0.0
 11
426.6273079893833
 21
140.6090800489236
 31
0.0
  0
LINE
  5
1276
330
2
100
AcDbEntity
  8
0
100
AcDbLine
 10
442.7003456975423
 20
184.6090800489236
 30
0.0
 11
426.6273079893833
 21
184.6090800489236
 31
0.0
  0
LINE
  5
1277
330
2
100
AcDbEntity
  8
0
100
AcDbLine
 10
441.2773019893827
 20
176.6090800489236
 30
0.0
 11
428.6273079893833
 21
176.6090800489236
 31
0.0
  0
LINE
  5
1278
330
2
100
AcDbEntity
  8
0
100
AcDbLine
 10
441.2772030299708
 20
148.6090793378279
 30
0.0
 11
428.6272090302807
 21
148.6091713378281
 31
0.0
  0
LINE
  5
1279
330
2
100
AcDbEntity
  8
0
100
AcDbLine
 10
428.6273101289168
 20
148.6090793374877
 30
0.0
 11
428.6273058498498
 21
176.6090812841932
 31
0.0
  0
LINE
  5
127A
330
2
100
AcDbEntity
  8
0
100
AcDbLine
 10
428.6271512757173
 20
148.6090800498004
 30
0.0
 11
426.6271383502223
 21
147.4543934375396
 31
0.0
  0
LINE
  5
127B
330
2
100
AcDbEntity
  8
0
100
AcDbLine
 10
428.6273079893833
 20
176.6090800489236
 30
0.0
 11
426.6273079893833
 21
177.763789048924
 31
0.0
  0
LINE
  5
127C
330
2
100
AcDbEntity
  8
0
100
AcDbLine
 10
456.6273079893833
 20
177.1090800489236
 30
0.0
 11
456.6273079893833
 21
148.1090800489109
 31
0.0
  0
LINE
  5
127D
330
2
100
AcDbEntity
  8
0
100
AcDbLine
 10
441.2773041289162
 20
147.909082337488
 30
0.0
 11
441.2772998498501
 21
177.3090770489233
 31
0.0
  0
LINE
  5
127E
330
2
100
AcDbEntity
  8
0
100
AcDbLine
 10
442.6273101289168
 20
147.909082337488
 30
0.0
 11
442.6273058498507
 21
177.3090770489231
 31
0.0
  0
LINE
  5
127F
330
2
100
AcDbEntity
  8
0
100
AcDbLine
 10
442.6273101289168
 20
147.909082337488
 30
0.0
 11
441.2773041289162
 21
147.909082337488
 31
0.0
  0
LINE
  5
1280
330
2
100
AcDbEntity
  8
0
100
AcDbLine
 10
456.6273079893833
 20
148.609171337488
 30
0.0
 11
442.6273101289168
 21
148.609171337488
 31
0.0
  0
LINE
  5
1281
330
2
100
AcDbEntity
  8
0
100
AcDbLine
 10
456.6273079893833
 20
176.6090800489236
 30
0.0
 11
442.6273079893833
 21
176.6090800489236
 31
0.0
  0
LINE
  5
1282
330
2
100
AcDbEntity
  8
0
100
AcDbLine
 10
442.6273058498507
 20
177.3090770489231
 30
0.0
 11
441.2772998498501
 21
177.3090770489233
 31
0.0
  0
LINE
  5
1283
330
2
100
AcDbEntity
  8
0
100
AcDbLine
 10
564.1273079893833
 20
184.6090800489236
 30
0.0
 11
564.1273079893833
 21
140.6090800489236
 31
0.0
  0
LINE
  5
1284
330
2
100
AcDbEntity
  8
0
100
AcDbLine
 10
564.1273079893833
 20
140.6090800489236
 30
0.0
 11
538.4077581696853
 21
140.6090800489236
 31
0.0
  0
LINE
  5
1285
330
2
100
AcDbEntity
  8
0
100
AcDbLine
 10
564.1273079893833
 20
184.6090800489236
 30
0.0
 11
538.407731877807
 21
184.6090800489236
 31
0.0
  0
LINE
  5
1286
330
2
100
AcDbEntity
  8
0
100
AcDbLine
 10
542.1273079893833
 20
176.6090800489236
 30
0.0
 11
527.1273079893833
 21
176.6090800489236
 31
0.0
  0
LINE
  5
1287
330
2
100
AcDbEntity
  8
0
100
AcDbLine
 10
542.1272780359556
 20
148.6091371049641
 30
0.0
 11
527.1273079893833
 21
148.6091511940775
 31
0.0
  0
LINE
  5
1288
330
2
100
AcDbEntity
  8
0
100
AcDbLine
 10
527.1273079893833
 20
177.1090800489236
 30
0.0
 11
527.1273079893833
 21
148.1091720489111
 31
0.0
  0
LINE
  5
1289
330
2
100
AcDbEntity
  8
0
100
AcDbLine
 10
559.627147107233
 20
148.1092974905313
 30
0.0
 11
552.6271471066927
 21
148.1091624576346
 31
0.0
  0
LINE
  5
128A
330
2
100
AcDbEntity
  8
0
100
AcDbLine
 10
552.6271471066927
 20
148.1091624576346
 30
0.0
 11
552.6272548723024
 21
177.1091260489246
 31
0.0
  0
LINE
  5
128B
330
2
100
AcDbEntity
  8
0
100
AcDbLine
 10
543.477282538284
 20
147.9091372165802
 30
0.0
 11
543.477345440481
 21
177.3090770489231
 31
0.0
  0
LINE
  5
128C
330
2
100
AcDbEntity
  8
0
100
AcDbLine
 10
542.127276538287
 20
147.9091401049663
 30
0.0
 11
542.1273394404786
 21
177.3090770489233
 31
0.0
  0
LINE
  5
128D
330
2
100
AcDbEntity
  8
0
100
AcDbLine
 10
543.477282538284
 20
147.9091372165802
 30
0.0
 11
542.127276538287
 21
147.9091401049663
 31
0.0
  0
LINE
  5
128E
330
2
100
AcDbEntity
  8
0
100
AcDbLine
 10
552.6271489137059
 20
148.6091178494261
 30
0.0
 11
543.4772840359526
 21
148.6091342165781
 31
0.0
  0
LINE
  5
128F
330
2
100
AcDbEntity
  8
0
100
AcDbLine
 10
559.6272548723734
 20
177.1091260489245
 30
0.0
 11
559.627147107233
 21
148.1092974905313
 31
0.0
  0
LINE
  5
1290
330
2
100
AcDbEntity
  8
0
100
AcDbLine
 10
562.1272780358975
 20
148.6090836165912
 30
0.0
 11
562.1273379429046
 21
176.6090973427238
 31
0.0
  0
LINE
  5
1291
330
2
100
AcDbEntity
  8
0
100
AcDbLine
 10
562.1272780358975
 20
148.6090836165912
 30
0.0
 11
559.6271489136959
 21
148.6091007331469
 31
0.0
  0
LINE
  5
1292
330
2
100
AcDbEntity
  8
0
100
AcDbLine
 10
562.1273079893833
 20
148.6090800489236
 30
0.0
 11
564.1273079893833
 21
147.4543710489232
 31
0.0
  0
LINE
  5
1293
330
2
100
AcDbEntity
  8
0
100
AcDbLine
 10
559.6272548723734
 20
177.1091260489245
 30
0.0
 11
552.6272548723024
 21
177.1091260489246
 31
0.0
  0
LINE
  5
1294
330
2
100
AcDbEntity
  8
0
100
AcDbLine
 10
543.477345440481
 20
177.3090770489231
 30
0.0
 11
542.1273394404786
 21
177.3090770489233
 31
0.0
  0
LINE
  5
1295
330
2
100
AcDbEntity
  8
0
  6
CONTINUOUS
 62
     4
100
AcDbLine
 10
553.1272009893834
 20
179.9090830489239
 30
0.0
 11
553.1272009893834
 21
184.6090800489236
 31
0.0
  0
LINE
  5
1296
330
2
100
AcDbEntity
  8
0
  6
CONTINUOUS
 62
     7
100
AcDbLine
 10
553.7272009893838
 20
179.9090830489239
 30
0.0
 11
553.7272009893838
 21
184.6090800489236
 31
0.0
  0
LINE
  5
1297
330
2
100
AcDbEntity
  8
0
100
AcDbLine
 10
552.6272009893834
 20
176.6090800489236
 30
0.0
 11
543.4773139893839
 21
176.6090800489236
 31
0.0
  0
LINE
  5
1298
330
2
100
AcDbEntity
  8
0
  6
CONTINUOUS
 62
     7
100
AcDbLine
 10
558.5272009893831
 20
179.9090830489239
 30
0.0
 11
558.5272009893831
 21
184.6090800489236
 31
0.0
  0
LINE
  5
1299
330
2
100
AcDbEntity
  8
0
  6
CONTINUOUS
 62
     4
100
AcDbLine
 10
559.1272009893835
 20
179.9090830489239
 30
0.0
 11
559.1272009893835
 21
184.6090800489236
 31
0.0
  0
LINE
  5
129A
330
2
100
AcDbEntity
  8
0
100
AcDbLine
 10
562.1273079893833
 20
176.6090800489236
 30
0.0
 11
559.6272009893834
 21
176.6090800489236
 31
0.0
  0
LINE
  5
129B
330
2
100
AcDbEntity
  8
0
100
AcDbLine
 10
562.1273079893833
 20
176.6090800489236
 30
0.0
 11
564.1273079893833
 21
177.763789048924
 31
0.0
  0
LINE
  5
129C
330
2
100
AcDbEntity
  8
0
100
AcDbLine
 10
527.1273079893833
 20
148.1091720489111
 30
0.0
 11
456.6273079893833
 21
148.1090800489109
 31
0.0
  0
LINE
  5
129D
330
2
100
AcDbEntity
  8
0
100
AcDbLine
 10
550.1273079893833
 20
195.1091260489246
 30
0.0
 11
540.1273079893833
 21
195.1091260489246
 31
0.0
  0
LINE
  5
129E
330
2
100
AcDbEntity
  8
0
100
AcDbLine
 10
550.1273079893833
 20
130.1091260489246
 30
0.0
 11
540.1273079893833
 21
130.1091260489246
 31
0.0
  0
LINE
  5
129F
330
2
100
AcDbEntity
  8
0
100
AcDbLine
 10
550.1273079893833
 20
195.1091260489246
 30
0.0
 11
550.1273079893824
 21
184.6090800489236
 31
0.0
  0
LINE
  5
12A0
330
2
100
AcDbEntity
  8
0
100
AcDbLine
 10
550.1273079893833
 20
140.6090800489236
 30
0.0
 11
550.1273079893833
 21
130.1091260489246
 31
0.0
  0
LINE
  5
12A1
330
2
100
AcDbEntity
  8
0
100
AcDbLine
 10
551.1273079893832
 20
129.5317757797346
 30
0.0
 11
550.1273079893833
 21
130.1091260489246
 31
0.0
  0
LINE
  5
12A2
330
2
100
AcDbEntity
  8
0
100
AcDbLine
 10
551.1273079893832
 20
195.6864763181146
 30
0.0
 11
550.1273079893833
 21
195.1091260489246
 31
0.0
  0
LINE
  5
12A3
330
2
100
AcDbEntity
  8
0
100
AcDbLine
 10
540.1273079893833
 20
195.2818020293106
 30
0.0
 11
540.1273079893833
 21
184.6090800489236
 31
0.0
  0
LINE
  5
12A4
330
2
100
AcDbEntity
  8
0
100
AcDbLine
 10
540.1273079893833
 20
140.6090800489236
 30
0.0
 11
540.1273079893833
 21
129.9364500685405
 31
0.0
  0
LINE
  5
12A5
330
2
100
AcDbEntity
  8
0
100
AcDbLine
 10
540.1273079893833
 20
129.9364500685405
 30
0.0
 11
538.8231537580102
 21
129.9022995881222
 31
0.0
  0
LINE
  5
12A6
330
2
100
AcDbEntity
  8
0
100
AcDbLine
 10
540.1273079893833
 20
195.2818020293106
 30
0.0
 11
538.8231537580102
 21
195.315952509727
 31
0.0
  0
SPLINE
  5
12A7
330
2
100
AcDbEntity
  8
HOJO
100
AcDbSpline
210
0.0
220
0.0
230
1.0
 70
     8
 71
     3
 72
    27
 73
    23
 74
     0
 42
0.0000000001
 43
0.0000000001
 40
1.115194340024553
 40
1.115194340024553
 40
1.115194340024553
 40
1.115194340024553
 40
4.11856902600964
 40
9.276492718429681
 40
13.10167008618774
 40
18.71184964488228
 40
23.95716555156286
 40
27.01619251471695
 40
39.17039536596644
 40
50.24697446103543
 40
58.53434931408898
 40
73.56157927628713
 40
85.17772611937518
 40
102.3462877726335
 40
113.633446065556
 40
121.5743876800089
 40
126.5250688064399
 40
130.7795985444939
 40
134.8620682382245
 40
140.0229493905749
 40
145.1226728683104
 40
146.9851630635393
 40
146.9851630635393
 40
146.9851630635393
 40
146.9851630635393
 10
428.6273079893824
 20
197.9944346403189
 30
0.0
 10
429.5737259859977
 20
197.627933129448
 30
0.0
 10
432.1479840998015
 20
196.7219877190563
 30
0.0
 10
435.9654100820305
 20
196.7176292470885
 30
0.0
 10
441.7009895140616
 20
196.3353448503148
 30
0.0
 10
441.1515496483914
 20
190.0145716391652
 30
0.0
 10
442.2904551265799
 20
185.9764433786658
 30
0.0
 10
444.4437187772443
 20
178.7176521329492
 30
0.0
 10
456.2845842489602
 20
184.3231131439769
 30
0.0
 10
465.8568525352964
 20
182.9201472413951
 30
0.0
 10
477.4325489593109
 20
181.0682734188757
 30
0.0
 10
489.0503135283095
 20
184.1683673673687
 30
0.0
 10
503.3999169741134
 20
180.0039294063153
 30
0.0
 10
517.197276699975
 20
183.6838058298289
 30
0.0
 10
528.1650734655056
 20
181.7969356750581
 30
0.0
 10
538.5752987478361
 20
181.3703874969013
 30
0.0
 10
538.8196979640176
 20
188.2115669397898
 30
0.0
 10
538.4244727031762
 20
192.2007086446009
 30
0.0
 10
538.7436589234765
 20
197.6505000031192
 30
0.0
 10
544.6760287734166
 20
197.4535166811
 30
0.0
 10
548.6171864908417
 20
197.6249542658933
 30
0.0
 10
550.6051776583042
 20
198.772324941834
 30
0.0
 10
551.1273079893832
 20
199.1161524942071
 30
0.0
  0
SPLINE
  5
12A8
330
2
100
AcDbEntity
  8
HOJO
100
AcDbSpline
210
0.0
220
0.0
230
1.0
 70
     8
 71
     3
 72
    27
 73
    23
 74
     0
 42
0.0000000001
 43
0.0000000001
 40
1.115194340024553
 40
1.115194340024553
 40
1.115194340024553
 40
1.115194340024553
 40
4.11856902600964
 40
9.276492718429681
 40
13.10167008618774
 40
18.71184964488228
 40
23.95716555156286
 40
27.01619251471695
 40
39.17039536596644
 40
50.24697446103543
 40
58.53434931408898
 40
73.56157927628713
 40
85.17772611937518
 40
102.3462877726335
 40
113.633446065556
 40
121.5743876800089
 40
126.5250688064399
 40
130.7795985444939
 40
134.8620682382245
 40
140.0229493905749
 40
145.1226728683104
 40
146.9851630635393
 40
146.9851630635393
 40
146.9851630635393
 40
146.9851630635393
 10
428.6273079893824
 20
127.2238174575303
 30
0.0
 10
429.5737259859977
 20
127.5903189683994
 30
0.0
 10
432.1479840998015
 20
128.4962643787911
 30
0.0
 10
435.9654100820305
 20
128.5006228507608
 30
0.0
 10
441.7009895140616
 20
128.8829072475327
 30
0.0
 10
441.1515496483914
 20
135.2036804586822
 30
0.0
 10
442.2904551265799
 20
139.2418087191817
 30
0.0
 10
444.4437187772443
 20
146.5005999649001
 30
0.0
 10
456.2845842489602
 20
140.8951389538705
 30
0.0
 10
465.8568525352964
 20
142.2981048564524
 30
0.0
 10
477.4325489593109
 20
144.1499786789735
 30
0.0
 10
489.0503135283095
 20
141.0498847304806
 30
0.0
 10
503.3999169741134
 20
145.2143226915322
 30
0.0
 10
517.197276699975
 20
141.5344462680186
 30
0.0
 10
528.1650734655056
 20
143.4213164227894
 30
0.0
 10
538.5752987478361
 20
143.8478646009461
 30
0.0
 10
538.8196979640176
 20
137.0066851580594
 30
0.0
 10
538.4244727031762
 20
133.0175434532465
 30
0.0
 10
538.7436589234765
 20
127.5677520947283
 30
0.0
 10
544.6760287734166
 20
127.7647354167474
 30
0.0
 10
548.6171864908417
 20
127.5932978319542
 30
0.0
 10
550.6051776583042
 20
126.4459271560153
 30
0.0
 10
551.1273079893832
 20
126.1020996036422
 30
0.0
  0
LINE
  5
12A9
330
2
100
AcDbEntity
  8
CENTER
  6
CENS
100
AcDbLine
 10
556.1272009893834
 20
171.1045375219072
 30
0.0
 11
556.1272009893834
 21
193.4136255759403
 31
0.0
  0
LINE
  5
12AA
330
2
100
AcDbEntity
  8
0
100
AcDbLine
 10
429.6273079893824
 20
195.1091260489246
 30
0.0
 11
439.6273079893823
 21
184.6090800489236
 31
0.0
  0
LINE
  5
12AB
330
2
100
AcDbEntity
  8
0
100
AcDbLine
 10
439.6273079893823
 20
195.1091260489228
 30
0.0
 11
429.6273079893824
 21
184.6090800489236
 31
0.0
  0
LINE
  5
12AC
330
2
100
AcDbEntity
  8
0
100
AcDbLine
 10
429.6273079893824
 20
140.6090800489236
 30
0.0
 11
439.6273079893823
 21
130.1091260489246
 31
0.0
  0
LINE
  5
12AD
330
2
100
AcDbEntity
  8
0
100
AcDbLine
 10
439.6273079893833
 20
140.6090800489236
 30
0.0
 11
429.6273079893824
 21
130.1091260489246
 31
0.0
  0
LINE
  5
12AE
330
2
100
AcDbEntity
  8
0
100
AcDbLine
 10
540.1273079893833
 20
195.1091260489246
 30
0.0
 11
550.1273079893824
 21
184.6090800489236
 31
0.0
  0
LINE
  5
12AF
330
2
100
AcDbEntity
  8
0
100
AcDbLine
 10
550.1273079893833
 20
195.1091260489246
 30
0.0
 11
540.1273079893833
 21
184.6090800489236
 31
0.0
  0
LINE
  5
12B0
330
2
100
AcDbEntity
  8
0
100
AcDbLine
 10
540.1273079893833
 20
140.6090800489236
 30
0.0
 11
550.1273079893833
 21
130.1091260489246
 31
0.0
  0
LINE
  5
12B1
330
2
100
AcDbEntity
  8
0
100
AcDbLine
 10
540.1273079893833
 20
130.1091260489246
 30
0.0
 11
550.1273079893833
 21
140.6090800489236
 31
0.0
  0
LINE
  5
12B2
330
2
100
AcDbEntity
  8
0
100
AcDbLine
 10
392.8585239927149
 20
435.3155140853013
 30
0.0
 11
392.8585239927149
 21
391.3155140853013
 31
0.0
  0
LINE
  5
12B3
330
2
100
AcDbEntity
  8
0
100
AcDbLine
 10
394.858523992714
 20
391.3155140853013
 30
0.0
 11
392.8585239927149
 21
391.3155140853013
 31
0.0
  0
LINE
  5
12B4
330
2
100
AcDbEntity
  8
0
100
AcDbLine
 10
394.8585239927149
 20
435.3155140853013
 30
0.0
 11
392.8585239927149
 21
435.3155140853013
 31
0.0
  0
LINE
  5
12B5
330
2
100
AcDbEntity
  8
0
100
AcDbLine
 10
530.3585239927149
 20
435.3155140853013
 30
0.0
 11
530.3585239927149
 21
391.3155140853013
 31
0.0
  0
LINE
  5
12B6
330
2
100
AcDbEntity
  8
0
100
AcDbLine
 10
530.3585239927149
 20
391.3155140853013
 30
0.0
 11
517.3585239927149
 21
391.3155140853013
 31
0.0
  0
LINE
  5
12B7
330
2
100
AcDbEntity
  8
0
100
AcDbLine
 10
530.3585239927149
 20
435.3155140853013
 30
0.0
 11
517.3585239927149
 21
435.3155140853013
 31
0.0
  0
CIRCLE
  5
12B8
330
2
100
AcDbEntity
  8
HOJO
100
AcDbCircle
 10
522.3584169927151
 20
413.3155600853005
 30
0.0
 40
3.0
  0
CIRCLE
  5
12B9
330
2
100
AcDbEntity
  8
0
100
AcDbCircle
 10
522.3584169927151
 20
413.3155600853005
 30
0.0
 40
2.5
  0
LINE
  5
12BA
330
2
100
AcDbEntity
  8
CENTER
100
AcDbLine
 10
522.3584169927142
 20
418.5919816776458
 30
0.0
 11
522.3584169927142
 21
408.0391384929552
 31
0.0
  0
LINE
  5
12BB
330
2
100
AcDbEntity
  8
0
100
AcDbLine
 10
691.9816866813069
 20
746.2798740037142
 30
0.0
 11
647.9816866813068
 21
746.2798740037142
 31
0.0
  0
LINE
  5
12BC
330
2
100
AcDbEntity
  8
0
100
AcDbLine
 10
647.9816866813068
 20
744.2798740037142
 30
0.0
 11
647.9816866813068
 21
746.2798740037142
 31
0.0
  0
LINE
  5
12BD
330
2
100
AcDbEntity
  8
0
100
AcDbLine
 10
691.9816866813069
 20
744.2798740037142
 30
0.0
 11
691.9816866813069
 21
746.2798740037142
 31
0.0
  0
LINE
  5
12BE
330
2
100
AcDbEntity
  8
0
100
AcDbLine
 10
691.9816866813069
 20
608.7798740037142
 30
0.0
 11
647.9816866813068
 21
608.7798740037142
 31
0.0
  0
LINE
  5
12BF
330
2
100
AcDbEntity
  8
0
100
AcDbLine
 10
647.9816866813068
 20
608.7798740037142
 30
0.0
 11
647.9816866813068
 21
621.7798740037141
 31
0.0
  0
LINE
  5
12C0
330
2
100
AcDbEntity
  8
0
100
AcDbLine
 10
691.9816866813069
 20
608.7798740037142
 30
0.0
 11
691.9816866813069
 21
621.7798740037124
 31
0.0
  0
CIRCLE
  5
12C1
330
2
100
AcDbEntity
  8
HOJO
100
AcDbCircle
 10
669.981732681307
 20
616.779981003714
 30
0.0
 40
3.0
  0
CIRCLE
  5
12C2
330
2
100
AcDbEntity
  8
0
100
AcDbCircle
 10
669.981732681307
 20
616.779981003714
 30
0.0
 40
2.5
  0
LINE
  5
12C3
330
2
100
AcDbEntity
  8
CENTER
100
AcDbLine
 10
675.2581542736522
 20
616.779981003714
 30
0.0
 11
664.7053110889617
 21
616.779981003714
 31
0.0
  0
ARC
  5
12C4
330
2
100
AcDbEntity
  8
0
100
AcDbCircle
 10
249.8277336281741
 20
413.3155600852987
 30
0.0
 40
14.0
100
AcDbArc
 50
106.6015495990168
 51
73.39845040098312
  0
LINE
  5
12C5
330
2
100
AcDbEntity
  8
0
100
AcDbLine
 10
245.8277336281742
 20
430.615563085299
 30
0.0
 11
253.8277336281741
 21
430.615563085299
 31
0.0
  0
LINE
  5
12C6
330
2
100
AcDbEntity
  8
0
100
AcDbLine
 10
245.8277336281742
 20
430.615563085299
 30
0.0
 11
245.8277336281742
 21
426.7319679502961
 31
0.0
  0
LINE
  5
12C7
330
2
100
AcDbEntity
  8
0
100
AcDbLine
 10
253.8277336281741
 20
430.615563085299
 30
0.0
 11
253.8277336281741
 21
426.7319679502961
 31
0.0
  0
ARC
  5
12C8
330
2
100
AcDbEntity
  8
0
100
AcDbCircle
 10
249.8277336281741
 20
413.3155600852987
 30
0.0
 40
15.15463467198318
100
AcDbArc
 50
105.3043129627534
 51
74.6956870372465
  0
CIRCLE
  5
12C9
330
2
100
AcDbEntity
  8
0
100
AcDbCircle
 10
249.8277336281741
 20
413.3155600852987
 30
0.0
 40
21.99995400000011
  0
ARC
  5
12CA
330
2
100
AcDbEntity
  8
0
100
AcDbCircle
 10
669.981732681307
 20
413.3155600852987
 30
0.0
 40
14.0
100
AcDbArc
 50
106.6015495990168
 51
73.39845040098312
  0
LINE
  5
12CB
330
2
100
AcDbEntity
  8
0
100
AcDbLine
 10
665.981732681307
 20
430.6155630852972
 30
0.0
 11
673.981732681307
 21
430.6155630852972
 31
0.0
  0
LINE
  5
12CC
330
2
100
AcDbEntity
  8
0
100
AcDbLine
 10
665.981732681307
 20
430.6155630852972
 30
0.0
 11
665.981732681307
 21
426.7319679502961
 31
0.0
  0
LINE
  5
12CD
330
2
100
AcDbEntity
  8
0
100
AcDbLine
 10
673.981732681307
 20
430.6155630852972
 30
0.0
 11
673.981732681307
 21
426.7319679502961
 31
0.0
  0
ARC
  5
12CE
330
2
100
AcDbEntity
  8
0
100
AcDbCircle
 10
669.981732681307
 20
413.3155600852987
 30
0.0
 40
15.15463467198318
100
AcDbArc
 50
105.3043129627534
 51
74.6956870372465
  0
CIRCLE
  5
12CF
330
2
100
AcDbEntity
  8
0
100
AcDbCircle
 10
669.981732681307
 20
413.3155600852987
 30
0.0
 40
21.99995400000011
  0
LINE
  5
12D0
330
2
100
AcDbEntity
  8
CENTER
100
AcDbLine
 10
302.8277336281514
 20
455.9747174834537
 30
0.0
 11
302.8277336281514
 21
441.6564026871401
 31
0.0
  0
LINE
  5
12D1
330
2
100
AcDbEntity
  8
CENTER
100
AcDbLine
 10
295.6685762299946
 20
448.8155600852969
 30
0.0
 11
309.9868910263082
 21
448.8155600852969
 31
0.0
  0
LINE
  5
12D2
330
2
100
AcDbEntity
  8
CENTER
100
AcDbLine
 10
302.8277336281523
 20
370.6564026871437
 30
0.0
 11
302.8277336281523
 21
384.9747174834573
 31
0.0
  0
LINE
  5
12D3
330
2
100
AcDbEntity
  8
CENTER
100
AcDbLine
 10
295.6685762299955
 20
377.8155600853005
 30
0.0
 11
309.9868910263091
 21
377.8155600853005
 31
0.0
  0
LINE
  5
12D5
330
2
100
AcDbEntity
  8
0
100
AcDbLine
 10
397.5585239927138
 20
376.5155600852994
 30
0.0
 11
399.1585239927132
 21
376.5155600852994
 31
0.0
  0
LINE
  5
12D6
330
2
100
AcDbEntity
  8
PHAS
100
AcDbLine
 10
395.5061667734023
 20
373.9351684254752
 30
0.0
 11
402.358523992714
 21
373.8155600853005
 31
0.0
  0
LINE
  5
12D7
330
2
100
AcDbEntity
  8
PHAS
100
AcDbLine
 10
392.5585239927138
 20
376.9347115109448
 30
0.0
 11
392.5585239927147
 21
449.6964086596571
 31
0.0
  0
LINE
  5
12D8
330
2
100
AcDbEntity
  8
PHAS
100
AcDbLine
 10
372.858523992714
 20
389.9846997611438
 30
0.0
 11
372.858523992714
 21
436.6464204094572
 31
0.0
  0
ARC
  5
12D9
330
2
100
AcDbEntity
  8
PHAS
100
AcDbCircle
 10
395.5585239927138
 20
376.9347115109448
 30
0.0
 40
3.0
100
AcDbArc
 50
180.0
 51
268.9999999999721
  0
ARC
  5
12DA
330
2
100
AcDbEntity
  8
PHAS
100
AcDbCircle
 10
391.5585239927138
 20
381.4764604541232
 30
0.0
 40
1.0
100
AcDbArc
 50
0.0
 51
79.99999999999483
  0
ARC
  5
12DB
330
2
100
AcDbEntity
  8
PHAS
100
AcDbCircle
 10
377.858523992714
 20
389.9846997611438
 30
0.0
 40
5.0
100
AcDbArc
 50
180.0
 51
259.9999999999948
  0
LINE
  5
12DC
330
2
100
AcDbEntity
  8
PHAS
100
AcDbLine
 10
376.9902831043789
 20
385.0606609960832
 30
0.0
 11
391.7321721703808
 21
382.4612682071355
 31
0.0
  0
ARC
  5
12DD
330
2
100
AcDbEntity
  8
PHAS
100
AcDbCircle
 10
391.5585239927138
 20
445.1546597164778
 30
0.0
 40
1.0
100
AcDbArc
 50
280.0000000000051
 51
0.0
  0
ARC
  5
12DE
330
2
100
AcDbEntity
  8
PHAS
100
AcDbCircle
 10
377.858523992714
 20
436.6464204094572
 30
0.0
 40
5.0
100
AcDbArc
 50
100.0000000000051
 51
180.0
  0
LINE
  5
12DF
330
2
100
AcDbEntity
  8
PHAS
100
AcDbLine
 10
376.9902831043789
 20
441.5704591745188
 30
0.0
 11
391.7321721703808
 21
444.1698519634664
 31
0.0
  0
LINE
  5
12E0
330
2
100
AcDbEntity
  8
PHAS
100
AcDbLine
 10
402.358523992714
 20
452.8155600853005
 30
0.0
 11
402.358523992714
 21
373.8155600853005
 31
0.0
  0
LINE
  5
12E1
330
2
100
AcDbEntity
  8
PHAS
100
AcDbLine
 10
395.5061667734023
 20
452.6959517451259
 30
0.0
 11
402.358523992714
 21
452.8155600853005
 31
0.0
  0
ARC
  5
12E2
330
2
100
AcDbEntity
  8
PHAS
100
AcDbCircle
 10
395.5585239927138
 20
449.6964086596562
 30
0.0
 40
3.0
100
AcDbArc
 50
91.00000000002784
 51
180.0
  0
LINE
  5
131D
330
2
100
AcDbEntity
  8
CENTER
100
AcDbLine
 10
1056.747791479441
 20
483.0406637498939
 30
0.0
 11
1056.747791479441
 21
343.5904564207116
 31
0.0
  0
LINE
  5
131E
330
2
100
AcDbEntity
  8
CENTER
100
AcDbLine
 10
1127.24779147944
 20
413.3155600853005
 30
0.0
 11
969.7477914794406
 21
413.3155600853005
 31
0.0
  0
LINE
  5
131F
330
2
100
AcDbEntity
  8
0
100
AcDbLine
 10
1088.247791479433
 20
353.3155600853023
 30
0.0
 11
1011.747791479441
 21
353.9831654712961
 31
0.0
  0
LINE
  5
1320
330
2
100
AcDbEntity
  8
0
100
AcDbLine
 10
1088.247791479441
 20
473.3155600853023
 30
0.0
 11
1011.747791479441
 21
472.6479546993104
 31
0.0
  0
LINE
  5
1321
330
2
100
AcDbEntity
  8
0
100
AcDbLine
 10
1013.747791479441
 20
453.6784225798091
 30
0.0
 11
1013.747791479441
 21
372.9526975907992
 31
0.0
  0
LINE
  5
1322
330
2
100
AcDbEntity
  8
0
100
AcDbLine
 10
1011.747791479441
 20
472.6479546993104
 30
0.0
 11
1011.747791479441
 21
353.9831654712961
 31
0.0
  0
LINE
  5
1323
330
2
100
AcDbEntity
  8
0
100
AcDbLine
 10
1006.747791479441
 20
468.3155600853023
 30
0.0
 11
1006.747791479441
 21
358.3155600853023
 31
0.0
  0
LINE
  5
1324
330
2
100
AcDbEntity
  8
0
100
AcDbLine
 10
1006.747791479441
 20
468.3155600853023
 30
0.0
 11
1011.747791479441
 21
468.3155600853023
 31
0.0
  0
LINE
  5
1325
330
2
100
AcDbEntity
  8
0
100
AcDbLine
 10
1006.747791479441
 20
358.3155600853023
 30
0.0
 11
1011.747791479441
 21
358.3155600853023
 31
0.0
  0
LINE
  5
1326
330
2
100
AcDbEntity
  8
0
100
AcDbLine
 10
1088.247791479441
 20
473.3155600853023
 30
0.0
 11
1088.24779147944
 21
454.4314137438413
 31
0.0
  0
LINE
  5
1327
330
2
100
AcDbEntity
  8
0
100
AcDbLine
 10
1088.247791479434
 20
372.1997064267615
 30
0.0
 11
1088.247791479433
 21
353.3155600853023
 31
0.0
  0
LINE
  5
1328
330
2
100
AcDbEntity
  8
0
100
AcDbLine
 10
1092.808763427677
 20
454.3757921347149
 30
0.0
 11
1056.747791479442
 21
454.8155600853169
 31
0.0
  0
LINE
  5
1329
330
2
100
AcDbEntity
  8
0
100
AcDbLine
 10
1020.686820403357
 20
454.3757921453488
 30
0.0
 11
1032.935067308607
 21
454.5251610100474
 31
0.0
  0
LINE
  5
132A
330
2
100
AcDbEntity
  8
0
100
AcDbLine
 10
1092.808762555526
 20
372.2553280252504
 30
0.0
 11
1056.747791479442
 21
371.8155600853005
 31
0.0
  0
LINE
  5
132B
330
2
100
AcDbEntity
  8
0
100
AcDbLine
 10
1020.686820403357
 20
372.2553280252522
 30
0.0
 11
1056.747791479442
 21
371.8155600853005
 31
0.0
  0
ARC
  5
132C
330
2
100
AcDbEntity
  8
0
100
AcDbCircle
 10
1092.74779235159
 20
449.3761638957475
 30
0.0
 40
5.0
100
AcDbArc
 50
44.50852683536515
 51
89.30130561700025
  0
ARC
  5
132D
330
2
100
AcDbEntity
  8
0
100
AcDbCircle
 10
1092.74779235159
 20
377.2549562748535
 30
0.0
 40
5.0
100
AcDbArc
 50
270.6986943829997
 51
315.4914731646348
  0
ARC
  5
132E
330
2
100
AcDbEntity
  8
0
100
AcDbCircle
 10
1020.747790607294
 20
449.3761638957475
 30
0.0
 40
5.0
100
AcDbArc
 50
90.69869438299972
 51
135.4914731625128
  0
ARC
  5
132F
330
2
100
AcDbEntity
  8
0
100
AcDbCircle
 10
1020.747790607293
 20
377.2549562748535
 30
0.0
 40
5.0
100
AcDbArc
 50
224.5085268374998
 51
269.3013056170002
  0
LINE
  5
1330
330
2
100
AcDbEntity
  8
0
100
AcDbLine
 10
992.7477914794415
 20
451.3841825356866
 30
0.0
 11
992.7477914794415
 21
375.2469376349144
 31
0.0
  0
ARC
  5
1331
330
2
100
AcDbEntity
  8
0
100
AcDbCircle
 10
994.7477914794415
 20
375.2469376349144
 30
0.0
 40
2.0
100
AcDbArc
 50
180.0
 51
267.9999999999963
  0
ARC
  5
1332
330
2
100
AcDbEntity
  8
0
100
AcDbCircle
 10
994.7477914794415
 20
451.3841825356866
 30
0.0
 40
2.0
100
AcDbArc
 50
92.00000000000365
 51
180.0
  0
LINE
  5
1333
330
2
100
AcDbEntity
  8
0
100
AcDbLine
 10
1004.817590472846
 20
453.7370467537602
 30
0.0
 11
994.6779924860363
 21
453.3829641897245
 31
0.0
  0
ARC
  5
1334
330
2
100
AcDbEntity
  8
0
100
AcDbCircle
 10
1004.747791479441
 20
455.7358284077981
 30
0.0
 40
2.0
100
AcDbArc
 50
272.0000000000036
 51
0.0
  0
LINE
  5
1335
330
2
100
AcDbEntity
  8
0
100
AcDbLine
 10
1004.817590472846
 20
372.8940734168408
 30
0.0
 11
994.6779924860363
 21
373.2481559808765
 31
0.0
  0
ARC
  5
1336
330
2
100
AcDbEntity
  8
0
100
AcDbCircle
 10
1004.747791479441
 20
370.8952917628029
 30
0.0
 40
2.0
100
AcDbArc
 50
0.0
 51
87.99999999999636
  0
LINE
  5
1337
330
2
100
AcDbEntity
  8
0
100
AcDbLine
 10
1088.247791479434
 20
370.3199235191986
 30
0.0
 11
1015.730338408445
 21
370.9527737446696
 31
0.0
  0
LINE
  5
1338
330
2
100
AcDbEntity
  8
0
100
AcDbLine
 10
1088.24779147944
 20
456.3111966514078
 30
0.0
 11
1049.735569541772
 21
455.9751055822306
 31
0.0
  0
LINE
  5
1339
330
2
100
AcDbEntity
  8
0
100
AcDbLine
 10
1088.247791479438
 20
455.7614039805939
 30
0.0
 11
1056.747791479441
 21
456.0363003159999
 31
0.0
  0
LINE
  5
133A
330
2
100
AcDbEntity
  8
0
100
AcDbLine
 10
1088.247791479438
 20
370.8697161900126
 30
0.0
 11
1056.747791479441
 21
370.5948198546047
 31
0.0
  0
ARC
  5
133B
330
2
100
AcDbEntity
  8
0
100
AcDbCircle
 10
1015.747791479441
 20
453.6784225798091
 30
0.0
 40
2.0
100
AcDbArc
 50
90.49999999996549
 51
180.0
  0
ARC
  5
133C
330
2
100
AcDbEntity
  8
0
100
AcDbCircle
 10
1015.747791479441
 20
372.9526975907992
 30
0.0
 40
2.0
100
AcDbArc
 50
180.0
 51
269.4999999999824
  0
LINE
  5
133D
330
2
100
AcDbEntity
  8
0
100
AcDbLine
 10
1104.747791479446
 20
471.1889443455638
 30
0.0
 11
1104.747791479446
 21
454.8155600852987
 31
0.0
  0
LINE
  5
133E
330
2
100
AcDbEntity
  8
0
100
AcDbLine
 10
1104.747791479446
 20
441.8155600852987
 30
0.0
 11
1104.747791479446
 21
384.8155600853023
 31
0.0
  0
LINE
  5
133F
330
2
100
AcDbEntity
  8
0
100
AcDbLine
 10
1104.747791479446
 20
371.8155600853023
 30
0.0
 11
1104.747791479446
 21
355.442175825039
 31
0.0
  0
ARC
  5
1340
330
2
100
AcDbEntity
  8
0
100
AcDbCircle
 10
1102.747791479446
 20
355.442175825039
 30
0.0
 40
2.0
100
AcDbArc
 50
270.4999999999654
 51
0.0
  0
LINE
  5
1341
330
2
100
AcDbEntity
  8
0
100
AcDbLine
 10
1088.247791479444
 20
473.3155600853005
 30
0.0
 11
1088.247791479443
 21
454.4314137438413
 31
0.0
  0
LINE
  5
1342
330
2
100
AcDbEntity
  8
0
100
AcDbLine
 10
1088.247791479438
 20
372.1997064267615
 30
0.0
 11
1088.247791479437
 21
353.3155600853005
 31
0.0
  0
LINE
  5
1343
330
2
100
AcDbEntity
  8
0
100
AcDbLine
 10
1098.247791479442
 20
454.2456689862009
 30
0.0
 11
1098.247791479442
 21
440.3155600852987
 31
0.0
  0
ARC
  5
1344
330
2
100
AcDbEntity
  8
0
100
AcDbCircle
 10
1096.247791479442
 20
454.2456689862009
 30
0.0
 40
2.0
100
AcDbArc
 50
0.0
 51
89.49999999998238
  0
LINE
  5
1345
330
2
100
AcDbEntity
  8
0
100
AcDbLine
 10
1101.747791479442
 20
441.8155600852987
 30
0.0
 11
1101.747791479438
 21
384.8155600853023
 31
0.0
  0
ARC
  5
1346
330
2
100
AcDbEntity
  8
0
100
AcDbCircle
 10
1099.747791479443
 20
454.2151249489342
 30
0.0
 40
2.0
100
AcDbArc
 50
17.47067123731997
 51
89.49999999998238
  0
LINE
  5
1347
330
2
100
AcDbEntity
  8
0
100
AcDbLine
 10
1110.547791479447
 20
450.8155600853005
 30
0.0
 11
1108.247791479442
 21
450.8155600853005
 31
0.0
  0
LINE
  5
1348
330
2
100
AcDbEntity
  8
0
100
AcDbLine
 10
1106.747791479446
 20
368.1439872100472
 30
0.0
 11
1106.747791479447
 21
371.8155600853023
 31
0.0
  0
LINE
  5
1349
330
2
100
AcDbEntity
  8
0
100
AcDbLine
 10
1106.747791479447
 20
384.8155600853023
 30
0.0
 11
1106.747791479446
 21
441.8155600852987
 31
0.0
  0
LINE
  5
134A
330
2
100
AcDbEntity
  8
0
100
AcDbLine
 10
1106.747791479446
 20
454.8155600852987
 30
0.0
 11
1106.747791479446
 21
458.4871329605556
 31
0.0
  0
LINE
  5
134B
330
2
100
AcDbEntity
  8
0
100
AcDbLine
 10
1105.333577917072
 20
460.7297736476739
 30
0.0
 11
1106.162005041819
 21
459.9013465229272
 31
0.0
  0
LINE
  5
134C
330
2
100
AcDbEntity
  8
0
100
AcDbLine
 10
1114.247791479446
 20
450.8155600853005
 30
0.0
 11
1112.947791479446
 21
450.8155600853005
 31
0.0
  0
LINE
  5
134D
330
2
100
AcDbEntity
  8
0
100
AcDbLine
 10
1110.747791479447
 20
450.6155600853016
 30
0.0
 11
1110.547791479447
 21
450.8155600853005
 31
0.0
  0
LINE
  5
134E
330
2
100
AcDbEntity
  8
0
100
AcDbLine
 10
1112.547791479447
 20
450.1155600853016
 30
0.0
 11
1110.947791479446
 21
450.1155600853016
 31
0.0
  0
LINE
  5
134F
330
2
100
AcDbEntity
  8
0
100
AcDbLine
 10
1114.247791479445
 20
450.8155600853005
 30
0.0
 11
1115.247791479447
 21
450.2382098161105
 31
0.0
  0
LINE
  5
1350
330
2
100
AcDbEntity
  8
0
100
AcDbLine
 10
1088.247791479437
 20
353.3155600853005
 30
0.0
 11
1102.765244550443
 21
353.4422519789113
 31
0.0
  0
LINE
  5
1351
330
2
100
AcDbEntity
  8
0
100
AcDbLine
 10
1105.333577917072
 20
365.9013465229272
 30
0.0
 11
1106.162005041819
 21
366.7297736476738
 31
0.0
  0
LINE
  5
1352
330
2
100
AcDbEntity
  8
0
100
AcDbLine
 10
1115.247791479446
 20
450.2382098161105
 30
0.0
 11
1115.247791479446
 21
376.3929103544905
 31
0.0
  0
LINE
  5
1353
330
2
100
AcDbEntity
  8
0
100
AcDbLine
 10
1110.547791479447
 20
375.8155600853005
 30
0.0
 11
1108.247791479442
 21
375.8155600853005
 31
0.0
  0
LINE
  5
1354
330
2
100
AcDbEntity
  8
0
100
AcDbLine
 10
1107.247791479446
 20
384.8155600853023
 30
0.0
 11
1107.247791479446
 21
441.8155600852987
 31
0.0
  0
LINE
  5
1355
330
2
100
AcDbEntity
  8
0
100
AcDbLine
 10
1114.247791479445
 20
375.8155600853005
 30
0.0
 11
1112.947791479446
 21
375.8155600853005
 31
0.0
  0
LINE
  5
1356
330
2
100
AcDbEntity
  8
0
100
AcDbLine
 10
1112.747791479446
 20
376.0155600853012
 30
0.0
 11
1112.747791479446
 21
450.6155600853016
 31
0.0
  0
LINE
  5
1357
330
2
100
AcDbEntity
  8
0
100
AcDbLine
 10
1110.747791479446
 20
376.0155600853012
 30
0.0
 11
1110.747791479446
 21
450.6155600853016
 31
0.0
  0
LINE
  5
1358
330
2
100
AcDbEntity
  8
0
100
AcDbLine
 10
1112.547791479447
 20
376.5155600853012
 30
0.0
 11
1110.947791479446
 21
376.5155600853012
 31
0.0
  0
LINE
  5
1359
330
2
100
AcDbEntity
  8
0
100
AcDbLine
 10
1110.747791479446
 20
376.0155600853012
 30
0.0
 11
1110.547791479447
 21
375.8155600853005
 31
0.0
  0
LINE
  5
135A
330
2
100
AcDbEntity
  8
0
100
AcDbLine
 10
1114.247791479445
 20
375.8155600853005
 30
0.0
 11
1115.247791479446
 21
376.3929103544905
 31
0.0
  0
ARC
  5
135B
330
2
100
AcDbEntity
  8
0
100
AcDbCircle
 10
1104.747791479446
 20
458.4871329605556
 30
0.0
 40
2.0
100
AcDbArc
 50
0.0
 51
45.00000000000949
  0
ARC
  5
135C
330
2
100
AcDbEntity
  8
0
100
AcDbCircle
 10
1106.747791479446
 20
462.1439872100472
 30
0.0
 40
2.0
100
AcDbArc
 50
180.0
 51
225.0000000000095
  0
ARC
  5
135D
330
2
100
AcDbEntity
  8
0
100
AcDbCircle
 10
1104.747791479446
 20
368.1439872100472
 30
0.0
 40
2.0
100
AcDbArc
 50
314.9999999999905
 51
0.0
  0
ARC
  5
135E
330
2
100
AcDbEntity
  8
0
100
AcDbCircle
 10
1106.747791479446
 20
364.4871329605539
 30
0.0
 40
2.0
100
AcDbArc
 50
134.9999999999905
 51
180.0
  0
ARC
  5
135F
330
2
100
AcDbEntity
  8
0
100
AcDbCircle
 10
1112.947791479446
 20
376.0155600853012
 30
0.0
 40
0.2
100
AcDbArc
 50
180.0
 51
270.0
  0
ARC
  5
1360
330
2
100
AcDbEntity
  8
0
100
AcDbCircle
 10
1112.547791479447
 20
376.3155600853005
 30
0.0
 40
0.2
100
AcDbArc
 50
0.0
 51
90.0
  0
ARC
  5
1361
330
2
100
AcDbEntity
  8
0
100
AcDbCircle
 10
1110.947791479446
 20
376.3155600853005
 30
0.0
 40
0.2
100
AcDbArc
 50
90.0
 51
180.0
  0
ARC
  5
1362
330
2
100
AcDbEntity
  8
0
100
AcDbCircle
 10
1112.947791479446
 20
450.6155600853016
 30
0.0
 40
0.2
100
AcDbArc
 50
90.0
 51
180.0
  0
ARC
  5
1363
330
2
100
AcDbEntity
  8
0
100
AcDbCircle
 10
1112.547791479447
 20
450.3155600853005
 30
0.0
 40
0.2
100
AcDbArc
 50
270.0
 51
0.0
  0
ARC
  5
1364
330
2
100
AcDbEntity
  8
0
100
AcDbCircle
 10
1110.947791479446
 20
450.3155600853005
 30
0.0
 40
0.2
100
AcDbArc
 50
180.0
 51
270.0
  0
LINE
  5
1365
330
2
100
AcDbEntity
  8
0
100
AcDbLine
 10
1114.247791479445
 20
375.8155600853005
 30
0.0
 11
1114.247791479445
 21
450.8155600853005
 31
0.0
  0
LINE
  5
1366
330
2
100
AcDbEntity
  8
0
100
AcDbLine
 10
1110.547791479447
 20
375.8155600853005
 30
0.0
 11
1110.547791479447
 21
450.8155600853005
 31
0.0
  0
ARC
  5
1367
330
2
100
AcDbEntity
  8
0
100
AcDbCircle
 10
1102.747791479446
 20
471.1889443455638
 30
0.0
 40
2.0
100
AcDbArc
 50
0.0
 51
89.5000000000345
  0
LINE
  5
1368
330
2
100
AcDbEntity
  8
0
100
AcDbLine
 10
1088.247791479444
 20
473.3155600853005
 30
0.0
 11
1102.765244550443
 21
473.1888681916916
 31
0.0
  0
LINE
  5
1369
330
2
100
AcDbEntity
  8
0
100
AcDbLine
 10
1088.247791479442
 20
456.3155600852986
 30
0.0
 11
1099.765244550439
 21
456.215048795062
 31
0.0
  0
LINE
  5
136A
330
2
100
AcDbEntity
  8
0
100
AcDbLine
 10
1098.747791479442
 20
439.8155600852986
 30
0.0
 11
1099.747791479442
 21
439.8155600852986
 31
0.0
  0
ARC
  5
136B
330
2
100
AcDbEntity
  8
0
100
AcDbCircle
 10
1098.747791479441
 20
440.3155600852987
 30
0.0
 40
0.5
100
AcDbArc
 50
179.9999999998957
 51
270.0000000000521
  0
ARC
  5
136C
330
2
100
AcDbEntity
  8
0
100
AcDbCircle
 10
1099.747791479442
 20
437.8155600852987
 30
0.0
 40
2.0
100
AcDbArc
 50
0.0
 51
90.0
  0
LINE
  5
136D
330
2
100
AcDbEntity
  8
0
100
AcDbLine
 10
1098.247791479442
 20
372.3854511844001
 30
0.0
 11
1098.247791479442
 21
386.3155600853023
 31
0.0
  0
ARC
  5
136E
330
2
100
AcDbEntity
  8
0
100
AcDbCircle
 10
1096.247791479442
 20
372.3854511844001
 30
0.0
 40
2.0
100
AcDbArc
 50
270.5000000000175
 51
0.0
  0
LINE
  5
136F
330
2
100
AcDbEntity
  8
0
100
AcDbLine
 10
1098.747791479442
 20
386.8155600853023
 30
0.0
 11
1099.747791479442
 21
386.8155600853023
 31
0.0
  0
ARC
  5
1370
330
2
100
AcDbEntity
  8
0
100
AcDbCircle
 10
1098.747791479441
 20
386.3155600853023
 30
0.0
 40
0.5
100
AcDbArc
 50
89.99999999994789
 51
180.0000000001042
  0
ARC
  5
1371
330
2
100
AcDbEntity
  8
0
100
AcDbCircle
 10
1099.747791479442
 20
388.8155600853023
 30
0.0
 40
2.0
100
AcDbArc
 50
270.0
 51
0.0
  0
LINE
  5
1372
330
2
100
AcDbEntity
  8
0
100
AcDbLine
 10
1088.247791479442
 20
370.3155600853023
 30
0.0
 11
1099.765244550435
 21
370.416071375539
 31
0.0
  0
ARC
  5
1373
330
2
100
AcDbEntity
  8
0
100
AcDbCircle
 10
1099.747791479438
 20
372.4159952216668
 30
0.0
 40
2.0
100
AcDbArc
 50
270.5000000000175
 51
342.52932876268
  0
LINE
  5
1374
330
2
100
AcDbEntity
  8
CENTER
  6
CENS
100
AcDbLine
 10
1109.747791479446
 20
448.3155600852987
 30
0.0
 11
1083.247791479442
 21
448.3155600852987
 31
0.0
  0
LINE
  5
1375
330
2
100
AcDbEntity
  8
0
100
AcDbLine
 10
1108.247791479442
 20
442.6815854890846
 30
0.0
 11
1108.247791479442
 21
453.9495346815146
 31
0.0
  0
LINE
  5
1376
330
2
100
AcDbEntity
  8
0
100
AcDbLine
 10
1098.247791479442
 20
441.8155600852987
 30
0.0
 11
1098.247791479442
 21
454.8155600852987
 31
0.0
  0
LINE
  5
1377
330
2
100
AcDbEntity
  8
0
100
AcDbLine
 10
1100.247791479442
 20
441.8155600852987
 30
0.0
 11
1100.247791479441
 21
454.8155600852987
 31
0.0
  0
LINE
  5
1378
330
2
100
AcDbEntity
  8
0
100
AcDbLine
 10
1107.747791479442
 20
454.8155600852987
 30
0.0
 11
1108.247791479442
 21
453.9495346815146
 31
0.0
  0
LINE
  5
1379
330
2
100
AcDbEntity
  8
0
100
AcDbLine
 10
1098.247791479442
 20
454.8155600852987
 30
0.0
 11
1100.247791479442
 21
454.8155600852987
 31
0.0
  0
LINE
  5
137A
330
2
100
AcDbEntity
  8
0
100
AcDbLine
 10
1100.247791479442
 20
454.8155600852987
 30
0.0
 11
1107.747791479442
 21
454.8155600852987
 31
0.0
  0
LINE
  5
137B
330
2
100
AcDbEntity
  8
0
100
AcDbLine
 10
1107.747791479442
 20
441.8155600852987
 30
0.0
 11
1108.247791479442
 21
442.6815854890827
 31
0.0
  0
LINE
  5
137C
330
2
100
AcDbEntity
  8
0
100
AcDbLine
 10
1098.247791479442
 20
441.8155600852987
 30
0.0
 11
1100.247791479442
 21
441.8155600852987
 31
0.0
  0
LINE
  5
137D
330
2
100
AcDbEntity
  8
0
100
AcDbLine
 10
1100.247791479442
 20
441.8155600852987
 30
0.0
 11
1107.747791479442
 21
441.8155600852987
 31
0.0
  0
LINE
  5
137E
330
2
100
AcDbEntity
  8
0
100
AcDbLine
 10
1107.747791479442
 20
441.8155600852987
 30
0.0
 11
1107.747791479442
 21
454.8155600852987
 31
0.0
  0
LINE
  5
137F
330
2
100
AcDbEntity
  8
CENTER
  6
CENS
100
AcDbLine
 10
1109.747791479446
 20
378.3155600853023
 30
0.0
 11
1083.247791479442
 21
378.3155600853023
 31
0.0
  0
LINE
  5
1380
330
2
100
AcDbEntity
  8
0
100
AcDbLine
 10
1108.247791479442
 20
383.9495346815183
 30
0.0
 11
1108.247791479442
 21
372.6815854890864
 31
0.0
  0
LINE
  5
1381
330
2
100
AcDbEntity
  8
0
100
AcDbLine
 10
1098.247791479442
 20
384.8155600853023
 30
0.0
 11
1098.247791479442
 21
371.8155600853023
 31
0.0
  0
LINE
  5
1382
330
2
100
AcDbEntity
  8
0
100
AcDbLine
 10
1100.247791479442
 20
384.8155600853023
 30
0.0
 11
1100.247791479441
 21
371.8155600853023
 31
0.0
  0
LINE
  5
1383
330
2
100
AcDbEntity
  8
0
100
AcDbLine
 10
1107.747791479442
 20
371.8155600853023
 30
0.0
 11
1108.247791479442
 21
372.6815854890864
 31
0.0
  0
LINE
  5
1384
330
2
100
AcDbEntity
  8
0
100
AcDbLine
 10
1098.247791479442
 20
371.8155600853023
 30
0.0
 11
1100.247791479442
 21
371.8155600853023
 31
0.0
  0
LINE
  5
1385
330
2
100
AcDbEntity
  8
0
100
AcDbLine
 10
1100.247791479442
 20
371.8155600853023
 30
0.0
 11
1107.747791479442
 21
371.8155600853023
 31
0.0
  0
LINE
  5
1386
330
2
100
AcDbEntity
  8
0
100
AcDbLine
 10
1107.747791479442
 20
384.8155600853023
 30
0.0
 11
1108.247791479442
 21
383.9495346815183
 31
0.0
  0
LINE
  5
1387
330
2
100
AcDbEntity
  8
0
100
AcDbLine
 10
1100.247791479442
 20
384.8155600853023
 30
0.0
 11
1107.747791479442
 21
384.8155600853023
 31
0.0
  0
LINE
  5
1388
330
2
100
AcDbEntity
  8
0
100
AcDbLine
 10
1107.747791479442
 20
384.8155600853023
 30
0.0
 11
1107.747791479442
 21
371.8155600853023
 31
0.0
  0
LINE
  5
1389
330
2
100
AcDbEntity
  8
0
100
AcDbLine
 10
1100.247791479442
 20
384.8155600853023
 30
0.0
 11
1098.247791479442
 21
384.8155600853023
 31
0.0
  0
LINE
  5
138A
330
2
100
AcDbEntity
  8
0
100
AcDbLine
 10
1117.24779147944
 20
391.3156060853033
 30
0.0
 11
1117.24779147944
 21
435.3156060853033
 31
0.0
  0
LINE
  5
138B
330
2
100
AcDbEntity
  8
0
100
AcDbLine
 10
1115.247791479441
 20
435.3156060853033
 30
0.0
 11
1117.24779147944
 21
435.3156060853033
 31
0.0
  0
LINE
  5
138C
330
2
100
AcDbEntity
  8
0
100
AcDbLine
 10
1115.24779147944
 20
391.3156060853033
 30
0.0
 11
1117.24779147944
 21
391.3156060853033
 31
0.0
  0
LINE
  5
138D
330
2
100
AcDbEntity
  8
0
100
AcDbLine
 10
979.7477914794406
 20
391.3156060853033
 30
0.0
 11
979.7477914794406
 21
435.3156060853033
 31
0.0
  0
LINE
  5
138E
330
2
100
AcDbEntity
  8
0
100
AcDbLine
 10
979.7477914794406
 20
435.3156060853033
 30
0.0
 11
992.7477914794406
 21
435.3156060853033
 31
0.0
  0
LINE
  5
138F
330
2
100
AcDbEntity
  8
0
100
AcDbLine
 10
979.7477914794406
 20
391.3156060853033
 30
0.0
 11
992.7477914794406
 21
391.3156060853033
 31
0.0
  0
LINE
  5
1390
330
2
100
AcDbEntity
  8
0
100
AcDbLine
 10
1108.247791479582
 20
457.6815854890845
 30
0.0
 11
1108.247791479582
 21
468.9495346815165
 31
0.0
  0
LINE
  5
1391
330
2
100
AcDbEntity
  8
0
100
AcDbLine
 10
1107.747791479582
 20
469.8155600853005
 30
0.0
 11
1108.247791479582
 21
468.9495346815165
 31
0.0
  0
LINE
  5
1392
330
2
100
AcDbEntity
  8
0
100
AcDbLine
 10
1104.747791479447
 20
469.8155600853005
 30
0.0
 11
1107.747791479582
 21
469.8155600853005
 31
0.0
  0
LINE
  5
1393
330
2
100
AcDbEntity
  8
CENTER
  6
CENS
100
AcDbLine
 10
1081.487909187587
 20
463.3155600853005
 30
0.0
 11
1111.247791479582
 21
463.3155600853005
 31
0.0
  0
LINE
  5
1394
330
2
100
AcDbEntity
  8
0
100
AcDbLine
 10
1107.747791479582
 20
456.8155600853005
 30
0.0
 11
1108.247791479582
 21
457.6815854890845
 31
0.0
  0
LINE
  5
1395
330
2
100
AcDbEntity
  8
0
100
AcDbLine
 10
1106.747791479446
 20
456.8155600853005
 30
0.0
 11
1107.747791479582
 21
456.8155600853005
 31
0.0
  0
LINE
  5
1396
330
2
100
AcDbEntity
  8
0
100
AcDbLine
 10
1107.747791479582
 20
456.8155600853005
 30
0.0
 11
1107.747791479582
 21
469.8155600853005
 31
0.0
  0
LINE
  5
1397
330
2
100
AcDbEntity
  8
0
100
AcDbLine
 10
1108.247791479582
 20
368.9495346815164
 30
0.0
 11
1108.247791479582
 21
357.6815854890864
 31
0.0
  0
LINE
  5
1398
330
2
100
AcDbEntity
  8
0
100
AcDbLine
 10
1107.747791479582
 20
356.8155600853005
 30
0.0
 11
1108.247791479582
 21
357.6815854890864
 31
0.0
  0
LINE
  5
1399
330
2
100
AcDbEntity
  8
0
100
AcDbLine
 10
1104.747791479445
 20
356.8155600853005
 30
0.0
 11
1107.747791479582
 21
356.8155600853005
 31
0.0
  0
LINE
  5
139A
330
2
100
AcDbEntity
  8
CENTER
  6
CENS
100
AcDbLine
 10
1081.487909187587
 20
363.3155600853005
 30
0.0
 11
1111.247791479582
 21
363.3155600853005
 31
0.0
  0
LINE
  5
139B
330
2
100
AcDbEntity
  8
0
100
AcDbLine
 10
1106.747791479447
 20
369.8155600853005
 30
0.0
 11
1107.747791479582
 21
369.8155600853005
 31
0.0
  0
LINE
  5
139C
330
2
100
AcDbEntity
  8
0
100
AcDbLine
 10
1107.747791479582
 20
369.8155600853005
 30
0.0
 11
1107.747791479582
 21
356.8155600853005
 31
0.0
  0
LINE
  5
139D
330
2
100
AcDbEntity
  8
0
100
AcDbLine
 10
1107.747791479582
 20
369.8155600853005
 30
0.0
 11
1108.247791479582
 21
368.9495346815164
 31
0.0
  0
LINE
  5
139E
330
2
100
AcDbEntity
  8
0
100
AcDbLine
 10
824.3917326813082
 20
715.4298740037136
 30
0.0
 11
824.39173268131
 21
656.1298740037134
 31
0.0
  0
LINE
  5
139F
330
2
100
AcDbEntity
  8
0
100
AcDbLine
 10
846.3917326813081
 20
682.7798740037139
 30
0.0
 11
846.3917326813081
 21
663.779874003714
 31
0.0
  0
LINE
  5
13A0
330
2
100
AcDbEntity
  8
0
100
AcDbLine
 10
849.3917326813082
 20
685.7798740037139
 30
0.0
 11
857.3917326813063
 21
685.7798740037139
 31
0.0
  0
LINE
  5
13A1
330
2
100
AcDbEntity
  8
0
100
AcDbLine
 10
825.9972839567728
 20
725.779874003714
 30
0.0
 11
870.3917326813064
 21
725.779874003714
 31
0.0
  0
LINE
  5
13A2
330
2
100
AcDbEntity
  8
0
100
AcDbLine
 10
860.3917326813064
 20
720.779874003714
 30
0.0
 11
860.3917326813064
 21
688.779874003714
 31
0.0
  0
ARC
  5
13A3
330
2
100
AcDbEntity
  8
0
100
AcDbCircle
 10
865.3917326813063
 20
720.779874003714
 30
0.0
 40
5.0
100
AcDbArc
 50
90.0
 51
180.0
  0
ARC
  5
13A4
330
2
100
AcDbEntity
  8
0
100
AcDbCircle
 10
857.3917326813063
 20
688.779874003714
 30
0.0
 40
3.0
100
AcDbArc
 50
270.0
 51
0.0
  0
LINE
  5
13A5
330
2
100
AcDbEntity
  8
0
100
AcDbLine
 10
815.3917326813083
 20
726.7798740037139
 30
0.0
 11
822.3917326813101
 21
726.7798740037139
 31
0.0
  0
ARC
  5
13A6
330
2
100
AcDbEntity
  8
0
100
AcDbCircle
 10
825.9972839567728
 20
730.779874003714
 30
0.0
 40
5.0
100
AcDbArc
 50
238.9972808660663
 51
270.0
  0
ARC
  5
13A7
330
2
100
AcDbEntity
  8
0
100
AcDbCircle
 10
822.3917326813101
 20
724.779874003714
 30
0.0
 40
2.0
100
AcDbArc
 50
18.96557498886337
 51
90.0
  0
ARC
  5
13A8
330
2
100
AcDbEntity
  8
0
100
AcDbCircle
 10
849.3917326813082
 20
682.7798740037139
 30
0.0
 40
3.0
100
AcDbArc
 50
90.0
 51
180.0
  0
LINE
  5
13A9
330
2
100
AcDbEntity
  8
0
100
AcDbLine
 10
825.9972839567728
 20
645.779874003714
 30
0.0
 11
870.3917326813064
 21
645.779874003713
 31
0.0
  0
LINE
  5
13AA
330
2
100
AcDbEntity
  8
0
100
AcDbLine
 10
849.3917326813082
 20
660.7798740037139
 30
0.0
 11
857.3917326813063
 21
660.7798740037139
 31
0.0
  0
LINE
  5
13AB
330
2
100
AcDbEntity
  8
0
100
AcDbLine
 10
860.3917326813064
 20
657.7798740037139
 30
0.0
 11
860.3917326813064
 21
650.7798740037131
 31
0.0
  0
ARC
  5
13AC
330
2
100
AcDbEntity
  8
0
100
AcDbCircle
 10
857.3917326813063
 20
657.7798740037139
 30
0.0
 40
3.0
100
AcDbArc
 50
0.0
 51
90.0
  0
ARC
  5
13AD
330
2
100
AcDbEntity
  8
0
100
AcDbCircle
 10
865.3917326813063
 20
650.779874003714
 30
0.0
 40
5.0
100
AcDbArc
 50
180.0
 51
270.0
  0
ARC
  5
13AE
330
2
100
AcDbEntity
  8
0
100
AcDbCircle
 10
849.3917326813082
 20
663.779874003714
 30
0.0
 40
3.0
100
AcDbArc
 50
180.0
 51
270.0
  0
LINE
  5
13AF
330
2
100
AcDbEntity
  8
0
100
AcDbLine
 10
815.3917326813083
 20
644.779874003713
 30
0.0
 11
822.3917326813101
 21
644.7798740037139
 31
0.0
  0
ARC
  5
13B0
330
2
100
AcDbEntity
  8
0
100
AcDbCircle
 10
825.9972839567728
 20
640.7798740037139
 30
0.0
 40
5.0
100
AcDbArc
 50
90.0
 51
121.0027191339336
  0
ARC
  5
13B1
330
2
100
AcDbEntity
  8
0
100
AcDbCircle
 10
822.3917326813101
 20
646.779874003714
 30
0.0
 40
2.0
100
AcDbArc
 50
270.0
 51
341.0344250111366
  0
LINE
  5
13B2
330
2
100
AcDbEntity
  8
0
100
AcDbLine
 10
870.3917326813064
 20
725.779874003714
 30
0.0
 11
870.3917326813064
 21
645.779874003713
 31
0.0
  0
LINE
  5
13B3
330
2
100
AcDbEntity
  8
0
100
AcDbLine
 10
1020.687187658358
 20
454.3155600852996
 30
0.0
 11
1032.874808133232
 21
454.3155600853005
 31
0.0
  0
LINE
  5
13B4
330
2
100
AcDbEntity
  8
0
100
AcDbLine
 10
1050.620774825646
 20
454.3155600853023
 30
0.0
 11
1092.80839530052
 21
454.3155600853051
 31
0.0
  0
CIRCLE
  5
13B5
330
2
100
AcDbEntity
  8
HIDS
100
AcDbCircle
 10
1056.747791479439
 20
413.3155600853005
 30
0.0
 40
40.0
  0
CIRCLE
  5
13B6
330
2
100
AcDbEntity
  8
0
100
AcDbCircle
 10
1056.747791479439
 20
413.3155600853005
 30
0.0
 40
34.99999999543831
  0
LINE
  5
13B7
330
2
100
AcDbEntity
  8
0
100
AcDbLine
 10
1024.747791479439
 20
453.3155600853005
 30
0.0
 11
1088.747791479439
 21
453.3155600853005
 31
0.0
  0
LINE
  5
13B8
330
2
100
AcDbEntity
  8
0
100
AcDbLine
 10
1024.747791479439
 20
373.3155600853005
 30
0.0
 11
1088.654673180879
 21
373.3155600853005
 31
0.0
  0
LINE
  5
13B9
330
2
100
AcDbEntity
  8
0
100
AcDbLine
 10
1015.687559419391
 20
377.254589009215
 30
0.0
 11
1015.247791479448
 21
413.3155600853005
 31
0.0
  0
LINE
  5
13BA
330
2
100
AcDbEntity
  8
0
100
AcDbLine
 10
1016.840943624328
 20
381.292289070734
 30
0.0
 11
1016.747791479439
 21
413.3155600853005
 31
0.0
  0
ARC
  5
13BB
330
2
100
AcDbEntity
  8
0
100
AcDbCircle
 10
1020.687187658358
 20
377.3155600853005
 30
0.0
 40
5.0
100
AcDbArc
 50
180.6986943829997
 51
270.0
  0
ARC
  5
13BC
330
2
100
AcDbEntity
  8
0
100
AcDbCircle
 10
1024.840909778
 20
381.3155600853005
 30
0.0
 40
7.999999999999998
100
AcDbArc
 50
180.1666666000128
 51
270.0
  0
LINE
  5
13BD
330
2
100
AcDbEntity
  8
CENTER
100
AcDbLine
 10
1024.927791479439
 20
386.9955600852999
 30
0.0
 11
1024.927791479439
 21
375.9955600852999
 31
0.0
  0
LINE
  5
13BE
330
2
100
AcDbEntity
  8
CENTER
100
AcDbLine
 10
1019.42779147944
 20
381.4955600852999
 30
0.0
 11
1030.427791479439
 21
381.4955600852999
 31
0.0
  0
LINE
  5
13BF
330
2
100
AcDbEntity
  8
0
100
AcDbLine
 10
1015.687559419391
 20
449.376531161385
 30
0.0
 11
1015.247791479448
 21
413.3155600853005
 31
0.0
  0
LINE
  5
13C0
330
2
100
AcDbEntity
  8
HIDS
100
AcDbLine
 10
1035.997791479438
 20
453.3155600853005
 30
0.0
 11
1036.336413115799
 21
433.9159395307451
 31
0.0
  0
LINE
  5
13C1
330
2
100
AcDbEntity
  8
HIDS
100
AcDbLine
 10
1047.497791479437
 20
453.3155600853005
 30
0.0
 11
1047.278037196246
 21
440.7258456331728
 31
0.0
  0
LINE
  5
13C2
330
2
100
AcDbEntity
  8
0
100
AcDbLine
 10
1016.840943624328
 20
445.338831099867
 30
0.0
 11
1016.747791479439
 21
413.3155600853005
 31
0.0
  0
LINE
  5
13C3
330
2
100
AcDbEntity
  8
CENTER
100
AcDbLine
 10
1024.927791479439
 20
450.6355600853003
 30
0.0
 11
1024.927791479439
 21
439.6355600853002
 31
0.0
  0
ARC
  5
13C4
330
2
100
AcDbEntity
  8
HIDS
100
AcDbCircle
 10
1033.71318600567
 20
451.3155600853005
 30
0.0
 40
2.0
100
AcDbArc
 50
90.0
 51
178.9999999999982
  0
ARC
  5
13C5
330
2
100
AcDbEntity
  8
0
100
AcDbCircle
 10
1020.687187658358
 20
449.3155600852996
 30
0.0
 40
5.0
100
AcDbArc
 50
90.0
 51
179.3013056170263
  0
ARC
  5
13C6
330
2
100
AcDbEntity
  8
0
100
AcDbCircle
 10
1024.840909778
 20
445.3155600853005
 30
0.0
 40
7.999999999999998
100
AcDbArc
 50
90.0
 51
179.8333333999871
  0
LINE
  5
13C7
330
2
100
AcDbEntity
  8
CENTER
100
AcDbLine
 10
1019.42779147944
 20
445.1355600853002
 30
0.0
 11
1030.427791479439
 21
445.1355600853002
 31
0.0
  0
LINE
  5
13C8
330
2
100
AcDbEntity
  8
HIDS
100
AcDbLine
 10
1031.713490615358
 20
451.3504648981743
 30
0.0
 11
1031.616339653099
 21
445.7846899979085
 31
0.0
  0
ARC
  5
13C9
330
2
100
AcDbEntity
  8
HIDS
100
AcDbCircle
 10
1028.616796567628
 20
445.83704721722
 30
0.0
 40
3.0
100
AcDbArc
 50
310.8597132650787
 51
358.9999999999982
  0
LINE
  5
13CA
330
2
100
AcDbEntity
  8
0
100
AcDbLine
 10
1097.808023539488
 20
377.254589009215
 30
0.0
 11
1098.24779147943
 21
413.3155600852687
 31
0.0
  0
LINE
  5
13CB
330
2
100
AcDbEntity
  8
0
100
AcDbLine
 10
1096.65463933455
 20
381.292289070734
 30
0.0
 11
1096.747791479439
 21
413.3155600853005
 31
0.0
  0
ARC
  5
13CC
330
2
100
AcDbEntity
  8
0
100
AcDbCircle
 10
1092.80839530052
 20
377.3155600853005
 30
0.0
 40
5.0
100
AcDbArc
 50
270.0
 51
359.3013056170002
  0
ARC
  5
13CD
330
2
100
AcDbEntity
  8
0
100
AcDbCircle
 10
1088.654673180879
 20
381.3155600853005
 30
0.0
 40
8.0
100
AcDbArc
 50
270.0
 51
359.8333334000132
  0
LINE
  5
13CE
330
2
100
AcDbEntity
  8
HIDS
100
AcDbLine
 10
1081.78209234352
 20
375.280655272425
 30
0.0
 11
1081.87924330578
 21
380.8464301726916
 31
0.0
  0
LINE
  5
13CF
330
2
100
AcDbEntity
  8
CENTER
100
AcDbLine
 10
1088.567791479439
 20
386.9955600852999
 30
0.0
 11
1088.567791479439
 21
375.9955600852999
 31
0.0
  0
ARC
  5
13D0
330
2
100
AcDbEntity
  8
HIDS
100
AcDbCircle
 10
1079.782396953207
 20
375.3155600853005
 30
0.0
 40
2.0
100
AcDbArc
 50
270.0
 51
358.9999999999982
  0
LINE
  5
13D1
330
2
100
AcDbEntity
  8
CENTER
100
AcDbLine
 10
1083.067791479439
 20
381.4955600852999
 30
0.0
 11
1094.067791479439
 21
381.4955600852999
 31
0.0
  0
ARC
  5
13D2
330
2
100
AcDbEntity
  8
HIDS
100
AcDbCircle
 10
1084.878786391249
 20
380.7940729533792
 30
0.0
 40
3.0
100
AcDbArc
 50
130.8597132650787
 51
178.9999999999982
  0
LINE
  5
13D3
330
2
100
AcDbEntity
  8
0
100
AcDbLine
 10
1097.808023539488
 20
449.376531161385
 30
0.0
 11
1098.24779147943
 21
413.3155600852687
 31
0.0
  0
LINE
  5
13D4
330
2
100
AcDbEntity
  8
0
100
AcDbLine
 10
1096.65463933455
 20
445.338831099867
 30
0.0
 11
1096.747791479439
 21
413.3155600853005
 31
0.0
  0
LINE
  5
13D5
330
2
100
AcDbEntity
  8
CENTER
100
AcDbLine
 10
1088.567791479439
 20
450.6355600853003
 30
0.0
 11
1088.567791479439
 21
439.6355600853002
 31
0.0
  0
ARC
  5
13D6
330
2
100
AcDbEntity
  8
0
100
AcDbCircle
 10
1088.654673180879
 20
445.3155600853005
 30
0.0
 40
8.0
100
AcDbArc
 50
0.1666666000128655
 51
90.0
  0
LINE
  5
13D7
330
2
100
AcDbEntity
  8
CENTER
100
AcDbLine
 10
1083.067791479439
 20
445.1355600853002
 30
0.0
 11
1094.067791479439
 21
445.1355600853002
 31
0.0
  0
ARC
  5
13D8
330
2
100
AcDbEntity
  8
0
100
AcDbCircle
 10
1092.80839530052
 20
449.3155600853005
 30
0.0
 40
5.0
100
AcDbArc
 50
0.6986943829736866
 51
90.0
  0
CIRCLE
  5
13D9
330
2
100
AcDbEntity
  8
0
100
AcDbCircle
 10
1024.927791479439
 20
445.1355600853002
 30
0.0
 40
2.5
  0
CIRCLE
  5
13DA
330
2
100
AcDbEntity
  8
HOJO
100
AcDbCircle
 10
1024.927791479439
 20
445.1355600853002
 30
0.0
 40
3.0
  0
CIRCLE
  5
13DB
330
2
100
AcDbEntity
  8
0
100
AcDbCircle
 10
1088.567791479439
 20
445.1355600853002
 30
0.0
 40
2.5
  0
CIRCLE
  5
13DC
330
2
100
AcDbEntity
  8
HOJO
100
AcDbCircle
 10
1088.567791479439
 20
445.1355600853002
 30
0.0
 40
3.0
  0
CIRCLE
  5
13DD
330
2
100
AcDbEntity
  8
0
100
AcDbCircle
 10
1088.567791479439
 20
381.4955600852999
 30
0.0
 40
2.5
  0
CIRCLE
  5
13DE
330
2
100
AcDbEntity
  8
HOJO
100
AcDbCircle
 10
1088.567791479439
 20
381.4955600852999
 30
0.0
 40
3.0
  0
CIRCLE
  5
13DF
330
2
100
AcDbEntity
  8
0
100
AcDbCircle
 10
1024.927791479439
 20
381.4955600852999
 30
0.0
 40
2.5
  0
CIRCLE
  5
13E0
330
2
100
AcDbEntity
  8
HOJO
100
AcDbCircle
 10
1024.927791479439
 20
381.4955600852999
 30
0.0
 40
3.0
  0
LINE
  5
13E1
330
2
100
AcDbEntity
  8
0
100
AcDbLine
 10
824.2231318719793
 20
422.9746939793011
 30
0.0
 11
823.7103758833297
 21
452.3504648981687
 31
0.0
  0
LINE
  5
13E2
330
2
100
AcDbEntity
  8
0
100
AcDbLine
 10
861.0041831182304
 20
448.4028221174848
 30
0.0
 11
860.9421494154256
 21
444.8489136640454
 31
0.0
  0
ARC
  5
13E3
330
2
100
AcDbEntity
  8
0
100
AcDbCircle
 10
821.7106804930178
 20
374.3155600852978
 30
0.0
 40
2.0
100
AcDbArc
 50
270.0
 51
358.9999999999982
  0
LINE
  5
13E4
330
2
100
AcDbEntity
  8
0
100
AcDbLine
 10
815.3917326813051
 20
413.3155600852987
 30
0.0
 11
817.8415636165279
 21
413.3155600852996
 31
0.0
  0
LINE
  5
13E5
330
2
100
AcDbEntity
  8
0
100
AcDbLine
 10
824.3917326813051
 20
413.3155600852987
 30
0.0
 11
823.7103758833315
 21
374.2806552724232
 31
0.0
  0
LINE
  5
13E6
330
2
100
AcDbEntity
  8
0
100
AcDbLine
 10
861.0041831182304
 20
378.2282980531117
 30
0.0
 11
860.3917326813068
 21
413.3155600852987
 31
0.0
  0
LINE
  5
13E7
330
2
100
AcDbEntity
  8
0
100
AcDbLine
 10
870.391732681305
 20
373.3155600852987
 30
0.0
 11
824.8729581531868
 21
373.3155600852978
 31
0.0
  0
ARC
  5
13E8
330
2
100
AcDbEntity
  8
0
100
AcDbCircle
 10
866.0034215940129
 20
378.3155600852978
 30
0.0
 40
5.0
100
AcDbArc
 50
181.0000000000017
 51
270.0
  0
LINE
  5
13E9
330
2
100
AcDbEntity
  8
0
100
AcDbLine
 10
815.3917326813051
 20
372.3155600852978
 30
0.0
 11
821.7106804930178
 21
372.3155600852978
 31
0.0
  0
ARC
  5
13EA
330
2
100
AcDbEntity
  8
0
100
AcDbCircle
 10
821.7106804930178
 20
452.3155600852986
 30
0.0
 40
2.0
100
AcDbArc
 50
0.9999999998975358
 51
90.0
  0
LINE
  5
13EB
330
2
100
AcDbEntity
  8
0
100
AcDbLine
 10
870.391732681305
 20
453.3155600852977
 30
0.0
 11
824.8729581531868
 21
453.3155600852987
 31
0.0
  0
ARC
  5
13EC
330
2
100
AcDbEntity
  8
0
100
AcDbCircle
 10
866.0034215940129
 20
448.3155600852978
 30
0.0
 40
5.0
100
AcDbArc
 50
90.0
 51
178.9999999999982
  0
LINE
  5
13ED
330
2
100
AcDbEntity
  8
0
100
AcDbLine
 10
815.3917326813068
 20
454.3155600852987
 30
0.0
 11
821.7106804930178
 21
454.3155600852987
 31
0.0
  0
LINE
  5
13EE
330
2
100
AcDbEntity
  8
0
100
AcDbLine
 10
870.391732681305
 20
453.3155600852977
 30
0.0
 11
870.391732681305
 21
373.3155600852987
 31
0.0
  0
ARC
  5
13EF
330
2
100
AcDbEntity
  8
0
100
AcDbCircle
 10
824.8729581531868
 20
456.8155600852987
 30
0.0
 40
3.5
100
AcDbArc
 50
234.9031987723861
 51
270.0
  0
ARC
  5
13F0
330
2
100
AcDbEntity
  8
0
100
AcDbCircle
 10
824.8729581531868
 20
369.8155600852978
 30
0.0
 40
3.5
100
AcDbArc
 50
90.0
 51
125.0968012276146
  0
ARC
  5
13F1
330
2
100
AcDbEntity
  8
0
100
AcDbCircle
 10
1079.343834919625
 20
493.0963513972628
 30
0.0
 40
40.0
100
AcDbArc
 50
263.823003595109
 51
263.9988421367181
  0
ARC
  5
13F2
330
2
100
AcDbEntity
  8
0
100
AcDbCircle
 10
1034.151748039253
 20
333.5347687733373
 30
0.0
 40
40.0
100
AcDbArc
 50
83.82300359510905
 51
83.99884213682296
  0
LINE
  5
13F3
330
2
100
AcDbEntity
  8
0
100
AcDbLine
 10
1020.687187658358
 20
372.3155600853005
 30
0.0
 11
1092.80839530052
 21
372.3155600853005
 31
0.0
  0
ARC
  5
13F4
330
2
100
AcDbEntity
  8
0
100
AcDbCircle
 10
1079.343834919625
 20
333.5347687733373
 30
0.0
 40
40.0
100
AcDbArc
 50
96.00115786317706
 51
96.17699640489092
  0
LINE
  5
13F5
330
2
100
AcDbEntity
  8
CENTER
100
AcDbLine
 10
808.7869146815345
 20
447.9655600852983
 30
0.0
 11
835.7869146815344
 21
447.9655600852983
 31
0.0
  0
LINE
  5
13F6
330
2
100
AcDbEntity
  8
0
100
AcDbLine
 10
830.474190006166
 20
442.9655600852983
 30
0.0
 11
830.474190006166
 21
452.9655600852983
 31
0.0
  0
LINE
  5
13F7
330
2
100
AcDbEntity
  8
0
100
AcDbLine
 10
830.8741900061656
 20
452.2727397622711
 30
0.0
 11
830.8741900061656
 21
443.6583804083256
 31
0.0
  0
LINE
  5
13F8
330
2
100
AcDbEntity
  8
0
100
AcDbLine
 10
824.8741900061656
 20
442.9655600852983
 30
0.0
 11
824.8741900061656
 21
452.9655600852983
 31
0.0
  0
LINE
  5
13F9
330
2
100
AcDbEntity
  8
0
100
AcDbLine
 10
824.8741900061656
 20
452.9655600852983
 30
0.0
 11
823.8741900061656
 21
452.9655600852983
 31
0.0
  0
LINE
  5
13FA
330
2
100
AcDbEntity
  8
0
100
AcDbLine
 10
823.8741900061656
 20
452.9655600852983
 30
0.0
 11
823.8741900061656
 21
442.9655600852983
 31
0.0
  0
LINE
  5
13FB
330
2
100
AcDbEntity
  8
0
100
AcDbLine
 10
823.8741900061656
 20
442.9655600852983
 30
0.0
 11
824.8741900061656
 21
442.9655600852983
 31
0.0
  0
LINE
  5
13FC
330
2
100
AcDbEntity
  8
0
100
AcDbLine
 10
824.8741900061656
 20
442.9655600852983
 30
0.0
 11
824.8741900061656
 21
452.9655600852983
 31
0.0
  0
LINE
  5
13FD
330
2
100
AcDbEntity
  8
0
100
AcDbLine
 10
830.474190006166
 20
442.9655600852983
 30
0.0
 11
824.8741900061656
 21
442.9655600852983
 31
0.0
  0
LINE
  5
13FE
330
2
100
AcDbEntity
  8
0
100
AcDbLine
 10
824.8741900061656
 20
452.9655600852983
 30
0.0
 11
830.474190006166
 21
452.9655600852983
 31
0.0
  0
LINE
  5
13FF
330
2
100
AcDbEntity
  8
0
100
AcDbLine
 10
830.474190006166
 20
452.9655600852983
 30
0.0
 11
830.8741900061656
 21
452.2727397622711
 31
0.0
  0
LINE
  5
1400
330
2
100
AcDbEntity
  8
0
100
AcDbLine
 10
830.474190006166
 20
442.9655600852983
 30
0.0
 11
830.8741900061656
 21
443.6583804083256
 31
0.0
  0
LINE
  5
1401
330
2
100
AcDbEntity
  8
CENTER
100
AcDbLine
 10
808.7869146815345
 20
378.6655600852981
 30
0.0
 11
835.7869146815344
 21
378.6655600852981
 31
0.0
  0
LINE
  5
1402
330
2
100
AcDbEntity
  8
0
100
AcDbLine
 10
830.474190006166
 20
383.6655600852981
 30
0.0
 11
830.474190006166
 21
373.6655600852981
 31
0.0
  0
LINE
  5
1403
330
2
100
AcDbEntity
  8
0
100
AcDbLine
 10
830.8741900061656
 20
374.3583804083254
 30
0.0
 11
830.8741900061656
 21
382.97273976227
 31
0.0
  0
LINE
  5
1404
330
2
100
AcDbEntity
  8
0
100
AcDbLine
 10
824.8741900061656
 20
383.6655600852981
 30
0.0
 11
824.8741900061656
 21
373.6655600852981
 31
0.0
  0
LINE
  5
1405
330
2
100
AcDbEntity
  8
0
100
AcDbLine
 10
824.8741900061656
 20
373.6655600852981
 30
0.0
 11
823.8741900061656
 21
373.6655600852981
 31
0.0
  0
LINE
  5
1406
330
2
100
AcDbEntity
  8
0
100
AcDbLine
 10
823.8741900061656
 20
373.6655600852981
 30
0.0
 11
823.8741900061656
 21
383.6655600852981
 31
0.0
  0
LINE
  5
1407
330
2
100
AcDbEntity
  8
0
100
AcDbLine
 10
823.8741900061656
 20
383.6655600852981
 30
0.0
 11
824.8741900061656
 21
383.6655600852981
 31
0.0
  0
LINE
  5
1408
330
2
100
AcDbEntity
  8
0
100
AcDbLine
 10
824.8741900061656
 20
383.6655600852981
 30
0.0
 11
824.8741900061656
 21
373.6655600852981
 31
0.0
  0
LINE
  5
1409
330
2
100
AcDbEntity
  8
0
100
AcDbLine
 10
830.474190006166
 20
383.6655600852981
 30
0.0
 11
824.8741900061656
 21
383.6655600852981
 31
0.0
  0
LINE
  5
140A
330
2
100
AcDbEntity
  8
0
100
AcDbLine
 10
824.8741900061656
 20
373.6655600852981
 30
0.0
 11
830.474190006166
 21
373.6655600852981
 31
0.0
  0
LINE
  5
140B
330
2
100
AcDbEntity
  8
0
100
AcDbLine
 10
830.474190006166
 20
373.6655600852981
 30
0.0
 11
830.8741900061656
 21
374.3583804083254
 31
0.0
  0
LINE
  5
140C
330
2
100
AcDbEntity
  8
0
100
AcDbLine
 10
830.474190006166
 20
383.6655600852981
 30
0.0
 11
830.8741900061656
 21
382.9727397622709
 31
0.0
  0
LINE
  5
140D
330
2
100
AcDbEntity
  8
CENTER
100
AcDbLine
 10
808.7869146815357
 20
651.1298740037134
 30
0.0
 11
835.7869146815357
 21
651.1298740037134
 31
0.0
  0
LINE
  5
140E
330
2
100
AcDbEntity
  8
0
100
AcDbLine
 10
830.4741900061674
 20
656.1298740037134
 30
0.0
 11
830.4741900061674
 21
646.1298740037134
 31
0.0
  0
LINE
  5
140F
330
2
100
AcDbEntity
  8
0
100
AcDbLine
 10
830.874190006167
 20
646.8226943267406
 30
0.0
 11
830.874190006167
 21
655.4370536806861
 31
0.0
  0
LINE
  5
1410
330
2
100
AcDbEntity
  8
0
100
AcDbLine
 10
824.874190006167
 20
656.1298740037134
 30
0.0
 11
824.874190006167
 21
646.1298740037134
 31
0.0
  0
LINE
  5
1411
330
2
100
AcDbEntity
  8
0
100
AcDbLine
 10
824.874190006167
 20
646.1298740037134
 30
0.0
 11
823.874190006167
 21
646.1298740037134
 31
0.0
  0
LINE
  5
1412
330
2
100
AcDbEntity
  8
0
100
AcDbLine
 10
823.874190006167
 20
646.1298740037134
 30
0.0
 11
823.874190006167
 21
656.1298740037134
 31
0.0
  0
LINE
  5
1413
330
2
100
AcDbEntity
  8
0
100
AcDbLine
 10
823.874190006167
 20
656.1298740037134
 30
0.0
 11
824.874190006167
 21
656.1298740037134
 31
0.0
  0
LINE
  5
1414
330
2
100
AcDbEntity
  8
0
100
AcDbLine
 10
824.874190006167
 20
656.1298740037134
 30
0.0
 11
824.874190006167
 21
646.1298740037134
 31
0.0
  0
LINE
  5
1415
330
2
100
AcDbEntity
  8
0
100
AcDbLine
 10
830.4741900061674
 20
656.1298740037134
 30
0.0
 11
824.874190006167
 21
656.1298740037134
 31
0.0
  0
LINE
  5
1416
330
2
100
AcDbEntity
  8
0
100
AcDbLine
 10
824.874190006167
 20
646.1298740037134
 30
0.0
 11
830.4741900061674
 21
646.1298740037134
 31
0.0
  0
LINE
  5
1417
330
2
100
AcDbEntity
  8
0
100
AcDbLine
 10
830.4741900061674
 20
646.1298740037134
 30
0.0
 11
830.874190006167
 21
646.8226943267406
 31
0.0
  0
LINE
  5
1418
330
2
100
AcDbEntity
  8
0
100
AcDbLine
 10
830.4741900061674
 20
656.1298740037134
 30
0.0
 11
830.874190006167
 21
655.4370536806861
 31
0.0
  0
LINE
  5
1419
330
2
100
AcDbEntity
  8
CENTER
100
AcDbLine
 10
808.7869146815357
 20
720.4298740037136
 30
0.0
 11
835.7869146815357
 21
720.4298740037136
 31
0.0
  0
LINE
  5
141A
330
2
100
AcDbEntity
  8
0
100
AcDbLine
 10
830.4741900061674
 20
715.4298740037136
 30
0.0
 11
830.4741900061674
 21
725.4298740037135
 31
0.0
  0
LINE
  5
141B
330
2
100
AcDbEntity
  8
0
100
AcDbLine
 10
830.874190006167
 20
724.7370536806863
 30
0.0
 11
830.874190006167
 21
716.1226943267418
 31
0.0
  0
LINE
  5
141C
330
2
100
AcDbEntity
  8
0
100
AcDbLine
 10
824.874190006167
 20
715.4298740037136
 30
0.0
 11
824.874190006167
 21
725.4298740037135
 31
0.0
  0
LINE
  5
141D
330
2
100
AcDbEntity
  8
0
100
AcDbLine
 10
824.874190006167
 20
725.4298740037135
 30
0.0
 11
823.874190006167
 21
725.4298740037135
 31
0.0
  0
LINE
  5
141E
330
2
100
AcDbEntity
  8
0
100
AcDbLine
 10
823.874190006167
 20
725.4298740037135
 30
0.0
 11
823.874190006167
 21
715.4298740037136
 31
0.0
  0
LINE
  5
141F
330
2
100
AcDbEntity
  8
0
100
AcDbLine
 10
823.874190006167
 20
715.4298740037136
 30
0.0
 11
824.874190006167
 21
715.4298740037136
 31
0.0
  0
LINE
  5
1420
330
2
100
AcDbEntity
  8
0
100
AcDbLine
 10
824.874190006167
 20
715.4298740037136
 30
0.0
 11
824.874190006167
 21
725.4298740037135
 31
0.0
  0
LINE
  5
1421
330
2
100
AcDbEntity
  8
0
100
AcDbLine
 10
830.4741900061674
 20
715.4298740037136
 30
0.0
 11
824.874190006167
 21
715.4298740037136
 31
0.0
  0
LINE
  5
1422
330
2
100
AcDbEntity
  8
0
100
AcDbLine
 10
824.874190006167
 20
725.4298740037135
 30
0.0
 11
830.4741900061674
 21
725.4298740037135
 31
0.0
  0
LINE
  5
1423
330
2
100
AcDbEntity
  8
0
100
AcDbLine
 10
830.4741900061674
 20
725.4298740037135
 30
0.0
 11
830.874190006167
 21
724.7370536806863
 31
0.0
  0
LINE
  5
1424
330
2
100
AcDbEntity
  8
0
100
AcDbLine
 10
830.4741900061674
 20
715.4298740037136
 30
0.0
 11
830.874190006167
 21
716.1226943267418
 31
0.0
  0
LINE
  5
1425
330
2
100
AcDbEntity
  8
0
100
AcDbLine
 10
870.391732681305
 20
448.3155600852987
 30
0.0
 11
863.3917326813049
 21
448.3155600852987
 31
0.0
  0
LINE
  5
1426
330
2
100
AcDbEntity
  8
0
100
AcDbLine
 10
863.3917326813049
 20
448.3155600852987
 30
0.0
 11
863.3917326813049
 21
413.3155600852987
 31
0.0
  0
LINE
  5
1428
330
2
100
AcDbEntity
  8
0
100
AcDbLine
 10
863.3917326813049
 20
433.0655600852987
 30
0.0
 11
863.3917326813069
 21
413.3155600852987
 31
0.0
  0
LINE
  5
1429
330
2
100
AcDbEntity
  8
0
100
AcDbLine
 10
863.3917326813049
 20
433.0655600852987
 30
0.0
 11
853.6539281107877
 21
433.0655600852987
 31
0.0
  0
LINE
  5
142A
330
2
100
AcDbEntity
  8
0
100
AcDbLine
 10
861.391732681305
 20
421.3155600852987
 30
0.0
 11
850.391732681305
 21
421.3155600852987
 31
0.0
  0
LINE
  5
142B
330
2
100
AcDbEntity
  8
0
100
AcDbLine
 10
831.891732681305
 20
421.5655600852987
 30
0.0
 11
831.891732681305
 21
413.3155600852987
 31
0.0
  0
LINE
  5
142C
330
2
100
AcDbEntity
  8
0
100
AcDbLine
 10
831.891732681305
 20
421.5655600852987
 30
0.0
 11
825.8917326813049
 21
421.5655600852987
 31
0.0
  0
LINE
  5
142D
330
2
100
AcDbEntity
  8
0
100
AcDbLine
 10
825.8917326813049
 20
421.5655600852987
 30
0.0
 11
825.8917326813049
 21
413.3155600852987
 31
0.0
  0
LINE
  5
142E
330
2
100
AcDbEntity
  8
0
100
AcDbLine
 10
848.3917326813051
 20
427.5909703059932
 30
0.0
 11
848.3917326813051
 21
413.3155600852987
 31
0.0
  0
LINE
  5
142F
330
2
100
AcDbEntity
  8
0
100
AcDbLine
 10
850.391732681305
 20
428.644703646375
 30
0.0
 11
850.391732681305
 21
413.3155600852987
 31
0.0
  0
LINE
  5
1430
330
2
100
AcDbEntity
  8
0
100
AcDbLine
 10
848.3917326813051
 20
421.3155600852987
 30
0.0
 11
831.891732681305
 21
421.3155600852987
 31
0.0
  0
LINE
  5
1431
330
2
100
AcDbEntity
  8
0
100
AcDbLine
 10
863.3917326813049
 20
422.4702606236777
 30
0.0
 11
861.391732681305
 21
421.3155600852987
 31
0.0
  0
LINE
  5
1432
330
2
100
AcDbEntity
  8
0
100
AcDbLine
 10
861.391732681305
 20
421.3155600852987
 30
0.0
 11
861.391732681305
 21
413.3155600852987
 31
0.0
  0
LINE
  5
1433
330
2
100
AcDbEntity
  8
0
100
AcDbLine
 10
825.8917326813049
 20
420.8155600852987
 30
0.0
 11
821.5616056623828
 21
413.3155600852987
 31
0.0
  0
SPLINE
  5
1434
330
2
100
AcDbEntity
  8
HOJO
100
AcDbSpline
210
0.0
220
0.0
230
1.0
 70
     8
 71
     3
 72
    20
 73
    16
 74
     0
 42
0.0000000001
 43
0.0000000001
 40
1.102548511336045
 40
1.102548511336045
 40
1.102548511336045
 40
1.102548511336045
 40
5.647385924430076
 40
9.759277458584113
 40
14.59638394258456
 40
18.6386056126129
 40
22.25598020257161
 40
26.57819511411361
 40
31.00332353479096
 40
40.39337194914635
 40
45.49899296170218
 40
52.02718752358933
 40
57.17041693382338
 40
65.63449353306062
 40
69.3611614947018
 40
69.3611614947018
 40
69.3611614947018
 40
69.3611614947018
 10
866.8024846036139
 20
453.3155600852977
 30
0.0
 10
865.3936970832207
 20
452.5871326356099
 30
0.0
 10
862.8810111214614
 20
451.0564200134521
 30
0.0
 10
861.5600848753336
 20
446.4918973560979
 30
0.0
 10
860.4101755497856
 20
443.1003278615789
 30
0.0
 10
856.9224191377967
 20
439.4265626503346
 30
0.0
 10
855.2505839614338
 20
435.9012025203555
 30
0.0
 10
853.2733374009792
 20
432.3504858228607
 30
0.0
 10
849.8855560884155
 20
426.7614412344063
 30
0.0
 10
842.3611970441005
 20
426.9370176819974
 30
0.0
 10
835.6328576874519
 20
425.7906471485002
 30
0.0
 10
830.2895911420444
 20
424.0720350440196
 30
0.0
 10
823.2908106276578
 20
423.735863759296
 30
0.0
 10
819.5760778284336
 20
418.2498694273408
 30
0.0
 10
818.2542363896379
 20
414.479962934165
 30
0.0
 10
817.8415636165288
 20
413.3155600852987
 30
0.0
  0
LINE
  5
1435
330
2
100
AcDbEntity
  8
HIDS
100
AcDbLine
 10
1046.747791479439
 20
430.3467814155509
 30
0.0
 11
1046.747791479439
 21
418.3155600853005
 31
0.0
  0
LINE
  5
1436
330
2
100
AcDbEntity
  8
CENTER
100
AcDbLine
 10
1041.747791479439
 20
462.4392445080029
 30
0.0
 11
1041.747791479439
 21
397.4678949277704
 31
0.0
  0
LINE
  5
1437
330
2
100
AcDbEntity
  8
0
100
AcDbLine
 10
1037.012037123449
 20
412.5655600853005
 30
0.0
 11
1048.783025318401
 21
412.5655600853005
 31
0.0
  0
LINE
  5
1438
330
2
100
AcDbEntity
  8
0
100
AcDbLine
 10
1037.012037123449
 20
414.0655600853005
 30
0.0
 11
1048.783025318401
 21
414.0655600853005
 31
0.0
  0
CIRCLE
  5
1439
330
2
100
AcDbEntity
  8
0
100
AcDbCircle
 10
1056.747791479439
 20
413.3155600853005
 30
0.0
 40
8.0
  0
LINE
  5
143A
330
2
100
AcDbEntity
  8
0
100
AcDbLine
 10
1073.947791479438
 20
412.5655600853005
 30
0.0
 11
1073.947791479438
 21
414.0655600853005
 31
0.0
  0
LINE
  5
143B
330
2
100
AcDbEntity
  8
0
100
AcDbLine
 10
1064.712557640477
 20
412.5655600853005
 30
0.0
 11
1073.947791479438
 21
412.5655600853005
 31
0.0
  0
LINE
  5
143C
330
2
100
AcDbEntity
  8
0
100
AcDbLine
 10
1064.712557640477
 20
414.0655600853005
 30
0.0
 11
1073.947791479438
 21
414.0655600853005
 31
0.0
  0
LINE
  5
143D
330
2
100
AcDbEntity
  8
HIDS
100
AcDbLine
 10
1044.247791479439
 20
412.5655600853005
 30
0.0
 11
1044.247791479439
 21
398.0246314019268
 31
0.0
  0
LINE
  5
143E
330
2
100
AcDbEntity
  8
HIDS
100
AcDbLine
 10
1043.831124812773
 20
412.5655600853005
 30
0.0
 11
1043.831124812773
 21
398.3749368646239
 31
0.0
  0
LINE
  5
143F
330
2
100
AcDbEntity
  8
HIDS
100
AcDbLine
 10
1039.664458146105
 20
412.5655600853005
 30
0.0
 11
1039.664458146105
 21
403.4048475870876
 31
0.0
  0
LINE
  5
1440
330
2
100
AcDbEntity
  8
HIDS
100
AcDbLine
 10
1039.247791479439
 20
412.5655600853005
 30
0.0
 11
1039.247791479439
 21
404.1606433734996
 31
0.0
  0
LINE
  5
1441
330
2
100
AcDbEntity
  8
HIDS
100
AcDbLine
 10
1044.747791479439
 20
418.3155600853005
 30
0.0
 11
1044.747791479439
 21
414.0655600853005
 31
0.0
  0
LINE
  5
1442
330
2
100
AcDbEntity
  8
HIDS
100
AcDbLine
 10
1038.747791479439
 20
418.3155600853005
 30
0.0
 11
1038.747791479439
 21
414.0655600853005
 31
0.0
  0
LINE
  5
1443
330
2
100
AcDbEntity
  8
HIDS
100
AcDbLine
 10
1037.641182675155
 20
418.3155600853005
 30
0.0
 11
1046.747791479439
 21
418.3155600853005
 31
0.0
  0
LINE
  5
1444
330
2
100
AcDbEntity
  8
HIDS
100
AcDbLine
 10
1045.997791479439
 20
418.3155600853005
 30
0.0
 11
1045.997791479439
 21
423.0155600853003
 31
0.0
  0
LINE
  5
1445
330
2
100
AcDbEntity
  8
0
100
AcDbLine
 10
1037.497791479439
 20
423.0155600853003
 30
0.0
 11
1037.497791479439
 21
418.3155600853005
 31
0.0
  0
LINE
  5
1446
330
2
100
AcDbEntity
  8
HIDS
100
AcDbLine
 10
1044.247791479439
 20
404.3155600853005
 30
0.0
 11
1043.247791479439
 21
403.3155600853005
 31
0.0
  0
LINE
  5
1447
330
2
100
AcDbEntity
  8
HIDS
100
AcDbLine
 10
1039.247791479439
 20
404.3155600853005
 30
0.0
 11
1040.247791479439
 21
403.3155600853005
 31
0.0
  0
LINE
  5
1448
330
2
100
AcDbEntity
  8
HIDS
100
AcDbLine
 10
1043.247791479439
 20
403.3155600853005
 30
0.0
 11
1041.747791479439
 21
403.3155600853005
 31
0.0
  0
LINE
  5
1449
330
2
100
AcDbEntity
  8
HIDS
100
AcDbLine
 10
1040.247791479439
 20
403.3155600853005
 30
0.0
 11
1041.747791479439
 21
403.3155600853005
 31
0.0
  0
LINE
  5
144A
330
2
100
AcDbEntity
  8
HIDS
100
AcDbLine
 10
1044.247791479439
 20
418.3155600853005
 30
0.0
 11
1044.247791479439
 21
414.0655600853005
 31
0.0
  0
LINE
  5
144B
330
2
100
AcDbEntity
  8
HIDS
100
AcDbLine
 10
1043.831124812773
 20
416.2322267519666
 30
0.0
 11
1043.831124812773
 21
414.0655600853005
 31
0.0
  0
LINE
  5
144C
330
2
100
AcDbEntity
  8
HIDS
100
AcDbLine
 10
1039.664458146105
 20
416.2322267519666
 30
0.0
 11
1039.664458146105
 21
414.0655600853005
 31
0.0
  0
LINE
  5
144D
330
2
100
AcDbEntity
  8
HIDS
100
AcDbLine
 10
1039.247791479439
 20
418.3155600853005
 30
0.0
 11
1039.247791479439
 21
414.0655600853005
 31
0.0
  0
LINE
  5
144E
330
2
100
AcDbEntity
  8
HIDS
100
AcDbLine
 10
1044.247791479439
 20
404.3155600853005
 30
0.0
 11
1041.747791479439
 21
404.3155600853005
 31
0.0
  0
LINE
  5
144F
330
2
100
AcDbEntity
  8
HIDS
100
AcDbLine
 10
1039.247791479439
 20
404.3155600853005
 30
0.0
 11
1041.747791479439
 21
404.3155600853005
 31
0.0
  0
LINE
  5
1450
330
2
100
AcDbEntity
  8
HIDS
100
AcDbLine
 10
1044.247791479439
 20
416.2322267519666
 30
0.0
 11
1039.247791479439
 21
416.2322267519666
 31
0.0
  0
LINE
  5
1451
330
2
100
AcDbEntity
  8
0
100
AcDbLine
 10
1037.497791479439
 20
418.3155600853005
 30
0.0
 11
1037.641182675155
 21
418.3155600853005
 31
0.0
  0
LINE
  5
1452
330
2
100
AcDbEntity
  8
HIDS
100
AcDbLine
 10
1039.247791479439
 20
418.3155600853005
 30
0.0
 11
1039.664458146105
 21
416.2322267519666
 31
0.0
  0
LINE
  5
1453
330
2
100
AcDbEntity
  8
HIDS
100
AcDbLine
 10
1044.247791479439
 20
418.3155600853005
 30
0.0
 11
1043.831124812773
 21
416.2322267519666
 31
0.0
  0
LINE
  5
1454
330
2
100
AcDbEntity
  8
0
100
AcDbLine
 10
1037.497791479439
 20
423.0155600853003
 30
0.0
 11
1039.543940166435
 21
423.0155600852994
 31
0.0
  0
LINE
  5
1455
330
2
100
AcDbEntity
  8
HIDS
100
AcDbLine
 10
1045.478176237169
 20
423.3155600853005
 30
0.0
 11
1039.716570149188
 21
423.3155600853005
 31
0.0
  0
LINE
  5
1456
330
2
100
AcDbEntity
  8
0
100
AcDbLine
 10
1037.497791479439
 20
423.0155600853003
 30
0.0
 11
1038.01740672171
 21
423.3155600853005
 31
0.0
  0
LINE
  5
1457
330
2
100
AcDbEntity
  8
HIDS
100
AcDbLine
 10
1045.478176237169
 20
423.3155600853005
 30
0.0
 11
1045.997791479439
 21
423.0155600853003
 31
0.0
  0
LINE
  5
1458
330
2
100
AcDbEntity
  8
HIDS
100
AcDbLine
 10
1037.641182675155
 20
418.3155600853005
 30
0.0
 11
1045.997791479439
 21
418.3155600853005
 31
0.0
  0
LINE
  5
1459
330
2
100
AcDbEntity
  8
0
100
AcDbLine
 10
1039.716570149188
 20
423.3155600853005
 30
0.0
 11
1038.01740672171
 21
423.3155600853005
 31
0.0
  0
LINE
  5
145A
330
2
100
AcDbEntity
  8
HIDS
100
AcDbLine
 10
1039.543940166435
 20
423.0155600853003
 30
0.0
 11
1045.997791479439
 21
423.0155600853003
 31
0.0
  0
LINE
  5
145B
330
2
100
AcDbEntity
  8
0
100
AcDbLine
 10
1044.247791479439
 20
414.0655600853005
 30
0.0
 11
1044.247791479439
 21
412.5655600853005
 31
0.0
  0
LINE
  5
145C
330
2
100
AcDbEntity
  8
HOJO
100
AcDbLine
 10
1043.831124812773
 20
414.0655600853005
 30
0.0
 11
1043.831124812773
 21
412.5655600853005
 31
0.0
  0
LINE
  5
145D
330
2
100
AcDbEntity
  8
HOJO
100
AcDbLine
 10
1039.664458146105
 20
414.0655600853005
 30
0.0
 11
1039.664458146105
 21
412.5655600853005
 31
0.0
  0
LINE
  5
145E
330
2
100
AcDbEntity
  8
0
100
AcDbLine
 10
1039.247791479439
 20
414.0655600853005
 30
0.0
 11
1039.247791479439
 21
412.5655600853005
 31
0.0
  0
LINE
  5
145F
330
2
100
AcDbEntity
  8
HIDS
100
AcDbLine
 10
1039.247791479439
 20
412.5655600853005
 30
0.0
 11
1039.247791479439
 21
404.3155600853005
 31
0.0
  0
LINE
  5
1460
330
2
100
AcDbEntity
  8
HIDS
100
AcDbLine
 10
1043.831124812773
 20
412.5655600853005
 30
0.0
 11
1043.831124812773
 21
403.8988934186336
 31
0.0
  0
LINE
  5
1461
330
2
100
AcDbEntity
  8
HIDS
100
AcDbLine
 10
1044.247791479439
 20
412.5655600853005
 30
0.0
 11
1044.247791479439
 21
404.3155600853005
 31
0.0
  0
LINE
  5
1462
330
2
100
AcDbEntity
  8
HIDS
100
AcDbLine
 10
1039.664458146105
 20
412.5655600853005
 30
0.0
 11
1039.664458146105
 21
403.8988934186336
 31
0.0
  0
CIRCLE
  5
1463
330
2
100
AcDbEntity
  8
0
100
AcDbCircle
 10
1056.747791479439
 20
413.3155600853005
 30
0.0
 40
19.75
  0
ARC
  5
1464
330
2
100
AcDbEntity
  8
0
100
AcDbCircle
 10
1056.747791479439
 20
413.3155600853005
 30
0.0
 40
9.154700538379415
100
AcDbArc
 50
4.699230675929916
 51
175.30076932407
  0
ARC
  5
1465
330
2
100
AcDbEntity
  8
0
100
AcDbCircle
 10
1056.747791479439
 20
413.3155600853005
 30
0.0
 40
9.154700538379415
100
AcDbArc
 50
184.6992306759299
 51
355.30076932407
  0
LINE
  5
1466
330
2
100
AcDbEntity
  8
0
100
AcDbLine
 10
1036.747791479439
 20
457.3155600852996
 30
0.0
 11
1046.747791479439
 21
457.3155600852996
 31
0.0
  0
ARC
  5
1467
330
2
100
AcDbEntity
  8
0
100
AcDbCircle
 10
1046.747791479439
 20
453.3155600852996
 30
0.0
 40
4.0
100
AcDbArc
 50
0.0
 51
90.0
  0
ARC
  5
1468
330
2
100
AcDbEntity
  8
0
100
AcDbCircle
 10
1036.747791479439
 20
453.3155600852996
 30
0.0
 40
4.0
100
AcDbArc
 50
90.0
 51
180.0
  0
LINE
  5
1469
330
2
100
AcDbEntity
  8
0
100
AcDbLine
 10
861.3917326812686
 20
457.3155600852977
 30
0.0
 11
851.3917326812686
 21
457.3155600852977
 31
0.0
  0
ARC
  5
146A
330
2
100
AcDbEntity
  8
0
100
AcDbCircle
 10
851.3917326812686
 20
453.3155600852977
 30
0.0
 40
4.0
100
AcDbArc
 50
90.0
 51
180.0
  0
ARC
  5
146B
330
2
100
AcDbEntity
  8
0
100
AcDbCircle
 10
861.3917326812686
 20
453.3155600852977
 30
0.0
 40
4.0
100
AcDbArc
 50
0.0
 51
90.0
  0
LINE
  5
146C
330
2
100
AcDbEntity
  8
CENTER
100
AcDbLine
 10
856.3917326812687
 20
461.6188076097004
 30
0.0
 11
856.3917326812687
 21
439.0793185056363
 31
0.0
  0
CIRCLE
  5
146D
330
2
100
AcDbEntity
  8
0
100
AcDbCircle
 10
856.3917326813081
 20
670.779874003714
 30
0.0
 40
9.0
  0
LINE
  5
146E
330
2
100
AcDbEntity
  8
CENTER
100
AcDbLine
 10
856.3917326813081
 20
656.845306816024
 30
0.0
 11
856.3917326813081
 21
684.7144411914021
 31
0.0
  0
LINE
  5
146F
330
2
100
AcDbEntity
  8
CENTER
100
AcDbLine
 10
870.3262998689972
 20
670.779874003713
 30
0.0
 11
842.4571654936192
 21
670.779874003713
 31
0.0
  0
CIRCLE
  5
1470
330
2
100
AcDbEntity
  8
CENTER
100
AcDbCircle
 10
1056.747791479439
 20
413.3155600853005
 30
0.0
 40
45.0002755547118
  0
LINE
  5
1471
330
2
100
AcDbEntity
  8
0
100
AcDbLine
 10
1016.747791479332
 20
413.3155600853005
 30
0.0
 11
1015.247791479448
 21
413.3155600853005
 31
0.0
  0
LINE
  5
1472
330
2
100
AcDbEntity
  8
0
100
AcDbLine
 10
1096.747791479439
 20
413.315560085114
 30
0.0
 11
1098.247791479431
 21
413.315560085301
 31
0.0
  0
LINE
  5
1473
330
2
100
AcDbEntity
  8
0
100
AcDbLine
 10
95.41773362824983
 20
413.3155600852987
 30
0.0
 11
96.09909042615051
 21
452.3504648981687
 31
0.0
  0
LINE
  5
1474
330
2
100
AcDbEntity
  8
0
100
AcDbLine
 10
58.80528319124983
 20
448.4028221174848
 30
0.0
 11
59.41773362818707
 21
413.3155600852987
 31
0.0
  0
ARC
  5
1475
330
2
100
AcDbEntity
  8
0
100
AcDbCircle
 10
98.09878581646239
 20
374.3155600852978
 30
0.0
 40
2.0
100
AcDbArc
 50
181.0000000000017
 51
270.0
  0
LINE
  5
1476
330
2
100
AcDbEntity
  8
0
100
AcDbLine
 10
104.4177336281752
 20
413.3155600852987
 30
0.0
 11
49.41773362817525
 21
413.3155600852987
 31
0.0
  0
LINE
  5
1477
330
2
100
AcDbEntity
  8
0
100
AcDbLine
 10
95.41773362817526
 20
413.3155600852987
 30
0.0
 11
96.09909042614868
 21
374.2806552724232
 31
0.0
  0
LINE
  5
1478
330
2
100
AcDbEntity
  8
0
100
AcDbLine
 10
58.80528319124983
 20
378.2282980531117
 30
0.0
 11
59.41773362817343
 21
413.3155600852987
 31
0.0
  0
LINE
  5
1479
330
2
100
AcDbEntity
  8
0
100
AcDbLine
 10
49.41773362817525
 20
373.3155600852987
 30
0.0
 11
94.93650815629349
 21
373.3155600852978
 31
0.0
  0
ARC
  5
147A
330
2
100
AcDbEntity
  8
0
100
AcDbCircle
 10
76.52117596150287
 20
379.2155867893388
 30
0.0
 40
3.0
100
AcDbArc
 50
90.0
 51
178.9999999999982
  0
LINE
  5
147B
330
2
100
AcDbEntity
  8
0
100
AcDbLine
 10
76.52117596150287
 20
382.2155867893388
 30
0.0
 11
63.87488157502753
 21
382.2155867893397
 31
0.0
  0
ARC
  5
147C
330
2
100
AcDbEntity
  8
0
100
AcDbCircle
 10
53.80604471546735
 20
378.3155600852978
 30
0.0
 40
5.0
100
AcDbArc
 50
270.0
 51
358.9999999999982
  0
ARC
  5
147D
330
2
100
AcDbEntity
  8
0
100
AcDbCircle
 10
71.4523391019427
 20
375.3155600852978
 30
0.0
 40
2.0
100
AcDbArc
 50
270.0
 51
358.9999999999982
  0
LINE
  5
147E
330
2
100
AcDbEntity
  8
0
100
AcDbLine
 10
73.52073858943163
 20
379.216710363511
 30
0.0
 11
73.45203449225642
 21
375.2806552724231
 31
0.0
  0
LINE
  5
147F
330
2
100
AcDbEntity
  8
0
100
AcDbLine
 10
104.4177336281752
 20
372.3155600852978
 30
0.0
 11
98.09878581646239
 21
372.3155600852978
 31
0.0
  0
ARC
  5
1480
330
2
100
AcDbEntity
  8
0
100
AcDbCircle
 10
98.09878581646239
 20
452.3155600852986
 30
0.0
 40
2.0
100
AcDbArc
 50
90.0
 51
179.0000000001024
  0
LINE
  5
1481
330
2
100
AcDbEntity
  8
0
100
AcDbLine
 10
49.41773362817525
 20
453.3155600852977
 30
0.0
 11
94.93650815629349
 21
453.3155600852987
 31
0.0
  0
ARC
  5
1482
330
2
100
AcDbEntity
  8
0
100
AcDbCircle
 10
53.80604471546735
 20
448.3155600852978
 30
0.0
 40
5.0
100
AcDbArc
 50
1.000000000001775
 51
90.0
  0
LINE
  5
1483
330
2
100
AcDbEntity
  8
0
100
AcDbLine
 10
104.4177336281734
 20
454.3155600852987
 30
0.0
 11
98.09878581646239
 21
454.3155600852987
 31
0.0
  0
LINE
  5
1484
330
2
100
AcDbEntity
  8
0
100
AcDbLine
 10
49.41773362817525
 20
453.3155600852977
 30
0.0
 11
49.41773362817525
 21
373.3155600852987
 31
0.0
  0
ARC
  5
1485
330
2
100
AcDbEntity
  8
0
100
AcDbCircle
 10
94.93650815629349
 20
456.8155600852987
 30
0.0
 40
3.5
100
AcDbArc
 50
270.0
 51
305.0968012276138
  0
ARC
  5
1486
330
2
100
AcDbEntity
  8
0
100
AcDbCircle
 10
94.93650815629349
 20
369.8155600852978
 30
0.0
 40
3.5
100
AcDbArc
 50
54.90319877238537
 51
90.0
  0
LINE
  5
1487
330
2
100
AcDbEntity
  8
CENTER
100
AcDbLine
 10
111.0225516279458
 20
447.9655600852983
 30
0.0
 11
84.02255162794586
 21
447.9655600852983
 31
0.0
  0
LINE
  5
1488
330
2
100
AcDbEntity
  8
0
100
AcDbLine
 10
89.33527630331424
 20
442.9655600852983
 30
0.0
 11
89.33527630331424
 21
452.9655600852983
 31
0.0
  0
LINE
  5
1489
330
2
100
AcDbEntity
  8
0
100
AcDbLine
 10
88.9352763033146
 20
452.2727397622711
 30
0.0
 11
88.9352763033146
 21
443.6583804083256
 31
0.0
  0
LINE
  5
148A
330
2
100
AcDbEntity
  8
0
100
AcDbLine
 10
94.9352763033146
 20
442.9655600852983
 30
0.0
 11
94.9352763033146
 21
452.9655600852983
 31
0.0
  0
LINE
  5
148B
330
2
100
AcDbEntity
  8
0
100
AcDbLine
 10
94.9352763033146
 20
452.9655600852983
 30
0.0
 11
95.93527630331459
 21
452.9655600852983
 31
0.0
  0
LINE
  5
148C
330
2
100
AcDbEntity
  8
0
100
AcDbLine
 10
95.93527630331459
 20
452.9655600852983
 30
0.0
 11
95.93527630331459
 21
442.9655600852983
 31
0.0
  0
LINE
  5
148D
330
2
100
AcDbEntity
  8
0
100
AcDbLine
 10
95.93527630331459
 20
442.9655600852983
 30
0.0
 11
94.9352763033146
 21
442.9655600852983
 31
0.0
  0
LINE
  5
148E
330
2
100
AcDbEntity
  8
0
100
AcDbLine
 10
94.9352763033146
 20
442.9655600852983
 30
0.0
 11
94.9352763033146
 21
452.9655600852983
 31
0.0
  0
LINE
  5
148F
330
2
100
AcDbEntity
  8
0
100
AcDbLine
 10
89.33527630331424
 20
442.9655600852983
 30
0.0
 11
94.9352763033146
 21
442.9655600852983
 31
0.0
  0
LINE
  5
1490
330
2
100
AcDbEntity
  8
0
100
AcDbLine
 10
94.9352763033146
 20
452.9655600852983
 30
0.0
 11
89.33527630331424
 21
452.9655600852983
 31
0.0
  0
LINE
  5
1491
330
2
100
AcDbEntity
  8
0
100
AcDbLine
 10
89.33527630331424
 20
452.9655600852983
 30
0.0
 11
88.9352763033146
 21
452.2727397622711
 31
0.0
  0
LINE
  5
1492
330
2
100
AcDbEntity
  8
0
100
AcDbLine
 10
89.33527630331424
 20
442.9655600852983
 30
0.0
 11
88.9352763033146
 21
443.6583804083256
 31
0.0
  0
LINE
  5
1493
330
2
100
AcDbEntity
  8
CENTER
100
AcDbLine
 10
111.0225516279458
 20
378.6655600852981
 30
0.0
 11
84.02255162794586
 21
378.6655600852981
 31
0.0
  0
LINE
  5
1494
330
2
100
AcDbEntity
  8
0
100
AcDbLine
 10
89.33527630331424
 20
383.6655600852981
 30
0.0
 11
89.33527630331424
 21
373.6655600852981
 31
0.0
  0
LINE
  5
1495
330
2
100
AcDbEntity
  8
0
100
AcDbLine
 10
88.9352763033146
 20
374.3583804083254
 30
0.0
 11
88.9352763033146
 21
382.97273976227
 31
0.0
  0
LINE
  5
1496
330
2
100
AcDbEntity
  8
0
100
AcDbLine
 10
94.9352763033146
 20
383.6655600852981
 30
0.0
 11
94.9352763033146
 21
373.6655600852981
 31
0.0
  0
LINE
  5
1497
330
2
100
AcDbEntity
  8
0
100
AcDbLine
 10
94.9352763033146
 20
373.6655600852981
 30
0.0
 11
95.93527630331459
 21
373.6655600852981
 31
0.0
  0
LINE
  5
1498
330
2
100
AcDbEntity
  8
0
100
AcDbLine
 10
95.93527630331459
 20
373.6655600852981
 30
0.0
 11
95.93527630331459
 21
383.6655600852981
 31
0.0
  0
LINE
  5
1499
330
2
100
AcDbEntity
  8
0
100
AcDbLine
 10
95.93527630331459
 20
383.6655600852981
 30
0.0
 11
94.9352763033146
 21
383.6655600852981
 31
0.0
  0
LINE
  5
149A
330
2
100
AcDbEntity
  8
0
100
AcDbLine
 10
94.9352763033146
 20
383.6655600852981
 30
0.0
 11
94.9352763033146
 21
373.6655600852981
 31
0.0
  0
LINE
  5
149B
330
2
100
AcDbEntity
  8
0
100
AcDbLine
 10
89.33527630331424
 20
383.6655600852981
 30
0.0
 11
94.9352763033146
 21
383.6655600852981
 31
0.0
  0
LINE
  5
149C
330
2
100
AcDbEntity
  8
0
100
AcDbLine
 10
94.9352763033146
 20
373.6655600852981
 30
0.0
 11
89.33527630331424
 21
373.6655600852981
 31
0.0
  0
LINE
  5
149D
330
2
100
AcDbEntity
  8
0
100
AcDbLine
 10
89.33527630331424
 20
373.6655600852981
 30
0.0
 11
88.9352763033146
 21
374.3583804083254
 31
0.0
  0
LINE
  5
149E
330
2
100
AcDbEntity
  8
0
100
AcDbLine
 10
89.33527630331424
 20
383.6655600852981
 30
0.0
 11
88.9352763033146
 21
382.9727397622709
 31
0.0
  0
LINE
  5
149F
330
2
100
AcDbEntity
  8
0
100
AcDbLine
 10
58.41773362821164
 20
457.3155600852977
 30
0.0
 11
68.41773362821164
 21
457.3155600852977
 31
0.0
  0
ARC
  5
14A0
330
2
100
AcDbEntity
  8
0
100
AcDbCircle
 10
68.41773362821164
 20
453.3155600852977
 30
0.0
 40
4.0
100
AcDbArc
 50
0.0
 51
90.0
  0
ARC
  5
14A1
330
2
100
AcDbEntity
  8
0
100
AcDbCircle
 10
58.41773362821164
 20
453.3155600852977
 30
0.0
 40
4.0
100
AcDbArc
 50
90.0
 51
180.0
  0
LINE
  5
14A2
330
2
100
AcDbEntity
  8
CENTER
100
AcDbLine
 10
63.41773362821164
 20
461.6188076097004
 30
0.0
 11
63.41773362821164
 21
439.0793185056363
 31
0.0
  0
ARC
  5
14A3
330
2
100
AcDbEntity
  8
0
100
AcDbCircle
 10
843.2882903479773
 20
447.4155333812577
 30
0.0
 40
3.0
100
AcDbArc
 50
270.0
 51
358.9999999999982
  0
LINE
  5
14A4
330
2
100
AcDbEntity
  8
0
100
AcDbLine
 10
843.2882903479773
 20
444.4155333812576
 30
0.0
 11
855.9345847344527
 21
444.4155333812576
 31
0.0
  0
ARC
  5
14A5
330
2
100
AcDbEntity
  8
0
100
AcDbCircle
 10
848.3571272075376
 20
451.3155600852987
 30
0.0
 40
2.0
100
AcDbArc
 50
90.0
 51
178.9999999999982
  0
LINE
  5
14A6
330
2
100
AcDbEntity
  8
0
100
AcDbLine
 10
846.2887277200486
 20
447.4144098070864
 30
0.0
 11
846.3574318172238
 21
451.3504648981733
 31
0.0
  0
CIRCLE
  5
14A7
330
2
100
AcDbEntity
  8
0
100
AcDbCircle
 10
1056.747791479439
 20
413.3155600853005
 30
0.0
 40
29.0
  0
LINE
  5
14A8
330
2
100
AcDbEntity
  8
0
100
AcDbLine
 10
863.3917326813049
 20
442.3155600852987
 30
0.0
 11
859.4820793325277
 21
442.3155600852987
 31
0.0
  0
LINE
  5
14A9
330
2
100
AcDbEntity
  8
0
100
AcDbLine
 10
1050.485874269142
 20
454.739195241274
 30
0.0
 11
1056.747791479442
 21
454.8155600853023
 31
0.0
  0
LINE
  5
14AA
330
2
100
AcDbEntity
  8
0
100
AcDbLine
 10
1033.640670875301
 20
455.8346475294631
 30
0.0
 11
1015.730338408445
 21
455.6783464259368
 31
0.0
  0
CIRCLE
  5
195C
330
2
100
AcDbEntity
  8
0
100
AcDbCircle
 10
669.9817326812905
 20
413.3155600852969
 30
0.0
 40
33.07735
  0
ARC
  5
1961
330
2
100
AcDbEntity
  8
0
100
AcDbCircle
 10
771.3987512805226
 20
644.7798740085453
 30
0.0
 40
2.0
100
AcDbArc
 50
269.9999999999974
 51
359.5000000000258
  0
ENDSEC
  0
SECTION
  2
OBJECTS
  0
DICTIONARY
  5
7
330
0
100
AcDbDictionary
  3
ACAD_COLOR
350
18F3
  3
ACAD_GROUP
350
75
  3
ACAD_LAYOUT
350
61
  3
ACAD_MATERIAL
350
18C9
  3
ACAD_MLEADERSTYLE
350
1918
  3
ACAD_MLINESTYLE
350
76
  3
ACAD_PLOTSETTINGS
350
77
  3
ACAD_PLOTSTYLENAME
350
6
  3
ACAD_SCALELIST
350
18F6
  3
ACAD_TABLESTYLE
350
18F4
  3
ACAD_VISUALSTYLE
350
18E2
  3
ACADDIM
350
480
  3
ACDB_RECOMPOSE_DATA
350
1931
  3
ACDBHEADERROUNDTRIPXREC
350
197B
  3
ACDBVARIABLEDICTIONARY
350
102
  3
DWGPROPS
350
1932
  0
DICTIONARY
  5
193A
330
6E
100
AcDbDictionary
280
     1
  3
ACAD_XREC_ROUNDTRIP
360
193B
  0
DICTIONARY
  5
B0F
330
66
100
AcDbDictionary
280
     1
  3
ACAD_LAYERSTATES
360
B10
  0
DICTIONARY
  5
191D
330
5E
100
AcDbDictionary
280
     1
  3
ACAD_XREC_ROUNDTRIP
360
1935
  3
ADSK_XREC_LAYER_RECONCILED
360
191E
  0
DICTIONARY
  5
191F
330
3E
100
AcDbDictionary
280
     1
  3
ACAD_XREC_ROUNDTRIP
360
1934
  3
ADSK_XREC_LAYER_RECONCILED
360
1920
  0
DICTIONARY
  5
1925
330
2B5
100
AcDbDictionary
280
     1
  3
ACAD_XREC_ROUNDTRIP
360
1941
  3
ADSK_XREC_LAYER_RECONCILED
360
1926
  0
DICTIONARY
  5
1927
330
2BA
100
AcDbDictionary
280
     1
  3
ACAD_XREC_ROUNDTRIP
360
1942
  3
ADSK_XREC_LAYER_RECONCILED
360
1928
  0
DICTIONARY
  5
192B
330
3FA
100
AcDbDictionary
280
     1
  3
ACAD_XREC_ROUNDTRIP
360
1944
  3
ADSK_XREC_LAYER_RECONCILED
360
192C
  0
DICTIONARY
  5
192D
330
478
100
AcDbDictionary
280
     1
  3
ACAD_XREC_ROUNDTRIP
360
1945
  3
ADSK_XREC_LAYER_RECONCILED
360
192E
  0
DICTIONARY
  5
199C
330
2
100
AcDbDictionary
280
     1
  3
ACAD_LAYOUTSELFREF
360
199D
  0
DICTIONARY
  5
199E
330
1975
100
AcDbDictionary
280
     1
  3
ACAD_LAYOUTSELFREF
360
199F
  0
DICTIONARY
  5
18F3
102
{ACAD_REACTORS
330
7
102
}
330
7
100
AcDbDictionary
  0
DICTIONARY
  5
75
102
{ACAD_REACTORS
330
7
102
}
330
7
100
AcDbDictionary
  0
DICTIONARY
  5
61
102
{ACAD_REACTORS
330
7
102
}
330
7
100
AcDbDictionary
  0
DICTIONARY
  5
18C9
102
{ACAD_REACTORS
330
7
102
}
330
7
100
AcDbDictionary
  3
BYBLOCK
350
18D2
  3
BYLAYER
350
18CA
  3
GLOBAL
350
18DA
  0
DICTIONARY
  5
1918
102
{ACAD_REACTORS
330
7
102
}
330
7
100
AcDbDictionary
  3
STANDARD
350
1919
  0
DICTIONARY
  5
76
102
{ACAD_REACTORS
330
7
102
}
330
7
100
AcDbDictionary
  3
STANDARD
350
78
  0
DICTIONARY
  5
77
102
{ACAD_REACTORS
330
7
102
}
330
7
100
AcDbDictionary
  0
ACDBDICTIONARYWDFLT
  5
6
102
{ACAD_REACTORS
330
7
102
}
330
7
100
AcDbDictionary
281
     1
  3
Normal
350
5
100
AcDbDictionaryWithDefault
340
5
  0
DICTIONARY
  5
18F6
102
{ACAD_REACTORS
330
7
102
}
330
7
100
AcDbDictionary
  3
A0
350
18F7
  3
A1
350
18F8
  3
A2
350
18F9
  3
A3
350
18FA
  3
A4
350
18FB
  3
A5
350
18FC
  3
A6
350
18FD
  3
A7
350
18FE
  3
A8
350
18FF
  3
A9
350
1900
  3
B0
350
1901
  3
B1
350
1902
  3
B2
350
1903
  3
B3
350
1904
  3
B4
350
1905
  3
B5
350
1906
  3
B6
350
1907
  3
B7
350
1908
  3
B8
350
1909
  3
B9
350
190A
  3
C0
350
190B
  3
C1
350
190C
  3
C2
350
190D
  3
C3
350
190E
  3
C4
350
190F
  3
C5
350
1910
  3
C6
350
1911
  3
C7
350
1912
  3
C8
350
1913
  3
C9
350
1914
  3
D0
350
1915
  3
D1
350
1916
  3
D2
350
1917
  0
DICTIONARY
  5
18F4
102
{ACAD_REACTORS
330
7
102
}
330
7
100
AcDbDictionary
  3
STANDARD
350
18F5
  0
DICTIONARY
  5
18E2
102
{ACAD_REACTORS
330
7
102
}
330
7
100
AcDbDictionary
  3
2DWIREFRAME
350
18E8
  3
3D_HIDDEN
350
18EA
  3
3DWIREFRAME
350
18E9
  3
BASIC
350
18E7
  3
BRIGHTEN
350
18EE
  3
COLORCHANGE
350
18F2
  3
CONCEPTUAL
350
18EB
  3
DIM
350
18ED
  3
FACEPATTERN
350
18F1
  3
FLAT
350
18E3
  3
FLATWITHEDGES
350
18E4
  3
GOURAUD
350
18E5
  3
GOURAUDWITHEDGES
350
18E6
  3
LINEPATTERN
350
18F0
  3
REALISTIC
350
18EC
  3
THICKEN
350
18EF
  0
XRECORD
  5
480
102
{ACAD_REACTORS
330
7
102
}
330
7
100
AcDbXrecord
 90
   990106
  3

 60
     0
 61
     0
 62
     1
 63
     3
 64
     1
 65
     0
 66
     0
 67
     3
 68
     1
 69
     0
 70
     0
 71
     0
 72
     0
 40
0.0
170
     2
340
0
  0
XRECORD
  5
1931
102
{ACAD_REACTORS
330
7
102
}
330
7
100
AcDbXrecord
 90
        1
330
18F5
  0
DICTIONARY
  5
197B
102
{ACAD_REACTORS
330
7
102
}
330
7
100
AcDbDictionary
  3
CEPSNTYPE
350
1985
  3
DIMSTYLEDATA
350
1989
  3
FINGERPRINTGUID
350
1986
  3
HYPERLINKBASE
350
197E
  3
INSUNITS
350
1984
  3
LAYOUTDICT
350
1980
  3
LWETCUNION
350
1983
  3
PLOTSETDICT
350
1981
  3
PLOTSTYLNAMDICT
350
1982
  3
PSVPSCALE
350
1988
  3
PUCSBASE
350
198C
  3
PUCSORGBACK
350
1992
  3
PUCSORGBOTTOM
350
198E
  3
PUCSORGFRONT
350
1991
  3
PUCSORGLEFT
350
198F
  3
PUCSORGRIGHT
350
1990
  3
PUCSORGTOP
350
198D
  3
PUCSORTHOREF
350
198A
  3
PUCSORTHOVIEW
350
198B
  3
STYLESHEET
350
197F
  3
TSTACKALIGN
350
197C
  3
TSTACKSIZE
350
197D
  3
UCSBASE
350
1995
  3
UCSORGBACK
350
199B
  3
UCSORGBOTTOM
350
1997
  3
UCSORGFRONT
350
199A
  3
UCSORGLEFT
350
1998
  3
UCSORGRIGHT
350
1999
  3
UCSORGTOP
350
1996
  3
UCSORTHOREF
350
1993
  3
UCSORTHOVIEW
350
1994
  3
VERSIONGUID
350
1987
  0
DICTIONARY
  5
102
102
{ACAD_REACTORS
330
7
102
}
330
7
100
AcDbDictionary
  3
CANNOSCALE
350
1952
  3
CMLEADERSTYLE
350
1951
  3
CTABLESTYLE
350
1950
  3
DIMASSOC
350
103
  3
INDEXCTL
350
1953
  3
SORTENTS
350
549
  0
XRECORD
  5
1932
102
{ACAD_REACTORS
330
7
102
}
330
7
100
AcDbXrecord
  1
DWGPROPS COOKIE
  2

  3

  4

  6

  7

  8
ymorima
  9

300
=
301
=
302
=
303
=
304
=
305
=
306
=
307
=
308
=
309
=
 40
0.0061271990740741
 41
2454413.386270613
 42
2454414.411042199
  1

 90
        0
  0
XRECORD
  5
193B
102
{ACAD_REACTORS
330
193A
102
}
330
193A
100
AcDbXrecord
102
VTR_0.000_0.000_1.000_1.000_VISUALSTYLE
340
18E8
102
VTR_0.000_0.000_1.000_1.000_GRIDDISPLAY
 70
     3
102
VTR_0.000_0.000_1.000_1.000_GRIDMAJOR
 70
     5
102
VTR_0.000_0.000_1.000_1.000_DEFAULTLIGHTING
280
     1
102
VTR_0.000_0.000_1.000_1.000_DEFAULTLIGHTINGTYPE
 70
     1
102
VTR_0.000_0.000_1.000_1.000_BRIGHTNESS
141
0.0
102
VTR_0.000_0.000_1.000_1.000_CONTRAST
142
0.0
  0
DICTIONARY
  5
B10
102
{ACAD_REACTORS
330
B0F
102
}
330
B0F
100
AcDbDictionary
  0
XRECORD
  5
1935
102
{ACAD_REACTORS
330
191D
102
}
330
191D
100
AcDbXrecord
102
MATERIAL
340
18DA
  0
XRECORD
  5
191E
102
{ACAD_REACTORS
330
191D
102
}
330
191D
100
AcDbXrecord
290
     1
  0
XRECORD
  5
1934
102
{ACAD_REACTORS
330
191F
102
}
330
191F
100
AcDbXrecord
102
MATERIAL
340
18DA
  0
XRECORD
  5
1920
102
{ACAD_REACTORS
330
191F
102
}
330
191F
100
AcDbXrecord
290
     1
  0
XRECORD
  5
1941
102
{ACAD_REACTORS
330
1925
102
}
330
1925
100
AcDbXrecord
102
MATERIAL
340
18DA
  0
XRECORD
  5
1926
102
{ACAD_REACTORS
330
1925
102
}
330
1925
100
AcDbXrecord
290
     1
  0
XRECORD
  5
1942
102
{ACAD_REACTORS
330
1927
102
}
330
1927
100
AcDbXrecord
102
MATERIAL
340
18DA
  0
XRECORD
  5
1928
102
{ACAD_REACTORS
330
1927
102
}
330
1927
100
AcDbXrecord
290
     1
  0
XRECORD
  5
1944
102
{ACAD_REACTORS
330
192B
102
}
330
192B
100
AcDbXrecord
102
MATERIAL
340
18DA
  0
XRECORD
  5
192C
102
{ACAD_REACTORS
330
192B
102
}
330
192B
100
AcDbXrecord
290
     1
  0
XRECORD
  5
1945
102
{ACAD_REACTORS
330
192D
102
}
330
192D
100
AcDbXrecord
102
MATERIAL
340
18DA
  0
XRECORD
  5
192E
102
{ACAD_REACTORS
330
192D
102
}
330
192D
100
AcDbXrecord
290
     1
  0
XRECORD
  5
199D
102
{ACAD_REACTORS
330
199C
102
}
330
199C
100
AcDbXrecord
340
2
  0
XRECORD
  5
199F
102
{ACAD_REACTORS
330
199E
102
}
330
199E
100
AcDbXrecord
340
1975
  0
ACAD_PROXY_OBJECT
  5
18D2
102
{ACAD_XDICTIONARY
360
18D3
102
}
102
{ACAD_REACTORS
330
18C9
102
}
330
18C9
100
AcDbProxyObject
 90
      499
 91
      510
 93
     1340
310
42109E509B1BD8DAC02004014080404555555555555953FAA155555555555654FEA9AA400014080404555555555555953FAA155555555555654FEA9AA400000000000000E03F4080404555555555555953FAA155555555555654FEA9AA4014080404555555555555953FAA155555555555654FEA9AA4010201011555555555
310
55654FEA8555555555555953FAA6A9005020101155555555555654FEA8555555555555953FAA6A9000
 94
        0
1001
ACAD
1000
AcadProxyRoundTripData
1071
      504
1071
   655383
1070
     0
  0
ACAD_PROXY_OBJECT
  5
18CA
102
{ACAD_XDICTIONARY
360
18CB
102
}
102
{ACAD_REACTORS
330
18C9
102
}
330
18C9
100
AcDbProxyObject
 90
      499
 91
      510
 93
     1340
310
42109E53185E595C802004014080404555555555555953FAA155555555555654FEA9AA400014080404555555555555953FAA155555555555654FEA9AA400000000000000E03F4080404555555555555953FAA155555555555654FEA9AA4014080404555555555555953FAA155555555555654FEA9AA4010201011555555555
310
55654FEA8555555555555953FAA6A9005020101155555555555654FEA8555555555555953FAA6A9000
 94
        0
1001
ACAD
1000
AcadProxyRoundTripData
1071
      504
1071
   655383
1070
     0
  0
ACAD_PROXY_OBJECT
  5
18DA
102
{ACAD_XDICTIONARY
360
18DB
102
}
102
{ACAD_REACTORS
330
18C9
102
}
330
18C9
100
AcDbProxyObject
 90
      499
 91
      510
 93
     1332
310
41D1DB1BD8985B002004014080404555555555555953FAA155555555555654FEA9AA400014080404555555555555953FAA155555555555654FEA9AA400000000000000E03F4080404555555555555953FAA155555555555654FEA9AA4014080404555555555555953FAA155555555555654FEA9AA401020101155555555555
310
654FEA8555555555555953FAA6A9005020101155555555555654FEA8555555555555953FAA6A9000
 94
        0
1001
ACAD
1000
AcadProxyRoundTripData
1071
      504
1071
   655383
1070
     0
  0
ACAD_PROXY_OBJECT
  5
1919
102
{ACAD_REACTORS
330
1918
102
}
330
1918
100
AcDbProxyObject
 90
      499
 91
      510
 93
      618
310
40901902A4063FBFFFFFE056BD1B81E855B9FC0AD7A3703D0AD73F4254DD185B99185C990000AD7A3703D0AC73F90141901A02B5E8DC0F42B1CFC02B5E8DC0F42B1CFE5764000000000000300FC6
340
6A
340
0
340
16
340
0
 94
        0
1001
ACAD_MLEADERVER
1070
     2
1001
ACAD
1000
AcadProxyRoundTripData
1071
      508
1071
   655383
1070
     0
  0
MLINESTYLE
  5
78
102
{ACAD_REACTORS
330
76
102
}
330
76
100
AcDbMlineStyle
  2
STANDARD
 70
     0
  3

 62
     0
 51
90.0
 52
90.0
 71
     2
 49
0.5
 62
   256
  6
BYLAYER
 49
-0.5
 62
   256
  6
BYLAYER
  0
ACDBPLACEHOLDER
  5
5
102
{ACAD_REACTORS
330
6
102
}
330
6
100
AcDbPlaceHolder
280
     0
  0
ACAD_PROXY_OBJECT
  5
18F7
102
{ACAD_REACTORS
330
18F6
102
}
330
18F6
100
AcDbProxyObject
 90
      499
 91
      510
 93
       49
310
904313A3100598
 94
        0
1001
ACAD
1000
AcadProxyRoundTripData
1071
      507
1071
   655383
1070
     0
  0
ACAD_PROXY_OBJECT
  5
18F8
102
{ACAD_REACTORS
330
18F6
102
}
330
18F6
100
AcDbProxyObject
 90
      499
 91
      510
 93
      113
310
904313A3200400000000000000406B
 94
        0
1001
ACAD
1000
AcadProxyRoundTripData
1071
      507
1071
   655383
1070
     0
  0
ACAD_PROXY_OBJECT
  5
18F9
102
{ACAD_REACTORS
330
18F6
102
}
330
18F6
100
AcDbProxyObject
 90
      499
 91
      510
 93
      113
310
904313A3400400000000000010406B
 94
        0
1001
ACAD
1000
AcadProxyRoundTripData
1071
      507
1071
   655383
1070
     0
  0
ACAD_PROXY_OBJECT
  5
18FA
102
{ACAD_REACTORS
330
18F6
102
}
330
18F6
100
AcDbProxyObject
 90
      499
 91
      510
 93
      113
310
904313A3500400000000000014406B
 94
        0
1001
ACAD
1000
AcadProxyRoundTripData
1071
      507
1071
   655383
1070
     0
  0
ACAD_PROXY_OBJECT
  5
18FB
102
{ACAD_REACTORS
330
18F6
102
}
330
18F6
100
AcDbProxyObject
 90
      499
 91
      510
 93
      113
310
904313A3800400000000000020406B
 94
        0
1001
ACAD
1000
AcadProxyRoundTripData
1071
      507
1071
   655383
1070
     0
  0
ACAD_PROXY_OBJECT
  5
18FC
102
{ACAD_REACTORS
330
18F6
102
}
330
18F6
100
AcDbProxyObject
 90
      499
 91
      510
 93
      121
310
905313A3130004000000000000244051
 94
        0
1001
ACAD
1000
AcadProxyRoundTripData
1071
      507
1071
   655383
1070
     0
  0
ACAD_PROXY_OBJECT
  5
18FD
102
{ACAD_REACTORS
330
18F6
102
}
330
18F6
100
AcDbProxyObject
 90
      499
 91
      510
 93
      121
310
905313A3136004000000000000304051
 94
        0
1001
ACAD
1000
AcadProxyRoundTripData
1071
      507
1071
   655383
1070
     0
  0
ACAD_PROXY_OBJECT
  5
18FE
102
{ACAD_REACTORS
330
18F6
102
}
330
18F6
100
AcDbProxyObject
 90
      499
 91
      510
 93
      121
310
905313A3230004000000000000344051
 94
        0
1001
ACAD
1000
AcadProxyRoundTripData
1071
      507
1071
   655383
1070
     0
  0
ACAD_PROXY_OBJECT
  5
18FF
102
{ACAD_REACTORS
330
18F6
102
}
330
18F6
100
AcDbProxyObject
 90
      499
 91
      510
 93
      121
310
905313A33300040000000000003E4051
 94
        0
1001
ACAD
1000
AcadProxyRoundTripData
1071
      507
1071
   655383
1070
     0
  0
ACAD_PROXY_OBJECT
  5
1900
102
{ACAD_REACTORS
330
18F6
102
}
330
18F6
100
AcDbProxyObject
 90
      499
 91
      510
 93
      121
310
905313A3430004000000000000444051
 94
        0
1001
ACAD
1000
AcadProxyRoundTripData
1071
      507
1071
   655383
1070
     0
  0
ACAD_PROXY_OBJECT
  5
1901
102
{ACAD_REACTORS
330
18F6
102
}
330
18F6
100
AcDbProxyObject
 90
      499
 91
      510
 93
      121
310
905313A3530004000000000000494051
 94
        0
1001
ACAD
1000
AcadProxyRoundTripData
1071
      507
1071
   655383
1070
     0
  0
ACAD_PROXY_OBJECT
  5
1902
102
{ACAD_REACTORS
330
18F6
102
}
330
18F6
100
AcDbProxyObject
 90
      499
 91
      510
 93
      129
310
906313A313030004000000000000594038
 94
        0
1001
ACAD
1000
AcadProxyRoundTripData
1071
      507
1071
   655383
1070
     0
  0
ACAD_PROXY_OBJECT
  5
1903
102
{ACAD_REACTORS
330
18F6
102
}
330
18F6
100
AcDbProxyObject
 90
      499
 91
      510
 93
      113
310
904323A31000000000000000010159
 94
        0
1001
ACAD
1000
AcadProxyRoundTripData
1071
      507
1071
   655383
1070
     0
  0
ACAD_PROXY_OBJECT
  5
1904
102
{ACAD_REACTORS
330
18F6
102
}
330
18F6
100
AcDbProxyObject
 90
      499
 91
      510
 93
      113
310
904343A31000000000000000410159
 94
        0
1001
ACAD
1000
AcadProxyRoundTripData
1071
      507
1071
   655383
1070
     0
  0
ACAD_PROXY_OBJECT
  5
1905
102
{ACAD_REACTORS
330
18F6
102
}
330
18F6
100
AcDbProxyObject
 90
      499
 91
      510
 93
      113
310
904383A31000000000000000810159
 94
        0
1001
ACAD
1000
AcadProxyRoundTripData
1071
      507
1071
   655383
1070
     0
  0
ACAD_PROXY_OBJECT
  5
1906
102
{ACAD_REACTORS
330
18F6
102
}
330
18F6
100
AcDbProxyObject
 90
      499
 91
      510
 93
      121
310
90531303A31000000000000000910140
 94
        0
1001
ACAD
1000
AcadProxyRoundTripData
1071
      507
1071
   655383
1070
     0
  0
ACAD_PROXY_OBJECT
  5
1907
102
{ACAD_REACTORS
330
18F6
102
}
330
18F6
100
AcDbProxyObject
 90
      499
 91
      510
 93
      129
310
9063130303A31000000000000001650138
 94
        0
1001
ACAD
1000
AcadProxyRoundTripData
1071
      507
1071
   655383
1070
     0
  0
ACAD_PROXY_OBJECT
  5
1908
102
{ACAD_REACTORS
330
18F6
102
}
330
18F6
100
AcDbProxyObject
 90
      499
 91
      510
 93
      265
310
90F312F31323822203D2031272D302200000000000000200FC00000000000028402B
 94
        0
1001
ACAD
1000
AcadProxyRoundTripData
1071
      507
1071
   655383
1070
     0
  0
ACAD_PROXY_OBJECT
  5
1909
102
{ACAD_REACTORS
330
18F6
102
}
330
18F6
100
AcDbProxyObject
 90
      499
 91
      510
 93
      257
310
90E312F363422203D2031272D302200000000000000240FC000000000000284040
 94
        0
1001
ACAD
1000
AcadProxyRoundTripData
1071
      507
1071
   655383
1070
     0
  0
ACAD_PROXY_OBJECT
  5
190A
102
{ACAD_REACTORS
330
18F6
102
}
330
18F6
100
AcDbProxyObject
 90
      499
 91
      510
 93
      257
310
90E312F333222203D2031272D302200000000000000280FC000000000000284040
 94
        0
1001
ACAD
1000
AcadProxyRoundTripData
1071
      507
1071
   655383
1070
     0
  0
ACAD_PROXY_OBJECT
  5
190B
102
{ACAD_REACTORS
330
18F6
102
}
330
18F6
100
AcDbProxyObject
 90
      499
 91
      510
 93
      257
310
90E312F313622203D2031272D3022000000000000002C0FC000000000000284040
 94
        0
1001
ACAD
1000
AcadProxyRoundTripData
1071
      507
1071
   655383
1070
     0
  0
ACAD_PROXY_OBJECT
  5
190C
102
{ACAD_REACTORS
330
18F6
102
}
330
18F6
100
AcDbProxyObject
 90
      499
 91
      510
 93
      257
310
90E332F333222203D2031272D3022000000000000002E0FC000000000000284040
 94
        0
1001
ACAD
1000
AcadProxyRoundTripData
1071
      507
1071
   655383
1070
     0
  0
ACAD_PROXY_OBJECT
  5
190D
102
{ACAD_REACTORS
330
18F6
102
}
330
18F6
100
AcDbProxyObject
 90
      499
 91
      510
 93
      249
310
90D312F3822203D2031272D302200000000000000300FC000000000000284040
 94
        0
1001
ACAD
1000
AcadProxyRoundTripData
1071
      507
1071
   655383
1070
     0
  0
ACAD_PROXY_OBJECT
  5
190E
102
{ACAD_REACTORS
330
18F6
102
}
330
18F6
100
AcDbProxyObject
 90
      499
 91
      510
 93
      257
310
90E332F313622203D2031272D302200000000000000320FC000000000000284040
 94
        0
1001
ACAD
1000
AcadProxyRoundTripData
1071
      507
1071
   655383
1070
     0
  0
ACAD_PROXY_OBJECT
  5
190F
102
{ACAD_REACTORS
330
18F6
102
}
330
18F6
100
AcDbProxyObject
 90
      499
 91
      510
 93
      249
310
90D312F3422203D2031272D302200000000000000340FC000000000000284040
 94
        0
1001
ACAD
1000
AcadProxyRoundTripData
1071
      507
1071
   655383
1070
     0
  0
ACAD_PROXY_OBJECT
  5
1910
102
{ACAD_REACTORS
330
18F6
102
}
330
18F6
100
AcDbProxyObject
 90
      499
 91
      510
 93
      249
310
90D332F3822203D2031272D302200000000000000360FC000000000000284040
 94
        0
1001
ACAD
1000
AcadProxyRoundTripData
1071
      507
1071
   655383
1070
     0
  0
ACAD_PROXY_OBJECT
  5
1911
102
{ACAD_REACTORS
330
18F6
102
}
330
18F6
100
AcDbProxyObject
 90
      499
 91
      510
 93
      249
310
90D312F3222203D2031272D302200000000000000380FC000000000000284040
 94
        0
1001
ACAD
1000
AcadProxyRoundTripData
1071
      507
1071
   655383
1070
     0
  0
ACAD_PROXY_OBJECT
  5
1912
102
{ACAD_REACTORS
330
18F6
102
}
330
18F6
100
AcDbProxyObject
 90
      499
 91
      510
 93
      249
310
90D332F3422203D2031272D3022000000000000003A0FC000000000000284040
 94
        0
1001
ACAD
1000
AcadProxyRoundTripData
1071
      507
1071
   655383
1070
     0
  0
ACAD_PROXY_OBJECT
  5
1913
102
{ACAD_REACTORS
330
18F6
102
}
330
18F6
100
AcDbProxyObject
 90
      499
 91
      510
 93
      169
310
90B3122203D2031272D3022004000000000000284020
 94
        0
1001
ACAD
1000
AcadProxyRoundTripData
1071
      507
1071
   655383
1070
     0
  0
ACAD_PROXY_OBJECT
  5
1914
102
{ACAD_REACTORS
330
18F6
102
}
330
18F6
100
AcDbProxyObject
 90
      499
 91
      510
 93
      265
310
90F312D312F3222203D2031272D3022000000000000003E0FC00000000000028402B
 94
        0
1001
ACAD
1000
AcadProxyRoundTripData
1071
      507
1071
   655383
1070
     0
  0
ACAD_PROXY_OBJECT
  5
1915
102
{ACAD_REACTORS
330
18F6
102
}
330
18F6
100
AcDbProxyObject
 90
      499
 91
      510
 93
      233
310
90B3322203D2031272D30220000000000000002100000000000000284000
 94
        0
1001
ACAD
1000
AcadProxyRoundTripData
1071
      507
1071
   655383
1070
     0
  0
ACAD_PROXY_OBJECT
  5
1916
102
{ACAD_REACTORS
330
18F6
102
}
330
18F6
100
AcDbProxyObject
 90
      499
 91
      510
 93
      233
310
90B3622203D2031272D30220000000000000006100000000000000284000
 94
        0
1001
ACAD
1000
AcadProxyRoundTripData
1071
      507
1071
   655383
1070
     0
  0
ACAD_PROXY_OBJECT
  5
1917
102
{ACAD_REACTORS
330
18F6
102
}
330
18F6
100
AcDbProxyObject
 90
      499
 91
      510
 93
      257
310
90E31272D3022203D2031272D3022000000000000000A100000000000000284040
 94
        0
1001
ACAD
1000
AcadProxyRoundTripData
1071
      507
1071
   655383
1070
     0
  0
ACAD_PROXY_OBJECT
  5
18F5
102
{ACAD_XDICTIONARY
360
192F
102
}
102
{ACAD_REACTORS
330
18F4
102
}
330
18F4
100
AcDbProxyObject
 90
      499
 91
      510
 93
     1849
310
4254DD185B99185C990028B81E85EB51B8AE3F2E07A17AD46E2B8FC02B5E8DC0F42B1CFD028000000C1008070000C3001FDFF8000000C1003FBFF000000182007F7FE00000030400FEFFC00000060801FDFF8000000C1003FBFF00000018200000000000000681FA0B0000001820100E000186003FBFF000000182007F7FE0
310
0000030400FEFFC00000060801FDFF8000000C1003FBFF000000182007F7FE000000304000AD7A3703D0AC73F4160000003040201C00030C007F7FE00000030400FEFFC00000060801FDFF8000000C1003FBFF000000182007F7FE00000030400FEFFC000000608000
340
16
340
16
340
16
 94
        0
1001
ACAD
1000
AcadProxyRoundTripData
1071
      506
1071
   655383
1070
     0
  0
ACAD_PROXY_OBJECT
  5
18E8
102
{ACAD_REACTORS
330
18E2
102
}
330
18E2
100
AcDbProxyObject
 90
      499
 91
      510
 93
      444
310
430C9915DA5C99599C985B59401049028333333333333E3BF0000000000000FB0107901411070040501600405405064090741402480A0340
 94
        0
1001
ACAD
1000
AcDbSavedByObjectVersion
1070
     0
1000
AcadProxyRoundTripData
1071
      505
1071
   655383
1070
     0
  0
ACAD_PROXY_OBJECT
  5
18EA
102
{ACAD_REACTORS
330
18E2
102
}
330
18E2
100
AcDbProxyObject
 90
      499
 91
      510
 93
      508
310
428CD108121A5919195B8010640502408333333333333E3BF0000000000000FB01079024090700405020000000000001110200405405064090740C02480A0340
 94
        0
1001
ACAD
1000
AcDbSavedByObjectVersion
1070
     0
1000
AcadProxyRoundTripData
1071
      505
1071
   655383
1070
     0
  0
ACAD_PROXY_OBJECT
  5
18E9
102
{ACAD_REACTORS
330
18E2
102
}
330
18E2
100
AcDbProxyObject
 90
      499
 91
      510
 93
      444
310
430CD915DA5C99599C985B59401059028333333333333E3BF0000000000000FB0107901411070040501600405405064090741402480A0340
 94
        0
1001
ACAD
1000
AcDbSavedByObjectVersion
1070
     0
1000
AcadProxyRoundTripData
1071
      505
1071
   655383
1070
     0
  0
ACAD_PROXY_OBJECT
  5
18E7
102
{ACAD_REACTORS
330
18E2
102
}
330
18E2
100
AcDbProxyObject
 90
      499
 91
      510
 93
      396
310
4190985CDA58C0107406404333333333333E3BF0000000000000FB0107A41107004050150841D405064090741402480A0356
 94
        0
1001
ACAD
1000
AcDbSavedByObjectVersion
1070
     0
1000
AcadProxyRoundTripData
1071
      505
1071
   655383
1070
     0
  0
ACAD_PROXY_OBJECT
  5
18EE
102
{ACAD_REACTORS
330
18E2
102
}
330
18E2
100
AcDbProxyObject
 90
      499
 91
      510
 93
      436
310
42509C9A59DA1D195B8010C409028333333333333E3BF0000000000000FB010790141107004050150841D405064090741402480A029956
 94
        0
1001
ACAD
1000
AcDbSavedByObjectVersion
1070
     0
1000
AcadProxyRoundTripData
1071
      505
1071
   655383
1070
     0
  0
ACAD_PROXY_OBJECT
  5
18F2
102
{ACAD_REACTORS
330
18E2
102
}
330
18E2
100
AcDbProxyObject
 90
      499
 91
      510
 93
      460
310
4310DBDB1BDC90DA185B99D9401104090240C333333333333E3BF0000000000000FB0108901411070040501508421405064090741402480A0354
 94
        0
1001
ACAD
1000
AcDbSavedByObjectVersion
1070
     0
1000
AcadProxyRoundTripData
1071
      505
1071
   655383
1070
     0
  0
ACAD_PROXY_OBJECT
  5
18EB
102
{ACAD_REACTORS
330
18E2
102
}
330
18E2
100
AcDbProxyObject
 90
      499
 91
      510
 93
      508
310
42D0DBDB98D95C1D1D585B0010940D028333333333333E3BF0000000000000FB0107902409070040501000000000000111010841D405064090740C02480A0340
 94
        0
1001
ACAD
1000
AcDbSavedByObjectVersion
1070
     0
1000
AcadProxyRoundTripData
1071
      505
1071
   655383
1070
     0
  0
ACAD_PROXY_OBJECT
  5
18ED
102
{ACAD_REACTORS
330
18E2
102
}
330
18E2
100
AcDbProxyObject
 90
      499
 91
      510
 93
      420
310
41111A5B4010B409028333333333333E3BF0000000000000FB010790141107004050150841D405064090741402480A02677FFFFFDB
 94
        0
1001
ACAD
1000
AcDbSavedByObjectVersion
1070
     0
1000
AcadProxyRoundTripData
1071
      505
1071
   655383
1070
     0
  0
ACAD_PROXY_OBJECT
  5
18F1
102
{ACAD_REACTORS
330
18E2
102
}
330
18E2
100
AcDbProxyObject
 90
      499
 91
      510
 93
      452
310
43119858D95C185D1D195C9B8010F409028333333333333E3BF0000000000000FB010790141107004050150841D405064090741402480A0350
 94
        0
1001
ACAD
1000
AcDbSavedByObjectVersion
1070
     0
1000
AcadProxyRoundTripData
1071
      505
1071
   655383
1070
     0
  0
ACAD_PROXY_OBJECT
  5
18E3
102
{ACAD_REACTORS
330
18E2
102
}
330
18E2
100
AcDbProxyObject
 90
      499
 91
      510
 93
      396
310
41519B185D00240901404333333333333E3BF0000000000000F9010740A41107004050150841D405064090741402480A1B55
 94
        0
1001
ACAD
1000
AcDbSavedByObjectVersion
1070
     0
1000
AcadProxyRoundTripData
1071
      505
1071
   655383
1070
     0
  0
ACAD_PROXY_OBJECT
  5
18E4
102
{ACAD_REACTORS
330
18E2
102
}
330
18E2
100
AcDbProxyObject
 90
      499
 91
      510
 93
      484
310
43919B185D15DA5D1A115919D95CC010140901404333333333333E3BF0000000000000F9010740901411070040501600405405064090741402480A1B50
 94
        0
1001
ACAD
1000
AcDbSavedByObjectVersion
1070
     0
1000
AcadProxyRoundTripData
1071
      505
1071
   655383
1070
     0
  0
ACAD_PROXY_OBJECT
  5
18E5
102
{ACAD_REACTORS
330
18E2
102
}
330
18E2
100
AcDbProxyObject
 90
      499
 91
      510
 93
      420
310
4211DBDD5C985D590010240902404333333333333E3BF0000000000000F9010740A411070040501641D405064090741402480A1B50
 94
        0
1001
ACAD
1000
AcDbSavedByObjectVersion
1070
     0
1000
AcadProxyRoundTripData
1071
      505
1071
   655383
1070
     0
  0
ACAD_PROXY_OBJECT
  5
18E6
102
{ACAD_REACTORS
330
18E2
102
}
330
18E2
100
AcDbProxyObject
 90
      499
 91
      510
 93
      508
310
4451DBDD5C985D5915DA5D1A115919D95CC010340902404333333333333E3BF0000000000000F9010740901411070040501600405405064090741402480A1B50
 94
        0
1001
ACAD
1000
AcDbSavedByObjectVersion
1070
     0
1000
AcadProxyRoundTripData
1071
      505
1071
   655383
1070
     0
  0
ACAD_PROXY_OBJECT
  5
18F0
102
{ACAD_REACTORS
330
18E2
102
}
330
18E2
100
AcDbProxyObject
 90
      499
 91
      510
 93
      452
310
43131A5B995C185D1D195C9B8010E409028333333333333E3BF0000000000000FB010790141107004050750841D405064090741402483A0350
 94
        0
1001
ACAD
1000
AcDbSavedByObjectVersion
1070
     0
1000
AcadProxyRoundTripData
1071
      505
1071
   655383
1070
     0
  0
ACAD_PROXY_OBJECT
  5
18EC
102
{ACAD_REACTORS
330
18E2
102
}
330
18E2
100
AcDbProxyObject
 90
      499
 91
      510
 93
      428
310
429499585B1A5CDD1A58C0108409028333333333333E3BF0000000000000FB01079019070040501508421405064090741402480A1B45
 94
        0
1001
ACAD
1000
AcDbSavedByObjectVersion
1070
     0
1000
AcadProxyRoundTripData
1071
      505
1071
   655383
1070
     0
  0
ACAD_PROXY_OBJECT
  5
18EF
102
{ACAD_REACTORS
330
18E2
102
}
330
18E2
100
AcDbProxyObject
 90
      499
 91
      510
 93
      420
310
42151A1A58DAD95B8010D409028333333333333E3BF0000000000000FB010790141107004050150C41D405064090741402480A0352
 94
        0
1001
ACAD
1000
AcDbSavedByObjectVersion
1070
     0
1000
AcadProxyRoundTripData
1071
      505
1071
   655383
1070
     0
  0
XRECORD
  5
1985
102
{ACAD_REACTORS
330
197B
102
}
330
197B
100
AcDbXrecord
 90
        0
  0
XRECORD
  5
1989
102
{ACAD_REACTORS
330
197B
102
}
330
197B
100
AcDbXrecord
1000
DSTYLE
1002
{
1070
   179
 70
     2
1070
   277
 70
     6
1002
}
  0
XRECORD
  5
1986
102
{ACAD_REACTORS
330
197B
102
}
330
197B
100
AcDbXrecord
  1
{6385560B-F4B1-4644-A7C2-A3E32AC3D232}
  0
XRECORD
  5
197E
102
{ACAD_REACTORS
330
197B
102
}
330
197B
100
AcDbXrecord
  1

  0
XRECORD
  5
1984
102
{ACAD_REACTORS
330
197B
102
}
330
197B
100
AcDbXrecord
 90
        0
  0
XRECORD
  5
1980
102
{ACAD_REACTORS
330
197B
102
}
330
197B
100
AcDbXrecord
340
61
  0
XRECORD
  5
1983
102
{ACAD_REACTORS
330
197B
102
}
330
197B
100
AcDbXrecord
 90
    10781
  0
XRECORD
  5
1981
102
{ACAD_REACTORS
330
197B
102
}
330
197B
100
AcDbXrecord
340
77
  0
XRECORD
  5
1982
102
{ACAD_REACTORS
330
197B
102
}
330
197B
100
AcDbXrecord
340
6
  0
XRECORD
  5
1988
102
{ACAD_REACTORS
330
197B
102
}
330
197B
100
AcDbXrecord
 40
0.0
  0
XRECORD
  5
198C
102
{ACAD_REACTORS
330
197B
102
}
330
197B
100
AcDbXrecord
340
0
  0
XRECORD
  5
1992
102
{ACAD_REACTORS
330
197B
102
}
330
197B
100
AcDbXrecord
 10
0.0
 20
0.0
 30
0.0
  0
XRECORD
  5
198E
102
{ACAD_REACTORS
330
197B
102
}
330
197B
100
AcDbXrecord
 10
0.0
 20
0.0
 30
0.0
  0
XRECORD
  5
1991
102
{ACAD_REACTORS
330
197B
102
}
330
197B
100
AcDbXrecord
 10
0.0
 20
0.0
 30
0.0
  0
XRECORD
  5
198F
102
{ACAD_REACTORS
330
197B
102
}
330
197B
100
AcDbXrecord
 10
0.0
 20
0.0
 30
0.0
  0
XRECORD
  5
1990
102
{ACAD_REACTORS
330
197B
102
}
330
197B
100
AcDbXrecord
 10
0.0
 20
0.0
 30
0.0
  0
XRECORD
  5
198D
102
{ACAD_REACTORS
330
197B
102
}
330
197B
100
AcDbXrecord
 10
0.0
 20
0.0
 30
0.0
  0
XRECORD
  5
198A
102
{ACAD_REACTORS
330
197B
102
}
330
197B
100
AcDbXrecord
340
0
  0
XRECORD
  5
198B
102
{ACAD_REACTORS
330
197B
102
}
330
197B
100
AcDbXrecord
 70
     0
  0
XRECORD
  5
197F
102
{ACAD_REACTORS
330
197B
102
}
330
197B
100
AcDbXrecord
  1
Sekkei.ctb
  0
XRECORD
  5
197C
102
{ACAD_REACTORS
330
197B
102
}
330
197B
100
AcDbXrecord
 90
        1
  0
XRECORD
  5
197D
102
{ACAD_REACTORS
330
197B
102
}
330
197B
100
AcDbXrecord
 90
       70
  0
XRECORD
  5
1995
102
{ACAD_REACTORS
330
197B
102
}
330
197B
100
AcDbXrecord
340
0
  0
XRECORD
  5
199B
102
{ACAD_REACTORS
330
197B
102
}
330
197B
100
AcDbXrecord
 10
0.0
 20
0.0
 30
0.0
  0
XRECORD
  5
1997
102
{ACAD_REACTORS
330
197B
102
}
330
197B
100
AcDbXrecord
 10
0.0
 20
0.0
 30
0.0
  0
XRECORD
  5
199A
102
{ACAD_REACTORS
330
197B
102
}
330
197B
100
AcDbXrecord
 10
0.0
 20
0.0
 30
0.0
  0
XRECORD
  5
1998
102
{ACAD_REACTORS
330
197B
102
}
330
197B
100
AcDbXrecord
 10
0.0
 20
0.0
 30
0.0
  0
XRECORD
  5
1999
102
{ACAD_REACTORS
330
197B
102
}
330
197B
100
AcDbXrecord
 10
0.0
 20
0.0
 30
0.0
  0
XRECORD
  5
1996
102
{ACAD_REACTORS
330
197B
102
}
330
197B
100
AcDbXrecord
 10
0.0
 20
0.0
 30
0.0
  0
XRECORD
  5
1993
102
{ACAD_REACTORS
330
197B
102
}
330
197B
100
AcDbXrecord
340
0
  0
XRECORD
  5
1994
102
{ACAD_REACTORS
330
197B
102
}
330
197B
100
AcDbXrecord
 70
     0
  0
XRECORD
  5
1987
102
{ACAD_REACTORS
330
197B
102
}
330
197B
100
AcDbXrecord
  1
{C5FBF13A-7D24-4127-8782-A1549EEBFADC}
  0
DICTIONARYVAR
  5
1952
102
{ACAD_REACTORS
330
102
102
}
330
102
100
DictionaryVariables
280
     0
  1
1:1
  0
DICTIONARYVAR
  5
1951
102
{ACAD_REACTORS
330
102
102
}
330
102
100
DictionaryVariables
280
     0
  1
STANDARD
  0
DICTIONARYVAR
  5
1950
102
{ACAD_REACTORS
330
102
102
}
330
102
100
DictionaryVariables
280
     0
  1
STANDARD
  0
DICTIONARYVAR
  5
103
102
{ACAD_REACTORS
330
102
102
}
330
102
100
DictionaryVariables
280
     0
  1
1
  0
DICTIONARYVAR
  5
1953
102
{ACAD_REACTORS
330
102
102
}
330
102
100
DictionaryVariables
280
     0
  1
0
  0
DICTIONARYVAR
  5
549
102
{ACAD_REACTORS
330
102
102
}
330
102
100
DictionaryVariables
280
     0
  1
96
  0
DICTIONARY
  5
18D3
330
18D2
100
AcDbDictionary
280
     1
  3
ACAD_XREC_ROUNDTRIP
360
194D
  3
BUMPTILE
360
18D5
  3
DIFFUSETILE
360
18D4
  3
OPACITYTILE
360
18D8
  3
REFLECTIONTILE
360
18D7
  3
REFRACTIONTILE
360
18D9
  3
SPECULARTILE
360
18D6
  0
DICTIONARY
  5
18CB
330
18CA
100
AcDbDictionary
280
     1
  3
ACAD_XREC_ROUNDTRIP
360
194C
  3
BUMPTILE
360
18CD
  3
DIFFUSETILE
360
18CC
  3
OPACITYTILE
360
18D0
  3
REFLECTIONTILE
360
18CF
  3
REFRACTIONTILE
360
18D1
  3
SPECULARTILE
360
18CE
  0
DICTIONARY
  5
18DB
330
18DA
100
AcDbDictionary
280
     1
  3
ACAD_XREC_ROUNDTRIP
360
194E
  3
BUMPTILE
360
18DD
  3
DIFFUSETILE
360
18DC
  3
OPACITYTILE
360
18E0
  3
REFLECTIONTILE
360
18DF
  3
REFRACTIONTILE
360
18E1
  3
SPECULARTILE
360
18DE
  0
DICTIONARY
  5
192F
330
18F5
100
AcDbDictionary
280
     1
  3
ACAD_ROUNDTRIP_2008_TABLES
360
1930
  3
ACAD_XREC_ROUNDTRIP
360
194F
  0
XRECORD
  5
194D
102
{ACAD_REACTORS
330
18D3
102
}
330
18D3
100
AcDbXrecord
102
MATERIAL
148
0.0
149
0.0
149
0.0
 93
        0
 94
      127
282
     0
 72
     0
 77
     0
171
     0
175
     0
179
     0
273
     0
  0
XRECORD
  5
18D5
102
{ACAD_REACTORS
330
18D3
102
}
330
18D3
100
AcDbXrecord
270
     1
271
     1
  0
XRECORD
  5
18D4
102
{ACAD_REACTORS
330
18D3
102
}
330
18D3
100
AcDbXrecord
270
     1
271
     1
  0
XRECORD
  5
18D8
102
{ACAD_REACTORS
330
18D3
102
}
330
18D3
100
AcDbXrecord
270
     1
271
     1
  0
XRECORD
  5
18D7
102
{ACAD_REACTORS
330
18D3
102
}
330
18D3
100
AcDbXrecord
270
     1
271
     1
  0
XRECORD
  5
18D9
102
{ACAD_REACTORS
330
18D3
102
}
330
18D3
100
AcDbXrecord
270
     1
271
     1
  0
XRECORD
  5
18D6
102
{ACAD_REACTORS
330
18D3
102
}
330
18D3
100
AcDbXrecord
270
     1
271
     1
  0
XRECORD
  5
194C
102
{ACAD_REACTORS
330
18CB
102
}
330
18CB
100
AcDbXrecord
102
MATERIAL
148
0.0
149
0.0
149
0.0
 93
        0
 94
      127
282
     0
 72
     0
 77
     0
171
     0
175
     0
179
     0
273
     0
  0
XRECORD
  5
18CD
102
{ACAD_REACTORS
330
18CB
102
}
330
18CB
100
AcDbXrecord
270
     1
271
     1
  0
XRECORD
  5
18CC
102
{ACAD_REACTORS
330
18CB
102
}
330
18CB
100
AcDbXrecord
270
     1
271
     1
  0
XRECORD
  5
18D0
102
{ACAD_REACTORS
330
18CB
102
}
330
18CB
100
AcDbXrecord
270
     1
271
     1
  0
XRECORD
  5
18CF
102
{ACAD_REACTORS
330
18CB
102
}
330
18CB
100
AcDbXrecord
270
     1
271
     1
  0
XRECORD
  5
18D1
102
{ACAD_REACTORS
330
18CB
102
}
330
18CB
100
AcDbXrecord
270
     1
271
     1
  0
XRECORD
  5
18CE
102
{ACAD_REACTORS
330
18CB
102
}
330
18CB
100
AcDbXrecord
270
     1
271
     1
  0
XRECORD
  5
194E
102
{ACAD_REACTORS
330
18DB
102
}
330
18DB
100
AcDbXrecord
102
MATERIAL
148
0.0
149
0.0
149
0.0
 93
        0
 94
      127
282
     0
 72
     0
 77
     0
171
     0
175
     0
179
     0
273
     0
  0
XRECORD
  5
18DD
102
{ACAD_REACTORS
330
18DB
102
}
330
18DB
100
AcDbXrecord
270
     1
271
     1
  0
XRECORD
  5
18DC
102
{ACAD_REACTORS
330
18DB
102
}
330
18DB
100
AcDbXrecord
270
     1
271
     1
  0
XRECORD
  5
18E0
102
{ACAD_REACTORS
330
18DB
102
}
330
18DB
100
AcDbXrecord
270
     1
271
     1
  0
XRECORD
  5
18DF
102
{ACAD_REACTORS
330
18DB
102
}
330
18DB
100
AcDbXrecord
270
     1
271
     1
  0
XRECORD
  5
18E1
102
{ACAD_REACTORS
330
18DB
102
}
330
18DB
100
AcDbXrecord
270
     1
271
     1
  0
XRECORD
  5
18DE
102
{ACAD_REACTORS
330
18DB
102
}
330
18DB
100
AcDbXrecord
270
     1
271
     1
  0
ACAD_PROXY_OBJECT
  5
1930
102
{ACAD_REACTORS
330
192F
102
}
330
192F
100
AcDbProxyObject
 90
      499
 91
      510
 93
     1044
310
40D054060020000020000003200101A000080002A5058000000C100000000000000340FE901405075F5449544C450041501A8000000C800406800020000A9416000000304000AD7A3703D0AC73FA409014217D2115051115480105406A0000003200101A000080002A5028000000C10002B5E8DC0F42B1CFE903409065F444
310
15441004
340
16
340
16
340
16
 94
        0
1001
ACAD
1000
AcadProxyRoundTripData
1071
      509
1071
   655383
1070
     0
  0
XRECORD
  5
194F
102
{ACAD_REACTORS
330
192F
102
}
330
192F
100
AcDbXrecord
102
ACAD_ROUNDTRIP_PRE2007_TABLESTYLE
 90
      512
 91
        0
  1

 92
      512
 93
        0
  2

 94
      512
 95
        0
  3

  0
ENDSEC
  0
EOF
