  0
SECTION
  2
HEADER
  9
$ACADVER
  1
AC1014
  9
$ACADMAINTVER
 70
     9
  9
$DWGCODEPAGE
  3
ANSI_932
  9
$INSBASE
 10
0.0
 20
0.0
 30
0.0
  9
$EXTMIN
 10
39.86246712430136
 20
92.21723335906455
 30
0.0
  9
$EXTMAX
 10
1127.692524975564
 20
755.6130849784474
 30
0.0
  9
$LIMMIN
 10
0.0
 20
0.0
  9
$LIMMAX
 10
297.0
 20
210.0
  9
$ORTHOMODE
 70
     1
  9
$REGENMODE
 70
     1
  9
$FILLMODE
 70
     1
  9
$QTEXTMODE
 70
     0
  9
$MIRRTEXT
 70
     0
  9
$DRAGMODE
 70
     2
  9
$LTSCALE
 40
3.0
  9
$OSMODE
 70
    37
  9
$ATTMODE
 70
     1
  9
$TEXTSIZE
 40
2.0
  9
$TRACEWID
 40
1.0
  9
$TEXTSTYLE
  7
STANDARD
  9
$CLAYER
  8
0
  9
$CELTYPE
  6
BYLAYER
  9
$CECOLOR
 62
   256
  9
$CELTSCALE
 40
1.0
  9
$DELOBJ
 70
     1
  9
$DISPSILH
 70
     0
  9
$DIMSCALE
 40
3.0
  9
$DIMASZ
 40
1.8
  9
$DIMEXO
 40
0.625
  9
$DIMDLI
 40
3.75
  9
$DIMRND
 40
0.0
  9
$DIMDLE
 40
0.0
  9
$DIMEXE
 40
0.8
  9
$DIMTP
 40
0.0
  9
$DIMTM
 40
0.0
  9
$DIMTXT
 40
1.8
  9
$DIMCEN
 40
2.5
  9
$DIMTSZ
 40
0.0
  9
$DIMTOL
 70
     0
  9
$DIMLIM
 70
     0
  9
$DIMTIH
 70
     0
  9
$DIMTOH
 70
     0
  9
$DIMSE1
 70
     0
  9
$DIMSE2
 70
     0
  9
$DIMTAD
 70
     1
  9
$DIMZIN
 70
     8
  9
$DIMBLK
  1

  9
$DIMASO
 70
     1
  9
$DIMSHO
 70
     1
  9
$DIMPOST
  1

  9
$DIMAPOST
  1

  9
$DIMALT
 70
     0
  9
$DIMALTD
 70
     4
  9
$DIMALTF
 40
0.0394
  9
$DIMLFAC
 40
1.0
  9
$DIMTOFL
 70
     1
  9
$DIMTVP
 40
0.0
  9
$DIMTIX
 70
     0
  9
$DIMSOXD
 70
     0
  9
$DIMSAH
 70
     0
  9
$DIMBLK1
  1

  9
$DIMBLK2
  1

  9
$DIMSTYLE
  2
STANDARD
  9
$DIMCLRD
 70
     0
  9
$DIMCLRE
 70
     0
  9
$DIMCLRT
 70
     0
  9
$DIMTFAC
 40
1.0
  9
$DIMGAP
 40
0.75
  9
$DIMJUST
 70
     0
  9
$DIMSD1
 70
     0
  9
$DIMSD2
 70
     0
  9
$DIMTOLJ
 70
     1
  9
$DIMTZIN
 70
     0
  9
$DIMALTZ
 70
     0
  9
$DIMALTTZ
 70
     0
  9
$DIMFIT
 70
     3
  9
$DIMUPT
 70
     0
  9
$DIMUNIT
 70
     8
  9
$DIMDEC
 70
     2
  9
$DIMTDEC
 70
     2
  9
$DIMALTU
 70
     8
  9
$DIMALTTD
 70
     4
  9
$DIMTXSTY
  7
STANDARD
  9
$DIMAUNIT
 70
     0
  9
$LUNITS
 70
     2
  9
$LUPREC
 70
     3
  9
$SKETCHINC
 40
1.0
  9
$FILLETRAD
 40
2.0
  9
$AUNITS
 70
     0
  9
$AUPREC
 70
     2
  9
$MENU
  1
.
  9
$ELEVATION
 40
0.0
  9
$PELEVATION
 40
0.0
  9
$THICKNESS
 40
0.0
  9
$LIMCHECK
 70
     0
  9
$BLIPMODE
 70
     0
  9
$CHAMFERA
 40
0.0
  9
$CHAMFERB
 40
0.0
  9
$CHAMFERC
 40
20.0
  9
$CHAMFERD
 40
0.0
  9
$SKPOLY
 70
     0
  9
$TDCREATE
 40
2454413.388963750
  9
$TDUPDATE
 40
2454424.602282986
  9
$TDINDWG
 40
0.0078533449
  9
$TDUSRTIMER
 40
0.0078531713
  9
$USRTIMER
 70
     1
  9
$ANGBASE
 50
0.0
  9
$ANGDIR
 70
     0
  9
$PDMODE
 70
     0
  9
$PDSIZE
 40
-10.0
  9
$PLINEWID
 40
0.0
  9
$COORDS
 70
     0
  9
$SPLFRAME
 70
     0
  9
$SPLINETYPE
 70
     6
  9
$SPLINESEGS
 70
     8
  9
$ATTDIA
 70
     0
  9
$ATTREQ
 70
     1
  9
$HANDLING
 70
-16383
  9
$HANDSEED
  5
19A5
  9
$SURFTAB1
 70
     6
  9
$SURFTAB2
 70
     6
  9
$SURFTYPE
 70
     6
  9
$SURFU
 70
     6
  9
$SURFV
 70
     6
  9
$UCSNAME
  2

  9
$UCSORG
 10
0.0
 20
0.0
 30
0.0
  9
$UCSXDIR
 10
1.0
 20
0.0
 30
0.0
  9
$UCSYDIR
 10
0.0
 20
1.0
 30
0.0
  9
$PUCSNAME
  2

  9
$PUCSORG
 10
0.0
 20
0.0
 30
0.0
  9
$PUCSXDIR
 10
1.0
 20
0.0
 30
0.0
  9
$PUCSYDIR
 10
0.0
 20
1.0
 30
0.0
  9
$USERI1
 70
     0
  9
$USERI2
 70
     0
  9
$USERI3
 70
     0
  9
$USERI4
 70
     0
  9
$USERI5
 70
     0
  9
$USERR1
 40
0.0
  9
$USERR2
 40
0.0
  9
$USERR3
 40
0.0
  9
$USERR4
 40
0.0
  9
$USERR5
 40
0.0
  9
$WORLDVIEW
 70
     1
  9
$SHADEDGE
 70
     3
  9
$SHADEDIF
 70
    70
  9
$TILEMODE
 70
     1
  9
$MAXACTVP
 70
    48
  9
$PINSBASE
 10
0.0
 20
0.0
 30
0.0
  9
$PLIMCHECK
 70
     0
  9
$PEXTMIN
 10
0.0
 20
0.0
 30
0.0
  9
$PEXTMAX
 10
0.0
 20
0.0
 30
0.0
  9
$PLIMMIN
 10
0.0
 20
0.0
  9
$PLIMMAX
 10
12.0
 20
9.0
  9
$UNITMODE
 70
     0
  9
$VISRETAIN
 70
     1
  9
$PLINEGEN
 70
     0
  9
$PSLTSCALE
 70
     1
  9
$TREEDEPTH
 70
  3020
  9
$PICKSTYLE
 70
     1
  9
$CMLSTYLE
  2
STANDARD
  9
$CMLJUST
 70
     0
  9
$CMLSCALE
 40
1.0
  9
$PROXYGRAPHICS
 70
     1
  9
$MEASUREMENT
 70
     0
  0
ENDSEC
  0
SECTION
  2
CLASSES
  0
CLASS
  1
DICTIONARYVAR
  2
AcDbDictionaryVar
  3
AutoCAD 2000
 90
        0
280
     0
281
     0
  0
CLASS
  1
ACDBDICTIONARYWDFLT
  2
AcDbDictionaryWithDefault
  3
AutoCAD 2000
 90
        0
280
     0
281
     0
  0
CLASS
  1
ACDBPLACEHOLDER
  2
AcDbPlaceHolder
  3
AutoCAD 2000
 90
        0
280
     0
281
     0
  0
CLASS
  1
LAYOUT
  2
AcDbLayout
  3
AutoCAD 2000
 90
        0
280
     0
281
     0
  0
CLASS
  1
MATERIAL
  2
AcDbMaterial
  3
ObjectDBX Classes
 90
     1153
280
     0
281
     0
  0
CLASS
  1
VISUALSTYLE
  2
AcDbVisualStyle
  3
ObjectDBX Classes
 90
     4095
280
     0
281
     0
  0
CLASS
  1
TABLESTYLE
  2
AcDbTableStyle
  3
ObjectDBX Classes
 90
     4095
280
     0
281
     0
  0
CLASS
  1
SCALE
  2
AcDbScale
  3
ObjectDBX Classes
 90
     1153
280
     0
281
     0
  0
CLASS
  1
MLEADERSTYLE
  2
AcDbMLeaderStyle
  3
ACDB_MLEADERSTYLE_CLASS
 90
     4095
280
     0
281
     0
  0
CLASS
  1
CELLSTYLEMAP
  2
AcDbCellStyleMap
  3
ObjectDBX Classes
 90
     1152
280
     0
281
     0
  0
CLASS
  1
ACAD_PROXY_OBJECT_WRAPPER
  2
AcDbProxyObjectWrapper
  3
AutoCAD 2000
 90
        0
280
     0
281
     0
  0
CLASS
  1
LONG_TRANSACTION
  2
AcDbLongTransaction
  3
AutoCAD 2000
 90
        0
280
     0
281
     0
  0
CLASS
  1
LWPOLYLINE
  2
AcDbPolyline
  3
AutoCAD 2000
 90
        0
280
     0
281
     1
  0
CLASS
  1
HATCH
  2
AcDbHatch
  3
AutoCAD 2000
 90
        0
280
     0
281
     1
  0
CLASS
  1
XRECORD
  2
AcDbXrecord
  3
AutoCAD 2000
 90
        0
280
     0
281
     0
  0
ENDSEC
  0
SECTION
  2
TABLES
  0
TABLE
  2
VPORT
  5
6E
102
{ACAD_XDICTIONARY
360
193F
102
}
330
0
100
AcDbSymbolTable
 70
     2
  0
VPORT
  5
197F
330
6E
100
AcDbSymbolTableRecord
100
AcDbViewportTableRecord
  2
*ACTIVE
 70
     0
 10
0.0
 20
0.0
 11
1.0
 21
1.0
 12
657.5195447280487
 22
410.1725025905902
 13
0.0
 23
0.0
 14
10.0
 24
10.0
 15
10.0
 25
10.0
 16
0.0
 26
0.0
 36
1.0
 17
0.0
 27
0.0
 37
0.0
 40
707.6530733437627
 41
1.753504672897196
 42
50.0
 43
0.0
 44
0.0
 50
0.0
 51
0.0
 71
     0
 72
   100
 73
     1
 74
     3
 75
     0
 76
     0
 77
     0
 78
     0
  0
ENDTAB
  0
TABLE
  2
LTYPE
  5
69
330
0
100
AcDbSymbolTable
 70
     6
  0
LTYPE
  5
6A
330
69
100
AcDbSymbolTableRecord
100
AcDbLinetypeTableRecord
  2
BYBLOCK
 70
     0
  3

 72
    65
 73
     0
 40
0.0
  0
LTYPE
  5
6B
330
69
100
AcDbSymbolTableRecord
100
AcDbLinetypeTableRecord
  2
BYLAYER
 70
     0
  3

 72
    65
 73
     0
 40
0.0
  0
LTYPE
  5
8
330
69
100
AcDbSymbolTableRecord
100
AcDbLinetypeTableRecord
  2
CONTINUOUS
 70
     0
  3
Solid line
 72
    65
 73
     0
 40
0.0
  0
LTYPE
  5
27C
330
69
100
AcDbSymbolTableRecord
100
AcDbLinetypeTableRecord
  2
SEKKEI_A2_
 70
     0
  3
center(A2)  ____ _ ____ _ ____ _ ____ _ ____ _ 
 72
    65
 73
     4
 40
14.28749999999999
 49
9.525
 74
     0
 49
-1.587499999999999
 74
     0
 49
1.587499999999999
 74
     0
 49
-1.587499999999999
 74
     0
  0
LTYPE
  5
7EF
330
69
100
AcDbSymbolTableRecord
100
AcDbLinetypeTableRecord
  2
PHANTOM3
 70
     0
  3
Phantom  ___ _ _ ___ _ _ ___ _ _ ___ _ _
 72
    65
 73
     6
 40
9.0
 49
4.0
 74
     0
 49
-1.0
 74
     0
 49
1.0
 74
     0
 49
-1.0
 74
     0
 49
1.0
 74
     0
 49
-1.0
 74
     0
  0
LTYPE
  5
7F0
330
69
100
AcDbSymbolTableRecord
100
AcDbLinetypeTableRecord
  2
HIDDEN3
 70
     0
  3
Hidden (.3x) _ _ _ _ _ _ _ _ _ _ _ _ _ _ _ _ _
 72
    65
 73
     2
 40
2.857499999999999
 49
1.905
 74
     0
 49
-0.9525
 74
     0
  0
LTYPE
  5
B0E
330
69
100
AcDbSymbolTableRecord
100
AcDbLinetypeTableRecord
  2
CENS
 70
     0
  3
(一点鎖線１)---- - ---- - ---- - ---- - ---- - 
 72
    65
 73
     4
 40
7.0
 49
4.0
 74
     0
 49
-1.0
 74
     0
 49
1.0
 74
     0
 49
-1.0
 74
     0
  0
ENDTAB
  0
TABLE
  2
LAYER
  5
66
102
{ACAD_XDICTIONARY
360
B0F
102
}
330
0
100
AcDbSymbolTable
 70
    10
  0
LAYER
  5
5E
102
{ACAD_XDICTIONARY
360
1922
102
}
330
66
100
AcDbSymbolTableRecord
100
AcDbLayerTableRecord
  2
0
 70
     0
 62
     7
  6
CONTINUOUS
  0
LAYER
  5
3E
102
{ACAD_XDICTIONARY
360
1924
102
}
330
66
100
AcDbSymbolTableRecord
100
AcDbLayerTableRecord
  2
CENTER
 70
     0
 62
     3
  6
SEKKEI_A2_
  0
LAYER
  5
2B5
102
{ACAD_XDICTIONARY
360
192A
102
}
330
66
100
AcDbSymbolTableRecord
100
AcDbLayerTableRecord
  2
HIDS
 70
     0
 62
     1
  6
HIDDEN3
  0
LAYER
  5
2BA
102
{ACAD_XDICTIONARY
360
192C
102
}
330
66
100
AcDbSymbolTableRecord
100
AcDbLayerTableRecord
  2
HOJO
 70
     0
 62
     4
  6
CONTINUOUS
  0
LAYER
  5
3FA
102
{ACAD_XDICTIONARY
360
1930
102
}
330
66
100
AcDbSymbolTableRecord
100
AcDbLayerTableRecord
  2
TITLE
 70
     0
 62
     4
  6
CONTINUOUS
  0
LAYER
  5
478
102
{ACAD_XDICTIONARY
360
1932
102
}
330
66
100
AcDbSymbolTableRecord
100
AcDbLayerTableRecord
  2
PHAS
 70
     0
 62
     2
  6
PHANTOM3
  0
ENDTAB
  0
TABLE
  2
STYLE
  5
67
330
0
100
AcDbSymbolTable
 70
     2
  0
STYLE
  5
16
330
67
100
AcDbSymbolTableRecord
100
AcDbTextStyleTableRecord
  2
STANDARD
 70
     0
 40
0.0
 41
1.0
 50
0.0
 71
     0
 42
2.0
  3
simplex.shx
  4
extfont.shx
  0
ENDTAB
  0
TABLE
  2
VIEW
  5
6C
330
0
100
AcDbSymbolTable
 70
     0
  0
ENDTAB
  0
TABLE
  2
UCS
  5
6D
330
0
100
AcDbSymbolTable
 70
     0
  0
ENDTAB
  0
TABLE
  2
APPID
  5
70
330
0
100
AcDbSymbolTable
 70
     3
  0
APPID
  5
71
330
70
100
AcDbSymbolTableRecord
100
AcDbRegAppTableRecord
  2
ACAD
 70
     0
  0
APPID
  5
191E
330
70
100
AcDbSymbolTableRecord
100
AcDbRegAppTableRecord
  2
ACAD_MLEADERVER
 70
     0
  0
APPID
  5
1921
330
70
100
AcDbSymbolTableRecord
100
AcDbRegAppTableRecord
  2
ACAD_DSTYLE_DIMRADIAL_EXTENSION
 70
     0
  0
ENDTAB
  0
TABLE
  2
DIMSTYLE
  5
72
330
0
100
AcDbSymbolTable
 70
     1
  0
DIMSTYLE
105
73
330
72
100
AcDbSymbolTableRecord
100
AcDbDimStyleTableRecord
  2
STANDARD
 70
     0
  3

  4

  5

  6

  7

 40
3.0
 41
1.8
 42
0.625
 43
3.75
 44
0.8
 45
0.0
 46
0.0
 47
0.0
 48
0.0
140
1.8
141
2.5
142
0.0
143
0.0394
144
1.0
145
0.0
146
1.0
147
0.75
 71
     0
 72
     0
 73
     0
 74
     0
 75
     0
 76
     0
 77
     1
 78
     8
170
     0
171
     4
172
     1
173
     0
174
     0
175
     0
176
     0
177
     0
178
     0
270
     8
271
     2
272
     2
273
     8
274
     4
340
16
275
     0
280
     0
281
     0
282
     0
283
     1
284
     0
285
     0
286
     0
287
     3
288
     0
  0
ENDTAB
  0
TABLE
  2
BLOCK_RECORD
  5
1
330
0
100
AcDbSymbolTable
 70
    55
  0
BLOCK_RECORD
  5
2
102
{ACAD_XDICTIONARY
360
19A1
102
}
330
1
100
AcDbSymbolTableRecord
100
AcDbBlockTableRecord
  2
*MODEL_SPACE
  0
BLOCK_RECORD
  5
197A
102
{ACAD_XDICTIONARY
360
19A3
102
}
330
1
100
AcDbSymbolTableRecord
100
AcDbBlockTableRecord
  2
*PAPER_SPACE
  0
ENDTAB
  0
ENDSEC
  0
SECTION
  2
BLOCKS
  0
BLOCK
  5
5D
330
2
100
AcDbEntity
  8
0
100
AcDbBlockBegin
  2
*MODEL_SPACE
 70
     0
 10
0.0
 20
0.0
 30
0.0
  3
*MODEL_SPACE
  1

  0
ENDBLK
  5
5F
330
2
100
AcDbEntity
  8
0
100
AcDbBlockEnd
  0
BLOCK
  5
197C
330
197A
100
AcDbEntity
 67
     1
  8
0
100
AcDbBlockBegin
  2
*PAPER_SPACE
 70
     0
 10
0.0
 20
0.0
 30
0.0
  3
*PAPER_SPACE
  1

  0
ENDBLK
  5
197D
330
197A
100
AcDbEntity
 67
     1
  8
0
100
AcDbBlockEnd
  0
ENDSEC
  0
SECTION
  2
ENTITIES
  0
TEXT
  5
FE3
330
2
100
AcDbEntity
  8
TITLE
100
AcDbText
 10
370.3003515819054
 20
685.045276074306
 30
0.0
 40
7.5
  1
AFCZ28S-10~30M750S2
100
AcDbText
  0
TEXT
  5
FE4
330
2
100
AcDbEntity
  8
TITLE
100
AcDbText
 10
370.3003515819054
 20
673.545276074306
 30
0.0
 40
7.5
  1
AFCZ28S-10~30L750S2
100
AcDbText
  0
LINE
  5
FE6
330
2
100
AcDbEntity
  8
CENTER
100
AcDbLine
 10
600.7013625128873
 20
685.1130849784474
 30
0.0
 11
880.8364661774319
 21
685.1130849784472
 31
0.0
  0
LINE
  5
FE7
330
2
100
AcDbEntity
  8
CENTER
100
AcDbLine
 10
250.2724671242993
 20
482.6487710600302
 30
0.0
 11
250.2724671242993
 21
342.6487710600302
 31
0.0
  0
LINE
  5
FE8
330
2
100
AcDbEntity
  8
CENTER
100
AcDbLine
 10
670.4264661774321
 20
755.6130849784474
 30
0.0
 11
670.4264661774321
 21
598.1130849784474
 31
0.0
  0
LINE
  5
FE9
330
2
100
AcDbEntity
  8
CENTER
100
AcDbLine
 10
732.4472814576019
 20
350.627955779863
 30
0.0
 11
608.4056508972588
 21
474.6695863402049
 31
0.0
  0
LINE
  5
FEA
330
2
100
AcDbEntity
  8
CENTER
100
AcDbLine
 10
608.4056508972606
 20
350.6279557798612
 30
0.0
 11
732.4472814576036
 21
474.6695863402028
 31
0.0
  0
LINE
  5
FEB
330
2
100
AcDbEntity
  8
CENTER
100
AcDbLine
 10
670.4264661774321
 20
332.6487710600338
 30
0.0
 11
670.4264661774321
 21
492.6487710600339
 31
0.0
  0
LINE
  5
FEC
330
2
100
AcDbEntity
  8
CENTER
100
AcDbLine
 10
590.4264661774304
 20
412.648771060032
 30
0.0
 11
880.8364661774319
 21
412.648771060032
 31
0.0
  0
LINE
  5
FED
330
2
100
AcDbEntity
  8
CENTER
100
AcDbLine
 10
620.9289914943719
 20
453.1462457430914
 30
0.0
 11
620.9289914943719
 21
471.1462457430914
 31
0.0
  0
LINE
  5
FEE
330
2
100
AcDbEntity
  8
CENTER
100
AcDbLine
 10
611.9289914943719
 20
462.1462457430914
 30
0.0
 11
629.9289914943718
 21
462.1462457430914
 31
0.0
  0
LINE
  5
FEF
330
2
100
AcDbEntity
  8
CENTER
100
AcDbLine
 10
719.9239408604906
 20
453.1462457430914
 30
0.0
 11
719.9239408604906
 21
471.1462457430914
 31
0.0
  0
LINE
  5
FF0
330
2
100
AcDbEntity
  8
CENTER
100
AcDbLine
 10
728.9239408604906
 20
462.1462457430896
 30
0.0
 11
710.9239408604906
 21
462.1462457430896
 31
0.0
  0
LINE
  5
FF1
330
2
100
AcDbEntity
  8
CENTER
100
AcDbLine
 10
719.9239408604888
 20
372.1512963769762
 30
0.0
 11
719.9239408604888
 21
354.1512963769763
 31
0.0
  0
LINE
  5
FF2
330
2
100
AcDbEntity
  8
CENTER
100
AcDbLine
 10
728.9239408604888
 20
363.1512963769762
 30
0.0
 11
710.9239408604889
 21
363.1512963769762
 31
0.0
  0
LINE
  5
FF3
330
2
100
AcDbEntity
  8
CENTER
100
AcDbLine
 10
620.9289914943727
 20
372.1512963769726
 30
0.0
 11
620.9289914943727
 21
354.1512963769726
 31
0.0
  0
LINE
  5
FF4
330
2
100
AcDbEntity
  8
CENTER
100
AcDbLine
 10
611.9289914943728
 20
363.1512963769744
 30
0.0
 11
629.9289914943727
 21
363.1512963769744
 31
0.0
  0
ARC
  5
FF5
330
2
100
AcDbEntity
  8
0
100
AcDbCircle
 10
670.4264661774258
 20
602.6487710600338
 30
0.0
 40
250.0
100
AcDbArc
 50
264.7203967176031
 51
275.2796032823967
  0
ARC
  5
FF6
330
2
100
AcDbEntity
  8
0
100
AcDbCircle
 10
670.4264661774312
 20
222.6487710600338
 30
0.0
 40
250.0
100
AcDbArc
 50
84.72039671760322
 51
95.27960328239677
  0
CIRCLE
  5
FF7
330
2
100
AcDbEntity
  8
0
100
AcDbCircle
 10
670.4264661774304
 20
412.6487710600338
 30
0.0
 40
40.0
  0
CIRCLE
  5
FF8
330
2
100
AcDbEntity
  8
0
100
AcDbCircle
 10
670.4264661774304
 20
412.6487710600338
 30
0.0
 40
32.5
  0
CIRCLE
  5
FF9
330
2
100
AcDbEntity
  8
CENTER
100
AcDbCircle
 10
670.4264661774304
 20
412.6487710600338
 30
0.0
 40
70.0
  0
CIRCLE
  5
FFA
330
2
100
AcDbEntity
  8
0
100
AcDbCircle
 10
670.4264661774304
 20
412.6487710600338
 30
0.0
 40
55.0
  0
ARC
  5
FFB
330
2
100
AcDbEntity
  8
0
100
AcDbCircle
 10
860.4264661774303
 20
412.6487710600338
 30
0.0
 40
250.0
100
AcDbArc
 50
174.7203967175517
 51
185.2796032824482
  0
ARC
  5
FFC
330
2
100
AcDbEntity
  8
0
100
AcDbCircle
 10
620.4264661774304
 20
362.6487710600339
 30
0.0
 40
10.0
100
AcDbArc
 50
180.0
 51
270.0
  0
ARC
  5
FFD
330
2
100
AcDbEntity
  8
0
100
AcDbCircle
 10
618.4264661774303
 20
366.6487710600375
 30
0.0
 40
8.0
100
AcDbArc
 50
169.7661103968419
 51
180.0
  0
LINE
  5
FFE
330
2
100
AcDbEntity
  8
0
100
AcDbLine
 10
610.4264661774303
 20
362.6487710600339
 30
0.0
 11
610.4264661774303
 21
366.6487710600375
 31
0.0
  0
CIRCLE
  5
FFF
330
2
100
AcDbEntity
  8
HOJO
100
AcDbCircle
 10
620.9289914943719
 20
363.1512963769762
 30
0.0
 40
4.0
  0
LINE
  5
1000
330
2
100
AcDbEntity
  8
0
100
AcDbLine
 10
620.4264661774304
 20
352.6487710600338
 30
0.0
 11
624.4264661774349
 21
352.6487710600338
 31
0.0
  0
ARC
  5
1001
330
2
100
AcDbEntity
  8
0
100
AcDbCircle
 10
624.4264661774349
 20
360.648771060032
 30
0.0
 40
8.0
100
AcDbArc
 50
270.0
 51
280.2338896031039
  0
CIRCLE
  5
1002
330
2
100
AcDbEntity
  8
0
100
AcDbCircle
 10
620.9289914943719
 20
363.1512963769762
 30
0.0
 40
3.2
  0
CIRCLE
  5
1003
330
2
100
AcDbEntity
  8
0
100
AcDbCircle
 10
620.9289914943719
 20
462.1462457430933
 30
0.0
 40
3.2
  0
CIRCLE
  5
1004
330
2
100
AcDbEntity
  8
HOJO
100
AcDbCircle
 10
620.9289914943719
 20
462.1462457430933
 30
0.0
 40
4.0
  0
ARC
  5
1005
330
2
100
AcDbEntity
  8
0
100
AcDbCircle
 10
620.4264661774295
 20
462.6487710600338
 30
0.0
 40
10.0
100
AcDbArc
 50
90.0
 51
180.0
  0
LINE
  5
1006
330
2
100
AcDbEntity
  8
0
100
AcDbLine
 10
610.4264661774303
 20
458.6487710600302
 30
0.0
 11
610.4264661774294
 21
462.6487710600338
 31
0.0
  0
ARC
  5
1007
330
2
100
AcDbEntity
  8
0
100
AcDbCircle
 10
618.4264661774303
 20
458.6487710600302
 30
0.0
 40
8.0
100
AcDbArc
 50
180.0
 51
190.233889603158
  0
LINE
  5
1008
330
2
100
AcDbEntity
  8
0
100
AcDbLine
 10
620.4264661774295
 20
472.6487710600339
 30
0.0
 11
624.426466177434
 21
472.6487710600339
 31
0.0
  0
ARC
  5
1009
330
2
100
AcDbEntity
  8
0
100
AcDbCircle
 10
624.426466177434
 20
464.6487710600339
 30
0.0
 40
8.0
100
AcDbArc
 50
79.76611039689619
 51
90.0
  0
LINE
  5
100A
330
2
100
AcDbEntity
  8
0
100
AcDbLine
 10
803.8364661774311
 20
452.1487710600339
 30
0.0
 11
803.8364661774311
 21
373.1487710600339
 31
0.0
  0
LINE
  5
100B
330
2
100
AcDbEntity
  8
0
100
AcDbLine
 10
815.836466177431
 20
454.1487710600338
 30
0.0
 11
815.836466177431
 21
371.1487710600338
 31
0.0
  0
LINE
  5
100C
330
2
100
AcDbEntity
  8
0
100
AcDbLine
 10
773.926466177433
 20
377.6487710600338
 30
0.0
 11
773.9264661774285
 21
447.6487710600339
 31
0.0
  0
LINE
  5
100D
330
2
100
AcDbEntity
  8
0
100
AcDbLine
 10
730.4264661774303
 20
362.6487710600339
 30
0.0
 11
730.4264661774303
 21
462.6487710600338
 31
0.0
  0
ARC
  5
100E
330
2
100
AcDbEntity
  8
0
100
AcDbCircle
 10
765.926466177433
 20
377.6487710600338
 30
0.0
 40
8.0
100
AcDbArc
 50
270.0
 51
0.0
  0
LINE
  5
100F
330
2
100
AcDbEntity
  8
0
100
AcDbLine
 10
765.926466177433
 20
369.6487710600338
 30
0.0
 11
738.3638572920825
 21
369.6487710600338
 31
0.0
  0
ARC
  5
1010
330
2
100
AcDbEntity
  8
0
100
AcDbCircle
 10
720.4264661774304
 20
362.6487710600339
 30
0.0
 40
10.0
100
AcDbArc
 50
270.0
 51
0.0
  0
CIRCLE
  5
1011
330
2
100
AcDbEntity
  8
HOJO
100
AcDbCircle
 10
719.9239408604888
 20
363.1512963769762
 30
0.0
 40
4.0
  0
LINE
  5
1012
330
2
100
AcDbEntity
  8
0
100
AcDbLine
 10
716.4264661774267
 20
352.6487710600338
 30
0.0
 11
720.4264661774304
 21
352.6487710600338
 31
0.0
  0
ARC
  5
1013
330
2
100
AcDbEntity
  8
0
100
AcDbCircle
 10
716.4264661774267
 20
360.648771060032
 30
0.0
 40
8.0
100
AcDbArc
 50
259.766110396896
 51
270.0
  0
CIRCLE
  5
1014
330
2
100
AcDbEntity
  8
0
100
AcDbCircle
 10
719.9239408604888
 20
363.1512963769762
 30
0.0
 40
3.2
  0
ARC
  5
1015
330
2
100
AcDbEntity
  8
0
100
AcDbCircle
 10
805.836466177431
 20
373.6487710600338
 30
0.0
 40
2.0
100
AcDbArc
 50
180.0
 51
270.0
  0
LINE
  5
1016
330
2
100
AcDbEntity
  8
0
100
AcDbLine
 10
815.836466177431
 20
371.6487710600338
 30
0.0
 11
805.836466177431
 21
371.6487710600338
 31
0.0
  0
CIRCLE
  5
1017
330
2
100
AcDbEntity
  8
0
100
AcDbCircle
 10
719.9239408604888
 20
462.1462457430933
 30
0.0
 40
3.2
  0
CIRCLE
  5
1018
330
2
100
AcDbEntity
  8
HOJO
100
AcDbCircle
 10
719.9239408604888
 20
462.1462457430933
 30
0.0
 40
4.0
  0
ARC
  5
1019
330
2
100
AcDbEntity
  8
0
100
AcDbCircle
 10
720.4264661774304
 20
462.6487710600338
 30
0.0
 40
10.0
100
AcDbArc
 50
0.0
 51
90.0
  0
ARC
  5
101A
330
2
100
AcDbEntity
  8
0
100
AcDbCircle
 10
738.3986669330414
 20
463.6487710600339
 30
0.0
 40
8.0
100
AcDbArc
 50
183.1847385366748
 51
270.0
  0
LINE
  5
101B
330
2
100
AcDbEntity
  8
0
100
AcDbLine
 10
765.9264661774285
 20
455.6487710600339
 30
0.0
 11
738.3986669330414
 21
455.6487710600339
 31
0.0
  0
ARC
  5
101C
330
2
100
AcDbEntity
  8
0
100
AcDbCircle
 10
765.9264661774285
 20
447.6487710600339
 30
0.0
 40
8.0
100
AcDbArc
 50
0.0
 51
90.0
  0
LINE
  5
101D
330
2
100
AcDbEntity
  8
0
100
AcDbLine
 10
716.4264661774276
 20
472.6487710600339
 30
0.0
 11
720.4264661774304
 21
472.6487710600339
 31
0.0
  0
ARC
  5
101E
330
2
100
AcDbEntity
  8
0
100
AcDbCircle
 10
716.4264661774276
 20
464.6487710600339
 30
0.0
 40
8.0
100
AcDbArc
 50
90.0
 51
100.2338896031037
  0
ARC
  5
101F
330
2
100
AcDbEntity
  8
0
100
AcDbCircle
 10
805.836466177431
 20
451.6487710600339
 30
0.0
 40
2.0
100
AcDbArc
 50
90.0
 51
180.0
  0
LINE
  5
1020
330
2
100
AcDbEntity
  8
0
100
AcDbLine
 10
805.836466177431
 20
453.6487710600338
 30
0.0
 11
815.836466177431
 21
453.6487710600338
 31
0.0
  0
LINE
  5
1021
330
2
100
AcDbEntity
  8
CENTER
100
AcDbLine
 10
320.272467124283
 20
412.648771060032
 30
0.0
 11
39.86246712430136
 21
412.6487710600319
 31
0.0
  0
LINE
  5
1022
330
2
100
AcDbEntity
  8
0
100
AcDbLine
 10
146.7724671242993
 20
447.648771060032
 30
0.0
 11
146.7724671242993
 21
377.648771060032
 31
0.0
  0
LINE
  5
1023
330
2
100
AcDbEntity
  8
0
100
AcDbLine
 10
104.8624671243004
 20
371.148771060032
 30
0.0
 11
104.8624671243004
 21
454.148771060032
 31
0.0
  0
LINE
  5
1024
330
2
100
AcDbEntity
  8
0
100
AcDbLine
 10
116.8624671243004
 20
373.148771060032
 30
0.0
 11
116.8624671243004
 21
452.148771060032
 31
0.0
  0
LINE
  5
1025
330
2
100
AcDbEntity
  8
0
100
AcDbLine
 10
104.8624671243004
 20
453.648771060032
 30
0.0
 11
114.8624671243004
 21
453.648771060032
 31
0.0
  0
ARC
  5
1026
330
2
100
AcDbEntity
  8
0
100
AcDbCircle
 10
114.8624671243004
 20
451.648771060032
 30
0.0
 40
2.0
100
AcDbArc
 50
0.0
 51
90.0
  0
LINE
  5
1027
330
2
100
AcDbEntity
  8
0
100
AcDbLine
 10
114.8624671243004
 20
371.648771060032
 30
0.0
 11
104.8624671243004
 21
371.648771060032
 31
0.0
  0
ARC
  5
1028
330
2
100
AcDbEntity
  8
0
100
AcDbCircle
 10
114.8624671243004
 20
373.648771060032
 30
0.0
 40
2.0
100
AcDbArc
 50
270.0
 51
0.0
  0
LINE
  5
1029
330
2
100
AcDbEntity
  8
0
100
AcDbLine
 10
708.4950886278183
 20
621.1130849832804
 30
0.0
 11
632.3578437270461
 21
621.1130849832804
 31
0.0
  0
LINE
  5
102A
330
2
100
AcDbEntity
  8
0
100
AcDbLine
 10
611.0940715634286
 20
640.1130849832786
 30
0.0
 11
729.7544973575476
 21
640.1130849832805
 31
0.0
  0
LINE
  5
102B
330
2
100
AcDbEntity
  8
0
100
AcDbLine
 10
615.4264661774321
 20
635.1130849832786
 30
0.0
 11
725.4264661774321
 21
635.1130849832786
 31
0.0
  0
LINE
  5
102C
330
2
100
AcDbEntity
  8
0
100
AcDbLine
 10
611.0940715634286
 20
640.1130849832786
 30
0.0
 11
610.4264661774322
 21
716.6130849838225
 31
0.0
  0
LINE
  5
102D
330
2
100
AcDbEntity
  8
0
100
AcDbLine
 10
615.4264661774321
 20
635.1130849832786
 30
0.0
 11
615.4264661774321
 21
640.1130849832786
 31
0.0
  0
LINE
  5
102E
330
2
100
AcDbEntity
  8
0
100
AcDbLine
 10
815.836466177433
 20
726.1130849784474
 30
0.0
 11
815.8364661774339
 21
644.1130849784474
 31
0.0
  0
LINE
  5
102F
330
2
100
AcDbEntity
  8
0
100
AcDbLine
 10
731.2589179090208
 20
642.1130849832804
 30
0.0
 11
771.8434847766477
 21
642.1130849832787
 31
0.0
  0
LINE
  5
1030
330
2
100
AcDbEntity
  8
0
100
AcDbLine
 10
725.4264661774321
 20
635.1130849832805
 30
0.0
 11
725.4264661774321
 21
640.1130849832805
 31
0.0
  0
LINE
  5
1032
330
2
100
AcDbEntity
  8
0
100
AcDbLine
 10
815.8364661774339
 20
644.1130849784474
 30
0.0
 11
805.7847799192048
 21
644.1130849784474
 31
0.0
  0
LINE
  5
1033
330
2
100
AcDbEntity
  8
0
100
AcDbLine
 10
805.7847799193458
 20
726.1130849784474
 30
0.0
 11
815.836466177433
 21
726.1130849784474
 31
0.0
  0
ARC
  5
1034
330
2
100
AcDbEntity
  8
0
100
AcDbCircle
 10
531.8264852095125
 20
443.014088576643
 30
0.0
 40
80.0
100
AcDbArc
 50
354.7203967175509
 51
10.23388960315803
  0
ARC
  5
1035
330
2
100
AcDbEntity
  8
0
100
AcDbCircle
 10
531.8264852095125
 20
382.2834535434265
 30
0.0
 40
80.0
100
AcDbArc
 50
349.7661103968419
 51
5.279603282448266
  0
ARC
  5
1036
330
2
100
AcDbEntity
  8
0
100
AcDbCircle
 10
640.0611486608258
 20
274.048790092116
 30
0.0
 40
80.0
100
AcDbArc
 50
84.72039671760322
 51
100.2338896031037
  0
ARC
  5
1037
330
2
100
AcDbEntity
  8
0
100
AcDbCircle
 10
700.7917836940322
 20
274.048790092116
 30
0.0
 40
80.0
100
AcDbArc
 50
79.76611039689619
 51
95.27960328239677
  0
ARC
  5
1038
330
2
100
AcDbEntity
  8
0
100
AcDbCircle
 10
700.7917836940386
 20
551.2487520279498
 30
0.0
 40
80.0
100
AcDbArc
 50
264.7203967176031
 51
280.2338896031039
  0
ARC
  5
1039
330
2
100
AcDbEntity
  8
0
100
AcDbCircle
 10
640.061148660823
 20
551.2487520279498
 30
0.0
 40
80.0
100
AcDbArc
 50
259.766110396896
 51
275.2796032823967
  0
ARC
  5
103A
330
2
100
AcDbEntity
  8
0
100
AcDbCircle
 10
708.4950886278183
 20
623.1130849832786
 30
0.0
 40
2.0
100
AcDbArc
 50
270.0
 51
357.9999999999963
  0
ARC
  5
103B
330
2
100
AcDbEntity
  8
0
100
AcDbCircle
 10
632.3578437270461
 20
623.1130849832786
 30
0.0
 40
2.0
100
AcDbArc
 50
182.0000000000036
 51
270.0
  0
LINE
  5
103C
330
2
100
AcDbEntity
  8
0
100
AcDbLine
 10
630.0049795089725
 20
633.1828839766838
 30
0.0
 11
630.3590620730082
 21
623.0432859898735
 31
0.0
  0
ARC
  5
103D
330
2
100
AcDbEntity
  8
0
100
AcDbCircle
 10
628.0061978549346
 20
633.1130849832787
 30
0.0
 40
2.0
100
AcDbArc
 50
2.000000000003654
 51
90.0
  0
LINE
  5
103E
330
2
100
AcDbEntity
  8
0
100
AcDbLine
 10
710.8479528458928
 20
633.1828839766838
 30
0.0
 11
710.4938702818562
 21
623.0432859898735
 31
0.0
  0
ARC
  5
103F
330
2
100
AcDbEntity
  8
0
100
AcDbCircle
 10
712.8467344999307
 20
633.1130849832787
 30
0.0
 40
2.0
100
AcDbArc
 50
90.0
 51
177.9999999999963
  0
LINE
  5
1040
330
2
100
AcDbEntity
  8
0
100
AcDbLine
 10
663.2846954276664
 20
360.6487710600211
 30
0.0
 11
666.1646966689986
 21
360.6487710600211
 31
0.0
  0
LINE
  5
1041
330
2
100
AcDbEntity
  8
0
100
AcDbLine
 10
667.2846954276718
 20
368.648771060032
 30
0.0
 11
663.2846954276664
 21
360.6487710600211
 31
0.0
  0
ARC
  5
1042
330
2
100
AcDbEntity
  8
0
100
AcDbCircle
 10
673.9246226676822
 20
365.9287710600291
 30
0.0
 40
2.720000000003957
100
AcDbArc
 50
307.5189678668328
 51
90.0
  0
LINE
  5
1043
330
2
100
AcDbEntity
  8
0
100
AcDbLine
 10
675.5811680473414
 20
363.7713982584135
 30
0.0
 11
677.5682369271962
 21
360.6487710600211
 31
0.0
  0
LINE
  5
1044
330
2
100
AcDbEntity
  8
0
100
AcDbLine
 10
674.6882356858649
 20
360.6487710600211
 30
0.0
 11
677.5682369271962
 21
360.6487710600211
 31
0.0
  0
LINE
  5
1045
330
2
100
AcDbEntity
  8
0
100
AcDbLine
 10
668.8046954276741
 20
360.6487710600211
 30
0.0
 11
671.2046226676774
 21
360.6487710600211
 31
0.0
  0
LINE
  5
1046
330
2
100
AcDbEntity
  8
0
100
AcDbLine
 10
666.7646966689988
 20
361.8487710600236
 30
0.0
 11
666.1646966689986
 21
360.6487710600211
 31
0.0
  0
LINE
  5
1047
330
2
100
AcDbEntity
  8
0
100
AcDbLine
 10
666.7646966689988
 20
361.8487710600236
 30
0.0
 11
668.8046954276741
 21
361.8487710600218
 31
0.0
  0
LINE
  5
1048
330
2
100
AcDbEntity
  8
0
100
AcDbLine
 10
668.8046954276741
 20
361.8487710600218
 30
0.0
 11
668.8046954276741
 21
360.6487710600211
 31
0.0
  0
LINE
  5
1049
330
2
100
AcDbEntity
  8
0
100
AcDbLine
 10
668.0446966690014
 20
364.408771060025
 30
0.0
 11
668.8046954276741
 21
364.4087710600268
 31
0.0
  0
LINE
  5
104A
330
2
100
AcDbEntity
  8
0
100
AcDbLine
 10
668.8046954276741
 20
365.9287685773723
 30
0.0
 11
668.8046954276741
 21
364.4087710600268
 31
0.0
  0
LINE
  5
104B
330
2
100
AcDbEntity
  8
0
100
AcDbLine
 10
668.8046954276741
 20
365.9287685773723
 30
0.0
 11
668.0446966690014
 21
364.408771060025
 31
0.0
  0
LINE
  5
104C
330
2
100
AcDbEntity
  8
0
100
AcDbLine
 10
671.5446954276775
 20
365.5887710600271
 30
0.0
 11
674.6882356858649
 21
360.6487710600211
 31
0.0
  0
LINE
  5
104D
330
2
100
AcDbEntity
  8
0
100
AcDbLine
 10
671.2046226676774
 20
365.9287710600291
 30
0.0
 11
671.2046226676774
 21
360.6487710600211
 31
0.0
  0
LINE
  5
104E
330
2
100
AcDbEntity
  8
0
100
AcDbLine
 10
671.2046226676774
 20
365.9287710600291
 30
0.0
 11
673.7546954276803
 21
365.9287710600291
 31
0.0
  0
LINE
  5
104F
330
2
100
AcDbEntity
  8
0
100
AcDbLine
 10
671.5446954276775
 20
365.5887710600271
 30
0.0
 11
673.7546954276821
 21
365.5887710600271
 31
0.0
  0
ARC
  5
1050
330
2
100
AcDbEntity
  8
0
100
AcDbCircle
 10
673.7546954276821
 20
365.758771060029
 30
0.0
 40
0.1700000000002474
100
AcDbArc
 50
270.0
 51
90.0
  0
LINE
  5
1051
330
2
100
AcDbEntity
  8
0
100
AcDbLine
 10
667.2846954276718
 20
368.648771060032
 30
0.0
 11
673.9246226676822
 21
368.648771060032
 31
0.0
  0
ARC
  5
1052
330
2
100
AcDbEntity
  8
0
100
AcDbCircle
 10
798.7038226071953
 20
721.1130849784474
 30
0.0
 40
5.0
100
AcDbArc
 50
270.0
 51
358.499999999906
  0
ARC
  5
1053
330
2
100
AcDbEntity
  8
0
100
AcDbCircle
 10
767.7385725386701
 20
686.1130849784474
 30
0.0
 40
1.0
100
AcDbArc
 50
181.5000000001981
 51
270.0
  0
LINE
  5
1054
330
2
100
AcDbEntity
  8
0
100
AcDbLine
 10
777.1534789750902
 20
682.6130849784474
 30
0.0
 11
788.6546038391306
 21
682.6130849784474
 31
0.0
  0
LINE
  5
1055
330
2
100
AcDbEntity
  8
0
100
AcDbLine
 10
777.1534789754412
 20
687.6130849784474
 30
0.0
 11
788.654603839216
 21
687.6130849784474
 31
0.0
  0
LINE
  5
1056
330
2
100
AcDbEntity
  8
0
100
AcDbLine
 10
803.7854652693948
 20
724.1654388750682
 30
0.0
 11
802.7628433930685
 21
685.1130849784474
 31
0.0
  0
ARC
  5
1057
330
2
100
AcDbEntity
  8
0
100
AcDbCircle
 10
805.7847799192048
 20
646.1130849784474
 30
0.0
 40
2.0
100
AcDbArc
 50
181.4999999999897
 51
270.0
  0
ARC
  5
1058
330
2
100
AcDbEntity
  8
0
100
AcDbCircle
 10
805.7847799193458
 20
724.1130849784474
 30
0.0
 40
2.0
100
AcDbArc
 50
90.0
 51
178.499999999906
  0
LINE
  5
1059
330
2
100
AcDbEntity
  8
0
100
AcDbLine
 10
802.7628433930139
 20
685.1130849784474
 30
0.0
 11
803.7854652692539
 21
646.060731081832
 31
0.0
  0
ARC
  5
105A
330
2
100
AcDbEntity
  8
0
100
AcDbCircle
 10
798.7038226070607
 20
649.1130849784474
 30
0.0
 40
5.0
100
AcDbArc
 50
1.499999999989693
 51
90.0
  0
LINE
  5
105B
330
2
100
AcDbEntity
  8
0
100
AcDbLine
 10
765.9395591380761
 20
716.6130849838116
 30
0.0
 11
766.7389152136955
 21
686.0869080301361
 31
0.0
  0
LINE
  5
105C
330
2
100
AcDbEntity
  8
0
100
AcDbLine
 10
795.2589367901972
 20
716.1130849784474
 30
0.0
 11
798.7038226071953
 21
716.1130849784474
 31
0.0
  0
LINE
  5
105D
330
2
100
AcDbEntity
  8
0
100
AcDbLine
 10
795.2589367901972
 20
654.1130849784474
 30
0.0
 11
798.7038226070607
 21
654.1130849784474
 31
0.0
  0
LINE
  5
105E
330
2
100
AcDbEntity
  8
0
100
AcDbLine
 10
792.2599648152708
 20
713.1916158233723
 30
0.0
 11
791.5247026088535
 21
685.1130849784474
 31
0.0
  0
ARC
  5
105F
330
2
100
AcDbEntity
  8
0
100
AcDbCircle
 10
788.654603839216
 20
690.6130849784474
 30
0.0
 40
3.0
100
AcDbArc
 50
270.0
 51
358.5000000001145
  0
ARC
  5
1060
330
2
100
AcDbEntity
  8
0
100
AcDbCircle
 10
795.2589367901972
 20
713.1130849784474
 30
0.0
 40
3.0
100
AcDbArc
 50
90.0
 51
178.5000000001145
  0
ARC
  5
1061
330
2
100
AcDbEntity
  8
0
100
AcDbCircle
 10
790.3855396177922
 20
716.6130849784474
 30
0.0
 40
3.0
100
AcDbArc
 50
270.0
 51
324.314665287309
  0
ARC
  5
1062
330
2
100
AcDbEntity
  8
0
100
AcDbCircle
 10
787.2745770788614
 20
713.6130849784474
 30
0.0
 40
5.0
100
AcDbArc
 50
270.0
 51
356.416678301528
  0
LINE
  5
1063
330
2
100
AcDbEntity
  8
0
100
AcDbLine
 10
792.2599648152708
 20
657.0345541335207
 30
0.0
 11
791.5247026087516
 21
685.1130849784474
 31
0.0
  0
ARC
  5
1064
330
2
100
AcDbEntity
  8
0
100
AcDbCircle
 10
795.2589367901972
 20
657.1130849784474
 30
0.0
 40
3.0
100
AcDbArc
 50
181.5000000000939
 51
270.0
  0
ARC
  5
1065
330
2
100
AcDbEntity
  8
0
100
AcDbCircle
 10
790.3855396177931
 20
653.6130849784474
 30
0.0
 40
3.0
100
AcDbArc
 50
35.68533471269101
 51
90.0
  0
ARC
  5
1066
330
2
100
AcDbEntity
  8
0
100
AcDbCircle
 10
787.2745770788614
 20
656.6130849784474
 30
0.0
 40
5.0
100
AcDbArc
 50
3.583321698471985
 51
90.0
  0
ARC
  5
1067
330
2
100
AcDbEntity
  8
0
100
AcDbCircle
 10
788.6546038391306
 20
679.6130849784474
 30
0.0
 40
3.0
100
AcDbArc
 50
1.500000000093941
 51
90.0
  0
LINE
  5
1068
330
2
100
AcDbEntity
  8
0
100
AcDbLine
 10
787.2745770788614
 20
708.6130849784474
 30
0.0
 11
778.9528371728037
 21
708.6130849784474
 31
0.0
  0
LINE
  5
1069
330
2
100
AcDbEntity
  8
0
100
AcDbLine
 10
790.3855396177922
 20
713.6130849784474
 30
0.0
 11
776.9265804125879
 21
713.6130849784474
 31
0.0
  0
LINE
  5
106A
330
2
100
AcDbEntity
  8
0
100
AcDbLine
 10
787.2745770788614
 20
661.6130849784474
 30
0.0
 11
778.9528371726836
 21
661.6130849784474
 31
0.0
  0
LINE
  5
106B
330
2
100
AcDbEntity
  8
0
100
AcDbLine
 10
790.3855396177931
 20
656.6130849784474
 30
0.0
 11
776.9265804125833
 21
656.6130849784474
 31
0.0
  0
LINE
  5
106C
330
2
100
AcDbEntity
  8
0
100
AcDbLine
 10
767.7385725386701
 20
685.1130849784474
 30
0.0
 11
773.9264661774321
 21
685.1130849784474
 31
0.0
  0
LINE
  5
106D
330
2
100
AcDbEntity
  8
0
100
AcDbLine
 10
776.9264661774313
 20
410.148771060032
 30
0.0
 11
789.3888380205088
 21
410.148771060032
 31
0.0
  0
LINE
  5
106E
330
2
100
AcDbEntity
  8
0
100
AcDbLine
 10
776.9264661774303
 20
415.148771060032
 30
0.0
 11
789.3888380205242
 21
415.148771060032
 31
0.0
  0
ARC
  5
106F
330
2
100
AcDbEntity
  8
0
100
AcDbCircle
 10
789.3888380205242
 20
418.148771060032
 30
0.0
 40
3.0
100
AcDbArc
 50
270.0
 51
359.9999999998958
  0
LINE
  5
1070
330
2
100
AcDbEntity
  8
0
100
AcDbLine
 10
778.9264661774331
 20
389.148771060032
 30
0.0
 11
787.4044783091411
 21
389.148771060032
 31
0.0
  0
LINE
  5
1071
330
2
100
AcDbEntity
  8
0
100
AcDbLine
 10
776.9264661774331
 20
384.148771060032
 30
0.0
 11
790.5154408480719
 21
384.148771060032
 31
0.0
  0
LINE
  5
1072
330
2
100
AcDbEntity
  8
0
100
AcDbLine
 10
778.9264661774285
 20
436.1487710600321
 30
0.0
 11
787.4044783092184
 21
436.1487710600321
 31
0.0
  0
LINE
  5
1073
330
2
100
AcDbEntity
  8
0
100
AcDbLine
 10
776.9264661774285
 20
441.148771060032
 30
0.0
 11
790.5154408481502
 21
441.148771060032
 31
0.0
  0
ARC
  5
1074
330
2
100
AcDbEntity
  8
0
100
AcDbCircle
 10
795.3888380205543
 20
440.6487710600321
 30
0.0
 40
3.0
100
AcDbArc
 50
90.0
 51
176.416678301528
  0
ARC
  5
1075
330
2
100
AcDbEntity
  8
0
100
AcDbCircle
 10
790.5154408481502
 20
444.148771060032
 30
0.0
 40
3.0
100
AcDbArc
 50
270.0
 51
324.314665287309
  0
ARC
  5
1076
330
2
100
AcDbEntity
  8
0
100
AcDbCircle
 10
787.4044783092184
 20
441.148771060032
 30
0.0
 40
5.0
100
AcDbArc
 50
270.0
 51
356.416678301528
  0
LINE
  5
1077
330
2
100
AcDbEntity
  8
0
100
AcDbLine
 10
792.3888380205543
 20
440.6487710600357
 30
0.0
 11
792.388838020477
 21
384.6487710600356
 31
0.0
  0
ARC
  5
1078
330
2
100
AcDbEntity
  8
0
100
AcDbCircle
 10
795.3888380204769
 20
384.648771060032
 30
0.0
 40
3.0
100
AcDbArc
 50
179.9999999998957
 51
270.0
  0
ARC
  5
1079
330
2
100
AcDbEntity
  8
0
100
AcDbCircle
 10
790.5154408480719
 20
381.148771060032
 30
0.0
 40
3.0
100
AcDbArc
 50
35.68533471269101
 51
90.0
  0
ARC
  5
107A
330
2
100
AcDbEntity
  8
0
100
AcDbCircle
 10
787.4044783091411
 20
384.148771060032
 30
0.0
 40
5.0
100
AcDbArc
 50
3.583321698471985
 51
90.0
  0
ARC
  5
107B
330
2
100
AcDbEntity
  8
0
100
AcDbCircle
 10
789.3888380205088
 20
407.1487710600321
 30
0.0
 40
3.0
100
AcDbArc
 50
359.9999999998958
 51
90.0
  0
ARC
  5
107C
330
2
100
AcDbEntity
  8
0
100
AcDbCircle
 10
798.8364661773657
 20
376.648771060032
 30
0.0
 40
5.0
100
AcDbArc
 50
0.0
 51
90.0
  0
ARC
  5
107D
330
2
100
AcDbEntity
  8
0
100
AcDbCircle
 10
798.8364661773657
 20
448.6487710600321
 30
0.0
 40
5.0
100
AcDbArc
 50
270.0
 51
0.0
  0
LINE
  5
107E
330
2
100
AcDbEntity
  8
0
100
AcDbLine
 10
795.3888380204769
 20
381.648771060032
 30
0.0
 11
798.8364661773657
 21
381.648771060032
 31
0.0
  0
LINE
  5
107F
330
2
100
AcDbEntity
  8
0
100
AcDbLine
 10
795.3888380205543
 20
443.648771060032
 30
0.0
 11
798.8364661773657
 21
443.648771060032
 31
0.0
  0
ARC
  5
1080
330
2
100
AcDbEntity
  8
0
100
AcDbCircle
 10
778.9264661774285
 20
441.148771060032
 30
0.0
 40
5.0
100
AcDbArc
 50
180.0
 51
270.0
  0
ARC
  5
1081
330
2
100
AcDbEntity
  8
0
100
AcDbCircle
 10
778.9264661774331
 20
384.148771060032
 30
0.0
 40
5.0
100
AcDbArc
 50
90.0
 51
180.0
  0
ARC
  5
1082
330
2
100
AcDbEntity
  8
0
100
AcDbCircle
 10
776.9264661774331
 20
381.148771060032
 30
0.0
 40
3.0
100
AcDbArc
 50
90.0
 51
180.0
  0
ARC
  5
1083
330
2
100
AcDbEntity
  8
0
100
AcDbCircle
 10
776.9264661774313
 20
407.1487710600321
 30
0.0
 40
3.0
100
AcDbArc
 50
90.0
 51
180.0
  0
ARC
  5
1084
330
2
100
AcDbEntity
  8
0
100
AcDbCircle
 10
776.9264661774303
 20
418.148771060032
 30
0.0
 40
3.0
100
AcDbArc
 50
180.0
 51
270.0
  0
ARC
  5
1085
330
2
100
AcDbEntity
  8
0
100
AcDbCircle
 10
776.9264661774285
 20
444.148771060032
 30
0.0
 40
3.0
100
AcDbArc
 50
180.0
 51
270.0
  0
ARC
  5
1086
330
2
100
AcDbEntity
  8
0
100
AcDbCircle
 10
143.7724671242994
 20
407.1487710600338
 30
0.0
 40
3.0
100
AcDbArc
 50
0.0
 51
90.0
  0
ARC
  5
1087
330
2
100
AcDbEntity
  8
0
100
AcDbCircle
 10
131.3100952812054
 20
407.1487710600338
 30
0.0
 40
3.0
100
AcDbArc
 50
90.0
 51
179.9999999998957
  0
LINE
  5
1088
330
2
100
AcDbEntity
  8
0
100
AcDbLine
 10
143.7724671242994
 20
415.1487710600338
 30
0.0
 11
131.3100952812209
 21
415.1487710600338
 31
0.0
  0
ARC
  5
1089
330
2
100
AcDbEntity
  8
0
100
AcDbCircle
 10
143.7724671242994
 20
418.1487710600339
 30
0.0
 40
3.0
100
AcDbArc
 50
270.0
 51
0.0
  0
ARC
  5
108A
330
2
100
AcDbEntity
  8
0
100
AcDbCircle
 10
131.3100952812209
 20
418.1487710600339
 30
0.0
 40
3.0
100
AcDbArc
 50
179.9999999998957
 51
270.0
  0
LINE
  5
108B
330
2
100
AcDbEntity
  8
0
100
AcDbLine
 10
143.7724671242994
 20
410.1487710600339
 30
0.0
 11
131.3100952812054
 21
410.1487710600339
 31
0.0
  0
LINE
  5
108C
330
2
100
AcDbEntity
  8
0
100
AcDbLine
 10
125.3100952811754
 20
381.6487710600338
 30
0.0
 11
121.8624671243641
 21
381.6487710600338
 31
0.0
  0
ARC
  5
108D
330
2
100
AcDbEntity
  8
0
100
AcDbCircle
 10
121.8624671243641
 20
376.6487710600338
 30
0.0
 40
5.0
100
AcDbArc
 50
90.0
 51
180.0
  0
LINE
  5
108E
330
2
100
AcDbEntity
  8
0
100
AcDbLine
 10
143.7724671243012
 20
384.1487710600338
 30
0.0
 11
130.1834924535795
 21
384.1487710600338
 31
0.0
  0
LINE
  5
108F
330
2
100
AcDbEntity
  8
0
100
AcDbLine
 10
141.7724671243012
 20
389.1487710600338
 30
0.0
 11
133.2944549925113
 21
389.1487710600338
 31
0.0
  0
ARC
  5
1090
330
2
100
AcDbEntity
  8
0
100
AcDbCircle
 10
141.7724671243012
 20
384.1487710600338
 30
0.0
 40
5.0
100
AcDbArc
 50
0.0
 51
90.0
  0
ARC
  5
1091
330
2
100
AcDbEntity
  8
0
100
AcDbCircle
 10
143.7724671243012
 20
381.1487710600339
 30
0.0
 40
3.0
100
AcDbArc
 50
0.0
 51
90.0
  0
ARC
  5
1092
330
2
100
AcDbEntity
  8
0
100
AcDbCircle
 10
130.1834924535795
 20
381.1487710600339
 30
0.0
 40
3.0
100
AcDbArc
 50
90.0
 51
144.314665287309
  0
ARC
  5
1093
330
2
100
AcDbEntity
  8
0
100
AcDbCircle
 10
125.3100952811754
 20
384.6487710600338
 30
0.0
 40
3.0
100
AcDbArc
 50
270.0
 51
356.416678301528
  0
ARC
  5
1094
330
2
100
AcDbEntity
  8
0
100
AcDbCircle
 10
133.2944549925113
 20
384.1487710600338
 30
0.0
 40
5.0
100
AcDbArc
 50
90.0
 51
176.416678301528
  0
LINE
  5
1095
330
2
100
AcDbEntity
  8
0
100
AcDbLine
 10
128.3100952811754
 20
384.6487710600302
 30
0.0
 11
128.3100952812527
 21
440.6487710600302
 31
0.0
  0
LINE
  5
1096
330
2
100
AcDbEntity
  8
0
100
AcDbLine
 10
141.7724671242975
 20
436.1487710600338
 30
0.0
 11
133.2944549925886
 21
436.1487710600338
 31
0.0
  0
ARC
  5
1097
330
2
100
AcDbEntity
  8
0
100
AcDbCircle
 10
141.7724671242975
 20
441.1487710600338
 30
0.0
 40
5.0
100
AcDbArc
 50
270.0
 51
0.0
  0
ARC
  5
1098
330
2
100
AcDbEntity
  8
0
100
AcDbCircle
 10
133.2944549925886
 20
441.1487710600338
 30
0.0
 40
5.0
100
AcDbArc
 50
183.583321698472
 51
270.0
  0
LINE
  5
1099
330
2
100
AcDbEntity
  8
0
100
AcDbLine
 10
143.7724671242975
 20
441.1487710600338
 30
0.0
 11
130.1834924536577
 21
441.1487710600338
 31
0.0
  0
ARC
  5
109A
330
2
100
AcDbEntity
  8
0
100
AcDbCircle
 10
143.7724671242975
 20
444.1487710600338
 30
0.0
 40
3.0
100
AcDbArc
 50
270.0
 51
0.0
  0
ARC
  5
109B
330
2
100
AcDbEntity
  8
0
100
AcDbCircle
 10
130.1834924536577
 20
444.1487710600338
 30
0.0
 40
3.0
100
AcDbArc
 50
215.685334712691
 51
270.0
  0
ARC
  5
109C
330
2
100
AcDbEntity
  8
0
100
AcDbCircle
 10
125.3100952812527
 20
440.6487710600338
 30
0.0
 40
3.0
100
AcDbArc
 50
359.9999999998958
 51
90.0
  0
LINE
  5
109D
330
2
100
AcDbEntity
  8
0
100
AcDbLine
 10
125.3100952812527
 20
443.6487710600339
 30
0.0
 11
121.8624671243641
 21
443.6487710600339
 31
0.0
  0
ARC
  5
109E
330
2
100
AcDbEntity
  8
0
100
AcDbCircle
 10
121.8624671243641
 20
448.6487710600338
 30
0.0
 40
5.0
100
AcDbArc
 50
180.0
 51
270.0
  0
LINE
  5
109F
330
2
100
AcDbEntity
  8
0
100
AcDbLine
 10
620.4264661774304
 20
716.1130849784474
 30
0.0
 11
620.4264661774295
 21
641.6130849784474
 31
0.0
  0
LINE
  5
10A0
330
2
100
AcDbEntity
  8
0
100
AcDbLine
 10
624.4264661774312
 20
716.1130849784474
 30
0.0
 11
624.4264661774304
 21
641.6130849784474
 31
0.0
  0
LINE
  5
10A1
330
2
100
AcDbEntity
  8
0
100
AcDbLine
 10
647.4224377557537
 20
716.1130849784474
 30
0.0
 11
647.4224377557528
 21
641.6130849784474
 31
0.0
  0
LINE
  5
10A2
330
2
100
AcDbEntity
  8
0
100
AcDbLine
 10
720.426466177434
 20
716.1130849784474
 30
0.0
 11
720.4264661774331
 21
641.6130849784474
 31
0.0
  0
LINE
  5
10A3
330
2
100
AcDbEntity
  8
0
100
AcDbLine
 10
716.426466177434
 20
716.1130849784474
 30
0.0
 11
716.426466177434
 21
641.6130849784474
 31
0.0
  0
LINE
  5
10A4
330
2
100
AcDbEntity
  8
0
100
AcDbLine
 10
693.4304945991105
 20
716.1130849784474
 30
0.0
 11
693.4304945991105
 21
641.6130849784474
 31
0.0
  0
LINE
  5
10A5
330
2
100
AcDbEntity
  8
0
100
AcDbLine
 10
802.7628433930411
 20
685.1130849774051
 30
0.0
 11
815.8364661774339
 21
685.1130849784474
 31
0.0
  0
LINE
  5
10A6
330
2
100
AcDbEntity
  8
0
100
AcDbLine
 10
114.8624671243004
 20
371.148771060032
 30
0.0
 11
104.8624671243004
 21
371.148771060032
 31
0.0
  0
ARC
  5
10A7
330
2
100
AcDbEntity
  8
0
100
AcDbCircle
 10
114.8624671243004
 20
373.148771060032
 30
0.0
 40
2.0
100
AcDbArc
 50
270.0
 51
0.0
  0
LINE
  5
10A8
330
2
100
AcDbEntity
  8
0
100
AcDbLine
 10
104.8624671243004
 20
454.148771060032
 30
0.0
 11
114.8624671243004
 21
454.148771060032
 31
0.0
  0
ARC
  5
10A9
330
2
100
AcDbEntity
  8
0
100
AcDbCircle
 10
114.8624671243004
 20
452.148771060032
 30
0.0
 40
2.0
100
AcDbArc
 50
0.0
 51
90.0
  0
LINE
  5
10AA
330
2
100
AcDbEntity
  8
0
100
AcDbLine
 10
805.836466177431
 20
454.1487710600338
 30
0.0
 11
815.836466177431
 21
454.1487710600338
 31
0.0
  0
ARC
  5
10AB
330
2
100
AcDbEntity
  8
0
100
AcDbCircle
 10
805.836466177431
 20
452.1487710600339
 30
0.0
 40
2.0
100
AcDbArc
 50
90.0
 51
180.0
  0
LINE
  5
10AC
330
2
100
AcDbEntity
  8
0
100
AcDbLine
 10
815.836466177431
 20
371.1487710600338
 30
0.0
 11
805.836466177431
 21
371.1487710600338
 31
0.0
  0
ARC
  5
10AD
330
2
100
AcDbEntity
  8
0
100
AcDbCircle
 10
805.836466177431
 20
373.1487710600339
 30
0.0
 40
2.0
100
AcDbArc
 50
180.0
 51
270.0
  0
LINE
  5
10AE
330
2
100
AcDbEntity
  8
CENTER
100
AcDbLine
 10
453.8032574888392
 20
342.9236673954413
 30
0.0
 11
453.8032574888401
 21
482.3738747246248
 31
0.0
  0
LINE
  5
10AF
330
2
100
AcDbEntity
  8
CENTER
100
AcDbLine
 10
363.3032574888396
 20
412.6487710600338
 30
0.0
 11
540.8032574888401
 21
412.6487710600338
 31
0.0
  0
LINE
  5
10B0
330
2
100
AcDbEntity
  8
0
100
AcDbLine
 10
422.3032574888474
 20
472.6487710600339
 30
0.0
 11
498.8032574888383
 21
471.9811656740401
 31
0.0
  0
LINE
  5
10B1
330
2
100
AcDbEntity
  8
0
100
AcDbLine
 10
422.3032574888419
 20
352.648771060032
 30
0.0
 11
498.8032574888401
 21
353.3163764460258
 31
0.0
  0
LINE
  5
10B2
330
2
100
AcDbEntity
  8
0
100
AcDbLine
 10
498.8032574888401
 20
353.3163764460258
 30
0.0
 11
498.8032574888383
 21
471.9811656740401
 31
0.0
  0
LINE
  5
10B3
330
2
100
AcDbEntity
  8
0
100
AcDbLine
 10
503.8032574888392
 20
357.648771060032
 30
0.0
 11
503.8032574888392
 21
467.648771060032
 31
0.0
  0
LINE
  5
10B4
330
2
100
AcDbEntity
  8
0
100
AcDbLine
 10
503.8032574888392
 20
357.648771060032
 30
0.0
 11
498.8032574888392
 21
357.648771060032
 31
0.0
  0
LINE
  5
10B5
330
2
100
AcDbEntity
  8
0
100
AcDbLine
 10
503.8032574888392
 20
467.648771060032
 30
0.0
 11
498.8032574888392
 21
467.648771060032
 31
0.0
  0
LINE
  5
10B6
330
2
100
AcDbEntity
  8
0
100
AcDbLine
 10
517.8032574888401
 20
374.5801486096477
 30
0.0
 11
517.8032574888401
 21
450.71739351042
 31
0.0
  0
ARC
  5
10B7
330
2
100
AcDbEntity
  8
0
100
AcDbCircle
 10
515.8032574888401
 20
450.71739351042
 30
0.0
 40
2.0
100
AcDbArc
 50
0.0
 51
87.99999999999636
  0
ARC
  5
10B8
330
2
100
AcDbEntity
  8
0
100
AcDbCircle
 10
515.8032574888401
 20
374.5801486096477
 30
0.0
 40
2.0
100
AcDbArc
 50
272.0000000000036
 51
0.0
  0
LINE
  5
10B9
330
2
100
AcDbEntity
  8
0
100
AcDbLine
 10
505.7334584954349
 20
372.2272843915741
 30
0.0
 11
515.8730564822453
 21
372.5813669556099
 31
0.0
  0
ARC
  5
10BA
330
2
100
AcDbEntity
  8
0
100
AcDbCircle
 10
505.8032574888392
 20
370.2285027375363
 30
0.0
 40
2.0
100
AcDbArc
 50
92.00000000000365
 51
180.0
  0
LINE
  5
10BB
330
2
100
AcDbEntity
  8
0
100
AcDbLine
 10
505.7334584954349
 20
453.0702577284953
 30
0.0
 11
515.8730564822453
 21
452.7161751644579
 31
0.0
  0
ARC
  5
10BC
330
2
100
AcDbEntity
  8
0
100
AcDbCircle
 10
505.8032574888392
 20
455.0690393825332
 30
0.0
 40
2.0
100
AcDbArc
 50
180.0
 51
267.9999999999963
  0
LINE
  5
10BD
330
2
100
AcDbEntity
  8
0
100
AcDbLine
 10
773.9264661774313
 20
716.6130849832787
 30
0.0
 11
774.2013625131439
 21
685.1130849832786
 31
0.0
  0
ARC
  5
10BE
330
2
100
AcDbEntity
  8
0
100
AcDbCircle
 10
776.9265804126306
 20
716.6130849784474
 30
0.0
 40
3.0
100
AcDbArc
 50
180.5000000005908
 51
270.0
  0
ARC
  5
10BF
330
2
100
AcDbEntity
  8
0
100
AcDbCircle
 10
778.9528371728037
 20
713.6130849784474
 30
0.0
 40
5.0
100
AcDbArc
 50
180.5000000005908
 51
270.0
  0
ARC
  5
10C0
330
2
100
AcDbEntity
  8
0
100
AcDbCircle
 10
777.1534789754412
 20
690.6130849784474
 30
0.0
 40
3.0
100
AcDbArc
 50
180.5000000005908
 51
270.0
  0
LINE
  5
10C1
330
2
100
AcDbEntity
  8
0
100
AcDbLine
 10
773.8434086227762
 20
644.0956319122829
 30
0.0
 11
774.2013625128219
 21
685.1130849832786
 31
0.0
  0
ARC
  5
10C2
330
2
100
AcDbEntity
  8
0
100
AcDbCircle
 10
776.9265804125415
 20
653.6130849784474
 30
0.0
 40
3.0
100
AcDbArc
 50
90.0
 51
179.5000000000344
  0
ARC
  5
10C3
330
2
100
AcDbEntity
  8
0
100
AcDbCircle
 10
778.9528371726836
 20
656.6130849784474
 30
0.0
 40
5.0
100
AcDbArc
 50
90.0
 51
179.5000000000344
  0
ARC
  5
10C4
330
2
100
AcDbEntity
  8
0
100
AcDbCircle
 10
777.1534789750902
 20
679.6130849784474
 30
0.0
 40
3.0
100
AcDbArc
 50
90.0
 51
179.5000000000344
  0
LINE
  5
10C5
330
2
100
AcDbEntity
  8
0
100
AcDbLine
 10
730.422102743544
 20
716.6130849838134
 30
0.0
 11
729.7544973575476
 21
640.1130849832805
 31
0.0
  0
ARC
  5
10C6
330
2
100
AcDbEntity
  8
0
100
AcDbCircle
 10
731.2589179090208
 20
640.6130849832805
 30
0.0
 40
1.5
100
AcDbArc
 50
90.0
 51
179.5000000000344
  0
LINE
  5
10C7
330
2
100
AcDbEntity
  8
0
100
AcDbLine
 10
497.8032574888392
 20
462.6487710600338
 30
0.0
 11
422.3032574888474
 21
462.6487710600338
 31
0.0
  0
LINE
  5
10C8
330
2
100
AcDbEntity
  8
0
100
AcDbLine
 10
497.8032574888392
 20
458.6487710600302
 30
0.0
 11
422.3032574888474
 21
458.6487710600302
 31
0.0
  0
LINE
  5
10C9
330
2
100
AcDbEntity
  8
0
100
AcDbLine
 10
497.8032574888392
 20
435.6527994817041
 30
0.0
 11
422.3032574888455
 21
435.6527994817041
 31
0.0
  0
LINE
  5
10CA
330
2
100
AcDbEntity
  8
0
100
AcDbLine
 10
497.8032574888401
 20
362.6487710600339
 30
0.0
 11
422.3032574888474
 21
362.6487710600339
 31
0.0
  0
LINE
  5
10CB
330
2
100
AcDbEntity
  8
0
100
AcDbLine
 10
497.8032574888401
 20
366.6487710600375
 30
0.0
 11
422.3032574888474
 21
366.6487710600375
 31
0.0
  0
LINE
  5
10CC
330
2
100
AcDbEntity
  8
0
100
AcDbLine
 10
497.8032574888392
 20
389.6447426383636
 30
0.0
 11
422.3032574888455
 21
389.6447426383636
 31
0.0
  0
ARC
  5
10CD
330
2
100
AcDbEntity
  8
0
100
AcDbCircle
 10
738.3986669330414
 20
361.6487710600302
 30
0.0
 40
8.0
100
AcDbArc
 50
90.0
 51
176.8152614633251
  0
CIRCLE
  5
10CE
330
2
100
AcDbEntity
  8
HOJO
100
AcDbCircle
 10
303.2724671242793
 20
448.1487710600302
 30
0.0
 40
2.5
  0
LINE
  5
10CF
330
2
100
AcDbEntity
  8
CENTER
100
AcDbLine
 10
311.0224671242793
 20
462.648771060032
 30
0.0
 11
289.5224671242793
 21
462.6487710600302
 31
0.0
  0
CIRCLE
  5
10D0
330
2
100
AcDbEntity
  8
HOJO
100
AcDbCircle
 10
303.2724671242793
 20
377.148771060032
 30
0.0
 40
2.5
  0
LINE
  5
10D1
330
2
100
AcDbEntity
  8
CENTER
100
AcDbLine
 10
177.272467124283
 20
450.148771060032
 30
0.0
 11
161.272467124283
 21
450.1487710600302
 31
0.0
  0
LINE
  5
10D2
330
2
100
AcDbEntity
  8
CENTER
100
AcDbLine
 10
169.272467124283
 20
458.148771060032
 30
0.0
 11
169.272467124283
 21
442.148771060032
 31
0.0
  0
LINE
  5
10D3
330
2
100
AcDbEntity
  8
CENTER
100
AcDbLine
 10
154.7724671242812
 20
458.3987710600302
 30
0.0
 11
154.772467124283
 21
436.8987710600302
 31
0.0
  0
LINE
  5
10D4
330
2
100
AcDbEntity
  8
CENTER
100
AcDbLine
 10
165.522467124283
 20
447.648771060032
 30
0.0
 11
144.022467124283
 21
447.6487710600302
 31
0.0
  0
CIRCLE
  5
10D5
330
2
100
AcDbEntity
  8
HOJO
100
AcDbCircle
 10
169.272467124283
 20
450.148771060032
 30
0.0
 40
2.5
  0
CIRCLE
  5
10D6
330
2
100
AcDbEntity
  8
HOJO
100
AcDbCircle
 10
169.272467124283
 20
375.1487710600302
 30
0.0
 40
2.5
  0
LINE
  5
10D7
330
2
100
AcDbEntity
  8
0
100
AcDbLine
 10
281.272467124283
 20
364.648771060032
 30
0.0
 11
219.272467124283
 21
364.6487710600302
 31
0.0
  0
LINE
  5
10D8
330
2
100
AcDbEntity
  8
0
100
AcDbLine
 10
281.272467124283
 20
460.6487710600302
 30
0.0
 11
219.272467124283
 21
460.6487710600302
 31
0.0
  0
CIRCLE
  5
10D9
330
2
100
AcDbEntity
  8
0
100
AcDbCircle
 10
250.272467124283
 20
412.6487710600302
 30
0.0
 40
39.99999999999994
  0
CIRCLE
  5
10DA
330
2
100
AcDbEntity
  8
0
100
AcDbCircle
 10
250.272467124283
 20
412.6487710600302
 30
0.0
 40
39.49999999999994
  0
CIRCLE
  5
10DB
330
2
100
AcDbEntity
  8
0
100
AcDbCircle
 10
250.272467124283
 20
412.6487710600302
 30
0.0
 40
37.49999999999994
  0
LINE
  5
10DC
330
2
100
AcDbEntity
  8
0
100
AcDbLine
 10
281.272467124283
 20
366.648771060032
 30
0.0
 11
219.272467124283
 21
366.6487710600302
 31
0.0
  0
ARC
  5
10DD
330
2
100
AcDbEntity
  8
0
100
AcDbCircle
 10
250.2724671242821
 20
222.6487710600302
 30
0.0
 40
250.0
100
AcDbArc
 50
84.72039671760322
 51
95.27960328239677
  0
ARC
  5
10DE
330
2
100
AcDbEntity
  8
0
100
AcDbCircle
 10
250.2724671242821
 20
602.6487710600301
 30
0.0
 40
250.0
100
AcDbArc
 50
264.7203967176031
 51
275.2796032823967
  0
LINE
  5
10DF
330
2
100
AcDbEntity
  8
0
100
AcDbLine
 10
281.272467124283
 20
458.6487710600302
 30
0.0
 11
219.272467124283
 21
458.6487710600302
 31
0.0
  0
CIRCLE
  5
10E0
330
2
100
AcDbEntity
  8
0
100
AcDbCircle
 10
250.2724671242821
 20
412.6487710600302
 30
0.0
 40
32.5
  0
LINE
  5
10E1
330
2
100
AcDbEntity
  8
0
100
AcDbLine
 10
298.272467124283
 20
443.6487710600302
 30
0.0
 11
298.272467124282
 21
381.648771060032
 31
0.0
  0
ARC
  5
10E2
330
2
100
AcDbEntity
  8
0
100
AcDbCircle
 10
60.27246712428302
 20
412.6487710600302
 30
0.0
 40
250.0
100
AcDbArc
 50
354.7203967175509
 51
5.279603282448266
  0
LINE
  5
10E3
330
2
100
AcDbEntity
  8
0
100
AcDbLine
 10
296.272467124283
 20
443.6487710600302
 30
0.0
 11
296.2724671242821
 21
381.648771060032
 31
0.0
  0
ARC
  5
10E4
330
2
100
AcDbEntity
  8
0
100
AcDbCircle
 10
300.2724671242812
 20
462.648771060032
 30
0.0
 40
10.0
100
AcDbArc
 50
0.0
 51
90.0
  0
CIRCLE
  5
10E5
330
2
100
AcDbEntity
  8
0
100
AcDbCircle
 10
303.2724671242793
 20
448.1487710600302
 30
0.0
 40
4.0
  0
CIRCLE
  5
10E6
330
2
100
AcDbEntity
  8
0
100
AcDbCircle
 10
303.2724671242793
 20
448.1487710600302
 30
0.0
 40
3.5
  0
CIRCLE
  5
10E7
330
2
100
AcDbEntity
  8
0
100
AcDbCircle
 10
303.2724671242793
 20
448.1487710600302
 30
0.0
 40
2.0
  0
LINE
  5
10E8
330
2
100
AcDbEntity
  8
0
100
AcDbLine
 10
300.2724671242793
 20
454.148771060032
 30
0.0
 11
307.38283172344
 21
454.148771060032
 31
0.0
  0
ARC
  5
10E9
330
2
100
AcDbEntity
  8
0
100
AcDbCircle
 10
307.38283172344
 20
452.148771060032
 30
0.0
 40
2.0
100
AcDbArc
 50
353.604056903697
 51
90.0
  0
ARC
  5
10EA
330
2
100
AcDbEntity
  8
0
100
AcDbCircle
 10
388.872448092199
 20
443.0140885766394
 30
0.0
 40
80.0
100
AcDbArc
 50
169.7661103968419
 51
185.2796032824482
  0
LINE
  5
10EB
330
2
100
AcDbEntity
  8
0
100
AcDbLine
 10
310.2724671242812
 20
462.6487710600302
 30
0.0
 11
310.2724671242812
 21
458.6487710600265
 31
0.0
  0
ARC
  5
10EC
330
2
100
AcDbEntity
  8
0
100
AcDbCircle
 10
302.2724671242812
 20
458.6487710600265
 30
0.0
 40
8.0
100
AcDbArc
 50
349.7661103968419
 51
0.0
  0
ARC
  5
10ED
330
2
100
AcDbEntity
  8
0
100
AcDbCircle
 10
281.272467124283
 20
443.6487710600302
 30
0.0
 40
17.0
100
AcDbArc
 50
0.0
 51
90.0
  0
ARC
  5
10EE
330
2
100
AcDbEntity
  8
0
100
AcDbCircle
 10
281.272467124283
 20
443.6487710600302
 30
0.0
 40
15.0
100
AcDbArc
 50
0.0
 51
90.0
  0
ARC
  5
10EF
330
2
100
AcDbEntity
  8
0
100
AcDbCircle
 10
300.2724671242793
 20
462.648771060032
 30
0.0
 40
8.5
100
AcDbArc
 50
180.0
 51
270.0
  0
ARC
  5
10F0
330
2
100
AcDbEntity
  8
0
100
AcDbCircle
 10
280.6377846408921
 20
551.248752027948
 30
0.0
 40
80.0
100
AcDbArc
 50
264.7203967176031
 51
280.2338896031299
  0
LINE
  5
10F1
330
2
100
AcDbEntity
  8
0
100
AcDbLine
 10
291.7724671242794
 20
462.6487710600302
 30
0.0
 11
291.7724671242794
 21
469.7591356591872
 31
0.0
  0
LINE
  5
10F2
330
2
100
AcDbEntity
  8
0
100
AcDbLine
 10
300.272467124283
 20
472.6487710600302
 30
0.0
 11
296.2724671242794
 21
472.6487710600302
 31
0.0
  0
ARC
  5
10F3
330
2
100
AcDbEntity
  8
0
100
AcDbCircle
 10
289.7724671242793
 20
469.7591356591872
 30
0.0
 40
2.0
100
AcDbArc
 50
0.0
 51
96.39594309627756
  0
ARC
  5
10F4
330
2
100
AcDbEntity
  8
0
100
AcDbCircle
 10
296.2724671242794
 20
464.6487710600302
 30
0.0
 40
8.0
100
AcDbArc
 50
90.0
 51
100.2338896031299
  0
ARC
  5
10F5
330
2
100
AcDbEntity
  8
0
100
AcDbCircle
 10
388.872448092199
 20
382.2834535434192
 30
0.0
 40
80.0
100
AcDbArc
 50
174.7203967175517
 51
190.233889603158
  0
ARC
  5
10F6
330
2
100
AcDbEntity
  8
0
100
AcDbCircle
 10
300.272467124283
 20
362.6487710600302
 30
0.0
 40
10.0
100
AcDbArc
 50
270.0
 51
0.0
  0
CIRCLE
  5
10F7
330
2
100
AcDbEntity
  8
0
100
AcDbCircle
 10
303.2724671242793
 20
377.148771060032
 30
0.0
 40
2.0
  0
CIRCLE
  5
10F8
330
2
100
AcDbEntity
  8
0
100
AcDbCircle
 10
303.2724671242793
 20
377.148771060032
 30
0.0
 40
3.5
  0
CIRCLE
  5
10F9
330
2
100
AcDbEntity
  8
0
100
AcDbCircle
 10
303.2724671242793
 20
377.148771060032
 30
0.0
 40
4.0
  0
LINE
  5
10FA
330
2
100
AcDbEntity
  8
0
100
AcDbLine
 10
300.2724671242793
 20
371.1487710600302
 30
0.0
 11
307.3828317234391
 21
371.1487710600302
 31
0.0
  0
ARC
  5
10FB
330
2
100
AcDbEntity
  8
0
100
AcDbCircle
 10
307.3828317234391
 20
373.1487710600302
 30
0.0
 40
2.0
100
AcDbArc
 50
270.0
 51
6.395943096302968
  0
ARC
  5
10FC
330
2
100
AcDbEntity
  8
0
100
AcDbCircle
 10
302.2724671242812
 20
366.6487710600339
 30
0.0
 40
8.0
100
AcDbArc
 50
0.0
 51
10.23388960315803
  0
LINE
  5
10FD
330
2
100
AcDbEntity
  8
0
100
AcDbLine
 10
310.2724671242812
 20
362.6487710600302
 30
0.0
 11
310.2724671242812
 21
366.6487710600339
 31
0.0
  0
LINE
  5
10FE
330
2
100
AcDbEntity
  8
0
100
AcDbLine
 10
291.7724671242794
 20
362.648771060032
 30
0.0
 11
291.7724671242794
 21
355.5384064608732
 31
0.0
  0
ARC
  5
10FF
330
2
100
AcDbEntity
  8
0
100
AcDbCircle
 10
281.2724671242821
 20
381.648771060032
 30
0.0
 40
17.0
100
AcDbArc
 50
270.0
 51
0.0
  0
ARC
  5
1100
330
2
100
AcDbEntity
  8
0
100
AcDbCircle
 10
281.2724671242821
 20
381.648771060032
 30
0.0
 40
15.0
100
AcDbArc
 50
270.0
 51
0.0
  0
ARC
  5
1101
330
2
100
AcDbEntity
  8
0
100
AcDbCircle
 10
300.2724671242793
 20
362.6487710600302
 30
0.0
 40
8.5
100
AcDbArc
 50
90.0
 51
180.0
  0
ARC
  5
1102
330
2
100
AcDbEntity
  8
0
100
AcDbCircle
 10
280.6377846408921
 20
274.0487900921123
 30
0.0
 40
80.0
100
AcDbArc
 50
79.76611039687009
 51
95.27960328239677
  0
LINE
  5
1103
330
2
100
AcDbEntity
  8
0
100
AcDbLine
 10
300.272467124283
 20
352.6487710600302
 30
0.0
 11
296.2724671242794
 21
352.6487710600302
 31
0.0
  0
ARC
  5
1104
330
2
100
AcDbEntity
  8
0
100
AcDbCircle
 10
289.7724671242793
 20
355.5384064608732
 30
0.0
 40
2.0
100
AcDbArc
 50
263.6040569037224
 51
0.0
  0
ARC
  5
1105
330
2
100
AcDbEntity
  8
0
100
AcDbCircle
 10
296.2724671242794
 20
360.6487710600302
 30
0.0
 40
8.0
100
AcDbArc
 50
259.76611039687
 51
270.0
  0
LINE
  5
1106
330
2
100
AcDbEntity
  8
0
100
AcDbLine
 10
202.272467124283
 20
443.6487710600302
 30
0.0
 11
202.2724671242821
 21
381.6487710600302
 31
0.0
  0
LINE
  5
1107
330
2
100
AcDbEntity
  8
0
100
AcDbLine
 10
204.272467124283
 20
443.6487710600302
 30
0.0
 11
204.2724671242821
 21
381.6487710600302
 31
0.0
  0
LINE
  5
1108
330
2
100
AcDbEntity
  8
0
100
AcDbLine
 10
190.2724671242703
 20
462.6487710600302
 30
0.0
 11
190.2724671242811
 21
362.6487710600302
 31
0.0
  0
LINE
  5
1109
330
2
100
AcDbEntity
  8
0
100
AcDbLine
 10
146.7724671242812
 20
447.6487710600302
 30
0.0
 11
146.7724671242812
 21
377.6487710600302
 31
0.0
  0
ARC
  5
110A
330
2
100
AcDbEntity
  8
0
100
AcDbCircle
 10
219.272467124283
 20
443.6487710600302
 30
0.0
 40
17.0
100
AcDbArc
 50
90.0
 51
180.0
  0
ARC
  5
110B
330
2
100
AcDbEntity
  8
0
100
AcDbCircle
 10
219.272467124283
 20
443.6487710600302
 30
0.0
 40
15.0
100
AcDbArc
 50
90.0
 51
180.0
  0
ARC
  5
110C
330
2
100
AcDbEntity
  8
0
100
AcDbCircle
 10
219.907149607672
 20
551.248752027948
 30
0.0
 40
80.0
100
AcDbArc
 50
259.76611039687
 51
275.2796032823967
  0
LINE
  5
110D
330
2
100
AcDbEntity
  8
0
100
AcDbLine
 10
154.7724671242812
 20
455.6487710600302
 30
0.0
 11
182.3002663686582
 21
455.6487710600302
 31
0.0
  0
ARC
  5
110E
330
2
100
AcDbEntity
  8
0
100
AcDbCircle
 10
182.3002663686582
 20
463.6487710600302
 30
0.0
 40
8.0
100
AcDbArc
 50
270.0
 51
356.8152614632215
  0
ARC
  5
110F
330
2
100
AcDbEntity
  8
0
100
AcDbCircle
 10
200.2724671242702
 20
462.6487710600302
 30
0.0
 40
10.0
100
AcDbArc
 50
90.0
 51
180.0
  0
ARC
  5
1110
330
2
100
AcDbEntity
  8
0
100
AcDbCircle
 10
204.2724671242857
 20
464.6487710600302
 30
0.0
 40
8.0
100
AcDbArc
 50
79.76611039687009
 51
90.0
  0
LINE
  5
1111
330
2
100
AcDbEntity
  8
0
100
AcDbLine
 10
200.2724671242812
 20
472.6487710600302
 30
0.0
 11
204.2724671242848
 21
472.6487710600302
 31
0.0
  0
CIRCLE
  5
1112
330
2
100
AcDbEntity
  8
0
100
AcDbCircle
 10
169.272467124283
 20
450.1487710600302
 30
0.0
 40
3.5
  0
CIRCLE
  5
1113
330
2
100
AcDbEntity
  8
0
100
AcDbCircle
 10
169.272467124283
 20
450.1487710600302
 30
0.0
 40
4.0
  0
ARC
  5
1114
330
2
100
AcDbEntity
  8
0
100
AcDbCircle
 10
154.7724671242812
 20
447.6487710600302
 30
0.0
 40
8.0
100
AcDbArc
 50
90.0
 51
180.0
  0
LINE
  5
1115
330
2
100
AcDbEntity
  8
0
100
AcDbLine
 10
163.2724671242884
 20
447.6487710600266
 30
0.0
 11
163.2724671242921
 21
453.648771060032
 31
0.0
  0
ARC
  5
1116
330
2
100
AcDbEntity
  8
0
100
AcDbCircle
 10
154.7724671242884
 20
447.6487710600302
 30
0.0
 40
8.5
100
AcDbArc
 50
269.9999999999478
 51
359.9999999998958
  0
CIRCLE
  5
1117
330
2
100
AcDbEntity
  8
0
100
AcDbCircle
 10
169.272467124283
 20
450.1487710600302
 30
0.0
 40
2.0
  0
LINE
  5
1118
330
2
100
AcDbEntity
  8
0
100
AcDbLine
 10
154.772467124283
 20
439.1487710600302
 30
0.0
 11
148.772467124283
 21
439.1487710600339
 31
0.0
  0
ARC
  5
1119
330
2
100
AcDbEntity
  8
0
100
AcDbCircle
 10
219.272467124282
 20
381.6487710600302
 30
0.0
 40
17.0
100
AcDbArc
 50
180.0
 51
270.0
  0
ARC
  5
111A
330
2
100
AcDbEntity
  8
0
100
AcDbCircle
 10
219.272467124282
 20
381.6487710600302
 30
0.0
 40
15.0
100
AcDbArc
 50
180.0
 51
270.0
  0
ARC
  5
111B
330
2
100
AcDbEntity
  8
0
100
AcDbCircle
 10
219.907149607672
 20
274.0487900921123
 30
0.0
 40
80.0
100
AcDbArc
 50
84.72039671760322
 51
100.2338896031299
  0
ARC
  5
111C
330
2
100
AcDbEntity
  8
0
100
AcDbCircle
 10
154.7724671242884
 20
377.6487710600302
 30
0.0
 40
8.5
100
AcDbArc
 50
0.0
 51
90.00000000002605
  0
LINE
  5
111D
330
2
100
AcDbEntity
  8
0
100
AcDbLine
 10
154.772467124283
 20
386.1487710600302
 30
0.0
 11
148.772467124283
 21
386.1487710600284
 31
0.0
  0
LINE
  5
111E
330
2
100
AcDbEntity
  8
0
100
AcDbLine
 10
154.7724671242812
 20
369.6487710600302
 30
0.0
 11
182.3002663686701
 21
369.6487710600302
 31
0.0
  0
ARC
  5
111F
330
2
100
AcDbEntity
  8
0
100
AcDbCircle
 10
200.2724671242812
 20
362.648771060032
 30
0.0
 40
10.0
100
AcDbArc
 50
180.0
 51
270.0
  0
ARC
  5
1120
330
2
100
AcDbEntity
  8
0
100
AcDbCircle
 10
182.3002663686701
 20
361.6487710600302
 30
0.0
 40
8.0
100
AcDbArc
 50
3.184738536778398
 51
90.0
  0
ARC
  5
1121
330
2
100
AcDbEntity
  8
0
100
AcDbCircle
 10
204.2724671242848
 20
360.6487710600302
 30
0.0
 40
8.0
100
AcDbArc
 50
270.0
 51
280.2338896031299
  0
LINE
  5
1122
330
2
100
AcDbEntity
  8
0
100
AcDbLine
 10
200.2724671242812
 20
352.6487710600302
 30
0.0
 11
204.2724671242848
 21
352.6487710600302
 31
0.0
  0
CIRCLE
  5
1123
330
2
100
AcDbEntity
  8
0
100
AcDbCircle
 10
169.272467124283
 20
375.1487710600302
 30
0.0
 40
4.0
  0
LINE
  5
1124
330
2
100
AcDbEntity
  8
0
100
AcDbLine
 10
163.2724671242884
 20
377.6487710600357
 30
0.0
 11
163.2724671242921
 21
371.6487710600302
 31
0.0
  0
CIRCLE
  5
1125
330
2
100
AcDbEntity
  8
0
100
AcDbCircle
 10
169.272467124283
 20
375.1487710600302
 30
0.0
 40
3.5
  0
CIRCLE
  5
1126
330
2
100
AcDbEntity
  8
0
100
AcDbCircle
 10
169.272467124283
 20
375.1487710600302
 30
0.0
 40
2.0
  0
ARC
  5
1127
330
2
100
AcDbEntity
  8
0
100
AcDbCircle
 10
154.7724671242812
 20
377.6487710600302
 30
0.0
 40
8.0
100
AcDbArc
 50
180.0
 51
270.0
  0
CIRCLE
  5
1128
330
2
100
AcDbEntity
  8
0
100
AcDbCircle
 10
250.272467124283
 20
412.6487710600302
 30
0.0
 40
33.07735
  0
CIRCLE
  5
1129
330
2
100
AcDbEntity
  8
0
100
AcDbCircle
 10
250.272467124283
 20
412.6487710600302
 30
0.0
 40
36.92264999999999
  0
ARC
  5
112A
330
2
100
AcDbEntity
  8
0
100
AcDbCircle
 10
165.2724671242921
 20
453.6487710600302
 30
0.0
 40
2.0
100
AcDbArc
 50
90.0
 51
179.9999999998957
  0
ARC
  5
112B
330
2
100
AcDbEntity
  8
0
100
AcDbCircle
 10
148.7724671242812
 20
437.1487710600338
 30
0.0
 40
2.0
100
AcDbArc
 50
89.99999999994789
 51
180.0
  0
ARC
  5
112C
330
2
100
AcDbEntity
  8
0
100
AcDbCircle
 10
148.7724671242812
 20
388.1487710600284
 30
0.0
 40
2.0
100
AcDbArc
 50
180.0
 51
270.000000000026
  0
ARC
  5
112D
330
2
100
AcDbEntity
  8
0
100
AcDbCircle
 10
165.2724671242921
 20
371.6487710600302
 30
0.0
 40
2.0
100
AcDbArc
 50
180.0
 51
270.0
  0
LINE
  5
112E
330
2
100
AcDbEntity
  8
CENTER
100
AcDbLine
 10
300.2724671242793
 20
451.898771060032
 30
0.0
 11
300.2724671242812
 21
473.398771060032
 31
0.0
  0
LINE
  5
112F
330
2
100
AcDbEntity
  8
0
100
AcDbLine
 10
208.6658654064839
 20
371.042169342232
 30
0.0
 11
207.2516518441115
 21
369.6279557798587
 31
0.0
  0
LINE
  5
1130
330
2
100
AcDbEntity
  8
0
100
AcDbLine
 10
293.2932824044536
 20
369.6279557798605
 30
0.0
 11
291.8790688420802
 21
371.0421693422338
 31
0.0
  0
LINE
  5
1131
330
2
100
AcDbEntity
  8
0
100
AcDbLine
 10
293.2932824044536
 20
455.6695863402017
 30
0.0
 11
291.8790688420812
 21
454.2553727778284
 31
0.0
  0
LINE
  5
1132
330
2
100
AcDbEntity
  8
0
100
AcDbLine
 10
208.6658654064848
 20
454.2553727778284
 30
0.0
 11
207.2516518441115
 21
455.6695863402017
 31
0.0
  0
LINE
  5
1133
330
2
100
AcDbEntity
  8
CENTER
100
AcDbLine
 10
311.0224671242793
 20
362.648771060032
 30
0.0
 11
289.5224671242793
 21
362.6487710600339
 31
0.0
  0
LINE
  5
1134
330
2
100
AcDbEntity
  8
CENTER
100
AcDbLine
 10
177.272467124283
 20
375.1487710600339
 30
0.0
 11
161.272467124283
 21
375.1487710600339
 31
0.0
  0
LINE
  5
1135
330
2
100
AcDbEntity
  8
CENTER
100
AcDbLine
 10
169.272467124283
 20
367.1487710600338
 30
0.0
 11
169.272467124283
 21
383.1487710600338
 31
0.0
  0
LINE
  5
1136
330
2
100
AcDbEntity
  8
CENTER
100
AcDbLine
 10
154.7724671242812
 20
366.8987710600339
 30
0.0
 11
154.772467124283
 21
388.3987710600338
 31
0.0
  0
LINE
  5
1137
330
2
100
AcDbEntity
  8
CENTER
100
AcDbLine
 10
165.522467124283
 20
377.6487710600338
 30
0.0
 11
144.022467124283
 21
377.6487710600338
 31
0.0
  0
LINE
  5
1138
330
2
100
AcDbEntity
  8
CENTER
100
AcDbLine
 10
300.2724671242793
 20
373.398771060032
 30
0.0
 11
300.2724671242812
 21
351.898771060032
 31
0.0
  0
CIRCLE
  5
1139
330
2
100
AcDbEntity
  8
0
100
AcDbCircle
 10
154.772467124283
 20
447.6487710600302
 30
0.0
 40
5.63397459621558
  0
CIRCLE
  5
113A
330
2
100
AcDbEntity
  8
0
100
AcDbCircle
 10
154.772467124283
 20
447.6487710600302
 30
0.0
 40
6.5
  0
LINE
  5
113B
330
2
100
AcDbEntity
  8
0
100
AcDbLine
 10
157.772467124283
 20
445.916720252462
 30
0.0
 11
157.772467124283
 21
449.3808218676002
 31
0.0
  0
LINE
  5
113C
330
2
100
AcDbEntity
  8
0
100
AcDbLine
 10
151.772467124283
 20
449.3808218676002
 30
0.0
 11
151.772467124283
 21
445.916720252462
 31
0.0
  0
LINE
  5
113D
330
2
100
AcDbEntity
  8
0
100
AcDbLine
 10
154.772467124283
 20
444.1846694448939
 30
0.0
 11
157.772467124283
 21
445.916720252462
 31
0.0
  0
LINE
  5
113E
330
2
100
AcDbEntity
  8
0
100
AcDbLine
 10
151.772467124283
 20
445.916720252462
 30
0.0
 11
154.772467124283
 21
444.1846694448921
 31
0.0
  0
LINE
  5
113F
330
2
100
AcDbEntity
  8
0
100
AcDbLine
 10
151.772467124283
 20
449.3808218676002
 30
0.0
 11
154.772467124283
 21
451.1128726751683
 31
0.0
  0
LINE
  5
1140
330
2
100
AcDbEntity
  8
0
100
AcDbLine
 10
154.772467124283
 20
451.1128726751683
 30
0.0
 11
157.772467124283
 21
449.3808218676002
 31
0.0
  0
CIRCLE
  5
1141
330
2
100
AcDbEntity
  8
0
100
AcDbCircle
 10
300.2724671242793
 20
462.6487710600302
 30
0.0
 40
5.63397459621558
  0
CIRCLE
  5
1142
330
2
100
AcDbEntity
  8
0
100
AcDbCircle
 10
300.2724671242793
 20
462.6487710600302
 30
0.0
 40
6.5
  0
LINE
  5
1143
330
2
100
AcDbEntity
  8
0
100
AcDbLine
 10
303.2724671242793
 20
460.9167202524621
 30
0.0
 11
303.2724671242793
 21
464.3808218676002
 31
0.0
  0
LINE
  5
1144
330
2
100
AcDbEntity
  8
0
100
AcDbLine
 10
297.2724671242793
 20
464.3808218676002
 30
0.0
 11
297.2724671242793
 21
460.9167202524621
 31
0.0
  0
LINE
  5
1145
330
2
100
AcDbEntity
  8
0
100
AcDbLine
 10
300.2724671242793
 20
459.1846694448939
 30
0.0
 11
303.2724671242793
 21
460.9167202524621
 31
0.0
  0
LINE
  5
1146
330
2
100
AcDbEntity
  8
0
100
AcDbLine
 10
297.2724671242793
 20
460.9167202524621
 30
0.0
 11
300.2724671242793
 21
459.1846694448939
 31
0.0
  0
LINE
  5
1147
330
2
100
AcDbEntity
  8
0
100
AcDbLine
 10
297.2724671242793
 20
464.3808218676002
 30
0.0
 11
300.2724671242793
 21
466.1128726751683
 31
0.0
  0
LINE
  5
1148
330
2
100
AcDbEntity
  8
0
100
AcDbLine
 10
300.2724671242793
 20
466.1128726751683
 30
0.0
 11
303.2724671242793
 21
464.3808218676002
 31
0.0
  0
CIRCLE
  5
1149
330
2
100
AcDbEntity
  8
0
100
AcDbCircle
 10
154.772467124283
 20
377.6487710600338
 30
0.0
 40
5.63397459621558
  0
CIRCLE
  5
114A
330
2
100
AcDbEntity
  8
0
100
AcDbCircle
 10
154.772467124283
 20
377.6487710600338
 30
0.0
 40
6.5
  0
LINE
  5
114B
330
2
100
AcDbEntity
  8
0
100
AcDbLine
 10
157.772467124283
 20
375.9167202524657
 30
0.0
 11
157.772467124283
 21
379.380821867602
 31
0.0
  0
LINE
  5
114C
330
2
100
AcDbEntity
  8
0
100
AcDbLine
 10
151.772467124283
 20
379.380821867602
 30
0.0
 11
151.772467124283
 21
375.9167202524638
 31
0.0
  0
LINE
  5
114D
330
2
100
AcDbEntity
  8
0
100
AcDbLine
 10
154.772467124283
 20
374.1846694448957
 30
0.0
 11
157.772467124283
 21
375.9167202524657
 31
0.0
  0
LINE
  5
114E
330
2
100
AcDbEntity
  8
0
100
AcDbLine
 10
151.772467124283
 20
375.9167202524638
 30
0.0
 11
154.772467124283
 21
374.1846694448957
 31
0.0
  0
LINE
  5
114F
330
2
100
AcDbEntity
  8
0
100
AcDbLine
 10
151.772467124283
 20
379.380821867602
 30
0.0
 11
154.772467124283
 21
381.112872675172
 31
0.0
  0
LINE
  5
1150
330
2
100
AcDbEntity
  8
0
100
AcDbLine
 10
154.772467124283
 20
381.112872675172
 30
0.0
 11
157.772467124283
 21
379.380821867602
 31
0.0
  0
CIRCLE
  5
1151
330
2
100
AcDbEntity
  8
0
100
AcDbCircle
 10
300.2724671242793
 20
362.6487710600339
 30
0.0
 40
5.63397459621558
  0
CIRCLE
  5
1152
330
2
100
AcDbEntity
  8
0
100
AcDbCircle
 10
300.2724671242793
 20
362.6487710600339
 30
0.0
 40
6.5
  0
LINE
  5
1153
330
2
100
AcDbEntity
  8
0
100
AcDbLine
 10
303.2724671242793
 20
360.9167202524639
 30
0.0
 11
303.2724671242793
 21
364.380821867602
 31
0.0
  0
LINE
  5
1154
330
2
100
AcDbEntity
  8
0
100
AcDbLine
 10
297.2724671242793
 20
364.380821867602
 30
0.0
 11
297.2724671242793
 21
360.9167202524639
 31
0.0
  0
LINE
  5
1155
330
2
100
AcDbEntity
  8
0
100
AcDbLine
 10
300.2724671242793
 20
359.1846694448957
 30
0.0
 11
303.2724671242793
 21
360.9167202524639
 31
0.0
  0
LINE
  5
1156
330
2
100
AcDbEntity
  8
0
100
AcDbLine
 10
297.2724671242793
 20
360.9167202524639
 30
0.0
 11
300.2724671242793
 21
359.1846694448957
 31
0.0
  0
LINE
  5
1157
330
2
100
AcDbEntity
  8
0
100
AcDbLine
 10
297.2724671242793
 20
364.380821867602
 30
0.0
 11
300.2724671242793
 21
366.112872675172
 31
0.0
  0
LINE
  5
1158
330
2
100
AcDbEntity
  8
0
100
AcDbLine
 10
300.2724671242793
 20
366.112872675172
 30
0.0
 11
303.2724671242793
 21
364.380821867602
 31
0.0
  0
LINE
  5
1159
330
2
100
AcDbEntity
  8
0
100
AcDbLine
 10
405.8032574888391
 20
470.5221553202971
 30
0.0
 11
405.8032574888391
 21
469.1487710600338
 31
0.0
  0
LINE
  5
115A
330
2
100
AcDbEntity
  8
HIDS
100
AcDbLine
 10
405.8032574888391
 20
469.1487710600338
 30
0.0
 11
405.8032574888391
 21
456.1487710600339
 31
0.0
  0
LINE
  5
115B
330
2
100
AcDbEntity
  8
0
100
AcDbLine
 10
405.8032574888391
 20
456.1487710600339
 30
0.0
 11
405.8032574888391
 21
369.1487710600338
 31
0.0
  0
LINE
  5
115C
330
2
100
AcDbEntity
  8
HIDS
100
AcDbLine
 10
405.8032574888382
 20
369.1487710600338
 30
0.0
 11
405.8032574888391
 21
356.1487710600339
 31
0.0
  0
LINE
  5
115D
330
2
100
AcDbEntity
  8
0
100
AcDbLine
 10
405.8032574888391
 20
356.1487710600339
 30
0.0
 11
405.8032574888391
 21
354.7753867997724
 31
0.0
  0
ARC
  5
115E
330
2
100
AcDbEntity
  8
0
100
AcDbCircle
 10
407.8032574888392
 20
354.7753867997724
 30
0.0
 40
2.0
100
AcDbArc
 50
180.0
 51
269.5000000000345
  0
LINE
  5
115F
330
2
100
AcDbEntity
  8
0
100
AcDbLine
 10
422.3032574888419
 20
472.6487710600339
 30
0.0
 11
422.3032574888492
 21
352.6487710600338
 31
0.0
  0
LINE
  5
1160
330
2
100
AcDbEntity
  8
0
100
AcDbLine
 10
400.003257488839
 20
450.1487710600338
 30
0.0
 11
403.3032574888392
 21
450.1487710600338
 31
0.0
  0
LINE
  5
1161
330
2
100
AcDbEntity
  8
HIDS
100
AcDbLine
 10
403.8032574888392
 20
367.4771981847805
 30
0.0
 11
403.8032574888392
 21
369.1487710600338
 31
0.0
  0
LINE
  5
1162
330
2
100
AcDbEntity
  8
0
100
AcDbLine
 10
403.8032574888392
 20
369.1487710600338
 30
0.0
 11
403.8032574888392
 21
456.1487710600339
 31
0.0
  0
LINE
  5
1163
330
2
100
AcDbEntity
  8
HIDS
100
AcDbLine
 10
403.8032574888392
 20
456.1487710600339
 30
0.0
 11
403.8032574888392
 21
457.820343935289
 31
0.0
  0
LINE
  5
1164
330
2
100
AcDbEntity
  8
HIDS
100
AcDbLine
 10
405.2174710512125
 20
460.0629846224072
 30
0.0
 11
404.3890439264658
 21
459.2345574976605
 31
0.0
  0
LINE
  5
1165
330
2
100
AcDbEntity
  8
0
100
AcDbLine
 10
403.8032574888392
 20
452.6487710600338
 30
0.0
 11
403.3032574888392
 21
452.1487710600339
 31
0.0
  0
LINE
  5
1166
330
2
100
AcDbEntity
  8
0
100
AcDbLine
 10
396.3032574888383
 20
450.1487710600338
 30
0.0
 11
397.6032574888384
 21
450.1487710600338
 31
0.0
  0
LINE
  5
1167
330
2
100
AcDbEntity
  8
0
100
AcDbLine
 10
399.8032574888383
 20
449.9487710600349
 30
0.0
 11
400.003257488839
 21
450.1487710600338
 31
0.0
  0
LINE
  5
1168
330
2
100
AcDbEntity
  8
0
100
AcDbLine
 10
398.003257488839
 20
449.4487710600349
 30
0.0
 11
399.6032574888385
 21
449.4487710600349
 31
0.0
  0
LINE
  5
1169
330
2
100
AcDbEntity
  8
0
100
AcDbLine
 10
396.3032574888392
 20
450.1487710600338
 30
0.0
 11
395.3032574888382
 21
449.5714207908439
 31
0.0
  0
LINE
  5
116A
330
2
100
AcDbEntity
  8
0
100
AcDbLine
 10
422.3032574888492
 20
352.6487710600338
 30
0.0
 11
407.7858044178428
 21
352.7754629536446
 31
0.0
  0
LINE
  5
116B
330
2
100
AcDbEntity
  8
HIDS
100
AcDbLine
 10
405.2174710512125
 20
365.2345574976605
 30
0.0
 11
404.3890439264658
 21
366.0629846224072
 31
0.0
  0
LINE
  5
116C
330
2
100
AcDbEntity
  8
0
100
AcDbLine
 10
395.3032574888392
 20
449.5714207908439
 30
0.0
 11
395.3032574888392
 21
375.7261213292238
 31
0.0
  0
LINE
  5
116D
330
2
100
AcDbEntity
  8
0
100
AcDbLine
 10
400.003257488839
 20
375.1487710600339
 30
0.0
 11
403.3032574888392
 21
375.1487710600339
 31
0.0
  0
LINE
  5
116E
330
2
100
AcDbEntity
  8
0
100
AcDbLine
 10
403.3032574888392
 20
373.1487710600339
 30
0.0
 11
403.3032574888392
 21
452.1487710600339
 31
0.0
  0
LINE
  5
116F
330
2
100
AcDbEntity
  8
0
100
AcDbLine
 10
403.8032574888392
 20
372.6487710600338
 30
0.0
 11
403.3032574888392
 21
373.1487710600339
 31
0.0
  0
LINE
  5
1170
330
2
100
AcDbEntity
  8
0
100
AcDbLine
 10
396.3032574888392
 20
375.1487710600339
 30
0.0
 11
397.6032574888394
 21
375.1487710600339
 31
0.0
  0
LINE
  5
1171
330
2
100
AcDbEntity
  8
0
100
AcDbLine
 10
397.8032574888392
 20
375.3487710600346
 30
0.0
 11
397.8032574888392
 21
449.9487710600349
 31
0.0
  0
LINE
  5
1172
330
2
100
AcDbEntity
  8
0
100
AcDbLine
 10
399.8032574888392
 20
375.3487710600346
 30
0.0
 11
399.8032574888392
 21
449.9487710600349
 31
0.0
  0
LINE
  5
1173
330
2
100
AcDbEntity
  8
0
100
AcDbLine
 10
399.8032574888392
 20
375.3487710600346
 30
0.0
 11
400.003257488839
 21
375.1487710600339
 31
0.0
  0
LINE
  5
1174
330
2
100
AcDbEntity
  8
0
100
AcDbLine
 10
396.3032574888392
 20
375.1487710600339
 30
0.0
 11
395.3032574888392
 21
375.7261213292238
 31
0.0
  0
ARC
  5
1175
330
2
100
AcDbEntity
  8
HIDS
100
AcDbCircle
 10
405.8032574888391
 20
457.820343935289
 30
0.0
 40
2.0
100
AcDbArc
 50
134.9999999999812
 51
180.0
  0
ARC
  5
1176
330
2
100
AcDbEntity
  8
HIDS
100
AcDbCircle
 10
403.8032574888392
 20
461.4771981847805
 30
0.0
 40
2.0
100
AcDbArc
 50
314.9999999999812
 51
0.0
  0
ARC
  5
1177
330
2
100
AcDbEntity
  8
HIDS
100
AcDbCircle
 10
405.8032574888391
 20
367.4771981847805
 30
0.0
 40
2.0
100
AcDbArc
 50
180.0
 51
225.0000000000187
  0
ARC
  5
1178
330
2
100
AcDbEntity
  8
HIDS
100
AcDbCircle
 10
403.8032574888392
 20
363.8203439352872
 30
0.0
 40
2.0
100
AcDbArc
 50
0.0
 51
45.00000000001871
  0
ARC
  5
1179
330
2
100
AcDbEntity
  8
0
100
AcDbCircle
 10
397.6032574888394
 20
375.3487710600346
 30
0.0
 40
0.2
100
AcDbArc
 50
270.0
 51
0.0
  0
ARC
  5
117A
330
2
100
AcDbEntity
  8
0
100
AcDbCircle
 10
398.003257488839
 20
375.6487710600338
 30
0.0
 40
0.2
100
AcDbArc
 50
90.0
 51
180.0
  0
ARC
  5
117B
330
2
100
AcDbEntity
  8
0
100
AcDbCircle
 10
399.6032574888394
 20
375.6487710600338
 30
0.0
 40
0.2
100
AcDbArc
 50
0.0
 51
90.0
  0
ARC
  5
117C
330
2
100
AcDbEntity
  8
0
100
AcDbCircle
 10
397.6032574888384
 20
449.9487710600349
 30
0.0
 40
0.2
100
AcDbArc
 50
0.0
 51
90.0
  0
ARC
  5
117D
330
2
100
AcDbEntity
  8
0
100
AcDbCircle
 10
398.003257488839
 20
449.6487710600338
 30
0.0
 40
0.2
100
AcDbArc
 50
180.0
 51
270.0
  0
ARC
  5
117E
330
2
100
AcDbEntity
  8
0
100
AcDbCircle
 10
399.6032574888385
 20
449.6487710600338
 30
0.0
 40
0.2
100
AcDbArc
 50
270.0
 51
0.0
  0
LINE
  5
117F
330
2
100
AcDbEntity
  8
0
100
AcDbLine
 10
396.3032574888392
 20
375.1487710600339
 30
0.0
 11
396.3032574888392
 21
450.1487710600338
 31
0.0
  0
LINE
  5
1180
330
2
100
AcDbEntity
  8
0
100
AcDbLine
 10
400.003257488839
 20
375.1487710600339
 30
0.0
 11
400.003257488839
 21
450.1487710600338
 31
0.0
  0
LINE
  5
1181
330
2
100
AcDbEntity
  8
0
100
AcDbLine
 10
412.3032574886982
 20
370.6531154547372
 30
0.0
 11
412.3032574886982
 21
353.7273509485383
 31
0.0
  0
LINE
  5
1182
330
2
100
AcDbEntity
  8
0
100
AcDbLine
 10
411.807620756448
 20
371.1530964162719
 30
0.0
 11
407.7858044178428
 21
371.188194275737
 31
0.0
  0
ARC
  5
1183
330
2
100
AcDbEntity
  8
0
100
AcDbCircle
 10
411.8032574886982
 20
370.6531154547372
 30
0.0
 40
0.5
100
AcDbArc
 50
0.0
 51
89.5000000000345
  0
ARC
  5
1184
330
2
100
AcDbEntity
  8
0
100
AcDbCircle
 10
413.3032574886982
 20
353.7273509485383
 30
0.0
 40
1.0
100
AcDbArc
 50
180.0
 51
269.4999999999824
  0
ARC
  5
1185
330
2
100
AcDbEntity
  8
0
100
AcDbCircle
 10
407.8032574888392
 20
373.1881181218648
 30
0.0
 40
2.0
100
AcDbArc
 50
180.0
 51
269.5000000000345
  0
ARC
  5
1186
330
2
100
AcDbEntity
  8
0
100
AcDbCircle
 10
407.8032574888392
 20
470.5221553202971
 30
0.0
 40
2.0
100
AcDbArc
 50
90.49999999996549
 51
180.0
  0
LINE
  5
1187
330
2
100
AcDbEntity
  8
0
100
AcDbLine
 10
422.3032574888419
 20
472.6487710600339
 30
0.0
 11
407.7858044178428
 21
472.5220791664249
 31
0.0
  0
LINE
  5
1188
330
2
100
AcDbEntity
  8
0
100
AcDbLine
 10
412.3032574886982
 20
454.6444266653323
 30
0.0
 11
412.3032574886982
 21
471.5701911715294
 31
0.0
  0
LINE
  5
1189
330
2
100
AcDbEntity
  8
0
100
AcDbLine
 10
411.807620756448
 20
454.1444457037976
 30
0.0
 11
407.7858044178428
 21
454.1093478443307
 31
0.0
  0
ARC
  5
118A
330
2
100
AcDbEntity
  8
0
100
AcDbCircle
 10
411.8032574886982
 20
454.6444266653323
 30
0.0
 40
0.5
100
AcDbArc
 50
270.4999999999654
 51
0.0
  0
ARC
  5
118B
330
2
100
AcDbEntity
  8
0
100
AcDbCircle
 10
413.3032574886982
 20
471.5701911715294
 30
0.0
 40
1.0
100
AcDbArc
 50
90.50000000001761
 51
180.0
  0
ARC
  5
118C
330
2
100
AcDbEntity
  8
0
100
AcDbCircle
 10
407.8032574888392
 20
452.1094239982028
 30
0.0
 40
2.0
100
AcDbArc
 50
90.49999999996549
 51
180.0
  0
LINE
  5
118D
330
2
100
AcDbEntity
  8
0
100
AcDbLine
 10
402.3032574886982
 20
457.0147964638179
 30
0.0
 11
402.3032574886982
 21
468.2827456562498
 31
0.0
  0
LINE
  5
118E
330
2
100
AcDbEntity
  8
0
100
AcDbLine
 10
410.3032574886982
 20
456.1487710600339
 30
0.0
 11
410.3032574886992
 21
469.1487710600338
 31
0.0
  0
LINE
  5
118F
330
2
100
AcDbEntity
  8
0
100
AcDbLine
 10
402.8032574886982
 20
469.1487710600338
 30
0.0
 11
402.3032574886982
 21
468.2827456562498
 31
0.0
  0
LINE
  5
1190
330
2
100
AcDbEntity
  8
0
100
AcDbLine
 10
412.3032574886982
 20
469.1487710600338
 30
0.0
 11
410.3032574886982
 21
469.1487710600338
 31
0.0
  0
LINE
  5
1191
330
2
100
AcDbEntity
  8
0
100
AcDbLine
 10
410.3032574886982
 20
469.1487710600338
 30
0.0
 11
402.8032574886982
 21
469.1487710600338
 31
0.0
  0
LINE
  5
1192
330
2
100
AcDbEntity
  8
CENTER
  6
CENS
100
AcDbLine
 10
429.0631397806936
 20
462.6487710600338
 30
0.0
 11
399.3032574886982
 21
462.6487710600338
 31
0.0
  0
LINE
  5
1193
330
2
100
AcDbEntity
  8
0
100
AcDbLine
 10
402.8032574886982
 20
456.1487710600339
 30
0.0
 11
402.3032574886982
 21
457.0147964638179
 31
0.0
  0
LINE
  5
1194
330
2
100
AcDbEntity
  8
0
100
AcDbLine
 10
412.3032574886982
 20
456.1487710600339
 30
0.0
 11
410.3032574886982
 21
456.1487710600339
 31
0.0
  0
LINE
  5
1195
330
2
100
AcDbEntity
  8
0
100
AcDbLine
 10
410.3032574886982
 20
456.1487710600339
 30
0.0
 11
402.8032574886982
 21
456.1487710600339
 31
0.0
  0
LINE
  5
1196
330
2
100
AcDbEntity
  8
0
100
AcDbLine
 10
402.8032574886982
 20
456.1487710600339
 30
0.0
 11
402.8032574886982
 21
469.1487710600338
 31
0.0
  0
LINE
  5
1197
330
2
100
AcDbEntity
  8
0
100
AcDbLine
 10
413.2945309532004
 20
362.6487710600339
 30
0.0
 11
422.3032574888474
 21
362.6487710600339
 31
0.0
  0
LINE
  5
1198
330
2
100
AcDbEntity
  8
0
100
AcDbLine
 10
413.2945309532004
 20
366.6487710600375
 30
0.0
 11
422.3032574888474
 21
366.6487710600375
 31
0.0
  0
LINE
  5
1199
330
2
100
AcDbEntity
  8
0
100
AcDbLine
 10
407.7858044178428
 20
389.6447426383382
 30
0.0
 11
422.3032574888455
 21
389.6447426383382
 31
0.0
  0
LINE
  5
119A
330
2
100
AcDbEntity
  8
0
100
AcDbLine
 10
413.2945309532004
 20
462.6487710600357
 30
0.0
 11
422.3032574888474
 21
462.6487710600357
 31
0.0
  0
LINE
  5
119B
330
2
100
AcDbEntity
  8
0
100
AcDbLine
 10
413.2945309532004
 20
458.648771060032
 30
0.0
 11
422.3032574888474
 21
458.648771060032
 31
0.0
  0
LINE
  5
119C
330
2
100
AcDbEntity
  8
0
100
AcDbLine
 10
407.7858044178428
 20
435.6527994817295
 30
0.0
 11
422.3032574888455
 21
435.6527994817295
 31
0.0
  0
LINE
  5
119D
330
2
100
AcDbEntity
  8
0
100
AcDbLine
 10
402.3032574886982
 20
368.2827456562498
 30
0.0
 11
402.3032574886982
 21
357.0147964638197
 31
0.0
  0
LINE
  5
119E
330
2
100
AcDbEntity
  8
0
100
AcDbLine
 10
410.3032574886982
 20
369.1487710600338
 30
0.0
 11
410.3032574886992
 21
356.1487710600339
 31
0.0
  0
LINE
  5
119F
330
2
100
AcDbEntity
  8
0
100
AcDbLine
 10
402.8032574886982
 20
356.1487710600339
 30
0.0
 11
402.3032574886982
 21
357.0147964638197
 31
0.0
  0
LINE
  5
11A0
330
2
100
AcDbEntity
  8
0
100
AcDbLine
 10
412.3032574886982
 20
356.1487710600339
 30
0.0
 11
410.3032574886982
 21
356.1487710600339
 31
0.0
  0
LINE
  5
11A1
330
2
100
AcDbEntity
  8
0
100
AcDbLine
 10
410.3032574886982
 20
356.1487710600339
 30
0.0
 11
402.8032574886982
 21
356.1487710600339
 31
0.0
  0
LINE
  5
11A2
330
2
100
AcDbEntity
  8
CENTER
  6
CENS
100
AcDbLine
 10
429.0631397806936
 20
362.6487710600339
 30
0.0
 11
399.3032574886982
 21
362.6487710600339
 31
0.0
  0
LINE
  5
11A3
330
2
100
AcDbEntity
  8
0
100
AcDbLine
 10
412.3032574886982
 20
369.1487710600338
 30
0.0
 11
410.3032574886982
 21
369.1487710600338
 31
0.0
  0
LINE
  5
11A4
330
2
100
AcDbEntity
  8
0
100
AcDbLine
 10
410.3032574886982
 20
369.1487710600338
 30
0.0
 11
402.8032574886982
 21
369.1487710600338
 31
0.0
  0
LINE
  5
11A5
330
2
100
AcDbEntity
  8
0
100
AcDbLine
 10
402.8032574886982
 20
369.1487710600338
 30
0.0
 11
402.8032574886982
 21
356.1487710600339
 31
0.0
  0
LINE
  5
11A6
330
2
100
AcDbEntity
  8
0
100
AcDbLine
 10
402.8032574886982
 20
369.1487710600338
 30
0.0
 11
402.3032574886982
 21
368.2827456562498
 31
0.0
  0
LINE
  5
11A7
330
2
100
AcDbEntity
  8
0
100
AcDbLine
 10
728.443843756242
 20
733.1130849838244
 30
0.0
 11
626.9264661774513
 21
733.1130849838244
 31
0.0
  0
LINE
  5
11A8
330
2
100
AcDbEntity
  8
HIDS
100
AcDbLine
 10
626.9264661774513
 20
733.1130849838244
 30
0.0
 11
613.9264661774513
 21
733.1130849838244
 31
0.0
  0
LINE
  5
11A9
330
2
100
AcDbEntity
  8
0
100
AcDbLine
 10
613.9264661774513
 20
733.1130849838244
 30
0.0
 11
612.5530819171698
 21
733.1130849838244
 31
0.0
  0
ARC
  5
11AA
330
2
100
AcDbEntity
  8
0
100
AcDbCircle
 10
612.5530819171698
 20
731.1130849838243
 30
0.0
 40
2.0
100
AcDbArc
 50
90.0
 51
179.5000000000344
  0
LINE
  5
11AB
330
2
100
AcDbEntity
  8
0
100
AcDbLine
 10
773.9264661774285
 20
716.6130849843646
 30
0.0
 11
773.8259548871955
 21
728.1305380548217
 31
0.0
  0
ARC
  5
11AC
330
2
100
AcDbEntity
  8
0
100
AcDbCircle
 10
771.8260310410677
 20
728.1130849838243
 30
0.0
 40
2.0
100
AcDbArc
 50
0.4999999999654926
 51
72.52932876218868
  0
ARC
  5
11AD
330
2
100
AcDbEntity
  8
HIDS
100
AcDbCircle
 10
771.8260310410677
 20
728.1130849838243
 30
0.0
 40
2.0
100
AcDbArc
 50
72.52932876218868
 51
90.0
  0
ARC
  5
11AE
330
2
100
AcDbEntity
  8
0
100
AcDbCircle
 10
772.8478862889295
 20
725.6130849839662
 30
0.0
 40
1.0
100
AcDbArc
 50
0.4999999999654926
 51
90.0
  0
LINE
  5
11AF
330
2
100
AcDbEntity
  8
0
100
AcDbLine
 10
773.9264661774321
 20
716.6130849838244
 30
0.0
 11
610.4264661774322
 21
716.6130849838152
 31
0.0
  0
LINE
  5
11B0
330
2
100
AcDbEntity
  8
HIDS
100
AcDbLine
 10
771.8260310410677
 20
730.1130849838243
 30
0.0
 11
759.4264661774503
 21
730.1130849838243
 31
0.0
  0
LINE
  5
11B1
330
2
100
AcDbEntity
  8
0
100
AcDbLine
 10
759.4264661774503
 20
730.1130849838243
 30
0.0
 11
731.4439579913995
 21
730.1130849838243
 31
0.0
  0
LINE
  5
11B2
330
2
100
AcDbEntity
  8
0
100
AcDbLine
 10
707.9264661774321
 20
738.9130849838254
 30
0.0
 11
707.9264661774321
 21
735.6130849838243
 31
0.0
  0
LINE
  5
11B3
330
2
100
AcDbEntity
  8
HIDS
100
AcDbLine
 10
625.2548933021788
 20
735.1130849838243
 30
0.0
 11
626.9264661774504
 21
735.1130849838243
 31
0.0
  0
LINE
  5
11B4
330
2
100
AcDbEntity
  8
0
100
AcDbLine
 10
626.9264661774513
 20
735.1130849838243
 30
0.0
 11
715.5980390526864
 21
735.1130849838243
 31
0.0
  0
LINE
  5
11B5
330
2
100
AcDbEntity
  8
0
100
AcDbLine
 10
717.8406797398054
 20
733.698871421451
 30
0.0
 11
717.0122526150588
 21
734.5272985461977
 31
0.0
  0
LINE
  5
11B6
330
2
100
AcDbEntity
  8
0
100
AcDbLine
 10
710.4264661774322
 20
735.1130849838243
 30
0.0
 11
709.9264661774322
 21
735.6130849838243
 31
0.0
  0
LINE
  5
11B7
330
2
100
AcDbEntity
  8
0
100
AcDbLine
 10
707.9264661774321
 20
742.6130849838261
 30
0.0
 11
707.9264661774321
 21
741.3130849838251
 31
0.0
  0
LINE
  5
11B8
330
2
100
AcDbEntity
  8
0
100
AcDbLine
 10
707.7264661774323
 20
739.1130849838262
 30
0.0
 11
707.9264661774321
 21
738.9130849838254
 31
0.0
  0
LINE
  5
11B9
330
2
100
AcDbEntity
  8
0
100
AcDbLine
 10
707.2264661774323
 20
740.9130849838255
 30
0.0
 11
707.2264661774323
 21
739.313084983825
 31
0.0
  0
LINE
  5
11BA
330
2
100
AcDbEntity
  8
0
100
AcDbLine
 10
707.9264661774321
 20
742.6130849838243
 30
0.0
 11
707.3491159082422
 21
743.6130849838262
 31
0.0
  0
LINE
  5
11BB
330
2
100
AcDbEntity
  8
0
100
AcDbLine
 10
610.4264661774322
 20
716.6130849838152
 30
0.0
 11
610.553158071042
 21
731.1305380548217
 31
0.0
  0
LINE
  5
11BC
330
2
100
AcDbEntity
  8
HIDS
100
AcDbLine
 10
623.0122526150588
 20
733.698871421451
 30
0.0
 11
623.8406797398055
 21
734.5272985461977
 31
0.0
  0
LINE
  5
11BD
330
2
100
AcDbEntity
  8
0
100
AcDbLine
 10
707.3491159082422
 20
743.6130849838243
 30
0.0
 11
633.5038164466221
 21
743.6130849838243
 31
0.0
  0
LINE
  5
11BE
330
2
100
AcDbEntity
  8
0
100
AcDbLine
 10
632.9264661774321
 20
738.9130849838254
 30
0.0
 11
632.9264661774321
 21
735.6130849838243
 31
0.0
  0
LINE
  5
11BF
330
2
100
AcDbEntity
  8
0
100
AcDbLine
 10
630.9264661774322
 20
735.6130849838243
 30
0.0
 11
709.9264661774322
 21
735.6130849838243
 31
0.0
  0
LINE
  5
11C0
330
2
100
AcDbEntity
  8
0
100
AcDbLine
 10
630.4264661774322
 20
735.1130849838243
 30
0.0
 11
630.9264661774322
 21
735.6130849838243
 31
0.0
  0
LINE
  5
11C1
330
2
100
AcDbEntity
  8
0
100
AcDbLine
 10
632.9264661774321
 20
742.6130849838243
 30
0.0
 11
632.9264661774321
 21
741.3130849838251
 31
0.0
  0
LINE
  5
11C2
330
2
100
AcDbEntity
  8
0
100
AcDbLine
 10
633.1264661774329
 20
741.1130849838244
 30
0.0
 11
707.7264661774323
 21
741.1130849838244
 31
0.0
  0
LINE
  5
11C3
330
2
100
AcDbEntity
  8
0
100
AcDbLine
 10
633.1264661774319
 20
739.1130849838243
 30
0.0
 11
707.7264661774332
 21
739.1130849838243
 31
0.0
  0
LINE
  5
11C4
330
2
100
AcDbEntity
  8
0
100
AcDbLine
 10
633.626466177432
 20
740.9130849838255
 30
0.0
 11
633.626466177432
 21
739.313084983825
 31
0.0
  0
LINE
  5
11C5
330
2
100
AcDbEntity
  8
0
100
AcDbLine
 10
633.1264661774319
 20
739.1130849838243
 30
0.0
 11
632.9264661774321
 21
738.9130849838254
 31
0.0
  0
LINE
  5
11C6
330
2
100
AcDbEntity
  8
0
100
AcDbLine
 10
632.9264661774321
 20
742.6130849838243
 30
0.0
 11
633.5038164466221
 21
743.6130849838243
 31
0.0
  0
ARC
  5
11C7
330
2
100
AcDbEntity
  8
0
100
AcDbCircle
 10
715.5980390526864
 20
733.1130849838244
 30
0.0
 40
2.0
100
AcDbArc
 50
45.00000000001871
 51
90.0
  0
ARC
  5
11C8
330
2
100
AcDbEntity
  8
0
100
AcDbCircle
 10
719.2548933021789
 20
735.1130849838243
 30
0.0
 40
2.0
100
AcDbArc
 50
225.0000000000187
 51
270.0
  0
ARC
  5
11C9
330
2
100
AcDbEntity
  8
HIDS
100
AcDbCircle
 10
625.2548933021788
 20
733.1130849838244
 30
0.0
 40
2.0
100
AcDbArc
 50
90.0
 51
134.9999999999812
  0
ARC
  5
11CA
330
2
100
AcDbEntity
  8
HIDS
100
AcDbCircle
 10
621.5980390526855
 20
735.1130849838243
 30
0.0
 40
2.0
100
AcDbArc
 50
270.0
 51
314.9999999999812
  0
LINE
  5
11CB
330
2
100
AcDbEntity
  8
0
100
AcDbLine
 10
730.4437676023707
 20
731.1305380548217
 30
0.0
 11
730.4439960683356
 21
731.1043584483265
 31
0.0
  0
ARC
  5
11CC
330
2
100
AcDbEntity
  8
0
100
AcDbCircle
 10
731.4439579913995
 20
731.1130849838243
 30
0.0
 40
1.0
100
AcDbArc
 50
180.4999999999655
 51
270.0
  0
ARC
  5
11CD
330
2
100
AcDbEntity
  8
0
100
AcDbCircle
 10
728.443843756242
 20
731.1130849838243
 30
0.0
 40
2.0
100
AcDbArc
 50
0.4999999999654926
 51
90.0
  0
ARC
  5
11CE
330
2
100
AcDbEntity
  8
0
100
AcDbCircle
 10
633.1264661774329
 20
741.3130849838251
 30
0.0
 40
0.2
100
AcDbArc
 50
180.0
 51
270.0
  0
ARC
  5
11CF
330
2
100
AcDbEntity
  8
0
100
AcDbCircle
 10
633.4264661774321
 20
740.9130849838255
 30
0.0
 40
0.2
100
AcDbArc
 50
0.0
 51
90.0
  0
ARC
  5
11D0
330
2
100
AcDbEntity
  8
0
100
AcDbCircle
 10
633.4264661774321
 20
739.313084983825
 30
0.0
 40
0.2
100
AcDbArc
 50
270.0
 51
0.0
  0
ARC
  5
11D1
330
2
100
AcDbEntity
  8
0
100
AcDbCircle
 10
707.7264661774323
 20
741.3130849838251
 30
0.0
 40
0.2
100
AcDbArc
 50
270.0
 51
0.0
  0
ARC
  5
11D2
330
2
100
AcDbEntity
  8
0
100
AcDbCircle
 10
707.4264661774321
 20
740.9130849838255
 30
0.0
 40
0.2
100
AcDbArc
 50
90.0
 51
180.0
  0
ARC
  5
11D3
330
2
100
AcDbEntity
  8
0
100
AcDbCircle
 10
707.4264661774321
 20
739.313084983825
 30
0.0
 40
0.2
100
AcDbArc
 50
180.0
 51
270.0
  0
LINE
  5
11D4
330
2
100
AcDbEntity
  8
0
100
AcDbLine
 10
632.9264661774321
 20
742.6130849838243
 30
0.0
 11
707.9264661774321
 21
742.6130849838243
 31
0.0
  0
LINE
  5
11D5
330
2
100
AcDbEntity
  8
0
100
AcDbLine
 10
632.9264661774321
 20
738.9130849838254
 30
0.0
 11
707.9264661774321
 21
738.9130849838254
 31
0.0
  0
LINE
  5
11D6
330
2
100
AcDbEntity
  8
0
100
AcDbLine
 10
730.4264661774322
 20
716.6130849838225
 30
0.0
 11
730.4264661774322
 21
731.3761597545524
 31
0.0
  0
LINE
  5
11D7
330
2
100
AcDbEntity
  8
0
100
AcDbLine
 10
757.50536667523
 20
727.0999965098123
 30
0.0
 11
757.4774670848763
 21
728.1654388804452
 31
0.0
  0
LINE
  5
11D8
330
2
100
AcDbEntity
  8
0
100
AcDbLine
 10
758.0051953377177
 20
726.6130849839662
 30
0.0
 11
772.8478862889295
 21
726.6130849839662
 31
0.0
  0
ARC
  5
11D9
330
2
100
AcDbEntity
  8
0
100
AcDbCircle
 10
758.0051953377177
 20
727.1130849839662
 30
0.0
 40
0.5
100
AcDbArc
 50
181.4999999999897
 51
270.0
  0
ARC
  5
11DA
330
2
100
AcDbEntity
  8
0
100
AcDbCircle
 10
755.4781524349253
 20
728.1130849838298
 30
0.0
 40
2.0
100
AcDbArc
 50
1.499999999989693
 51
90.0
  0
LINE
  5
11DB
330
2
100
AcDbEntity
  8
0
100
AcDbLine
 10
628.4308105721346
 20
726.6130849839662
 30
0.0
 11
611.5050460659366
 21
726.6130849839662
 31
0.0
  0
LINE
  5
11DC
330
2
100
AcDbEntity
  8
0
100
AcDbLine
 10
628.9307915336693
 20
727.1087217162164
 30
0.0
 11
628.9658893931354
 21
731.1305380548217
 31
0.0
  0
ARC
  5
11DD
330
2
100
AcDbEntity
  8
0
100
AcDbCircle
 10
628.4308105721346
 20
727.1130849839662
 30
0.0
 40
0.5
100
AcDbArc
 50
270.0
 51
359.5000000000345
  0
ARC
  5
11DE
330
2
100
AcDbEntity
  8
0
100
AcDbCircle
 10
611.5050460659366
 20
725.6130849839662
 30
0.0
 40
1.0
100
AcDbArc
 50
90.0
 51
179.5000000000344
  0
ARC
  5
11DF
330
2
100
AcDbEntity
  8
0
100
AcDbCircle
 10
630.9658132392631
 20
731.1130849838243
 30
0.0
 40
2.0
100
AcDbArc
 50
90.0
 51
179.5000000000344
  0
LINE
  5
11E0
330
2
100
AcDbEntity
  8
0
100
AcDbLine
 10
620.4264661774312
 20
725.621811519464
 30
0.0
 11
620.4264661774312
 21
716.6130849838152
 31
0.0
  0
LINE
  5
11E1
330
2
100
AcDbEntity
  8
0
100
AcDbLine
 10
624.4264661774349
 20
725.621811519464
 30
0.0
 11
624.4264661774349
 21
716.6130849838152
 31
0.0
  0
LINE
  5
11E2
330
2
100
AcDbEntity
  8
0
100
AcDbLine
 10
647.4224377557365
 20
731.1305380548217
 30
0.0
 11
647.4224377557365
 21
716.6130849838171
 31
0.0
  0
LINE
  5
11E3
330
2
100
AcDbEntity
  8
0
100
AcDbLine
 10
720.4264661774331
 20
731.1305380548217
 30
0.0
 11
720.4264661774331
 21
716.6130849838152
 31
0.0
  0
LINE
  5
11E4
330
2
100
AcDbEntity
  8
0
100
AcDbLine
 10
716.4264661774295
 20
731.1305380548217
 30
0.0
 11
716.4264661774295
 21
716.6130849838152
 31
0.0
  0
LINE
  5
11E5
330
2
100
AcDbEntity
  8
0
100
AcDbLine
 10
693.4304945991279
 20
731.1305380548217
 30
0.0
 11
693.4304945991279
 21
716.6130849838171
 31
0.0
  0
LINE
  5
11E6
330
2
100
AcDbEntity
  8
0
100
AcDbLine
 10
760.2924915812353
 20
736.6130849839662
 30
0.0
 11
771.5604407736663
 21
736.6130849839644
 31
0.0
  0
LINE
  5
11E7
330
2
100
AcDbEntity
  8
0
100
AcDbLine
 10
759.4264661774503
 20
728.6130849839643
 30
0.0
 11
772.4264661774504
 21
728.6130849839643
 31
0.0
  0
LINE
  5
11E8
330
2
100
AcDbEntity
  8
0
100
AcDbLine
 10
772.4264661774504
 20
736.1130849839644
 30
0.0
 11
771.5604407736663
 21
736.6130849839644
 31
0.0
  0
LINE
  5
11E9
330
2
100
AcDbEntity
  8
0
100
AcDbLine
 10
772.4264661774504
 20
726.6130849839644
 30
0.0
 11
772.4264661774504
 21
728.6130849839643
 31
0.0
  0
LINE
  5
11EA
330
2
100
AcDbEntity
  8
0
100
AcDbLine
 10
772.4264661774504
 20
728.6130849839643
 30
0.0
 11
772.4264661774504
 21
736.1130849839644
 31
0.0
  0
LINE
  5
11EB
330
2
100
AcDbEntity
  8
CENTER
  6
CENS
100
AcDbLine
 10
765.9264661774503
 20
710.3390929940594
 30
0.0
 11
765.9264661774503
 21
739.6130849839662
 31
0.0
  0
LINE
  5
11EC
330
2
100
AcDbEntity
  8
0
100
AcDbLine
 10
759.4264661774503
 20
736.1130849839662
 30
0.0
 11
760.2924915812344
 21
736.6130849839644
 31
0.0
  0
LINE
  5
11ED
330
2
100
AcDbEntity
  8
0
100
AcDbLine
 10
759.4264661774503
 20
726.6130849839662
 30
0.0
 11
759.4264661774503
 21
728.6130849839662
 31
0.0
  0
LINE
  5
11EE
330
2
100
AcDbEntity
  8
0
100
AcDbLine
 10
759.4264661774503
 20
728.6130849839662
 30
0.0
 11
759.4264661774503
 21
736.1130849839662
 31
0.0
  0
LINE
  5
11EF
330
2
100
AcDbEntity
  8
0
100
AcDbLine
 10
759.4264661774503
 20
736.1130849839662
 30
0.0
 11
772.4264661774504
 21
736.1130849839644
 31
0.0
  0
LINE
  5
11F0
330
2
100
AcDbEntity
  8
0
100
AcDbLine
 10
614.7924915812362
 20
736.6130849839662
 30
0.0
 11
626.0604407736662
 21
736.6130849839662
 31
0.0
  0
LINE
  5
11F1
330
2
100
AcDbEntity
  8
0
100
AcDbLine
 10
613.9264661774513
 20
728.6130849839662
 30
0.0
 11
626.9264661774513
 21
728.6130849839643
 31
0.0
  0
LINE
  5
11F2
330
2
100
AcDbEntity
  8
0
100
AcDbLine
 10
626.9264661774513
 20
736.1130849839662
 30
0.0
 11
626.0604407736662
 21
736.6130849839662
 31
0.0
  0
LINE
  5
11F3
330
2
100
AcDbEntity
  8
0
100
AcDbLine
 10
626.9264661774513
 20
726.6130849839662
 30
0.0
 11
626.9264661774513
 21
728.6130849839662
 31
0.0
  0
LINE
  5
11F4
330
2
100
AcDbEntity
  8
0
100
AcDbLine
 10
626.9264661774513
 20
728.6130849839662
 30
0.0
 11
626.9264661774513
 21
736.1130849839662
 31
0.0
  0
LINE
  5
11F5
330
2
100
AcDbEntity
  8
CENTER
  6
CENS
100
AcDbLine
 10
620.4264661774512
 20
710.3390929940594
 30
0.0
 11
620.4264661774512
 21
739.6130849839662
 31
0.0
  0
LINE
  5
11F6
330
2
100
AcDbEntity
  8
0
100
AcDbLine
 10
613.9264661774513
 20
736.1130849839662
 30
0.0
 11
614.7924915812362
 21
736.6130849839662
 31
0.0
  0
LINE
  5
11F7
330
2
100
AcDbEntity
  8
0
100
AcDbLine
 10
613.9264661774513
 20
726.6130849839662
 30
0.0
 11
613.9264661774513
 21
728.6130849839662
 31
0.0
  0
LINE
  5
11F8
330
2
100
AcDbEntity
  8
0
100
AcDbLine
 10
613.9264661774513
 20
728.6130849839662
 30
0.0
 11
613.9264661774513
 21
736.1130849839662
 31
0.0
  0
LINE
  5
11F9
330
2
100
AcDbEntity
  8
0
100
AcDbLine
 10
613.9264661774513
 20
736.1130849839662
 30
0.0
 11
626.9264661774513
 21
736.1130849839662
 31
0.0
  0
LINE
  5
11FA
330
2
100
AcDbEntity
  8
CENTER
100
AcDbLine
 10
487.5720414855075
 20
92.21723335906455
 30
0.0
 11
487.5720414855075
 21
231.6674406882469
 31
0.0
  0
LINE
  5
11FB
330
2
100
AcDbEntity
  8
CENTER
100
AcDbLine
 10
417.0720414855085
 20
161.942337023658
 30
0.0
 11
574.5720414855084
 21
161.942337023658
 31
0.0
  0
LINE
  5
11FC
330
2
100
AcDbEntity
  8
0
100
AcDbLine
 10
456.0720414855158
 20
221.9423370236561
 30
0.0
 11
532.5720414855067
 21
221.2747316376624
 31
0.0
  0
LINE
  5
11FD
330
2
100
AcDbEntity
  8
0
100
AcDbLine
 10
456.0720414855103
 20
101.9423370236562
 30
0.0
 11
532.5720414855084
 21
102.6099424096481
 31
0.0
  0
LINE
  5
11FE
330
2
100
AcDbEntity
  8
0
100
AcDbLine
 10
532.5720414855084
 20
102.6099424096481
 30
0.0
 11
532.5720414855076
 21
142.83401764733
 31
0.0
  0
LINE
  5
11FF
330
2
100
AcDbEntity
  8
0
100
AcDbLine
 10
532.5720414855076
 20
181.0506563999841
 30
0.0
 11
532.5720414855067
 21
221.2747316376624
 31
0.0
  0
LINE
  5
1200
330
2
100
AcDbEntity
  8
0
100
AcDbLine
 10
537.5720414855075
 20
106.9423370236561
 30
0.0
 11
537.5720414855075
 21
141.8823332737391
 31
0.0
  0
LINE
  5
1201
330
2
100
AcDbEntity
  8
0
100
AcDbLine
 10
537.5720414855075
 20
182.0023407735751
 30
0.0
 11
537.5720414855075
 21
216.9423370236561
 31
0.0
  0
LINE
  5
1202
330
2
100
AcDbEntity
  8
0
100
AcDbLine
 10
537.5720414855075
 20
106.9423370236561
 30
0.0
 11
532.5720414855076
 21
106.9423370236561
 31
0.0
  0
LINE
  5
1203
330
2
100
AcDbEntity
  8
0
100
AcDbLine
 10
537.5720414855075
 20
216.9423370236561
 30
0.0
 11
532.5720414855076
 21
216.9423370236561
 31
0.0
  0
LINE
  5
1204
330
2
100
AcDbEntity
  8
0
100
AcDbLine
 10
456.0720414855103
 20
101.9423370236562
 30
0.0
 11
456.0720414855121
 21
141.6825035227846
 31
0.0
  0
LINE
  5
1205
330
2
100
AcDbEntity
  8
0
100
AcDbLine
 10
551.5720414855085
 20
123.8737145732719
 30
0.0
 11
551.5720414855085
 21
139.9422910236569
 31
0.0
  0
LINE
  5
1206
330
2
100
AcDbEntity
  8
0
100
AcDbLine
 10
551.5720414855085
 20
183.9422910236569
 30
0.0
 11
551.5720414855085
 21
200.0109594740441
 31
0.0
  0
ARC
  5
1207
330
2
100
AcDbEntity
  8
0
100
AcDbCircle
 10
549.5720414855084
 20
200.0109594740441
 30
0.0
 40
2.0
100
AcDbArc
 50
0.0
 51
87.99999999999636
  0
ARC
  5
1208
330
2
100
AcDbEntity
  8
0
100
AcDbCircle
 10
549.5720414855084
 20
123.8737145732719
 30
0.0
 40
2.0
100
AcDbArc
 50
272.0000000000036
 51
0.0
  0
LINE
  5
1209
330
2
100
AcDbEntity
  8
0
100
AcDbLine
 10
539.5022424921034
 20
121.5208503551983
 30
0.0
 11
549.6418404789136
 21
121.874932919234
 31
0.0
  0
ARC
  5
120A
330
2
100
AcDbEntity
  8
0
100
AcDbCircle
 10
539.5720414855076
 20
119.5220687011604
 30
0.0
 40
2.0
100
AcDbArc
 50
92.00000000000365
 51
180.0
  0
LINE
  5
120B
330
2
100
AcDbEntity
  8
0
100
AcDbLine
 10
539.5022424921034
 20
202.3638236921176
 30
0.0
 11
549.6418404789136
 21
202.0097411280819
 31
0.0
  0
ARC
  5
120C
330
2
100
AcDbEntity
  8
0
100
AcDbCircle
 10
539.5720414855076
 20
204.3626053461555
 30
0.0
 40
2.0
100
AcDbArc
 50
180.0
 51
267.9999999999963
  0
LINE
  5
120D
330
2
100
AcDbEntity
  8
0
100
AcDbLine
 10
531.5720414855076
 20
211.9423370236562
 30
0.0
 11
456.0720414855158
 21
211.9423370236562
 31
0.0
  0
LINE
  5
120E
330
2
100
AcDbEntity
  8
0
100
AcDbLine
 10
531.5720414855076
 20
207.9423370236543
 30
0.0
 11
456.0720414855158
 21
207.9423370236543
 31
0.0
  0
LINE
  5
120F
330
2
100
AcDbEntity
  8
0
100
AcDbLine
 10
531.5720414855076
 20
184.9463654453282
 30
0.0
 11
456.0720414855139
 21
184.9463654453282
 31
0.0
  0
LINE
  5
1210
330
2
100
AcDbEntity
  8
0
100
AcDbLine
 10
531.5720414855085
 20
111.942337023658
 30
0.0
 11
456.0720414855158
 21
111.942337023658
 31
0.0
  0
LINE
  5
1211
330
2
100
AcDbEntity
  8
0
100
AcDbLine
 10
531.5720414855085
 20
115.9423370236616
 30
0.0
 11
456.0720414855158
 21
115.9423370236616
 31
0.0
  0
LINE
  5
1212
330
2
100
AcDbEntity
  8
0
100
AcDbLine
 10
531.5720414855076
 20
138.9383086019877
 30
0.0
 11
456.0720414855139
 21
138.9383086019877
 31
0.0
  0
LINE
  5
1213
330
2
100
AcDbEntity
  8
0
100
AcDbLine
 10
439.5720414855076
 20
219.8157212839194
 30
0.0
 11
439.5720414855076
 21
218.4423370236562
 31
0.0
  0
LINE
  5
1214
330
2
100
AcDbEntity
  8
HIDS
100
AcDbLine
 10
439.5720414855076
 20
218.4423370236562
 30
0.0
 11
439.5720414855076
 21
205.4423370236562
 31
0.0
  0
LINE
  5
1215
330
2
100
AcDbEntity
  8
0
100
AcDbLine
 10
439.5720414855076
 20
205.4423370236562
 30
0.0
 11
439.5720414855076
 21
195.6793755559099
 31
0.0
  0
LINE
  5
1216
330
2
100
AcDbEntity
  8
0
100
AcDbLine
 10
439.5720414855076
 20
128.2052984914042
 30
0.0
 11
439.5720414855076
 21
118.442337023658
 31
0.0
  0
LINE
  5
1217
330
2
100
AcDbEntity
  8
HIDS
100
AcDbLine
 10
439.5720414855067
 20
118.442337023658
 30
0.0
 11
439.5720414855076
 21
105.442337023658
 31
0.0
  0
LINE
  5
1218
330
2
100
AcDbEntity
  8
0
100
AcDbLine
 10
439.5720414855076
 20
105.442337023658
 30
0.0
 11
439.5720414855076
 21
104.0689527633947
 31
0.0
  0
ARC
  5
1219
330
2
100
AcDbEntity
  8
0
100
AcDbCircle
 10
441.5720414855075
 20
104.0689527633947
 30
0.0
 40
2.0
100
AcDbArc
 50
180.0
 51
269.5000000000345
  0
LINE
  5
121A
330
2
100
AcDbEntity
  8
0
100
AcDbLine
 10
456.0720414855103
 20
221.9423370236579
 30
0.0
 11
456.0720414855121
 21
182.2021705245295
 31
0.0
  0
LINE
  5
121B
330
2
100
AcDbEntity
  8
0
100
AcDbLine
 10
433.7720414855074
 20
199.442337023658
 30
0.0
 11
437.0720414855076
 21
199.442337023658
 31
0.0
  0
LINE
  5
121C
330
2
100
AcDbEntity
  8
HIDS
100
AcDbLine
 10
437.5720414855075
 20
116.7707641484028
 30
0.0
 11
437.5720414855075
 21
118.442337023658
 31
0.0
  0
LINE
  5
121D
330
2
100
AcDbEntity
  8
0
100
AcDbLine
 10
437.5720414855075
 20
118.442337023658
 30
0.0
 11
437.5720414855075
 21
127.9354177079201
 31
0.0
  0
LINE
  5
121E
330
2
100
AcDbEntity
  8
0
100
AcDbLine
 10
437.5720414855075
 20
195.9492563393958
 30
0.0
 11
437.5720414855075
 21
205.4423370236562
 31
0.0
  0
LINE
  5
121F
330
2
100
AcDbEntity
  8
HIDS
100
AcDbLine
 10
437.5720414855075
 20
205.4423370236562
 30
0.0
 11
437.5720414855075
 21
207.1139098989113
 31
0.0
  0
LINE
  5
1220
330
2
100
AcDbEntity
  8
HIDS
100
AcDbLine
 10
438.9862550478809
 20
209.3565505860313
 30
0.0
 11
438.1578279231343
 21
208.5281234612846
 31
0.0
  0
LINE
  5
1221
330
2
100
AcDbEntity
  8
0
100
AcDbLine
 10
437.5720414855075
 20
201.942337023658
 30
0.0
 11
437.0720414855076
 21
201.442337023658
 31
0.0
  0
LINE
  5
1222
330
2
100
AcDbEntity
  8
0
100
AcDbLine
 10
430.0720414855066
 20
199.442337023658
 30
0.0
 11
431.3720414855068
 21
199.442337023658
 31
0.0
  0
LINE
  5
1223
330
2
100
AcDbEntity
  8
0
100
AcDbLine
 10
433.5720414855066
 20
199.2423370236572
 30
0.0
 11
433.7720414855074
 21
199.442337023658
 31
0.0
  0
LINE
  5
1224
330
2
100
AcDbEntity
  8
0
100
AcDbLine
 10
431.7720414855074
 20
198.7423370236572
 30
0.0
 11
433.3720414855068
 21
198.7423370236572
 31
0.0
  0
LINE
  5
1225
330
2
100
AcDbEntity
  8
0
100
AcDbLine
 10
430.0720414855076
 20
199.442337023658
 30
0.0
 11
429.0720414855067
 21
198.864986754468
 31
0.0
  0
LINE
  5
1226
330
2
100
AcDbEntity
  8
0
100
AcDbLine
 10
430.0720414855076
 20
194.4423370236579
 30
0.0
 11
440.0720414855076
 21
194.4423370236562
 31
0.0
  0
LINE
  5
1227
330
2
100
AcDbEntity
  8
0
100
AcDbLine
 10
440.0720414855076
 20
194.8375933373807
 30
0.0
 11
440.9994785421685
 21
194.8618791314073
 31
0.0
  0
LINE
  5
1228
330
2
100
AcDbEntity
  8
0
100
AcDbLine
 10
429.0720414855075
 20
195.0196872928461
 30
0.0
 11
430.0720414855076
 21
194.4423370236579
 31
0.0
  0
LINE
  5
1229
330
2
100
AcDbEntity
  8
0
100
AcDbLine
 10
456.0720414855175
 20
101.942337023658
 30
0.0
 11
441.5545884145111
 21
102.0690289172669
 31
0.0
  0
LINE
  5
122A
330
2
100
AcDbEntity
  8
HIDS
100
AcDbLine
 10
438.9862550478809
 20
114.5281234612846
 30
0.0
 11
438.1578279231343
 21
115.3565505860313
 31
0.0
  0
LINE
  5
122B
330
2
100
AcDbEntity
  8
0
100
AcDbLine
 10
440.0720414855076
 20
129.0470807099334
 30
0.0
 11
440.0720414855085
 21
139.9422910236569
 31
0.0
  0
LINE
  5
122C
330
2
100
AcDbEntity
  8
0
100
AcDbLine
 10
440.0720414855076
 20
183.9422910236569
 30
0.0
 11
440.0720414855076
 21
194.8375933373807
 31
0.0
  0
LINE
  5
122D
330
2
100
AcDbEntity
  8
0
100
AcDbLine
 10
429.0720414855075
 20
198.864986754468
 30
0.0
 11
429.0720414855085
 21
183.9422910236569
 31
0.0
  0
LINE
  5
122E
330
2
100
AcDbEntity
  8
0
100
AcDbLine
 10
429.0720414855085
 20
139.9422910236569
 30
0.0
 11
429.0720414855075
 21
125.019687292848
 31
0.0
  0
LINE
  5
122F
330
2
100
AcDbEntity
  8
0
100
AcDbLine
 10
430.0720414855076
 20
194.4423370236579
 30
0.0
 11
430.0720414855076
 21
183.9422910236569
 31
0.0
  0
LINE
  5
1230
330
2
100
AcDbEntity
  8
0
100
AcDbLine
 10
430.0720414855076
 20
139.9422910236569
 30
0.0
 11
430.0720414855076
 21
129.442337023658
 31
0.0
  0
LINE
  5
1231
330
2
100
AcDbEntity
  8
0
100
AcDbLine
 10
433.7720414855074
 20
124.442337023658
 30
0.0
 11
437.0720414855076
 21
124.442337023658
 31
0.0
  0
LINE
  5
1232
330
2
100
AcDbEntity
  8
0
100
AcDbLine
 10
430.0720414855076
 20
129.442337023658
 30
0.0
 11
440.0720414855076
 21
129.442337023658
 31
0.0
  0
LINE
  5
1233
330
2
100
AcDbEntity
  8
0
100
AcDbLine
 10
437.0720414855076
 20
122.442337023658
 30
0.0
 11
437.0720414855076
 21
127.9115254043152
 31
0.0
  0
LINE
  5
1234
330
2
100
AcDbEntity
  8
0
100
AcDbLine
 10
437.0720414855076
 20
195.9731486430007
 30
0.0
 11
437.0720414855076
 21
201.442337023658
 31
0.0
  0
LINE
  5
1235
330
2
100
AcDbEntity
  8
0
100
AcDbLine
 10
437.5720414855075
 20
121.942337023658
 30
0.0
 11
437.0720414855076
 21
122.442337023658
 31
0.0
  0
LINE
  5
1236
330
2
100
AcDbEntity
  8
0
100
AcDbLine
 10
430.0720414855076
 20
124.442337023658
 30
0.0
 11
431.3720414855078
 21
124.442337023658
 31
0.0
  0
LINE
  5
1237
330
2
100
AcDbEntity
  8
0
100
AcDbLine
 10
431.5720414855076
 20
124.6423370236569
 30
0.0
 11
431.5720414855076
 21
127.38630651172
 31
0.0
  0
LINE
  5
1238
330
2
100
AcDbEntity
  8
0
100
AcDbLine
 10
431.5720414855076
 20
196.4983675355959
 30
0.0
 11
431.5720414855076
 21
199.2423370236572
 31
0.0
  0
LINE
  5
1239
330
2
100
AcDbEntity
  8
0
100
AcDbLine
 10
433.5720414855075
 20
124.6423370236569
 30
0.0
 11
433.5720414855075
 21
127.7277321172749
 31
0.0
  0
LINE
  5
123A
330
2
100
AcDbEntity
  8
0
100
AcDbLine
 10
433.5720414855075
 20
196.1569419300374
 30
0.0
 11
433.5720414855075
 21
199.2423370236572
 31
0.0
  0
LINE
  5
123B
330
2
100
AcDbEntity
  8
0
100
AcDbLine
 10
431.7720414855074
 20
125.1423370236569
 30
0.0
 11
433.3720414855077
 21
125.1423370236569
 31
0.0
  0
LINE
  5
123C
330
2
100
AcDbEntity
  8
0
100
AcDbLine
 10
433.5720414855075
 20
124.6423370236569
 30
0.0
 11
433.7720414855074
 21
124.442337023658
 31
0.0
  0
LINE
  5
123D
330
2
100
AcDbEntity
  8
0
100
AcDbLine
 10
430.0720414855076
 20
124.442337023658
 30
0.0
 11
429.0720414855075
 21
125.019687292848
 31
0.0
  0
LINE
  5
123E
330
2
100
AcDbEntity
  8
0
100
AcDbLine
 10
429.0720414855075
 20
128.864986754468
 30
0.0
 11
430.0720414855076
 21
129.442337023658
 31
0.0
  0
LINE
  5
123F
330
2
100
AcDbEntity
  8
0
100
AcDbLine
 10
440.0720414855076
 20
129.0470807099334
 30
0.0
 11
440.9994785421685
 21
129.0227949159087
 31
0.0
  0
ARC
  5
1240
330
2
100
AcDbEntity
  8
HIDS
100
AcDbCircle
 10
439.5720414855076
 20
207.1139098989113
 30
0.0
 40
2.0
100
AcDbArc
 50
134.9999999999812
 51
180.0
  0
ARC
  5
1241
330
2
100
AcDbEntity
  8
HIDS
100
AcDbCircle
 10
437.5720414855075
 20
210.7707641484046
 30
0.0
 40
2.0
100
AcDbArc
 50
314.9999999999812
 51
0.0
  0
ARC
  5
1242
330
2
100
AcDbEntity
  8
HIDS
100
AcDbCircle
 10
439.5720414855076
 20
116.7707641484028
 30
0.0
 40
2.0
100
AcDbArc
 50
180.0
 51
225.0000000000187
  0
ARC
  5
1243
330
2
100
AcDbEntity
  8
HIDS
100
AcDbCircle
 10
437.5720414855075
 20
113.1139098989113
 30
0.0
 40
2.0
100
AcDbArc
 50
0.0
 51
45.00000000001871
  0
ARC
  5
1244
330
2
100
AcDbEntity
  8
0
100
AcDbCircle
 10
431.3720414855078
 20
124.6423370236569
 30
0.0
 40
0.2
100
AcDbArc
 50
270.0
 51
0.0
  0
ARC
  5
1245
330
2
100
AcDbEntity
  8
0
100
AcDbCircle
 10
431.7720414855074
 20
124.942337023658
 30
0.0
 40
0.2
100
AcDbArc
 50
90.0
 51
180.0
  0
ARC
  5
1246
330
2
100
AcDbEntity
  8
0
100
AcDbCircle
 10
433.3720414855077
 20
124.942337023658
 30
0.0
 40
0.2
100
AcDbArc
 50
0.0
 51
90.0
  0
ARC
  5
1247
330
2
100
AcDbEntity
  8
0
100
AcDbCircle
 10
431.3720414855068
 20
199.2423370236572
 30
0.0
 40
0.2
100
AcDbArc
 50
0.0
 51
90.0
  0
ARC
  5
1248
330
2
100
AcDbEntity
  8
0
100
AcDbCircle
 10
431.7720414855074
 20
198.942337023658
 30
0.0
 40
0.2
100
AcDbArc
 50
180.0
 51
270.0
  0
ARC
  5
1249
330
2
100
AcDbEntity
  8
0
100
AcDbCircle
 10
433.3720414855068
 20
198.942337023658
 30
0.0
 40
0.2
100
AcDbArc
 50
270.0
 51
0.0
  0
LINE
  5
124A
330
2
100
AcDbEntity
  8
0
100
AcDbLine
 10
430.0720414855076
 20
124.442337023658
 30
0.0
 11
430.0720414855076
 21
126.9279041747011
 31
0.0
  0
LINE
  5
124B
330
2
100
AcDbEntity
  8
0
100
AcDbLine
 10
430.0720414855076
 20
196.956769872613
 30
0.0
 11
430.0720414855076
 21
199.442337023658
 31
0.0
  0
LINE
  5
124C
330
2
100
AcDbEntity
  8
0
100
AcDbLine
 10
433.7720414855074
 20
124.442337023658
 30
0.0
 11
433.7720414855074
 21
127.7470952380625
 31
0.0
  0
LINE
  5
124D
330
2
100
AcDbEntity
  8
0
100
AcDbLine
 10
433.7720414855074
 20
196.1375788092516
 30
0.0
 11
433.7720414855074
 21
199.442337023658
 31
0.0
  0
LINE
  5
124E
330
2
100
AcDbEntity
  8
0
100
AcDbLine
 10
446.0720414853666
 20
119.9466814183595
 30
0.0
 11
446.0720414853666
 21
103.0209169121624
 31
0.0
  0
LINE
  5
124F
330
2
100
AcDbEntity
  8
0
100
AcDbLine
 10
445.5764047531164
 20
120.4466623798942
 30
0.0
 11
441.5545884145111
 21
120.4817602393594
 31
0.0
  0
ARC
  5
1250
330
2
100
AcDbEntity
  8
0
100
AcDbCircle
 10
445.5720414853666
 20
119.9466814183595
 30
0.0
 40
0.5
100
AcDbArc
 50
0.0
 51
89.5000000000345
  0
ARC
  5
1251
330
2
100
AcDbEntity
  8
0
100
AcDbCircle
 10
447.0720414853666
 20
103.0209169121624
 30
0.0
 40
1.0
100
AcDbArc
 50
180.0
 51
269.4999999999824
  0
ARC
  5
1252
330
2
100
AcDbEntity
  8
0
100
AcDbCircle
 10
441.5720414855075
 20
122.481684085489
 30
0.0
 40
2.0
100
AcDbArc
 50
180.0
 51
269.5000000000345
  0
ARC
  5
1253
330
2
100
AcDbEntity
  8
0
100
AcDbCircle
 10
441.5720414855075
 20
219.8157212839194
 30
0.0
 40
2.0
100
AcDbArc
 50
90.49999999996549
 51
180.0
  0
LINE
  5
1254
330
2
100
AcDbEntity
  8
0
100
AcDbLine
 10
456.0720414855103
 20
221.9423370236579
 30
0.0
 11
441.5545884145111
 21
221.8156451300472
 31
0.0
  0
LINE
  5
1255
330
2
100
AcDbEntity
  8
0
100
AcDbLine
 10
446.0720414853666
 20
203.9379926289546
 30
0.0
 11
446.0720414853666
 21
220.8637571351535
 31
0.0
  0
LINE
  5
1256
330
2
100
AcDbEntity
  8
0
100
AcDbLine
 10
445.5764047531164
 20
203.4380116674199
 30
0.0
 11
441.5545884145111
 21
203.4029138079548
 31
0.0
  0
ARC
  5
1257
330
2
100
AcDbEntity
  8
0
100
AcDbCircle
 10
445.5720414853666
 20
203.9379926289546
 30
0.0
 40
0.5
100
AcDbArc
 50
270.4999999999654
 51
0.0
  0
ARC
  5
1258
330
2
100
AcDbEntity
  8
0
100
AcDbCircle
 10
447.0720414853666
 20
220.8637571351535
 30
0.0
 40
1.0
100
AcDbArc
 50
90.50000000001761
 51
180.0
  0
ARC
  5
1259
330
2
100
AcDbEntity
  8
0
100
AcDbCircle
 10
441.5720414855075
 20
201.4029899618252
 30
0.0
 40
2.0
100
AcDbArc
 50
90.49999999996549
 51
180.0
  0
LINE
  5
125A
330
2
100
AcDbEntity
  8
0
100
AcDbLine
 10
436.0720414853666
 20
206.308362427442
 30
0.0
 11
436.0720414853666
 21
217.5763116198721
 31
0.0
  0
LINE
  5
125B
330
2
100
AcDbEntity
  8
0
100
AcDbLine
 10
444.0720414853666
 20
205.4423370236562
 30
0.0
 11
444.0720414853675
 21
218.4423370236562
 31
0.0
  0
LINE
  5
125C
330
2
100
AcDbEntity
  8
0
100
AcDbLine
 10
436.5720414853666
 20
218.4423370236562
 30
0.0
 11
436.0720414853666
 21
217.5763116198721
 31
0.0
  0
LINE
  5
125D
330
2
100
AcDbEntity
  8
0
100
AcDbLine
 10
446.0720414853666
 20
218.4423370236562
 30
0.0
 11
444.0720414853666
 21
218.4423370236562
 31
0.0
  0
LINE
  5
125E
330
2
100
AcDbEntity
  8
0
100
AcDbLine
 10
444.0720414853666
 20
218.4423370236562
 30
0.0
 11
436.5720414853666
 21
218.4423370236562
 31
0.0
  0
LINE
  5
125F
330
2
100
AcDbEntity
  8
CENTER
  6
CENS
100
AcDbLine
 10
462.831923777362
 20
211.9423370236562
 30
0.0
 11
433.0720414853666
 21
211.9423370236562
 31
0.0
  0
LINE
  5
1260
330
2
100
AcDbEntity
  8
0
100
AcDbLine
 10
436.5720414853666
 20
205.4423370236562
 30
0.0
 11
436.0720414853666
 21
206.308362427442
 31
0.0
  0
LINE
  5
1261
330
2
100
AcDbEntity
  8
0
100
AcDbLine
 10
446.0720414853666
 20
205.4423370236562
 30
0.0
 11
444.0720414853666
 21
205.4423370236562
 31
0.0
  0
LINE
  5
1262
330
2
100
AcDbEntity
  8
0
100
AcDbLine
 10
444.0720414853666
 20
205.4423370236562
 30
0.0
 11
436.5720414853666
 21
205.4423370236562
 31
0.0
  0
LINE
  5
1263
330
2
100
AcDbEntity
  8
0
100
AcDbLine
 10
436.5720414853666
 20
205.4423370236562
 30
0.0
 11
436.5720414853666
 21
218.4423370236562
 31
0.0
  0
LINE
  5
1264
330
2
100
AcDbEntity
  8
0
100
AcDbLine
 10
447.0633149498688
 20
111.9423370236561
 30
0.0
 11
456.0720414855158
 21
111.9423370236561
 31
0.0
  0
LINE
  5
1265
330
2
100
AcDbEntity
  8
0
100
AcDbLine
 10
447.0633149498688
 20
115.9423370236598
 30
0.0
 11
456.0720414855158
 21
115.9423370236598
 31
0.0
  0
LINE
  5
1266
330
2
100
AcDbEntity
  8
0
100
AcDbLine
 10
442.8507465080318
 20
138.9383086019623
 30
0.0
 11
456.0720414855139
 21
138.9383086019623
 31
0.0
  0
LINE
  5
1267
330
2
100
AcDbEntity
  8
0
100
AcDbLine
 10
447.0633149498688
 20
211.942337023658
 30
0.0
 11
456.0720414855158
 21
211.942337023658
 31
0.0
  0
LINE
  5
1268
330
2
100
AcDbEntity
  8
0
100
AcDbLine
 10
447.0633149498688
 20
207.9423370236543
 30
0.0
 11
456.0720414855158
 21
207.9423370236543
 31
0.0
  0
LINE
  5
1269
330
2
100
AcDbEntity
  8
0
100
AcDbLine
 10
442.8507465080318
 20
184.9463654453536
 30
0.0
 11
456.0720414855139
 21
184.9463654453536
 31
0.0
  0
LINE
  5
126A
330
2
100
AcDbEntity
  8
0
100
AcDbLine
 10
436.0720414853666
 20
117.5763116198721
 30
0.0
 11
436.0720414853666
 21
106.308362427442
 31
0.0
  0
LINE
  5
126B
330
2
100
AcDbEntity
  8
0
100
AcDbLine
 10
444.0720414853666
 20
118.442337023658
 30
0.0
 11
444.0720414853675
 21
105.442337023658
 31
0.0
  0
LINE
  5
126C
330
2
100
AcDbEntity
  8
0
100
AcDbLine
 10
436.5720414853666
 20
105.442337023658
 30
0.0
 11
436.0720414853666
 21
106.308362427442
 31
0.0
  0
LINE
  5
126D
330
2
100
AcDbEntity
  8
0
100
AcDbLine
 10
446.0720414853666
 20
105.442337023658
 30
0.0
 11
444.0720414853666
 21
105.442337023658
 31
0.0
  0
LINE
  5
126E
330
2
100
AcDbEntity
  8
0
100
AcDbLine
 10
444.0720414853666
 20
105.442337023658
 30
0.0
 11
436.5720414853666
 21
105.442337023658
 31
0.0
  0
LINE
  5
126F
330
2
100
AcDbEntity
  8
CENTER
  6
CENS
100
AcDbLine
 10
462.831923777362
 20
111.942337023658
 30
0.0
 11
433.0720414853666
 21
111.942337023658
 31
0.0
  0
LINE
  5
1270
330
2
100
AcDbEntity
  8
0
100
AcDbLine
 10
446.0720414853666
 20
118.442337023658
 30
0.0
 11
444.0720414853666
 21
118.442337023658
 31
0.0
  0
LINE
  5
1271
330
2
100
AcDbEntity
  8
0
100
AcDbLine
 10
444.0720414853666
 20
118.442337023658
 30
0.0
 11
436.5720414853666
 21
118.442337023658
 31
0.0
  0
LINE
  5
1272
330
2
100
AcDbEntity
  8
0
100
AcDbLine
 10
436.5720414853666
 20
118.442337023658
 30
0.0
 11
436.5720414853666
 21
105.442337023658
 31
0.0
  0
LINE
  5
1273
330
2
100
AcDbEntity
  8
0
100
AcDbLine
 10
436.5720414853666
 20
118.442337023658
 30
0.0
 11
436.0720414853666
 21
117.5763116198739
 31
0.0
  0
LINE
  5
1274
330
2
100
AcDbEntity
  8
0
100
AcDbLine
 10
527.5720414855085
 20
176.442291023657
 30
0.0
 11
457.0720414855085
 21
176.442291023657
 31
0.0
  0
LINE
  5
1275
330
2
100
AcDbEntity
  8
0
100
AcDbLine
 10
564.5720414855085
 20
179.2422940236572
 30
0.0
 11
427.0720414855085
 21
179.2422940236572
 31
0.0
  0
LINE
  5
1276
330
2
100
AcDbEntity
  8
0
100
AcDbLine
 10
427.0720414855085
 20
183.9422910236569
 30
0.0
 11
427.0720414855085
 21
139.9422910236569
 31
0.0
  0
LINE
  5
1277
330
2
100
AcDbEntity
  8
0
100
AcDbLine
 10
443.1450513845383
 20
139.9422910236569
 30
0.0
 11
427.0720414855085
 21
139.9422910236569
 31
0.0
  0
LINE
  5
1278
330
2
100
AcDbEntity
  8
0
100
AcDbLine
 10
443.1450791936676
 20
183.9422910236569
 30
0.0
 11
427.0720414855085
 21
183.9422910236569
 31
0.0
  0
LINE
  5
1279
330
2
100
AcDbEntity
  8
0
100
AcDbLine
 10
441.7220354855079
 20
175.9422910236569
 30
0.0
 11
429.0720414855085
 21
175.9422910236569
 31
0.0
  0
LINE
  5
127A
330
2
100
AcDbEntity
  8
0
100
AcDbLine
 10
441.7219365260961
 20
147.9422903125612
 30
0.0
 11
429.0719425264058
 21
147.9423823125615
 31
0.0
  0
LINE
  5
127B
330
2
100
AcDbEntity
  8
0
100
AcDbLine
 10
429.072043625042
 20
147.9422903122211
 30
0.0
 11
429.0720393459749
 21
175.9422922589265
 31
0.0
  0
LINE
  5
127C
330
2
100
AcDbEntity
  8
0
100
AcDbLine
 10
429.0718847718425
 20
147.9422910245337
 30
0.0
 11
427.0718718463475
 21
146.7876044122729
 31
0.0
  0
LINE
  5
127D
330
2
100
AcDbEntity
  8
0
100
AcDbLine
 10
429.0720414855085
 20
175.9422910236569
 30
0.0
 11
427.0720414855085
 21
177.0970000236573
 31
0.0
  0
LINE
  5
127E
330
2
100
AcDbEntity
  8
0
100
AcDbLine
 10
457.0720414855085
 20
176.442291023657
 30
0.0
 11
457.0720414855085
 21
147.4422910236442
 31
0.0
  0
LINE
  5
127F
330
2
100
AcDbEntity
  8
0
100
AcDbLine
 10
441.7220376250415
 20
147.2422933122214
 30
0.0
 11
441.7220333459753
 21
176.6422880236567
 31
0.0
  0
LINE
  5
1280
330
2
100
AcDbEntity
  8
0
100
AcDbLine
 10
443.072043625042
 20
147.2422933122214
 30
0.0
 11
443.0720393459758
 21
176.6422880236564
 31
0.0
  0
LINE
  5
1281
330
2
100
AcDbEntity
  8
0
100
AcDbLine
 10
443.072043625042
 20
147.2422933122214
 30
0.0
 11
441.7220376250415
 21
147.2422933122214
 31
0.0
  0
LINE
  5
1282
330
2
100
AcDbEntity
  8
0
100
AcDbLine
 10
457.0720414855085
 20
147.9423823122213
 30
0.0
 11
443.072043625042
 21
147.9423823122213
 31
0.0
  0
LINE
  5
1283
330
2
100
AcDbEntity
  8
0
100
AcDbLine
 10
457.0720414855085
 20
175.9422910236569
 30
0.0
 11
443.0720414855085
 21
175.9422910236569
 31
0.0
  0
LINE
  5
1284
330
2
100
AcDbEntity
  8
0
100
AcDbLine
 10
443.0720393459758
 20
176.6422880236564
 30
0.0
 11
441.7220333459753
 21
176.6422880236567
 31
0.0
  0
LINE
  5
1285
330
2
100
AcDbEntity
  8
0
100
AcDbLine
 10
564.5720414855085
 20
183.9422910236569
 30
0.0
 11
564.5720414855085
 21
139.9422910236569
 31
0.0
  0
LINE
  5
1286
330
2
100
AcDbEntity
  8
0
100
AcDbLine
 10
564.5720414855085
 20
139.9422910236569
 30
0.0
 11
538.8524916658106
 21
139.9422910236569
 31
0.0
  0
LINE
  5
1287
330
2
100
AcDbEntity
  8
0
100
AcDbLine
 10
564.5720414855085
 20
183.9422910236569
 30
0.0
 11
538.8524653739322
 21
183.9422910236569
 31
0.0
  0
LINE
  5
1288
330
2
100
AcDbEntity
  8
0
100
AcDbLine
 10
542.5720414855085
 20
175.9422910236569
 30
0.0
 11
527.5720414855085
 21
175.9422910236569
 31
0.0
  0
LINE
  5
1289
330
2
100
AcDbEntity
  8
0
100
AcDbLine
 10
542.5720115320809
 20
147.9423480796975
 30
0.0
 11
527.5720414855085
 21
147.9423621688109
 31
0.0
  0
LINE
  5
128A
330
2
100
AcDbEntity
  8
0
100
AcDbLine
 10
527.5720414855085
 20
176.442291023657
 30
0.0
 11
527.5720414855085
 21
147.4423830236444
 31
0.0
  0
LINE
  5
128B
330
2
100
AcDbEntity
  8
0
100
AcDbLine
 10
560.0718806033581
 20
147.4425084652646
 30
0.0
 11
553.0718806028179
 21
147.442373432368
 31
0.0
  0
LINE
  5
128C
330
2
100
AcDbEntity
  8
0
100
AcDbLine
 10
553.0718806028179
 20
147.442373432368
 30
0.0
 11
553.0719883684277
 21
176.442337023658
 31
0.0
  0
LINE
  5
128D
330
2
100
AcDbEntity
  8
0
100
AcDbLine
 10
543.9220160344092
 20
147.2423481913136
 30
0.0
 11
543.9220789366062
 21
176.6422880236564
 31
0.0
  0
LINE
  5
128E
330
2
100
AcDbEntity
  8
0
100
AcDbLine
 10
542.5720100344123
 20
147.2423510796996
 30
0.0
 11
542.5720729366038
 21
176.6422880236567
 31
0.0
  0
LINE
  5
128F
330
2
100
AcDbEntity
  8
0
100
AcDbLine
 10
543.9220160344092
 20
147.2423481913136
 30
0.0
 11
542.5720100344123
 21
147.2423510796996
 31
0.0
  0
LINE
  5
1290
330
2
100
AcDbEntity
  8
0
100
AcDbLine
 10
553.0718824098311
 20
147.9423288241594
 30
0.0
 11
543.9220175320778
 21
147.9423451913115
 31
0.0
  0
LINE
  5
1291
330
2
100
AcDbEntity
  8
0
100
AcDbLine
 10
560.0719883684986
 20
176.4423370236579
 30
0.0
 11
560.0718806033581
 21
147.4425084652646
 31
0.0
  0
LINE
  5
1292
330
2
100
AcDbEntity
  8
0
100
AcDbLine
 10
562.5720115320226
 20
147.9422945913245
 30
0.0
 11
562.5720714390298
 21
175.9423083174571
 31
0.0
  0
LINE
  5
1293
330
2
100
AcDbEntity
  8
0
100
AcDbLine
 10
562.5720115320226
 20
147.9422945913245
 30
0.0
 11
560.0718824098211
 21
147.9423117078802
 31
0.0
  0
LINE
  5
1294
330
2
100
AcDbEntity
  8
0
100
AcDbLine
 10
562.5720414855085
 20
147.9422910236569
 30
0.0
 11
564.5720414855085
 21
146.7875820236566
 31
0.0
  0
LINE
  5
1295
330
2
100
AcDbEntity
  8
0
100
AcDbLine
 10
560.0719883684986
 20
176.4423370236579
 30
0.0
 11
553.0719883684277
 21
176.442337023658
 31
0.0
  0
LINE
  5
1296
330
2
100
AcDbEntity
  8
0
100
AcDbLine
 10
543.9220789366062
 20
176.6422880236564
 30
0.0
 11
542.5720729366038
 21
176.6422880236567
 31
0.0
  0
LINE
  5
1297
330
2
100
AcDbEntity
  8
0
  6
CONTINUOUS
 62
     4
100
AcDbLine
 10
553.5719344855086
 20
179.2422940236572
 30
0.0
 11
553.5719344855086
 21
183.9422910236569
 31
0.0
  0
LINE
  5
1298
330
2
100
AcDbEntity
  8
0
  6
CONTINUOUS
 62
     7
100
AcDbLine
 10
554.171934485509
 20
179.2422940236572
 30
0.0
 11
554.171934485509
 21
183.9422910236569
 31
0.0
  0
LINE
  5
1299
330
2
100
AcDbEntity
  8
0
100
AcDbLine
 10
553.0719344855087
 20
175.9422910236569
 30
0.0
 11
543.922047485509
 21
175.9422910236569
 31
0.0
  0
LINE
  5
129A
330
2
100
AcDbEntity
  8
0
  6
CONTINUOUS
 62
     7
100
AcDbLine
 10
558.9719344855082
 20
179.2422940236572
 30
0.0
 11
558.9719344855082
 21
183.9422910236569
 31
0.0
  0
LINE
  5
129B
330
2
100
AcDbEntity
  8
0
  6
CONTINUOUS
 62
     4
100
AcDbLine
 10
559.5719344855086
 20
179.2422940236572
 30
0.0
 11
559.5719344855086
 21
183.9422910236569
 31
0.0
  0
LINE
  5
129C
330
2
100
AcDbEntity
  8
0
100
AcDbLine
 10
562.5720414855085
 20
175.9422910236569
 30
0.0
 11
560.0719344855086
 21
175.9422910236569
 31
0.0
  0
LINE
  5
129D
330
2
100
AcDbEntity
  8
0
100
AcDbLine
 10
562.5720414855085
 20
175.9422910236569
 30
0.0
 11
564.5720414855085
 21
177.0970000236573
 31
0.0
  0
LINE
  5
129E
330
2
100
AcDbEntity
  8
0
100
AcDbLine
 10
527.5720414855085
 20
147.4423830236444
 30
0.0
 11
457.0720414855085
 21
147.4422910236442
 31
0.0
  0
LINE
  5
129F
330
2
100
AcDbEntity
  8
0
100
AcDbLine
 10
550.5720414855085
 20
194.4423370236579
 30
0.0
 11
540.5720414855085
 21
194.4423370236579
 31
0.0
  0
LINE
  5
12A0
330
2
100
AcDbEntity
  8
0
100
AcDbLine
 10
550.5720414855085
 20
129.442337023658
 30
0.0
 11
540.5720414855085
 21
129.442337023658
 31
0.0
  0
LINE
  5
12A1
330
2
100
AcDbEntity
  8
0
100
AcDbLine
 10
550.5720414855085
 20
194.4423370236579
 30
0.0
 11
550.5720414855075
 21
183.9422910236569
 31
0.0
  0
LINE
  5
12A2
330
2
100
AcDbEntity
  8
0
100
AcDbLine
 10
550.5720414855085
 20
139.9422910236569
 30
0.0
 11
550.5720414855085
 21
129.442337023658
 31
0.0
  0
LINE
  5
12A3
330
2
100
AcDbEntity
  8
0
100
AcDbLine
 10
551.5720414855085
 20
128.864986754468
 30
0.0
 11
550.5720414855085
 21
129.442337023658
 31
0.0
  0
LINE
  5
12A4
330
2
100
AcDbEntity
  8
0
100
AcDbLine
 10
551.5720414855085
 20
195.0196872928479
 30
0.0
 11
550.5720414855085
 21
194.4423370236579
 31
0.0
  0
LINE
  5
12A5
330
2
100
AcDbEntity
  8
0
100
AcDbLine
 10
540.5720414855085
 20
194.615013004044
 30
0.0
 11
540.5720414855085
 21
183.9422910236569
 31
0.0
  0
LINE
  5
12A6
330
2
100
AcDbEntity
  8
0
100
AcDbLine
 10
540.5720414855085
 20
139.9422910236569
 30
0.0
 11
540.5720414855085
 21
129.2696610432738
 31
0.0
  0
LINE
  5
12A7
330
2
100
AcDbEntity
  8
0
100
AcDbLine
 10
540.5720414855085
 20
129.2696610432738
 30
0.0
 11
539.2678872541353
 21
129.2355105628556
 31
0.0
  0
LINE
  5
12A8
330
2
100
AcDbEntity
  8
0
100
AcDbLine
 10
540.5720414855085
 20
194.615013004044
 30
0.0
 11
539.2678872541353
 21
194.6491634844604
 31
0.0
  0
SPLINE
  5
12A9
330
2
100
AcDbEntity
  8
HOJO
100
AcDbSpline
210
0.0
220
0.0
230
1.0
 70
     8
 71
     3
 72
    27
 73
    23
 74
     0
 42
0.0000000001
 43
0.0000000001
 40
1.115194340024553
 40
1.115194340024553
 40
1.115194340024553
 40
1.115194340024553
 40
4.11856902600964
 40
9.276492718429681
 40
13.10167008618774
 40
18.71184964488228
 40
23.95716555156286
 40
27.01619251471695
 40
39.17039536596644
 40
50.24697446103543
 40
58.53434931408898
 40
73.56157927628713
 40
85.17772611937518
 40
102.3462877726335
 40
113.633446065556
 40
121.5743876800089
 40
126.5250688064399
 40
130.7795985444939
 40
134.8620682382245
 40
140.0229493905749
 40
145.1226728683104
 40
146.9851630635393
 40
146.9851630635393
 40
146.9851630635393
 40
146.9851630635393
 10
429.0720414855075
 20
197.3276456150522
 30
0.0
 10
430.0184594821229
 20
196.9611441041814
 30
0.0
 10
432.5927175959267
 20
196.0551986937896
 30
0.0
 10
436.4101435781557
 20
196.0508402218218
 30
0.0
 10
442.1457230101867
 20
195.6685558250481
 30
0.0
 10
441.5962831445166
 20
189.3477826138985
 30
0.0
 10
442.735188622705
 20
185.3096543533991
 30
0.0
 10
444.8884522733695
 20
178.0508631076825
 30
0.0
 10
456.7293177450855
 20
183.6563241187103
 30
0.0
 10
466.3015860314215
 20
182.2533582161284
 30
0.0
 10
477.877282455436
 20
180.4014843936091
 30
0.0
 10
489.4950470244347
 20
183.501578342102
 30
0.0
 10
503.8446504702386
 20
179.3371403810486
 30
0.0
 10
517.6420101961001
 20
183.0170168045622
 30
0.0
 10
528.6098069616308
 20
181.1301466497914
 30
0.0
 10
539.0200322439612
 20
180.7035984716347
 30
0.0
 10
539.2644314601429
 20
187.5447779145232
 30
0.0
 10
538.8692061993014
 20
191.5339196193343
 30
0.0
 10
539.1883924196016
 20
196.9837109778525
 30
0.0
 10
545.1207622695418
 20
196.7867276558334
 30
0.0
 10
549.0619199869668
 20
196.9581652406266
 30
0.0
 10
551.0499111544294
 20
198.1055359165673
 30
0.0
 10
551.5720414855085
 20
198.4493634689404
 30
0.0
  0
SPLINE
  5
12AA
330
2
100
AcDbEntity
  8
HOJO
100
AcDbSpline
210
0.0
220
0.0
230
1.0
 70
     8
 71
     3
 72
    27
 73
    23
 74
     0
 42
0.0000000001
 43
0.0000000001
 40
1.115194340024553
 40
1.115194340024553
 40
1.115194340024553
 40
1.115194340024553
 40
4.11856902600964
 40
9.276492718429681
 40
13.10167008618774
 40
18.71184964488228
 40
23.95716555156286
 40
27.01619251471695
 40
39.17039536596644
 40
50.24697446103543
 40
58.53434931408898
 40
73.56157927628713
 40
85.17772611937518
 40
102.3462877726335
 40
113.633446065556
 40
121.5743876800089
 40
126.5250688064399
 40
130.7795985444939
 40
134.8620682382245
 40
140.0229493905749
 40
145.1226728683104
 40
146.9851630635393
 40
146.9851630635393
 40
146.9851630635393
 40
146.9851630635393
 10
429.0720414855075
 20
126.5570284322637
 30
0.0
 10
430.0184594821229
 20
126.9235299431327
 30
0.0
 10
432.5927175959267
 20
127.8294753535245
 30
0.0
 10
436.4101435781557
 20
127.8338338254942
 30
0.0
 10
442.1457230101867
 20
128.216118222266
 30
0.0
 10
441.5962831445166
 20
134.5368914334156
 30
0.0
 10
442.735188622705
 20
138.575019693915
 30
0.0
 10
444.8884522733695
 20
145.8338109396334
 30
0.0
 10
456.7293177450855
 20
140.2283499286039
 30
0.0
 10
466.3015860314215
 20
141.6313158311857
 30
0.0
 10
477.877282455436
 20
143.4831896537069
 30
0.0
 10
489.4950470244347
 20
140.3830957052139
 30
0.0
 10
503.8446504702386
 20
144.5475336662655
 30
0.0
 10
517.6420101961001
 20
140.8676572427519
 30
0.0
 10
528.6098069616308
 20
142.7545273975227
 30
0.0
 10
539.0200322439612
 20
143.1810755756794
 30
0.0
 10
539.2644314601429
 20
136.3398961327928
 30
0.0
 10
538.8692061993014
 20
132.3507544279798
 30
0.0
 10
539.1883924196016
 20
126.9009630694616
 30
0.0
 10
545.1207622695418
 20
127.0979463914807
 30
0.0
 10
549.0619199869668
 20
126.9265088066875
 30
0.0
 10
551.0499111544294
 20
125.7791381307486
 30
0.0
 10
551.5720414855085
 20
125.4353105783755
 30
0.0
  0
LINE
  5
12AB
330
2
100
AcDbEntity
  8
CENTER
  6
CENS
100
AcDbLine
 10
556.5719344855087
 20
170.4377484966406
 30
0.0
 11
556.5719344855087
 21
192.7468365506736
 31
0.0
  0
LINE
  5
12AC
330
2
100
AcDbEntity
  8
0
100
AcDbLine
 10
430.0720414855076
 20
194.4423370236579
 30
0.0
 11
440.0720414855076
 21
183.9422910236569
 31
0.0
  0
LINE
  5
12AD
330
2
100
AcDbEntity
  8
0
100
AcDbLine
 10
440.0720414855076
 20
194.4423370236562
 30
0.0
 11
430.0720414855076
 21
183.9422910236569
 31
0.0
  0
LINE
  5
12AE
330
2
100
AcDbEntity
  8
0
100
AcDbLine
 10
430.0720414855076
 20
139.9422910236569
 30
0.0
 11
440.0720414855076
 21
129.442337023658
 31
0.0
  0
LINE
  5
12AF
330
2
100
AcDbEntity
  8
0
100
AcDbLine
 10
440.0720414855085
 20
139.9422910236569
 30
0.0
 11
430.0720414855076
 21
129.442337023658
 31
0.0
  0
LINE
  5
12B0
330
2
100
AcDbEntity
  8
0
100
AcDbLine
 10
540.5720414855085
 20
194.4423370236579
 30
0.0
 11
550.5720414855075
 21
183.9422910236569
 31
0.0
  0
LINE
  5
12B1
330
2
100
AcDbEntity
  8
0
100
AcDbLine
 10
550.5720414855085
 20
194.4423370236579
 30
0.0
 11
540.5720414855085
 21
183.9422910236569
 31
0.0
  0
LINE
  5
12B2
330
2
100
AcDbEntity
  8
0
100
AcDbLine
 10
540.5720414855085
 20
139.9422910236569
 30
0.0
 11
550.5720414855085
 21
129.442337023658
 31
0.0
  0
LINE
  5
12B3
330
2
100
AcDbEntity
  8
0
100
AcDbLine
 10
540.5720414855085
 20
129.442337023658
 30
0.0
 11
550.5720414855085
 21
139.9422910236569
 31
0.0
  0
LINE
  5
12B4
330
2
100
AcDbEntity
  8
0
100
AcDbLine
 10
393.3032574888401
 20
434.6487250600346
 30
0.0
 11
393.3032574888401
 21
390.6487250600346
 31
0.0
  0
LINE
  5
12B5
330
2
100
AcDbEntity
  8
0
100
AcDbLine
 10
395.3032574888392
 20
390.6487250600346
 30
0.0
 11
393.3032574888401
 21
390.6487250600346
 31
0.0
  0
LINE
  5
12B6
330
2
100
AcDbEntity
  8
0
100
AcDbLine
 10
395.3032574888401
 20
434.6487250600346
 30
0.0
 11
393.3032574888401
 21
434.6487250600346
 31
0.0
  0
LINE
  5
12B7
330
2
100
AcDbEntity
  8
0
100
AcDbLine
 10
530.8032574888401
 20
434.6487250600346
 30
0.0
 11
530.8032574888401
 21
390.6487250600346
 31
0.0
  0
LINE
  5
12B8
330
2
100
AcDbEntity
  8
0
100
AcDbLine
 10
530.8032574888401
 20
390.6487250600346
 30
0.0
 11
517.8032574888401
 21
390.6487250600346
 31
0.0
  0
LINE
  5
12B9
330
2
100
AcDbEntity
  8
0
100
AcDbLine
 10
530.8032574888401
 20
434.6487250600346
 30
0.0
 11
517.8032574888401
 21
434.6487250600346
 31
0.0
  0
CIRCLE
  5
12BA
330
2
100
AcDbEntity
  8
HOJO
100
AcDbCircle
 10
522.8031504888402
 20
412.6487710600338
 30
0.0
 40
3.0
  0
CIRCLE
  5
12BB
330
2
100
AcDbEntity
  8
0
100
AcDbCircle
 10
522.8031504888402
 20
412.6487710600338
 30
0.0
 40
2.5
  0
LINE
  5
12BC
330
2
100
AcDbEntity
  8
CENTER
100
AcDbLine
 10
522.8031504888393
 20
417.9251926523791
 30
0.0
 11
522.8031504888393
 21
407.3723494676886
 31
0.0
  0
LINE
  5
12BD
330
2
100
AcDbEntity
  8
0
100
AcDbLine
 10
692.426420177432
 20
745.6130849784474
 30
0.0
 11
648.4264201774321
 21
745.6130849784474
 31
0.0
  0
LINE
  5
12BE
330
2
100
AcDbEntity
  8
0
100
AcDbLine
 10
648.4264201774321
 20
743.6130849784474
 30
0.0
 11
648.4264201774321
 21
745.6130849784474
 31
0.0
  0
LINE
  5
12BF
330
2
100
AcDbEntity
  8
0
100
AcDbLine
 10
692.426420177432
 20
743.6130849784474
 30
0.0
 11
692.426420177432
 21
745.6130849784474
 31
0.0
  0
LINE
  5
12C0
330
2
100
AcDbEntity
  8
0
100
AcDbLine
 10
692.426420177432
 20
608.1130849784474
 30
0.0
 11
648.4264201774321
 21
608.1130849784474
 31
0.0
  0
LINE
  5
12C1
330
2
100
AcDbEntity
  8
0
100
AcDbLine
 10
648.4264201774321
 20
608.1130849784474
 30
0.0
 11
648.4264201774321
 21
621.1130849784474
 31
0.0
  0
LINE
  5
12C2
330
2
100
AcDbEntity
  8
0
100
AcDbLine
 10
692.426420177432
 20
608.1130849784474
 30
0.0
 11
692.426420177432
 21
621.1130849784455
 31
0.0
  0
CIRCLE
  5
12C3
330
2
100
AcDbEntity
  8
HOJO
100
AcDbCircle
 10
670.4264661774321
 20
616.1131919784472
 30
0.0
 40
3.0
  0
CIRCLE
  5
12C4
330
2
100
AcDbEntity
  8
0
100
AcDbCircle
 10
670.4264661774321
 20
616.1131919784472
 30
0.0
 40
2.5
  0
LINE
  5
12C5
330
2
100
AcDbEntity
  8
CENTER
100
AcDbLine
 10
675.7028877697774
 20
616.1131919784472
 30
0.0
 11
665.1500445850869
 21
616.1131919784472
 31
0.0
  0
ARC
  5
12C6
330
2
100
AcDbEntity
  8
0
100
AcDbCircle
 10
250.2724671242993
 20
412.648771060032
 30
0.0
 40
14.0
100
AcDbArc
 50
106.6015495990168
 51
73.39845040098312
  0
LINE
  5
12C7
330
2
100
AcDbEntity
  8
0
100
AcDbLine
 10
246.2724671242994
 20
429.9487740600323
 30
0.0
 11
254.2724671242993
 21
429.9487740600323
 31
0.0
  0
LINE
  5
12C8
330
2
100
AcDbEntity
  8
0
100
AcDbLine
 10
246.2724671242994
 20
429.9487740600323
 30
0.0
 11
246.2724671242994
 21
426.0651789250294
 31
0.0
  0
LINE
  5
12C9
330
2
100
AcDbEntity
  8
0
100
AcDbLine
 10
254.2724671242993
 20
429.9487740600323
 30
0.0
 11
254.2724671242993
 21
426.0651789250294
 31
0.0
  0
ARC
  5
12CA
330
2
100
AcDbEntity
  8
0
100
AcDbCircle
 10
250.2724671242993
 20
412.648771060032
 30
0.0
 40
15.15463467198318
100
AcDbArc
 50
105.3043129627661
 51
74.69568703723385
  0
CIRCLE
  5
12CB
330
2
100
AcDbEntity
  8
0
100
AcDbCircle
 10
250.2724671242993
 20
412.648771060032
 30
0.0
 40
21.99995400000011
  0
ARC
  5
12CC
330
2
100
AcDbEntity
  8
0
100
AcDbCircle
 10
670.4264661774321
 20
412.648771060032
 30
0.0
 40
14.0
100
AcDbArc
 50
106.6015495990168
 51
73.39845040098312
  0
LINE
  5
12CD
330
2
100
AcDbEntity
  8
0
100
AcDbLine
 10
666.4264661774321
 20
429.9487740600305
 30
0.0
 11
674.4264661774321
 21
429.9487740600305
 31
0.0
  0
LINE
  5
12CE
330
2
100
AcDbEntity
  8
0
100
AcDbLine
 10
666.4264661774321
 20
429.9487740600305
 30
0.0
 11
666.4264661774321
 21
426.0651789250294
 31
0.0
  0
LINE
  5
12CF
330
2
100
AcDbEntity
  8
0
100
AcDbLine
 10
674.4264661774321
 20
429.9487740600305
 30
0.0
 11
674.4264661774321
 21
426.0651789250294
 31
0.0
  0
ARC
  5
12D0
330
2
100
AcDbEntity
  8
0
100
AcDbCircle
 10
670.4264661774321
 20
412.648771060032
 30
0.0
 40
15.15463467198318
100
AcDbArc
 50
105.3043129627661
 51
74.69568703723385
  0
CIRCLE
  5
12D1
330
2
100
AcDbEntity
  8
0
100
AcDbCircle
 10
670.4264661774321
 20
412.648771060032
 30
0.0
 40
21.99995400000011
  0
LINE
  5
12D2
330
2
100
AcDbEntity
  8
CENTER
100
AcDbLine
 10
303.2724671242766
 20
455.307928458187
 30
0.0
 11
303.2724671242766
 21
440.9896136618733
 31
0.0
  0
LINE
  5
12D3
330
2
100
AcDbEntity
  8
CENTER
100
AcDbLine
 10
296.1133097261198
 20
448.1487710600302
 30
0.0
 11
310.4316245224334
 21
448.1487710600302
 31
0.0
  0
LINE
  5
12D4
330
2
100
AcDbEntity
  8
CENTER
100
AcDbLine
 10
303.2724671242775
 20
369.989613661877
 30
0.0
 11
303.2724671242775
 21
384.3079284581907
 31
0.0
  0
LINE
  5
12D5
330
2
100
AcDbEntity
  8
CENTER
100
AcDbLine
 10
296.1133097261207
 20
377.1487710600339
 30
0.0
 11
310.4316245224343
 21
377.1487710600339
 31
0.0
  0
LINE
  5
12D7
330
2
100
AcDbEntity
  8
0
100
AcDbLine
 10
398.003257488839
 20
375.8487710600328
 30
0.0
 11
399.6032574888385
 21
375.8487710600328
 31
0.0
  0
LINE
  5
12D8
330
2
100
AcDbEntity
  8
PHAS
100
AcDbLine
 10
395.9509002695275
 20
373.2683794002085
 30
0.0
 11
402.8032574888392
 21
373.1487710600339
 31
0.0
  0
LINE
  5
12D9
330
2
100
AcDbEntity
  8
PHAS
100
AcDbLine
 10
393.003257488839
 20
376.2679224856781
 30
0.0
 11
393.0032574888399
 21
449.0296196343904
 31
0.0
  0
LINE
  5
12DA
330
2
100
AcDbEntity
  8
PHAS
100
AcDbLine
 10
373.3032574888392
 20
389.3179107358772
 30
0.0
 11
373.3032574888392
 21
435.9796313841905
 31
0.0
  0
ARC
  5
12DB
330
2
100
AcDbEntity
  8
PHAS
100
AcDbCircle
 10
396.003257488839
 20
376.2679224856781
 30
0.0
 40
3.0
100
AcDbArc
 50
180.0
 51
268.9999999999721
  0
ARC
  5
12DC
330
2
100
AcDbEntity
  8
PHAS
100
AcDbCircle
 10
392.003257488839
 20
380.8096714288565
 30
0.0
 40
1.0
100
AcDbArc
 50
0.0
 51
79.99999999999483
  0
ARC
  5
12DD
330
2
100
AcDbEntity
  8
PHAS
100
AcDbCircle
 10
378.3032574888392
 20
389.3179107358772
 30
0.0
 40
5.0
100
AcDbArc
 50
180.0
 51
259.9999999999948
  0
LINE
  5
12DE
330
2
100
AcDbEntity
  8
PHAS
100
AcDbLine
 10
377.4350166005041
 20
384.3938719708165
 30
0.0
 11
392.176905666506
 21
381.7944791818689
 31
0.0
  0
ARC
  5
12DF
330
2
100
AcDbEntity
  8
PHAS
100
AcDbCircle
 10
392.003257488839
 20
444.4878706912112
 30
0.0
 40
1.0
100
AcDbArc
 50
280.0000000000051
 51
0.0
  0
ARC
  5
12E0
330
2
100
AcDbEntity
  8
PHAS
100
AcDbCircle
 10
378.3032574888392
 20
435.9796313841905
 30
0.0
 40
5.0
100
AcDbArc
 50
100.0000000000051
 51
180.0
  0
LINE
  5
12E1
330
2
100
AcDbEntity
  8
PHAS
100
AcDbLine
 10
377.4350166005041
 20
440.9036701492521
 30
0.0
 11
392.176905666506
 21
443.5030629381997
 31
0.0
  0
LINE
  5
12E2
330
2
100
AcDbEntity
  8
PHAS
100
AcDbLine
 10
402.8032574888392
 20
452.1487710600339
 30
0.0
 11
402.8032574888392
 21
373.1487710600339
 31
0.0
  0
LINE
  5
12E3
330
2
100
AcDbEntity
  8
PHAS
100
AcDbLine
 10
395.9509002695275
 20
452.0291627198592
 30
0.0
 11
402.8032574888392
 21
452.1487710600339
 31
0.0
  0
ARC
  5
12E4
330
2
100
AcDbEntity
  8
PHAS
100
AcDbCircle
 10
396.003257488839
 20
449.0296196343895
 30
0.0
 40
3.0
100
AcDbArc
 50
91.00000000002784
 51
180.0
  0
LINE
  5
1314
330
2
100
AcDbEntity
  8
CENTER
100
AcDbLine
 10
1057.192524975564
 20
482.3738747246273
 30
0.0
 11
1057.192524975564
 21
342.9236673954449
 31
0.0
  0
LINE
  5
1315
330
2
100
AcDbEntity
  8
CENTER
100
AcDbLine
 10
1127.692524975564
 20
412.6487710600338
 30
0.0
 11
970.1925249755639
 21
412.6487710600338
 31
0.0
  0
LINE
  5
1316
330
2
100
AcDbEntity
  8
0
100
AcDbLine
 10
1088.692524975557
 20
352.6487710600357
 30
0.0
 11
1012.192524975564
 21
353.3163764460294
 31
0.0
  0
LINE
  5
1317
330
2
100
AcDbEntity
  8
0
100
AcDbLine
 10
1088.692524975565
 20
472.6487710600356
 30
0.0
 11
1012.192524975564
 21
471.9811656740438
 31
0.0
  0
LINE
  5
1318
330
2
100
AcDbEntity
  8
0
100
AcDbLine
 10
1014.192524975565
 20
453.0116335545424
 30
0.0
 11
1014.192524975565
 21
372.2859085655325
 31
0.0
  0
LINE
  5
1319
330
2
100
AcDbEntity
  8
0
100
AcDbLine
 10
1012.192524975564
 20
471.9811656740438
 30
0.0
 11
1012.192524975564
 21
353.3163764460294
 31
0.0
  0
LINE
  5
131A
330
2
100
AcDbEntity
  8
0
100
AcDbLine
 10
1007.192524975564
 20
467.6487710600357
 30
0.0
 11
1007.192524975564
 21
357.6487710600356
 31
0.0
  0
LINE
  5
131B
330
2
100
AcDbEntity
  8
0
100
AcDbLine
 10
1007.192524975564
 20
467.6487710600357
 30
0.0
 11
1012.192524975564
 21
467.6487710600357
 31
0.0
  0
LINE
  5
131C
330
2
100
AcDbEntity
  8
0
100
AcDbLine
 10
1007.192524975564
 20
357.6487710600356
 30
0.0
 11
1012.192524975564
 21
357.6487710600356
 31
0.0
  0
LINE
  5
131D
330
2
100
AcDbEntity
  8
0
100
AcDbLine
 10
1088.692524975565
 20
472.6487710600356
 30
0.0
 11
1088.692524975564
 21
453.7646247185747
 31
0.0
  0
LINE
  5
131E
330
2
100
AcDbEntity
  8
0
100
AcDbLine
 10
1088.692524975557
 20
371.5329174014949
 30
0.0
 11
1088.692524975557
 21
352.6487710600357
 31
0.0
  0
LINE
  5
131F
330
2
100
AcDbEntity
  8
0
100
AcDbLine
 10
1093.2534969238
 20
453.7090031094483
 30
0.0
 11
1057.192524975566
 21
454.1487710600502
 31
0.0
  0
LINE
  5
1320
330
2
100
AcDbEntity
  8
0
100
AcDbLine
 10
1021.131553899481
 20
453.7090031200821
 30
0.0
 11
1033.379800804732
 21
453.8583719847808
 31
0.0
  0
LINE
  5
1321
330
2
100
AcDbEntity
  8
0
100
AcDbLine
 10
1093.25349605165
 20
371.5885389999837
 30
0.0
 11
1057.192524975566
 21
371.1487710600338
 31
0.0
  0
LINE
  5
1322
330
2
100
AcDbEntity
  8
0
100
AcDbLine
 10
1021.131553899481
 20
371.5885389999856
 30
0.0
 11
1057.192524975566
 21
371.1487710600338
 31
0.0
  0
ARC
  5
1323
330
2
100
AcDbEntity
  8
0
100
AcDbCircle
 10
1093.192525847713
 20
448.7093748704809
 30
0.0
 40
5.0
100
AcDbArc
 50
44.508526836219
 51
89.30130561700025
  0
ARC
  5
1324
330
2
100
AcDbEntity
  8
0
100
AcDbCircle
 10
1093.192525847713
 20
376.5881672495869
 30
0.0
 40
5.0
100
AcDbArc
 50
270.6986943829997
 51
315.491473163781
  0
ARC
  5
1325
330
2
100
AcDbEntity
  8
0
100
AcDbCircle
 10
1021.192524103417
 20
448.7093748704809
 30
0.0
 40
5.0
100
AcDbArc
 50
90.69869438299972
 51
135.4914731633676
  0
ARC
  5
1326
330
2
100
AcDbEntity
  8
0
100
AcDbCircle
 10
1021.192524103416
 20
376.5881672495869
 30
0.0
 40
5.0
100
AcDbArc
 50
224.5085268366367
 51
269.3013056170002
  0
LINE
  5
1327
330
2
100
AcDbEntity
  8
0
100
AcDbLine
 10
993.1925249755648
 20
450.71739351042
 30
0.0
 11
993.1925249755648
 21
374.5801486096477
 31
0.0
  0
ARC
  5
1328
330
2
100
AcDbEntity
  8
0
100
AcDbCircle
 10
995.1925249755648
 20
374.5801486096477
 30
0.0
 40
2.0
100
AcDbArc
 50
180.0
 51
267.9999999999963
  0
ARC
  5
1329
330
2
100
AcDbEntity
  8
0
100
AcDbCircle
 10
995.1925249755648
 20
450.71739351042
 30
0.0
 40
2.0
100
AcDbArc
 50
92.00000000000365
 51
180.0
  0
LINE
  5
132A
330
2
100
AcDbEntity
  8
0
100
AcDbLine
 10
1005.262323968969
 20
453.0702577284936
 30
0.0
 11
995.1227259821598
 21
452.7161751644579
 31
0.0
  0
ARC
  5
132B
330
2
100
AcDbEntity
  8
0
100
AcDbCircle
 10
1005.192524975565
 20
455.0690393825314
 30
0.0
 40
2.0
100
AcDbArc
 50
272.0000000000036
 51
0.0
  0
LINE
  5
132C
330
2
100
AcDbEntity
  8
0
100
AcDbLine
 10
1005.262323968969
 20
372.2272843915741
 30
0.0
 11
995.1227259821598
 21
372.5813669556099
 31
0.0
  0
ARC
  5
132D
330
2
100
AcDbEntity
  8
0
100
AcDbCircle
 10
1005.192524975565
 20
370.2285027375363
 30
0.0
 40
2.0
100
AcDbArc
 50
0.0
 51
87.99999999999636
  0
LINE
  5
132E
330
2
100
AcDbEntity
  8
0
100
AcDbLine
 10
1088.692524975557
 20
369.653134493932
 30
0.0
 11
1016.175071904568
 21
370.2859847194029
 31
0.0
  0
LINE
  5
132F
330
2
100
AcDbEntity
  8
0
100
AcDbLine
 10
1088.692524975564
 20
455.6444076261412
 30
0.0
 11
1050.180303037897
 21
455.3083165569639
 31
0.0
  0
LINE
  5
1330
330
2
100
AcDbEntity
  8
0
100
AcDbLine
 10
1088.692524975562
 20
455.0946149553272
 30
0.0
 11
1057.192524975564
 21
455.3695112907333
 31
0.0
  0
LINE
  5
1331
330
2
100
AcDbEntity
  8
0
100
AcDbLine
 10
1088.692524975562
 20
370.2029271647459
 30
0.0
 11
1057.192524975564
 21
369.928030829338
 31
0.0
  0
ARC
  5
1332
330
2
100
AcDbEntity
  8
0
100
AcDbCircle
 10
1016.192524975565
 20
453.0116335545424
 30
0.0
 40
2.0
100
AcDbArc
 50
90.49999999996549
 51
180.0
  0
ARC
  5
1333
330
2
100
AcDbEntity
  8
0
100
AcDbCircle
 10
1016.192524975565
 20
372.2859085655325
 30
0.0
 40
2.0
100
AcDbArc
 50
180.0
 51
269.4999999999824
  0
LINE
  5
1334
330
2
100
AcDbEntity
  8
0
100
AcDbLine
 10
1105.192524975569
 20
470.5221553202971
 30
0.0
 11
1105.192524975569
 21
454.148771060032
 31
0.0
  0
LINE
  5
1335
330
2
100
AcDbEntity
  8
0
100
AcDbLine
 10
1105.192524975569
 20
441.148771060032
 30
0.0
 11
1105.192524975569
 21
384.1487710600357
 31
0.0
  0
LINE
  5
1336
330
2
100
AcDbEntity
  8
0
100
AcDbLine
 10
1105.192524975569
 20
371.1487710600357
 30
0.0
 11
1105.192524975569
 21
354.7753867997724
 31
0.0
  0
ARC
  5
1337
330
2
100
AcDbEntity
  8
0
100
AcDbCircle
 10
1103.192524975569
 20
354.7753867997724
 30
0.0
 40
2.0
100
AcDbArc
 50
270.4999999999654
 51
0.0
  0
LINE
  5
1338
330
2
100
AcDbEntity
  8
0
100
AcDbLine
 10
1088.692524975567
 20
472.6487710600339
 30
0.0
 11
1088.692524975566
 21
453.7646247185747
 31
0.0
  0
LINE
  5
1339
330
2
100
AcDbEntity
  8
0
100
AcDbLine
 10
1088.692524975562
 20
371.5329174014949
 30
0.0
 11
1088.69252497556
 21
352.6487710600338
 31
0.0
  0
LINE
  5
133A
330
2
100
AcDbEntity
  8
0
100
AcDbLine
 10
1098.692524975565
 20
453.5788799609343
 30
0.0
 11
1098.692524975565
 21
439.648771060032
 31
0.0
  0
ARC
  5
133B
330
2
100
AcDbEntity
  8
0
100
AcDbCircle
 10
1096.692524975565
 20
453.5788799609343
 30
0.0
 40
2.0
100
AcDbArc
 50
0.0
 51
89.49999999998238
  0
LINE
  5
133C
330
2
100
AcDbEntity
  8
0
100
AcDbLine
 10
1102.192524975565
 20
441.148771060032
 30
0.0
 11
1102.192524975562
 21
384.1487710600357
 31
0.0
  0
ARC
  5
133D
330
2
100
AcDbEntity
  8
0
100
AcDbCircle
 10
1100.192524975566
 20
453.5483359236676
 30
0.0
 40
2.0
100
AcDbArc
 50
17.4706712373165
 51
89.49999999998238
  0
LINE
  5
133E
330
2
100
AcDbEntity
  8
0
100
AcDbLine
 10
1110.99252497557
 20
450.1487710600338
 30
0.0
 11
1108.692524975565
 21
450.1487710600338
 31
0.0
  0
LINE
  5
133F
330
2
100
AcDbEntity
  8
0
100
AcDbLine
 10
1107.192524975569
 20
367.4771981847805
 30
0.0
 11
1107.19252497557
 21
371.1487710600357
 31
0.0
  0
LINE
  5
1340
330
2
100
AcDbEntity
  8
0
100
AcDbLine
 10
1107.19252497557
 20
384.1487710600357
 30
0.0
 11
1107.192524975569
 21
441.148771060032
 31
0.0
  0
LINE
  5
1341
330
2
100
AcDbEntity
  8
0
100
AcDbLine
 10
1107.192524975569
 20
454.148771060032
 30
0.0
 11
1107.192524975569
 21
457.820343935289
 31
0.0
  0
LINE
  5
1342
330
2
100
AcDbEntity
  8
0
100
AcDbLine
 10
1105.778311413196
 20
460.0629846224072
 30
0.0
 11
1106.606738537942
 21
459.2345574976605
 31
0.0
  0
LINE
  5
1343
330
2
100
AcDbEntity
  8
0
100
AcDbLine
 10
1114.69252497557
 20
450.1487710600338
 30
0.0
 11
1113.39252497557
 21
450.1487710600338
 31
0.0
  0
LINE
  5
1344
330
2
100
AcDbEntity
  8
0
100
AcDbLine
 10
1111.19252497557
 20
449.9487710600349
 30
0.0
 11
1110.99252497557
 21
450.1487710600338
 31
0.0
  0
LINE
  5
1345
330
2
100
AcDbEntity
  8
0
100
AcDbLine
 10
1112.99252497557
 20
449.4487710600349
 30
0.0
 11
1111.39252497557
 21
449.4487710600349
 31
0.0
  0
LINE
  5
1346
330
2
100
AcDbEntity
  8
0
100
AcDbLine
 10
1114.692524975569
 20
450.1487710600338
 30
0.0
 11
1115.69252497557
 21
449.5714207908439
 31
0.0
  0
LINE
  5
1347
330
2
100
AcDbEntity
  8
0
100
AcDbLine
 10
1088.69252497556
 20
352.6487710600338
 30
0.0
 11
1103.209978046566
 21
352.7754629536446
 31
0.0
  0
LINE
  5
1348
330
2
100
AcDbEntity
  8
0
100
AcDbLine
 10
1105.778311413196
 20
365.2345574976605
 30
0.0
 11
1106.606738537942
 21
366.0629846224072
 31
0.0
  0
LINE
  5
1349
330
2
100
AcDbEntity
  8
0
100
AcDbLine
 10
1115.692524975569
 20
449.5714207908439
 30
0.0
 11
1115.692524975569
 21
375.7261213292238
 31
0.0
  0
LINE
  5
134A
330
2
100
AcDbEntity
  8
0
100
AcDbLine
 10
1110.99252497557
 20
375.1487710600339
 30
0.0
 11
1108.692524975565
 21
375.1487710600339
 31
0.0
  0
LINE
  5
134B
330
2
100
AcDbEntity
  8
0
100
AcDbLine
 10
1107.692524975569
 20
384.1487710600357
 30
0.0
 11
1107.692524975569
 21
441.148771060032
 31
0.0
  0
LINE
  5
134C
330
2
100
AcDbEntity
  8
0
100
AcDbLine
 10
1114.692524975569
 20
375.1487710600339
 30
0.0
 11
1113.39252497557
 21
375.1487710600339
 31
0.0
  0
LINE
  5
134D
330
2
100
AcDbEntity
  8
0
100
AcDbLine
 10
1113.192524975569
 20
375.3487710600346
 30
0.0
 11
1113.192524975569
 21
449.9487710600349
 31
0.0
  0
LINE
  5
134E
330
2
100
AcDbEntity
  8
0
100
AcDbLine
 10
1111.192524975569
 20
375.3487710600346
 30
0.0
 11
1111.192524975569
 21
449.9487710600349
 31
0.0
  0
LINE
  5
134F
330
2
100
AcDbEntity
  8
0
100
AcDbLine
 10
1112.99252497557
 20
375.8487710600346
 30
0.0
 11
1111.39252497557
 21
375.8487710600346
 31
0.0
  0
LINE
  5
1350
330
2
100
AcDbEntity
  8
0
100
AcDbLine
 10
1111.192524975569
 20
375.3487710600346
 30
0.0
 11
1110.99252497557
 21
375.1487710600339
 31
0.0
  0
LINE
  5
1351
330
2
100
AcDbEntity
  8
0
100
AcDbLine
 10
1114.692524975569
 20
375.1487710600339
 30
0.0
 11
1115.692524975569
 21
375.7261213292238
 31
0.0
  0
ARC
  5
1352
330
2
100
AcDbEntity
  8
0
100
AcDbCircle
 10
1105.192524975569
 20
457.820343935289
 30
0.0
 40
2.0
100
AcDbArc
 50
0.0
 51
45.00000000001871
  0
ARC
  5
1353
330
2
100
AcDbEntity
  8
0
100
AcDbCircle
 10
1107.192524975569
 20
461.4771981847805
 30
0.0
 40
2.0
100
AcDbArc
 50
180.0
 51
225.0000000000187
  0
ARC
  5
1354
330
2
100
AcDbEntity
  8
0
100
AcDbCircle
 10
1105.192524975569
 20
367.4771981847805
 30
0.0
 40
2.0
100
AcDbArc
 50
314.9999999999812
 51
0.0
  0
ARC
  5
1355
330
2
100
AcDbEntity
  8
0
100
AcDbCircle
 10
1107.192524975569
 20
363.8203439352872
 30
0.0
 40
2.0
100
AcDbArc
 50
134.9999999999812
 51
180.0
  0
ARC
  5
1356
330
2
100
AcDbEntity
  8
0
100
AcDbCircle
 10
1113.39252497557
 20
375.3487710600346
 30
0.0
 40
0.2
100
AcDbArc
 50
180.0
 51
270.0
  0
ARC
  5
1357
330
2
100
AcDbEntity
  8
0
100
AcDbCircle
 10
1112.99252497557
 20
375.6487710600338
 30
0.0
 40
0.2
100
AcDbArc
 50
0.0
 51
90.0
  0
ARC
  5
1358
330
2
100
AcDbEntity
  8
0
100
AcDbCircle
 10
1111.39252497557
 20
375.6487710600338
 30
0.0
 40
0.2
100
AcDbArc
 50
90.0
 51
180.0
  0
ARC
  5
1359
330
2
100
AcDbEntity
  8
0
100
AcDbCircle
 10
1113.39252497557
 20
449.9487710600349
 30
0.0
 40
0.2
100
AcDbArc
 50
90.0
 51
180.0
  0
ARC
  5
135A
330
2
100
AcDbEntity
  8
0
100
AcDbCircle
 10
1112.99252497557
 20
449.6487710600338
 30
0.0
 40
0.2
100
AcDbArc
 50
270.0
 51
0.0
  0
ARC
  5
135B
330
2
100
AcDbEntity
  8
0
100
AcDbCircle
 10
1111.39252497557
 20
449.6487710600338
 30
0.0
 40
0.2
100
AcDbArc
 50
180.0
 51
270.0
  0
LINE
  5
135C
330
2
100
AcDbEntity
  8
0
100
AcDbLine
 10
1114.692524975569
 20
375.1487710600339
 30
0.0
 11
1114.692524975569
 21
450.1487710600338
 31
0.0
  0
LINE
  5
135D
330
2
100
AcDbEntity
  8
0
100
AcDbLine
 10
1110.99252497557
 20
375.1487710600339
 30
0.0
 11
1110.99252497557
 21
450.1487710600338
 31
0.0
  0
ARC
  5
135E
330
2
100
AcDbEntity
  8
0
100
AcDbCircle
 10
1103.192524975569
 20
470.5221553202971
 30
0.0
 40
2.0
100
AcDbArc
 50
0.0
 51
89.5000000000345
  0
LINE
  5
135F
330
2
100
AcDbEntity
  8
0
100
AcDbLine
 10
1088.692524975567
 20
472.6487710600339
 30
0.0
 11
1103.209978046566
 21
472.5220791664249
 31
0.0
  0
LINE
  5
1360
330
2
100
AcDbEntity
  8
0
100
AcDbLine
 10
1088.692524975565
 20
455.648771060032
 30
0.0
 11
1100.209978046563
 21
455.5482597697953
 31
0.0
  0
LINE
  5
1361
330
2
100
AcDbEntity
  8
0
100
AcDbLine
 10
1099.192524975566
 20
439.148771060032
 30
0.0
 11
1100.192524975565
 21
439.148771060032
 31
0.0
  0
ARC
  5
1362
330
2
100
AcDbEntity
  8
0
100
AcDbCircle
 10
1099.192524975565
 20
439.648771060032
 30
0.0
 40
0.5
100
AcDbArc
 50
179.9999999998957
 51
270.0000000000521
  0
ARC
  5
1363
330
2
100
AcDbEntity
  8
0
100
AcDbCircle
 10
1100.192524975565
 20
437.148771060032
 30
0.0
 40
2.0
100
AcDbArc
 50
0.0
 51
90.0
  0
LINE
  5
1364
330
2
100
AcDbEntity
  8
0
100
AcDbLine
 10
1098.692524975565
 20
371.7186621591334
 30
0.0
 11
1098.692524975565
 21
385.6487710600357
 31
0.0
  0
ARC
  5
1365
330
2
100
AcDbEntity
  8
0
100
AcDbCircle
 10
1096.692524975565
 20
371.7186621591334
 30
0.0
 40
2.0
100
AcDbArc
 50
270.5000000000175
 51
0.0
  0
LINE
  5
1366
330
2
100
AcDbEntity
  8
0
100
AcDbLine
 10
1099.192524975566
 20
386.1487710600357
 30
0.0
 11
1100.192524975565
 21
386.1487710600357
 31
0.0
  0
ARC
  5
1367
330
2
100
AcDbEntity
  8
0
100
AcDbCircle
 10
1099.192524975565
 20
385.6487710600357
 30
0.0
 40
0.5
100
AcDbArc
 50
89.99999999994789
 51
180.0000000001042
  0
ARC
  5
1368
330
2
100
AcDbEntity
  8
0
100
AcDbCircle
 10
1100.192524975565
 20
388.1487710600357
 30
0.0
 40
2.0
100
AcDbArc
 50
270.0
 51
0.0
  0
LINE
  5
1369
330
2
100
AcDbEntity
  8
0
100
AcDbLine
 10
1088.692524975565
 20
369.6487710600357
 30
0.0
 11
1100.209978046558
 21
369.7492823502723
 31
0.0
  0
ARC
  5
136A
330
2
100
AcDbEntity
  8
0
100
AcDbCircle
 10
1100.192524975562
 20
371.7492061964001
 30
0.0
 40
2.0
100
AcDbArc
 50
270.5000000000175
 51
342.5293287626834
  0
LINE
  5
136B
330
2
100
AcDbEntity
  8
CENTER
  6
CENS
100
AcDbLine
 10
1110.192524975569
 20
447.648771060032
 30
0.0
 11
1083.692524975566
 21
447.648771060032
 31
0.0
  0
LINE
  5
136C
330
2
100
AcDbEntity
  8
0
100
AcDbLine
 10
1108.692524975565
 20
442.014796463818
 30
0.0
 11
1108.692524975565
 21
453.2827456562479
 31
0.0
  0
LINE
  5
136D
330
2
100
AcDbEntity
  8
0
100
AcDbLine
 10
1098.692524975565
 20
441.148771060032
 30
0.0
 11
1098.692524975565
 21
454.148771060032
 31
0.0
  0
LINE
  5
136E
330
2
100
AcDbEntity
  8
0
100
AcDbLine
 10
1100.692524975565
 20
441.148771060032
 30
0.0
 11
1100.692524975565
 21
454.148771060032
 31
0.0
  0
LINE
  5
136F
330
2
100
AcDbEntity
  8
0
100
AcDbLine
 10
1108.192524975565
 20
454.148771060032
 30
0.0
 11
1108.692524975565
 21
453.2827456562479
 31
0.0
  0
LINE
  5
1370
330
2
100
AcDbEntity
  8
0
100
AcDbLine
 10
1098.692524975565
 20
454.148771060032
 30
0.0
 11
1100.692524975565
 21
454.148771060032
 31
0.0
  0
LINE
  5
1371
330
2
100
AcDbEntity
  8
0
100
AcDbLine
 10
1100.692524975565
 20
454.148771060032
 30
0.0
 11
1108.192524975565
 21
454.148771060032
 31
0.0
  0
LINE
  5
1372
330
2
100
AcDbEntity
  8
0
100
AcDbLine
 10
1108.192524975565
 20
441.148771060032
 30
0.0
 11
1108.692524975565
 21
442.0147964638161
 31
0.0
  0
LINE
  5
1373
330
2
100
AcDbEntity
  8
0
100
AcDbLine
 10
1098.692524975565
 20
441.148771060032
 30
0.0
 11
1100.692524975565
 21
441.148771060032
 31
0.0
  0
LINE
  5
1374
330
2
100
AcDbEntity
  8
0
100
AcDbLine
 10
1100.692524975565
 20
441.148771060032
 30
0.0
 11
1108.192524975565
 21
441.148771060032
 31
0.0
  0
LINE
  5
1375
330
2
100
AcDbEntity
  8
0
100
AcDbLine
 10
1108.192524975565
 20
441.148771060032
 30
0.0
 11
1108.192524975565
 21
454.148771060032
 31
0.0
  0
LINE
  5
1376
330
2
100
AcDbEntity
  8
CENTER
  6
CENS
100
AcDbLine
 10
1110.192524975569
 20
377.6487710600357
 30
0.0
 11
1083.692524975566
 21
377.6487710600357
 31
0.0
  0
LINE
  5
1377
330
2
100
AcDbEntity
  8
0
100
AcDbLine
 10
1108.692524975565
 20
383.2827456562516
 30
0.0
 11
1108.692524975565
 21
372.0147964638197
 31
0.0
  0
LINE
  5
1378
330
2
100
AcDbEntity
  8
0
100
AcDbLine
 10
1098.692524975565
 20
384.1487710600357
 30
0.0
 11
1098.692524975565
 21
371.1487710600357
 31
0.0
  0
LINE
  5
1379
330
2
100
AcDbEntity
  8
0
100
AcDbLine
 10
1100.692524975565
 20
384.1487710600357
 30
0.0
 11
1100.692524975565
 21
371.1487710600357
 31
0.0
  0
LINE
  5
137A
330
2
100
AcDbEntity
  8
0
100
AcDbLine
 10
1108.192524975565
 20
371.1487710600357
 30
0.0
 11
1108.692524975565
 21
372.0147964638197
 31
0.0
  0
LINE
  5
137B
330
2
100
AcDbEntity
  8
0
100
AcDbLine
 10
1098.692524975565
 20
371.1487710600357
 30
0.0
 11
1100.692524975565
 21
371.1487710600357
 31
0.0
  0
LINE
  5
137C
330
2
100
AcDbEntity
  8
0
100
AcDbLine
 10
1100.692524975565
 20
371.1487710600357
 30
0.0
 11
1108.192524975565
 21
371.1487710600357
 31
0.0
  0
LINE
  5
137D
330
2
100
AcDbEntity
  8
0
100
AcDbLine
 10
1108.192524975565
 20
384.1487710600357
 30
0.0
 11
1108.692524975565
 21
383.2827456562516
 31
0.0
  0
LINE
  5
137E
330
2
100
AcDbEntity
  8
0
100
AcDbLine
 10
1100.692524975565
 20
384.1487710600357
 30
0.0
 11
1108.192524975565
 21
384.1487710600357
 31
0.0
  0
LINE
  5
137F
330
2
100
AcDbEntity
  8
0
100
AcDbLine
 10
1108.192524975565
 20
384.1487710600357
 30
0.0
 11
1108.192524975565
 21
371.1487710600357
 31
0.0
  0
LINE
  5
1380
330
2
100
AcDbEntity
  8
0
100
AcDbLine
 10
1100.692524975565
 20
384.1487710600357
 30
0.0
 11
1098.692524975565
 21
384.1487710600357
 31
0.0
  0
LINE
  5
1381
330
2
100
AcDbEntity
  8
0
100
AcDbLine
 10
1117.692524975564
 20
390.6488170600367
 30
0.0
 11
1117.692524975564
 21
434.6488170600367
 31
0.0
  0
LINE
  5
1382
330
2
100
AcDbEntity
  8
0
100
AcDbLine
 10
1115.692524975565
 20
434.6488170600367
 30
0.0
 11
1117.692524975564
 21
434.6488170600367
 31
0.0
  0
LINE
  5
1383
330
2
100
AcDbEntity
  8
0
100
AcDbLine
 10
1115.692524975564
 20
390.6488170600367
 30
0.0
 11
1117.692524975564
 21
390.6488170600367
 31
0.0
  0
LINE
  5
1384
330
2
100
AcDbEntity
  8
0
100
AcDbLine
 10
980.1925249755639
 20
390.6488170600367
 30
0.0
 11
980.1925249755639
 21
434.6488170600367
 31
0.0
  0
LINE
  5
1385
330
2
100
AcDbEntity
  8
0
100
AcDbLine
 10
980.1925249755639
 20
434.6488170600367
 30
0.0
 11
993.1925249755639
 21
434.6488170600367
 31
0.0
  0
LINE
  5
1386
330
2
100
AcDbEntity
  8
0
100
AcDbLine
 10
980.1925249755639
 20
390.6488170600367
 30
0.0
 11
993.1925249755639
 21
390.6488170600367
 31
0.0
  0
LINE
  5
1387
330
2
100
AcDbEntity
  8
0
100
AcDbLine
 10
1108.692524975706
 20
457.0147964638179
 30
0.0
 11
1108.692524975706
 21
468.2827456562498
 31
0.0
  0
LINE
  5
1388
330
2
100
AcDbEntity
  8
0
100
AcDbLine
 10
1108.192524975706
 20
469.1487710600338
 30
0.0
 11
1108.692524975706
 21
468.2827456562498
 31
0.0
  0
LINE
  5
1389
330
2
100
AcDbEntity
  8
0
100
AcDbLine
 10
1105.19252497557
 20
469.1487710600338
 30
0.0
 11
1108.192524975706
 21
469.1487710600338
 31
0.0
  0
LINE
  5
138A
330
2
100
AcDbEntity
  8
CENTER
  6
CENS
100
AcDbLine
 10
1081.93264268371
 20
462.6487710600338
 30
0.0
 11
1111.692524975705
 21
462.6487710600338
 31
0.0
  0
LINE
  5
138B
330
2
100
AcDbEntity
  8
0
100
AcDbLine
 10
1108.192524975706
 20
456.1487710600339
 30
0.0
 11
1108.692524975706
 21
457.0147964638179
 31
0.0
  0
LINE
  5
138C
330
2
100
AcDbEntity
  8
0
100
AcDbLine
 10
1107.192524975569
 20
456.1487710600339
 30
0.0
 11
1108.192524975706
 21
456.1487710600339
 31
0.0
  0
LINE
  5
138D
330
2
100
AcDbEntity
  8
0
100
AcDbLine
 10
1108.192524975706
 20
456.1487710600339
 30
0.0
 11
1108.192524975706
 21
469.1487710600338
 31
0.0
  0
LINE
  5
138E
330
2
100
AcDbEntity
  8
0
100
AcDbLine
 10
1108.692524975706
 20
368.2827456562498
 30
0.0
 11
1108.692524975706
 21
357.0147964638197
 31
0.0
  0
LINE
  5
138F
330
2
100
AcDbEntity
  8
0
100
AcDbLine
 10
1108.192524975706
 20
356.1487710600339
 30
0.0
 11
1108.692524975706
 21
357.0147964638197
 31
0.0
  0
LINE
  5
1390
330
2
100
AcDbEntity
  8
0
100
AcDbLine
 10
1105.192524975568
 20
356.1487710600339
 30
0.0
 11
1108.192524975706
 21
356.1487710600339
 31
0.0
  0
LINE
  5
1391
330
2
100
AcDbEntity
  8
CENTER
  6
CENS
100
AcDbLine
 10
1081.93264268371
 20
362.6487710600339
 30
0.0
 11
1111.692524975705
 21
362.6487710600339
 31
0.0
  0
LINE
  5
1392
330
2
100
AcDbEntity
  8
0
100
AcDbLine
 10
1107.19252497557
 20
369.1487710600338
 30
0.0
 11
1108.192524975706
 21
369.1487710600338
 31
0.0
  0
LINE
  5
1393
330
2
100
AcDbEntity
  8
0
100
AcDbLine
 10
1108.192524975706
 20
369.1487710600338
 30
0.0
 11
1108.192524975706
 21
356.1487710600339
 31
0.0
  0
LINE
  5
1394
330
2
100
AcDbEntity
  8
0
100
AcDbLine
 10
1108.192524975706
 20
369.1487710600338
 30
0.0
 11
1108.692524975706
 21
368.2827456562498
 31
0.0
  0
LINE
  5
1395
330
2
100
AcDbEntity
  8
0
100
AcDbLine
 10
824.8364661774338
 20
714.763084978447
 30
0.0
 11
824.8364661774356
 21
655.4630849784468
 31
0.0
  0
LINE
  5
1396
330
2
100
AcDbEntity
  8
0
100
AcDbLine
 10
846.8364661774339
 20
682.1130849784474
 30
0.0
 11
846.8364661774339
 21
663.1130849784474
 31
0.0
  0
LINE
  5
1397
330
2
100
AcDbEntity
  8
0
100
AcDbLine
 10
849.8364661774338
 20
685.1130849784474
 30
0.0
 11
857.8364661774321
 21
685.1130849784474
 31
0.0
  0
LINE
  5
1398
330
2
100
AcDbEntity
  8
0
100
AcDbLine
 10
826.4420174528986
 20
725.1130849784474
 30
0.0
 11
870.836466177432
 21
725.1130849784474
 31
0.0
  0
LINE
  5
1399
330
2
100
AcDbEntity
  8
0
100
AcDbLine
 10
860.836466177432
 20
720.1130849784474
 30
0.0
 11
860.836466177432
 21
688.1130849784474
 31
0.0
  0
ARC
  5
139A
330
2
100
AcDbEntity
  8
0
100
AcDbCircle
 10
865.8364661774321
 20
720.1130849784474
 30
0.0
 40
5.0
100
AcDbArc
 50
90.0
 51
180.0
  0
ARC
  5
139B
330
2
100
AcDbEntity
  8
0
100
AcDbCircle
 10
857.8364661774321
 20
688.1130849784474
 30
0.0
 40
3.0
100
AcDbArc
 50
270.0
 51
0.0
  0
LINE
  5
139C
330
2
100
AcDbEntity
  8
0
100
AcDbLine
 10
815.8364661774339
 20
726.1130849784474
 30
0.0
 11
822.8364661774357
 21
726.1130849784474
 31
0.0
  0
ARC
  5
139D
330
2
100
AcDbEntity
  8
0
100
AcDbCircle
 10
826.4420174528986
 20
730.1130849784474
 30
0.0
 40
5.0
100
AcDbArc
 50
238.9972808660663
 51
270.0
  0
ARC
  5
139E
330
2
100
AcDbEntity
  8
0
100
AcDbCircle
 10
822.8364661774357
 20
724.1130849784474
 30
0.0
 40
2.0
100
AcDbArc
 50
18.96557498886337
 51
90.0
  0
ARC
  5
139F
330
2
100
AcDbEntity
  8
0
100
AcDbCircle
 10
849.8364661774338
 20
682.1130849784474
 30
0.0
 40
3.0
100
AcDbArc
 50
90.0
 51
180.0
  0
LINE
  5
13A0
330
2
100
AcDbEntity
  8
0
100
AcDbLine
 10
826.4420174528986
 20
645.1130849784474
 30
0.0
 11
870.836466177432
 21
645.1130849784465
 31
0.0
  0
LINE
  5
13A1
330
2
100
AcDbEntity
  8
0
100
AcDbLine
 10
849.8364661774338
 20
660.1130849784474
 30
0.0
 11
857.8364661774321
 21
660.1130849784474
 31
0.0
  0
LINE
  5
13A2
330
2
100
AcDbEntity
  8
0
100
AcDbLine
 10
860.836466177432
 20
657.1130849784474
 30
0.0
 11
860.836466177432
 21
650.1130849784465
 31
0.0
  0
ARC
  5
13A3
330
2
100
AcDbEntity
  8
0
100
AcDbCircle
 10
857.8364661774321
 20
657.1130849784474
 30
0.0
 40
3.0
100
AcDbArc
 50
0.0
 51
90.0
  0
ARC
  5
13A4
330
2
100
AcDbEntity
  8
0
100
AcDbCircle
 10
865.8364661774321
 20
650.1130849784474
 30
0.0
 40
5.0
100
AcDbArc
 50
180.0
 51
270.0
  0
ARC
  5
13A5
330
2
100
AcDbEntity
  8
0
100
AcDbCircle
 10
849.8364661774338
 20
663.1130849784474
 30
0.0
 40
3.0
100
AcDbArc
 50
180.0
 51
270.0
  0
LINE
  5
13A6
330
2
100
AcDbEntity
  8
0
100
AcDbLine
 10
815.8364661774339
 20
644.1130849784465
 30
0.0
 11
822.8364661774357
 21
644.1130849784474
 31
0.0
  0
ARC
  5
13A7
330
2
100
AcDbEntity
  8
0
100
AcDbCircle
 10
826.4420174528986
 20
640.1130849784474
 30
0.0
 40
5.0
100
AcDbArc
 50
90.0
 51
121.0027191339336
  0
ARC
  5
13A8
330
2
100
AcDbEntity
  8
0
100
AcDbCircle
 10
822.8364661774357
 20
646.1130849784474
 30
0.0
 40
2.0
100
AcDbArc
 50
270.0
 51
341.0344250111366
  0
LINE
  5
13A9
330
2
100
AcDbEntity
  8
0
100
AcDbLine
 10
870.836466177432
 20
725.1130849784474
 30
0.0
 11
870.836466177432
 21
645.1130849784465
 31
0.0
  0
LINE
  5
13AA
330
2
100
AcDbEntity
  8
0
100
AcDbLine
 10
1021.131921154484
 20
453.6487710600329
 30
0.0
 11
1033.319541629357
 21
453.6487710600338
 31
0.0
  0
LINE
  5
13AB
330
2
100
AcDbEntity
  8
0
100
AcDbLine
 10
1051.065508321771
 20
453.6487710600357
 30
0.0
 11
1093.253128796645
 21
453.6487710600384
 31
0.0
  0
CIRCLE
  5
13AC
330
2
100
AcDbEntity
  8
HIDS
100
AcDbCircle
 10
1057.192524975564
 20
412.6487710600338
 30
0.0
 40
40.0
  0
CIRCLE
  5
13AD
330
2
100
AcDbEntity
  8
0
100
AcDbCircle
 10
1057.192524975564
 20
412.6487710600338
 30
0.0
 40
34.99999999543831
  0
LINE
  5
13AE
330
2
100
AcDbEntity
  8
0
100
AcDbLine
 10
1025.192524975565
 20
452.6487710600338
 30
0.0
 11
1089.192524975564
 21
452.6487710600338
 31
0.0
  0
LINE
  5
13AF
330
2
100
AcDbEntity
  8
0
100
AcDbLine
 10
1025.192524975565
 20
372.6487710600338
 30
0.0
 11
1089.099406677004
 21
372.6487710600338
 31
0.0
  0
LINE
  5
13B0
330
2
100
AcDbEntity
  8
0
100
AcDbLine
 10
1016.132292915516
 20
376.5877999839484
 30
0.0
 11
1015.692524975574
 21
412.6487710600338
 31
0.0
  0
LINE
  5
13B1
330
2
100
AcDbEntity
  8
0
100
AcDbLine
 10
1017.285677120454
 20
380.6255000454673
 30
0.0
 11
1017.192524975564
 21
412.6487710600338
 31
0.0
  0
ARC
  5
13B2
330
2
100
AcDbEntity
  8
0
100
AcDbCircle
 10
1021.131921154484
 20
376.6487710600338
 30
0.0
 40
5.0
100
AcDbArc
 50
180.6986943829997
 51
270.0
  0
ARC
  5
13B3
330
2
100
AcDbEntity
  8
0
100
AcDbCircle
 10
1025.285643274125
 20
380.6487710600338
 30
0.0
 40
7.999999999999998
100
AcDbArc
 50
180.1666666000128
 51
270.0
  0
LINE
  5
13B4
330
2
100
AcDbEntity
  8
CENTER
100
AcDbLine
 10
1025.372524975565
 20
386.3287710600332
 30
0.0
 11
1025.372524975565
 21
375.3287710600332
 31
0.0
  0
LINE
  5
13B5
330
2
100
AcDbEntity
  8
CENTER
100
AcDbLine
 10
1019.872524975565
 20
380.8287710600332
 30
0.0
 11
1030.872524975565
 21
380.8287710600332
 31
0.0
  0
LINE
  5
13B6
330
2
100
AcDbEntity
  8
0
100
AcDbLine
 10
1016.132292915516
 20
448.7097421361184
 30
0.0
 11
1015.692524975574
 21
412.6487710600338
 31
0.0
  0
LINE
  5
13B7
330
2
100
AcDbEntity
  8
HIDS
100
AcDbLine
 10
1036.442524975563
 20
452.6487710600338
 30
0.0
 11
1036.781146611924
 21
433.2491505054784
 31
0.0
  0
LINE
  5
13B8
330
2
100
AcDbEntity
  8
HIDS
100
AcDbLine
 10
1047.942524975563
 20
452.6487710600338
 30
0.0
 11
1047.722770692371
 21
440.0590566079061
 31
0.0
  0
LINE
  5
13B9
330
2
100
AcDbEntity
  8
0
100
AcDbLine
 10
1017.285677120454
 20
444.6720420746003
 30
0.0
 11
1017.192524975564
 21
412.6487710600338
 31
0.0
  0
LINE
  5
13BA
330
2
100
AcDbEntity
  8
CENTER
100
AcDbLine
 10
1025.372524975565
 20
449.9687710600335
 30
0.0
 11
1025.372524975565
 21
438.9687710600336
 31
0.0
  0
ARC
  5
13BB
330
2
100
AcDbEntity
  8
HIDS
100
AcDbCircle
 10
1034.157919501795
 20
450.6487710600338
 30
0.0
 40
2.0
100
AcDbArc
 50
90.0
 51
178.9999999999982
  0
ARC
  5
13BC
330
2
100
AcDbEntity
  8
0
100
AcDbCircle
 10
1021.131921154484
 20
448.648771060033
 30
0.0
 40
5.0
100
AcDbArc
 50
90.0
 51
179.3013056170263
  0
ARC
  5
13BD
330
2
100
AcDbEntity
  8
0
100
AcDbCircle
 10
1025.285643274125
 20
444.6487710600338
 30
0.0
 40
7.999999999999998
100
AcDbArc
 50
90.0
 51
179.8333333999871
  0
LINE
  5
13BE
330
2
100
AcDbEntity
  8
CENTER
100
AcDbLine
 10
1019.872524975565
 20
444.4687710600335
 30
0.0
 11
1030.872524975565
 21
444.4687710600335
 31
0.0
  0
LINE
  5
13BF
330
2
100
AcDbEntity
  8
HIDS
100
AcDbLine
 10
1032.158224111483
 20
450.6836758729075
 30
0.0
 11
1032.061073149224
 21
445.1179009726418
 31
0.0
  0
ARC
  5
13C0
330
2
100
AcDbEntity
  8
HIDS
100
AcDbCircle
 10
1029.061530063753
 20
445.1702581919533
 30
0.0
 40
3.0
100
AcDbArc
 50
310.8597132650692
 51
358.9999999999982
  0
LINE
  5
13C1
330
2
100
AcDbEntity
  8
0
100
AcDbLine
 10
1098.252757035613
 20
376.5877999839484
 30
0.0
 11
1098.692524975555
 21
412.648771060002
 31
0.0
  0
LINE
  5
13C2
330
2
100
AcDbEntity
  8
0
100
AcDbLine
 10
1097.099372830675
 20
380.6255000454673
 30
0.0
 11
1097.192524975564
 21
412.6487710600338
 31
0.0
  0
ARC
  5
13C3
330
2
100
AcDbEntity
  8
0
100
AcDbCircle
 10
1093.253128796645
 20
376.6487710600338
 30
0.0
 40
5.0
100
AcDbArc
 50
270.0
 51
359.3013056170002
  0
ARC
  5
13C4
330
2
100
AcDbEntity
  8
0
100
AcDbCircle
 10
1089.099406677004
 20
380.6487710600338
 30
0.0
 40
8.0
100
AcDbArc
 50
270.0
 51
359.8333334000132
  0
LINE
  5
13C5
330
2
100
AcDbEntity
  8
HIDS
100
AcDbLine
 10
1082.226825839646
 20
374.6138662471583
 30
0.0
 11
1082.323976801905
 21
380.179641147425
 31
0.0
  0
LINE
  5
13C6
330
2
100
AcDbEntity
  8
CENTER
100
AcDbLine
 10
1089.012524975564
 20
386.3287710600332
 30
0.0
 11
1089.012524975564
 21
375.3287710600332
 31
0.0
  0
ARC
  5
13C7
330
2
100
AcDbEntity
  8
HIDS
100
AcDbCircle
 10
1080.227130449332
 20
374.6487710600338
 30
0.0
 40
2.0
100
AcDbArc
 50
270.0
 51
358.9999999999982
  0
LINE
  5
13C8
330
2
100
AcDbEntity
  8
CENTER
100
AcDbLine
 10
1083.512524975564
 20
380.8287710600332
 30
0.0
 11
1094.512524975564
 21
380.8287710600332
 31
0.0
  0
ARC
  5
13C9
330
2
100
AcDbEntity
  8
HIDS
100
AcDbCircle
 10
1085.323519887374
 20
380.1272839281125
 30
0.0
 40
3.0
100
AcDbArc
 50
130.8597132650689
 51
178.9999999999982
  0
LINE
  5
13CA
330
2
100
AcDbEntity
  8
0
100
AcDbLine
 10
1098.252757035613
 20
448.7097421361184
 30
0.0
 11
1098.692524975555
 21
412.648771060002
 31
0.0
  0
LINE
  5
13CB
330
2
100
AcDbEntity
  8
0
100
AcDbLine
 10
1097.099372830675
 20
444.6720420746003
 30
0.0
 11
1097.192524975564
 21
412.6487710600338
 31
0.0
  0
LINE
  5
13CC
330
2
100
AcDbEntity
  8
CENTER
100
AcDbLine
 10
1089.012524975564
 20
449.9687710600335
 30
0.0
 11
1089.012524975564
 21
438.9687710600336
 31
0.0
  0
ARC
  5
13CD
330
2
100
AcDbEntity
  8
0
100
AcDbCircle
 10
1089.099406677004
 20
444.6487710600338
 30
0.0
 40
8.0
100
AcDbArc
 50
0.1666666000128655
 51
90.0
  0
LINE
  5
13CE
330
2
100
AcDbEntity
  8
CENTER
100
AcDbLine
 10
1083.512524975564
 20
444.4687710600335
 30
0.0
 11
1094.512524975564
 21
444.4687710600335
 31
0.0
  0
ARC
  5
13CF
330
2
100
AcDbEntity
  8
0
100
AcDbCircle
 10
1093.253128796645
 20
448.6487710600338
 30
0.0
 40
5.0
100
AcDbArc
 50
0.6986943829736866
 51
90.0
  0
CIRCLE
  5
13D0
330
2
100
AcDbEntity
  8
0
100
AcDbCircle
 10
1025.372524975565
 20
444.4687710600335
 30
0.0
 40
2.5
  0
CIRCLE
  5
13D1
330
2
100
AcDbEntity
  8
HOJO
100
AcDbCircle
 10
1025.372524975565
 20
444.4687710600335
 30
0.0
 40
3.0
  0
CIRCLE
  5
13D2
330
2
100
AcDbEntity
  8
0
100
AcDbCircle
 10
1089.012524975564
 20
444.4687710600335
 30
0.0
 40
2.5
  0
CIRCLE
  5
13D3
330
2
100
AcDbEntity
  8
HOJO
100
AcDbCircle
 10
1089.012524975564
 20
444.4687710600335
 30
0.0
 40
3.0
  0
CIRCLE
  5
13D4
330
2
100
AcDbEntity
  8
0
100
AcDbCircle
 10
1089.012524975564
 20
380.8287710600332
 30
0.0
 40
2.5
  0
CIRCLE
  5
13D5
330
2
100
AcDbEntity
  8
HOJO
100
AcDbCircle
 10
1089.012524975564
 20
380.8287710600332
 30
0.0
 40
3.0
  0
CIRCLE
  5
13D6
330
2
100
AcDbEntity
  8
0
100
AcDbCircle
 10
1025.372524975565
 20
380.8287710600332
 30
0.0
 40
2.5
  0
CIRCLE
  5
13D7
330
2
100
AcDbEntity
  8
HOJO
100
AcDbCircle
 10
1025.372524975565
 20
380.8287710600332
 30
0.0
 40
3.0
  0
LINE
  5
13D8
330
2
100
AcDbEntity
  8
0
100
AcDbLine
 10
824.6468427831395
 20
423.5122880402194
 30
0.0
 11
824.1551093794559
 21
451.6836758729021
 31
0.0
  0
LINE
  5
13D9
330
2
100
AcDbEntity
  8
0
100
AcDbLine
 10
861.4489166143565
 20
447.7360330922182
 30
0.0
 11
861.3868829115515
 21
444.1821246387788
 31
0.0
  0
ARC
  5
13DA
330
2
100
AcDbEntity
  8
0
100
AcDbCircle
 10
822.155413989144
 20
373.6487710600311
 30
0.0
 40
2.0
100
AcDbArc
 50
270.0
 51
358.9999999999982
  0
LINE
  5
13DB
330
2
100
AcDbEntity
  8
0
100
AcDbLine
 10
815.836466177431
 20
412.648771060032
 30
0.0
 11
818.2862971126541
 21
412.648771060032
 31
0.0
  0
LINE
  5
13DC
330
2
100
AcDbEntity
  8
0
100
AcDbLine
 10
824.8364661774312
 20
412.648771060032
 30
0.0
 11
824.1551093794576
 21
373.6138662471565
 31
0.0
  0
LINE
  5
13DD
330
2
100
AcDbEntity
  8
0
100
AcDbLine
 10
861.4489166143565
 20
377.561509027845
 30
0.0
 11
860.8364661774329
 21
412.648771060032
 31
0.0
  0
LINE
  5
13DE
330
2
100
AcDbEntity
  8
0
100
AcDbLine
 10
870.8364661774311
 20
372.648771060032
 30
0.0
 11
825.3176916493128
 21
372.6487710600311
 31
0.0
  0
ARC
  5
13DF
330
2
100
AcDbEntity
  8
0
100
AcDbCircle
 10
866.448155090139
 20
377.6487710600311
 30
0.0
 40
5.0
100
AcDbArc
 50
181.0000000000017
 51
270.0
  0
LINE
  5
13E0
330
2
100
AcDbEntity
  8
0
100
AcDbLine
 10
815.836466177431
 20
371.6487710600311
 30
0.0
 11
822.155413989144
 21
371.6487710600311
 31
0.0
  0
ARC
  5
13E1
330
2
100
AcDbEntity
  8
0
100
AcDbCircle
 10
822.155413989144
 20
451.648771060032
 30
0.0
 40
2.0
100
AcDbArc
 50
0.9999999998975358
 51
90.0
  0
LINE
  5
13E2
330
2
100
AcDbEntity
  8
0
100
AcDbLine
 10
870.8364661774311
 20
452.6487710600311
 30
0.0
 11
825.3176916493128
 21
452.648771060032
 31
0.0
  0
ARC
  5
13E3
330
2
100
AcDbEntity
  8
0
100
AcDbCircle
 10
866.448155090139
 20
447.6487710600311
 30
0.0
 40
5.0
100
AcDbArc
 50
90.0
 51
178.9999999999982
  0
LINE
  5
13E4
330
2
100
AcDbEntity
  8
0
100
AcDbLine
 10
815.836466177433
 20
453.648771060032
 30
0.0
 11
822.155413989144
 21
453.648771060032
 31
0.0
  0
LINE
  5
13E5
330
2
100
AcDbEntity
  8
0
100
AcDbLine
 10
870.8364661774311
 20
452.6487710600311
 30
0.0
 11
870.8364661774311
 21
372.648771060032
 31
0.0
  0
ARC
  5
13E6
330
2
100
AcDbEntity
  8
0
100
AcDbCircle
 10
825.3176916493128
 20
456.148771060032
 30
0.0
 40
3.5
100
AcDbArc
 50
234.9031987723859
 51
270.0
  0
ARC
  5
13E7
330
2
100
AcDbEntity
  8
0
100
AcDbCircle
 10
825.3176916493128
 20
369.1487710600311
 30
0.0
 40
3.5
100
AcDbArc
 50
90.0
 51
125.0968012276146
  0
ARC
  5
13E8
330
2
100
AcDbEntity
  8
0
100
AcDbCircle
 10
1079.78856841575
 20
492.4295623719961
 30
0.0
 40
40.0
100
AcDbArc
 50
263.8230035951091
 51
263.9988421367181
  0
ARC
  5
13E9
330
2
100
AcDbEntity
  8
0
100
AcDbCircle
 10
1034.596481535379
 20
332.8679797480706
 30
0.0
 40
40.0
100
AcDbArc
 50
83.82300359510905
 51
83.99884213682296
  0
LINE
  5
13EA
330
2
100
AcDbEntity
  8
0
100
AcDbLine
 10
1021.131921154484
 20
371.6487710600338
 30
0.0
 11
1093.253128796645
 21
371.6487710600338
 31
0.0
  0
ARC
  5
13EB
330
2
100
AcDbEntity
  8
0
100
AcDbCircle
 10
1079.78856841575
 20
332.8679797480706
 30
0.0
 40
40.0
100
AcDbArc
 50
96.00115786317706
 51
96.17699640489092
  0
LINE
  5
13EC
330
2
100
AcDbEntity
  8
CENTER
100
AcDbLine
 10
809.2316481776604
 20
447.2987710600317
 30
0.0
 11
836.2316481776606
 21
447.2987710600317
 31
0.0
  0
LINE
  5
13ED
330
2
100
AcDbEntity
  8
0
100
AcDbLine
 10
830.9189235022921
 20
442.2987710600317
 30
0.0
 11
830.9189235022921
 21
452.2987710600316
 31
0.0
  0
LINE
  5
13EE
330
2
100
AcDbEntity
  8
0
100
AcDbLine
 10
831.3189235022917
 20
451.6059507370044
 30
0.0
 11
831.3189235022917
 21
442.991591383059
 31
0.0
  0
LINE
  5
13EF
330
2
100
AcDbEntity
  8
0
100
AcDbLine
 10
825.3189235022917
 20
442.2987710600317
 30
0.0
 11
825.3189235022917
 21
452.2987710600316
 31
0.0
  0
LINE
  5
13F0
330
2
100
AcDbEntity
  8
0
100
AcDbLine
 10
825.3189235022917
 20
452.2987710600316
 30
0.0
 11
824.3189235022917
 21
452.2987710600316
 31
0.0
  0
LINE
  5
13F1
330
2
100
AcDbEntity
  8
0
100
AcDbLine
 10
824.3189235022917
 20
452.2987710600316
 30
0.0
 11
824.3189235022917
 21
442.2987710600317
 31
0.0
  0
LINE
  5
13F2
330
2
100
AcDbEntity
  8
0
100
AcDbLine
 10
824.3189235022917
 20
442.2987710600317
 30
0.0
 11
825.3189235022917
 21
442.2987710600317
 31
0.0
  0
LINE
  5
13F3
330
2
100
AcDbEntity
  8
0
100
AcDbLine
 10
825.3189235022917
 20
442.2987710600317
 30
0.0
 11
825.3189235022917
 21
452.2987710600316
 31
0.0
  0
LINE
  5
13F4
330
2
100
AcDbEntity
  8
0
100
AcDbLine
 10
830.9189235022921
 20
442.2987710600317
 30
0.0
 11
825.3189235022917
 21
442.2987710600317
 31
0.0
  0
LINE
  5
13F5
330
2
100
AcDbEntity
  8
0
100
AcDbLine
 10
825.3189235022917
 20
452.2987710600316
 30
0.0
 11
830.9189235022921
 21
452.2987710600316
 31
0.0
  0
LINE
  5
13F6
330
2
100
AcDbEntity
  8
0
100
AcDbLine
 10
830.9189235022921
 20
452.2987710600316
 30
0.0
 11
831.3189235022917
 21
451.6059507370044
 31
0.0
  0
LINE
  5
13F7
330
2
100
AcDbEntity
  8
0
100
AcDbLine
 10
830.9189235022921
 20
442.2987710600317
 30
0.0
 11
831.3189235022917
 21
442.991591383059
 31
0.0
  0
LINE
  5
13F8
330
2
100
AcDbEntity
  8
CENTER
100
AcDbLine
 10
809.2316481776604
 20
377.9987710600315
 30
0.0
 11
836.2316481776606
 21
377.9987710600315
 31
0.0
  0
LINE
  5
13F9
330
2
100
AcDbEntity
  8
0
100
AcDbLine
 10
830.9189235022921
 20
382.9987710600315
 30
0.0
 11
830.9189235022921
 21
372.9987710600315
 31
0.0
  0
LINE
  5
13FA
330
2
100
AcDbEntity
  8
0
100
AcDbLine
 10
831.3189235022917
 20
373.6915913830587
 30
0.0
 11
831.3189235022917
 21
382.3059507370033
 31
0.0
  0
LINE
  5
13FB
330
2
100
AcDbEntity
  8
0
100
AcDbLine
 10
825.3189235022917
 20
382.9987710600315
 30
0.0
 11
825.3189235022917
 21
372.9987710600315
 31
0.0
  0
LINE
  5
13FC
330
2
100
AcDbEntity
  8
0
100
AcDbLine
 10
825.3189235022917
 20
372.9987710600315
 30
0.0
 11
824.3189235022917
 21
372.9987710600315
 31
0.0
  0
LINE
  5
13FD
330
2
100
AcDbEntity
  8
0
100
AcDbLine
 10
824.3189235022917
 20
372.9987710600315
 30
0.0
 11
824.3189235022917
 21
382.9987710600315
 31
0.0
  0
LINE
  5
13FE
330
2
100
AcDbEntity
  8
0
100
AcDbLine
 10
824.3189235022917
 20
382.9987710600315
 30
0.0
 11
825.3189235022917
 21
382.9987710600315
 31
0.0
  0
LINE
  5
13FF
330
2
100
AcDbEntity
  8
0
100
AcDbLine
 10
825.3189235022917
 20
382.9987710600315
 30
0.0
 11
825.3189235022917
 21
372.9987710600315
 31
0.0
  0
LINE
  5
1400
330
2
100
AcDbEntity
  8
0
100
AcDbLine
 10
830.9189235022921
 20
382.9987710600315
 30
0.0
 11
825.3189235022917
 21
382.9987710600315
 31
0.0
  0
LINE
  5
1401
330
2
100
AcDbEntity
  8
0
100
AcDbLine
 10
825.3189235022917
 20
372.9987710600315
 30
0.0
 11
830.9189235022921
 21
372.9987710600315
 31
0.0
  0
LINE
  5
1402
330
2
100
AcDbEntity
  8
0
100
AcDbLine
 10
830.9189235022921
 20
372.9987710600315
 30
0.0
 11
831.3189235022917
 21
373.6915913830587
 31
0.0
  0
LINE
  5
1403
330
2
100
AcDbEntity
  8
0
100
AcDbLine
 10
830.9189235022921
 20
382.9987710600315
 30
0.0
 11
831.3189235022917
 21
382.3059507370042
 31
0.0
  0
LINE
  5
1404
330
2
100
AcDbEntity
  8
CENTER
  6
CENS
100
AcDbLine
 10
809.2316481776615
 20
650.4630849784469
 30
0.0
 11
836.2316481776614
 21
650.4630849784469
 31
0.0
  0
LINE
  5
1405
330
2
100
AcDbEntity
  8
0
100
AcDbLine
 10
830.918923502293
 20
655.4630849784468
 30
0.0
 11
830.918923502293
 21
645.4630849784469
 31
0.0
  0
LINE
  5
1406
330
2
100
AcDbEntity
  8
0
100
AcDbLine
 10
831.3189235022926
 20
646.1559053014741
 30
0.0
 11
831.3189235022926
 21
654.7702646554196
 31
0.0
  0
LINE
  5
1407
330
2
100
AcDbEntity
  8
0
100
AcDbLine
 10
825.3189235022926
 20
655.4630849784468
 30
0.0
 11
825.3189235022926
 21
645.4630849784469
 31
0.0
  0
LINE
  5
1408
330
2
100
AcDbEntity
  8
0
100
AcDbLine
 10
825.3189235022926
 20
645.4630849784469
 30
0.0
 11
824.3189235022926
 21
645.4630849784469
 31
0.0
  0
LINE
  5
1409
330
2
100
AcDbEntity
  8
0
100
AcDbLine
 10
824.3189235022926
 20
645.4630849784469
 30
0.0
 11
824.3189235022926
 21
655.4630849784468
 31
0.0
  0
LINE
  5
140A
330
2
100
AcDbEntity
  8
0
100
AcDbLine
 10
824.3189235022926
 20
655.4630849784468
 30
0.0
 11
825.3189235022926
 21
655.4630849784468
 31
0.0
  0
LINE
  5
140B
330
2
100
AcDbEntity
  8
0
100
AcDbLine
 10
825.3189235022926
 20
655.4630849784468
 30
0.0
 11
825.3189235022926
 21
645.4630849784469
 31
0.0
  0
LINE
  5
140C
330
2
100
AcDbEntity
  8
0
100
AcDbLine
 10
830.918923502293
 20
655.4630849784468
 30
0.0
 11
825.3189235022926
 21
655.4630849784468
 31
0.0
  0
LINE
  5
140D
330
2
100
AcDbEntity
  8
0
100
AcDbLine
 10
825.3189235022926
 20
645.4630849784469
 30
0.0
 11
830.918923502293
 21
645.4630849784469
 31
0.0
  0
LINE
  5
140E
330
2
100
AcDbEntity
  8
0
100
AcDbLine
 10
830.918923502293
 20
645.4630849784469
 30
0.0
 11
831.3189235022926
 21
646.1559053014741
 31
0.0
  0
LINE
  5
140F
330
2
100
AcDbEntity
  8
0
100
AcDbLine
 10
830.918923502293
 20
655.4630849784468
 30
0.0
 11
831.3189235022926
 21
654.7702646554196
 31
0.0
  0
LINE
  5
1410
330
2
100
AcDbEntity
  8
CENTER
  6
CENS
100
AcDbLine
 10
809.2316481776615
 20
719.763084978447
 30
0.0
 11
836.2316481776614
 21
719.763084978447
 31
0.0
  0
LINE
  5
1411
330
2
100
AcDbEntity
  8
0
100
AcDbLine
 10
830.918923502293
 20
714.763084978447
 30
0.0
 11
830.918923502293
 21
724.7630849784471
 31
0.0
  0
LINE
  5
1412
330
2
100
AcDbEntity
  8
0
100
AcDbLine
 10
831.3189235022926
 20
724.0702646554198
 30
0.0
 11
831.3189235022926
 21
715.4559053014752
 31
0.0
  0
LINE
  5
1413
330
2
100
AcDbEntity
  8
0
100
AcDbLine
 10
825.3189235022926
 20
714.763084978447
 30
0.0
 11
825.3189235022926
 21
724.7630849784471
 31
0.0
  0
LINE
  5
1414
330
2
100
AcDbEntity
  8
0
100
AcDbLine
 10
825.3189235022926
 20
724.7630849784471
 30
0.0
 11
824.3189235022926
 21
724.7630849784471
 31
0.0
  0
LINE
  5
1415
330
2
100
AcDbEntity
  8
0
100
AcDbLine
 10
824.3189235022926
 20
724.7630849784471
 30
0.0
 11
824.3189235022926
 21
714.763084978447
 31
0.0
  0
LINE
  5
1416
330
2
100
AcDbEntity
  8
0
100
AcDbLine
 10
824.3189235022926
 20
714.763084978447
 30
0.0
 11
825.3189235022926
 21
714.763084978447
 31
0.0
  0
LINE
  5
1417
330
2
100
AcDbEntity
  8
0
100
AcDbLine
 10
825.3189235022926
 20
714.763084978447
 30
0.0
 11
825.3189235022926
 21
724.7630849784471
 31
0.0
  0
LINE
  5
1418
330
2
100
AcDbEntity
  8
0
100
AcDbLine
 10
830.918923502293
 20
714.763084978447
 30
0.0
 11
825.3189235022926
 21
714.763084978447
 31
0.0
  0
LINE
  5
1419
330
2
100
AcDbEntity
  8
0
100
AcDbLine
 10
825.3189235022926
 20
724.7630849784471
 30
0.0
 11
830.918923502293
 21
724.7630849784471
 31
0.0
  0
LINE
  5
141A
330
2
100
AcDbEntity
  8
0
100
AcDbLine
 10
830.918923502293
 20
724.7630849784471
 30
0.0
 11
831.3189235022926
 21
724.0702646554198
 31
0.0
  0
LINE
  5
141B
330
2
100
AcDbEntity
  8
0
100
AcDbLine
 10
830.918923502293
 20
714.763084978447
 30
0.0
 11
831.3189235022926
 21
715.4559053014752
 31
0.0
  0
LINE
  5
141C
330
2
100
AcDbEntity
  8
0
100
AcDbLine
 10
870.8364661774311
 20
447.648771060032
 30
0.0
 11
863.8364661774311
 21
447.648771060032
 31
0.0
  0
LINE
  5
141D
330
2
100
AcDbEntity
  8
0
100
AcDbLine
 10
863.8364661774311
 20
447.648771060032
 30
0.0
 11
863.8364661774311
 21
412.648771060032
 31
0.0
  0
LINE
  5
141F
330
2
100
AcDbEntity
  8
0
100
AcDbLine
 10
863.8364661774311
 20
432.398771060032
 30
0.0
 11
863.836466177433
 21
412.648771060032
 31
0.0
  0
SPLINE
  5
1420
330
2
100
AcDbEntity
  8
HOJO
100
AcDbSpline
210
0.0
220
0.0
230
1.0
 70
     8
 71
     3
 72
    20
 73
    16
 74
     0
 42
0.0000000001
 43
0.0000000001
 40
1.102548511336045
 40
1.102548511336045
 40
1.102548511336045
 40
1.102548511336045
 40
5.647385924430076
 40
9.759277458584113
 40
14.59638394258456
 40
18.6386056126129
 40
22.25598020257161
 40
26.57819511411361
 40
31.00332353479096
 40
40.39337194914635
 40
45.49899296170218
 40
52.02718752358933
 40
57.17041693382338
 40
65.63449353306062
 40
69.3611614947018
 40
69.3611614947018
 40
69.3611614947018
 40
69.3611614947018
 10
867.2472180997401
 20
452.6487710600311
 30
0.0
 10
865.8384305793468
 20
451.9203436103433
 30
0.0
 10
863.3257446175875
 20
450.3896309881855
 30
0.0
 10
862.0048183714597
 20
445.8251083308312
 30
0.0
 10
860.8549090459117
 20
442.4335388363123
 30
0.0
 10
857.3671526339229
 20
438.759773625068
 30
0.0
 10
855.69531745756
 20
435.2344134950889
 30
0.0
 10
853.7180708971053
 20
431.6836967975939
 30
0.0
 10
850.3302895845417
 20
426.0946522091397
 30
0.0
 10
842.8059305402266
 20
426.2702286567308
 30
0.0
 10
836.077591183578
 20
425.1238581232335
 30
0.0
 10
830.7343246381705
 20
424.3872430397603
 30
0.0
 10
823.735544123784
 20
424.6572220793457
 30
0.0
 10
820.0208113245597
 20
417.5830804020741
 30
0.0
 10
818.698969885764
 20
413.8131739088983
 30
0.0
 10
818.2862971126549
 20
412.648771060032
 30
0.0
  0
LINE
  5
1421
330
2
100
AcDbEntity
  8
HIDS
100
AcDbLine
 10
1047.192524975564
 20
429.6799923902843
 30
0.0
 11
1047.192524975564
 21
417.6487710600339
 31
0.0
  0
LINE
  5
1422
330
2
100
AcDbEntity
  8
CENTER
  6
CENS
100
AcDbLine
 10
1042.192524975565
 20
461.7724554827362
 30
0.0
 11
1042.192524975565
 21
396.8011059025037
 31
0.0
  0
LINE
  5
1423
330
2
100
AcDbEntity
  8
0
100
AcDbLine
 10
1037.456770619574
 20
411.8987710600339
 30
0.0
 11
1047.722176513127
 21
411.8987710600339
 31
0.0
  0
LINE
  5
1424
330
2
100
AcDbEntity
  8
0
100
AcDbLine
 10
1037.456770619574
 20
413.3987710600338
 30
0.0
 11
1047.722176513127
 21
413.3987710600338
 31
0.0
  0
LINE
  5
1425
330
2
100
AcDbEntity
  8
0
100
AcDbLine
 10
1074.392524975563
 20
411.8987710600339
 30
0.0
 11
1074.392524975563
 21
413.3987710600338
 31
0.0
  0
LINE
  5
1426
330
2
100
AcDbEntity
  8
0
100
AcDbLine
 10
1066.662873438002
 20
411.8987710600339
 30
0.0
 11
1074.392524975563
 21
411.8987710600339
 31
0.0
  0
LINE
  5
1427
330
2
100
AcDbEntity
  8
0
100
AcDbLine
 10
1066.662873438002
 20
413.3987710600338
 30
0.0
 11
1074.392524975563
 21
413.3987710600338
 31
0.0
  0
LINE
  5
1428
330
2
100
AcDbEntity
  8
HIDS
100
AcDbLine
 10
1044.692524975564
 20
411.8987710600339
 30
0.0
 11
1044.692524975564
 21
397.3578423766601
 31
0.0
  0
LINE
  5
1429
330
2
100
AcDbEntity
  8
HIDS
100
AcDbLine
 10
1044.275858308899
 20
411.8987710600339
 30
0.0
 11
1044.275858308899
 21
397.7081478393573
 31
0.0
  0
LINE
  5
142A
330
2
100
AcDbEntity
  8
HIDS
100
AcDbLine
 10
1040.109191642231
 20
411.8987710600339
 30
0.0
 11
1040.109191642231
 21
402.7380585618209
 31
0.0
  0
LINE
  5
142B
330
2
100
AcDbEntity
  8
HIDS
100
AcDbLine
 10
1039.692524975565
 20
411.8987710600339
 30
0.0
 11
1039.692524975565
 21
403.4938543482328
 31
0.0
  0
LINE
  5
142C
330
2
100
AcDbEntity
  8
HIDS
100
AcDbLine
 10
1045.192524975565
 20
417.6487710600339
 30
0.0
 11
1045.192524975565
 21
413.3987710600338
 31
0.0
  0
LINE
  5
142D
330
2
100
AcDbEntity
  8
HIDS
100
AcDbLine
 10
1039.192524975564
 20
417.6487710600339
 30
0.0
 11
1039.192524975564
 21
413.3987710600338
 31
0.0
  0
LINE
  5
142E
330
2
100
AcDbEntity
  8
HIDS
100
AcDbLine
 10
1038.08591617128
 20
417.6487710600339
 30
0.0
 11
1047.192524975564
 21
417.6487710600339
 31
0.0
  0
LINE
  5
142F
330
2
100
AcDbEntity
  8
HIDS
100
AcDbLine
 10
1046.442524975564
 20
417.6487710600339
 30
0.0
 11
1046.442524975564
 21
422.3487710600337
 31
0.0
  0
LINE
  5
1430
330
2
100
AcDbEntity
  8
0
100
AcDbLine
 10
1037.942524975565
 20
422.3487710600337
 30
0.0
 11
1037.942524975565
 21
417.6487710600339
 31
0.0
  0
LINE
  5
1431
330
2
100
AcDbEntity
  8
HIDS
100
AcDbLine
 10
1044.692524975564
 20
403.6487710600338
 30
0.0
 11
1043.692524975565
 21
402.6487710600338
 31
0.0
  0
LINE
  5
1432
330
2
100
AcDbEntity
  8
HIDS
100
AcDbLine
 10
1039.692524975565
 20
403.6487710600338
 30
0.0
 11
1040.692524975564
 21
402.6487710600338
 31
0.0
  0
LINE
  5
1433
330
2
100
AcDbEntity
  8
HIDS
100
AcDbLine
 10
1043.692524975565
 20
402.6487710600338
 30
0.0
 11
1042.192524975565
 21
402.6487710600338
 31
0.0
  0
LINE
  5
1434
330
2
100
AcDbEntity
  8
HIDS
100
AcDbLine
 10
1040.692524975564
 20
402.6487710600338
 30
0.0
 11
1042.192524975565
 21
402.6487710600338
 31
0.0
  0
LINE
  5
1435
330
2
100
AcDbEntity
  8
HIDS
100
AcDbLine
 10
1044.692524975564
 20
417.6487710600339
 30
0.0
 11
1044.692524975564
 21
413.3987710600338
 31
0.0
  0
LINE
  5
1436
330
2
100
AcDbEntity
  8
HIDS
100
AcDbLine
 10
1044.275858308899
 20
415.5654377266999
 30
0.0
 11
1044.275858308899
 21
413.3987710600338
 31
0.0
  0
LINE
  5
1437
330
2
100
AcDbEntity
  8
HIDS
100
AcDbLine
 10
1040.109191642231
 20
415.5654377266999
 30
0.0
 11
1040.109191642231
 21
413.3987710600338
 31
0.0
  0
LINE
  5
1438
330
2
100
AcDbEntity
  8
HIDS
100
AcDbLine
 10
1039.692524975565
 20
417.6487710600339
 30
0.0
 11
1039.692524975565
 21
413.3987710600338
 31
0.0
  0
LINE
  5
1439
330
2
100
AcDbEntity
  8
HIDS
100
AcDbLine
 10
1044.692524975564
 20
403.6487710600338
 30
0.0
 11
1042.192524975565
 21
403.6487710600338
 31
0.0
  0
LINE
  5
143A
330
2
100
AcDbEntity
  8
HIDS
100
AcDbLine
 10
1039.692524975565
 20
403.6487710600338
 30
0.0
 11
1042.192524975565
 21
403.6487710600338
 31
0.0
  0
LINE
  5
143B
330
2
100
AcDbEntity
  8
HIDS
100
AcDbLine
 10
1044.692524975564
 20
415.5654377266999
 30
0.0
 11
1039.692524975565
 21
415.5654377266999
 31
0.0
  0
LINE
  5
143C
330
2
100
AcDbEntity
  8
0
100
AcDbLine
 10
1037.942524975565
 20
417.6487710600339
 30
0.0
 11
1038.08591617128
 21
417.6487710600339
 31
0.0
  0
LINE
  5
143D
330
2
100
AcDbEntity
  8
HIDS
100
AcDbLine
 10
1039.692524975565
 20
417.6487710600339
 30
0.0
 11
1040.109191642231
 21
415.5654377266999
 31
0.0
  0
LINE
  5
143E
330
2
100
AcDbEntity
  8
HIDS
100
AcDbLine
 10
1044.692524975564
 20
417.6487710600339
 30
0.0
 11
1044.275858308899
 21
415.5654377266999
 31
0.0
  0
LINE
  5
143F
330
2
100
AcDbEntity
  8
0
100
AcDbLine
 10
1037.942524975565
 20
422.3487710600337
 30
0.0
 11
1039.98867366256
 21
422.3487710600328
 31
0.0
  0
LINE
  5
1440
330
2
100
AcDbEntity
  8
HIDS
100
AcDbLine
 10
1045.922909733294
 20
422.6487710600339
 30
0.0
 11
1040.161303645313
 21
422.6487710600339
 31
0.0
  0
LINE
  5
1441
330
2
100
AcDbEntity
  8
0
100
AcDbLine
 10
1037.942524975565
 20
422.3487710600337
 30
0.0
 11
1038.462140217835
 21
422.6487710600339
 31
0.0
  0
LINE
  5
1442
330
2
100
AcDbEntity
  8
HIDS
100
AcDbLine
 10
1045.922909733294
 20
422.6487710600339
 30
0.0
 11
1046.442524975564
 21
422.3487710600337
 31
0.0
  0
LINE
  5
1443
330
2
100
AcDbEntity
  8
HIDS
100
AcDbLine
 10
1038.08591617128
 20
417.6487710600339
 30
0.0
 11
1046.442524975564
 21
417.6487710600339
 31
0.0
  0
LINE
  5
1444
330
2
100
AcDbEntity
  8
0
100
AcDbLine
 10
1040.161303645313
 20
422.6487710600339
 30
0.0
 11
1038.462140217835
 21
422.6487710600339
 31
0.0
  0
LINE
  5
1445
330
2
100
AcDbEntity
  8
HIDS
100
AcDbLine
 10
1039.98867366256
 20
422.3487710600337
 30
0.0
 11
1046.442524975564
 21
422.3487710600337
 31
0.0
  0
LINE
  5
1446
330
2
100
AcDbEntity
  8
0
100
AcDbLine
 10
1044.692524975564
 20
413.3987710600338
 30
0.0
 11
1044.692524975564
 21
411.8987710600339
 31
0.0
  0
LINE
  5
1447
330
2
100
AcDbEntity
  8
HOJO
100
AcDbLine
 10
1044.275858308899
 20
413.3987710600338
 30
0.0
 11
1044.275858308899
 21
411.8987710600339
 31
0.0
  0
LINE
  5
1448
330
2
100
AcDbEntity
  8
HOJO
100
AcDbLine
 10
1040.109191642231
 20
413.3987710600338
 30
0.0
 11
1040.109191642231
 21
411.8987710600339
 31
0.0
  0
LINE
  5
1449
330
2
100
AcDbEntity
  8
0
100
AcDbLine
 10
1039.692524975565
 20
413.3987710600338
 30
0.0
 11
1039.692524975565
 21
411.8987710600339
 31
0.0
  0
LINE
  5
144A
330
2
100
AcDbEntity
  8
HIDS
100
AcDbLine
 10
1039.692524975565
 20
411.8987710600339
 30
0.0
 11
1039.692524975565
 21
403.6487710600338
 31
0.0
  0
LINE
  5
144B
330
2
100
AcDbEntity
  8
HIDS
100
AcDbLine
 10
1044.275858308899
 20
411.8987710600339
 30
0.0
 11
1044.275858308899
 21
403.2321043933668
 31
0.0
  0
LINE
  5
144C
330
2
100
AcDbEntity
  8
HIDS
100
AcDbLine
 10
1044.692524975564
 20
411.8987710600339
 30
0.0
 11
1044.692524975564
 21
403.6487710600338
 31
0.0
  0
LINE
  5
144D
330
2
100
AcDbEntity
  8
HIDS
100
AcDbLine
 10
1040.109191642231
 20
411.8987710600339
 30
0.0
 11
1040.109191642231
 21
403.2321043933668
 31
0.0
  0
CIRCLE
  5
144E
330
2
100
AcDbEntity
  8
0
100
AcDbCircle
 10
1057.192524975564
 20
412.6487710600338
 30
0.0
 40
19.75
  0
LINE
  5
144F
330
2
100
AcDbEntity
  8
0
100
AcDbLine
 10
1037.192524975565
 20
456.648771060033
 30
0.0
 11
1047.192524975564
 21
456.648771060033
 31
0.0
  0
ARC
  5
1450
330
2
100
AcDbEntity
  8
0
100
AcDbCircle
 10
1047.192524975564
 20
452.648771060033
 30
0.0
 40
4.0
100
AcDbArc
 50
0.0
 51
90.0
  0
ARC
  5
1451
330
2
100
AcDbEntity
  8
0
100
AcDbCircle
 10
1037.192524975565
 20
452.648771060033
 30
0.0
 40
4.0
100
AcDbArc
 50
90.0
 51
180.0
  0
LINE
  5
1452
330
2
100
AcDbEntity
  8
0
100
AcDbLine
 10
861.8364661773947
 20
456.6487710600311
 30
0.0
 11
851.8364661773947
 21
456.6487710600311
 31
0.0
  0
ARC
  5
1453
330
2
100
AcDbEntity
  8
0
100
AcDbCircle
 10
851.8364661773947
 20
452.6487710600311
 30
0.0
 40
4.0
100
AcDbArc
 50
90.0
 51
180.0
  0
ARC
  5
1454
330
2
100
AcDbEntity
  8
0
100
AcDbCircle
 10
861.8364661773947
 20
452.6487710600311
 30
0.0
 40
4.0
100
AcDbArc
 50
0.0
 51
90.0
  0
LINE
  5
1455
330
2
100
AcDbEntity
  8
CENTER
  6
CENS
100
AcDbLine
 10
856.8364661773948
 20
461.7724554827344
 30
0.0
 11
856.8364661773948
 21
438.4125294803696
 31
0.0
  0
CIRCLE
  5
1456
330
2
100
AcDbEntity
  8
0
100
AcDbCircle
 10
856.8364661774339
 20
670.1130849784474
 30
0.0
 40
9.0
  0
LINE
  5
1457
330
2
100
AcDbEntity
  8
CENTER
  6
CENS
100
AcDbLine
 10
856.8364661774339
 20
656.1785177907575
 30
0.0
 11
856.8364661774339
 21
684.0476521661355
 31
0.0
  0
LINE
  5
1458
330
2
100
AcDbEntity
  8
CENTER
  6
CENS
100
AcDbLine
 10
870.7710333651229
 20
670.1130849784465
 30
0.0
 11
842.9018989897448
 21
670.1130849784465
 31
0.0
  0
CIRCLE
  5
1459
330
2
100
AcDbEntity
  8
CENTER
100
AcDbCircle
 10
1057.192524975564
 20
412.6487710600338
 30
0.0
 40
45.0002755547118
  0
LINE
  5
145A
330
2
100
AcDbEntity
  8
0
100
AcDbLine
 10
1017.192524975457
 20
412.6487710600338
 30
0.0
 11
1015.692524975573
 21
412.6487710600338
 31
0.0
  0
LINE
  5
145B
330
2
100
AcDbEntity
  8
0
100
AcDbLine
 10
1097.192524975564
 20
412.6487710598474
 30
0.0
 11
1098.692524975556
 21
412.6487710600343
 31
0.0
  0
LINE
  5
145C
330
2
100
AcDbEntity
  8
0
100
AcDbLine
 10
95.86246712437594
 20
412.648771060032
 30
0.0
 11
96.5438239222766
 21
451.6836758729021
 31
0.0
  0
LINE
  5
145D
330
2
100
AcDbEntity
  8
0
100
AcDbLine
 10
59.25001668737593
 20
447.7360330922182
 30
0.0
 11
59.86246712431318
 21
412.648771060032
 31
0.0
  0
ARC
  5
145E
330
2
100
AcDbEntity
  8
0
100
AcDbCircle
 10
98.5435193125885
 20
373.6487710600311
 30
0.0
 40
2.0
100
AcDbArc
 50
181.0000000000017
 51
270.0
  0
LINE
  5
145F
330
2
100
AcDbEntity
  8
0
100
AcDbLine
 10
104.8624671243013
 20
412.648771060032
 30
0.0
 11
49.86246712430136
 21
412.648771060032
 31
0.0
  0
LINE
  5
1460
330
2
100
AcDbEntity
  8
0
100
AcDbLine
 10
95.86246712430137
 20
412.648771060032
 30
0.0
 11
96.54382392227478
 21
373.6138662471565
 31
0.0
  0
LINE
  5
1461
330
2
100
AcDbEntity
  8
0
100
AcDbLine
 10
59.25001668737593
 20
377.561509027845
 30
0.0
 11
59.86246712429954
 21
412.648771060032
 31
0.0
  0
LINE
  5
1462
330
2
100
AcDbEntity
  8
0
100
AcDbLine
 10
49.86246712430136
 20
372.648771060032
 30
0.0
 11
95.38124165241958
 21
372.6487710600311
 31
0.0
  0
ARC
  5
1463
330
2
100
AcDbEntity
  8
0
100
AcDbCircle
 10
76.96590945762898
 20
378.5487977640721
 30
0.0
 40
3.0
100
AcDbArc
 50
90.0
 51
178.9999999999982
  0
LINE
  5
1464
330
2
100
AcDbEntity
  8
0
100
AcDbLine
 10
76.96590945762898
 20
381.5487977640721
 30
0.0
 11
64.31961507115364
 21
381.548797764073
 31
0.0
  0
ARC
  5
1465
330
2
100
AcDbEntity
  8
0
100
AcDbCircle
 10
54.25077821159345
 20
377.6487710600311
 30
0.0
 40
5.0
100
AcDbArc
 50
270.0
 51
358.9999999999982
  0
ARC
  5
1466
330
2
100
AcDbEntity
  8
0
100
AcDbCircle
 10
71.8970725980688
 20
374.6487710600311
 30
0.0
 40
2.0
100
AcDbArc
 50
270.0
 51
358.9999999999982
  0
LINE
  5
1467
330
2
100
AcDbEntity
  8
0
100
AcDbLine
 10
73.96547208555773
 20
378.5499213382443
 30
0.0
 11
73.89676798838252
 21
374.6138662471565
 31
0.0
  0
LINE
  5
1468
330
2
100
AcDbEntity
  8
0
100
AcDbLine
 10
104.8624671243013
 20
371.6487710600311
 30
0.0
 11
98.5435193125885
 21
371.6487710600311
 31
0.0
  0
ARC
  5
1469
330
2
100
AcDbEntity
  8
0
100
AcDbCircle
 10
98.5435193125885
 20
451.648771060032
 30
0.0
 40
2.0
100
AcDbArc
 50
90.0
 51
179.0000000001024
  0
LINE
  5
146A
330
2
100
AcDbEntity
  8
0
100
AcDbLine
 10
49.86246712430136
 20
452.6487710600311
 30
0.0
 11
95.38124165241958
 21
452.648771060032
 31
0.0
  0
ARC
  5
146B
330
2
100
AcDbEntity
  8
0
100
AcDbCircle
 10
54.25077821159345
 20
447.6487710600311
 30
0.0
 40
5.0
100
AcDbArc
 50
1.000000000001775
 51
90.0
  0
LINE
  5
146C
330
2
100
AcDbEntity
  8
0
100
AcDbLine
 10
104.8624671242995
 20
453.648771060032
 30
0.0
 11
98.5435193125885
 21
453.648771060032
 31
0.0
  0
LINE
  5
146D
330
2
100
AcDbEntity
  8
0
100
AcDbLine
 10
49.86246712430136
 20
452.6487710600311
 30
0.0
 11
49.86246712430136
 21
372.648771060032
 31
0.0
  0
ARC
  5
146E
330
2
100
AcDbEntity
  8
0
100
AcDbCircle
 10
95.38124165241958
 20
456.148771060032
 30
0.0
 40
3.5
100
AcDbArc
 50
270.0
 51
305.0968012276141
  0
ARC
  5
146F
330
2
100
AcDbEntity
  8
0
100
AcDbCircle
 10
95.38124165241958
 20
369.1487710600311
 30
0.0
 40
3.5
100
AcDbArc
 50
54.90319877238537
 51
90.0
  0
LINE
  5
1470
330
2
100
AcDbEntity
  8
CENTER
100
AcDbLine
 10
111.4672851240719
 20
447.2987710600317
 30
0.0
 11
84.46728512407196
 21
447.2987710600317
 31
0.0
  0
LINE
  5
1471
330
2
100
AcDbEntity
  8
0
100
AcDbLine
 10
89.78000979944033
 20
442.2987710600317
 30
0.0
 11
89.78000979944033
 21
452.2987710600316
 31
0.0
  0
LINE
  5
1472
330
2
100
AcDbEntity
  8
0
100
AcDbLine
 10
89.38000979944069
 20
451.6059507370044
 30
0.0
 11
89.38000979944069
 21
442.991591383059
 31
0.0
  0
LINE
  5
1473
330
2
100
AcDbEntity
  8
0
100
AcDbLine
 10
95.38000979944071
 20
442.2987710600317
 30
0.0
 11
95.38000979944071
 21
452.2987710600316
 31
0.0
  0
LINE
  5
1474
330
2
100
AcDbEntity
  8
0
100
AcDbLine
 10
95.38000979944071
 20
452.2987710600316
 30
0.0
 11
96.3800097994407
 21
452.2987710600316
 31
0.0
  0
LINE
  5
1475
330
2
100
AcDbEntity
  8
0
100
AcDbLine
 10
96.3800097994407
 20
452.2987710600316
 30
0.0
 11
96.3800097994407
 21
442.2987710600317
 31
0.0
  0
LINE
  5
1476
330
2
100
AcDbEntity
  8
0
100
AcDbLine
 10
96.3800097994407
 20
442.2987710600317
 30
0.0
 11
95.38000979944071
 21
442.2987710600317
 31
0.0
  0
LINE
  5
1477
330
2
100
AcDbEntity
  8
0
100
AcDbLine
 10
95.38000979944071
 20
442.2987710600317
 30
0.0
 11
95.38000979944071
 21
452.2987710600316
 31
0.0
  0
LINE
  5
1478
330
2
100
AcDbEntity
  8
0
100
AcDbLine
 10
89.78000979944033
 20
442.2987710600317
 30
0.0
 11
95.38000979944071
 21
442.2987710600317
 31
0.0
  0
LINE
  5
1479
330
2
100
AcDbEntity
  8
0
100
AcDbLine
 10
95.38000979944071
 20
452.2987710600316
 30
0.0
 11
89.78000979944033
 21
452.2987710600316
 31
0.0
  0
LINE
  5
147A
330
2
100
AcDbEntity
  8
0
100
AcDbLine
 10
89.78000979944033
 20
452.2987710600316
 30
0.0
 11
89.38000979944069
 21
451.6059507370044
 31
0.0
  0
LINE
  5
147B
330
2
100
AcDbEntity
  8
0
100
AcDbLine
 10
89.78000979944033
 20
442.2987710600317
 30
0.0
 11
89.38000979944069
 21
442.991591383059
 31
0.0
  0
LINE
  5
147C
330
2
100
AcDbEntity
  8
CENTER
100
AcDbLine
 10
111.4672851240719
 20
377.9987710600315
 30
0.0
 11
84.46728512407196
 21
377.9987710600315
 31
0.0
  0
LINE
  5
147D
330
2
100
AcDbEntity
  8
0
100
AcDbLine
 10
89.78000979944033
 20
382.9987710600315
 30
0.0
 11
89.78000979944033
 21
372.9987710600315
 31
0.0
  0
LINE
  5
147E
330
2
100
AcDbEntity
  8
0
100
AcDbLine
 10
89.38000979944069
 20
373.6915913830587
 30
0.0
 11
89.38000979944069
 21
382.3059507370033
 31
0.0
  0
LINE
  5
147F
330
2
100
AcDbEntity
  8
0
100
AcDbLine
 10
95.38000979944071
 20
382.9987710600315
 30
0.0
 11
95.38000979944071
 21
372.9987710600315
 31
0.0
  0
LINE
  5
1480
330
2
100
AcDbEntity
  8
0
100
AcDbLine
 10
95.38000979944071
 20
372.9987710600315
 30
0.0
 11
96.3800097994407
 21
372.9987710600315
 31
0.0
  0
LINE
  5
1481
330
2
100
AcDbEntity
  8
0
100
AcDbLine
 10
96.3800097994407
 20
372.9987710600315
 30
0.0
 11
96.3800097994407
 21
382.9987710600315
 31
0.0
  0
LINE
  5
1482
330
2
100
AcDbEntity
  8
0
100
AcDbLine
 10
96.3800097994407
 20
382.9987710600315
 30
0.0
 11
95.38000979944071
 21
382.9987710600315
 31
0.0
  0
LINE
  5
1483
330
2
100
AcDbEntity
  8
0
100
AcDbLine
 10
95.38000979944071
 20
382.9987710600315
 30
0.0
 11
95.38000979944071
 21
372.9987710600315
 31
0.0
  0
LINE
  5
1484
330
2
100
AcDbEntity
  8
0
100
AcDbLine
 10
89.78000979944033
 20
382.9987710600315
 30
0.0
 11
95.38000979944071
 21
382.9987710600315
 31
0.0
  0
LINE
  5
1485
330
2
100
AcDbEntity
  8
0
100
AcDbLine
 10
95.38000979944071
 20
372.9987710600315
 30
0.0
 11
89.78000979944033
 21
372.9987710600315
 31
0.0
  0
LINE
  5
1486
330
2
100
AcDbEntity
  8
0
100
AcDbLine
 10
89.78000979944033
 20
372.9987710600315
 30
0.0
 11
89.38000979944069
 21
373.6915913830587
 31
0.0
  0
LINE
  5
1487
330
2
100
AcDbEntity
  8
0
100
AcDbLine
 10
89.78000979944033
 20
382.9987710600315
 30
0.0
 11
89.38000979944069
 21
382.3059507370042
 31
0.0
  0
LINE
  5
1488
330
2
100
AcDbEntity
  8
0
100
AcDbLine
 10
58.86246712433774
 20
456.6487710600311
 30
0.0
 11
68.86246712433774
 21
456.6487710600311
 31
0.0
  0
ARC
  5
1489
330
2
100
AcDbEntity
  8
0
100
AcDbCircle
 10
68.86246712433774
 20
452.6487710600311
 30
0.0
 40
4.0
100
AcDbArc
 50
0.0
 51
90.0
  0
ARC
  5
148A
330
2
100
AcDbEntity
  8
0
100
AcDbCircle
 10
58.86246712433774
 20
452.6487710600311
 30
0.0
 40
4.0
100
AcDbArc
 50
90.0
 51
180.0
  0
LINE
  5
148B
330
2
100
AcDbEntity
  8
CENTER
  6
CENS
100
AcDbLine
 10
63.86246712433774
 20
461.7724554827344
 30
0.0
 11
63.86246712433774
 21
438.4125294803696
 31
0.0
  0
ARC
  5
148C
330
2
100
AcDbEntity
  8
0
100
AcDbCircle
 10
843.7330238441035
 20
446.748744355991
 30
0.0
 40
3.0
100
AcDbArc
 50
270.0
 51
358.9999999999982
  0
LINE
  5
148D
330
2
100
AcDbEntity
  8
0
100
AcDbLine
 10
843.7330238441035
 20
443.748744355991
 30
0.0
 11
856.3793182305788
 21
443.748744355991
 31
0.0
  0
ARC
  5
148E
330
2
100
AcDbEntity
  8
0
100
AcDbCircle
 10
848.8018607036636
 20
450.648771060032
 30
0.0
 40
2.0
100
AcDbArc
 50
90.0
 51
178.9999999999982
  0
LINE
  5
148F
330
2
100
AcDbEntity
  8
0
100
AcDbLine
 10
846.7334612161748
 20
446.7476207818197
 30
0.0
 11
846.8021653133499
 21
450.6836758729066
 31
0.0
  0
LINE
  5
1490
330
2
100
AcDbEntity
  8
0
100
AcDbLine
 10
863.8364661774311
 20
447.648771060032
 30
0.0
 11
863.8364661774311
 21
412.648771060032
 31
0.0
  0
LINE
  5
1491
330
2
100
AcDbEntity
  8
0
100
AcDbLine
 10
863.8364661774311
 20
432.398771060032
 30
0.0
 11
863.836466177433
 21
412.648771060032
 31
0.0
  0
LINE
  5
1492
330
2
100
AcDbEntity
  8
0
100
AcDbLine
 10
863.8364661774311
 20
432.398771060032
 30
0.0
 11
854.0986616069139
 21
432.398771060032
 31
0.0
  0
LINE
  5
1493
330
2
100
AcDbEntity
  8
0
100
AcDbLine
 10
861.8364661774311
 20
422.148771060032
 30
0.0
 11
850.8364661774312
 21
422.148771060032
 31
0.0
  0
LINE
  5
1494
330
2
100
AcDbEntity
  8
0
100
AcDbLine
 10
832.3364661774311
 20
422.398771060032
 30
0.0
 11
832.3364661774311
 21
412.648771060032
 31
0.0
  0
LINE
  5
1495
330
2
100
AcDbEntity
  8
0
100
AcDbLine
 10
832.3364661774311
 20
422.398771060032
 30
0.0
 11
826.3364661774311
 21
422.398771060032
 31
0.0
  0
LINE
  5
1496
330
2
100
AcDbEntity
  8
0
100
AcDbLine
 10
826.3364661774311
 20
422.398771060032
 30
0.0
 11
826.3364661774311
 21
412.648771060032
 31
0.0
  0
LINE
  5
1497
330
2
100
AcDbEntity
  8
0
100
AcDbLine
 10
848.836466177431
 20
426.9241812807266
 30
0.0
 11
848.836466177431
 21
412.648771060032
 31
0.0
  0
LINE
  5
1498
330
2
100
AcDbEntity
  8
0
100
AcDbLine
 10
850.8364661774312
 20
427.9779146211083
 30
0.0
 11
850.8364661774312
 21
412.648771060032
 31
0.0
  0
LINE
  5
1499
330
2
100
AcDbEntity
  8
0
100
AcDbLine
 10
848.836466177431
 20
422.148771060032
 30
0.0
 11
832.3364661774311
 21
422.148771060032
 31
0.0
  0
LINE
  5
149A
330
2
100
AcDbEntity
  8
0
100
AcDbLine
 10
863.8364661774311
 20
423.3034715984111
 30
0.0
 11
861.8364661774311
 21
422.148771060032
 31
0.0
  0
LINE
  5
149B
330
2
100
AcDbEntity
  8
0
100
AcDbLine
 10
861.8364661774311
 20
422.148771060032
 30
0.0
 11
861.8364661774311
 21
412.648771060032
 31
0.0
  0
LINE
  5
149C
330
2
100
AcDbEntity
  8
0
100
AcDbLine
 10
826.3364661774311
 20
421.648771060032
 30
0.0
 11
821.1403137547248
 21
412.6487710600311
 31
0.0
  0
CIRCLE
  5
149D
330
2
100
AcDbEntity
  8
0
100
AcDbCircle
 10
1057.192524975564
 20
412.6487710600338
 30
0.0
 40
9.5
  0
ARC
  5
149E
330
2
100
AcDbEntity
  8
0
100
AcDbCircle
 10
1057.192524975564
 20
412.6487710600338
 30
0.0
 40
10.6547005383793
100
AcDbArc
 50
4.03647208275096
 51
175.963527917249
  0
ARC
  5
149F
330
2
100
AcDbEntity
  8
0
100
AcDbCircle
 10
1057.192524975564
 20
412.6487710600338
 30
0.0
 40
10.6547005383793
100
AcDbArc
 50
184.0364720827509
 51
355.963527917249
  0
CIRCLE
  5
14A0
330
2
100
AcDbEntity
  8
0
100
AcDbCircle
 10
1057.192524975564
 20
412.6487710600338
 30
0.0
 40
29.0
  0
LINE
  5
14A1
330
2
100
AcDbEntity
  8
0
100
AcDbLine
 10
863.8364661774311
 20
441.648771060032
 30
0.0
 11
859.9268128286539
 21
441.648771060032
 31
0.0
  0
LINE
  5
14AF
330
2
100
AcDbEntity
  8
0
100
AcDbLine
 10
1050.930607765268
 20
454.0724062160075
 30
0.0
 11
1057.192524975566
 21
454.1487710600357
 31
0.0
  0
LINE
  5
14B0
330
2
100
AcDbEntity
  8
0
100
AcDbLine
 10
1034.085404371427
 20
455.1678585041964
 30
0.0
 11
1016.175071904568
 21
455.0115574006702
 31
0.0
  0
CIRCLE
  5
1961
330
2
100
AcDbEntity
  8
0
100
AcDbCircle
 10
670.4264661774139
 20
412.648771060032
 30
0.0
 40
33.07735
  0
ARC
  5
1966
330
2
100
AcDbEntity
  8
0
100
AcDbCircle
 10
771.8434847766478
 20
644.1130849832788
 30
0.0
 40
2.0
100
AcDbArc
 50
269.9999999999974
 51
359.5000000000258
  0
ENDSEC
  0
SECTION
  2
OBJECTS
  0
DICTIONARY
  5
7
330
0
100
AcDbDictionary
  3
ACAD_COLOR
350
18F7
  3
ACAD_GROUP
350
75
  3
ACAD_LAYOUT
350
61
  3
ACAD_MATERIAL
350
18CD
  3
ACAD_MLEADERSTYLE
350
191C
  3
ACAD_MLINESTYLE
350
76
  3
ACAD_PLOTSETTINGS
350
77
  3
ACAD_PLOTSTYLENAME
350
6
  3
ACAD_SCALELIST
350
18FA
  3
ACAD_TABLESTYLE
350
18F8
  3
ACAD_VISUALSTYLE
350
18E6
  3
ACADDIM
350
480
  3
ACDB_RECOMPOSE_DATA
350
1936
  3
ACDBHEADERROUNDTRIPXREC
350
1980
  3
ACDBVARIABLEDICTIONARY
350
102
  3
DWGPROPS
350
1937
  0
DICTIONARY
  5
193F
330
6E
100
AcDbDictionary
280
     1
  3
ACAD_XREC_ROUNDTRIP
360
1940
  0
DICTIONARY
  5
B0F
330
66
100
AcDbDictionary
280
     1
  3
ACAD_LAYERSTATES
360
B10
  0
DICTIONARY
  5
1922
330
5E
100
AcDbDictionary
280
     1
  3
ACAD_XREC_ROUNDTRIP
360
193A
  3
ADSK_XREC_LAYER_RECONCILED
360
1923
  0
DICTIONARY
  5
1924
330
3E
100
AcDbDictionary
280
     1
  3
ACAD_XREC_ROUNDTRIP
360
1939
  3
ADSK_XREC_LAYER_RECONCILED
360
1925
  0
DICTIONARY
  5
192A
330
2B5
100
AcDbDictionary
280
     1
  3
ACAD_XREC_ROUNDTRIP
360
1946
  3
ADSK_XREC_LAYER_RECONCILED
360
192B
  0
DICTIONARY
  5
192C
330
2BA
100
AcDbDictionary
280
     1
  3
ACAD_XREC_ROUNDTRIP
360
1947
  3
ADSK_XREC_LAYER_RECONCILED
360
192D
  0
DICTIONARY
  5
1930
330
3FA
100
AcDbDictionary
280
     1
  3
ACAD_XREC_ROUNDTRIP
360
1949
  3
ADSK_XREC_LAYER_RECONCILED
360
1931
  0
DICTIONARY
  5
1932
330
478
100
AcDbDictionary
280
     1
  3
ACAD_XREC_ROUNDTRIP
360
194A
  3
ADSK_XREC_LAYER_RECONCILED
360
1933
  0
DICTIONARY
  5
19A1
330
2
100
AcDbDictionary
280
     1
  3
ACAD_LAYOUTSELFREF
360
19A2
  0
DICTIONARY
  5
19A3
330
197A
100
AcDbDictionary
280
     1
  3
ACAD_LAYOUTSELFREF
360
19A4
  0
DICTIONARY
  5
18F7
102
{ACAD_REACTORS
330
7
102
}
330
7
100
AcDbDictionary
  0
DICTIONARY
  5
75
102
{ACAD_REACTORS
330
7
102
}
330
7
100
AcDbDictionary
  0
DICTIONARY
  5
61
102
{ACAD_REACTORS
330
7
102
}
330
7
100
AcDbDictionary
  0
DICTIONARY
  5
18CD
102
{ACAD_REACTORS
330
7
102
}
330
7
100
AcDbDictionary
  3
BYBLOCK
350
18D6
  3
BYLAYER
350
18CE
  3
GLOBAL
350
18DE
  0
DICTIONARY
  5
191C
102
{ACAD_REACTORS
330
7
102
}
330
7
100
AcDbDictionary
  3
STANDARD
350
191D
  0
DICTIONARY
  5
76
102
{ACAD_REACTORS
330
7
102
}
330
7
100
AcDbDictionary
  3
STANDARD
350
78
  0
DICTIONARY
  5
77
102
{ACAD_REACTORS
330
7
102
}
330
7
100
AcDbDictionary
  0
ACDBDICTIONARYWDFLT
  5
6
102
{ACAD_REACTORS
330
7
102
}
330
7
100
AcDbDictionary
281
     1
  3
Normal
350
5
100
AcDbDictionaryWithDefault
340
5
  0
DICTIONARY
  5
18FA
102
{ACAD_REACTORS
330
7
102
}
330
7
100
AcDbDictionary
  3
A0
350
18FB
  3
A1
350
18FC
  3
A2
350
18FD
  3
A3
350
18FE
  3
A4
350
18FF
  3
A5
350
1900
  3
A6
350
1901
  3
A7
350
1902
  3
A8
350
1903
  3
A9
350
1904
  3
B0
350
1905
  3
B1
350
1906
  3
B2
350
1907
  3
B3
350
1908
  3
B4
350
1909
  3
B5
350
190A
  3
B6
350
190B
  3
B7
350
190C
  3
B8
350
190D
  3
B9
350
190E
  3
C0
350
190F
  3
C1
350
1910
  3
C2
350
1911
  3
C3
350
1912
  3
C4
350
1913
  3
C5
350
1914
  3
C6
350
1915
  3
C7
350
1916
  3
C8
350
1917
  3
C9
350
1918
  3
D0
350
1919
  3
D1
350
191A
  3
D2
350
191B
  0
DICTIONARY
  5
18F8
102
{ACAD_REACTORS
330
7
102
}
330
7
100
AcDbDictionary
  3
STANDARD
350
18F9
  0
DICTIONARY
  5
18E6
102
{ACAD_REACTORS
330
7
102
}
330
7
100
AcDbDictionary
  3
2DWIREFRAME
350
18EC
  3
3D_HIDDEN
350
18EE
  3
3DWIREFRAME
350
18ED
  3
BASIC
350
18EB
  3
BRIGHTEN
350
18F2
  3
COLORCHANGE
350
18F6
  3
CONCEPTUAL
350
18EF
  3
DIM
350
18F1
  3
FACEPATTERN
350
18F5
  3
FLAT
350
18E7
  3
FLATWITHEDGES
350
18E8
  3
GOURAUD
350
18E9
  3
GOURAUDWITHEDGES
350
18EA
  3
LINEPATTERN
350
18F4
  3
REALISTIC
350
18F0
  3
THICKEN
350
18F3
  0
XRECORD
  5
480
102
{ACAD_REACTORS
330
7
102
}
330
7
100
AcDbXrecord
 90
   990106
  3

 60
     0
 61
     0
 62
     1
 63
     3
 64
     1
 65
     0
 66
     0
 67
     3
 68
     1
 69
     0
 70
     0
 71
     0
 72
     0
 40
0.0
170
     2
340
0
  0
XRECORD
  5
1936
102
{ACAD_REACTORS
330
7
102
}
330
7
100
AcDbXrecord
 90
        1
330
18F9
  0
DICTIONARY
  5
1980
102
{ACAD_REACTORS
330
7
102
}
330
7
100
AcDbDictionary
  3
CEPSNTYPE
350
198A
  3
DIMSTYLEDATA
350
198E
  3
FINGERPRINTGUID
350
198B
  3
HYPERLINKBASE
350
1983
  3
INSUNITS
350
1989
  3
LAYOUTDICT
350
1985
  3
LWETCUNION
350
1988
  3
PLOTSETDICT
350
1986
  3
PLOTSTYLNAMDICT
350
1987
  3
PSVPSCALE
350
198D
  3
PUCSBASE
350
1991
  3
PUCSORGBACK
350
1997
  3
PUCSORGBOTTOM
350
1993
  3
PUCSORGFRONT
350
1996
  3
PUCSORGLEFT
350
1994
  3
PUCSORGRIGHT
350
1995
  3
PUCSORGTOP
350
1992
  3
PUCSORTHOREF
350
198F
  3
PUCSORTHOVIEW
350
1990
  3
STYLESHEET
350
1984
  3
TSTACKALIGN
350
1981
  3
TSTACKSIZE
350
1982
  3
UCSBASE
350
199A
  3
UCSORGBACK
350
19A0
  3
UCSORGBOTTOM
350
199C
  3
UCSORGFRONT
350
199F
  3
UCSORGLEFT
350
199D
  3
UCSORGRIGHT
350
199E
  3
UCSORGTOP
350
199B
  3
UCSORTHOREF
350
1998
  3
UCSORTHOVIEW
350
1999
  3
VERSIONGUID
350
198C
  0
DICTIONARY
  5
102
102
{ACAD_REACTORS
330
7
102
}
330
7
100
AcDbDictionary
  3
CANNOSCALE
350
1957
  3
CMLEADERSTYLE
350
1956
  3
CTABLESTYLE
350
1955
  3
DIMASSOC
350
103
  3
INDEXCTL
350
1958
  3
SORTENTS
350
549
  0
XRECORD
  5
1937
102
{ACAD_REACTORS
330
7
102
}
330
7
100
AcDbXrecord
  1
DWGPROPS COOKIE
  2

  3

  4

  6

  7

  8
ymorima
  9

300
=
301
=
302
=
303
=
304
=
305
=
306
=
307
=
308
=
309
=
 40
0.0052739699074074
 41
2454413.38896375
 42
2454414.410717407
  1

 90
        0
  0
XRECORD
  5
1940
102
{ACAD_REACTORS
330
193F
102
}
330
193F
100
AcDbXrecord
102
VTR_0.000_0.000_1.000_1.000_VISUALSTYLE
340
18EC
102
VTR_0.000_0.000_1.000_1.000_GRIDDISPLAY
 70
     3
102
VTR_0.000_0.000_1.000_1.000_GRIDMAJOR
 70
     5
102
VTR_0.000_0.000_1.000_1.000_DEFAULTLIGHTING
280
     1
102
VTR_0.000_0.000_1.000_1.000_DEFAULTLIGHTINGTYPE
 70
     1
102
VTR_0.000_0.000_1.000_1.000_BRIGHTNESS
141
0.0
102
VTR_0.000_0.000_1.000_1.000_CONTRAST
142
0.0
  0
DICTIONARY
  5
B10
102
{ACAD_REACTORS
330
B0F
102
}
330
B0F
100
AcDbDictionary
  0
XRECORD
  5
193A
102
{ACAD_REACTORS
330
1922
102
}
330
1922
100
AcDbXrecord
102
MATERIAL
340
18DE
  0
XRECORD
  5
1923
102
{ACAD_REACTORS
330
1922
102
}
330
1922
100
AcDbXrecord
290
     1
  0
XRECORD
  5
1939
102
{ACAD_REACTORS
330
1924
102
}
330
1924
100
AcDbXrecord
102
MATERIAL
340
18DE
  0
XRECORD
  5
1925
102
{ACAD_REACTORS
330
1924
102
}
330
1924
100
AcDbXrecord
290
     1
  0
XRECORD
  5
1946
102
{ACAD_REACTORS
330
192A
102
}
330
192A
100
AcDbXrecord
102
MATERIAL
340
18DE
  0
XRECORD
  5
192B
102
{ACAD_REACTORS
330
192A
102
}
330
192A
100
AcDbXrecord
290
     1
  0
XRECORD
  5
1947
102
{ACAD_REACTORS
330
192C
102
}
330
192C
100
AcDbXrecord
102
MATERIAL
340
18DE
  0
XRECORD
  5
192D
102
{ACAD_REACTORS
330
192C
102
}
330
192C
100
AcDbXrecord
290
     1
  0
XRECORD
  5
1949
102
{ACAD_REACTORS
330
1930
102
}
330
1930
100
AcDbXrecord
102
MATERIAL
340
18DE
  0
XRECORD
  5
1931
102
{ACAD_REACTORS
330
1930
102
}
330
1930
100
AcDbXrecord
290
     1
  0
XRECORD
  5
194A
102
{ACAD_REACTORS
330
1932
102
}
330
1932
100
AcDbXrecord
102
MATERIAL
340
18DE
  0
XRECORD
  5
1933
102
{ACAD_REACTORS
330
1932
102
}
330
1932
100
AcDbXrecord
290
     1
  0
XRECORD
  5
19A2
102
{ACAD_REACTORS
330
19A1
102
}
330
19A1
100
AcDbXrecord
340
2
  0
XRECORD
  5
19A4
102
{ACAD_REACTORS
330
19A3
102
}
330
19A3
100
AcDbXrecord
340
197A
  0
ACAD_PROXY_OBJECT
  5
18D6
102
{ACAD_XDICTIONARY
360
18D7
102
}
102
{ACAD_REACTORS
330
18CD
102
}
330
18CD
100
AcDbProxyObject
 90
      499
 91
      510
 93
     1340
310
42109E509B1BD8DAC02004014080404555555555555953FAA155555555555654FEA9AA400014080404555555555555953FAA155555555555654FEA9AA400000000000000E03F4080404555555555555953FAA155555555555654FEA9AA4014080404555555555555953FAA155555555555654FEA9AA4010201011555555555
310
55654FEA8555555555555953FAA6A9005020101155555555555654FEA8555555555555953FAA6A900D
 94
        0
1001
ACAD
1000
AcadProxyRoundTripData
1071
      504
1071
   655383
1070
     0
  0
ACAD_PROXY_OBJECT
  5
18CE
102
{ACAD_XDICTIONARY
360
18CF
102
}
102
{ACAD_REACTORS
330
18CD
102
}
330
18CD
100
AcDbProxyObject
 90
      499
 91
      510
 93
     1340
310
42109E53185E595C802004014080404555555555555953FAA155555555555654FEA9AA400014080404555555555555953FAA155555555555654FEA9AA400000000000000E03F4080404555555555555953FAA155555555555654FEA9AA4014080404555555555555953FAA155555555555654FEA9AA4010201011555555555
310
55654FEA8555555555555953FAA6A9005020101155555555555654FEA8555555555555953FAA6A900D
 94
        0
1001
ACAD
1000
AcadProxyRoundTripData
1071
      504
1071
   655383
1070
     0
  0
ACAD_PROXY_OBJECT
  5
18DE
102
{ACAD_XDICTIONARY
360
18DF
102
}
102
{ACAD_REACTORS
330
18CD
102
}
330
18CD
100
AcDbProxyObject
 90
      499
 91
      510
 93
     1332
310
41D1DB1BD8985B002004014080404555555555555953FAA155555555555654FEA9AA400014080404555555555555953FAA155555555555654FEA9AA400000000000000E03F4080404555555555555953FAA155555555555654FEA9AA4014080404555555555555953FAA155555555555654FEA9AA401020101155555555555
310
654FEA8555555555555953FAA6A9005020101155555555555654FEA8555555555555953FAA6A9000
 94
        0
1001
ACAD
1000
AcadProxyRoundTripData
1071
      504
1071
   655383
1070
     0
  0
ACAD_PROXY_OBJECT
  5
191D
102
{ACAD_REACTORS
330
191C
102
}
330
191C
100
AcDbProxyObject
 90
      499
 91
      510
 93
      618
310
40901902A4063FBFFFFFE056BD1B81E855B9FC0AD7A3703D0AD73F4254DD185B99185C990000AD7A3703D0AC73F90141901A02B5E8DC0F42B1CFC02B5E8DC0F42B1CFE5764000000000000300FC6
340
6A
340
0
340
16
340
0
 94
        0
1001
ACAD_MLEADERVER
1070
     2
1001
ACAD
1000
AcadProxyRoundTripData
1071
      508
1071
   655383
1070
     0
  0
MLINESTYLE
  5
78
102
{ACAD_REACTORS
330
76
102
}
330
76
100
AcDbMlineStyle
  2
STANDARD
 70
     0
  3

 62
     0
 51
90.0
 52
90.0
 71
     2
 49
0.5
 62
   256
  6
BYLAYER
 49
-0.5
 62
   256
  6
BYLAYER
  0
ACDBPLACEHOLDER
  5
5
102
{ACAD_REACTORS
330
6
102
}
330
6
100
AcDbPlaceHolder
280
     0
  0
ACAD_PROXY_OBJECT
  5
18FB
102
{ACAD_REACTORS
330
18FA
102
}
330
18FA
100
AcDbProxyObject
 90
      499
 91
      510
 93
       49
310
904313A3100598
 94
        0
1001
ACAD
1000
AcadProxyRoundTripData
1071
      507
1071
   655383
1070
     0
  0
ACAD_PROXY_OBJECT
  5
18FC
102
{ACAD_REACTORS
330
18FA
102
}
330
18FA
100
AcDbProxyObject
 90
      499
 91
      510
 93
      113
310
904313A3200400000000000000406B
 94
        0
1001
ACAD
1000
AcadProxyRoundTripData
1071
      507
1071
   655383
1070
     0
  0
ACAD_PROXY_OBJECT
  5
18FD
102
{ACAD_REACTORS
330
18FA
102
}
330
18FA
100
AcDbProxyObject
 90
      499
 91
      510
 93
      113
310
904313A3400400000000000010406B
 94
        0
1001
ACAD
1000
AcadProxyRoundTripData
1071
      507
1071
   655383
1070
     0
  0
ACAD_PROXY_OBJECT
  5
18FE
102
{ACAD_REACTORS
330
18FA
102
}
330
18FA
100
AcDbProxyObject
 90
      499
 91
      510
 93
      113
310
904313A3500400000000000014406B
 94
        0
1001
ACAD
1000
AcadProxyRoundTripData
1071
      507
1071
   655383
1070
     0
  0
ACAD_PROXY_OBJECT
  5
18FF
102
{ACAD_REACTORS
330
18FA
102
}
330
18FA
100
AcDbProxyObject
 90
      499
 91
      510
 93
      113
310
904313A3800400000000000020406B
 94
        0
1001
ACAD
1000
AcadProxyRoundTripData
1071
      507
1071
   655383
1070
     0
  0
ACAD_PROXY_OBJECT
  5
1900
102
{ACAD_REACTORS
330
18FA
102
}
330
18FA
100
AcDbProxyObject
 90
      499
 91
      510
 93
      121
310
905313A3130004000000000000244051
 94
        0
1001
ACAD
1000
AcadProxyRoundTripData
1071
      507
1071
   655383
1070
     0
  0
ACAD_PROXY_OBJECT
  5
1901
102
{ACAD_REACTORS
330
18FA
102
}
330
18FA
100
AcDbProxyObject
 90
      499
 91
      510
 93
      121
310
905313A3136004000000000000304051
 94
        0
1001
ACAD
1000
AcadProxyRoundTripData
1071
      507
1071
   655383
1070
     0
  0
ACAD_PROXY_OBJECT
  5
1902
102
{ACAD_REACTORS
330
18FA
102
}
330
18FA
100
AcDbProxyObject
 90
      499
 91
      510
 93
      121
310
905313A3230004000000000000344051
 94
        0
1001
ACAD
1000
AcadProxyRoundTripData
1071
      507
1071
   655383
1070
     0
  0
ACAD_PROXY_OBJECT
  5
1903
102
{ACAD_REACTORS
330
18FA
102
}
330
18FA
100
AcDbProxyObject
 90
      499
 91
      510
 93
      121
310
905313A33300040000000000003E4051
 94
        0
1001
ACAD
1000
AcadProxyRoundTripData
1071
      507
1071
   655383
1070
     0
  0
ACAD_PROXY_OBJECT
  5
1904
102
{ACAD_REACTORS
330
18FA
102
}
330
18FA
100
AcDbProxyObject
 90
      499
 91
      510
 93
      121
310
905313A3430004000000000000444051
 94
        0
1001
ACAD
1000
AcadProxyRoundTripData
1071
      507
1071
   655383
1070
     0
  0
ACAD_PROXY_OBJECT
  5
1905
102
{ACAD_REACTORS
330
18FA
102
}
330
18FA
100
AcDbProxyObject
 90
      499
 91
      510
 93
      121
310
905313A3530004000000000000494051
 94
        0
1001
ACAD
1000
AcadProxyRoundTripData
1071
      507
1071
   655383
1070
     0
  0
ACAD_PROXY_OBJECT
  5
1906
102
{ACAD_REACTORS
330
18FA
102
}
330
18FA
100
AcDbProxyObject
 90
      499
 91
      510
 93
      129
310
906313A313030004000000000000594038
 94
        0
1001
ACAD
1000
AcadProxyRoundTripData
1071
      507
1071
   655383
1070
     0
  0
ACAD_PROXY_OBJECT
  5
1907
102
{ACAD_REACTORS
330
18FA
102
}
330
18FA
100
AcDbProxyObject
 90
      499
 91
      510
 93
      113
310
904323A31000000000000000010159
 94
        0
1001
ACAD
1000
AcadProxyRoundTripData
1071
      507
1071
   655383
1070
     0
  0
ACAD_PROXY_OBJECT
  5
1908
102
{ACAD_REACTORS
330
18FA
102
}
330
18FA
100
AcDbProxyObject
 90
      499
 91
      510
 93
      113
310
904343A31000000000000000410159
 94
        0
1001
ACAD
1000
AcadProxyRoundTripData
1071
      507
1071
   655383
1070
     0
  0
ACAD_PROXY_OBJECT
  5
1909
102
{ACAD_REACTORS
330
18FA
102
}
330
18FA
100
AcDbProxyObject
 90
      499
 91
      510
 93
      113
310
904383A31000000000000000810159
 94
        0
1001
ACAD
1000
AcadProxyRoundTripData
1071
      507
1071
   655383
1070
     0
  0
ACAD_PROXY_OBJECT
  5
190A
102
{ACAD_REACTORS
330
18FA
102
}
330
18FA
100
AcDbProxyObject
 90
      499
 91
      510
 93
      121
310
90531303A31000000000000000910140
 94
        0
1001
ACAD
1000
AcadProxyRoundTripData
1071
      507
1071
   655383
1070
     0
  0
ACAD_PROXY_OBJECT
  5
190B
102
{ACAD_REACTORS
330
18FA
102
}
330
18FA
100
AcDbProxyObject
 90
      499
 91
      510
 93
      129
310
9063130303A31000000000000001650138
 94
        0
1001
ACAD
1000
AcadProxyRoundTripData
1071
      507
1071
   655383
1070
     0
  0
ACAD_PROXY_OBJECT
  5
190C
102
{ACAD_REACTORS
330
18FA
102
}
330
18FA
100
AcDbProxyObject
 90
      499
 91
      510
 93
      265
310
90F312F31323822203D2031272D302200000000000000200FC00000000000028402B
 94
        0
1001
ACAD
1000
AcadProxyRoundTripData
1071
      507
1071
   655383
1070
     0
  0
ACAD_PROXY_OBJECT
  5
190D
102
{ACAD_REACTORS
330
18FA
102
}
330
18FA
100
AcDbProxyObject
 90
      499
 91
      510
 93
      257
310
90E312F363422203D2031272D302200000000000000240FC000000000000284040
 94
        0
1001
ACAD
1000
AcadProxyRoundTripData
1071
      507
1071
   655383
1070
     0
  0
ACAD_PROXY_OBJECT
  5
190E
102
{ACAD_REACTORS
330
18FA
102
}
330
18FA
100
AcDbProxyObject
 90
      499
 91
      510
 93
      257
310
90E312F333222203D2031272D302200000000000000280FC000000000000284040
 94
        0
1001
ACAD
1000
AcadProxyRoundTripData
1071
      507
1071
   655383
1070
     0
  0
ACAD_PROXY_OBJECT
  5
190F
102
{ACAD_REACTORS
330
18FA
102
}
330
18FA
100
AcDbProxyObject
 90
      499
 91
      510
 93
      257
310
90E312F313622203D2031272D3022000000000000002C0FC000000000000284040
 94
        0
1001
ACAD
1000
AcadProxyRoundTripData
1071
      507
1071
   655383
1070
     0
  0
ACAD_PROXY_OBJECT
  5
1910
102
{ACAD_REACTORS
330
18FA
102
}
330
18FA
100
AcDbProxyObject
 90
      499
 91
      510
 93
      257
310
90E332F333222203D2031272D3022000000000000002E0FC000000000000284040
 94
        0
1001
ACAD
1000
AcadProxyRoundTripData
1071
      507
1071
   655383
1070
     0
  0
ACAD_PROXY_OBJECT
  5
1911
102
{ACAD_REACTORS
330
18FA
102
}
330
18FA
100
AcDbProxyObject
 90
      499
 91
      510
 93
      249
310
90D312F3822203D2031272D302200000000000000300FC000000000000284040
 94
        0
1001
ACAD
1000
AcadProxyRoundTripData
1071
      507
1071
   655383
1070
     0
  0
ACAD_PROXY_OBJECT
  5
1912
102
{ACAD_REACTORS
330
18FA
102
}
330
18FA
100
AcDbProxyObject
 90
      499
 91
      510
 93
      257
310
90E332F313622203D2031272D302200000000000000320FC000000000000284040
 94
        0
1001
ACAD
1000
AcadProxyRoundTripData
1071
      507
1071
   655383
1070
     0
  0
ACAD_PROXY_OBJECT
  5
1913
102
{ACAD_REACTORS
330
18FA
102
}
330
18FA
100
AcDbProxyObject
 90
      499
 91
      510
 93
      249
310
90D312F3422203D2031272D302200000000000000340FC000000000000284040
 94
        0
1001
ACAD
1000
AcadProxyRoundTripData
1071
      507
1071
   655383
1070
     0
  0
ACAD_PROXY_OBJECT
  5
1914
102
{ACAD_REACTORS
330
18FA
102
}
330
18FA
100
AcDbProxyObject
 90
      499
 91
      510
 93
      249
310
90D332F3822203D2031272D302200000000000000360FC000000000000284040
 94
        0
1001
ACAD
1000
AcadProxyRoundTripData
1071
      507
1071
   655383
1070
     0
  0
ACAD_PROXY_OBJECT
  5
1915
102
{ACAD_REACTORS
330
18FA
102
}
330
18FA
100
AcDbProxyObject
 90
      499
 91
      510
 93
      249
310
90D312F3222203D2031272D302200000000000000380FC000000000000284040
 94
        0
1001
ACAD
1000
AcadProxyRoundTripData
1071
      507
1071
   655383
1070
     0
  0
ACAD_PROXY_OBJECT
  5
1916
102
{ACAD_REACTORS
330
18FA
102
}
330
18FA
100
AcDbProxyObject
 90
      499
 91
      510
 93
      249
310
90D332F3422203D2031272D3022000000000000003A0FC000000000000284040
 94
        0
1001
ACAD
1000
AcadProxyRoundTripData
1071
      507
1071
   655383
1070
     0
  0
ACAD_PROXY_OBJECT
  5
1917
102
{ACAD_REACTORS
330
18FA
102
}
330
18FA
100
AcDbProxyObject
 90
      499
 91
      510
 93
      169
310
90B3122203D2031272D3022004000000000000284020
 94
        0
1001
ACAD
1000
AcadProxyRoundTripData
1071
      507
1071
   655383
1070
     0
  0
ACAD_PROXY_OBJECT
  5
1918
102
{ACAD_REACTORS
330
18FA
102
}
330
18FA
100
AcDbProxyObject
 90
      499
 91
      510
 93
      265
310
90F312D312F3222203D2031272D3022000000000000003E0FC00000000000028402B
 94
        0
1001
ACAD
1000
AcadProxyRoundTripData
1071
      507
1071
   655383
1070
     0
  0
ACAD_PROXY_OBJECT
  5
1919
102
{ACAD_REACTORS
330
18FA
102
}
330
18FA
100
AcDbProxyObject
 90
      499
 91
      510
 93
      233
310
90B3322203D2031272D30220000000000000002100000000000000284000
 94
        0
1001
ACAD
1000
AcadProxyRoundTripData
1071
      507
1071
   655383
1070
     0
  0
ACAD_PROXY_OBJECT
  5
191A
102
{ACAD_REACTORS
330
18FA
102
}
330
18FA
100
AcDbProxyObject
 90
      499
 91
      510
 93
      233
310
90B3622203D2031272D30220000000000000006100000000000000284000
 94
        0
1001
ACAD
1000
AcadProxyRoundTripData
1071
      507
1071
   655383
1070
     0
  0
ACAD_PROXY_OBJECT
  5
191B
102
{ACAD_REACTORS
330
18FA
102
}
330
18FA
100
AcDbProxyObject
 90
      499
 91
      510
 93
      257
310
90E31272D3022203D2031272D3022000000000000000A100000000000000284040
 94
        0
1001
ACAD
1000
AcadProxyRoundTripData
1071
      507
1071
   655383
1070
     0
  0
ACAD_PROXY_OBJECT
  5
18F9
102
{ACAD_XDICTIONARY
360
1934
102
}
102
{ACAD_REACTORS
330
18F8
102
}
330
18F8
100
AcDbProxyObject
 90
      499
 91
      510
 93
     1849
310
4254DD185B99185C990028B81E85EB51B8AE3F2E07A17AD46E2B8FC02B5E8DC0F42B1CFD028000000C1008070000C3001FDFF8000000C1003FBFF000000182007F7FE00000030400FEFFC00000060801FDFF8000000C1003FBFF00000018200000000000000681FA0B0000001820100E000186003FBFF000000182007F7FE0
310
0000030400FEFFC00000060801FDFF8000000C1003FBFF000000182007F7FE000000304000AD7A3703D0AC73F4160000003040201C00030C007F7FE00000030400FEFFC00000060801FDFF8000000C1003FBFF000000182007F7FE00000030400FEFFC00000060801F
340
16
340
16
340
16
 94
        0
1001
ACAD
1000
AcadProxyRoundTripData
1071
      506
1071
   655383
1070
     0
  0
ACAD_PROXY_OBJECT
  5
18EC
102
{ACAD_REACTORS
330
18E6
102
}
330
18E6
100
AcDbProxyObject
 90
      499
 91
      510
 93
      444
310
430C9915DA5C99599C985B59401049028333333333333E3BF0000000000000FB0107901411070040501600405405064090741402480A0340
 94
        0
1001
ACAD
1000
AcDbSavedByObjectVersion
1070
     0
1000
AcadProxyRoundTripData
1071
      505
1071
   655383
1070
     0
  0
ACAD_PROXY_OBJECT
  5
18EE
102
{ACAD_REACTORS
330
18E6
102
}
330
18E6
100
AcDbProxyObject
 90
      499
 91
      510
 93
      508
310
428CD108121A5919195B8010640502408333333333333E3BF0000000000000FB01079024090700405020000000000001110200405405064090740C02480A0340
 94
        0
1001
ACAD
1000
AcDbSavedByObjectVersion
1070
     0
1000
AcadProxyRoundTripData
1071
      505
1071
   655383
1070
     0
  0
ACAD_PROXY_OBJECT
  5
18ED
102
{ACAD_REACTORS
330
18E6
102
}
330
18E6
100
AcDbProxyObject
 90
      499
 91
      510
 93
      444
310
430CD915DA5C99599C985B59401059028333333333333E3BF0000000000000FB0107901411070040501600405405064090741402480A0340
 94
        0
1001
ACAD
1000
AcDbSavedByObjectVersion
1070
     0
1000
AcadProxyRoundTripData
1071
      505
1071
   655383
1070
     0
  0
ACAD_PROXY_OBJECT
  5
18EB
102
{ACAD_REACTORS
330
18E6
102
}
330
18E6
100
AcDbProxyObject
 90
      499
 91
      510
 93
      396
310
4190985CDA58C0107406404333333333333E3BF0000000000000FB0107A41107004050150841D405064090741402480A0356
 94
        0
1001
ACAD
1000
AcDbSavedByObjectVersion
1070
     0
1000
AcadProxyRoundTripData
1071
      505
1071
   655383
1070
     0
  0
ACAD_PROXY_OBJECT
  5
18F2
102
{ACAD_REACTORS
330
18E6
102
}
330
18E6
100
AcDbProxyObject
 90
      499
 91
      510
 93
      436
310
42509C9A59DA1D195B8010C409028333333333333E3BF0000000000000FB010790141107004050150841D405064090741402480A029956
 94
        0
1001
ACAD
1000
AcDbSavedByObjectVersion
1070
     0
1000
AcadProxyRoundTripData
1071
      505
1071
   655383
1070
     0
  0
ACAD_PROXY_OBJECT
  5
18F6
102
{ACAD_REACTORS
330
18E6
102
}
330
18E6
100
AcDbProxyObject
 90
      499
 91
      510
 93
      460
310
4310DBDB1BDC90DA185B99D9401104090240C333333333333E3BF0000000000000FB0108901411070040501508421405064090741402480A0354
 94
        0
1001
ACAD
1000
AcDbSavedByObjectVersion
1070
     0
1000
AcadProxyRoundTripData
1071
      505
1071
   655383
1070
     0
  0
ACAD_PROXY_OBJECT
  5
18EF
102
{ACAD_REACTORS
330
18E6
102
}
330
18E6
100
AcDbProxyObject
 90
      499
 91
      510
 93
      508
310
42D0DBDB98D95C1D1D585B0010940D028333333333333E3BF0000000000000FB0107902409070040501000000000000111010841D405064090740C02480A0340
 94
        0
1001
ACAD
1000
AcDbSavedByObjectVersion
1070
     0
1000
AcadProxyRoundTripData
1071
      505
1071
   655383
1070
     0
  0
ACAD_PROXY_OBJECT
  5
18F1
102
{ACAD_REACTORS
330
18E6
102
}
330
18E6
100
AcDbProxyObject
 90
      499
 91
      510
 93
      420
310
41111A5B4010B409028333333333333E3BF0000000000000FB010790141107004050150841D405064090741402480A02677FFFFFDB
 94
        0
1001
ACAD
1000
AcDbSavedByObjectVersion
1070
     0
1000
AcadProxyRoundTripData
1071
      505
1071
   655383
1070
     0
  0
ACAD_PROXY_OBJECT
  5
18F5
102
{ACAD_REACTORS
330
18E6
102
}
330
18E6
100
AcDbProxyObject
 90
      499
 91
      510
 93
      452
310
43119858D95C185D1D195C9B8010F409028333333333333E3BF0000000000000FB010790141107004050150841D405064090741402480A0350
 94
        0
1001
ACAD
1000
AcDbSavedByObjectVersion
1070
     0
1000
AcadProxyRoundTripData
1071
      505
1071
   655383
1070
     0
  0
ACAD_PROXY_OBJECT
  5
18E7
102
{ACAD_REACTORS
330
18E6
102
}
330
18E6
100
AcDbProxyObject
 90
      499
 91
      510
 93
      396
310
41519B185D00240901404333333333333E3BF0000000000000F9010740A41107004050150841D405064090741402480A1B55
 94
        0
1001
ACAD
1000
AcDbSavedByObjectVersion
1070
     0
1000
AcadProxyRoundTripData
1071
      505
1071
   655383
1070
     0
  0
ACAD_PROXY_OBJECT
  5
18E8
102
{ACAD_REACTORS
330
18E6
102
}
330
18E6
100
AcDbProxyObject
 90
      499
 91
      510
 93
      484
310
43919B185D15DA5D1A115919D95CC010140901404333333333333E3BF0000000000000F9010740901411070040501600405405064090741402480A1B50
 94
        0
1001
ACAD
1000
AcDbSavedByObjectVersion
1070
     0
1000
AcadProxyRoundTripData
1071
      505
1071
   655383
1070
     0
  0
ACAD_PROXY_OBJECT
  5
18E9
102
{ACAD_REACTORS
330
18E6
102
}
330
18E6
100
AcDbProxyObject
 90
      499
 91
      510
 93
      420
310
4211DBDD5C985D590010240902404333333333333E3BF0000000000000F9010740A411070040501641D405064090741402480A1B50
 94
        0
1001
ACAD
1000
AcDbSavedByObjectVersion
1070
     0
1000
AcadProxyRoundTripData
1071
      505
1071
   655383
1070
     0
  0
ACAD_PROXY_OBJECT
  5
18EA
102
{ACAD_REACTORS
330
18E6
102
}
330
18E6
100
AcDbProxyObject
 90
      499
 91
      510
 93
      508
310
4451DBDD5C985D5915DA5D1A115919D95CC010340902404333333333333E3BF0000000000000F9010740901411070040501600405405064090741402480A1B50
 94
        0
1001
ACAD
1000
AcDbSavedByObjectVersion
1070
     0
1000
AcadProxyRoundTripData
1071
      505
1071
   655383
1070
     0
  0
ACAD_PROXY_OBJECT
  5
18F4
102
{ACAD_REACTORS
330
18E6
102
}
330
18E6
100
AcDbProxyObject
 90
      499
 91
      510
 93
      452
310
43131A5B995C185D1D195C9B8010E409028333333333333E3BF0000000000000FB010790141107004050750841D405064090741402483A0350
 94
        0
1001
ACAD
1000
AcDbSavedByObjectVersion
1070
     0
1000
AcadProxyRoundTripData
1071
      505
1071
   655383
1070
     0
  0
ACAD_PROXY_OBJECT
  5
18F0
102
{ACAD_REACTORS
330
18E6
102
}
330
18E6
100
AcDbProxyObject
 90
      499
 91
      510
 93
      428
310
429499585B1A5CDD1A58C0108409028333333333333E3BF0000000000000FB01079019070040501508421405064090741402480A1B45
 94
        0
1001
ACAD
1000
AcDbSavedByObjectVersion
1070
     0
1000
AcadProxyRoundTripData
1071
      505
1071
   655383
1070
     0
  0
ACAD_PROXY_OBJECT
  5
18F3
102
{ACAD_REACTORS
330
18E6
102
}
330
18E6
100
AcDbProxyObject
 90
      499
 91
      510
 93
      420
310
42151A1A58DAD95B8010D409028333333333333E3BF0000000000000FB010790141107004050150C41D405064090741402480A0352
 94
        0
1001
ACAD
1000
AcDbSavedByObjectVersion
1070
     0
1000
AcadProxyRoundTripData
1071
      505
1071
   655383
1070
     0
  0
XRECORD
  5
198A
102
{ACAD_REACTORS
330
1980
102
}
330
1980
100
AcDbXrecord
 90
        0
  0
XRECORD
  5
198E
102
{ACAD_REACTORS
330
1980
102
}
330
1980
100
AcDbXrecord
1000
DSTYLE
1002
{
1070
   179
 70
     2
1070
   277
 70
     6
1002
}
  0
XRECORD
  5
198B
102
{ACAD_REACTORS
330
1980
102
}
330
1980
100
AcDbXrecord
  1
{6385560B-F4B1-4644-A7C2-A3E32AC3D232}
  0
XRECORD
  5
1983
102
{ACAD_REACTORS
330
1980
102
}
330
1980
100
AcDbXrecord
  1

  0
XRECORD
  5
1989
102
{ACAD_REACTORS
330
1980
102
}
330
1980
100
AcDbXrecord
 90
        0
  0
XRECORD
  5
1985
102
{ACAD_REACTORS
330
1980
102
}
330
1980
100
AcDbXrecord
340
61
  0
XRECORD
  5
1988
102
{ACAD_REACTORS
330
1980
102
}
330
1980
100
AcDbXrecord
 90
    10781
  0
XRECORD
  5
1986
102
{ACAD_REACTORS
330
1980
102
}
330
1980
100
AcDbXrecord
340
77
  0
XRECORD
  5
1987
102
{ACAD_REACTORS
330
1980
102
}
330
1980
100
AcDbXrecord
340
6
  0
XRECORD
  5
198D
102
{ACAD_REACTORS
330
1980
102
}
330
1980
100
AcDbXrecord
 40
0.0
  0
XRECORD
  5
1991
102
{ACAD_REACTORS
330
1980
102
}
330
1980
100
AcDbXrecord
340
0
  0
XRECORD
  5
1997
102
{ACAD_REACTORS
330
1980
102
}
330
1980
100
AcDbXrecord
 10
0.0
 20
0.0
 30
0.0
  0
XRECORD
  5
1993
102
{ACAD_REACTORS
330
1980
102
}
330
1980
100
AcDbXrecord
 10
0.0
 20
0.0
 30
0.0
  0
XRECORD
  5
1996
102
{ACAD_REACTORS
330
1980
102
}
330
1980
100
AcDbXrecord
 10
0.0
 20
0.0
 30
0.0
  0
XRECORD
  5
1994
102
{ACAD_REACTORS
330
1980
102
}
330
1980
100
AcDbXrecord
 10
0.0
 20
0.0
 30
0.0
  0
XRECORD
  5
1995
102
{ACAD_REACTORS
330
1980
102
}
330
1980
100
AcDbXrecord
 10
0.0
 20
0.0
 30
0.0
  0
XRECORD
  5
1992
102
{ACAD_REACTORS
330
1980
102
}
330
1980
100
AcDbXrecord
 10
0.0
 20
0.0
 30
0.0
  0
XRECORD
  5
198F
102
{ACAD_REACTORS
330
1980
102
}
330
1980
100
AcDbXrecord
340
0
  0
XRECORD
  5
1990
102
{ACAD_REACTORS
330
1980
102
}
330
1980
100
AcDbXrecord
 70
     0
  0
XRECORD
  5
1984
102
{ACAD_REACTORS
330
1980
102
}
330
1980
100
AcDbXrecord
  1
Sekkei.ctb
  0
XRECORD
  5
1981
102
{ACAD_REACTORS
330
1980
102
}
330
1980
100
AcDbXrecord
 90
        1
  0
XRECORD
  5
1982
102
{ACAD_REACTORS
330
1980
102
}
330
1980
100
AcDbXrecord
 90
       70
  0
XRECORD
  5
199A
102
{ACAD_REACTORS
330
1980
102
}
330
1980
100
AcDbXrecord
340
0
  0
XRECORD
  5
19A0
102
{ACAD_REACTORS
330
1980
102
}
330
1980
100
AcDbXrecord
 10
0.0
 20
0.0
 30
0.0
  0
XRECORD
  5
199C
102
{ACAD_REACTORS
330
1980
102
}
330
1980
100
AcDbXrecord
 10
0.0
 20
0.0
 30
0.0
  0
XRECORD
  5
199F
102
{ACAD_REACTORS
330
1980
102
}
330
1980
100
AcDbXrecord
 10
0.0
 20
0.0
 30
0.0
  0
XRECORD
  5
199D
102
{ACAD_REACTORS
330
1980
102
}
330
1980
100
AcDbXrecord
 10
0.0
 20
0.0
 30
0.0
  0
XRECORD
  5
199E
102
{ACAD_REACTORS
330
1980
102
}
330
1980
100
AcDbXrecord
 10
0.0
 20
0.0
 30
0.0
  0
XRECORD
  5
199B
102
{ACAD_REACTORS
330
1980
102
}
330
1980
100
AcDbXrecord
 10
0.0
 20
0.0
 30
0.0
  0
XRECORD
  5
1998
102
{ACAD_REACTORS
330
1980
102
}
330
1980
100
AcDbXrecord
340
0
  0
XRECORD
  5
1999
102
{ACAD_REACTORS
330
1980
102
}
330
1980
100
AcDbXrecord
 70
     0
  0
XRECORD
  5
198C
102
{ACAD_REACTORS
330
1980
102
}
330
1980
100
AcDbXrecord
  1
{5EED56DD-42AE-4EF7-A94D-F7675B2EBEEC}
  0
DICTIONARYVAR
  5
1957
102
{ACAD_REACTORS
330
102
102
}
330
102
100
DictionaryVariables
280
     0
  1
1:1
  0
DICTIONARYVAR
  5
1956
102
{ACAD_REACTORS
330
102
102
}
330
102
100
DictionaryVariables
280
     0
  1
STANDARD
  0
DICTIONARYVAR
  5
1955
102
{ACAD_REACTORS
330
102
102
}
330
102
100
DictionaryVariables
280
     0
  1
STANDARD
  0
DICTIONARYVAR
  5
103
102
{ACAD_REACTORS
330
102
102
}
330
102
100
DictionaryVariables
280
     0
  1
1
  0
DICTIONARYVAR
  5
1958
102
{ACAD_REACTORS
330
102
102
}
330
102
100
DictionaryVariables
280
     0
  1
0
  0
DICTIONARYVAR
  5
549
102
{ACAD_REACTORS
330
102
102
}
330
102
100
DictionaryVariables
280
     0
  1
96
  0
DICTIONARY
  5
18D7
330
18D6
100
AcDbDictionary
280
     1
  3
ACAD_XREC_ROUNDTRIP
360
1952
  3
BUMPTILE
360
18D9
  3
DIFFUSETILE
360
18D8
  3
OPACITYTILE
360
18DC
  3
REFLECTIONTILE
360
18DB
  3
REFRACTIONTILE
360
18DD
  3
SPECULARTILE
360
18DA
  0
DICTIONARY
  5
18CF
330
18CE
100
AcDbDictionary
280
     1
  3
ACAD_XREC_ROUNDTRIP
360
1951
  3
BUMPTILE
360
18D1
  3
DIFFUSETILE
360
18D0
  3
OPACITYTILE
360
18D4
  3
REFLECTIONTILE
360
18D3
  3
REFRACTIONTILE
360
18D5
  3
SPECULARTILE
360
18D2
  0
DICTIONARY
  5
18DF
330
18DE
100
AcDbDictionary
280
     1
  3
ACAD_XREC_ROUNDTRIP
360
1953
  3
BUMPTILE
360
18E1
  3
DIFFUSETILE
360
18E0
  3
OPACITYTILE
360
18E4
  3
REFLECTIONTILE
360
18E3
  3
REFRACTIONTILE
360
18E5
  3
SPECULARTILE
360
18E2
  0
DICTIONARY
  5
1934
330
18F9
100
AcDbDictionary
280
     1
  3
ACAD_ROUNDTRIP_2008_TABLES
360
1935
  3
ACAD_XREC_ROUNDTRIP
360
1954
  0
XRECORD
  5
1952
102
{ACAD_REACTORS
330
18D7
102
}
330
18D7
100
AcDbXrecord
102
MATERIAL
148
0.0
149
0.0
149
0.0
 93
        0
 94
      127
282
     0
 72
     0
 77
     0
171
     0
175
     0
179
     0
273
     0
  0
XRECORD
  5
18D9
102
{ACAD_REACTORS
330
18D7
102
}
330
18D7
100
AcDbXrecord
270
     1
271
     1
  0
XRECORD
  5
18D8
102
{ACAD_REACTORS
330
18D7
102
}
330
18D7
100
AcDbXrecord
270
     1
271
     1
  0
XRECORD
  5
18DC
102
{ACAD_REACTORS
330
18D7
102
}
330
18D7
100
AcDbXrecord
270
     1
271
     1
  0
XRECORD
  5
18DB
102
{ACAD_REACTORS
330
18D7
102
}
330
18D7
100
AcDbXrecord
270
     1
271
     1
  0
XRECORD
  5
18DD
102
{ACAD_REACTORS
330
18D7
102
}
330
18D7
100
AcDbXrecord
270
     1
271
     1
  0
XRECORD
  5
18DA
102
{ACAD_REACTORS
330
18D7
102
}
330
18D7
100
AcDbXrecord
270
     1
271
     1
  0
XRECORD
  5
1951
102
{ACAD_REACTORS
330
18CF
102
}
330
18CF
100
AcDbXrecord
102
MATERIAL
148
0.0
149
0.0
149
0.0
 93
        0
 94
      127
282
     0
 72
     0
 77
     0
171
     0
175
     0
179
     0
273
     0
  0
XRECORD
  5
18D1
102
{ACAD_REACTORS
330
18CF
102
}
330
18CF
100
AcDbXrecord
270
     1
271
     1
  0
XRECORD
  5
18D0
102
{ACAD_REACTORS
330
18CF
102
}
330
18CF
100
AcDbXrecord
270
     1
271
     1
  0
XRECORD
  5
18D4
102
{ACAD_REACTORS
330
18CF
102
}
330
18CF
100
AcDbXrecord
270
     1
271
     1
  0
XRECORD
  5
18D3
102
{ACAD_REACTORS
330
18CF
102
}
330
18CF
100
AcDbXrecord
270
     1
271
     1
  0
XRECORD
  5
18D5
102
{ACAD_REACTORS
330
18CF
102
}
330
18CF
100
AcDbXrecord
270
     1
271
     1
  0
XRECORD
  5
18D2
102
{ACAD_REACTORS
330
18CF
102
}
330
18CF
100
AcDbXrecord
270
     1
271
     1
  0
XRECORD
  5
1953
102
{ACAD_REACTORS
330
18DF
102
}
330
18DF
100
AcDbXrecord
102
MATERIAL
148
0.0
149
0.0
149
0.0
 93
        0
 94
      127
282
     0
 72
     0
 77
     0
171
     0
175
     0
179
     0
273
     0
  0
XRECORD
  5
18E1
102
{ACAD_REACTORS
330
18DF
102
}
330
18DF
100
AcDbXrecord
270
     1
271
     1
  0
XRECORD
  5
18E0
102
{ACAD_REACTORS
330
18DF
102
}
330
18DF
100
AcDbXrecord
270
     1
271
     1
  0
XRECORD
  5
18E4
102
{ACAD_REACTORS
330
18DF
102
}
330
18DF
100
AcDbXrecord
270
     1
271
     1
  0
XRECORD
  5
18E3
102
{ACAD_REACTORS
330
18DF
102
}
330
18DF
100
AcDbXrecord
270
     1
271
     1
  0
XRECORD
  5
18E5
102
{ACAD_REACTORS
330
18DF
102
}
330
18DF
100
AcDbXrecord
270
     1
271
     1
  0
XRECORD
  5
18E2
102
{ACAD_REACTORS
330
18DF
102
}
330
18DF
100
AcDbXrecord
270
     1
271
     1
  0
ACAD_PROXY_OBJECT
  5
1935
102
{ACAD_REACTORS
330
1934
102
}
330
1934
100
AcDbProxyObject
 90
      499
 91
      510
 93
     1044
310
40D054060020000020000003200101A000080002A5058000000C100000000000000340FE901405075F5449544C450041501A8000000C800406800020000A9416000000304000AD7A3703D0AC73FA409014217D2115051115480105406A0000003200101A000080002A5028000000C10002B5E8DC0F42B1CFE903409065F444
310
15441004
340
16
340
16
340
16
 94
        0
1001
ACAD
1000
AcadProxyRoundTripData
1071
      509
1071
   655383
1070
     0
  0
XRECORD
  5
1954
102
{ACAD_REACTORS
330
1934
102
}
330
1934
100
AcDbXrecord
102
ACAD_ROUNDTRIP_PRE2007_TABLESTYLE
 90
      512
 91
        0
  1

 92
      512
 93
        0
  2

 94
      512
 95
        0
  3

  0
ENDSEC
  0
EOF
