  0
SECTION
  2
HEADER
  9
$ACADVER
  1
AC1014
  9
$ACADMAINTVER
 70
     9
  9
$DWGCODEPAGE
  3
ANSI_932
  9
$INSBASE
 10
0.0
 20
0.0
 30
0.0
  9
$EXTMIN
 10
34.49741343279754
 20
440.2427203907778
 30
0.0
  9
$EXTMAX
 10
1460.59044388186
 20
997.4327332448515
 30
0.0
  9
$LIMMIN
 10
0.0
 20
0.0
  9
$LIMMAX
 10
297.0
 20
210.0
  9
$ORTHOMODE
 70
     0
  9
$REGENMODE
 70
     1
  9
$FILLMODE
 70
     1
  9
$QTEXTMODE
 70
     0
  9
$MIRRTEXT
 70
     0
  9
$DRAGMODE
 70
     2
  9
$LTSCALE
 40
4.0
  9
$OSMODE
 70
    37
  9
$ATTMODE
 70
     1
  9
$TEXTSIZE
 40
2.0
  9
$TRACEWID
 40
1.0
  9
$TEXTSTYLE
  7
STANDARD
  9
$CLAYER
  8
0
  9
$CELTYPE
  6
BYLAYER
  9
$CECOLOR
 62
   256
  9
$CELTSCALE
 40
1.0
  9
$DELOBJ
 70
     1
  9
$DISPSILH
 70
     0
  9
$DIMSCALE
 40
4.0
  9
$DIMASZ
 40
1.8
  9
$DIMEXO
 40
0.625
  9
$DIMDLI
 40
3.75
  9
$DIMRND
 40
0.0
  9
$DIMDLE
 40
0.0
  9
$DIMEXE
 40
0.8
  9
$DIMTP
 40
0.0
  9
$DIMTM
 40
0.0
  9
$DIMTXT
 40
1.8
  9
$DIMCEN
 40
2.5
  9
$DIMTSZ
 40
0.0
  9
$DIMTOL
 70
     0
  9
$DIMLIM
 70
     0
  9
$DIMTIH
 70
     0
  9
$DIMTOH
 70
     0
  9
$DIMSE1
 70
     0
  9
$DIMSE2
 70
     0
  9
$DIMTAD
 70
     1
  9
$DIMZIN
 70
     8
  9
$DIMBLK
  1

  9
$DIMASO
 70
     1
  9
$DIMSHO
 70
     1
  9
$DIMPOST
  1

  9
$DIMAPOST
  1

  9
$DIMALT
 70
     0
  9
$DIMALTD
 70
     4
  9
$DIMALTF
 40
0.0394
  9
$DIMLFAC
 40
1.0
  9
$DIMTOFL
 70
     1
  9
$DIMTVP
 40
0.0
  9
$DIMTIX
 70
     0
  9
$DIMSOXD
 70
     0
  9
$DIMSAH
 70
     0
  9
$DIMBLK1
  1

  9
$DIMBLK2
  1

  9
$DIMSTYLE
  2
STANDARD
  9
$DIMCLRD
 70
     0
  9
$DIMCLRE
 70
     0
  9
$DIMCLRT
 70
     0
  9
$DIMTFAC
 40
1.0
  9
$DIMGAP
 40
0.75
  9
$DIMJUST
 70
     0
  9
$DIMSD1
 70
     0
  9
$DIMSD2
 70
     0
  9
$DIMTOLJ
 70
     1
  9
$DIMTZIN
 70
     0
  9
$DIMALTZ
 70
     0
  9
$DIMALTTZ
 70
     0
  9
$DIMFIT
 70
     3
  9
$DIMUPT
 70
     0
  9
$DIMUNIT
 70
     8
  9
$DIMDEC
 70
     2
  9
$DIMTDEC
 70
     2
  9
$DIMALTU
 70
     8
  9
$DIMALTTD
 70
     4
  9
$DIMTXSTY
  7
STANDARD
  9
$DIMAUNIT
 70
     0
  9
$LUNITS
 70
     2
  9
$LUPREC
 70
     3
  9
$SKETCHINC
 40
1.0
  9
$FILLETRAD
 40
10.0
  9
$AUNITS
 70
     0
  9
$AUPREC
 70
     2
  9
$MENU
  1
.
  9
$ELEVATION
 40
0.0
  9
$PELEVATION
 40
0.0
  9
$THICKNESS
 40
0.0
  9
$LIMCHECK
 70
     0
  9
$BLIPMODE
 70
     0
  9
$CHAMFERA
 40
0.0
  9
$CHAMFERB
 40
0.0
  9
$CHAMFERC
 40
20.0
  9
$CHAMFERD
 40
0.0
  9
$SKPOLY
 70
     0
  9
$TDCREATE
 40
2454889.560527523
  9
$TDUPDATE
 40
2454909.824536342
  9
$TDINDWG
 40
0.0589301042
  9
$TDUSRTIMER
 40
0.0589299190
  9
$USRTIMER
 70
     1
  9
$ANGBASE
 50
0.0
  9
$ANGDIR
 70
     0
  9
$PDMODE
 70
     0
  9
$PDSIZE
 40
-10.0
  9
$PLINEWID
 40
0.0
  9
$COORDS
 70
     1
  9
$SPLFRAME
 70
     0
  9
$SPLINETYPE
 70
     6
  9
$SPLINESEGS
 70
     8
  9
$ATTDIA
 70
     0
  9
$ATTREQ
 70
     1
  9
$HANDLING
 70
 22529
  9
$HANDSEED
  5
29D1
  9
$SURFTAB1
 70
     6
  9
$SURFTAB2
 70
     6
  9
$SURFTYPE
 70
     6
  9
$SURFU
 70
     6
  9
$SURFV
 70
     6
  9
$UCSNAME
  2

  9
$UCSORG
 10
0.0
 20
0.0
 30
0.0
  9
$UCSXDIR
 10
1.0
 20
0.0
 30
0.0
  9
$UCSYDIR
 10
0.0
 20
1.0
 30
0.0
  9
$PUCSNAME
  2

  9
$PUCSORG
 10
0.0
 20
0.0
 30
0.0
  9
$PUCSXDIR
 10
1.0
 20
0.0
 30
0.0
  9
$PUCSYDIR
 10
0.0
 20
1.0
 30
0.0
  9
$USERI1
 70
     0
  9
$USERI2
 70
     0
  9
$USERI3
 70
     0
  9
$USERI4
 70
     0
  9
$USERI5
 70
     0
  9
$USERR1
 40
0.0
  9
$USERR2
 40
0.0
  9
$USERR3
 40
0.0
  9
$USERR4
 40
0.0
  9
$USERR5
 40
0.0
  9
$WORLDVIEW
 70
     1
  9
$SHADEDGE
 70
     3
  9
$SHADEDIF
 70
    70
  9
$TILEMODE
 70
     1
  9
$MAXACTVP
 70
    48
  9
$PINSBASE
 10
0.0
 20
0.0
 30
0.0
  9
$PLIMCHECK
 70
     0
  9
$PEXTMIN
 10
0.0
 20
0.0
 30
0.0
  9
$PEXTMAX
 10
0.0
 20
0.0
 30
0.0
  9
$PLIMMIN
 10
0.0
 20
0.0
  9
$PLIMMAX
 10
12.0
 20
9.0
  9
$UNITMODE
 70
     0
  9
$VISRETAIN
 70
     1
  9
$PLINEGEN
 70
     0
  9
$PSLTSCALE
 70
     1
  9
$TREEDEPTH
 70
  3020
  9
$PICKSTYLE
 70
     1
  9
$CMLSTYLE
  2
STANDARD
  9
$CMLJUST
 70
     0
  9
$CMLSCALE
 40
1.0
  9
$PROXYGRAPHICS
 70
     1
  9
$MEASUREMENT
 70
     0
  0
ENDSEC
  0
SECTION
  2
CLASSES
  0
CLASS
  1
DICTIONARYVAR
  2
AcDbDictionaryVar
  3
AutoCAD 2000
 90
        0
280
     0
281
     0
  0
CLASS
  1
ACDBDICTIONARYWDFLT
  2
AcDbDictionaryWithDefault
  3
AutoCAD 2000
 90
        0
280
     0
281
     0
  0
CLASS
  1
ACDBPLACEHOLDER
  2
AcDbPlaceHolder
  3
AutoCAD 2000
 90
        0
280
     0
281
     0
  0
CLASS
  1
LAYOUT
  2
AcDbLayout
  3
AutoCAD 2000
 90
        0
280
     0
281
     0
  0
CLASS
  1
MATERIAL
  2
AcDbMaterial
  3
ObjectDBX Classes
 90
     1153
280
     0
281
     0
  0
CLASS
  1
VISUALSTYLE
  2
AcDbVisualStyle
  3
ObjectDBX Classes
 90
     4095
280
     0
281
     0
  0
CLASS
  1
TABLESTYLE
  2
AcDbTableStyle
  3
ObjectDBX Classes
 90
     4095
280
     0
281
     0
  0
CLASS
  1
SCALE
  2
AcDbScale
  3
ObjectDBX Classes
 90
     1153
280
     0
281
     0
  0
CLASS
  1
MLEADERSTYLE
  2
AcDbMLeaderStyle
  3
ACDB_MLEADERSTYLE_CLASS
 90
     4095
280
     0
281
     0
  0
CLASS
  1
PLOTSETTINGS
  2
AcDbPlotSettings
  3
AutoCAD 2000
 90
        0
280
     0
281
     0
  0
CLASS
  1
CELLSTYLEMAP
  2
AcDbCellStyleMap
  3
ObjectDBX Classes
 90
     1152
280
     0
281
     0
  0
CLASS
  1
SORTENTSTABLE
  2
AcDbSortentsTable
  3
AutoCAD 2000
 90
        0
280
     0
281
     0
  0
CLASS
  1
ACAD_PROXY_OBJECT_WRAPPER
  2
AcDbProxyObjectWrapper
  3
AutoCAD 2000
 90
        0
280
     0
281
     0
  0
CLASS
  1
LONG_TRANSACTION
  2
AcDbLongTransaction
  3
AutoCAD 2000
 90
        0
280
     0
281
     0
  0
CLASS
  1
LWPOLYLINE
  2
AcDbPolyline
  3
AutoCAD 2000
 90
        0
280
     0
281
     1
  0
CLASS
  1
HATCH
  2
AcDbHatch
  3
AutoCAD 2000
 90
        0
280
     0
281
     1
  0
CLASS
  1
XRECORD
  2
AcDbXrecord
  3
AutoCAD 2000
 90
        0
280
     0
281
     0
  0
ENDSEC
  0
SECTION
  2
TABLES
  0
TABLE
  2
VPORT
  5
6E
102
{ACAD_XDICTIONARY
360
1BB4
102
}
330
0
100
AcDbSymbolTable
 70
     2
  0
VPORT
  5
29AC
330
6E
100
AcDbSymbolTableRecord
100
AcDbViewportTableRecord
  2
*ACTIVE
 70
     0
 10
0.0
 20
0.0
 11
1.0
 21
1.0
 12
809.6955920820636
 22
705.0943578141639
 13
0.0
 23
0.0
 14
10.0
 24
10.0
 15
10.0
 25
10.0
 16
0.0
 26
0.0
 36
1.0
 17
0.0
 27
0.0
 37
0.0
 40
976.8871507425471
 41
1.593429158110883
 42
50.0
 43
0.0
 44
0.0
 50
0.0
 51
0.0
 71
     0
 72
   100
 73
     1
 74
     3
 75
     0
 76
     0
 77
     0
 78
     0
  0
ENDTAB
  0
TABLE
  2
LTYPE
  5
69
330
0
100
AcDbSymbolTable
 70
     7
  0
LTYPE
  5
6A
330
69
100
AcDbSymbolTableRecord
100
AcDbLinetypeTableRecord
  2
BYBLOCK
 70
     0
  3

 72
    65
 73
     0
 40
0.0
  0
LTYPE
  5
6B
330
69
100
AcDbSymbolTableRecord
100
AcDbLinetypeTableRecord
  2
BYLAYER
 70
     0
  3

 72
    65
 73
     0
 40
0.0
  0
LTYPE
  5
8
330
69
100
AcDbSymbolTableRecord
100
AcDbLinetypeTableRecord
  2
CONTINUOUS
 70
     0
  3
Solid line
 72
    65
 73
     0
 40
0.0
  0
LTYPE
  5
27C
330
69
100
AcDbSymbolTableRecord
100
AcDbLinetypeTableRecord
  2
SEKKEI_A2_
 70
     0
  3
center(A2)  ____ _ ____ _ ____ _ ____ _ ____ _ 
 72
    65
 73
     4
 40
14.28749999999999
 49
9.525
 74
     0
 49
-1.587499999999999
 74
     0
 49
1.587499999999999
 74
     0
 49
-1.587499999999999
 74
     0
  0
LTYPE
  5
2B4
330
69
100
AcDbSymbolTableRecord
100
AcDbLinetypeTableRecord
  2
HIDDEN2
 70
     0
  3
Hidden (.5x) _ _ _ _ _ _ _ _ _ _ _ _ _ _ _ _ _
 72
    65
 73
     2
 40
4.762499999999999
 49
3.174999999999999
 74
     0
 49
-1.587499999999999
 74
     0
  0
LTYPE
  5
48F
330
69
100
AcDbSymbolTableRecord
100
AcDbLinetypeTableRecord
  2
SEKKEI_H
 70
     0
  3
Hidden-S _ _ _ _ _ _ _ _ _ _ _ _ _ _ _ _ _
 72
    65
 73
     2
 40
2.381249999999999
 49
1.587499999999999
 74
     0
 49
-0.79375
 74
     0
  0
LTYPE
  5
54A
330
69
100
AcDbSymbolTableRecord
100
AcDbLinetypeTableRecord
  2
CENTERX2
 70
     0
  3
Center (2x) ________  __  ________  __  _____
 72
    65
 73
     4
 40
4.0
 49
2.5
 74
     0
 49
-0.5
 74
     0
 49
0.5
 74
     0
 49
-0.5
 74
     0
  0
ENDTAB
  0
TABLE
  2
LAYER
  5
66
102
{ACAD_XDICTIONARY
360
86B
102
}
330
0
100
AcDbSymbolTable
 70
    10
  0
LAYER
  5
5E
102
{ACAD_XDICTIONARY
360
1A25
102
}
330
66
100
AcDbSymbolTableRecord
100
AcDbLayerTableRecord
  2
0
 70
     0
 62
     7
  6
CONTINUOUS
  0
LAYER
  5
3E
102
{ACAD_XDICTIONARY
360
1A27
102
}
330
66
100
AcDbSymbolTableRecord
100
AcDbLayerTableRecord
  2
CENTER
 70
     0
 62
     3
  6
SEKKEI_A2_
  0
LAYER
  5
2B5
102
{ACAD_XDICTIONARY
360
1A2D
102
}
330
66
100
AcDbSymbolTableRecord
100
AcDbLayerTableRecord
  2
HIDS
 70
     0
 62
     1
  6
HIDDEN2
  0
LAYER
  5
2BA
102
{ACAD_XDICTIONARY
360
1A2F
102
}
330
66
100
AcDbSymbolTableRecord
100
AcDbLayerTableRecord
  2
HOJO
 70
     0
 62
     4
  6
CONTINUOUS
  0
LAYER
  5
3FA
102
{ACAD_XDICTIONARY
360
1A33
102
}
330
66
100
AcDbSymbolTableRecord
100
AcDbLayerTableRecord
  2
TITLE
 70
     0
 62
     4
  6
CONTINUOUS
  0
ENDTAB
  0
TABLE
  2
STYLE
  5
67
330
0
100
AcDbSymbolTable
 70
     3
  0
STYLE
  5
16
330
67
100
AcDbSymbolTableRecord
100
AcDbTextStyleTableRecord
  2
STANDARD
 70
     0
 40
0.0
 41
1.0
 50
0.0
 71
     0
 42
2.0
  3
simplex.shx
  4
extfont.shx
  0
ENDTAB
  0
TABLE
  2
VIEW
  5
6C
330
0
100
AcDbSymbolTable
 70
     0
  0
ENDTAB
  0
TABLE
  2
UCS
  5
6D
330
0
100
AcDbSymbolTable
 70
     0
  0
ENDTAB
  0
TABLE
  2
APPID
  5
70
330
0
100
AcDbSymbolTable
 70
     7
  0
APPID
  5
71
330
70
100
AcDbSymbolTableRecord
100
AcDbRegAppTableRecord
  2
ACAD
 70
     0
  0
APPID
  5
859
330
70
100
AcDbSymbolTableRecord
100
AcDbRegAppTableRecord
  2
ACAD_MLEADERVER
 70
     0
  0
APPID
  5
866
330
70
100
AcDbSymbolTableRecord
100
AcDbRegAppTableRecord
  2
ACAD_PSEXT
 70
     0
  0
APPID
  5
A4F
330
70
100
AcDbSymbolTableRecord
100
AcDbRegAppTableRecord
  2
ACAD_DSTYLE_DIMJAG
 70
     0
  0
APPID
  5
A50
330
70
100
AcDbSymbolTableRecord
100
AcDbRegAppTableRecord
  2
ACAD_DSTYLE_DIMTALN
 70
     0
  0
APPID
  5
18E5
330
70
100
AcDbSymbolTableRecord
100
AcDbRegAppTableRecord
  2
ACAD_EXEMPT_FROM_CAD_STANDARDS
 70
     0
  0
APPID
  5
1B78
330
70
100
AcDbSymbolTableRecord
100
AcDbRegAppTableRecord
  2
ACAD_DSTYLE_DIMRADIAL_EXTENSION
 70
     0
  0
ENDTAB
  0
TABLE
  2
DIMSTYLE
  5
72
330
0
100
AcDbSymbolTable
 70
     1
  0
DIMSTYLE
105
73
102
{ACAD_REACTORS
330
1079
330
107C
102
}
330
72
100
AcDbSymbolTableRecord
100
AcDbDimStyleTableRecord
  2
STANDARD
 70
     0
  3

  4

  5

  6

  7

 40
4.0
 41
1.8
 42
0.625
 43
3.75
 44
0.8
 45
0.0
 46
0.0
 47
0.0
 48
0.0
140
1.8
141
2.5
142
0.0
143
0.0394
144
1.0
145
0.0
146
1.0
147
0.75
 71
     0
 72
     0
 73
     0
 74
     0
 75
     0
 76
     0
 77
     1
 78
     8
170
     0
171
     4
172
     1
173
     0
174
     0
175
     0
176
     0
177
     0
178
     0
270
     8
271
     2
272
     2
273
     8
274
     4
340
16
275
     0
280
     0
281
     0
282
     0
283
     1
284
     0
285
     0
286
     0
287
     3
288
     0
1001
ACAD_DSTYLE_DIMJAG
1070
   388
1040
1.5
1001
ACAD_DSTYLE_DIMTALN
1070
   392
1070
     0
  0
ENDTAB
  0
TABLE
  2
BLOCK_RECORD
  5
1
330
0
100
AcDbSymbolTable
 70
    60
  0
BLOCK_RECORD
  5
2
102
{ACAD_XDICTIONARY
360
192E
102
}
330
1
100
AcDbSymbolTableRecord
100
AcDbBlockTableRecord
  2
*MODEL_SPACE
  0
BLOCK_RECORD
  5
29A7
102
{ACAD_XDICTIONARY
360
29CF
102
}
330
1
100
AcDbSymbolTableRecord
100
AcDbBlockTableRecord
  2
*PAPER_SPACE
  0
ENDTAB
  0
ENDSEC
  0
SECTION
  2
BLOCKS
  0
BLOCK
  5
5D
330
2
100
AcDbEntity
  8
0
100
AcDbBlockBegin
  2
*MODEL_SPACE
 70
     0
 10
0.0
 20
0.0
 30
0.0
  3
*MODEL_SPACE
  1

  0
ENDBLK
  5
5F
330
2
100
AcDbEntity
  8
0
100
AcDbBlockEnd
  0
BLOCK
  5
29A9
330
29A7
100
AcDbEntity
 67
     1
  8
0
100
AcDbBlockBegin
  2
*PAPER_SPACE
 70
     0
 10
0.0
 20
0.0
 30
0.0
  3
*PAPER_SPACE
  1

  0
ENDBLK
  5
29AA
330
29A7
100
AcDbEntity
 67
     1
  8
0
100
AcDbBlockEnd
  0
ENDSEC
  0
SECTION
  2
ENTITIES
  0
LINE
  5
DF9
330
2
100
AcDbEntity
  8
CENTER
100
AcDbLine
 10
943.0079117391269
 20
463.6005847670469
 30
0.0
 11
799.7236404916646
 21
606.8848560145085
 31
0.0
  0
LINE
  5
DFA
330
2
100
AcDbEntity
  8
CENTER
100
AcDbLine
 10
799.7236404916646
 20
463.6005847670467
 30
0.0
 11
943.0079117391258
 21
606.8848560145097
 31
0.0
  0
CIRCLE
  5
DFB
330
2
100
AcDbEntity
  8
CENTER
100
AcDbCircle
 10
871.3657761153957
 20
535.2427203907778
 30
0.0
 40
80.0
  0
CIRCLE
  5
DFC
330
2
100
AcDbEntity
  8
0
100
AcDbCircle
 10
871.3657761153957
 20
535.2427203907778
 30
0.0
 40
60.0
  0
LINE
  5
DFD
330
2
100
AcDbEntity
  8
CENTER
100
AcDbLine
 10
871.3657761153957
 20
440.2427203907778
 30
0.0
 11
871.3657761153957
 21
630.2427203907777
 31
0.0
  0
LINE
  5
DFE
330
2
100
AcDbEntity
  8
0
100
AcDbLine
 10
938.8657761153957
 20
477.7427203907778
 30
0.0
 11
938.8657761153957
 21
592.7427203907777
 31
0.0
  0
ARC
  5
DFF
330
2
100
AcDbEntity
  8
0
100
AcDbCircle
 10
871.3657761153957
 20
262.7427203907777
 30
0.0
 40
340.0
100
AcDbArc
 50
85.33227731211807
 51
94.66772268788194
  0
ARC
  5
E00
330
2
100
AcDbEntity
  8
0
100
AcDbCircle
 10
813.8657761153957
 20
592.7427203907777
 30
0.0
 40
10.0
100
AcDbArc
 50
90.0
 51
180.0
  0
CIRCLE
  5
E01
330
2
100
AcDbEntity
  8
0
100
AcDbCircle
 10
814.7972336204714
 20
591.811262885702
 30
0.0
 40
4.0
  0
CIRCLE
  5
E02
330
2
100
AcDbEntity
  8
HOJO
100
AcDbCircle
 10
814.7972336204714
 20
591.811262885702
 30
0.0
 40
5.0
  0
LINE
  5
E03
330
2
100
AcDbEntity
  8
0
100
AcDbLine
 10
803.8657761153958
 20
588.7427203907777
 30
0.0
 11
803.8657761153958
 21
592.7427203907777
 31
0.0
  0
LINE
  5
E04
330
2
100
AcDbEntity
  8
0
100
AcDbLine
 10
813.8657761153957
 20
602.7427203907778
 30
0.0
 11
817.8657761153957
 21
602.7427203907778
 31
0.0
  0
ARC
  5
E05
330
2
100
AcDbEntity
  8
0
100
AcDbCircle
 10
817.8657761153957
 20
594.7427203907778
 30
0.0
 40
8.0
100
AcDbArc
 50
80.5704788783275
 51
90.0
  0
ARC
  5
E06
330
2
100
AcDbEntity
  8
0
100
AcDbCircle
 10
928.8657761153958
 20
592.7427203907777
 30
0.0
 40
10.0
100
AcDbArc
 50
0.0
 51
90.0
  0
CIRCLE
  5
E07
330
2
100
AcDbEntity
  8
0
100
AcDbCircle
 10
927.9343186103181
 20
591.811262885702
 30
0.0
 40
4.0
  0
CIRCLE
  5
E08
330
2
100
AcDbEntity
  8
HOJO
100
AcDbCircle
 10
927.9343186103181
 20
591.811262885702
 30
0.0
 40
5.0
  0
ARC
  5
E09
330
2
100
AcDbEntity
  8
0
100
AcDbCircle
 10
924.8657761153957
 20
594.7427203907778
 30
0.0
 40
8.0
100
AcDbArc
 50
90.0
 51
99.42952112167251
  0
LINE
  5
E0A
330
2
100
AcDbEntity
  8
0
100
AcDbLine
 10
924.8657761153957
 20
602.7427203907778
 30
0.0
 11
928.8657761153958
 21
602.7427203907778
 31
0.0
  0
LINE
  5
E0B
330
2
100
AcDbEntity
  8
CENTER
100
AcDbLine
 10
776.3657761153957
 20
535.2427203907778
 30
0.0
 11
1129.835798115398
 21
535.2427203907778
 31
0.0
  0
CIRCLE
  5
E0C
330
2
100
AcDbEntity
  8
0
100
AcDbCircle
 10
871.3657761153957
 20
535.2427203907778
 30
0.0
 40
43.5
  0
ARC
  5
E0D
330
2
100
AcDbEntity
  8
0
100
AcDbCircle
 10
1143.865776115394
 20
535.2427203907778
 30
0.0
 40
340.0
100
AcDbArc
 50
175.3322773121172
 51
184.6677226878827
  0
LINE
  5
E0E
330
2
100
AcDbEntity
  8
0
100
AcDbLine
 10
1019.835798115393
 20
584.7427203907777
 30
0.0
 11
1019.835798115393
 21
485.7427203907778
 31
0.0
  0
LINE
  5
E0F
330
2
100
AcDbEntity
  8
0
100
AcDbLine
 10
1035.335798115395
 20
483.7427203907777
 30
0.0
 11
1035.335798115393
 21
586.7427203907777
 31
0.0
  0
LINE
  5
E10
330
2
100
AcDbEntity
  8
0
100
AcDbLine
 10
990.3657761153958
 20
492.2427203907777
 30
0.0
 11
990.3657761153958
 21
578.2427203907777
 31
0.0
  0
ARC
  5
E11
330
2
100
AcDbEntity
  8
0
100
AcDbCircle
 10
871.3657761153957
 20
807.7427203907777
 30
0.0
 40
340.0
100
AcDbArc
 50
265.332277312118
 51
274.6677226878819
  0
CIRCLE
  5
E12
330
2
100
AcDbEntity
  8
0
100
AcDbCircle
 10
814.7972336204714
 20
478.6741778958535
 30
0.0
 40
4.0
  0
CIRCLE
  5
E13
330
2
100
AcDbEntity
  8
HOJO
100
AcDbCircle
 10
814.7972336204714
 20
478.6741778958535
 30
0.0
 40
5.0
  0
LINE
  5
E14
330
2
100
AcDbEntity
  8
0
100
AcDbLine
 10
813.8657761153957
 20
467.7427203907777
 30
0.0
 11
817.8657761153957
 21
467.7427203907777
 31
0.0
  0
ARC
  5
E15
330
2
100
AcDbEntity
  8
0
100
AcDbCircle
 10
813.8657761153957
 20
477.7427203907778
 30
0.0
 40
10.0
100
AcDbArc
 50
180.0
 51
270.0
  0
LINE
  5
E16
330
2
100
AcDbEntity
  8
0
100
AcDbLine
 10
803.8657761153958
 20
477.7427203907778
 30
0.0
 11
803.8657761153958
 21
481.7427203907778
 31
0.0
  0
ARC
  5
E17
330
2
100
AcDbEntity
  8
0
100
AcDbCircle
 10
811.8657761153938
 20
481.7427203907778
 30
0.0
 40
8.0
100
AcDbArc
 50
170.5704788783795
 51
180.0
  0
ARC
  5
E18
330
2
100
AcDbEntity
  8
0
100
AcDbCircle
 10
817.8657761153957
 20
475.7427203907777
 30
0.0
 40
8.0
100
AcDbArc
 50
270.0
 51
279.4295211216724
  0
LINE
  5
E19
330
2
100
AcDbEntity
  8
0
100
AcDbLine
 10
946.8031672300462
 20
484.2427203907777
 30
0.0
 11
982.3657761153958
 21
484.2427203907777
 31
0.0
  0
CIRCLE
  5
E1A
330
2
100
AcDbEntity
  8
0
100
AcDbCircle
 10
927.9343186103181
 20
478.6741778958553
 30
0.0
 40
4.0
  0
CIRCLE
  5
E1B
330
2
100
AcDbEntity
  8
HOJO
100
AcDbCircle
 10
927.9343186103181
 20
478.6741778958553
 30
0.0
 40
5.0
  0
ARC
  5
E1C
330
2
100
AcDbEntity
  8
0
100
AcDbCircle
 10
928.8657761153958
 20
477.7427203907778
 30
0.0
 40
10.0
100
AcDbArc
 50
270.0
 51
0.0
  0
ARC
  5
E1D
330
2
100
AcDbEntity
  8
0
100
AcDbCircle
 10
924.8657761153957
 20
475.7427203907777
 30
0.0
 40
8.0
100
AcDbArc
 50
260.5704788783274
 51
270.0
  0
LINE
  5
E1E
330
2
100
AcDbEntity
  8
0
100
AcDbLine
 10
924.8657761153957
 20
467.7427203907777
 30
0.0
 11
928.8657761153958
 21
467.7427203907777
 31
0.0
  0
ARC
  5
E1F
330
2
100
AcDbEntity
  8
0
100
AcDbCircle
 10
982.3657761153958
 20
492.2427203907777
 30
0.0
 40
8.0
100
AcDbArc
 50
270.0
 51
0.0
  0
LINE
  5
E20
330
2
100
AcDbEntity
  8
0
100
AcDbLine
 10
1035.335798115393
 20
484.2427203907777
 30
0.0
 11
1021.835798115393
 21
484.2427203907777
 31
0.0
  0
ARC
  5
E21
330
2
100
AcDbEntity
  8
0
100
AcDbCircle
 10
1021.835798115393
 20
486.2427203907778
 30
0.0
 40
2.0
100
AcDbArc
 50
180.0
 51
270.0
  0
ARC
  5
E22
330
2
100
AcDbEntity
  8
0
100
AcDbCircle
 10
1014.835798115393
 20
490.2427203907778
 30
0.0
 40
5.0
100
AcDbArc
 50
0.0
 51
90.0
  0
ARC
  5
E23
330
2
100
AcDbEntity
  8
0
100
AcDbCircle
 10
811.8657761153938
 20
588.7427203907777
 30
0.0
 40
8.0
100
AcDbArc
 50
180.0
 51
189.4295211216204
  0
LINE
  5
E24
330
2
100
AcDbEntity
  8
0
100
AcDbLine
 10
946.8031672300462
 20
586.2427203907778
 30
0.0
 11
982.3657761153958
 21
586.2427203907778
 31
0.0
  0
LINE
  5
E25
330
2
100
AcDbEntity
  8
0
100
AcDbLine
 10
1010.835798115393
 20
575.2427203907777
 30
0.0
 11
1014.835798115393
 21
575.2427203907777
 31
0.0
  0
ARC
  5
E26
330
2
100
AcDbEntity
  8
0
100
AcDbCircle
 10
982.3657761153958
 20
578.2427203907777
 30
0.0
 40
8.0
100
AcDbArc
 50
0.0
 51
90.0
  0
ARC
  5
E27
330
2
100
AcDbEntity
  8
0
100
AcDbCircle
 10
1014.835798115393
 20
580.2427203907777
 30
0.0
 40
5.0
100
AcDbArc
 50
270.0
 51
0.0
  0
LINE
  5
E28
330
2
100
AcDbEntity
  8
0
100
AcDbLine
 10
1035.335798115393
 20
586.2427203907778
 30
0.0
 11
1021.835798115393
 21
586.2427203907778
 31
0.0
  0
ARC
  5
E29
330
2
100
AcDbEntity
  8
0
100
AcDbCircle
 10
1021.835798115393
 20
584.2427203907777
 30
0.0
 40
2.0
100
AcDbArc
 50
90.0
 51
180.0
  0
LINE
  5
E2A
330
2
100
AcDbEntity
  8
CENTER
100
AcDbLine
 10
814.7972336204714
 20
582.811262885702
 30
0.0
 11
814.7972336204714
 21
600.811262885702
 31
0.0
  0
LINE
  5
E2B
330
2
100
AcDbEntity
  8
CENTER
100
AcDbLine
 10
805.7972336204715
 20
591.811262885702
 30
0.0
 11
823.7972336204714
 21
591.811262885702
 31
0.0
  0
LINE
  5
E2C
330
2
100
AcDbEntity
  8
CENTER
100
AcDbLine
 10
927.9343186103181
 20
582.811262885702
 30
0.0
 11
927.9343186103181
 21
600.811262885702
 31
0.0
  0
LINE
  5
E2D
330
2
100
AcDbEntity
  8
CENTER
100
AcDbLine
 10
936.9343186103181
 20
591.811262885702
 30
0.0
 11
918.9343186103181
 21
591.811262885702
 31
0.0
  0
LINE
  5
E2E
330
2
100
AcDbEntity
  8
CENTER
100
AcDbLine
 10
927.9343186103181
 20
487.6741778958535
 30
0.0
 11
927.9343186103181
 21
469.6741778958535
 31
0.0
  0
LINE
  5
E2F
330
2
100
AcDbEntity
  8
CENTER
100
AcDbLine
 10
936.9343186103181
 20
478.6741778958553
 30
0.0
 11
918.9343186103181
 21
478.6741778958553
 31
0.0
  0
LINE
  5
E30
330
2
100
AcDbEntity
  8
CENTER
100
AcDbLine
 10
814.7972336204714
 20
487.6741778958535
 30
0.0
 11
814.7972336204714
 21
469.6741778958535
 31
0.0
  0
LINE
  5
E31
330
2
100
AcDbEntity
  8
CENTER
100
AcDbLine
 10
805.7972336204715
 20
478.6741778958553
 30
0.0
 11
823.7972336204714
 21
478.6741778958553
 31
0.0
  0
CIRCLE
  5
E32
330
2
100
AcDbEntity
  8
0
100
AcDbCircle
 10
871.3657761153939
 20
535.2427203907796
 30
0.0
 40
36.0
  0
ARC
  5
E33
330
2
100
AcDbEntity
  8
0
100
AcDbCircle
 10
835.5598764915125
 20
369.2020295169154
 30
0.0
 40
100.0
100
AcDbArc
 50
85.33227731211807
 51
99.42952112167251
  0
ARC
  5
E34
330
2
100
AcDbEntity
  8
0
100
AcDbCircle
 10
907.1716757392772
 20
369.2020295169154
 30
0.0
 40
100.0
100
AcDbArc
 50
80.5704788783275
 51
94.66772268788194
  0
ARC
  5
E35
330
2
100
AcDbEntity
  8
0
100
AcDbCircle
 10
705.3250852415334
 20
499.4368207668962
 30
0.0
 40
100.0
100
AcDbArc
 50
350.5704788783795
 51
4.667722687882726
  0
ARC
  5
E36
330
2
100
AcDbEntity
  8
0
100
AcDbCircle
 10
705.3250852415334
 20
571.048620014661
 30
0.0
 40
100.0
100
AcDbArc
 50
355.3322773121172
 51
9.429521121620487
  0
ARC
  5
E37
330
2
100
AcDbEntity
  8
0
100
AcDbCircle
 10
835.5598764915125
 20
701.2834112646401
 30
0.0
 40
100.0
100
AcDbArc
 50
260.5704788783274
 51
274.6677226878819
  0
ARC
  5
E38
330
2
100
AcDbEntity
  8
0
100
AcDbCircle
 10
907.1716757392772
 20
701.2834112646401
 30
0.0
 40
100.0
100
AcDbArc
 50
265.332277312118
 51
279.4295211216724
  0
LINE
  5
E39
330
2
100
AcDbEntity
  8
CENTER
100
AcDbLine
 10
788.8657761153939
 20
920.432733244837
 30
0.0
 11
1129.835798115396
 21
920.432733244837
 31
0.0
  0
LINE
  5
E3A
330
2
100
AcDbEntity
  8
0
100
AcDbLine
 10
1035.335798115393
 20
971.432733244837
 30
0.0
 11
1035.335798115393
 21
869.432733244837
 31
0.0
  0
LINE
  5
E3B
330
2
100
AcDbEntity
  8
0
100
AcDbLine
 10
1019.784797207285
 20
969.4850871414523
 30
0.0
 11
1018.500570390052
 21
920.4424436029944
 31
0.0
  0
LINE
  5
E3C
330
2
100
AcDbEntity
  8
CENTER
100
AcDbLine
 10
871.3657761153941
 20
997.4327332448515
 30
0.0
 11
871.3657761153962
 21
781.4327332448371
 31
0.0
  0
LINE
  5
E3D
330
2
100
AcDbEntity
  8
0
100
AcDbLine
 10
811.3657761153939
 20
862.432733244837
 30
0.0
 11
931.3657761153939
 21
862.432733244837
 31
0.0
  0
LINE
  5
E3E
330
2
100
AcDbEntity
  8
0
100
AcDbLine
 10
804.6468307826662
 20
867.4327332448372
 30
0.0
 11
938.0847214481244
 21
867.4327332448369
 31
0.0
  0
LINE
  5
E3F
330
2
100
AcDbEntity
  8
0
100
AcDbLine
 10
829.7971536650097
 20
848.4327332448369
 30
0.0
 11
912.9343985657801
 21
848.4327332448369
 31
0.0
  0
LINE
  5
E40
330
2
100
AcDbEntity
  8
0
100
AcDbLine
 10
811.3657761153939
 20
867.4327332448369
 30
0.0
 11
811.3657761153939
 21
862.432733244837
 31
0.0
  0
LINE
  5
E41
330
2
100
AcDbEntity
  8
0
100
AcDbLine
 10
939.5891440289389
 20
869.4395108103785
 30
0.0
 11
988.2522506773424
 21
869.432733244837
 31
0.0
  0
LINE
  5
E42
330
2
100
AcDbEntity
  8
0
100
AcDbLine
 10
931.3657761153939
 20
867.4327332448369
 30
0.0
 11
931.3657761153939
 21
862.432733244837
 31
0.0
  0
LINE
  5
E43
330
2
100
AcDbEntity
  8
0
100
AcDbLine
 10
1035.335798115393
 20
869.432733244837
 30
0.0
 11
1035.335798115393
 21
920.432733244837
 31
0.0
  0
LINE
  5
E44
330
2
100
AcDbEntity
  8
0
100
AcDbLine
 10
1010.758246728159
 20
960.432733244837
 30
0.0
 11
1014.676968623524
 21
960.432733244837
 31
0.0
  0
LINE
  5
E45
330
2
100
AcDbEntity
  8
0
100
AcDbLine
 10
1006.788339252616
 20
920.432733244837
 30
0.0
 11
1007.759274753233
 21
957.5112640897618
 31
0.0
  0
LINE
  5
E46
330
2
100
AcDbEntity
  8
0
100
AcDbLine
 10
1035.335798115393
 20
971.432733244837
 30
0.0
 11
1021.784111857236
 21
971.432733244837
 31
0.0
  0
ARC
  5
E47
330
2
100
AcDbEntity
  8
0
100
AcDbCircle
 10
946.8031672300462
 20
594.2427203907778
 30
0.0
 40
8.0
100
AcDbArc
 50
184.780191847234
 51
270.0
  0
ARC
  5
E48
330
2
100
AcDbEntity
  8
0
100
AcDbCircle
 10
946.8031672300462
 20
476.2427203907777
 30
0.0
 40
8.0
100
AcDbArc
 50
90.0
 51
175.2198081527659
  0
LINE
  5
E49
330
2
100
AcDbEntity
  8
0
100
AcDbLine
 10
864.2240053656299
 20
479.7427203884203
 30
0.0
 11
867.104006606962
 21
479.7427203884203
 31
0.0
  0
LINE
  5
E4A
330
2
100
AcDbEntity
  8
0
100
AcDbLine
 10
868.2240053656354
 20
487.742720388433
 30
0.0
 11
864.2240053656299
 21
479.7427203884203
 31
0.0
  0
ARC
  5
E4B
330
2
100
AcDbEntity
  8
0
100
AcDbCircle
 10
874.8639326056458
 20
485.0227203884283
 30
0.0
 40
2.720000000003957
100
AcDbArc
 50
307.5189678668205
 51
90.0
  0
LINE
  5
E4C
330
2
100
AcDbEntity
  8
0
100
AcDbLine
 10
876.520477985305
 20
482.8653475868127
 30
0.0
 11
878.5075468651596
 21
479.7427203884203
 31
0.0
  0
LINE
  5
E4D
330
2
100
AcDbEntity
  8
0
100
AcDbLine
 10
875.6275456238276
 20
479.7427203884203
 30
0.0
 11
878.5075468651596
 21
479.7427203884203
 31
0.0
  0
LINE
  5
E4E
330
2
100
AcDbEntity
  8
0
100
AcDbLine
 10
869.7440053656377
 20
479.7427203884203
 30
0.0
 11
872.143932605641
 21
479.7427203884203
 31
0.0
  0
LINE
  5
E4F
330
2
100
AcDbEntity
  8
0
100
AcDbLine
 10
867.7040066069624
 20
480.9427203884228
 30
0.0
 11
867.104006606962
 21
479.7427203884203
 31
0.0
  0
LINE
  5
E50
330
2
100
AcDbEntity
  8
0
100
AcDbLine
 10
867.7040066069624
 20
480.9427203884228
 30
0.0
 11
869.7440053656377
 21
480.9427203884228
 31
0.0
  0
LINE
  5
E51
330
2
100
AcDbEntity
  8
0
100
AcDbLine
 10
869.7440053656377
 20
480.9427203884228
 30
0.0
 11
869.7440053656377
 21
479.7427203884203
 31
0.0
  0
LINE
  5
E52
330
2
100
AcDbEntity
  8
0
100
AcDbLine
 10
868.9840066069649
 20
483.502720388426
 30
0.0
 11
869.7440053656377
 21
483.502720388426
 31
0.0
  0
LINE
  5
E53
330
2
100
AcDbEntity
  8
0
100
AcDbLine
 10
869.7440053656377
 20
485.0227179057715
 30
0.0
 11
869.7440053656377
 21
483.502720388426
 31
0.0
  0
LINE
  5
E54
330
2
100
AcDbEntity
  8
0
100
AcDbLine
 10
869.7440053656377
 20
485.0227179057715
 30
0.0
 11
868.9840066069649
 21
483.502720388426
 31
0.0
  0
LINE
  5
E55
330
2
100
AcDbEntity
  8
0
100
AcDbLine
 10
872.4840053656411
 20
484.6827203884281
 30
0.0
 11
875.6275456238276
 21
479.7427203884203
 31
0.0
  0
LINE
  5
E56
330
2
100
AcDbEntity
  8
0
100
AcDbLine
 10
872.143932605641
 20
485.0227203884283
 30
0.0
 11
872.143932605641
 21
479.7427203884203
 31
0.0
  0
LINE
  5
E57
330
2
100
AcDbEntity
  8
0
100
AcDbLine
 10
872.143932605641
 20
485.0227203884283
 30
0.0
 11
874.6940053656439
 21
485.0227203884283
 31
0.0
  0
LINE
  5
E58
330
2
100
AcDbEntity
  8
0
100
AcDbLine
 10
872.4840053656411
 20
484.6827203884281
 30
0.0
 11
874.6940053656457
 21
484.6827203884281
 31
0.0
  0
ARC
  5
E59
330
2
100
AcDbEntity
  8
0
100
AcDbCircle
 10
874.6940053656457
 20
484.8527203884282
 30
0.0
 40
0.1700000000002474
100
AcDbArc
 50
270.0
 51
90.0
  0
LINE
  5
E5A
330
2
100
AcDbEntity
  8
0
100
AcDbLine
 10
868.2240053656354
 20
487.742720388433
 30
0.0
 11
874.8639326056458
 21
487.742720388433
 31
0.0
  0
LINE
  5
E5B
330
2
100
AcDbEntity
  8
0
100
AcDbLine
 10
1007.835798115393
 20
572.2427203907777
 30
0.0
 11
1007.835798115393
 21
498.2427203907778
 31
0.0
  0
LINE
  5
E5C
330
2
100
AcDbEntity
  8
0
100
AcDbLine
 10
995.3657761153921
 20
563.2427203907777
 30
0.0
 11
1002.835798115393
 21
563.2427203907777
 31
0.0
  0
LINE
  5
E5D
330
2
100
AcDbEntity
  8
0
100
AcDbLine
 10
993.3657761153922
 20
568.2427203907777
 30
0.0
 11
1004.835798115393
 21
568.2427203907777
 31
0.0
  0
ARC
  5
E5E
330
2
100
AcDbEntity
  8
0
100
AcDbCircle
 10
993.3657761153922
 20
571.2427203907777
 30
0.0
 40
3.0
100
AcDbArc
 50
180.0
 51
270.0
  0
ARC
  5
E5F
330
2
100
AcDbEntity
  8
0
100
AcDbCircle
 10
995.3657761153921
 20
568.2427203907777
 30
0.0
 40
5.0
100
AcDbArc
 50
180.0
 51
270.0
  0
ARC
  5
E60
330
2
100
AcDbEntity
  8
0
100
AcDbCircle
 10
1002.835798115393
 20
568.2427203907777
 30
0.0
 40
5.0
100
AcDbArc
 50
270.0
 51
0.0
  0
ARC
  5
E61
330
2
100
AcDbEntity
  8
0
100
AcDbCircle
 10
1004.835798115393
 20
571.2427203907777
 30
0.0
 40
3.0
100
AcDbArc
 50
270.0
 51
0.0
  0
LINE
  5
E62
330
2
100
AcDbEntity
  8
0
100
AcDbLine
 10
995.3657761153921
 20
507.2427203907778
 30
0.0
 11
1002.835798115393
 21
507.2427203907778
 31
0.0
  0
LINE
  5
E63
330
2
100
AcDbEntity
  8
0
100
AcDbLine
 10
993.3657761153922
 20
502.2427203907778
 30
0.0
 11
1004.835798115393
 21
502.2427203907778
 31
0.0
  0
ARC
  5
E64
330
2
100
AcDbEntity
  8
0
100
AcDbCircle
 10
995.3657761153921
 20
502.2427203907778
 30
0.0
 40
5.0
100
AcDbArc
 50
90.0
 51
180.0
  0
ARC
  5
E65
330
2
100
AcDbEntity
  8
0
100
AcDbCircle
 10
993.3657761153922
 20
499.2427203907777
 30
0.0
 40
3.0
100
AcDbArc
 50
90.0
 51
180.0
  0
ARC
  5
E66
330
2
100
AcDbEntity
  8
0
100
AcDbCircle
 10
1004.835798115393
 20
499.2427203907777
 30
0.0
 40
3.0
100
AcDbArc
 50
0.0
 51
90.0
  0
ARC
  5
E67
330
2
100
AcDbEntity
  8
0
100
AcDbCircle
 10
1002.835798115393
 20
502.2427203907778
 30
0.0
 40
5.0
100
AcDbArc
 50
0.0
 51
90.0
  0
LINE
  5
E68
330
2
100
AcDbEntity
  8
0
100
AcDbLine
 10
1010.835798115393
 20
495.2427203907777
 30
0.0
 11
1014.835798115393
 21
495.2427203907777
 31
0.0
  0
LINE
  5
E69
330
2
100
AcDbEntity
  8
0
100
AcDbLine
 10
993.3657761153957
 20
537.7427203907777
 30
0.0
 11
1004.835798115393
 21
537.7427203907777
 31
0.0
  0
LINE
  5
E6A
330
2
100
AcDbEntity
  8
0
100
AcDbLine
 10
993.3657761153957
 20
532.7427203907777
 30
0.0
 11
1004.835798115393
 21
532.7427203907777
 31
0.0
  0
ARC
  5
E6B
330
2
100
AcDbEntity
  8
0
100
AcDbCircle
 10
993.3657761153957
 20
540.7427203907777
 30
0.0
 40
3.0
100
AcDbArc
 50
180.0
 51
270.0
  0
ARC
  5
E6C
330
2
100
AcDbEntity
  8
0
100
AcDbCircle
 10
1004.835798115393
 20
540.7427203907777
 30
0.0
 40
3.0
100
AcDbArc
 50
270.0
 51
0.0
  0
ARC
  5
E6D
330
2
100
AcDbEntity
  8
0
100
AcDbCircle
 10
1004.835798115393
 20
529.7427203907777
 30
0.0
 40
3.0
100
AcDbArc
 50
0.0
 51
90.0
  0
ARC
  5
E6E
330
2
100
AcDbEntity
  8
0
100
AcDbCircle
 10
993.3657761153957
 20
529.7427203907777
 30
0.0
 40
3.0
100
AcDbArc
 50
90.0
 51
180.0
  0
LINE
  5
E6F
330
2
100
AcDbEntity
  8
0
100
AcDbLine
 10
995.3921471106973
 20
948.4327332448369
 30
0.0
 11
1002.650760701954
 21
948.4327332448369
 31
0.0
  0
LINE
  5
E70
330
2
100
AcDbEntity
  8
0
100
AcDbLine
 10
993.3657761153922
 20
953.432733244837
 30
0.0
 11
1004.730004051646
 21
953.432733244837
 31
0.0
  0
LINE
  5
E71
330
2
100
AcDbEntity
  8
0
100
AcDbLine
 10
993.6320598181758
 20
917.9327332448369
 30
0.0
 11
1003.931333443776
 21
917.9327332448369
 31
0.0
  0
LINE
  5
E72
330
2
100
AcDbEntity
  8
0
100
AcDbLine
 10
993.632059818165
 20
922.932733244837
 30
0.0
 11
1003.931333443776
 21
922.932733244837
 31
0.0
  0
LINE
  5
E73
330
2
100
AcDbEntity
  8
0
100
AcDbLine
 10
1010.758246728159
 20
880.4327332448369
 30
0.0
 11
1014.676968623524
 21
880.4327332448369
 31
0.0
  0
LINE
  5
E74
330
2
100
AcDbEntity
  8
0
100
AcDbLine
 10
1006.788339252616
 20
920.432733244837
 30
0.0
 11
1007.759274753233
 21
883.354202399914
 31
0.0
  0
ARC
  5
E75
330
2
100
AcDbEntity
  8
0
100
AcDbCircle
 10
1002.650760701954
 20
953.432733244837
 30
0.0
 40
5.0
100
AcDbArc
 50
270.0
 51
358.5000000000103
  0
ARC
  5
E76
330
2
100
AcDbEntity
  8
0
100
AcDbCircle
 10
1004.730004051646
 20
956.4327332448369
 30
0.0
 40
3.0
100
AcDbArc
 50
270.0
 51
358.5000000000103
  0
ARC
  5
E77
330
2
100
AcDbEntity
  8
0
100
AcDbCircle
 10
1004.730004051646
 20
884.432733244837
 30
0.0
 40
3.0
100
AcDbArc
 50
1.499999999989688
 51
90.0
  0
LINE
  5
E78
330
2
100
AcDbEntity
  8
0
100
AcDbLine
 10
993.3657761153922
 20
887.432733244837
 30
0.0
 11
1004.730004051646
 21
887.432733244837
 31
0.0
  0
LINE
  5
E79
330
2
100
AcDbEntity
  8
0
100
AcDbLine
 10
995.392147110699
 20
892.4327332448369
 30
0.0
 11
1002.650760701954
 21
892.4327332448369
 31
0.0
  0
ARC
  5
E7A
330
2
100
AcDbEntity
  8
0
100
AcDbCircle
 10
1002.650760701954
 20
887.432733244837
 30
0.0
 40
5.0
100
AcDbArc
 50
1.499999999989688
 51
90.0
  0
ARC
  5
E7B
330
2
100
AcDbEntity
  8
0
100
AcDbCircle
 10
1003.931333443776
 20
925.932733244837
 30
0.0
 40
3.0
100
AcDbArc
 50
270.0
 51
358.5000000000103
  0
ARC
  5
E7C
330
2
100
AcDbEntity
  8
0
100
AcDbCircle
 10
1003.931333443776
 20
914.932733244837
 30
0.0
 40
3.0
100
AcDbArc
 50
1.499999999989688
 51
90.0
  0
LINE
  5
E7D
330
2
100
AcDbEntity
  8
0
100
AcDbLine
 10
827.7983720109698
 20
850.3629342514319
 30
0.0
 11
827.4442894469341
 21
860.502532238242
 31
0.0
  0
ARC
  5
E7E
330
2
100
AcDbEntity
  8
0
100
AcDbCircle
 10
825.4455077928962
 20
860.432733244837
 30
0.0
 40
2.0
100
AcDbArc
 50
2.000000000003648
 51
90.0
  0
ARC
  5
E7F
330
2
100
AcDbEntity
  8
0
100
AcDbCircle
 10
829.7971536650097
 20
850.4327332448369
 30
0.0
 40
2.0
100
AcDbArc
 50
182.0000000000036
 51
270.0
  0
ARC
  5
E80
330
2
100
AcDbEntity
  8
0
100
AcDbCircle
 10
917.2860444378933
 20
860.432733244837
 30
0.0
 40
2.0
100
AcDbArc
 50
90.0
 51
177.9999999999963
  0
LINE
  5
E81
330
2
100
AcDbEntity
  8
0
100
AcDbLine
 10
914.9331802198197
 20
850.3629342514319
 30
0.0
 11
915.2872627838554
 21
860.502532238242
 31
0.0
  0
ARC
  5
E82
330
2
100
AcDbEntity
  8
0
100
AcDbCircle
 10
912.9343985657801
 20
850.4327332448369
 30
0.0
 40
2.0
100
AcDbArc
 50
270.0
 51
357.9999999999963
  0
ARC
  5
E83
330
2
100
AcDbEntity
  8
0
100
AcDbCircle
 10
1014.676968623524
 20
965.4327332448369
 30
0.0
 40
5.0
100
AcDbArc
 50
270.0
 51
358.5000000000103
  0
ARC
  5
E84
330
2
100
AcDbEntity
  8
0
100
AcDbCircle
 10
1021.784111857236
 20
969.432733244837
 30
0.0
 40
2.0
100
AcDbArc
 50
90.0
 51
178.5000000000103
  0
ARC
  5
E85
330
2
100
AcDbEntity
  8
0
100
AcDbCircle
 10
1014.676968623524
 20
875.4327332448369
 30
0.0
 40
5.0
100
AcDbArc
 50
1.499999999989688
 51
90.0
  0
ARC
  5
E86
330
2
100
AcDbEntity
  8
0
100
AcDbCircle
 10
1021.784111857236
 20
871.432733244837
 30
0.0
 40
2.0
100
AcDbArc
 50
181.4999999999896
 51
270.0
  0
LINE
  5
E87
330
2
100
AcDbEntity
  8
0
100
AcDbLine
 10
1035.335798115393
 20
869.432733244837
 30
0.0
 11
1021.784111857236
 21
869.432733244837
 31
0.0
  0
LINE
  5
E88
330
2
100
AcDbEntity
  8
0
100
AcDbLine
 10
1019.784797207285
 20
871.3803793482215
 30
0.0
 11
1018.500570390052
 21
920.4230228866794
 31
0.0
  0
ARC
  5
E89
330
2
100
AcDbEntity
  8
0
100
AcDbCircle
 10
1010.758246728159
 20
957.4327332448369
 30
0.0
 40
3.0
100
AcDbArc
 50
90.0
 51
178.5000000000103
  0
ARC
  5
E8A
330
2
100
AcDbEntity
  8
0
100
AcDbCircle
 10
1010.758246728159
 20
883.4327332448369
 30
0.0
 40
3.0
100
AcDbArc
 50
181.4999999999896
 51
270.0
  0
ARC
  5
E8B
330
2
100
AcDbEntity
  8
0
100
AcDbCircle
 10
1010.835798115393
 20
498.2427203907778
 30
0.0
 40
3.0
100
AcDbArc
 50
180.0
 51
270.0
  0
ARC
  5
E8C
330
2
100
AcDbEntity
  8
0
100
AcDbCircle
 10
1010.835798115393
 20
572.2427203907777
 30
0.0
 40
3.0
100
AcDbArc
 50
90.0
 51
180.0
  0
ARC
  5
E8D
330
2
100
AcDbEntity
  8
0
100
AcDbCircle
 10
939.5891440289389
 20
867.9395108103786
 30
0.0
 40
1.5
100
AcDbArc
 50
90.0
 51
180.0
  0
LINE
  5
E8E
330
2
100
AcDbEntity
  8
0
100
AcDbLine
 10
928.8657761153956
 20
956.4327332448515
 30
0.0
 11
928.865776115394
 21
868.9327332448424
 31
0.0
  0
LINE
  5
E8F
330
2
100
AcDbEntity
  8
0
100
AcDbLine
 10
924.8657761153941
 20
956.4327332448515
 30
0.0
 11
924.8657761153939
 21
868.9327332448424
 31
0.0
  0
LINE
  5
E90
330
2
100
AcDbEntity
  8
0
100
AcDbLine
 10
813.8657761153975
 20
956.4327332448515
 30
0.0
 11
813.8657761154012
 21
868.9327332448387
 31
0.0
  0
LINE
  5
E91
330
2
100
AcDbEntity
  8
0
100
AcDbLine
 10
817.8657761153976
 20
956.4327332448515
 30
0.0
 11
817.8657761154012
 21
868.9327332448387
 31
0.0
  0
LINE
  5
E92
330
2
100
AcDbEntity
  8
0
100
AcDbLine
 10
843.6975809514702
 20
956.4327332448517
 30
0.0
 11
843.6975809514718
 21
868.9327332448387
 31
0.0
  0
LINE
  5
E93
330
2
100
AcDbEntity
  8
0
100
AcDbLine
 10
899.0339712793177
 20
956.4327332448515
 30
0.0
 11
899.0339712793177
 21
868.9327332448424
 31
0.0
  0
LINE
  5
E94
330
2
100
AcDbEntity
  8
0
100
AcDbLine
 10
982.3788690761798
 20
956.4327332448442
 30
0.0
 11
983.2960617985721
 21
921.4065562965311
 31
0.0
  0
LINE
  5
E95
330
2
100
AcDbEntity
  8
0
100
AcDbLine
 10
990.3657761153993
 20
920.432733244837
 30
0.0
 11
984.2957191235477
 21
920.432733244837
 31
0.0
  0
ARC
  5
E96
330
2
100
AcDbEntity
  8
0
100
AcDbCircle
 10
984.2957191235477
 20
921.432733244837
 30
0.0
 40
1.0
100
AcDbArc
 50
181.4999999998854
 51
270.0
  0
LINE
  5
E97
330
2
100
AcDbEntity
  8
0
100
AcDbLine
 10
1018.500570390052
 20
920.4230228866794
 30
0.0
 11
1035.335798115393
 21
920.432733244837
 31
0.0
  0
LINE
  5
E98
330
2
100
AcDbEntity
  8
0
100
AcDbLine
 10
1035.335798115393
 20
586.7427203907777
 30
0.0
 11
1021.835798115393
 21
586.7427203907777
 31
0.0
  0
ARC
  5
E99
330
2
100
AcDbEntity
  8
0
100
AcDbCircle
 10
1021.835798115393
 20
584.7427203907777
 30
0.0
 40
2.0
100
AcDbArc
 50
90.0
 51
180.0
  0
LINE
  5
E9A
330
2
100
AcDbEntity
  8
0
100
AcDbLine
 10
1035.335798115393
 20
483.7427203907777
 30
0.0
 11
1021.835798115393
 21
483.7427203907777
 31
0.0
  0
ARC
  5
E9B
330
2
100
AcDbEntity
  8
0
100
AcDbCircle
 10
1021.835798115393
 20
485.7427203907778
 30
0.0
 40
2.0
100
AcDbArc
 50
180.0
 51
270.0
  0
LINE
  5
E9C
330
2
100
AcDbEntity
  8
CENTER
100
AcDbLine
 10
292.9674354327998
 20
617.7427203907796
 30
0.0
 11
292.9674354327998
 21
452.7427203907778
 31
0.0
  0
LINE
  5
E9D
330
2
100
AcDbEntity
  8
0
100
AcDbLine
 10
128.9974134328002
 20
586.7427203907777
 30
0.0
 11
128.997413432802
 21
483.7427203907777
 31
0.0
  0
LINE
  5
E9E
330
2
100
AcDbEntity
  8
0
100
AcDbLine
 10
144.497413432802
 20
485.7427203907778
 30
0.0
 11
144.497413432802
 21
584.7427203907777
 31
0.0
  0
ARC
  5
E9F
330
2
100
AcDbEntity
  8
0
100
AcDbCircle
 10
149.497413432802
 20
580.2427203907777
 30
0.0
 40
5.0
100
AcDbArc
 50
180.0
 51
270.0
  0
LINE
  5
EA0
330
2
100
AcDbEntity
  8
0
100
AcDbLine
 10
153.4974134328011
 20
575.2427203907777
 30
0.0
 11
149.497413432802
 21
575.2427203907777
 31
0.0
  0
ARC
  5
EA1
330
2
100
AcDbEntity
  8
0
100
AcDbCircle
 10
142.497413432802
 20
584.2427203907777
 30
0.0
 40
2.0
100
AcDbArc
 50
0.0
 51
90.0
  0
LINE
  5
EA2
330
2
100
AcDbEntity
  8
0
100
AcDbLine
 10
128.9974134328011
 20
586.2427203907778
 30
0.0
 11
142.497413432802
 21
586.2427203907778
 31
0.0
  0
ARC
  5
EA3
330
2
100
AcDbEntity
  8
0
100
AcDbCircle
 10
149.497413432802
 20
490.2427203907778
 30
0.0
 40
5.0
100
AcDbArc
 50
90.0
 51
180.0
  0
LINE
  5
EA4
330
2
100
AcDbEntity
  8
0
100
AcDbLine
 10
153.4974134328011
 20
495.2427203907777
 30
0.0
 11
149.497413432802
 21
495.2427203907777
 31
0.0
  0
LINE
  5
EA5
330
2
100
AcDbEntity
  8
0
100
AcDbLine
 10
128.9974134328011
 20
484.2427203907777
 30
0.0
 11
142.4974134328011
 21
484.2427203907777
 31
0.0
  0
ARC
  5
EA6
330
2
100
AcDbEntity
  8
0
100
AcDbCircle
 10
142.4974134328011
 20
486.2427203907778
 30
0.0
 40
2.0
100
AcDbArc
 50
270.0
 51
0.0
  0
LINE
  5
EA7
330
2
100
AcDbEntity
  8
0
100
AcDbLine
 10
168.9674354328025
 20
507.2427203907778
 30
0.0
 11
161.4974134328011
 21
507.2427203907778
 31
0.0
  0
LINE
  5
EA8
330
2
100
AcDbEntity
  8
0
100
AcDbLine
 10
170.9674354328025
 20
502.2427203907778
 30
0.0
 11
159.4974134328011
 21
502.2427203907778
 31
0.0
  0
ARC
  5
EA9
330
2
100
AcDbEntity
  8
0
100
AcDbCircle
 10
168.9674354328025
 20
502.2427203907778
 30
0.0
 40
5.0
100
AcDbArc
 50
0.0
 51
90.0
  0
ARC
  5
EAA
330
2
100
AcDbEntity
  8
0
100
AcDbCircle
 10
170.9674354328025
 20
499.2427203907777
 30
0.0
 40
3.0
100
AcDbArc
 50
0.0
 51
90.0
  0
ARC
  5
EAB
330
2
100
AcDbEntity
  8
0
100
AcDbCircle
 10
159.4974134328011
 20
499.2427203907777
 30
0.0
 40
3.0
100
AcDbArc
 50
90.0
 51
180.0
  0
ARC
  5
EAC
330
2
100
AcDbEntity
  8
0
100
AcDbCircle
 10
161.4974134328011
 20
502.2427203907778
 30
0.0
 40
5.0
100
AcDbArc
 50
90.0
 51
180.0
  0
ARC
  5
EAD
330
2
100
AcDbEntity
  8
0
100
AcDbCircle
 10
159.4974134328011
 20
529.7427203907777
 30
0.0
 40
3.0
100
AcDbArc
 50
90.0
 51
180.0
  0
ARC
  5
EAE
330
2
100
AcDbEntity
  8
0
100
AcDbCircle
 10
170.9674354327997
 20
529.7427203907777
 30
0.0
 40
3.0
100
AcDbArc
 50
0.0
 51
90.0
  0
LINE
  5
EAF
330
2
100
AcDbEntity
  8
0
100
AcDbLine
 10
170.9674354327997
 20
537.7427203907777
 30
0.0
 11
159.4974134328011
 21
537.7427203907777
 31
0.0
  0
ARC
  5
EB0
330
2
100
AcDbEntity
  8
0
100
AcDbCircle
 10
170.9674354327997
 20
540.7427203907777
 30
0.0
 40
3.0
100
AcDbArc
 50
270.0
 51
0.0
  0
ARC
  5
EB1
330
2
100
AcDbEntity
  8
0
100
AcDbCircle
 10
159.4974134328011
 20
540.7427203907777
 30
0.0
 40
3.0
100
AcDbArc
 50
180.0
 51
270.0
  0
LINE
  5
EB2
330
2
100
AcDbEntity
  8
0
100
AcDbLine
 10
170.9674354327997
 20
532.7427203907777
 30
0.0
 11
159.4974134328011
 21
532.7427203907777
 31
0.0
  0
LINE
  5
EB3
330
2
100
AcDbEntity
  8
0
100
AcDbLine
 10
170.9674354328025
 20
568.2427203907777
 30
0.0
 11
159.4974134328011
 21
568.2427203907777
 31
0.0
  0
LINE
  5
EB4
330
2
100
AcDbEntity
  8
0
100
AcDbLine
 10
168.9674354328025
 20
563.2427203907777
 30
0.0
 11
161.4974134328011
 21
563.2427203907777
 31
0.0
  0
ARC
  5
EB5
330
2
100
AcDbEntity
  8
0
100
AcDbCircle
 10
170.9674354328025
 20
571.2427203907777
 30
0.0
 40
3.0
100
AcDbArc
 50
270.0
 51
0.0
  0
ARC
  5
EB6
330
2
100
AcDbEntity
  8
0
100
AcDbCircle
 10
168.9674354328025
 20
568.2427203907777
 30
0.0
 40
5.0
100
AcDbArc
 50
270.0
 51
0.0
  0
ARC
  5
EB7
330
2
100
AcDbEntity
  8
0
100
AcDbCircle
 10
161.4974134328011
 20
568.2427203907777
 30
0.0
 40
5.0
100
AcDbArc
 50
180.0
 51
270.0
  0
ARC
  5
EB8
330
2
100
AcDbEntity
  8
0
100
AcDbCircle
 10
159.4974134328011
 20
571.2427203907777
 30
0.0
 40
3.0
100
AcDbArc
 50
180.0
 51
270.0
  0
LINE
  5
EB9
330
2
100
AcDbEntity
  8
0
100
AcDbLine
 10
156.4974134328011
 20
498.2427203907778
 30
0.0
 11
156.4974134328011
 21
572.2427203907777
 31
0.0
  0
ARC
  5
EBA
330
2
100
AcDbEntity
  8
0
100
AcDbCircle
 10
153.4974134328011
 20
498.2427203907778
 30
0.0
 40
3.0
100
AcDbArc
 50
270.0
 51
0.0
  0
ARC
  5
EBB
330
2
100
AcDbEntity
  8
0
100
AcDbCircle
 10
153.4974134328011
 20
572.2427203907777
 30
0.0
 40
3.0
100
AcDbArc
 50
0.0
 51
90.0
  0
LINE
  5
EBC
330
2
100
AcDbEntity
  8
0
100
AcDbLine
 10
128.9974134328011
 20
483.7427203907777
 30
0.0
 11
142.4974134328011
 21
483.7427203907777
 31
0.0
  0
ARC
  5
EBD
330
2
100
AcDbEntity
  8
0
100
AcDbCircle
 10
142.4974134328011
 20
485.7427203907778
 30
0.0
 40
2.0
100
AcDbArc
 50
270.0
 51
0.0
  0
LINE
  5
EBE
330
2
100
AcDbEntity
  8
0
100
AcDbLine
 10
128.9974134328011
 20
586.7427203907777
 30
0.0
 11
142.497413432802
 21
586.7427203907777
 31
0.0
  0
ARC
  5
EBF
330
2
100
AcDbEntity
  8
0
100
AcDbCircle
 10
142.497413432802
 20
584.7427203907777
 30
0.0
 40
2.0
100
AcDbArc
 50
0.0
 51
90.0
  0
LINE
  5
EC0
330
2
100
AcDbEntity
  8
CENTER
100
AcDbLine
 10
375.4674354327998
 20
535.2427203907778
 30
0.0
 11
34.49741343279754
 21
535.2427203907775
 31
0.0
  0
LINE
  5
ED6
330
2
100
AcDbEntity
  8
0
100
AcDbLine
 10
990.252174523472
 20
871.4152801738396
 30
0.0
 11
990.6799433558685
 21
920.432733244837
 31
0.0
  0
ARC
  5
ED7
330
2
100
AcDbEntity
  8
0
100
AcDbCircle
 10
993.6320598181758
 20
914.932733244837
 30
0.0
 40
3.0
100
AcDbArc
 50
90.0
 51
179.5000000000344
  0
ARC
  5
ED8
330
2
100
AcDbEntity
  8
0
100
AcDbCircle
 10
993.3658903505532
 20
884.432733244837
 30
0.0
 40
3.0
100
AcDbArc
 50
90.0
 51
179.5000000000344
  0
ARC
  5
ED9
330
2
100
AcDbEntity
  8
0
100
AcDbCircle
 10
995.392147110699
 20
887.432733244837
 30
0.0
 40
5.0
100
AcDbArc
 50
90.0
 51
179.5000000000344
  0
ARC
  5
EDA
330
2
100
AcDbEntity
  8
0
100
AcDbCircle
 10
988.2522506773424
 20
871.432733244837
 30
0.0
 40
2.0
100
AcDbArc
 50
270.0
 51
359.5000000000345
  0
LINE
  5
EDB
330
2
100
AcDbEntity
  8
0
100
AcDbLine
 10
990.3657761153958
 20
956.4327332448442
 30
0.0
 11
990.6799433558575
 21
920.432733244837
 31
0.0
  0
ARC
  5
EDC
330
2
100
AcDbEntity
  8
0
100
AcDbCircle
 10
993.3658903505532
 20
956.4327332448369
 30
0.0
 40
3.0
100
AcDbArc
 50
180.4999999999655
 51
270.0
  0
ARC
  5
EDD
330
2
100
AcDbEntity
  8
0
100
AcDbCircle
 10
995.3921471106973
 20
953.432733244837
 30
0.0
 40
5.0
100
AcDbArc
 50
180.4999999999655
 51
270.0
  0
ARC
  5
EDE
330
2
100
AcDbEntity
  8
0
100
AcDbCircle
 10
993.632059818165
 20
925.932733244837
 30
0.0
 40
3.0
100
AcDbArc
 50
180.4999999999655
 51
270.0
  0
LINE
  5
EDF
330
2
100
AcDbEntity
  8
0
100
AcDbLine
 10
938.865776115503
 20
956.932733244835
 30
0.0
 11
938.0847214481244
 21
867.4327332448369
 31
0.0
  0
LINE
  5
EE0
330
2
100
AcDbEntity
  8
0
100
AcDbLine
 10
217.5300443181475
 20
586.2427203907778
 30
0.0
 11
181.9674354327997
 21
586.2427203907778
 31
0.0
  0
CIRCLE
  5
EE1
330
2
100
AcDbEntity
  8
0
100
AcDbCircle
 10
196.4674354327997
 20
580.7427203907777
 30
0.0
 40
2.0
  0
CIRCLE
  5
EE2
330
2
100
AcDbEntity
  8
HOJO
100
AcDbCircle
 10
196.4674354327997
 20
580.7427203907777
 30
0.0
 40
2.5
  0
CIRCLE
  5
EE3
330
2
100
AcDbEntity
  8
0
100
AcDbCircle
 10
196.4674354327997
 20
580.7427203907777
 30
0.0
 40
3.5
  0
CIRCLE
  5
EE4
330
2
100
AcDbEntity
  8
0
100
AcDbCircle
 10
196.4674354327997
 20
580.7427203907777
 30
0.0
 40
4.0
  0
LINE
  5
EE5
330
2
100
AcDbEntity
  8
CENTER
100
AcDbLine
 10
204.4674354327997
 20
580.7427203907796
 30
0.0
 11
188.4674354327998
 21
580.7427203907777
 31
0.0
  0
LINE
  5
EE6
330
2
100
AcDbEntity
  8
0
100
AcDbLine
 10
217.5300443181475
 20
484.2427203907777
 30
0.0
 11
181.9674354327997
 21
484.2427203907777
 31
0.0
  0
CIRCLE
  5
EE7
330
2
100
AcDbEntity
  8
0
100
AcDbCircle
 10
196.4674354328007
 20
489.7427203907778
 30
0.0
 40
4.0
  0
CIRCLE
  5
EE8
330
2
100
AcDbEntity
  8
HOJO
100
AcDbCircle
 10
196.4674354328007
 20
489.7427203907778
 30
0.0
 40
2.5
  0
CIRCLE
  5
EE9
330
2
100
AcDbEntity
  8
0
100
AcDbCircle
 10
196.4674354328007
 20
489.7427203907778
 30
0.0
 40
3.5
  0
CIRCLE
  5
EEA
330
2
100
AcDbEntity
  8
0
100
AcDbCircle
 10
196.4674354328007
 20
489.7427203907778
 30
0.0
 40
2.0
  0
LINE
  5
EEB
330
2
100
AcDbEntity
  8
0
100
AcDbLine
 10
173.9674354327997
 20
492.2427203907777
 30
0.0
 11
173.9674354327997
 21
578.2427203907777
 31
0.0
  0
LINE
  5
EEC
330
2
100
AcDbEntity
  8
CENTER
100
AcDbLine
 10
181.9674354327997
 20
588.9927203907777
 30
0.0
 11
181.9674354328016
 21
567.4927203907778
 31
0.0
  0
LINE
  5
EED
330
2
100
AcDbEntity
  8
0
100
AcDbLine
 10
181.9674354328016
 20
569.7427203907778
 30
0.0
 11
175.9674354328007
 21
569.7427203907814
 31
0.0
  0
LINE
  5
EEE
330
2
100
AcDbEntity
  8
CENTER
100
AcDbLine
 10
192.7174354327997
 20
578.2427203907795
 30
0.0
 11
171.2174354327997
 21
578.2427203907777
 31
0.0
  0
ARC
  5
EEF
330
2
100
AcDbEntity
  8
0
100
AcDbCircle
 10
181.9674354327997
 20
578.2427203907777
 30
0.0
 40
8.0
100
AcDbArc
 50
90.0
 51
180.0
  0
LINE
  5
EF0
330
2
100
AcDbEntity
  8
0
100
AcDbLine
 10
190.467435432807
 20
578.2427203907722
 30
0.0
 11
190.4674354328097
 21
584.2427203907796
 31
0.0
  0
LINE
  5
EF1
330
2
100
AcDbEntity
  8
CENTER
100
AcDbLine
 10
196.4674354327997
 20
588.7427203907777
 30
0.0
 11
196.4674354328007
 21
572.7427203907778
 31
0.0
  0
ARC
  5
EF2
330
2
100
AcDbEntity
  8
0
100
AcDbCircle
 10
181.967435432807
 20
578.2427203907777
 30
0.0
 40
8.5
100
AcDbArc
 50
269.9999999999739
 51
359.9999999998958
  0
ARC
  5
EF3
330
2
100
AcDbEntity
  8
0
100
AcDbCircle
 10
181.967435432807
 20
492.2427203907777
 30
0.0
 40
8.5
100
AcDbArc
 50
0.0
 51
90.00000000002605
  0
LINE
  5
EF4
330
2
100
AcDbEntity
  8
0
100
AcDbLine
 10
181.9674354328016
 20
500.7427203907777
 30
0.0
 11
175.9674354328007
 21
500.7427203907741
 31
0.0
  0
ARC
  5
EF5
330
2
100
AcDbEntity
  8
0
100
AcDbCircle
 10
181.9674354327997
 20
492.2427203907777
 30
0.0
 40
8.0
100
AcDbArc
 50
180.0
 51
270.0
  0
LINE
  5
EF6
330
2
100
AcDbEntity
  8
0
100
AcDbLine
 10
190.467435432807
 20
492.2427203907832
 30
0.0
 11
190.4674354328097
 21
486.2427203907778
 31
0.0
  0
ARC
  5
EF7
330
2
100
AcDbEntity
  8
0
100
AcDbCircle
 10
192.4674354328097
 20
486.2427203907778
 30
0.0
 40
2.0
100
AcDbArc
 50
180.0
 51
270.0
  0
ARC
  5
EF8
330
2
100
AcDbEntity
  8
0
100
AcDbCircle
 10
175.9674354327998
 20
502.7427203907741
 30
0.0
 40
2.0
100
AcDbArc
 50
180.0
 51
270.000000000026
  0
ARC
  5
EF9
330
2
100
AcDbEntity
  8
0
100
AcDbCircle
 10
175.9674354327998
 20
567.7427203907813
 30
0.0
 40
2.0
100
AcDbArc
 50
89.99999999997395
 51
180.0
  0
ARC
  5
EFA
330
2
100
AcDbEntity
  8
0
100
AcDbCircle
 10
192.4674354328097
 20
584.2427203907777
 30
0.0
 40
2.0
100
AcDbArc
 50
90.0
 51
179.9999999998957
  0
ARC
  5
EFB
330
2
100
AcDbEntity
  8
0
100
AcDbCircle
 10
217.5300443181475
 20
476.2427203907777
 30
0.0
 40
8.0
100
AcDbArc
 50
4.780191847233925
 51
90.0
  0
ARC
  5
EFC
330
2
100
AcDbEntity
  8
0
100
AcDbCircle
 10
217.5300443181475
 20
594.2427203907778
 30
0.0
 40
8.0
100
AcDbArc
 50
270.0
 51
355.219808152766
  0
LINE
  5
EFD
330
2
100
AcDbEntity
  8
CENTER
100
AcDbLine
 10
204.4674354327997
 20
489.7427203907778
 30
0.0
 11
188.4674354327998
 21
489.7427203907778
 31
0.0
  0
LINE
  5
EFE
330
2
100
AcDbEntity
  8
CENTER
100
AcDbLine
 10
181.9674354327997
 20
481.4927203907777
 30
0.0
 11
181.9674354328016
 21
502.9927203907777
 31
0.0
  0
LINE
  5
EFF
330
2
100
AcDbEntity
  8
CENTER
100
AcDbLine
 10
192.7174354327997
 20
492.2427203907777
 30
0.0
 11
171.2174354327997
 21
492.2427203907796
 31
0.0
  0
LINE
  5
F00
330
2
100
AcDbEntity
  8
CENTER
100
AcDbLine
 10
196.4674354327997
 20
481.7427203907778
 30
0.0
 11
196.4674354328007
 21
497.7427203907778
 31
0.0
  0
CIRCLE
  5
F01
330
2
100
AcDbEntity
  8
0
100
AcDbCircle
 10
181.967435432807
 20
578.2427203907777
 30
0.0
 40
5.63397459621558
  0
CIRCLE
  5
F02
330
2
100
AcDbEntity
  8
0
100
AcDbCircle
 10
181.967435432807
 20
578.2427203907777
 30
0.0
 40
6.5
  0
LINE
  5
F03
330
2
100
AcDbEntity
  8
0
100
AcDbLine
 10
184.967435432807
 20
576.5106695832096
 30
0.0
 11
184.967435432807
 21
579.9747711983477
 31
0.0
  0
LINE
  5
F04
330
2
100
AcDbEntity
  8
0
100
AcDbLine
 10
178.967435432807
 20
579.9747711983477
 30
0.0
 11
178.967435432807
 21
576.5106695832096
 31
0.0
  0
LINE
  5
F05
330
2
100
AcDbEntity
  8
0
100
AcDbLine
 10
181.967435432807
 20
574.7786187756414
 30
0.0
 11
184.967435432807
 21
576.5106695832096
 31
0.0
  0
LINE
  5
F06
330
2
100
AcDbEntity
  8
0
100
AcDbLine
 10
178.967435432807
 20
576.5106695832096
 30
0.0
 11
181.967435432807
 21
574.7786187756414
 31
0.0
  0
LINE
  5
F07
330
2
100
AcDbEntity
  8
0
100
AcDbLine
 10
178.967435432807
 20
579.9747711983477
 30
0.0
 11
181.967435432807
 21
581.7068220059159
 31
0.0
  0
LINE
  5
F08
330
2
100
AcDbEntity
  8
0
100
AcDbLine
 10
181.967435432807
 20
581.7068220059159
 30
0.0
 11
184.967435432807
 21
579.9747711983477
 31
0.0
  0
CIRCLE
  5
F09
330
2
100
AcDbEntity
  8
0
100
AcDbCircle
 10
181.9674354328006
 20
492.2427203907777
 30
0.0
 40
5.63397459621558
  0
CIRCLE
  5
F0A
330
2
100
AcDbEntity
  8
0
100
AcDbCircle
 10
181.9674354328006
 20
492.2427203907777
 30
0.0
 40
6.5
  0
LINE
  5
F0B
330
2
100
AcDbEntity
  8
0
100
AcDbLine
 10
184.9674354328007
 20
490.5106695832095
 30
0.0
 11
184.9674354328007
 21
493.9747711983478
 31
0.0
  0
LINE
  5
F0C
330
2
100
AcDbEntity
  8
0
100
AcDbLine
 10
178.9674354328006
 20
493.9747711983478
 30
0.0
 11
178.9674354328006
 21
490.5106695832095
 31
0.0
  0
LINE
  5
F0D
330
2
100
AcDbEntity
  8
0
100
AcDbLine
 10
181.9674354328006
 20
488.7786187756396
 30
0.0
 11
184.9674354328007
 21
490.5106695832095
 31
0.0
  0
LINE
  5
F0E
330
2
100
AcDbEntity
  8
0
100
AcDbLine
 10
178.9674354328006
 20
490.5106695832095
 30
0.0
 11
181.9674354328006
 21
488.7786187756396
 31
0.0
  0
LINE
  5
F0F
330
2
100
AcDbEntity
  8
0
100
AcDbLine
 10
178.9674354328006
 20
493.9747711983478
 30
0.0
 11
181.9674354328006
 21
495.7068220059158
 31
0.0
  0
LINE
  5
F10
330
2
100
AcDbEntity
  8
0
100
AcDbLine
 10
181.9674354328006
 20
495.7068220059158
 30
0.0
 11
184.9674354328007
 21
493.9747711983478
 31
0.0
  0
LINE
  5
F53
330
2
100
AcDbEntity
  8
0
100
AcDbLine
 10
975.8657761153939
 20
971.432733244857
 30
0.0
 11
940.8657761153939
 21
971.432733244857
 31
0.0
  0
ARC
  5
F54
330
2
100
AcDbEntity
  8
0
100
AcDbCircle
 10
988.2522506773424
 20
969.4327332448569
 30
0.0
 40
2.0
100
AcDbArc
 50
0.4999999999654924
 51
72.13575521911788
  0
LINE
  5
F55
330
2
100
AcDbEntity
  8
0
100
AcDbLine
 10
803.8657761153938
 20
956.4327332448515
 30
0.0
 11
990.3657761153938
 21
956.4327332448515
 31
0.0
  0
ARC
  5
F56
330
2
100
AcDbEntity
  8
0
100
AcDbCircle
 10
806.0272993262955
 20
974.9327332448515
 30
0.0
 40
2.0
100
AcDbArc
 50
90.0
 51
179.5000000000344
  0
LINE
  5
F57
330
2
100
AcDbEntity
  8
0
100
AcDbLine
 10
816.9515625530205
 20
977.5185196824782
 30
0.0
 11
817.7799896777672
 21
978.3469468072249
 31
0.0
  0
LINE
  5
F58
330
2
100
AcDbEntity
  8
0
100
AcDbLine
 10
829.4431263845838
 20
987.4327332448515
 30
0.0
 11
913.2884258462075
 21
987.4327332448515
 31
0.0
  0
LINE
  5
F59
330
2
100
AcDbEntity
  8
0
100
AcDbLine
 10
826.365776115394
 20
978.9327332448515
 30
0.0
 11
826.8657761153939
 21
979.4327332448515
 31
0.0
  0
LINE
  5
F5A
330
2
100
AcDbEntity
  8
0
100
AcDbLine
 10
829.0657761153946
 20
982.9327332448515
 30
0.0
 11
828.8657761153938
 21
982.7327332448525
 31
0.0
  0
LINE
  5
F5B
330
2
100
AcDbEntity
  8
0
100
AcDbLine
 10
829.5657761153947
 20
984.7327332448527
 30
0.0
 11
829.5657761153947
 21
983.1327332448521
 31
0.0
  0
LINE
  5
F5C
330
2
100
AcDbEntity
  8
0
100
AcDbLine
 10
828.8657761153938
 20
986.4327332448516
 30
0.0
 11
829.4431263845838
 21
987.4327332448515
 31
0.0
  0
LINE
  5
F5D
330
2
100
AcDbEntity
  8
0
100
AcDbLine
 10
828.8657761153938
 20
986.4327332448516
 30
0.0
 11
828.8657761153938
 21
985.1327332448523
 31
0.0
  0
LINE
  5
F5E
330
2
100
AcDbEntity
  8
0
100
AcDbLine
 10
828.8657761153938
 20
982.7327332448525
 30
0.0
 11
828.8657761153938
 21
979.4327332448515
 31
0.0
  0
LINE
  5
F5F
330
2
100
AcDbEntity
  8
0
100
AcDbLine
 10
923.5373489906473
 20
978.932733244857
 30
0.0
 11
819.1942032401406
 21
978.9327332448442
 31
0.0
  0
LINE
  5
F60
330
2
100
AcDbEntity
  8
0
100
AcDbLine
 10
916.365776115394
 20
978.932733244857
 30
0.0
 11
915.8657761153939
 21
979.4327332448551
 31
0.0
  0
LINE
  5
F61
330
2
100
AcDbEntity
  8
0
100
AcDbLine
 10
913.665776115395
 20
982.9327332448551
 30
0.0
 11
829.0657761153983
 21
982.9327332448551
 31
0.0
  0
LINE
  5
F62
330
2
100
AcDbEntity
  8
0
100
AcDbLine
 10
913.665776115395
 20
982.9327332448551
 30
0.0
 11
913.865776115394
 21
982.7327332448563
 31
0.0
  0
LINE
  5
F63
330
2
100
AcDbEntity
  8
0
100
AcDbLine
 10
913.665776115395
 20
984.9327332448551
 30
0.0
 11
829.0657761153946
 21
984.9327332449206
 31
0.0
  0
LINE
  5
F64
330
2
100
AcDbEntity
  8
0
100
AcDbLine
 10
913.865776115394
 20
986.4327332448551
 30
0.0
 11
913.865776115394
 21
985.1327332448558
 31
0.0
  0
LINE
  5
F65
330
2
100
AcDbEntity
  8
0
100
AcDbLine
 10
913.1657761153951
 20
984.7327332448562
 30
0.0
 11
913.1657761153951
 21
983.1327332448559
 31
0.0
  0
LINE
  5
F66
330
2
100
AcDbEntity
  8
0
100
AcDbLine
 10
913.865776115394
 20
986.4327332448551
 30
0.0
 11
913.2884258462039
 21
987.4327332448551
 31
0.0
  0
LINE
  5
F67
330
2
100
AcDbEntity
  8
0
100
AcDbLine
 10
915.8657761153939
 20
979.4327332448551
 30
0.0
 11
826.8657761153976
 21
979.4327332448551
 31
0.0
  0
LINE
  5
F68
330
2
100
AcDbEntity
  8
0
100
AcDbLine
 10
913.865776115394
 20
982.7327332448563
 30
0.0
 11
913.865776115394
 21
979.4327332448551
 31
0.0
  0
LINE
  5
F69
330
2
100
AcDbEntity
  8
0
100
AcDbLine
 10
936.8657761153938
 20
976.932733244857
 30
0.0
 11
806.0272993262955
 21
976.932733244857
 31
0.0
  0
LINE
  5
F6A
330
2
100
AcDbEntity
  8
0
100
AcDbLine
 10
925.7799896777672
 20
977.5185196824835
 30
0.0
 11
924.9515625530206
 21
978.3469468072302
 31
0.0
  0
LINE
  5
F6B
330
2
100
AcDbEntity
  8
0
100
AcDbLine
 10
938.865776115394
 20
973.432733244857
 30
0.0
 11
938.865776115394
 21
974.932733244857
 31
0.0
  0
ARC
  5
F6C
330
2
100
AcDbEntity
  8
0
100
AcDbCircle
 10
940.8657761153939
 20
973.432733244857
 30
0.0
 40
2.0
100
AcDbArc
 50
180.0
 51
270.0
  0
LINE
  5
F6D
330
2
100
AcDbEntity
  8
0
100
AcDbLine
 10
990.3657761153938
 20
956.4327332448515
 30
0.0
 11
990.2521745234702
 21
969.4501863158524
 31
0.0
  0
ARC
  5
F6E
330
2
100
AcDbEntity
  8
0
100
AcDbCircle
 10
989.2871962268912
 20
965.4327332448605
 30
0.0
 40
1.0
100
AcDbArc
 50
0.4999999999654924
 51
90.0
  0
LINE
  5
F6F
330
2
100
AcDbEntity
  8
0
100
AcDbLine
 10
804.0273754801658
 20
974.9501863158489
 30
0.0
 11
803.8657761153938
 21
956.4327332448515
 31
0.0
  0
ARC
  5
F70
330
2
100
AcDbEntity
  8
0
100
AcDbCircle
 10
936.8657761153938
 20
974.932733244857
 30
0.0
 40
2.0
100
AcDbArc
 50
0.0
 51
90.0
  0
ARC
  5
F71
330
2
100
AcDbEntity
  8
0
100
AcDbCircle
 10
923.5373489906491
 20
976.932733244857
 30
0.0
 40
2.0
100
AcDbArc
 50
45.00000000000906
 51
90.0
  0
ARC
  5
F72
330
2
100
AcDbEntity
  8
0
100
AcDbCircle
 10
927.1942032401407
 20
978.932733244857
 30
0.0
 40
2.0
100
AcDbArc
 50
225.000000000009
 51
270.0
  0
ARC
  5
F73
330
2
100
AcDbEntity
  8
0
100
AcDbCircle
 10
819.1942032401406
 20
976.9327332448515
 30
0.0
 40
2.0
100
AcDbArc
 50
90.0
 51
134.9999999999908
  0
ARC
  5
F74
330
2
100
AcDbEntity
  8
0
100
AcDbCircle
 10
815.5373489906473
 20
978.9327332448515
 30
0.0
 40
2.0
100
AcDbArc
 50
270.0
 51
314.9999999999908
  0
ARC
  5
F75
330
2
100
AcDbEntity
  8
0
100
AcDbCircle
 10
829.0657761153946
 20
985.1327332448523
 30
0.0
 40
0.2
100
AcDbArc
 50
180.0
 51
270.0
  0
ARC
  5
F76
330
2
100
AcDbEntity
  8
0
100
AcDbCircle
 10
829.3657761153939
 20
984.7327332448527
 30
0.0
 40
0.2
100
AcDbArc
 50
0.0
 51
90.0
  0
ARC
  5
F77
330
2
100
AcDbEntity
  8
0
100
AcDbCircle
 10
829.3657761153939
 20
983.1327332448521
 30
0.0
 40
0.2
100
AcDbArc
 50
270.0
 51
0.0
  0
ARC
  5
F78
330
2
100
AcDbEntity
  8
0
100
AcDbCircle
 10
913.665776115395
 20
985.1327332448558
 30
0.0
 40
0.2
100
AcDbArc
 50
270.0
 51
0.0
  0
ARC
  5
F79
330
2
100
AcDbEntity
  8
0
100
AcDbCircle
 10
913.3657761153939
 20
984.7327332448562
 30
0.0
 40
0.2
100
AcDbArc
 50
90.0
 51
180.0
  0
ARC
  5
F7A
330
2
100
AcDbEntity
  8
0
100
AcDbCircle
 10
913.3657761153939
 20
983.1327332448559
 30
0.0
 40
0.2
100
AcDbArc
 50
180.0
 51
270.0
  0
LINE
  5
F7B
330
2
100
AcDbEntity
  8
0
100
AcDbLine
 10
828.8657761153938
 20
986.4327332448516
 30
0.0
 11
913.865776115394
 21
986.4327332448551
 31
0.0
  0
LINE
  5
F7C
330
2
100
AcDbEntity
  8
0
100
AcDbLine
 10
973.9167770234983
 20
969.4850871414724
 30
0.0
 11
973.9839554962093
 21
966.9196447707067
 31
0.0
  0
LINE
  5
F7D
330
2
100
AcDbEntity
  8
0
100
AcDbLine
 10
974.4837841586981
 20
966.4327332448605
 30
0.0
 11
989.2871962268912
 21
966.4327332448605
 31
0.0
  0
ARC
  5
F7E
330
2
100
AcDbEntity
  8
0
100
AcDbCircle
 10
974.4837841586981
 20
966.9327332448606
 30
0.0
 40
0.5
100
AcDbArc
 50
181.4999999999896
 51
270.0
  0
ARC
  5
F7F
330
2
100
AcDbEntity
  8
0
100
AcDbCircle
 10
971.9174623735474
 20
969.4327332448569
 30
0.0
 40
2.0
100
AcDbArc
 50
1.499999999989688
 51
90.0
  0
LINE
  5
F80
330
2
100
AcDbEntity
  8
0
100
AcDbLine
 10
822.3701014716301
 20
966.9283699771126
 30
0.0
 11
822.4401068022601
 21
974.9501863158544
 31
0.0
  0
LINE
  5
F81
330
2
100
AcDbEntity
  8
0
100
AcDbLine
 10
821.8701205100954
 20
966.4327332448605
 30
0.0
 11
804.9443560038966
 21
966.4327332448605
 31
0.0
  0
ARC
  5
F82
330
2
100
AcDbEntity
  8
0
100
AcDbCircle
 10
821.8701205100954
 20
966.9327332448606
 30
0.0
 40
0.5
100
AcDbArc
 50
270.0
 51
359.5000000000345
  0
ARC
  5
F83
330
2
100
AcDbEntity
  8
0
100
AcDbCircle
 10
804.9443560038966
 20
965.4327332448605
 30
0.0
 40
1.0
100
AcDbArc
 50
90.0
 51
179.5000000000344
  0
ARC
  5
F84
330
2
100
AcDbEntity
  8
0
100
AcDbCircle
 10
824.4400306483898
 20
974.932733244857
 30
0.0
 40
2.0
100
AcDbArc
 50
90.0
 51
179.5000000000344
  0
LINE
  5
F85
330
2
100
AcDbEntity
  8
0
100
AcDbLine
 10
938.865776115394
 20
956.4327332448515
 30
0.0
 11
938.865776115394
 21
974.932733244857
 31
0.0
  0
LINE
  5
F86
330
2
100
AcDbEntity
  8
0
100
AcDbLine
 10
813.865776115394
 20
965.4414597803583
 30
0.0
 11
813.865776115394
 21
956.4327332448515
 31
0.0
  0
LINE
  5
F87
330
2
100
AcDbEntity
  8
0
100
AcDbLine
 10
817.8657761153939
 20
965.4414597803583
 30
0.0
 11
817.8657761153939
 21
956.4327332448515
 31
0.0
  0
LINE
  5
F88
330
2
100
AcDbEntity
  8
0
100
AcDbLine
 10
843.69758095147
 20
974.9501863158544
 30
0.0
 11
843.69758095147
 21
956.4327332448515
 31
0.0
  0
LINE
  5
F89
330
2
100
AcDbEntity
  8
0
100
AcDbLine
 10
928.865776115394
 20
974.932733244857
 30
0.0
 11
928.865776115394
 21
956.4327332448515
 31
0.0
  0
LINE
  5
F8A
330
2
100
AcDbEntity
  8
0
100
AcDbLine
 10
924.8657761153939
 20
974.932733244857
 30
0.0
 11
924.8657761153939
 21
956.4327332448515
 31
0.0
  0
LINE
  5
F8B
330
2
100
AcDbEntity
  8
0
100
AcDbLine
 10
899.0339712793177
 20
974.9501863158544
 30
0.0
 11
899.0339712793177
 21
956.4327332448515
 31
0.0
  0
LINE
  5
F8C
330
2
100
AcDbEntity
  8
0
100
AcDbLine
 10
976.7318015191799
 20
976.4327332448607
 30
0.0
 11
987.9997507116099
 21
976.4327332448607
 31
0.0
  0
LINE
  5
F8D
330
2
100
AcDbEntity
  8
0
100
AcDbLine
 10
975.8657761153939
 20
966.4327332448605
 30
0.0
 11
988.865776115394
 21
966.4327332448605
 31
0.0
  0
LINE
  5
F8E
330
2
100
AcDbEntity
  8
0
100
AcDbLine
 10
975.8657761153939
 20
968.4327332448606
 30
0.0
 11
988.865776115394
 21
968.4327332448606
 31
0.0
  0
LINE
  5
F8F
330
2
100
AcDbEntity
  8
0
100
AcDbLine
 10
988.865776115394
 20
975.9327332448606
 30
0.0
 11
987.9997507116099
 21
976.4327332448607
 31
0.0
  0
LINE
  5
F90
330
2
100
AcDbEntity
  8
0
100
AcDbLine
 10
988.865776115394
 20
968.4327332448606
 30
0.0
 11
988.865776115394
 21
975.9327332448606
 31
0.0
  0
LINE
  5
F91
330
2
100
AcDbEntity
  8
0
100
AcDbLine
 10
975.8657761153939
 20
975.9327332448606
 30
0.0
 11
976.7318015191779
 21
976.4327332448607
 31
0.0
  0
LINE
  5
F92
330
2
100
AcDbEntity
  8
0
100
AcDbLine
 10
975.8657761153939
 20
968.4327332448606
 30
0.0
 11
975.8657761153939
 21
975.9327332448606
 31
0.0
  0
LINE
  5
F93
330
2
100
AcDbEntity
  8
0
100
AcDbLine
 10
975.8657761153939
 20
975.9327332448606
 30
0.0
 11
988.865776115394
 21
975.9327332448606
 31
0.0
  0
LINE
  5
F94
330
2
100
AcDbEntity
  8
0
100
AcDbLine
 10
808.2318015191781
 20
976.4327332448607
 30
0.0
 11
819.4997507116081
 21
976.4327332448607
 31
0.0
  0
LINE
  5
F95
330
2
100
AcDbEntity
  8
0
100
AcDbLine
 10
807.3657761153921
 20
966.4327332448605
 30
0.0
 11
820.3657761153921
 21
966.4327332448605
 31
0.0
  0
LINE
  5
F96
330
2
100
AcDbEntity
  8
0
100
AcDbLine
 10
807.3657761153921
 20
968.4327332448606
 30
0.0
 11
820.3657761153921
 21
968.4327332448606
 31
0.0
  0
LINE
  5
F97
330
2
100
AcDbEntity
  8
0
100
AcDbLine
 10
820.3657761153921
 20
975.9327332448606
 30
0.0
 11
819.4997507116081
 21
976.4327332448607
 31
0.0
  0
LINE
  5
F98
330
2
100
AcDbEntity
  8
0
100
AcDbLine
 10
820.3657761153921
 20
968.4327332448606
 30
0.0
 11
820.3657761153921
 21
975.9327332448606
 31
0.0
  0
LINE
  5
F99
330
2
100
AcDbEntity
  8
0
100
AcDbLine
 10
807.3657761153921
 20
975.9327332448606
 30
0.0
 11
808.2318015191781
 21
976.4327332448607
 31
0.0
  0
LINE
  5
F9A
330
2
100
AcDbEntity
  8
0
100
AcDbLine
 10
807.3657761153921
 20
968.4327332448606
 30
0.0
 11
807.3657761153921
 21
975.9327332448606
 31
0.0
  0
LINE
  5
F9B
330
2
100
AcDbEntity
  8
0
100
AcDbLine
 10
807.3657761153921
 20
975.9327332448606
 30
0.0
 11
820.3657761153921
 21
975.9327332448606
 31
0.0
  0
LINE
  5
109E
330
2
100
AcDbEntity
  8
0
100
AcDbLine
 10
225.4674354327998
 20
477.7427203907777
 30
0.0
 11
225.4674354327998
 21
592.7427203907777
 31
0.0
  0
ARC
  5
109F
330
2
100
AcDbEntity
  8
0
100
AcDbCircle
 10
235.4674354327997
 20
592.7427203907777
 30
0.0
 40
10.0
100
AcDbArc
 50
90.0
 51
175.219808152766
  0
ARC
  5
10A0
330
2
100
AcDbEntity
  8
0
100
AcDbCircle
 10
239.4674354327997
 20
594.7427203907778
 30
0.0
 40
8.0
100
AcDbArc
 50
80.5704788783308
 51
90.0
  0
ARC
  5
10A1
330
2
100
AcDbEntity
  8
0
100
AcDbCircle
 10
257.161535808921
 20
701.2834112646392
 30
0.0
 40
100.0
100
AcDbArc
 50
260.5704788783308
 51
274.6677226878296
  0
LINE
  5
10A2
330
2
100
AcDbEntity
  8
0
100
AcDbLine
 10
239.4674354327997
 20
602.7427203907778
 30
0.0
 11
235.4674354327997
 21
602.7427203907778
 31
0.0
  0
LINE
  5
10A3
330
2
100
AcDbEntity
  8
0
100
AcDbLine
 10
341.967435432797
 20
592.7427203907777
 30
0.0
 11
341.9674354327979
 21
599.8995263678303
 31
0.0
  0
ARC
  5
10A4
330
2
100
AcDbEntity
  8
0
100
AcDbCircle
 10
350.4674354327998
 20
592.7427203907777
 30
0.0
 40
10.0
100
AcDbArc
 50
0.0
 51
90.0
  0
LINE
  5
10A5
330
2
100
AcDbEntity
  8
0
100
AcDbLine
 10
350.4674354327998
 20
602.7427203907778
 30
0.0
 11
346.4674354327998
 21
602.7427203907778
 31
0.0
  0
ARC
  5
10A6
330
2
100
AcDbEntity
  8
0
100
AcDbCircle
 10
346.4674354327998
 20
594.7427203907778
 30
0.0
 40
8.0
100
AcDbArc
 50
90.0
 51
99.42952112166921
  0
LINE
  5
10A7
330
2
100
AcDbEntity
  8
CENTER
100
AcDbLine
 10
361.2174354327961
 20
592.7427203907796
 30
0.0
 11
339.717435432797
 21
592.7427203907777
 31
0.0
  0
ARC
  5
10A8
330
2
100
AcDbEntity
  8
0
100
AcDbCircle
 10
350.4674354327961
 20
592.7427203907796
 30
0.0
 40
8.5
100
AcDbArc
 50
180.0
 51
270.0
  0
LINE
  5
10A9
330
2
100
AcDbEntity
  8
0
100
AcDbLine
 10
360.4674354327997
 20
588.7427203907777
 30
0.0
 11
360.4674354327997
 21
592.7427203907777
 31
0.0
  0
ARC
  5
10AA
330
2
100
AcDbEntity
  8
0
100
AcDbCircle
 10
352.4674354327998
 20
588.7427203907777
 30
0.0
 40
8.0
100
AcDbArc
 50
350.570478878331
 51
0.0
  0
ARC
  5
10AB
330
2
100
AcDbEntity
  8
0
100
AcDbCircle
 10
459.008126306663
 20
571.0486200146638
 30
0.0
 40
100.0
100
AcDbArc
 50
170.570478878331
 51
184.6677226878296
  0
ARC
  5
10AC
330
2
100
AcDbEntity
  8
0
100
AcDbCircle
 10
357.624241409854
 20
582.2427203907795
 30
0.0
 40
2.0
100
AcDbArc
 50
353.6993214717071
 51
90.0
  0
CIRCLE
  5
10AD
330
2
100
AcDbEntity
  8
0
100
AcDbCircle
 10
353.4674354327925
 20
578.2427203907741
 30
0.0
 40
4.0
  0
CIRCLE
  5
10AE
330
2
100
AcDbEntity
  8
HOJO
100
AcDbCircle
 10
353.4674354327925
 20
578.2427203907741
 30
0.0
 40
2.5
  0
CIRCLE
  5
10AF
330
2
100
AcDbEntity
  8
0
100
AcDbCircle
 10
353.4674354327925
 20
578.2427203907741
 30
0.0
 40
3.5
  0
CIRCLE
  5
10B0
330
2
100
AcDbEntity
  8
0
100
AcDbCircle
 10
353.4674354327925
 20
578.2427203907741
 30
0.0
 40
2.0
  0
LINE
  5
10B1
330
2
100
AcDbEntity
  8
0
100
AcDbLine
 10
350.467435432797
 20
584.2427203907796
 30
0.0
 11
357.624241409854
 21
584.2427203907796
 31
0.0
  0
ARC
  5
10B2
330
2
100
AcDbEntity
  8
0
100
AcDbCircle
 10
235.4674354327997
 20
477.7427203907777
 30
0.0
 40
10.0
100
AcDbArc
 50
184.7801918472338
 51
270.0
  0
ARC
  5
10B3
330
2
100
AcDbEntity
  8
0
100
AcDbCircle
 10
239.4674354327997
 20
475.7427203907777
 30
0.0
 40
8.0
100
AcDbArc
 50
270.0
 51
279.4295211216691
  0
ARC
  5
10B4
330
2
100
AcDbEntity
  8
0
100
AcDbCircle
 10
257.1615358089137
 20
369.2020295169144
 30
0.0
 40
100.0
100
AcDbArc
 50
85.33227731217035
 51
99.42952112166921
  0
LINE
  5
10B5
330
2
100
AcDbEntity
  8
0
100
AcDbLine
 10
239.4674354327997
 20
467.7427203907777
 30
0.0
 11
235.4674354327997
 21
467.7427203907777
 31
0.0
  0
LINE
  5
10B6
330
2
100
AcDbEntity
  8
0
100
AcDbLine
 10
341.9674354327979
 20
477.7427203907795
 30
0.0
 11
341.9674354327979
 21
470.5859144137242
 31
0.0
  0
ARC
  5
10B7
330
2
100
AcDbEntity
  8
0
100
AcDbCircle
 10
350.4674354327998
 20
477.7427203907777
 30
0.0
 40
10.0
100
AcDbArc
 50
270.0
 51
0.0
  0
ARC
  5
10B8
330
2
100
AcDbEntity
  8
0
100
AcDbCircle
 10
350.4674354327979
 20
477.7427203907777
 30
0.0
 40
8.5
100
AcDbArc
 50
90.0
 51
180.0
  0
CIRCLE
  5
10B9
330
2
100
AcDbEntity
  8
HOJO
100
AcDbCircle
 10
353.467435432797
 20
492.2427203907814
 30
0.0
 40
2.5
  0
CIRCLE
  5
10BA
330
2
100
AcDbEntity
  8
0
100
AcDbCircle
 10
353.467435432797
 20
492.2427203907814
 30
0.0
 40
2.0
  0
CIRCLE
  5
10BB
330
2
100
AcDbEntity
  8
0
100
AcDbCircle
 10
353.467435432797
 20
492.2427203907814
 30
0.0
 40
3.5
  0
CIRCLE
  5
10BC
330
2
100
AcDbEntity
  8
0
100
AcDbCircle
 10
353.467435432797
 20
492.2427203907814
 30
0.0
 40
4.0
  0
LINE
  5
10BD
330
2
100
AcDbEntity
  8
0
100
AcDbLine
 10
350.4674354327979
 20
486.2427203907777
 30
0.0
 11
357.624241409854
 21
486.2427203907795
 31
0.0
  0
LINE
  5
10BE
330
2
100
AcDbEntity
  8
0
100
AcDbLine
 10
360.4674354327997
 20
477.7427203907777
 30
0.0
 11
360.4674354327997
 21
481.7427203907777
 31
0.0
  0
ARC
  5
10BF
330
2
100
AcDbEntity
  8
0
100
AcDbCircle
 10
352.4674354327998
 20
481.7427203907777
 30
0.0
 40
8.0
100
AcDbArc
 50
0.0
 51
9.429521121668937
  0
LINE
  5
10C0
330
2
100
AcDbEntity
  8
0
100
AcDbLine
 10
350.4674354327998
 20
467.7427203907777
 30
0.0
 11
346.4674354327998
 21
467.7427203907777
 31
0.0
  0
ARC
  5
10C1
330
2
100
AcDbEntity
  8
0
100
AcDbCircle
 10
346.4674354327998
 20
475.7427203907777
 30
0.0
 40
8.0
100
AcDbArc
 50
260.5704788783308
 51
270.0
  0
ARC
  5
10C2
330
2
100
AcDbEntity
  8
0
100
AcDbCircle
 10
330.9674354327997
 20
497.2427203907777
 30
0.0
 40
15.0
100
AcDbArc
 50
270.0
 51
0.0
  0
ARC
  5
10C3
330
2
100
AcDbEntity
  8
0
100
AcDbCircle
 10
330.9674354327997
 20
497.2427203907777
 30
0.0
 40
17.0
100
AcDbArc
 50
270.0
 51
0.0
  0
ARC
  5
10C4
330
2
100
AcDbEntity
  8
0
100
AcDbCircle
 10
330.9674354327997
 20
573.2427203907778
 30
0.0
 40
17.0
100
AcDbArc
 50
0.0
 51
90.0
  0
ARC
  5
10C5
330
2
100
AcDbEntity
  8
0
100
AcDbCircle
 10
330.9674354327997
 20
573.2427203907778
 30
0.0
 40
15.0
100
AcDbArc
 50
0.0
 51
90.0
  0
ARC
  5
10C6
330
2
100
AcDbEntity
  8
0
100
AcDbCircle
 10
254.9674354327998
 20
497.2427203907777
 30
0.0
 40
15.0
100
AcDbArc
 50
180.0
 51
270.0
  0
ARC
  5
10C7
330
2
100
AcDbEntity
  8
0
100
AcDbCircle
 10
254.9674354327998
 20
497.2427203907777
 30
0.0
 40
17.0
100
AcDbArc
 50
180.0
 51
270.0
  0
CIRCLE
  5
10C8
330
2
100
AcDbEntity
  8
0
100
AcDbCircle
 10
292.9674354327998
 20
535.2427203907778
 30
0.0
 40
45.0
  0
CIRCLE
  5
10C9
330
2
100
AcDbEntity
  8
0
100
AcDbCircle
 10
292.9674354327998
 20
535.2427203907778
 30
0.0
 40
44.5
  0
CIRCLE
  5
10CA
330
2
100
AcDbEntity
  8
0
100
AcDbCircle
 10
292.9674354327998
 20
535.2427203907778
 30
0.0
 40
42.5
  0
ARC
  5
10CB
330
2
100
AcDbEntity
  8
0
100
AcDbCircle
 10
254.9674354327998
 20
573.2427203907778
 30
0.0
 40
15.0
100
AcDbArc
 50
90.0
 51
180.0
  0
ARC
  5
10CC
330
2
100
AcDbEntity
  8
0
100
AcDbCircle
 10
254.9674354327998
 20
573.2427203907778
 30
0.0
 40
17.0
100
AcDbArc
 50
90.0
 51
180.0
  0
LINE
  5
10CD
330
2
100
AcDbEntity
  8
0
100
AcDbLine
 10
237.9674354327998
 20
497.2427203907777
 30
0.0
 11
237.9674354327998
 21
573.2427203907778
 31
0.0
  0
LINE
  5
10CE
330
2
100
AcDbEntity
  8
0
100
AcDbLine
 10
239.9674354327998
 20
497.2427203907777
 30
0.0
 11
239.9674354327998
 21
573.2427203907778
 31
0.0
  0
CIRCLE
  5
10CF
330
2
100
AcDbEntity
  8
0
100
AcDbCircle
 10
292.9674354327998
 20
535.2427203907778
 30
0.0
 40
36.57739999999999
  0
CIRCLE
  5
10D0
330
2
100
AcDbEntity
  8
0
100
AcDbCircle
 10
292.9674354327998
 20
535.2427203907778
 30
0.0
 40
41.9226
  0
CIRCLE
  5
10D1
330
2
100
AcDbEntity
  8
0
100
AcDbCircle
 10
292.9674354327998
 20
535.2427203907778
 30
0.0
 40
36.0
  0
LINE
  5
10D2
330
2
100
AcDbEntity
  8
0
100
AcDbLine
 10
254.9674354327998
 20
590.2427203907778
 30
0.0
 11
330.9674354327997
 21
590.2427203907778
 31
0.0
  0
LINE
  5
10D3
330
2
100
AcDbEntity
  8
0
100
AcDbLine
 10
254.9674354327998
 20
588.2427203907777
 30
0.0
 11
330.9674354327997
 21
588.2427203907777
 31
0.0
  0
LINE
  5
10D4
330
2
100
AcDbEntity
  8
0
100
AcDbLine
 10
330.9674354327997
 20
480.2427203907777
 30
0.0
 11
254.9674354327998
 21
480.2427203907777
 31
0.0
  0
LINE
  5
10D5
330
2
100
AcDbEntity
  8
0
100
AcDbLine
 10
330.9674354327997
 20
482.2427203907777
 30
0.0
 11
254.9674354327998
 21
482.2427203907777
 31
0.0
  0
LINE
  5
10D6
330
2
100
AcDbEntity
  8
0
100
AcDbLine
 10
347.9674354327997
 20
573.2427203907778
 30
0.0
 11
347.9674354327997
 21
497.2427203907777
 31
0.0
  0
LINE
  5
10D7
330
2
100
AcDbEntity
  8
0
100
AcDbLine
 10
345.9674354327997
 20
573.2427203907778
 30
0.0
 11
345.9674354327997
 21
497.2427203907777
 31
0.0
  0
LINE
  5
10D8
330
2
100
AcDbEntity
  8
0
100
AcDbLine
 10
342.9882507129712
 20
585.2635356709493
 30
0.0
 11
341.5740371505979
 21
583.849322108576
 31
0.0
  0
LINE
  5
10D9
330
2
100
AcDbEntity
  8
0
100
AcDbLine
 10
342.9882507129712
 20
485.2219051106062
 30
0.0
 11
341.5740371505979
 21
486.6361186729795
 31
0.0
  0
LINE
  5
10DA
330
2
100
AcDbEntity
  8
0
100
AcDbLine
 10
242.9466201526282
 20
585.2635356709493
 30
0.0
 11
244.3608337150016
 21
583.849322108576
 31
0.0
  0
LINE
  5
10DB
330
2
100
AcDbEntity
  8
0
100
AcDbLine
 10
242.9466201526282
 20
485.2219051106062
 30
0.0
 11
244.3608337150016
 21
486.6361186729795
 31
0.0
  0
LINE
  5
10DC
330
2
100
AcDbEntity
  8
CENTER
100
AcDbLine
 10
350.4674354328016
 20
603.4927203907741
 30
0.0
 11
350.4674354327998
 21
581.9927203907759
 31
0.0
  0
LINE
  5
10DD
330
2
100
AcDbEntity
  8
CENTER
100
AcDbLine
 10
361.2174354327961
 20
477.7427203907759
 30
0.0
 11
339.717435432797
 21
477.7427203907777
 31
0.0
  0
LINE
  5
10DE
330
2
100
AcDbEntity
  8
CENTER
100
AcDbLine
 10
350.4674354328016
 20
466.9927203907813
 30
0.0
 11
350.4674354327998
 21
488.4927203907813
 31
0.0
  0
LINE
  5
10DF
330
2
100
AcDbEntity
  8
CENTER
100
AcDbLine
 10
353.4674354327916
 20
584.6327295593915
 30
0.0
 11
353.4674354327916
 21
571.8527112221586
 31
0.0
  0
LINE
  5
10E0
330
2
100
AcDbEntity
  8
CENTER
100
AcDbLine
 10
347.0774262641751
 20
578.2427203907741
 30
0.0
 11
359.857444601408
 21
578.2427203907741
 31
0.0
  0
LINE
  5
10E1
330
2
100
AcDbEntity
  8
CENTER
100
AcDbLine
 10
353.4674354327916
 20
485.8527112221658
 30
0.0
 11
353.4674354327916
 21
498.6327295593986
 31
0.0
  0
LINE
  5
10E2
330
2
100
AcDbEntity
  8
CENTER
100
AcDbLine
 10
347.0774262641751
 20
492.2427203907814
 30
0.0
 11
359.857444601408
 21
492.2427203907814
 31
0.0
  0
CIRCLE
  5
10E3
330
2
100
AcDbEntity
  8
0
100
AcDbCircle
 10
350.4674354327998
 20
592.7427203907796
 30
0.0
 40
5.63397459621558
  0
CIRCLE
  5
10E4
330
2
100
AcDbEntity
  8
0
100
AcDbCircle
 10
350.4674354327998
 20
592.7427203907796
 30
0.0
 40
6.5
  0
LINE
  5
10E5
330
2
100
AcDbEntity
  8
0
100
AcDbLine
 10
353.4674354327997
 20
591.0106695832096
 30
0.0
 11
353.4674354327997
 21
594.4747711983477
 31
0.0
  0
LINE
  5
10E6
330
2
100
AcDbEntity
  8
0
100
AcDbLine
 10
347.4674354327997
 20
594.4747711983477
 30
0.0
 11
347.4674354327997
 21
591.0106695832096
 31
0.0
  0
LINE
  5
10E7
330
2
100
AcDbEntity
  8
0
100
AcDbLine
 10
350.4674354327998
 20
589.2786187756414
 30
0.0
 11
353.4674354327997
 21
591.0106695832096
 31
0.0
  0
LINE
  5
10E8
330
2
100
AcDbEntity
  8
0
100
AcDbLine
 10
347.4674354327997
 20
591.0106695832096
 30
0.0
 11
350.4674354327998
 21
589.2786187756414
 31
0.0
  0
LINE
  5
10E9
330
2
100
AcDbEntity
  8
0
100
AcDbLine
 10
347.4674354327997
 20
594.4747711983477
 30
0.0
 11
350.4674354327998
 21
596.2068220059177
 31
0.0
  0
LINE
  5
10EA
330
2
100
AcDbEntity
  8
0
100
AcDbLine
 10
350.4674354327998
 20
596.2068220059158
 30
0.0
 11
353.4674354327997
 21
594.4747711983477
 31
0.0
  0
CIRCLE
  5
10EB
330
2
100
AcDbEntity
  8
0
100
AcDbCircle
 10
350.4674354327998
 20
477.7427203907777
 30
0.0
 40
5.63397459621558
  0
CIRCLE
  5
10EC
330
2
100
AcDbEntity
  8
0
100
AcDbCircle
 10
350.4674354327998
 20
477.7427203907777
 30
0.0
 40
6.5
  0
LINE
  5
10ED
330
2
100
AcDbEntity
  8
0
100
AcDbLine
 10
353.4674354327997
 20
476.0106695832095
 30
0.0
 11
353.4674354327997
 21
479.4747711983458
 31
0.0
  0
LINE
  5
10EE
330
2
100
AcDbEntity
  8
0
100
AcDbLine
 10
347.4674354327997
 20
479.4747711983458
 30
0.0
 11
347.4674354327997
 21
476.0106695832077
 31
0.0
  0
LINE
  5
10EF
330
2
100
AcDbEntity
  8
0
100
AcDbLine
 10
350.4674354327998
 20
474.2786187756395
 30
0.0
 11
353.4674354327997
 21
476.0106695832095
 31
0.0
  0
LINE
  5
10F0
330
2
100
AcDbEntity
  8
0
100
AcDbLine
 10
347.4674354327997
 20
476.0106695832077
 30
0.0
 11
350.4674354327998
 21
474.2786187756395
 31
0.0
  0
LINE
  5
10F1
330
2
100
AcDbEntity
  8
0
100
AcDbLine
 10
347.4674354327997
 20
479.4747711983458
 30
0.0
 11
350.4674354327998
 21
481.2068220059158
 31
0.0
  0
LINE
  5
10F2
330
2
100
AcDbEntity
  8
0
100
AcDbLine
 10
350.4674354327998
 20
481.2068220059158
 30
0.0
 11
353.4674354327997
 21
479.4747711983458
 31
0.0
  0
ARC
  5
10F9
330
2
100
AcDbEntity
  8
0
100
AcDbCircle
 10
292.9674354327998
 20
262.7427203907767
 30
0.0
 40
340.0
100
AcDbArc
 50
85.33227731217035
 51
94.66772268782964
  0
ARC
  5
10FA
330
2
100
AcDbEntity
  8
0
100
AcDbCircle
 10
328.7733350566785
 20
701.2834112646392
 30
0.0
 40
100.0
100
AcDbArc
 50
265.3322773121704
 51
279.4295211216691
  0
ARC
  5
10FB
330
2
100
AcDbEntity
  8
0
100
AcDbCircle
 10
339.967435432797
 20
599.8995263678303
 30
0.0
 40
2.0
100
AcDbArc
 50
0.0
 51
96.30067852829258
  0
ARC
  5
10FC
330
2
100
AcDbEntity
  8
0
100
AcDbCircle
 10
292.9674354327998
 20
807.7427203907769
 30
0.0
 40
340.0
100
AcDbArc
 50
265.3322773121704
 51
274.6677226878296
  0
ARC
  5
10FD
330
2
100
AcDbEntity
  8
0
100
AcDbCircle
 10
328.7733350566858
 20
369.2020295169144
 30
0.0
 40
100.0
100
AcDbArc
 50
80.5704788783308
 51
94.66772268782964
  0
ARC
  5
10FE
330
2
100
AcDbEntity
  8
0
100
AcDbCircle
 10
339.967435432797
 20
470.5859144137242
 30
0.0
 40
2.0
100
AcDbArc
 50
263.6993214717074
 51
0.0
  0
ARC
  5
10FF
330
2
100
AcDbEntity
  8
0
100
AcDbCircle
 10
20.4674354328007
 20
535.2427203907778
 30
0.0
 40
340.0
100
AcDbArc
 50
355.3322773121702
 51
4.667722687829736
  0
ARC
  5
1100
330
2
100
AcDbEntity
  8
0
100
AcDbCircle
 10
459.008126306663
 20
499.4368207668917
 30
0.0
 40
100.0
100
AcDbArc
 50
175.3322773121702
 51
189.4295211216689
  0
ARC
  5
1101
330
2
100
AcDbEntity
  8
0
100
AcDbCircle
 10
357.6242414098532
 20
488.2427203907795
 30
0.0
 40
2.0
100
AcDbArc
 50
270.0
 51
6.300678528292718
  0
LINE
  5
1102
330
2
100
AcDbEntity
  8
0
100
AcDbLine
 10
803.8701395491818
 20
956.4327332448501
 30
0.0
 11
804.6468307826662
 21
867.4327332448372
 31
0.0
  0
CIRCLE
  5
1103
330
2
100
AcDbEntity
  8
0
100
AcDbCircle
 10
871.3657761153957
 20
535.2427203907778
 30
0.0
 40
36.57739999999999
  0
LINE
  5
1104
330
2
100
AcDbEntity
  8
CENTER
100
AcDbLine
 10
1383.59044388186
 20
617.4285531501374
 30
0.0
 11
1383.59044388186
 21
453.0568876310717
 31
0.0
  0
LINE
  5
1105
330
2
100
AcDbEntity
  8
0
100
AcDbLine
 10
1311.590447210671
 20
576.8113428410766
 30
0.0
 11
1311.590447210671
 21
493.6740979403043
 31
0.0
  0
LINE
  5
1106
330
2
100
AcDbEntity
  8
0
100
AcDbLine
 10
1325.590447210671
 20
595.2427203906049
 30
0.0
 11
1325.590447210671
 21
475.242720390605
 31
0.0
  0
LINE
  5
1107
330
2
100
AcDbEntity
  8
CENTER
100
AcDbLine
 10
1460.59044388186
 20
535.2427203906905
 30
0.0
 11
1244.590447210757
 21
535.2427203906905
 31
0.0
  0
LINE
  5
1108
330
2
100
AcDbEntity
  8
0
100
AcDbLine
 10
1419.59044388186
 20
602.7427203906049
 30
0.0
 11
1330.590447210671
 21
601.9660291862769
 31
0.0
  0
LINE
  5
1109
330
2
100
AcDbEntity
  8
0
100
AcDbLine
 10
1330.590447210671
 20
595.2427203906049
 30
0.0
 11
1325.590447210671
 21
595.2427203906049
 31
0.0
  0
LINE
  5
110A
330
2
100
AcDbEntity
  8
0
100
AcDbLine
 10
1330.590447210671
 20
468.5194115949311
 30
0.0
 11
1419.59044388186
 21
467.742720390605
 31
0.0
  0
LINE
  5
110B
330
2
100
AcDbEntity
  8
0
100
AcDbLine
 10
1330.590447210671
 20
475.242720390605
 30
0.0
 11
1325.590447210671
 21
475.242720390605
 31
0.0
  0
LINE
  5
110C
330
2
100
AcDbEntity
  8
0
100
AcDbLine
 10
1332.590447210755
 20
486.9889437143979
 30
0.0
 11
1332.590447210751
 21
491.1279504367548
 31
0.0
  0
LINE
  5
1120
330
2
100
AcDbEntity
  8
0
100
AcDbLine
 10
1419.59044388186
 20
602.7427203906049
 30
0.0
 11
1419.59044388186
 21
586.3897758292046
 31
0.0
  0
LINE
  5
1121
330
2
100
AcDbEntity
  8
0
100
AcDbLine
 10
1419.59044388186
 20
484.0956649521763
 30
0.0
 11
1419.59044388186
 21
467.742720390605
 31
0.0
  0
LINE
  5
1122
330
2
100
AcDbEntity
  8
0
100
AcDbLine
 10
1330.590447210671
 20
468.5194115949311
 30
0.0
 11
1330.590447210671
 21
601.9660291862769
 31
0.0
  0
LINE
  5
1123
330
2
100
AcDbEntity
  8
0
100
AcDbLine
 10
1383.59044388186
 20
586.7427155519313
 30
0.0
 11
1426.668872444291
 21
586.3203797565898
 31
0.0
  0
ARC
  5
1124
330
2
100
AcDbEntity
  8
0
100
AcDbCircle
 10
1426.590445163768
 20
578.3207641932226
 30
0.0
 40
8.0
100
AcDbArc
 50
44.60542829750014
 51
89.438296980908
  0
LINE
  5
1125
330
2
100
AcDbEntity
  8
0
100
AcDbLine
 10
1383.59044388186
 20
586.7427155519313
 30
0.0
 11
1372.341271416616
 21
586.6324300016317
 31
0.0
  0
ARC
  5
1126
330
2
100
AcDbEntity
  8
0
100
AcDbCircle
 10
1340.590442599955
 20
578.3207641932226
 30
0.0
 40
8.0
100
AcDbArc
 50
90.56170301909203
 51
135.3945717018366
  0
LINE
  5
1127
330
2
100
AcDbEntity
  8
0
100
AcDbLine
 10
1383.59044388186
 20
483.7427252294496
 30
0.0
 11
1340.51201531943
 21
484.1650610247911
 31
0.0
  0
LINE
  5
1128
330
2
100
AcDbEntity
  8
0
100
AcDbLine
 10
1383.59044388186
 20
483.7427252294496
 30
0.0
 11
1426.668872444291
 21
484.1650610247911
 31
0.0
  0
ARC
  5
1129
330
2
100
AcDbEntity
  8
0
100
AcDbCircle
 10
1340.590442599955
 20
492.16467658816
 30
0.0
 40
8.0
100
AcDbArc
 50
224.6054282984995
 51
269.4382969809079
  0
ARC
  5
112A
330
2
100
AcDbEntity
  8
0
100
AcDbCircle
 10
1426.590445163768
 20
492.16467658816
 30
0.0
 40
8.0
100
AcDbArc
 50
270.5617030190919
 51
315.3945717021636
  0
LINE
  5
112B
330
2
100
AcDbEntity
  8
0
100
AcDbLine
 10
1337.098572566447
 20
585.5184613019578
 30
0.0
 11
1334.572994139674
 21
585.4964209129325
 31
0.0
  0
LINE
  5
112C
330
2
100
AcDbEntity
  8
0
100
AcDbLine
 10
1313.520648217266
 20
578.8101244951144
 30
0.0
 11
1323.660246204076
 21
579.1642070591519
 31
0.0
  0
LINE
  5
112D
330
2
100
AcDbEntity
  8
0
100
AcDbLine
 10
1313.520648217266
 20
491.6753162862664
 30
0.0
 11
1323.660246204076
 21
491.3212337222307
 31
0.0
  0
ARC
  5
112E
330
2
100
AcDbEntity
  8
0
100
AcDbCircle
 10
1323.590447210671
 20
489.3224520681928
 30
0.0
 40
2.0
100
AcDbArc
 50
0.0
 51
87.99999999999636
  0
ARC
  5
112F
330
2
100
AcDbEntity
  8
0
100
AcDbCircle
 10
1323.590447210671
 20
581.1629887131898
 30
0.0
 40
2.0
100
AcDbArc
 50
272.0000000000036
 51
0.0
  0
ARC
  5
1130
330
2
100
AcDbEntity
  8
0
100
AcDbCircle
 10
1313.590447210671
 20
576.8113428410766
 30
0.0
 40
2.0
100
AcDbArc
 50
92.00000000000365
 51
180.0
  0
ARC
  5
1131
330
2
100
AcDbEntity
  8
0
100
AcDbCircle
 10
1313.590447210671
 20
493.6740979403043
 30
0.0
 40
2.0
100
AcDbArc
 50
180.0
 51
267.9999999999963
  0
ARC
  5
1132
330
2
100
AcDbEntity
  8
0
100
AcDbCircle
 10
1334.590447210671
 20
583.4964970668047
 30
0.0
 40
2.0
100
AcDbArc
 50
90.49999999996549
 51
180.0
  0
ARC
  5
1133
330
2
100
AcDbEntity
  8
0
100
AcDbCircle
 10
1334.590447210755
 20
486.9889437144015
 30
0.0
 40
2.0
100
AcDbArc
 50
180.0000000001042
 51
269.5000000000866
  0
LINE
  5
1134
330
2
100
AcDbEntity
  8
0
100
AcDbLine
 10
1337.098567340464
 20
484.9669795248596
 30
0.0
 11
1334.572994139761
 21
484.9890198682738
 31
0.0
  0
ARC
  5
1135
330
2
100
AcDbEntity
  8
0
100
AcDbCircle
 10
1438.09044388186
 20
600.5811971797907
 30
0.0
 40
2.0
100
AcDbArc
 50
0.0
 51
89.49999999998238
  0
LINE
  5
1136
330
2
100
AcDbEntity
  8
0
100
AcDbLine
 10
1440.676230319487
 20
589.6569339530637
 30
0.0
 11
1441.504657444234
 21
588.8285068283189
 31
0.0
  0
LINE
  5
1137
330
2
100
AcDbEntity
  8
0
100
AcDbLine
 10
1450.59044388186
 20
577.1653701215004
 30
0.0
 11
1450.59044388186
 21
493.3200706598786
 31
0.0
  0
LINE
  5
1138
330
2
100
AcDbEntity
  8
0
100
AcDbLine
 10
1442.09044388186
 20
580.2427203906904
 30
0.0
 11
1442.59044388186
 21
579.7427203906904
 31
0.0
  0
LINE
  5
1139
330
2
100
AcDbEntity
  8
0
100
AcDbLine
 10
1446.09044388186
 20
577.5427203906915
 30
0.0
 11
1445.890443881861
 21
577.7427203906905
 31
0.0
  0
LINE
  5
113A
330
2
100
AcDbEntity
  8
0
100
AcDbLine
 10
1447.890443881861
 20
577.0427203906915
 30
0.0
 11
1446.290443881861
 21
577.0427203906915
 31
0.0
  0
LINE
  5
113B
330
2
100
AcDbEntity
  8
0
100
AcDbLine
 10
1449.59044388186
 20
577.7427203906905
 30
0.0
 11
1450.59044388186
 21
577.1653701215022
 31
0.0
  0
LINE
  5
113C
330
2
100
AcDbEntity
  8
0
100
AcDbLine
 10
1449.59044388186
 20
577.7427203906905
 30
0.0
 11
1448.290443881861
 21
577.7427203906905
 31
0.0
  0
LINE
  5
113D
330
2
100
AcDbEntity
  8
0
100
AcDbLine
 10
1445.890443881861
 20
577.7427203906905
 30
0.0
 11
1442.59044388186
 21
577.7427203906905
 31
0.0
  0
LINE
  5
113E
330
2
100
AcDbEntity
  8
0
100
AcDbLine
 10
1442.090443881866
 20
483.0711475154371
 30
0.0
 11
1442.090443881853
 21
587.4142932659456
 31
0.0
  0
LINE
  5
113F
330
2
100
AcDbEntity
  8
0
100
AcDbLine
 10
1442.090443881864
 20
490.2427203906905
 30
0.0
 11
1442.590443881864
 21
490.7427203906904
 31
0.0
  0
LINE
  5
1140
330
2
100
AcDbEntity
  8
0
100
AcDbLine
 10
1446.090443881864
 20
492.9427203906912
 30
0.0
 11
1446.090443881864
 21
577.5427203906879
 31
0.0
  0
LINE
  5
1141
330
2
100
AcDbEntity
  8
0
100
AcDbLine
 10
1446.090443881864
 20
492.9427203906912
 30
0.0
 11
1445.890443881865
 21
492.7427203906904
 31
0.0
  0
LINE
  5
1142
330
2
100
AcDbEntity
  8
0
100
AcDbLine
 10
1448.090443881864
 20
492.9427203906912
 30
0.0
 11
1448.090443881929
 21
577.5427203906915
 31
0.0
  0
LINE
  5
1143
330
2
100
AcDbEntity
  8
0
100
AcDbLine
 10
1449.590443881864
 20
492.7427203906904
 30
0.0
 11
1448.290443881865
 21
492.7427203906904
 31
0.0
  0
LINE
  5
1144
330
2
100
AcDbEntity
  8
0
100
AcDbLine
 10
1447.890443881865
 20
493.4427203906912
 30
0.0
 11
1446.290443881865
 21
493.4427203906912
 31
0.0
  0
LINE
  5
1145
330
2
100
AcDbEntity
  8
0
100
AcDbLine
 10
1449.590443881864
 20
492.7427203906904
 30
0.0
 11
1450.590443881864
 21
493.3200706598804
 31
0.0
  0
LINE
  5
1146
330
2
100
AcDbEntity
  8
0
100
AcDbLine
 10
1442.590443881864
 20
490.7427203906904
 30
0.0
 11
1442.590443881864
 21
579.7427203906868
 31
0.0
  0
LINE
  5
1147
330
2
100
AcDbEntity
  8
0
100
AcDbLine
 10
1445.890443881865
 20
492.7427203906904
 30
0.0
 11
1442.590443881864
 21
492.7427203906904
 31
0.0
  0
LINE
  5
1148
330
2
100
AcDbEntity
  8
0
100
AcDbLine
 10
1440.090443881866
 20
469.904243601592
 30
0.0
 11
1440.090443881866
 21
600.5811971797907
 31
0.0
  0
LINE
  5
1149
330
2
100
AcDbEntity
  8
0
100
AcDbLine
 10
1440.676230319492
 20
480.8285068283171
 30
0.0
 11
1441.504657444239
 21
481.6569339530637
 31
0.0
  0
LINE
  5
114A
330
2
100
AcDbEntity
  8
0
100
AcDbLine
 10
1438.107896952858
 20
602.5811210259185
 30
0.0
 11
1419.59044388186
 21
602.7427203906905
 31
0.0
  0
ARC
  5
114B
330
2
100
AcDbEntity
  8
0
100
AcDbCircle
 10
1440.090443881866
 20
483.0711475154371
 30
0.0
 40
2.0
100
AcDbArc
 50
314.999999999991
 51
0.0
  0
ARC
  5
114C
330
2
100
AcDbEntity
  8
0
100
AcDbCircle
 10
1442.090443881866
 20
479.4142932659438
 30
0.0
 40
2.0
100
AcDbArc
 50
134.9999999999911
 51
180.0
  0
ARC
  5
114D
330
2
100
AcDbEntity
  8
0
100
AcDbCircle
 10
1440.09044388186
 20
587.4142932659456
 30
0.0
 40
2.0
100
AcDbArc
 50
0.0
 51
45.0000000000088
  0
ARC
  5
114E
330
2
100
AcDbEntity
  8
0
100
AcDbCircle
 10
1442.09044388186
 20
591.0711475154371
 30
0.0
 40
2.0
100
AcDbArc
 50
180.0
 51
225.0000000000088
  0
ARC
  5
114F
330
2
100
AcDbEntity
  8
0
100
AcDbCircle
 10
1448.290443881861
 20
577.5427203906915
 30
0.0
 40
0.2
100
AcDbArc
 50
90.0
 51
180.0
  0
ARC
  5
1150
330
2
100
AcDbEntity
  8
0
100
AcDbCircle
 10
1447.890443881861
 20
577.2427203906905
 30
0.0
 40
0.2
100
AcDbArc
 50
270.0
 51
0.0
  0
ARC
  5
1151
330
2
100
AcDbEntity
  8
0
100
AcDbCircle
 10
1446.290443881861
 20
577.2427203906905
 30
0.0
 40
0.2
100
AcDbArc
 50
180.0
 51
270.0
  0
ARC
  5
1152
330
2
100
AcDbEntity
  8
0
100
AcDbCircle
 10
1448.290443881865
 20
492.9427203906912
 30
0.0
 40
0.2
100
AcDbArc
 50
180.0
 51
270.0
  0
ARC
  5
1153
330
2
100
AcDbEntity
  8
0
100
AcDbCircle
 10
1447.890443881865
 20
493.2427203906904
 30
0.0
 40
0.2
100
AcDbArc
 50
0.0
 51
90.0
  0
ARC
  5
1154
330
2
100
AcDbEntity
  8
0
100
AcDbCircle
 10
1446.290443881865
 20
493.2427203906904
 30
0.0
 40
0.2
100
AcDbArc
 50
90.0
 51
180.0
  0
LINE
  5
1155
330
2
100
AcDbEntity
  8
0
100
AcDbLine
 10
1449.59044388186
 20
577.7427203906905
 30
0.0
 11
1449.590443881864
 21
492.7427203906904
 31
0.0
  0
ARC
  5
1156
330
2
100
AcDbEntity
  8
0
100
AcDbCircle
 10
1438.09044388186
 20
469.904243601592
 30
0.0
 40
2.0
100
AcDbArc
 50
270.5000000000175
 51
0.0
  0
LINE
  5
1157
330
2
100
AcDbEntity
  8
0
100
AcDbLine
 10
1438.107896952858
 20
467.9043197554624
 30
0.0
 11
1419.59044388186
 21
467.7427203906904
 31
0.0
  0
ARC
  5
1159
330
2
100
AcDbEntity
  8
0
100
AcDbCircle
 10
1432.59044388186
 20
584.1291949526407
 30
0.0
 40
2.0
100
AcDbArc
 50
17.86424478083664
 51
89.50000000000846
  0
LINE
  5
115A
330
2
100
AcDbEntity
  8
0
100
AcDbLine
 10
1432.607896952858
 20
586.1291187987685
 30
0.0
 11
1428.146081323696
 21
586.1680564738712
 31
0.0
  0
ARC
  5
115B
330
2
100
AcDbEntity
  8
0
100
AcDbCircle
 10
1432.59044388186
 20
486.3562458287419
 30
0.0
 40
2.0
100
AcDbArc
 50
270.4999999999915
 51
342.1357552191632
  0
LINE
  5
115C
330
2
100
AcDbEntity
  8
0
100
AcDbLine
 10
1432.607896952858
 20
484.3563219826141
 30
0.0
 11
1428.146081323698
 21
484.3173843075114
 31
0.0
  0
LINE
  5
115D
330
2
100
AcDbEntity
  8
0
100
AcDbLine
 10
1439.59044388186
 20
583.8766949869046
 30
0.0
 11
1439.59044388186
 21
572.6087457944745
 31
0.0
  0
LINE
  5
115E
330
2
100
AcDbEntity
  8
0
100
AcDbLine
 10
1431.59044388186
 20
584.7427203906904
 30
0.0
 11
1431.59044388186
 21
584.5657632179668
 31
0.0
  0
LINE
  5
115F
330
2
100
AcDbEntity
  8
0
100
AcDbLine
 10
1439.09044388186
 20
571.7427203906904
 30
0.0
 11
1439.59044388186
 21
572.6087457944745
 31
0.0
  0
LINE
  5
1160
330
2
100
AcDbEntity
  8
0
100
AcDbLine
 10
1434.732600744607
 20
571.7427203906904
 30
0.0
 11
1439.09044388186
 21
571.7427203906904
 31
0.0
  0
LINE
  5
1161
330
2
100
AcDbEntity
  8
0
100
AcDbLine
 10
1439.09044388186
 20
584.7427203906904
 30
0.0
 11
1439.59044388186
 21
583.8766949869063
 31
0.0
  0
LINE
  5
1162
330
2
100
AcDbEntity
  8
0
100
AcDbLine
 10
1431.59044388186
 20
584.7427203906904
 30
0.0
 11
1439.09044388186
 21
584.7427203906904
 31
0.0
  0
LINE
  5
1163
330
2
100
AcDbEntity
  8
0
100
AcDbLine
 10
1439.09044388186
 20
584.7427203906904
 30
0.0
 11
1439.09044388186
 21
571.7427203906904
 31
0.0
  0
LINE
  5
1164
330
2
100
AcDbEntity
  8
0
100
AcDbLine
 10
1439.59044388186
 20
497.8766949869063
 30
0.0
 11
1439.59044388186
 21
486.6087457944764
 31
0.0
  0
LINE
  5
1165
330
2
100
AcDbEntity
  8
0
100
AcDbLine
 10
1431.59044388186
 20
485.919677563414
 30
0.0
 11
1431.59044388186
 21
485.7427203906922
 31
0.0
  0
LINE
  5
1166
330
2
100
AcDbEntity
  8
0
100
AcDbLine
 10
1439.09044388186
 20
485.7427203906922
 30
0.0
 11
1439.59044388186
 21
486.6087457944764
 31
0.0
  0
LINE
  5
1167
330
2
100
AcDbEntity
  8
0
100
AcDbLine
 10
1431.59044388186
 20
485.7427203906922
 30
0.0
 11
1439.09044388186
 21
485.7427203906922
 31
0.0
  0
LINE
  5
1168
330
2
100
AcDbEntity
  8
0
100
AcDbLine
 10
1439.09044388186
 20
498.7427203906922
 30
0.0
 11
1439.59044388186
 21
497.8766949869082
 31
0.0
  0
LINE
  5
1169
330
2
100
AcDbEntity
  8
0
100
AcDbLine
 10
1434.732600744609
 20
498.7427203906922
 30
0.0
 11
1439.09044388186
 21
498.7427203906922
 31
0.0
  0
LINE
  5
116A
330
2
100
AcDbEntity
  8
0
100
AcDbLine
 10
1439.09044388186
 20
498.7427203906922
 30
0.0
 11
1439.09044388186
 21
485.7427203906922
 31
0.0
  0
LINE
  5
1181
330
2
100
AcDbEntity
  8
0
 48
0.3
100
AcDbLine
 10
821.1157761153939
 20
968.4327332448606
 30
0.0
 11
806.615776115394
 21
968.4327332448606
 31
0.0
  0
LINE
  5
1182
330
2
100
AcDbEntity
  8
0
 48
0.3
100
AcDbLine
 10
806.615776115394
 20
968.4327332448606
 30
0.0
 11
806.615776115394
 21
966.4327332448605
 31
0.0
  0
LINE
  5
1183
330
2
100
AcDbEntity
  8
0
 48
0.3
100
AcDbLine
 10
821.1157761153939
 20
968.4327332448606
 30
0.0
 11
821.1157761153939
 21
966.4327332448605
 31
0.0
  0
LINE
  5
1184
330
2
100
AcDbEntity
  8
0
100
AcDbLine
 10
821.1157761153939
 20
966.4327332448605
 30
0.0
 11
806.615776115394
 21
966.4327332448605
 31
0.0
  0
LINE
  5
1185
330
2
100
AcDbEntity
  8
0
 48
0.3
100
AcDbLine
 10
989.615776115394
 20
968.4327332448606
 30
0.0
 11
975.115776115394
 21
968.4327332448606
 31
0.0
  0
LINE
  5
1186
330
2
100
AcDbEntity
  8
0
 48
0.3
100
AcDbLine
 10
975.115776115394
 20
968.4327332448606
 30
0.0
 11
975.115776115394
 21
966.4327332448605
 31
0.0
  0
LINE
  5
1187
330
2
100
AcDbEntity
  8
0
 48
0.3
100
AcDbLine
 10
989.615776115394
 20
968.4327332448606
 30
0.0
 11
989.615776115394
 21
966.4327332448605
 31
0.0
  0
LINE
  5
1188
330
2
100
AcDbEntity
  8
0
100
AcDbLine
 10
989.615776115394
 20
966.4327332448605
 30
0.0
 11
975.115776115394
 21
966.4327332448605
 31
0.0
  0
CIRCLE
  5
1189
330
2
100
AcDbEntity
  8
0
100
AcDbCircle
 10
181.9674354328017
 20
578.2427203907777
 30
0.0
 40
7.250000000001591
  0
CIRCLE
  5
118A
330
2
100
AcDbEntity
  8
0
100
AcDbCircle
 10
181.9674354328017
 20
492.2427203907777
 30
0.0
 40
7.250000000001591
  0
CIRCLE
  5
118B
330
2
100
AcDbEntity
  8
0
100
AcDbCircle
 10
350.4674354328017
 20
477.7427203907759
 30
0.0
 40
7.250000000001591
  0
CIRCLE
  5
118C
330
2
100
AcDbEntity
  8
0
100
AcDbCircle
 10
350.4674354328017
 20
592.7427203907777
 30
0.0
 40
7.250000000001591
  0
LINE
  5
1191
330
2
100
AcDbEntity
  8
CENTER
100
AcDbLine
 10
813.865776115394
 20
962.4327332448606
 30
0.0
 11
813.865776115394
 21
979.4327332448606
 31
0.0
  0
LINE
  5
1192
330
2
100
AcDbEntity
  8
CENTER
100
AcDbLine
 10
982.3657761153958
 20
962.4327332448606
 30
0.0
 11
982.3657761153958
 21
979.4327332448606
 31
0.0
  0
LINE
  5
1193
330
2
100
AcDbEntity
  8
0
 48
0.3
100
AcDbLine
 10
1431.59044388186
 20
584.5657632179681
 30
0.0
 11
1431.59044388186
 21
585.4927203906904
 31
0.0
  0
LINE
  5
1194
330
2
100
AcDbEntity
  8
0
 48
0.3
100
AcDbLine
 10
1431.59044388186
 20
585.4927203906904
 30
0.0
 11
1430.134883666775
 21
585.4927203906904
 31
0.0
  0
LINE
  5
1195
330
2
100
AcDbEntity
  8
0
 48
0.3
100
AcDbLine
 10
1431.59044388186
 20
484.9927203906922
 30
0.0
 11
1431.59044388186
 21
485.9196775634146
 31
0.0
  0
LINE
  5
1196
330
2
100
AcDbEntity
  8
0
 48
0.3
100
AcDbLine
 10
1431.59044388186
 20
484.9927203906922
 30
0.0
 11
1430.134883666775
 21
484.9927203906922
 31
0.0
  0
LINE
  5
1197
330
2
100
AcDbEntity
  8
CENTER
100
AcDbLine
 10
1444.207232718662
 20
578.2427203906904
 30
0.0
 11
1429.327189144204
 21
578.2427203906904
 31
0.0
  0
LINE
  5
1198
330
2
100
AcDbEntity
  8
CENTER
100
AcDbLine
 10
1444.207232718662
 20
492.2427203906923
 30
0.0
 11
1429.327189144204
 21
492.2427203906923
 31
0.0
  0
LINE
  5
1199
330
2
100
AcDbEntity
  8
HIDS
  6
SEKKEI_H
100
AcDbLine
 10
975.8657761153941
 20
971.432733244857
 30
0.0
 11
988.2522506773424
 21
971.432733244857
 31
0.0
  0
ARC
  5
119A
330
2
100
AcDbEntity
  8
HIDS
  6
SEKKEI_H
100
AcDbCircle
 10
988.2522506773424
 20
969.4327332448569
 30
0.0
 40
2.000000000000015
100
AcDbArc
 50
72.1357552191042
 51
90.0
  0
LINE
  5
1605
330
2
100
AcDbEntity
  8
0
100
AcDbLine
 10
1035.335798115393
 20
868.9327332448378
 30
0.0
 11
1035.335798115393
 21
971.932733244837
 31
0.0
  0
LINE
  5
1606
330
2
100
AcDbEntity
  8
0
100
AcDbLine
 10
1119.835798115396
 20
870.432733244837
 30
0.0
 11
1119.835798115396
 21
970.432733244837
 31
0.0
  0
LINE
  5
1607
330
2
100
AcDbEntity
  8
0
100
AcDbLine
 10
1035.335798115393
 20
869.432733244837
 30
0.0
 11
1046.835798115391
 21
869.432733244837
 31
0.0
  0
LINE
  5
1608
330
2
100
AcDbEntity
  8
0
100
AcDbLine
 10
1048.772289788493
 20
869.432733244837
 30
0.0
 11
1082.835798115394
 21
869.432733244837
 31
0.0
  0
LINE
  5
1609
330
2
100
AcDbEntity
  8
0
100
AcDbLine
 10
1048.772289788491
 20
971.432733244837
 30
0.0
 11
1082.835798115396
 21
971.4327332448405
 31
0.0
  0
LINE
  5
160A
330
2
100
AcDbEntity
  8
0
100
AcDbLine
 10
1085.481549426461
 20
970.432733244837
 30
0.0
 11
1119.835798115396
 21
970.432733244837
 31
0.0
  0
ARC
  5
160B
330
2
100
AcDbEntity
  8
0
100
AcDbCircle
 10
1106.835798115396
 20
968.432733244837
 30
0.0
 40
2.0
100
AcDbArc
 50
90.0
 51
180.0
  0
LINE
  5
160C
330
2
100
AcDbEntity
  8
0
100
AcDbLine
 10
1085.481549426461
 20
870.4327332448373
 30
0.0
 11
1119.835798115396
 21
870.432733244837
 31
0.0
  0
LINE
  5
160D
330
2
100
AcDbEntity
  8
CENTER
 48
0.5
100
AcDbLine
 10
1088.835798115398
 20
900.4327332448369
 30
0.0
 11
1113.835798115398
 21
900.4327332448369
 31
0.0
  0
LINE
  5
160E
330
2
100
AcDbEntity
  8
0
100
AcDbLine
 10
1092.835798115398
 20
889.932733244837
 30
0.0
 11
1102.835798115398
 21
889.932733244837
 31
0.0
  0
ARC
  5
160F
330
2
100
AcDbEntity
  8
0
100
AcDbCircle
 10
1092.835798115398
 20
891.932733244837
 30
0.0
 40
2.0
100
AcDbArc
 50
180.0
 51
270.0
  0
LINE
  5
1610
330
2
100
AcDbEntity
  8
0
100
AcDbLine
 10
1104.835798115398
 20
887.9327332448369
 30
0.0
 11
1104.835798115396
 21
872.4327332448369
 31
0.0
  0
ARC
  5
1611
330
2
100
AcDbEntity
  8
0
100
AcDbCircle
 10
1106.835798115396
 20
872.4327332448369
 30
0.0
 40
2.0
100
AcDbArc
 50
180.0
 51
270.0
  0
LINE
  5
1612
330
2
100
AcDbEntity
  8
CENTER
 48
0.5
100
AcDbLine
 10
1101.335798115398
 20
912.9327332448369
 30
0.0
 11
1101.335798115398
 21
887.9327332448369
 31
0.0
  0
LINE
  5
1613
330
2
100
AcDbEntity
  8
0
100
AcDbLine
 10
1090.835798115398
 20
918.432733244837
 30
0.0
 11
1090.835798115398
 21
891.932733244837
 31
0.0
  0
ARC
  5
1614
330
2
100
AcDbEntity
  8
0
100
AcDbCircle
 10
1102.835798115398
 20
887.9327332448369
 30
0.0
 40
2.0
100
AcDbArc
 50
0.0
 51
90.0
  0
LINE
  5
1615
330
2
100
AcDbEntity
  8
0
100
AcDbLine
 10
1104.835798115401
 20
922.4327332448375
 30
0.0
 11
1104.835798115396
 21
968.432733244837
 31
0.0
  0
LINE
  5
1616
330
2
100
AcDbEntity
  8
0
100
AcDbLine
 10
1092.835798115398
 20
920.432733244837
 30
0.0
 11
1102.835798115398
 21
920.432733244837
 31
0.0
  0
ARC
  5
1617
330
2
100
AcDbEntity
  8
0
100
AcDbCircle
 10
1092.835798115398
 20
918.432733244837
 30
0.0
 40
2.0
100
AcDbArc
 50
90.0
 51
180.0
  0
ARC
  5
1618
330
2
100
AcDbEntity
  8
0
100
AcDbCircle
 10
1102.835798115398
 20
922.4327332448369
 30
0.0
 40
2.0
100
AcDbArc
 50
270.0
 51
0.0
  0
LINE
  5
1619
330
2
100
AcDbEntity
  8
0
100
AcDbLine
 10
1084.835798115396
 20
969.4327332448406
 30
0.0
 11
1084.835798115396
 21
871.4327332448343
 31
0.0
  0
ARC
  5
161A
330
2
100
AcDbEntity
  8
0
100
AcDbCircle
 10
1082.835798115394
 20
969.4327332448406
 30
0.0
 40
2.0
100
AcDbArc
 50
48.59037789064481
 51
89.99999999994789
  0
ARC
  5
161B
330
2
100
AcDbEntity
  8
0
100
AcDbCircle
 10
1085.481549426461
 20
972.4327332448378
 30
0.0
 40
2.0
100
AcDbArc
 50
228.5903778907118
 51
270.0
  0
ARC
  5
161C
330
2
100
AcDbEntity
  8
0
100
AcDbCircle
 10
1082.835798115394
 20
969.4327332448406
 30
0.0
 40
2.0
100
AcDbArc
 50
0.0
 51
89.99999999994789
  0
ARC
  5
161D
330
2
100
AcDbEntity
  8
0
100
AcDbCircle
 10
1085.481549426461
 20
868.432733244837
 30
0.0
 40
2.0
100
AcDbArc
 50
90.0
 51
131.4096221092881
  0
ARC
  5
161E
330
2
100
AcDbEntity
  8
0
100
AcDbCircle
 10
1082.835798115394
 20
871.4327332448343
 30
0.0
 40
2.0
100
AcDbArc
 50
270.0000000000521
 51
0.0
  0
LINE
  5
161F
330
2
100
AcDbEntity
  8
0
100
AcDbLine
 10
1046.835798115391
 20
971.932733244836
 30
0.0
 11
1035.335798115392
 21
971.932733244836
 31
0.0
  0
LINE
  5
1620
330
2
100
AcDbEntity
  8
0
100
AcDbLine
 10
1046.835798115391
 20
868.9327332448378
 30
0.0
 11
1035.335798115392
 21
868.9327332448378
 31
0.0
  0
LINE
  5
1621
330
2
100
AcDbEntity
  8
0
100
AcDbLine
 10
1048.835798115391
 20
870.9327332448379
 30
0.0
 11
1048.835798115394
 21
969.932733244836
 31
0.0
  0
ARC
  5
1622
330
2
100
AcDbEntity
  8
0
100
AcDbCircle
 10
1046.835798115391
 20
870.9327332448379
 30
0.0
 40
2.0
100
AcDbArc
 50
270.0
 51
0.0
  0
ARC
  5
1623
330
2
100
AcDbEntity
  8
0
100
AcDbCircle
 10
1046.835798115391
 20
871.4327332448375
 30
0.0
 40
2.0
100
AcDbArc
 50
270.0
 51
0.0
  0
ARC
  5
1624
330
2
100
AcDbEntity
  8
0
100
AcDbCircle
 10
1046.835798115391
 20
969.932733244836
 30
0.0
 40
2.0
100
AcDbArc
 50
359.9999999999869
 51
90.0
  0
ARC
  5
1625
330
2
100
AcDbEntity
  8
0
100
AcDbCircle
 10
1046.835798115391
 20
969.4327332448365
 30
0.0
 40
2.0
100
AcDbArc
 50
0.0
 51
90.0
  0
LINE
  5
1626
330
2
100
AcDbEntity
  8
0
100
AcDbLine
 10
1046.835798115391
 20
971.4327332448364
 30
0.0
 11
1035.335798115393
 21
971.4327332448364
 31
0.0
  0
LINE
  5
1627
330
2
100
AcDbEntity
  8
0
100
AcDbLine
 10
1056.335798115391
 20
961.3027332448373
 30
0.0
 11
1082.835798115395
 21
961.3027332448373
 31
0.0
  0
LINE
  5
1628
330
2
100
AcDbEntity
  8
0
100
AcDbLine
 10
1051.835798115392
 20
889.932733244837
 30
0.0
 11
1081.835798115395
 21
889.9327332448374
 31
0.0
  0
ARC
  5
1629
330
2
100
AcDbEntity
  8
0
100
AcDbCircle
 10
1081.835798115395
 20
892.9327332448369
 30
0.0
 40
3.0
100
AcDbArc
 50
270.0
 51
0.0
  0
ARC
  5
162A
330
2
100
AcDbEntity
  8
0
100
AcDbCircle
 10
1051.835798115392
 20
886.9327332448369
 30
0.0
 40
3.0
100
AcDbArc
 50
90.0
 51
179.9999999999869
  0
ARC
  5
162B
330
2
100
AcDbEntity
  8
0
100
AcDbCircle
 10
1081.835798115396
 20
947.932733244837
 30
0.0
 40
3.0
100
AcDbArc
 50
0.0
 51
90.0
  0
LINE
  5
162C
330
2
100
AcDbEntity
  8
0
100
AcDbLine
 10
1051.835798115393
 20
950.932733244837
 30
0.0
 11
1081.835798115396
 21
950.932733244837
 31
0.0
  0
ARC
  5
162D
330
2
100
AcDbEntity
  8
0
100
AcDbCircle
 10
1051.835798115393
 20
953.9327332448369
 30
0.0
 40
3.0
100
AcDbArc
 50
179.9999999999869
 51
270.0
  0
LINE
  5
162E
330
2
100
AcDbEntity
  8
0
100
AcDbLine
 10
1056.335798115391
 20
879.5627332448367
 30
0.0
 11
1082.835798115395
 21
879.5627332448367
 31
0.0
  0
LINE
  5
162F
330
2
100
AcDbEntity
  8
0
100
AcDbLine
 10
1051.835798115394
 20
910.3828576233494
 30
0.0
 11
1082.835798115396
 21
910.3828576233494
 31
0.0
  0
LINE
  5
1630
330
2
100
AcDbEntity
  8
0
100
AcDbLine
 10
1051.835798115392
 20
930.4826088656023
 30
0.0
 11
1082.835798115396
 21
930.4826088656023
 31
0.0
  0
ARC
  5
1631
330
2
100
AcDbEntity
  8
0
100
AcDbCircle
 10
1048.772289788493
 20
867.4327332448374
 30
0.0
 40
2.0
100
AcDbArc
 50
89.99999999994789
 51
118.9550243718446
  0
ARC
  5
1632
330
2
100
AcDbEntity
  8
0
100
AcDbCircle
 10
1048.772289788491
 20
973.4327332448383
 30
0.0
 40
2.0
100
AcDbArc
 50
241.0449756282137
 51
270.0
  0
LINE
  5
1638
330
2
100
AcDbEntity
  8
0
100
AcDbLine
 10
1035.335798115394
 20
586.2427203907778
 30
0.0
 11
1035.335798115394
 21
484.2427203907777
 31
0.0
  0
LINE
  5
1660
330
2
100
AcDbEntity
  8
0
100
AcDbLine
 10
128.9974134328011
 20
586.2427203907775
 30
0.0
 11
81.44572717464132
 21
586.2427203907779
 31
0.0
  0
LINE
  5
1662
330
2
100
AcDbEntity
  8
0
100
AcDbLine
 10
78.85166212173214
 20
485.2427203907775
 30
0.0
 11
44.49741343279754
 21
485.2427203907775
 31
0.0
  0
ARC
  5
1663
330
2
100
AcDbEntity
  8
0
100
AcDbCircle
 10
57.53201890657499
 20
487.2427203907775
 30
0.0
 40
2.0
100
AcDbArc
 50
270.0
 51
358.9999999999982
  0
LINE
  5
1664
330
2
100
AcDbEntity
  8
0
100
AcDbLine
 10
44.49741343279754
 20
585.2427203907772
 30
0.0
 11
44.49741343279754
 21
485.2427203907778
 31
0.0
  0
LINE
  5
1665
330
2
100
AcDbEntity
  8
0
100
AcDbLine
 10
128.9974134328011
 20
586.2427203907775
 30
0.0
 11
128.9974134328011
 21
484.2427203907775
 31
0.0
  0
LINE
  5
1666
330
2
100
AcDbEntity
  8
0
100
AcDbLine
 10
128.9974134328011
 20
535.2427203907775
 30
0.0
 11
44.49741343279754
 21
535.2427203907775
 31
0.0
  0
LINE
  5
1667
330
2
100
AcDbEntity
  8
0
100
AcDbLine
 10
60.37016667921387
 20
535.2427203907771
 30
0.0
 11
59.53171429688779
 21
487.2078155779034
 31
0.0
  0
LINE
  5
1668
330
2
100
AcDbEntity
  8
CENTER
100
AcDbLine
 10
62.99741343279754
 20
592.7427203907775
 30
0.0
 11
62.99741343279754
 21
577.9588693318357
 31
0.0
  0
LINE
  5
1669
330
2
100
AcDbEntity
  8
0
100
AcDbLine
 10
78.85166212173214
 20
585.2427203907771
 30
0.0
 11
44.49741343279754
 21
585.2427203907772
 31
0.0
  0
LINE
  5
166A
330
2
100
AcDbEntity
  8
0
100
AcDbLine
 10
128.9974134328011
 20
484.2427203907766
 30
0.0
 11
81.44572717464132
 21
484.2427203907766
 31
0.0
  0
ARC
  5
166B
330
2
100
AcDbEntity
  8
0
100
AcDbCircle
 10
57.53201890657499
 20
583.242720390777
 30
0.0
 40
2.0
100
AcDbArc
 50
1.000000000001735
 51
90.0
  0
LINE
  5
166C
330
2
100
AcDbEntity
  8
0
100
AcDbLine
 10
60.37016667921387
 20
535.242720390778
 30
0.0
 11
59.53171429688779
 21
583.2776252036516
 31
0.0
  0
LINE
  5
166D
330
2
100
AcDbEntity
  8
0
100
AcDbLine
 10
114.6072051214613
 20
535.2427203907771
 30
0.0
 11
115.4631125687191
 21
486.207815577902
 31
0.0
  0
ARC
  5
166E
330
2
100
AcDbEntity
  8
0
100
AcDbCircle
 10
117.4628079590328
 20
486.2427203907766
 30
0.0
 40
2.0
100
AcDbArc
 50
181.0000000000017
 51
270.0
  0
LINE
  5
166F
330
2
100
AcDbEntity
  8
0
100
AcDbLine
 10
114.6072051214613
 20
535.2427203907775
 30
0.0
 11
115.4631125687191
 21
584.2776252036526
 31
0.0
  0
ARC
  5
1670
330
2
100
AcDbEntity
  8
0
100
AcDbCircle
 10
117.4628079590328
 20
584.242720390778
 30
0.0
 40
2.0
100
AcDbArc
 50
90.0
 51
178.9999999999982
  0
ARC
  5
1671
330
2
100
AcDbEntity
  8
0
100
AcDbCircle
 10
78.79997586357683
 20
587.242720390777
 30
0.0
 40
2.0
100
AcDbArc
 50
270.0
 51
311.4096221092689
  0
ARC
  5
1672
330
2
100
AcDbEntity
  8
0
100
AcDbCircle
 10
78.79997586357683
 20
483.242720390778
 30
0.0
 40
2.0
100
AcDbArc
 50
48.59037789072249
 51
90.0
  0
LINE
  5
1673
330
2
100
AcDbEntity
  8
0
100
AcDbLine
 10
114.8170566479674
 20
585.2427203907775
 30
0.0
 11
81.41954125307245
 21
585.242720390778
 31
0.0
  0
ARC
  5
1674
330
2
100
AcDbEntity
  8
0
100
AcDbCircle
 10
81.41954125307245
 20
583.242720390778
 30
0.0
 40
2.0
100
AcDbArc
 50
90.0
 51
178.4999999999973
  0
LINE
  5
1675
330
2
100
AcDbEntity
  8
0
100
AcDbLine
 10
107.7473941847296
 20
575.9927203907753
 30
0.0
 11
77.28069399487037
 21
575.992720390777
 31
0.0
  0
ARC
  5
1676
330
2
100
AcDbEntity
  8
0
100
AcDbCircle
 10
77.28069399487037
 20
577.9927203907775
 30
0.0
 40
2.0
100
AcDbArc
 50
270.0
 51
358.5000000000103
  0
LINE
  5
1677
330
2
100
AcDbEntity
  8
0
100
AcDbLine
 10
81.88307265339506
 20
565.7427203907775
 30
0.0
 11
112.1914928124241
 21
565.7427203907775
 31
0.0
  0
ARC
  5
1678
330
2
100
AcDbEntity
  8
0
100
AcDbCircle
 10
81.88307265339506
 20
562.7427203907775
 30
0.0
 40
3.0
100
AcDbArc
 50
90.0
 51
178.4999999999973
  0
ARC
  5
1679
330
2
100
AcDbEntity
  8
0
100
AcDbCircle
 10
71.53201890656134
 20
487.2427203907775
 30
0.0
 40
2.0
100
AcDbArc
 50
270.0
 51
358.9999999999852
  0
LINE
  5
167A
330
2
100
AcDbEntity
  8
0
100
AcDbLine
 10
75.64643524207065
 20
495.7627203907771
 30
0.0
 11
63.80904910964807
 21
495.7627203907771
 31
0.0
  0
ARC
  5
167B
330
2
100
AcDbEntity
  8
0
100
AcDbCircle
 10
75.64643524207065
 20
493.762720390777
 30
0.0
 40
2.0
100
AcDbArc
 50
90.0
 51
178.9999999999851
  0
ARC
  5
167C
330
2
100
AcDbEntity
  8
0
100
AcDbCircle
 10
112.1914928124232
 20
501.742720390778
 30
0.0
 40
3.0
100
AcDbArc
 50
1.000000000001735
 51
90.0
  0
LINE
  5
167D
330
2
100
AcDbEntity
  8
0
100
AcDbLine
 10
73.53171429687415
 20
487.2078155779024
 30
0.0
 11
73.64673985175784
 21
493.7976252036521
 31
0.0
  0
ARC
  5
167E
330
2
100
AcDbEntity
  8
0
100
AcDbCircle
 10
112.1914928124241
 20
568.7427203907775
 30
0.0
 40
3.0
100
AcDbArc
 50
270.0
 51
358.9999999999852
  0
ARC
  5
167F
330
2
100
AcDbEntity
  8
0
100
AcDbCircle
 10
114.8170566479674
 20
587.242720390777
 30
0.0
 40
2.0
100
AcDbArc
 50
270.0
 51
311.4096221092863
  0
LINE
  5
1680
330
2
100
AcDbEntity
  8
0
100
AcDbLine
 10
79.44641252468762
 20
584.295074287392
 30
0.0
 11
79.2797467856052
 21
577.9303664941615
 31
0.0
  0
LINE
  5
1681
330
2
100
AcDbEntity
  8
0
100
AcDbLine
 10
78.88410067846769
 20
562.821251235701
 30
0.0
 11
78.16193143276894
 21
535.2427203907775
 31
0.0
  0
ARC
  5
1682
330
2
100
AcDbEntity
  8
0
100
AcDbCircle
 10
81.44572717464132
 20
584.2427203907771
 30
0.0
 40
2.0
100
AcDbArc
 50
90.0
 51
178.4999999999842
  0
LINE
  5
1683
330
2
100
AcDbEntity
  8
0
100
AcDbLine
 10
79.44641252468944
 20
486.1903664941621
 30
0.0
 11
79.27974678560429
 21
492.5550742873931
 31
0.0
  0
ARC
  5
1684
330
2
100
AcDbEntity
  8
0
100
AcDbCircle
 10
77.28069399486855
 20
492.492720390777
 30
0.0
 40
2.0
100
AcDbArc
 50
1.500000000002682
 51
90.0
  0
LINE
  5
1685
330
2
100
AcDbEntity
  8
0
100
AcDbLine
 10
78.88410067846677
 20
507.6641895458545
 30
0.0
 11
78.16193143276894
 21
535.2427203907775
 31
0.0
  0
ARC
  5
1686
330
2
100
AcDbEntity
  8
0
100
AcDbCircle
 10
81.88307265339323
 20
507.742720390778
 30
0.0
 40
3.0
100
AcDbArc
 50
181.5000000000026
 51
270.0
  0
ARC
  5
1687
330
2
100
AcDbEntity
  8
0
100
AcDbCircle
 10
81.44572717464132
 20
486.2427203907779
 30
0.0
 40
2.0
100
AcDbArc
 50
181.5000000000156
 51
270.0
  0
LINE
  5
1688
330
2
100
AcDbEntity
  8
0
100
AcDbLine
 10
81.88307265339323
 20
504.7427203907775
 30
0.0
 11
112.1914928124232
 21
504.742720390778
 31
0.0
  0
LINE
  5
1689
330
2
100
AcDbEntity
  8
0
100
AcDbLine
 10
107.7473941847339
 20
494.4927203907793
 30
0.0
 11
77.28069399486855
 21
494.4927203907775
 31
0.0
  0
LINE
  5
168A
330
2
100
AcDbEntity
  8
0
100
AcDbLine
 10
80.36097178327043
 20
542.8437647143689
 30
0.0
 11
111.7398818436485
 21
542.8437647143689
 31
0.0
  0
LINE
  5
168B
330
2
100
AcDbEntity
  8
0
100
AcDbLine
 10
80.36097178327043
 20
527.6416760671861
 30
0.0
 11
111.7398818436485
 21
527.6416760671861
 31
0.0
  0
LINE
  5
168C
330
2
100
AcDbEntity
  8
0
100
AcDbLine
 10
114.8170566479674
 20
485.2427203907775
 30
0.0
 11
81.41954125307245
 21
485.2427203907771
 31
0.0
  0
ARC
  5
168D
330
2
100
AcDbEntity
  8
0
100
AcDbCircle
 10
81.41954125307245
 20
487.242720390777
 30
0.0
 40
2.0
100
AcDbArc
 50
181.4999999999896
 51
270.0
  0
ARC
  5
168E
330
2
100
AcDbEntity
  8
0
100
AcDbCircle
 10
114.8170566479674
 20
483.2427203907776
 30
0.0
 40
2.0
100
AcDbArc
 50
48.59037789071371
 51
90.0
  0
LINE
  5
1719
330
2
100
AcDbEntity
  8
CENTER
  6
CENTERX2
100
AcDbLine
 10
1045.835798115394
 20
962.8591401160301
 30
0.0
 11
1059.335798115395
 21
962.8591401160297
 31
0.0
  0
LINE
  5
171A
330
2
100
AcDbEntity
  8
CENTER
  6
CENTERX2
100
AcDbLine
 10
118.2473941847296
 20
577.6691272618495
 30
0.0
 11
104.7412849120038
 21
577.6691272618493
 31
0.0
  0
LINE
  5
171B
330
2
100
AcDbEntity
  8
CENTER
  6
CENTERX2
100
AcDbLine
 10
118.247394184734
 20
492.8163135194613
 30
0.0
 11
104.7412849120081
 21
492.8163135194611
 31
0.0
  0
LINE
  5
1720
330
2
100
AcDbEntity
  8
0
100
AcDbLine
 10
67.99741343279754
 20
589.2427203907771
 30
0.0
 11
57.99741343279754
 21
589.2427203907771
 31
0.0
  0
ARC
  5
1721
330
2
100
AcDbEntity
  8
0
100
AcDbCircle
 10
57.99741343279754
 20
585.2427203907771
 30
0.0
 40
4.0
100
AcDbArc
 50
90.0
 51
180.0
  0
ARC
  5
1722
330
2
100
AcDbEntity
  8
0
100
AcDbCircle
 10
67.99741343279754
 20
585.2427203907771
 30
0.0
 40
4.0
100
AcDbArc
 50
0.0
 51
90.0
  0
CIRCLE
  5
1723
330
2
100
AcDbEntity
  8
0
100
AcDbCircle
 10
1101.335798115398
 20
900.4327332448369
 30
0.0
 40
9.0
  0
LINE
  5
1774
330
2
100
AcDbEntity
  8
0
100
AcDbLine
 10
115.2473941847296
 20
583.4191272618493
 30
0.0
 11
113.7473941847291
 21
583.4191272618493
 31
0.0
  0
LINE
  5
1775
330
2
100
AcDbEntity
  8
0
100
AcDbLine
 10
115.2473941847296
 20
571.9191272618493
 30
0.0
 11
113.7473941847289
 21
571.9191272618493
 31
0.0
  0
LINE
  5
1776
330
2
100
AcDbEntity
  8
0
100
AcDbLine
 10
108.1473941847292
 20
582.6691272618493
 30
0.0
 11
107.7473941847296
 21
581.976306938822
 31
0.0
  0
LINE
  5
1777
330
2
100
AcDbEntity
  8
0
100
AcDbLine
 10
113.7473941847291
 20
583.4191272618493
 30
0.0
 11
113.7473941847289
 21
571.9191272618493
 31
0.0
  0
LINE
  5
1778
330
2
100
AcDbEntity
  8
0
100
AcDbLine
 10
108.1473941847292
 20
582.6691272618493
 30
0.0
 11
108.1473941847292
 21
572.6691272618493
 31
0.0
  0
LINE
  5
1779
330
2
100
AcDbEntity
  8
0
100
AcDbLine
 10
113.7473941847291
 20
582.6691272618493
 30
0.0
 11
108.1473941847292
 21
582.6691272618493
 31
0.0
  0
LINE
  5
177A
330
2
100
AcDbEntity
  8
0
100
AcDbLine
 10
113.7473941847289
 20
572.6691272618493
 30
0.0
 11
108.1473941847292
 21
572.6691272618493
 31
0.0
  0
LINE
  5
177B
330
2
100
AcDbEntity
  8
0
100
AcDbLine
 10
108.1473941847292
 20
572.6691272618493
 30
0.0
 11
107.7473941847296
 21
573.3619475848765
 31
0.0
  0
LINE
  5
177C
330
2
100
AcDbEntity
  8
0
100
AcDbLine
 10
107.7473941847296
 20
581.976306938822
 30
0.0
 11
107.7473941847296
 21
573.3619475848765
 31
0.0
  0
LINE
  5
177D
330
2
100
AcDbEntity
  8
0
 48
12.0
100
AcDbLine
 10
115.2473941847296
 20
571.9191272618493
 30
0.0
 11
115.2473941847296
 21
583.4191272618493
 31
0.0
  0
LINE
  5
177E
330
2
100
AcDbEntity
  8
0
100
AcDbLine
 10
115.2473941847339
 20
498.5663135194611
 30
0.0
 11
113.7473941847334
 21
498.5663135194611
 31
0.0
  0
LINE
  5
177F
330
2
100
AcDbEntity
  8
0
100
AcDbLine
 10
115.2473941847339
 20
487.0663135194611
 30
0.0
 11
113.7473941847332
 21
487.0663135194611
 31
0.0
  0
LINE
  5
1780
330
2
100
AcDbEntity
  8
0
100
AcDbLine
 10
108.1473941847335
 20
497.8163135194611
 30
0.0
 11
107.7473941847339
 21
497.1234931964338
 31
0.0
  0
LINE
  5
1781
330
2
100
AcDbEntity
  8
0
100
AcDbLine
 10
113.7473941847334
 20
498.5663135194611
 30
0.0
 11
113.7473941847332
 21
487.0663135194611
 31
0.0
  0
LINE
  5
1782
330
2
100
AcDbEntity
  8
0
100
AcDbLine
 10
108.1473941847335
 20
497.8163135194611
 30
0.0
 11
108.1473941847335
 21
487.816313519461
 31
0.0
  0
LINE
  5
1783
330
2
100
AcDbEntity
  8
0
100
AcDbLine
 10
113.7473941847334
 20
497.8163135194611
 30
0.0
 11
108.1473941847335
 21
497.8163135194611
 31
0.0
  0
LINE
  5
1784
330
2
100
AcDbEntity
  8
0
100
AcDbLine
 10
113.7473941847332
 20
487.816313519461
 30
0.0
 11
108.1473941847335
 21
487.816313519461
 31
0.0
  0
LINE
  5
1785
330
2
100
AcDbEntity
  8
0
100
AcDbLine
 10
108.1473941847335
 20
487.816313519461
 30
0.0
 11
107.7473941847339
 21
488.5091338424883
 31
0.0
  0
LINE
  5
1786
330
2
100
AcDbEntity
  8
0
100
AcDbLine
 10
107.7473941847339
 20
497.1234931964338
 30
0.0
 11
107.7473941847339
 21
488.5091338424883
 31
0.0
  0
LINE
  5
1787
330
2
100
AcDbEntity
  8
0
 48
12.0
100
AcDbLine
 10
115.2473941847339
 20
487.0663135194611
 30
0.0
 11
115.2473941847339
 21
498.5663135194611
 31
0.0
  0
LINE
  5
1788
330
2
100
AcDbEntity
  8
0
100
AcDbLine
 10
1048.835798115394
 20
957.1091401160296
 30
0.0
 11
1050.335798115394
 21
957.1091401160296
 31
0.0
  0
LINE
  5
1789
330
2
100
AcDbEntity
  8
0
100
AcDbLine
 10
1048.835798115394
 20
968.6091401160297
 30
0.0
 11
1050.335798115395
 21
968.6091401160297
 31
0.0
  0
LINE
  5
178A
330
2
100
AcDbEntity
  8
0
100
AcDbLine
 10
1055.935798115394
 20
957.8591401160297
 30
0.0
 11
1056.335798115394
 21
958.5519604390569
 31
0.0
  0
LINE
  5
178B
330
2
100
AcDbEntity
  8
0
100
AcDbLine
 10
1050.335798115394
 20
957.1091401160296
 30
0.0
 11
1050.335798115395
 21
968.6091401160297
 31
0.0
  0
LINE
  5
178C
330
2
100
AcDbEntity
  8
0
100
AcDbLine
 10
1055.935798115394
 20
957.8591401160297
 30
0.0
 11
1055.935798115394
 21
967.8591401160296
 31
0.0
  0
LINE
  5
178D
330
2
100
AcDbEntity
  8
0
100
AcDbLine
 10
1050.335798115394
 20
957.8591401160297
 30
0.0
 11
1055.935798115394
 21
957.8591401160297
 31
0.0
  0
LINE
  5
178E
330
2
100
AcDbEntity
  8
0
100
AcDbLine
 10
1050.335798115395
 20
967.8591401160296
 30
0.0
 11
1055.935798115394
 21
967.8591401160296
 31
0.0
  0
LINE
  5
178F
330
2
100
AcDbEntity
  8
0
100
AcDbLine
 10
1055.935798115394
 20
967.8591401160296
 30
0.0
 11
1056.335798115394
 21
967.1663197930024
 31
0.0
  0
LINE
  5
1790
330
2
100
AcDbEntity
  8
0
100
AcDbLine
 10
1056.335798115394
 20
958.5519604390569
 30
0.0
 11
1056.335798115394
 21
967.1663197930024
 31
0.0
  0
LINE
  5
1791
330
2
100
AcDbEntity
  8
0
 48
12.0
100
AcDbLine
 10
1048.835798115394
 20
968.6091401160297
 30
0.0
 11
1048.835798115394
 21
957.1091401160296
 31
0.0
  0
LINE
  5
179F
330
2
100
AcDbEntity
  8
CENTER
  6
CENTERX2
100
AcDbLine
 10
1045.835798115391
 20
878.0063263736442
 30
0.0
 11
1059.335798115395
 21
878.0063263736442
 31
0.0
  0
LINE
  5
17A0
330
2
100
AcDbEntity
  8
0
100
AcDbLine
 10
1048.835798115394
 20
883.7563263736441
 30
0.0
 11
1050.335798115394
 21
883.7563263736441
 31
0.0
  0
LINE
  5
17A1
330
2
100
AcDbEntity
  8
0
100
AcDbLine
 10
1048.835798115394
 20
872.2563263736443
 30
0.0
 11
1050.335798115395
 21
872.2563263736443
 31
0.0
  0
LINE
  5
17A2
330
2
100
AcDbEntity
  8
0
100
AcDbLine
 10
1055.935798115394
 20
883.0063263736443
 30
0.0
 11
1056.335798115394
 21
882.3135060506169
 31
0.0
  0
LINE
  5
17A3
330
2
100
AcDbEntity
  8
0
100
AcDbLine
 10
1050.335798115394
 20
883.7563263736441
 30
0.0
 11
1050.335798115395
 21
872.2563263736443
 31
0.0
  0
LINE
  5
17A4
330
2
100
AcDbEntity
  8
0
100
AcDbLine
 10
1055.935798115394
 20
883.0063263736443
 30
0.0
 11
1055.935798115394
 21
873.0063263736441
 31
0.0
  0
LINE
  5
17A5
330
2
100
AcDbEntity
  8
0
100
AcDbLine
 10
1050.335798115394
 20
883.0063263736443
 30
0.0
 11
1055.935798115394
 21
883.0063263736443
 31
0.0
  0
LINE
  5
17A6
330
2
100
AcDbEntity
  8
0
100
AcDbLine
 10
1050.335798115395
 20
873.0063263736441
 30
0.0
 11
1055.935798115394
 21
873.0063263736441
 31
0.0
  0
LINE
  5
17A7
330
2
100
AcDbEntity
  8
0
100
AcDbLine
 10
1055.935798115394
 20
873.0063263736441
 30
0.0
 11
1056.335798115394
 21
873.6991466966715
 31
0.0
  0
LINE
  5
17A8
330
2
100
AcDbEntity
  8
0
100
AcDbLine
 10
1056.335798115394
 20
882.3135060506169
 30
0.0
 11
1056.335798115394
 21
873.6991466966715
 31
0.0
  0
LINE
  5
17A9
330
2
100
AcDbEntity
  8
0
 48
12.0
100
AcDbLine
 10
1048.835798115394
 20
872.2563263736443
 30
0.0
 11
1048.835798115394
 21
883.7563263736441
 31
0.0
  0
LINE
  5
192D
330
2
100
AcDbEntity
  8
0
100
AcDbLine
 10
1332.590447210675
 20
579.357490344083
 30
0.0
 11
1332.590447210671
 21
583.4964970668047
 31
0.0
  0
LINE
  5
1930
330
2
100
AcDbEntity
  8
0
100
AcDbLine
 10
1354.780248611503
 20
586.4602638205311
 30
0.0
 11
1340.51201531943
 21
586.3203797565898
 31
0.0
  0
TEXT
  5
1B9D
330
2
100
AcDbEntity
  8
TITLE
100
AcDbText
 10
534.4750574213149
 20
964.7157206998315
 30
0.0
 40
10.0
  1
AFCZ32H-10~30M1000K22
100
AcDbText
  0
TEXT
  5
1B9E
330
2
100
AcDbEntity
  8
TITLE
100
AcDbText
 10
534.4750574213149
 20
949.4372968809631
 30
0.0
 40
10.0
  1
AFCZ32H-10~30L1000K22
100
AcDbText
  0
LINE
  5
1E87
330
2
100
AcDbEntity
  8
0
100
AcDbLine
 10
445.3890748341662
 20
492.7427203905158
 30
0.0
 11
446.6890748341655
 21
492.7427203905158
 31
0.0
  0
LINE
  5
1E88
330
2
100
AcDbEntity
  8
0
100
AcDbLine
 10
445.3890748341699
 20
577.7427203905158
 30
0.0
 11
446.6890748341691
 21
577.7427203905158
 31
0.0
  0
LINE
  5
1E89
330
2
100
AcDbEntity
  8
CENTER
100
AcDbLine
 10
434.3890748341699
 20
535.2427203905151
 30
0.0
 11
650.3890715053603
 21
535.2427203905158
 31
0.0
  0
LINE
  5
1E8B
330
2
100
AcDbEntity
  8
0
100
AcDbLine
 10
445.3890748341699
 20
577.7427203905158
 30
0.0
 11
445.3890748341662
 21
492.7427203905158
 31
0.0
  0
LINE
  5
1E8C
330
2
100
AcDbEntity
  8
0
100
AcDbLine
 10
444.3890748341699
 20
577.1653701213276
 30
0.0
 11
444.3890748341699
 21
493.320070659704
 31
0.0
  0
LINE
  5
1E8D
330
2
100
AcDbEntity
  8
0
100
AcDbLine
 10
445.3890748341662
 20
492.7427203905158
 30
0.0
 11
444.3890748341662
 21
493.3200706597058
 31
0.0
  0
LINE
  5
1E8E
330
2
100
AcDbEntity
  8
0
100
AcDbLine
 10
445.3890748341699
 20
577.7427203905158
 30
0.0
 11
444.3890748341699
 21
577.1653701213276
 31
0.0
  0
LINE
  5
1E93
330
2
100
AcDbEntity
  8
0
100
AcDbLine
 10
475.3890748341699
 20
467.7427203906031
 30
0.0
 11
475.3890748341699
 21
602.7427203906031
 31
0.0
  0
LINE
  5
1E94
330
2
100
AcDbEntity
  8
0
100
AcDbLine
 10
454.8890748341644
 20
469.9042436014174
 30
0.0
 11
454.8890748341644
 21
600.5811971796161
 31
0.0
  0
LINE
  5
1E95
330
2
100
AcDbEntity
  8
0
100
AcDbLine
 10
452.3890748341663
 20
490.7427203905158
 30
0.0
 11
452.3890748341663
 21
579.7427203905122
 31
0.0
  0
LINE
  5
1E96
330
2
100
AcDbEntity
  8
0
100
AcDbLine
 10
446.8890748341663
 20
492.9427203905166
 30
0.0
 11
446.8890748341008
 21
577.5427203905169
 31
0.0
  0
LINE
  5
1E97
330
2
100
AcDbEntity
  8
0
100
AcDbLine
 10
448.8890748341662
 20
492.9427203905166
 30
0.0
 11
448.8890748341662
 21
577.5427203905133
 31
0.0
  0
LINE
  5
1E98
330
2
100
AcDbEntity
  8
0
100
AcDbLine
 10
452.8890748341645
 20
483.0711475152624
 30
0.0
 11
452.8890748341772
 21
587.414293265771
 31
0.0
  0
LINE
  5
1E99
330
2
100
AcDbEntity
  8
0
100
AcDbLine
 10
564.3890715053611
 20
601.9660291862769
 30
0.0
 11
564.3890715053593
 21
468.5194115949311
 31
0.0
  0
LINE
  5
1E9A
330
2
100
AcDbEntity
  8
0
100
AcDbLine
 10
569.3890715053592
 20
475.2427203906031
 30
0.0
 11
569.3890715053592
 21
595.2427203906031
 31
0.0
  0
LINE
  5
1E9B
330
2
100
AcDbEntity
  8
0
100
AcDbLine
 10
583.3890715053593
 20
493.6740979401315
 30
0.0
 11
583.3890715053593
 21
576.8113428409019
 31
0.0
  0
LINE
  5
1E9C
330
2
100
AcDbEntity
  8
CENTER
100
AcDbLine
 10
511.3890748341703
 20
453.0568876310707
 30
0.0
 11
511.3890748341694
 21
617.4285531501363
 31
0.0
  0
LINE
  5
1E9D
330
2
100
AcDbEntity
  8
0
100
AcDbLine
 10
564.3890715053593
 20
481.7427203902557
 30
0.0
 11
475.3890748341699
 21
481.7427203902557
 31
0.0
  0
LINE
  5
1E9E
330
2
100
AcDbEntity
  8
0
100
AcDbLine
 10
564.3890715053593
 20
477.7427203902557
 30
0.0
 11
475.3890748341699
 21
477.7427203902557
 31
0.0
  0
LINE
  5
1E9F
330
2
100
AcDbEntity
  8
0
100
AcDbLine
 10
475.3890748341699
 20
467.7427203906031
 30
0.0
 11
564.3890715053593
 21
468.5194115949311
 31
0.0
  0
LINE
  5
1EA0
330
2
100
AcDbEntity
  8
0
100
AcDbLine
 10
564.3890715053593
 20
507.5745252263482
 30
0.0
 11
475.3890748341699
 21
507.5745252263482
 31
0.0
  0
LINE
  5
1EA1
330
2
100
AcDbEntity
  8
0
100
AcDbLine
 10
465.3890748341608
 20
485.7470647852192
 30
0.0
 11
465.3890748341608
 21
468.8213002790202
 31
0.0
  0
LINE
  5
1EA2
330
2
100
AcDbEntity
  8
0
100
AcDbLine
 10
455.8890748341609
 20
471.2427203905158
 30
0.0
 11
455.8890748341609
 21
484.2427203905158
 31
0.0
  0
LINE
  5
1EA3
330
2
100
AcDbEntity
  8
0
100
AcDbLine
 10
455.3890748341608
 20
472.1087457942998
 30
0.0
 11
455.3890748341608
 21
483.3766949867299
 31
0.0
  0
LINE
  5
1EA4
330
2
100
AcDbEntity
  8
0
100
AcDbLine
 10
463.3890748341608
 20
471.2427203905158
 30
0.0
 11
463.3890748341608
 21
484.2427203905158
 31
0.0
  0
LINE
  5
1EA5
330
2
100
AcDbEntity
  8
0
100
AcDbLine
 10
456.8716217631726
 20
467.9043197552896
 30
0.0
 11
475.3890748341699
 21
467.7427203905158
 31
0.0
  0
LINE
  5
1EA6
330
2
100
AcDbEntity
  8
0
100
AcDbLine
 10
463.3890748341608
 20
471.2427203905158
 30
0.0
 11
455.8890748341609
 21
471.2427203905158
 31
0.0
  0
LINE
  5
1EA7
330
2
100
AcDbEntity
  8
0
100
AcDbLine
 10
455.8890748341609
 20
471.2427203905158
 30
0.0
 11
455.3890748341608
 21
472.1087457942998
 31
0.0
  0
ARC
  5
1EA8
330
2
100
AcDbEntity
  8
0
100
AcDbCircle
 10
456.8890748341699
 20
469.9042436014174
 30
0.0
 40
2.0
100
AcDbArc
 50
180.0
 51
269.5000000000345
  0
ARC
  5
1EA9
330
2
100
AcDbEntity
  8
0
100
AcDbCircle
 10
466.3890748341608
 20
468.8213002790202
 30
0.0
 40
1.0
100
AcDbArc
 50
180.0
 51
269.4999999999824
  0
LINE
  5
1EAA
330
2
100
AcDbEntity
  8
0
100
AcDbLine
 10
456.8716217631671
 20
507.5745252263482
 30
0.0
 11
475.3890748341699
 21
507.5745252263482
 31
0.0
  0
ARC
  5
1EAB
330
2
100
AcDbEntity
  8
0
100
AcDbCircle
 10
448.6890748341656
 20
493.2427203905158
 30
0.0
 40
0.2
100
AcDbArc
 50
0.0
 51
90.0
  0
ARC
  5
1EAC
330
2
100
AcDbEntity
  8
0
100
AcDbCircle
 10
447.0890748341652
 20
493.2427203905158
 30
0.0
 40
0.2
100
AcDbArc
 50
90.0
 51
180.0
  0
ARC
  5
1EAD
330
2
100
AcDbEntity
  8
0
100
AcDbCircle
 10
446.6890748341655
 20
492.9427203905166
 30
0.0
 40
0.2
100
AcDbArc
 50
270.0
 51
0.0
  0
LINE
  5
1EAE
330
2
100
AcDbEntity
  8
0
100
AcDbLine
 10
449.0890748341652
 20
492.7427203905158
 30
0.0
 11
452.3890748341663
 21
492.7427203905158
 31
0.0
  0
LINE
  5
1EAF
330
2
100
AcDbEntity
  8
0
100
AcDbLine
 10
447.0890748341652
 20
493.4427203905165
 30
0.0
 11
448.6890748341656
 21
493.4427203905165
 31
0.0
  0
LINE
  5
1EB0
330
2
100
AcDbEntity
  8
0
100
AcDbLine
 10
448.8890748341662
 20
492.9427203905166
 30
0.0
 11
449.0890748341652
 21
492.7427203905158
 31
0.0
  0
LINE
  5
1EB1
330
2
100
AcDbEntity
  8
0
100
AcDbLine
 10
452.8890748341662
 20
490.2427203905158
 30
0.0
 11
452.3890748341663
 21
490.7427203905158
 31
0.0
  0
LINE
  5
1EB2
330
2
100
AcDbEntity
  8
0
100
AcDbLine
 10
466.380348298663
 20
481.7427203905158
 30
0.0
 11
475.3890748341699
 21
481.7427203905158
 31
0.0
  0
LINE
  5
1EB3
330
2
100
AcDbEntity
  8
0
100
AcDbLine
 10
466.380348298663
 20
477.7427203905158
 30
0.0
 11
475.3890748341699
 21
477.7427203905158
 31
0.0
  0
LINE
  5
1EB4
330
2
100
AcDbEntity
  8
0
100
AcDbLine
 10
463.3890748341608
 20
484.2427203905158
 30
0.0
 11
455.8890748341609
 21
484.2427203905158
 31
0.0
  0
LINE
  5
1EB5
330
2
100
AcDbEntity
  8
0
100
AcDbLine
 10
455.8890748341609
 20
484.2427203905158
 30
0.0
 11
455.3890748341608
 21
483.3766949867299
 31
0.0
  0
ARC
  5
1EB6
330
2
100
AcDbEntity
  8
0
100
AcDbCircle
 10
452.8890748341645
 20
479.414293265771
 30
0.0
 40
2.0
100
AcDbArc
 50
0.0
 51
44.99999999999058
  0
ARC
  5
1EB7
330
2
100
AcDbEntity
  8
0
100
AcDbCircle
 10
454.8890748341644
 20
483.0711475152624
 30
0.0
 40
2.0
100
AcDbArc
 50
180.0
 51
224.9999999999905
  0
LINE
  5
1EB8
330
2
100
AcDbEntity
  8
0
100
AcDbLine
 10
454.3032883965378
 20
480.8285068281425
 30
0.0
 11
453.4748612717911
 21
481.6569339528891
 31
0.0
  0
LINE
  5
1EB9
330
2
100
AcDbEntity
  8
0
100
AcDbLine
 10
464.8934381019087
 20
486.2470457467538
 30
0.0
 11
456.8716217631671
 21
486.3170510773839
 31
0.0
  0
ARC
  5
1EBA
330
2
100
AcDbEntity
  8
0
100
AcDbCircle
 10
456.8890748341645
 20
488.3169749235117
 30
0.0
 40
2.0
100
AcDbArc
 50
180.0
 51
269.5000000000345
  0
ARC
  5
1EBB
330
2
100
AcDbEntity
  8
0
100
AcDbCircle
 10
464.8890748341608
 20
485.7470647852192
 30
0.0
 40
0.5
100
AcDbArc
 50
0.0
 51
89.49999999998238
  0
LINE
  5
1EBC
330
2
100
AcDbEntity
  8
0
100
AcDbLine
 10
564.3890715053593
 20
475.2427203906031
 30
0.0
 11
569.3890715053592
 21
475.2427203906031
 31
0.0
  0
LINE
  5
1EBD
330
2
100
AcDbEntity
  8
0
100
AcDbLine
 10
581.4588704987644
 20
491.6753162860918
 30
0.0
 11
571.3192725119541
 21
491.3212337220561
 31
0.0
  0
ARC
  5
1EBE
330
2
100
AcDbEntity
  8
0
100
AcDbCircle
 10
581.3890715053593
 20
493.6740979401315
 30
0.0
 40
2.0
100
AcDbArc
 50
272.0000000000036
 51
0.0
  0
ARC
  5
1EBF
330
2
100
AcDbEntity
  8
0
100
AcDbCircle
 10
571.3890715053593
 20
489.3224520680182
 30
0.0
 40
2.0
100
AcDbArc
 50
92.00000000000365
 51
180.0
  0
LINE
  5
1EC6
330
2
100
AcDbEntity
  8
0
100
AcDbLine
 10
564.3890715053593
 20
562.9109155546853
 30
0.0
 11
475.3890748341699
 21
562.9109155546853
 31
0.0
  0
LINE
  5
1EC7
330
2
100
AcDbEntity
  8
0
100
AcDbLine
 10
564.3890715053593
 20
588.7427203907777
 30
0.0
 11
475.3890748341699
 21
588.7427203907777
 31
0.0
  0
LINE
  5
1EC8
330
2
100
AcDbEntity
  8
0
100
AcDbLine
 10
564.3890715053593
 20
592.7427203907777
 30
0.0
 11
475.3890748341699
 21
592.7427203907777
 31
0.0
  0
LINE
  5
1EC9
330
2
100
AcDbEntity
  8
0
100
AcDbLine
 10
564.3890715053611
 20
601.9660291862769
 30
0.0
 11
475.3890748341699
 21
602.7427203906031
 31
0.0
  0
LINE
  5
1ECA
330
2
100
AcDbEntity
  8
0
100
AcDbLine
 10
456.8716217631671
 20
562.9109155546853
 30
0.0
 11
475.3890748341699
 21
562.9109155546853
 31
0.0
  0
LINE
  5
1ECB
330
2
100
AcDbEntity
  8
0
100
AcDbLine
 10
456.8716217631726
 20
602.5811210257439
 30
0.0
 11
475.3890748341699
 21
602.7427203905176
 31
0.0
  0
LINE
  5
1ECC
330
2
100
AcDbEntity
  8
0
100
AcDbLine
 10
466.380348298663
 20
588.7427203905176
 30
0.0
 11
475.3890748341699
 21
588.7427203905176
 31
0.0
  0
LINE
  5
1ECD
330
2
100
AcDbEntity
  8
0
100
AcDbLine
 10
466.380348298663
 20
592.7427203905176
 30
0.0
 11
475.3890748341699
 21
592.7427203905176
 31
0.0
  0
LINE
  5
1ECE
330
2
100
AcDbEntity
  8
0
100
AcDbLine
 10
463.3890748341608
 20
599.2427203905176
 30
0.0
 11
455.8890748341609
 21
599.2427203905176
 31
0.0
  0
LINE
  5
1ECF
330
2
100
AcDbEntity
  8
0
100
AcDbLine
 10
463.3890748341608
 20
586.2427203905176
 30
0.0
 11
455.8890748341609
 21
586.2427203905176
 31
0.0
  0
LINE
  5
1ED0
330
2
100
AcDbEntity
  8
0
100
AcDbLine
 10
464.8934381019087
 20
584.2383950342796
 30
0.0
 11
456.8716217631671
 21
584.1683897036496
 31
0.0
  0
LINE
  5
1ED1
330
2
100
AcDbEntity
  8
0
100
AcDbLine
 10
455.8890748341609
 20
599.2427203905176
 30
0.0
 11
455.8890748341609
 21
586.2427203905176
 31
0.0
  0
LINE
  5
1ED2
330
2
100
AcDbEntity
  8
0
100
AcDbLine
 10
455.8890748341609
 20
599.2427203905176
 30
0.0
 11
455.3890748341608
 21
598.3766949867336
 31
0.0
  0
LINE
  5
1ED3
330
2
100
AcDbEntity
  8
0
100
AcDbLine
 10
455.8890748341609
 20
586.2427203905176
 30
0.0
 11
455.3890748341608
 21
587.1087457943035
 31
0.0
  0
LINE
  5
1ED4
330
2
100
AcDbEntity
  8
0
100
AcDbLine
 10
455.3890748341608
 20
598.3766949867336
 30
0.0
 11
455.3890748341608
 21
587.1087457943035
 31
0.0
  0
ARC
  5
1ED5
330
2
100
AcDbEntity
  8
0
100
AcDbCircle
 10
456.8890748341645
 20
582.1684658575218
 30
0.0
 40
2.0
100
AcDbArc
 50
90.49999999996549
 51
180.0
  0
ARC
  5
1ED6
330
2
100
AcDbEntity
  8
0
100
AcDbCircle
 10
448.6890748341692
 20
577.2427203905176
 30
0.0
 40
0.2
100
AcDbArc
 50
270.0
 51
0.0
  0
ARC
  5
1ED7
330
2
100
AcDbEntity
  8
0
100
AcDbCircle
 10
447.0890748341688
 20
577.2427203905176
 30
0.0
 40
0.2
100
AcDbArc
 50
180.0
 51
270.0
  0
ARC
  5
1ED8
330
2
100
AcDbEntity
  8
0
100
AcDbCircle
 10
446.6890748341691
 20
577.5427203905169
 30
0.0
 40
0.2
100
AcDbArc
 50
0.0
 51
90.0
  0
ARC
  5
1ED9
330
2
100
AcDbEntity
  8
0
100
AcDbCircle
 10
452.8890748341699
 20
591.0711475152624
 30
0.0
 40
2.0
100
AcDbArc
 50
315.0000000000094
 51
0.0
  0
ARC
  5
1EDA
330
2
100
AcDbEntity
  8
0
100
AcDbCircle
 10
454.8890748341699
 20
587.414293265771
 30
0.0
 40
2.0
100
AcDbArc
 50
135.0000000000094
 51
180.0
  0
LINE
  5
1EDB
330
2
100
AcDbEntity
  8
0
100
AcDbLine
 10
449.0890748341688
 20
577.7427203905158
 30
0.0
 11
452.3890748341699
 21
577.7427203905158
 31
0.0
  0
LINE
  5
1EDC
330
2
100
AcDbEntity
  8
0
100
AcDbLine
 10
447.0890748341688
 20
577.0427203905169
 30
0.0
 11
448.6890748341692
 21
577.0427203905169
 31
0.0
  0
LINE
  5
1EDD
330
2
100
AcDbEntity
  8
0
100
AcDbLine
 10
448.8890748341699
 20
577.5427203905169
 30
0.0
 11
449.0890748341688
 21
577.7427203905158
 31
0.0
  0
LINE
  5
1EDE
330
2
100
AcDbEntity
  8
0
100
AcDbLine
 10
452.8890748341699
 20
580.2427203905158
 30
0.0
 11
452.3890748341699
 21
579.7427203905158
 31
0.0
  0
LINE
  5
1EDF
330
2
100
AcDbEntity
  8
0
100
AcDbLine
 10
454.3032883965432
 20
589.6569339528891
 30
0.0
 11
453.4748612717966
 21
588.8285068281443
 31
0.0
  0
ARC
  5
1EE0
330
2
100
AcDbEntity
  8
0
100
AcDbCircle
 10
456.8890748341699
 20
600.5811971796161
 30
0.0
 40
2.0
100
AcDbArc
 50
90.49999999996549
 51
180.0
  0
LINE
  5
1EE1
330
2
100
AcDbEntity
  8
0
100
AcDbLine
 10
463.3890748341608
 20
599.2427203905176
 30
0.0
 11
463.3890748341608
 21
586.2427203905176
 31
0.0
  0
LINE
  5
1EE2
330
2
100
AcDbEntity
  8
0
100
AcDbLine
 10
465.3890748341608
 20
599.2427203905176
 30
0.0
 11
465.3890748341608
 21
586.2427203905176
 31
0.0
  0
ARC
  5
1EE3
330
2
100
AcDbEntity
  8
0
100
AcDbCircle
 10
466.3890748341608
 20
601.6641405020132
 30
0.0
 40
1.0
100
AcDbArc
 50
90.50000000001761
 51
180.0
  0
ARC
  5
1EE4
330
2
100
AcDbEntity
  8
0
100
AcDbCircle
 10
464.8890748341608
 20
584.7383759958143
 30
0.0
 40
0.5
100
AcDbArc
 50
270.5000000000175
 51
0.0
  0
LINE
  5
1EE5
330
2
100
AcDbEntity
  8
0
100
AcDbLine
 10
465.3890748341608
 20
584.7383759958143
 30
0.0
 11
465.3890748341608
 21
601.6641405020132
 31
0.0
  0
LINE
  5
1EE6
330
2
100
AcDbEntity
  8
0
100
AcDbLine
 10
581.4588704987644
 20
578.8101244949416
 30
0.0
 11
571.3192725119541
 21
579.1642070589773
 31
0.0
  0
LINE
  5
1EE7
330
2
100
AcDbEntity
  8
0
100
AcDbLine
 10
564.3890715053593
 20
595.2427203906031
 30
0.0
 11
569.3890715053592
 21
595.2427203906031
 31
0.0
  0
ARC
  5
1EE8
330
2
100
AcDbEntity
  8
0
100
AcDbCircle
 10
571.3890715053593
 20
581.1629887130152
 30
0.0
 40
2.0
100
AcDbArc
 50
180.0
 51
267.9999999999963
  0
ARC
  5
1EE9
330
2
100
AcDbEntity
  8
0
100
AcDbCircle
 10
581.3890715053593
 20
576.8113428409019
 30
0.0
 40
2.0
100
AcDbArc
 50
0.0
 51
87.99999999999636
  0
LINE
  5
1EFB
330
2
100
AcDbEntity
  8
0
 48
0.3
100
AcDbLine
 10
463.3890748341608
 20
599.9927203905176
 30
0.0
 11
463.3890748341608
 21
585.4927203905176
 31
0.0
  0
LINE
  5
1EFC
330
2
100
AcDbEntity
  8
0
 48
0.3
100
AcDbLine
 10
463.3890748341608
 20
585.4927203905176
 30
0.0
 11
465.3890748341608
 21
585.4927203905176
 31
0.0
  0
LINE
  5
1EFD
330
2
100
AcDbEntity
  8
0
 48
0.3
100
AcDbLine
 10
463.3890748341608
 20
599.9927203905176
 30
0.0
 11
465.3890748341608
 21
599.9927203905176
 31
0.0
  0
LINE
  5
1EFE
330
2
100
AcDbEntity
  8
0
100
AcDbLine
 10
465.3890748341608
 20
599.9927203905176
 30
0.0
 11
465.3890748341608
 21
585.4927203905176
 31
0.0
  0
LINE
  5
1EFF
330
2
100
AcDbEntity
  8
0
 48
0.3
100
AcDbLine
 10
463.3890748341608
 20
484.9927203905158
 30
0.0
 11
463.3890748341608
 21
470.4927203905158
 31
0.0
  0
LINE
  5
1F00
330
2
100
AcDbEntity
  8
0
 48
0.3
100
AcDbLine
 10
463.3890748341608
 20
470.4927203905158
 30
0.0
 11
465.3890748341608
 21
470.4927203905158
 31
0.0
  0
LINE
  5
1F01
330
2
100
AcDbEntity
  8
0
 48
0.3
100
AcDbLine
 10
463.3890748341608
 20
484.9927203905158
 30
0.0
 11
465.3890748341608
 21
484.9927203905158
 31
0.0
  0
LINE
  5
1F02
330
2
100
AcDbEntity
  8
0
100
AcDbLine
 10
465.3890748341608
 20
484.9927203905158
 30
0.0
 11
465.3890748341608
 21
470.4927203905158
 31
0.0
  0
LINE
  5
1F03
330
2
100
AcDbEntity
  8
CENTER
100
AcDbLine
 10
469.3890748341608
 20
592.7427203905176
 30
0.0
 11
452.3890748341608
 21
592.7427203905176
 31
0.0
  0
LINE
  5
1F04
330
2
100
AcDbEntity
  8
CENTER
100
AcDbLine
 10
469.3890748341608
 20
477.7427203905158
 30
0.0
 11
452.3890748341608
 21
477.7427203905158
 31
0.0
  0
LINE
  5
20A2
330
2
100
AcDbEntity
  8
0
100
AcDbLine
 10
1309.590447210757
 20
517.7427203906898
 30
0.0
 11
1309.590447210757
 21
552.7427203906897
 31
0.0
  0
LINE
  5
20A3
330
2
100
AcDbEntity
  8
0
100
AcDbLine
 10
1310.590447210757
 20
511.5313955252847
 30
0.0
 11
1310.590447210757
 21
558.9540452560948
 31
0.0
  0
LINE
  5
20A4
330
2
100
AcDbEntity
  8
0
100
AcDbLine
 10
1254.590447210757
 20
519.2427203906897
 30
0.0
 11
1254.590447210757
 21
551.2427203906797
 31
0.0
  0
LINE
  5
20A5
330
2
100
AcDbEntity
  8
0
100
AcDbLine
 10
1309.590447210757
 20
517.7427203906898
 30
0.0
 11
1310.590447210757
 21
517.1653701214998
 31
0.0
  0
ARC
  5
20A6
330
2
100
AcDbEntity
  8
0
100
AcDbCircle
 10
1311.090447210757
 20
511.5313955252847
 30
0.0
 40
0.5
100
AcDbArc
 50
180.0
 51
239.999999999999
  0
LINE
  5
20A7
330
2
100
AcDbEntity
  8
0
100
AcDbLine
 10
1309.590447210757
 20
519.2427203906897
 30
0.0
 11
1254.590447210757
 21
519.2427203906897
 31
0.0
  0
ARC
  5
20A8
330
2
100
AcDbEntity
  8
0
100
AcDbCircle
 10
1311.992370999403
 20
512.7427203906897
 30
0.0
 40
2.0
100
AcDbArc
 50
239.999999999999
 51
258.4067863765155
  0
LINE
  5
20A9
330
2
100
AcDbEntity
  8
0
100
AcDbLine
 10
1310.992370999403
 20
511.0106695831206
 30
0.0
 11
1310.840447210757
 21
511.0983828233918
 31
0.0
  0
ARC
  5
20AA
330
2
100
AcDbEntity
  8
0
100
AcDbCircle
 10
1311.090447210757
 20
558.9540452560948
 30
0.0
 40
0.5
100
AcDbArc
 50
120.0000000000009
 51
180.0
  0
LINE
  5
20AB
330
2
100
AcDbEntity
  8
0
100
AcDbLine
 10
1309.590447210757
 20
552.7427203906897
 30
0.0
 11
1310.590447210757
 21
553.3200706598798
 31
0.0
  0
LINE
  5
20AC
330
2
100
AcDbEntity
  8
0
100
AcDbLine
 10
1254.590447210757
 20
551.2427203906797
 30
0.0
 11
1309.590447210757
 21
551.2427203906898
 31
0.0
  0
ARC
  5
20AD
330
2
100
AcDbEntity
  8
0
100
AcDbCircle
 10
1311.992370999403
 20
557.7427203906897
 30
0.0
 40
2.0
100
AcDbArc
 50
101.5932136234844
 51
120.0000000000009
  0
LINE
  5
20AE
330
2
100
AcDbEntity
  8
0
100
AcDbLine
 10
1310.992370999403
 20
559.4747711982588
 30
0.0
 11
1310.840447210757
 21
559.3870579579877
 31
0.0
  0
LINE
  5
24AB
330
2
100
AcDbEntity
  8
0
100
AcDbLine
 10
1035.335798115394
 20
586.2427203907778
 30
0.0
 11
1082.887484373554
 21
586.2427203907782
 31
0.0
  0
ARC
  5
24AD
330
2
100
AcDbEntity
  8
0
100
AcDbCircle
 10
1106.80119264162
 20
487.2427203907777
 30
0.0
 40
2.0
100
AcDbArc
 50
180.9999999999887
 51
270.0
  0
LINE
  5
24AE
330
2
100
AcDbEntity
  8
0
100
AcDbLine
 10
1035.335798115394
 20
586.2427203907778
 30
0.0
 11
1035.335798115394
 21
484.2427203907777
 31
0.0
  0
LINE
  5
24AF
330
2
100
AcDbEntity
  8
0
100
AcDbLine
 10
1035.335798115394
 20
535.2427203907778
 30
0.0
 11
1119.835798115398
 21
535.2427203907778
 31
0.0
  0
LINE
  5
24B0
330
2
100
AcDbEntity
  8
0
100
AcDbLine
 10
1103.963044868981
 20
535.2427203907772
 30
0.0
 11
1104.801497251307
 21
487.2078155779036
 31
0.0
  0
LINE
  5
24B1
330
2
100
AcDbEntity
  8
CENTER
100
AcDbLine
 10
1101.335798115398
 20
592.7427203907777
 30
0.0
 11
1101.335798115398
 21
577.958869331836
 31
0.0
  0
LINE
  5
24B2
330
2
100
AcDbEntity
  8
0
100
AcDbLine
 10
1035.335798115394
 20
484.2427203907768
 30
0.0
 11
1082.887484373554
 21
484.2427203907768
 31
0.0
  0
ARC
  5
24B3
330
2
100
AcDbEntity
  8
0
100
AcDbCircle
 10
1106.80119264162
 20
583.2427203907773
 30
0.0
 40
2.0
100
AcDbArc
 50
90.0
 51
178.9999999999982
  0
LINE
  5
24B4
330
2
100
AcDbEntity
  8
0
100
AcDbLine
 10
1104.616673939904
 20
572.6891047848271
 30
0.0
 11
1104.801497251307
 21
583.2776252036519
 31
0.0
  0
LINE
  5
24B5
330
2
100
AcDbEntity
  8
0
100
AcDbLine
 10
1049.726006426734
 20
535.2427203907772
 30
0.0
 11
1048.870098979476
 21
486.2078155779022
 31
0.0
  0
ARC
  5
24B6
330
2
100
AcDbEntity
  8
0
100
AcDbCircle
 10
1046.870403589162
 20
486.2427203907769
 30
0.0
 40
2.0
100
AcDbArc
 50
270.0
 51
358.9999999999982
  0
LINE
  5
24B7
330
2
100
AcDbEntity
  8
0
100
AcDbLine
 10
1049.366263203278
 20
555.8523958595219
 30
0.0
 11
1048.870098979476
 21
584.2776252036528
 31
0.0
  0
ARC
  5
24B8
330
2
100
AcDbEntity
  8
0
100
AcDbCircle
 10
1046.870403589162
 20
584.2427203907782
 30
0.0
 40
2.0
100
AcDbArc
 50
1.000000000001762
 51
90.0
  0
ARC
  5
24B9
330
2
100
AcDbEntity
  8
0
100
AcDbCircle
 10
1085.533235684619
 20
587.2427203907773
 30
0.0
 40
2.0
100
AcDbArc
 50
228.5903778907302
 51
270.0
  0
ARC
  5
24BA
330
2
100
AcDbEntity
  8
0
100
AcDbCircle
 10
1085.533235684619
 20
483.2427203907782
 30
0.0
 40
2.0
100
AcDbArc
 50
90.0
 51
131.4096221092696
  0
LINE
  5
24BB
330
2
100
AcDbEntity
  8
0
100
AcDbLine
 10
1049.516154900228
 20
585.2427203907778
 30
0.0
 11
1082.913670295123
 21
585.2427203907782
 31
0.0
  0
ARC
  5
24BC
330
2
100
AcDbEntity
  8
0
100
AcDbCircle
 10
1082.913670295123
 20
583.2427203907782
 30
0.0
 40
2.0
100
AcDbArc
 50
1.499999999989629
 51
90.0
  0
ARC
  5
24BD
330
2
100
AcDbEntity
  8
0
100
AcDbCircle
 10
1087.052517553325
 20
577.9927203907777
 30
0.0
 40
2.0
100
AcDbArc
 50
181.4999999999766
 51
270.0
  0
LINE
  5
24BE
330
2
100
AcDbEntity
  8
0
100
AcDbLine
 10
1082.4501388948
 20
565.7427203907777
 30
0.0
 11
1052.141718735771
 21
565.7427203907777
 31
0.0
  0
ARC
  5
24BF
330
2
100
AcDbEntity
  8
0
100
AcDbCircle
 10
1082.4501388948
 20
562.7427203907777
 30
0.0
 40
3.0
100
AcDbArc
 50
1.500000000002653
 51
90.0
  0
ARC
  5
24C0
330
2
100
AcDbEntity
  8
0
100
AcDbCircle
 10
1052.141718735772
 20
501.7427203907782
 30
0.0
 40
3.0
100
AcDbArc
 50
90.0
 51
178.9999999999851
  0
LINE
  5
24C1
330
2
100
AcDbEntity
  8
0
100
AcDbLine
 10
1088.686776306124
 20
574.7227203907773
 30
0.0
 11
1100.524162438537
 21
574.7227203907773
 31
0.0
  0
ARC
  5
24C2
330
2
100
AcDbEntity
  8
0
100
AcDbCircle
 10
1092.801192641634
 20
583.2427203907777
 30
0.0
 40
2.0
100
AcDbArc
 50
90.0
 51
178.9999999999982
  0
LINE
  5
24C3
330
2
100
AcDbEntity
  8
0
100
AcDbLine
 10
1090.801497251321
 20
583.2776252036524
 30
0.0
 11
1090.686471696437
 21
576.6878155779031
 31
0.0
  0
ARC
  5
24C4
330
2
100
AcDbEntity
  8
0
100
AcDbCircle
 10
1052.141718735771
 20
568.7427203907778
 30
0.0
 40
3.0
100
AcDbArc
 50
181.0000000000017
 51
270.0
  0
ARC
  5
24C5
330
2
100
AcDbEntity
  8
0
100
AcDbCircle
 10
1049.516154900228
 20
587.2427203907773
 30
0.0
 40
2.0
100
AcDbArc
 50
228.590377890714
 51
270.0
  0
LINE
  5
24C6
330
2
100
AcDbEntity
  8
0
100
AcDbLine
 10
1084.886799023508
 20
584.2950742873922
 30
0.0
 11
1085.05346476259
 21
577.9303664941616
 31
0.0
  0
LINE
  5
24C7
330
2
100
AcDbEntity
  8
0
100
AcDbLine
 10
1085.449110869727
 20
562.8212512357013
 30
0.0
 11
1085.618570040971
 21
556.3498665721586
 31
0.0
  0
ARC
  5
24C8
330
2
100
AcDbEntity
  8
0
100
AcDbCircle
 10
1082.887484373554
 20
584.2427203907773
 30
0.0
 40
2.0
100
AcDbArc
 50
1.500000000015673
 51
90.0
  0
LINE
  5
24C9
330
2
100
AcDbEntity
  8
0
100
AcDbLine
 10
1084.886799023506
 20
486.1903664941624
 30
0.0
 11
1085.053464762591
 21
492.5550742873934
 31
0.0
  0
ARC
  5
24CA
330
2
100
AcDbEntity
  8
0
100
AcDbCircle
 10
1087.052517553327
 20
492.4927203907773
 30
0.0
 40
2.0
100
AcDbArc
 50
90.0
 51
178.4999999999973
  0
LINE
  5
24CB
330
2
100
AcDbEntity
  8
0
100
AcDbLine
 10
1085.449110869728
 20
507.6641895458546
 30
0.0
 11
1086.171280115426
 21
535.2427203907778
 31
0.0
  0
ARC
  5
24CC
330
2
100
AcDbEntity
  8
0
100
AcDbCircle
 10
1082.450138894802
 20
507.7427203907782
 30
0.0
 40
3.0
100
AcDbArc
 50
270.0
 51
358.4999999999973
  0
ARC
  5
24CD
330
2
100
AcDbEntity
  8
0
100
AcDbCircle
 10
1082.887484373554
 20
486.2427203907782
 30
0.0
 40
2.0
100
AcDbArc
 50
270.0
 51
358.4999999999843
  0
LINE
  5
24CE
330
2
100
AcDbEntity
  8
0
100
AcDbLine
 10
1082.450138894802
 20
504.7427203907777
 30
0.0
 11
1052.141718735772
 21
504.7427203907782
 31
0.0
  0
LINE
  5
24CF
330
2
100
AcDbEntity
  8
0
100
AcDbLine
 10
1056.585817363462
 20
494.49272039078
 30
0.0
 11
1087.052517553327
 21
494.4927203907777
 31
0.0
  0
LINE
  5
24D0
330
2
100
AcDbEntity
  8
0
100
AcDbLine
 10
1083.972239764925
 20
527.6416760671863
 30
0.0
 11
1052.593329704547
 21
527.6416760671863
 31
0.0
  0
LINE
  5
24D1
330
2
100
AcDbEntity
  8
0
100
AcDbLine
 10
1049.516154900228
 20
485.2427203907778
 30
0.0
 11
1082.913670295123
 21
485.2427203907772
 31
0.0
  0
ARC
  5
24D2
330
2
100
AcDbEntity
  8
0
100
AcDbCircle
 10
1082.913670295123
 20
487.2427203907773
 30
0.0
 40
2.0
100
AcDbArc
 50
270.0
 51
358.5000000000103
  0
ARC
  5
24D3
330
2
100
AcDbEntity
  8
0
100
AcDbCircle
 10
1049.516154900228
 20
483.2427203907777
 30
0.0
 40
2.0
100
AcDbArc
 50
90.0
 51
131.4096221092859
  0
ARC
  5
24D4
330
2
100
AcDbEntity
  8
0
100
AcDbCircle
 10
1088.686776306124
 20
576.7227203907777
 30
0.0
 40
2.0
100
AcDbArc
 50
270.0
 51
358.9999999999982
  0
LINE
  5
24D5
330
2
100
AcDbEntity
  8
0
100
AcDbLine
 10
1341.712651120106
 20
585.2427203906914
 30
0.0
 11
1425.468236643616
 21
585.2427203906914
 31
0.0
  0
ARC
  5
24D6
330
2
100
AcDbEntity
  8
0
100
AcDbCircle
 10
1425.468236643616
 20
577.2427203906913
 30
0.0
 40
8.0
100
AcDbArc
 50
0.1666666660107271
 51
90.0
  0
LINE
  5
24D8
330
2
100
AcDbEntity
  8
0
100
AcDbLine
 10
1341.712651120106
 20
485.2427203906905
 30
0.0
 11
1425.468236643616
 21
485.2427203906914
 31
0.0
  0
LINE
  5
24D9
330
2
100
AcDbEntity
  8
0
100
AcDbLine
 10
1340.512396967585
 20
586.2427203906913
 30
0.0
 11
1354.717460535417
 21
586.2427203906913
 31
0.0
  0
LINE
  5
24DA
330
2
100
AcDbEntity
  8
0
100
AcDbLine
 10
1372.463427227831
 20
586.2427203906913
 30
0.0
 11
1426.668490796136
 21
586.2427203906909
 31
0.0
  0
LINE
  5
24DB
330
2
100
AcDbEntity
  8
0
100
AcDbLine
 10
1340.512396967585
 20
484.2427203906904
 30
0.0
 11
1426.668490796136
 21
484.2427203906908
 31
0.0
  0
LINE
  5
24DE
330
2
100
AcDbEntity
  8
0
100
AcDbLine
 10
1433.468202797262
 20
577.2659914144728
 30
0.0
 11
1433.590443881862
 21
535.2427203906905
 31
0.0
  0
ARC
  5
24DF
330
2
100
AcDbEntity
  8
0
100
AcDbCircle
 10
1426.668490796136
 20
578.2427203906886
 30
0.0
 40
7.999999999999998
100
AcDbArc
 50
0.5617053325837566
 51
90.0
  0
LINE
  5
24E0
330
2
100
AcDbEntity
  8
0
100
AcDbLine
 10
1434.668106356338
 20
578.3211479942196
 30
0.0
 11
1435.09044388186
 21
535.2427203906905
 31
0.0
  0
ARC
  5
24E1
330
2
100
AcDbEntity
  8
0
100
AcDbCircle
 10
1340.512396967585
 20
578.2427203906886
 30
0.0
 40
7.999999999999998
100
AcDbArc
 50
90.0
 51
179.4382946674162
  0
LINE
  5
24E2
330
2
100
AcDbEntity
  8
0
100
AcDbLine
 10
1332.512781407384
 20
578.3211479942196
 30
0.0
 11
1332.09044388186
 21
535.2427203906905
 31
0.0
  0
ARC
  5
24E3
330
2
100
AcDbEntity
  8
0
100
AcDbCircle
 10
1426.668490796136
 20
492.2427203906932
 30
0.0
 40
7.999999999999998
100
AcDbArc
 50
270.0
 51
359.4382946674422
  0
ARC
  5
24E4
330
2
100
AcDbEntity
  8
0
100
AcDbCircle
 10
1341.712651120106
 20
493.2427203906886
 30
0.0
 40
7.999999999999998
100
AcDbArc
 50
180.1666666660107
 51
270.0
  0
LINE
  5
24E5
330
2
100
AcDbEntity
  8
0
100
AcDbLine
 10
1434.66810635634
 20
492.1642927871621
 30
0.0
 11
1435.09044388186
 21
535.2427203906914
 31
0.0
  0
ARC
  5
24E6
330
2
100
AcDbEntity
  8
0
100
AcDbCircle
 10
1340.512396967585
 20
492.2427203906932
 30
0.0
 40
7.999999999999998
100
AcDbArc
 50
180.5617053325576
 51
270.0
  0
LINE
  5
24E7
330
2
100
AcDbEntity
  8
0
100
AcDbLine
 10
1332.512781407382
 20
492.1642927871621
 30
0.0
 11
1332.09044388186
 21
535.2427203906914
 31
0.0
  0
ARC
  5
24E8
330
2
100
AcDbEntity
  8
0
100
AcDbCircle
 10
1341.712651120106
 20
577.2427203906913
 30
0.0
 40
7.999999999999998
100
AcDbArc
 50
90.0
 51
179.8333333339892
  0
LINE
  5
24E9
330
2
100
AcDbEntity
  8
0
100
AcDbLine
 10
1333.712684966461
 20
577.2659914144728
 30
0.0
 11
1333.59044388186
 21
535.2427203906905
 31
0.0
  0
ARC
  5
24EA
330
2
100
AcDbEntity
  8
0
100
AcDbCircle
 10
1425.468236643616
 20
493.2427203906886
 30
0.0
 40
8.0
100
AcDbArc
 50
270.0
 51
359.8333333339892
  0
LINE
  5
24EB
330
2
100
AcDbEntity
  8
0
100
AcDbLine
 10
1433.468202797262
 20
493.2194493669071
 30
0.0
 11
1433.590443881862
 21
535.2427203906895
 31
0.0
  0
LINE
  5
24EC
330
2
100
AcDbEntity
  8
0
100
AcDbLine
 10
1333.712684966461
 20
493.2194493669071
 30
0.0
 11
1333.59044388186
 21
535.2427203906895
 31
0.0
  0
LINE
  5
24ED
330
2
100
AcDbEntity
  8
0
100
AcDbLine
 10
1332.09044388186
 20
535.2427203906905
 30
0.0
 11
1333.59044388186
 21
535.2427203906895
 31
0.0
  0
LINE
  5
24EE
330
2
100
AcDbEntity
  8
0
100
AcDbLine
 10
1433.590443881861
 20
535.242720390263
 30
0.0
 11
1435.09044388186
 21
535.2427203906905
 31
0.0
  0
CIRCLE
  5
24EF
330
2
100
AcDbEntity
  8
0
100
AcDbCircle
 10
1383.59044388186
 20
535.2427203906905
 30
0.0
 40
45.24999999999969
  0
CIRCLE
  5
24F0
330
2
100
AcDbEntity
  8
0
100
AcDbCircle
 10
1383.59044388186
 20
535.2427203906905
 30
0.0
 40
46.25000000000483
  0
ARC
  5
24F1
330
2
100
AcDbEntity
  8
0
100
AcDbCircle
 10
1383.59044388186
 20
535.2427203906905
 30
0.0
 40
51.00000000000182
100
AcDbArc
 50
351.5815174228204
 51
8.418482577153261
  0
ARC
  5
24F2
330
2
100
AcDbEntity
  8
0
100
AcDbCircle
 10
1383.59044388186
 20
535.2427203906905
 30
0.0
 40
51.00000000000182
100
AcDbArc
 50
78.85230898155635
 51
101.1476910177001
  0
ARC
  5
24F3
330
2
100
AcDbEntity
  8
0
100
AcDbCircle
 10
1383.590443882839
 20
535.2427203906905
 30
0.0
 40
51.00000000000182
100
AcDbArc
 50
171.5815174267051
 51
188.4184825733077
  0
ARC
  5
24F4
330
2
100
AcDbEntity
  8
0
100
AcDbCircle
 10
1331.16151052091
 20
527.483406855948
 30
0.0
 40
2.0
100
AcDbArc
 50
0.5617053325707296
 51
8.418482573307713
  0
ARC
  5
24F5
330
2
100
AcDbEntity
  8
0
100
AcDbCircle
 10
1331.161510520908
 20
543.0020339254169
 30
0.0
 40
2.0
100
AcDbArc
 50
351.5815174267185
 51
359.4382946674292
  0
ARC
  5
24F6
330
2
100
AcDbEntity
  8
0
100
AcDbCircle
 10
1383.59044388186
 20
535.2427203906905
 30
0.0
 40
51.00000000000182
100
AcDbArc
 50
258.8523089815563
 51
281.1476910184436
  0
LINE
  5
24F7
330
2
100
AcDbEntity
  8
0
100
AcDbLine
 10
1433.84487226876
 20
560.7917376428958
 30
0.0
 11
1434.019473353217
 21
542.9824270280741
 31
0.0
  0
ARC
  5
24F8
330
2
100
AcDbEntity
  8
0
100
AcDbCircle
 10
1428.845112543634
 20
560.742720390689
 30
0.0
 40
5.0
100
AcDbArc
 50
0.5617053325707296
 51
21.0630525673919
  0
LINE
  5
24F9
330
2
100
AcDbEntity
  8
0
100
AcDbLine
 10
1433.844872268759
 20
509.6937031387287
 30
0.0
 11
1434.019473353213
 21
527.5030137532907
 31
0.0
  0
ARC
  5
24FA
330
2
100
AcDbEntity
  8
0
100
AcDbCircle
 10
1428.845112543633
 20
509.7427203909355
 30
0.0
 40
5.0
100
AcDbArc
 50
338.9369474327018
 51
359.4382946674422
  0
ARC
  5
24FB
330
2
100
AcDbEntity
  8
0
100
AcDbCircle
 10
1338.335775220577
 20
560.742720390689
 30
0.0
 40
5.0
100
AcDbArc
 50
158.9369474248208
 51
179.4382946674292
  0
LINE
  5
24FC
330
2
100
AcDbEntity
  8
0
100
AcDbLine
 10
1333.336015495451
 20
560.7917376428958
 30
0.0
 11
1333.161414410993
 21
542.9824270280746
 31
0.0
  0
LINE
  5
24FD
330
2
100
AcDbEntity
  8
0
100
AcDbLine
 10
1333.336015495452
 20
509.6937031387287
 30
0.0
 11
1333.161414410961
 21
527.503013756831
 31
0.0
  0
ARC
  5
24FE
330
2
100
AcDbEntity
  8
0
100
AcDbCircle
 10
1338.335775220578
 20
509.7427203909355
 30
0.0
 40
5.0
100
AcDbArc
 50
180.5617053325707
 51
201.0630525751265
  0
ARC
  5
24FF
330
2
100
AcDbEntity
  8
HIDS
  6
SEKKEI_H
100
AcDbCircle
 10
1409.176957566381
 20
580.2427203906914
 30
0.0
 40
5.0
100
AcDbArc
 50
0.9999999999757104
 51
90.0
  0
ARC
  5
2500
330
2
100
AcDbEntity
  8
HIDS
  6
SEKKEI_H
100
AcDbCircle
 10
1358.003930197344
 20
580.2427203906914
 30
0.0
 40
5.0
100
AcDbArc
 50
90.0
 51
179.0000000000242
  0
ARC
  5
2501
330
2
100
AcDbEntity
  8
HIDS
  6
SEKKEI_H
100
AcDbCircle
 10
1409.176957566381
 20
490.2427203906913
 30
0.0
 40
5.0
100
AcDbArc
 50
270.0
 51
359.0000000000112
  0
ARC
  5
2502
330
2
100
AcDbEntity
  8
HIDS
  6
SEKKEI_H
100
AcDbCircle
 10
1383.590443881494
 20
535.2427203906914
 30
0.0
 40
51.00000000000182
100
AcDbArc
 50
39.34056383567003
 51
50.50150115180911
  0
ARC
  5
2503
330
2
100
AcDbEntity
  8
HIDS
  6
SEKKEI_H
100
AcDbCircle
 10
1383.590443881494
 20
535.2427203906914
 30
0.0
 40
51.00000000000182
100
AcDbArc
 50
129.4984988475962
 51
140.6594361640197
  0
ARC
  5
2504
330
2
100
AcDbEntity
  8
HIDS
  6
SEKKEI_H
100
AcDbCircle
 10
1383.590443881494
 20
535.2427203906914
 30
0.0
 40
51.00000000000182
100
AcDbArc
 50
219.3405638357997
 51
230.5015011524037
  0
ARC
  5
2505
330
2
100
AcDbEntity
  8
HIDS
  6
SEKKEI_H
100
AcDbCircle
 10
1383.590443881494
 20
535.2427203906914
 30
0.0
 40
51.00000000000182
100
AcDbArc
 50
309.4984988481863
 51
320.6594361645151
  0
LINE
  5
2506
330
2
100
AcDbEntity
  8
HIDS
  6
SEKKEI_H
100
AcDbLine
 10
1369.164932450374
 20
574.6876772283492
 30
0.0
 11
1369.349171414088
 21
585.2427203906886
 31
0.0
  0
ARC
  5
2507
330
2
100
AcDbEntity
  8
HIDS
  6
SEKKEI_H
100
AcDbCircle
 10
1355.055838407982
 20
583.2427203906731
 30
0.0
 40
2.0
100
AcDbArc
 50
90.0
 51
178.99999999992
  0
LINE
  5
2508
330
2
100
AcDbEntity
  8
HIDS
  6
SEKKEI_H
100
AcDbLine
 10
1352.947329002524
 20
577.0436744500861
 30
0.0
 11
1353.056143017683
 21
583.2776252035478
 31
0.0
  0
ARC
  5
2509
330
2
100
AcDbEntity
  8
HIDS
  6
SEKKEI_H
100
AcDbCircle
 10
1419.232797236746
 20
493.3545042995342
 30
0.0
 40
5.0
100
AcDbArc
 50
130.3941985232535
 51
178.9999999999982
  0
ARC
  5
250A
330
2
100
AcDbEntity
  8
HIDS
  6
SEKKEI_H
100
AcDbCircle
 10
1347.948090526742
 20
577.1309364822713
 30
0.0
 40
5.0
100
AcDbArc
 50
310.3941985225003
 51
358.9999999999982
  0
ARC
  5
250B
330
2
100
AcDbEntity
  8
HIDS
  6
SEKKEI_H
100
AcDbCircle
 10
1412.125049355499
 20
487.2427203906913
 30
0.0
 40
2.0
100
AcDbArc
 50
270.0
 51
358.99999999992
  0
LINE
  5
250C
330
2
100
AcDbEntity
  8
HIDS
  6
SEKKEI_H
100
AcDbLine
 10
1414.233558760964
 20
493.4417663317176
 30
0.0
 11
1414.124744745798
 21
487.2078155778167
 31
0.0
  0
LINE
  5
250D
330
2
100
AcDbEntity
  8
HIDS
  6
SEKKEI_H
100
AcDbLine
 10
1355.055838407982
 20
585.2427203906914
 30
0.0
 11
1383.590443881494
 21
585.2427203906914
 31
0.0
  0
LINE
  5
250E
330
2
100
AcDbEntity
  8
HIDS
  6
SEKKEI_H
100
AcDbLine
 10
1383.590443881494
 20
485.2427203906914
 30
0.0
 11
1412.125049355499
 21
485.2427203906914
 31
0.0
  0
LINE
  5
250F
330
2
100
AcDbEntity
  8
HIDS
  6
SEKKEI_H
100
AcDbLine
 10
1358.12152938151
 20
568.6393428869634
 30
0.0
 11
1357.831716349158
 21
585.2427203906886
 31
0.0
  0
LINE
  5
2510
330
2
100
AcDbEntity
  8
HIDS
  6
SEKKEI_H
100
AcDbLine
 10
1412.125049355742
 20
585.2427203906914
 30
0.0
 11
1383.590443882229
 21
585.2427203906914
 31
0.0
  0
LINE
  5
2511
330
2
100
AcDbEntity
  8
HIDS
  6
SEKKEI_H
100
AcDbLine
 10
1410.159654829496
 20
585.2427203906886
 30
0.0
 11
1393.837394647465
 21
585.2427203906886
 31
0.0
  0
ARC
  5
2512
330
2
100
AcDbEntity
  8
HIDS
  6
SEKKEI_H
100
AcDbCircle
 10
1419.209692075432
 20
578.4546303010237
 30
0.0
 40
5.000000000000001
100
AcDbArc
 50
180.9999999999887
 51
230.5015011518091
  0
ARC
  5
2513
330
2
100
AcDbEntity
  8
HIDS
  6
SEKKEI_H
100
AcDbCircle
 10
1426.900373458902
 20
570.7427203906904
 30
0.0
 40
5.000000000000001
100
AcDbArc
 50
219.3405638357117
 51
270.0
  0
LINE
  5
2514
330
2
100
AcDbEntity
  8
HIDS
  6
SEKKEI_H
100
AcDbLine
 10
1426.900373458902
 20
565.74272039069
 30
0.0
 11
1428.845112543268
 21
565.74272039069
 31
0.0
  0
LINE
  5
2515
330
2
100
AcDbEntity
  8
HIDS
  6
SEKKEI_H
100
AcDbLine
 10
1414.210453599649
 20
578.3673682688386
 30
0.0
 11
1414.176196042163
 21
580.3299824228761
 31
0.0
  0
ARC
  5
2516
330
2
100
AcDbEntity
  8
HIDS
  6
SEKKEI_H
100
AcDbCircle
 10
1428.845112543268
 20
560.74272039069
 30
0.0
 40
5.0
100
AcDbArc
 50
21.0630525673919
 51
90.0
  0
LINE
  5
2517
330
2
100
AcDbEntity
  8
HIDS
  6
SEKKEI_H
100
AcDbLine
 10
1357.021232934226
 20
585.2427203906886
 30
0.0
 11
1373.343493116257
 21
585.2427203906886
 31
0.0
  0
ARC
  5
2518
330
2
100
AcDbEntity
  8
HIDS
  6
SEKKEI_H
100
AcDbCircle
 10
1347.971195688291
 20
578.4546303010237
 30
0.0
 40
5.000000000000001
100
AcDbArc
 50
309.4984988482047
 51
359.0000000000112
  0
LINE
  5
2519
330
2
100
AcDbEntity
  8
HIDS
  6
SEKKEI_H
100
AcDbLine
 10
1352.970434164073
 20
578.3673682688386
 30
0.0
 11
1353.004691721559
 21
580.3299824228761
 31
0.0
  0
ARC
  5
251A
330
2
100
AcDbEntity
  8
HIDS
  6
SEKKEI_H
100
AcDbCircle
 10
1426.900373458902
 20
499.742720390936
 30
0.0
 40
5.000000000000001
100
AcDbArc
 50
90.0
 51
140.6594361642882
  0
LINE
  5
251B
330
2
100
AcDbEntity
  8
HIDS
  6
SEKKEI_H
100
AcDbLine
 10
1426.900373458902
 20
504.742720390936
 30
0.0
 11
1428.845112543267
 21
504.7427203909364
 31
0.0
  0
ARC
  5
251C
330
2
100
AcDbEntity
  8
HIDS
  6
SEKKEI_H
100
AcDbCircle
 10
1428.845112543267
 20
509.7427203909364
 30
0.0
 40
5.0
100
AcDbArc
 50
270.0
 51
338.9369474327018
  0
ARC
  5
251D
330
2
100
AcDbEntity
  8
HIDS
  6
SEKKEI_H
100
AcDbCircle
 10
1340.280514304577
 20
570.7427203906904
 30
0.0
 40
5.000000000000001
100
AcDbArc
 50
270.0
 51
320.6594361642883
  0
LINE
  5
251E
330
2
100
AcDbEntity
  8
HIDS
  6
SEKKEI_H
100
AcDbLine
 10
1340.280514304577
 20
565.74272039069
 30
0.0
 11
1338.335775220212
 21
565.74272039069
 31
0.0
  0
ARC
  5
251F
330
2
100
AcDbEntity
  8
HIDS
  6
SEKKEI_H
100
AcDbCircle
 10
1338.335775220212
 20
560.74272039069
 30
0.0
 40
5.0
100
AcDbArc
 50
90.0
 51
158.9369474248208
  0
ARC
  5
2520
330
2
100
AcDbEntity
  8
HIDS
  6
SEKKEI_H
100
AcDbCircle
 10
1340.280514304577
 20
499.742720390936
 30
0.0
 40
5.000000000000001
100
AcDbArc
 50
39.34056383571173
 51
90.0
  0
LINE
  5
2521
330
2
100
AcDbEntity
  8
HIDS
  6
SEKKEI_H
100
AcDbLine
 10
1340.280514304577
 20
504.742720390936
 30
0.0
 11
1338.335775220212
 21
504.7427203909364
 31
0.0
  0
ARC
  5
2522
330
2
100
AcDbEntity
  8
HIDS
  6
SEKKEI_H
100
AcDbCircle
 10
1338.335775220212
 20
509.7427203909364
 30
0.0
 40
5.0
100
AcDbArc
 50
201.0630525751265
 51
270.0
  0
LINE
  5
2523
330
2
100
AcDbEntity
  8
HIDS
  6
SEKKEI_H
100
AcDbLine
 10
1410.159654829496
 20
485.2427203906755
 30
0.0
 11
1393.837394647465
 21
485.2427203906755
 31
0.0
  0
ARC
  5
2524
330
2
100
AcDbEntity
  8
HIDS
  6
SEKKEI_H
100
AcDbCircle
 10
1419.209692075432
 20
492.0308104803402
 30
0.0
 40
5.000000000000001
100
AcDbArc
 50
129.4984988481908
 51
179.0000000000242
  0
LINE
  5
2525
330
2
100
AcDbEntity
  8
HIDS
  6
SEKKEI_H
100
AcDbLine
 10
1414.210453599649
 20
492.1180725125254
 30
0.0
 11
1414.176196042162
 21
490.1554583585066
 31
0.0
  0
LINE
  5
2526
330
2
100
AcDbEntity
  8
HIDS
  6
SEKKEI_H
100
AcDbLine
 10
1357.021232934227
 20
485.2427203906755
 30
0.0
 11
1373.343493116257
 21
485.2427203906755
 31
0.0
  0
ARC
  5
2527
330
2
100
AcDbEntity
  8
HIDS
  6
SEKKEI_H
100
AcDbCircle
 10
1347.971195688291
 20
492.0308104803402
 30
0.0
 40
5.000000000000001
100
AcDbArc
 50
0.9999999999757104
 51
50.50150115179535
  0
LINE
  5
2528
330
2
100
AcDbEntity
  8
HIDS
  6
SEKKEI_H
100
AcDbLine
 10
1352.970434164073
 20
492.1180725125254
 30
0.0
 11
1353.004691721561
 21
490.1554583585043
 31
0.0
  0
ARC
  5
2529
330
2
100
AcDbEntity
  8
HIDS
  6
SEKKEI_H
100
AcDbCircle
 10
1358.003930197344
 20
490.2427203906905
 30
0.0
 40
5.0
100
AcDbArc
 50
181.0000000000017
 51
270.0
  0
ARC
  5
252A
330
2
100
AcDbEntity
  8
0
100
AcDbCircle
 10
1436.019377242534
 20
543.0020339289576
 30
0.0
 40
2.0
100
AcDbArc
 50
180.5617053325707
 51
188.4184825771532
  0
ARC
  5
252B
330
2
100
AcDbEntity
  8
0
100
AcDbCircle
 10
1436.019377242532
 20
527.4834068524092
 30
0.0
 40
2.0
100
AcDbArc
 50
171.5815174228204
 51
179.4382946674292
  0
ARC
  5
252C
330
2
100
AcDbEntity
  8
0
100
AcDbCircle
 10
1393.837394647452
 20
483.2427203908732
 30
0.0
 40
2.0
100
AcDbArc
 50
90.0
 51
101.1476910184436
  0
ARC
  5
252D
330
2
100
AcDbEntity
  8
0
100
AcDbCircle
 10
1373.343493115538
 20
483.2427203908732
 30
0.0
 40
2.0
100
AcDbArc
 50
78.85230898155635
 51
90.0
  0
ARC
  5
252E
330
2
100
AcDbEntity
  8
0
100
AcDbCircle
 10
1393.837394647465
 20
587.2427203908714
 30
0.0
 40
2.0
100
AcDbArc
 50
258.8523089815033
 51
270.0
  0
ARC
  5
252F
330
2
100
AcDbEntity
  8
0
100
AcDbCircle
 10
1373.343493116257
 20
587.2427203908714
 30
0.0
 40
2.0
100
AcDbArc
 50
270.0
 51
281.1476910184966
  0
LINE
  5
2530
330
2
100
AcDbEntity
  8
0
100
AcDbLine
 10
1056.585817363466
 20
575.9927203907754
 30
0.0
 11
1087.052517553325
 21
575.9927203907778
 31
0.0
  0
LINE
  5
2532
330
2
100
AcDbEntity
  8
0
100
AcDbLine
 10
1106.335798115398
 20
589.2427203907772
 30
0.0
 11
1096.335798115398
 21
589.2427203907772
 31
0.0
  0
ARC
  5
2533
330
2
100
AcDbEntity
  8
0
100
AcDbCircle
 10
1096.335798115398
 20
585.2427203907772
 30
0.0
 40
4.0
100
AcDbArc
 50
90.0
 51
180.0
  0
ARC
  5
2534
330
2
100
AcDbEntity
  8
0
100
AcDbCircle
 10
1106.335798115398
 20
585.2427203907772
 30
0.0
 40
4.0
100
AcDbArc
 50
0.0
 51
90.0
  0
LINE
  5
2535
330
2
100
AcDbEntity
  8
0
100
AcDbLine
 10
1358.590443881624
 20
589.2427203906904
 30
0.0
 11
1368.590443881624
 21
589.2427203906904
 31
0.0
  0
ARC
  5
2536
330
2
100
AcDbEntity
  8
0
100
AcDbCircle
 10
1368.590443881624
 20
585.2427203906905
 30
0.0
 40
4.0
100
AcDbArc
 50
0.0
 51
90.0
  0
ARC
  5
2537
330
2
100
AcDbEntity
  8
0
100
AcDbCircle
 10
1358.590443881624
 20
585.2427203906905
 30
0.0
 40
4.0
100
AcDbArc
 50
90.0
 51
180.0
  0
LINE
  5
2538
330
2
100
AcDbEntity
  8
0
100
AcDbLine
 10
1089.835798115398
 20
556.8290396275462
 30
0.0
 11
1089.835798115398
 21
535.2427203907778
 31
0.0
  0
LINE
  5
2539
330
2
100
AcDbEntity
  8
0
100
AcDbLine
 10
1111.835798115398
 20
535.2427203907778
 30
0.0
 11
1111.835798115397
 21
562.24272039078
 31
0.0
  0
LINE
  5
253A
330
2
100
AcDbEntity
  8
0
100
AcDbLine
 10
1109.835798115398
 20
535.2427203907778
 30
0.0
 11
1109.835798115398
 21
546.24272039078
 31
0.0
  0
LINE
  5
253B
330
2
100
AcDbEntity
  8
0
100
AcDbLine
 10
1091.835798115398
 20
557.5349280304683
 30
0.0
 11
1091.835798115398
 21
535.2427203907778
 31
0.0
  0
LINE
  5
253C
330
2
100
AcDbEntity
  8
0
100
AcDbLine
 10
1048.335798115398
 20
535.2427203907772
 30
0.0
 11
1048.335798115398
 21
546.7427203907787
 31
0.0
  0
LINE
  5
253D
330
2
100
AcDbEntity
  8
0
 48
0.3
100
AcDbLine
 10
1068.335798115391
 20
546.7427203907787
 30
0.0
 11
1048.33579811539
 21
546.7427203907787
 31
0.0
  0
LINE
  5
253E
330
2
100
AcDbEntity
  8
0
 48
0.3
100
AcDbLine
 10
1068.335798115391
 20
546.2427203907791
 30
0.0
 11
1089.83579811539
 21
546.2427203907791
 31
0.0
  0
LINE
  5
253F
330
2
100
AcDbEntity
  8
0
100
AcDbLine
 10
1068.335798115399
 20
535.2427203907772
 30
0.0
 11
1068.335798115398
 21
546.7427203907787
 31
0.0
  0
LINE
  5
2540
330
2
100
AcDbEntity
  8
0
100
AcDbLine
 10
1096.897050522634
 20
562.2427203907796
 30
0.0
 11
1111.835798115397
 21
562.24272039078
 31
0.0
  0
LINE
  5
2541
330
2
100
AcDbEntity
  8
0
 48
0.3
100
AcDbLine
 10
1091.83579811539
 20
546.2427203907796
 30
0.0
 11
1109.83579811539
 21
546.24272039078
 31
0.0
  0
LINE
  5
2542
330
2
100
AcDbEntity
  8
0
 48
0.3
100
AcDbLine
 10
1042.273620288899
 20
535.2427203907778
 30
0.0
 11
1048.33579811539
 21
545.7427203907786
 31
0.0
  0
LINE
  5
2543
330
2
100
AcDbEntity
  8
0
100
AcDbLine
 10
1109.83579811539
 20
546.2427203907759
 30
0.0
 11
1111.83579811539
 21
547.397420929155
 31
0.0
  0
LINE
  5
2544
330
2
100
AcDbEntity
  8
0
100
AcDbLine
 10
1111.835798115401
 20
580.4927203907782
 30
0.0
 11
1112.835798115403
 21
581.4927203907814
 31
0.0
  0
ARC
  5
2545
330
2
100
AcDbEntity
  8
0
100
AcDbCircle
 10
1110.835798115404
 20
579.9525691670787
 30
0.0
 40
1.0
100
AcDbArc
 50
274.9999999999997
 51
0.0
  0
LINE
  5
2546
330
2
100
AcDbEntity
  8
0
100
AcDbLine
 10
1112.835798115399
 20
582.7427203907777
 30
0.0
 11
1112.835798115399
 21
535.2427203907778
 31
0.0
  0
LINE
  5
2547
330
2
100
AcDbEntity
  8
0
100
AcDbLine
 10
1111.835798115401
 20
580.4927203907782
 30
0.0
 11
1111.835798115401
 21
562.24272039078
 31
0.0
  0
LINE
  5
2548
330
2
100
AcDbEntity
  8
0
100
AcDbLine
 10
1106.728270404045
 20
578.5893872196725
 30
0.0
 11
1110.922953858151
 21
578.9563744689867
 31
0.0
  0
LINE
  5
2549
330
2
100
AcDbEntity
  8
CENTER
100
AcDbLine
 10
1363.590443881875
 20
512.3681343025177
 30
0.0
 11
1363.590443881624
 21
594.2427203906731
 31
0.0
  0
LINE
  5
254A
330
2
100
AcDbEntity
  8
HIDS
  6
SEKKEI_H
100
AcDbLine
 10
1358.5105714739
 20
545.2427203907054
 30
0.0
 11
1371.340443881868
 21
545.242720390705
 31
0.0
  0
LINE
  5
254B
330
2
100
AcDbEntity
  8
HIDS
  6
SEKKEI_H
100
AcDbLine
 10
1371.340443881868
 20
545.242720390705
 30
0.0
 11
1371.340443881868
 21
559.3038404810053
 31
0.0
  0
LINE
  5
254C
330
2
100
AcDbEntity
  8
HIDS
  6
SEKKEI_H
100
AcDbLine
 10
1368.090443881868
 20
535.9927203907022
 30
0.0
 11
1368.090443881868
 21
545.242720390705
 31
0.0
  0
LINE
  5
254D
330
2
100
AcDbEntity
  8
HIDS
  6
SEKKEI_H
100
AcDbLine
 10
1359.090443881868
 20
535.9927203907022
 30
0.0
 11
1359.090443881868
 21
545.2427203907054
 31
0.0
  0
LINE
  5
254E
330
2
100
AcDbEntity
  8
HIDS
  6
SEKKEI_H
100
AcDbLine
 10
1360.190443881868
 20
521.772753798316
 30
0.0
 11
1360.190443881868
 21
534.4927203907023
 31
0.0
  0
LINE
  5
254F
330
2
100
AcDbEntity
  8
HIDS
  6
SEKKEI_H
100
AcDbLine
 10
1359.590443881868
 20
522.242720390705
 30
0.0
 11
1359.590443881868
 21
534.4927203907027
 31
0.0
  0
LINE
  5
2550
330
2
100
AcDbEntity
  8
HIDS
  6
SEKKEI_H
100
AcDbLine
 10
1367.590443881868
 20
513.4941572197703
 30
0.0
 11
1367.590443881868
 21
534.4927203907027
 31
0.0
  0
LINE
  5
2551
330
2
100
AcDbEntity
  8
HIDS
  6
SEKKEI_H
100
AcDbLine
 10
1366.990443881868
 20
513.9485897439722
 30
0.0
 11
1366.990443881868
 21
534.4927203907027
 31
0.0
  0
LINE
  5
2552
330
2
100
AcDbEntity
  8
0
100
AcDbLine
 10
1356.600862558698
 20
534.4927203907023
 30
0.0
 11
1372.616041848037
 21
534.4927203907023
 31
0.0
  0
LINE
  5
2553
330
2
100
AcDbEntity
  8
0
100
AcDbLine
 10
1394.564845915683
 20
534.4927203907023
 30
0.0
 11
1409.599163927916
 21
534.4927203907023
 31
0.0
  0
LINE
  5
2554
330
2
100
AcDbEntity
  8
0
100
AcDbLine
 10
1356.600862558698
 20
535.9927203907022
 30
0.0
 11
1372.616041848039
 21
535.9927203907022
 31
0.0
  0
LINE
  5
2555
330
2
100
AcDbEntity
  8
0
100
AcDbLine
 10
1394.564845915682
 20
535.9927203907027
 30
0.0
 11
1409.599163927916
 21
535.9927203907022
 31
0.0
  0
LINE
  5
2556
330
2
100
AcDbEntity
  8
0
100
AcDbLine
 10
1409.599163927916
 20
535.9927203907022
 30
0.0
 11
1409.599163927916
 21
534.4927203907023
 31
0.0
  0
LINE
  5
2557
330
2
100
AcDbEntity
  8
HIDS
  6
SEKKEI_H
100
AcDbLine
 10
1370.090443881875
 20
554.7427203907054
 30
0.0
 11
1364.915594484888
 21
554.742720390705
 31
0.0
  0
LINE
  5
2558
330
2
100
AcDbEntity
  8
HIDS
  6
SEKKEI_H
100
AcDbLine
 10
1369.224418478089
 20
555.2427203907054
 30
0.0
 11
1365.452086734655
 21
555.242720390705
 31
0.0
  0
LINE
  5
2559
330
2
100
AcDbEntity
  8
HIDS
  6
SEKKEI_H
100
AcDbLine
 10
1370.840443881875
 20
547.2427203907054
 30
0.0
 11
1359.403670636974
 21
547.242720390705
 31
0.0
  0
LINE
  5
255A
330
2
100
AcDbEntity
  8
HIDS
  6
SEKKEI_H
100
AcDbLine
 10
1366.390443881882
 20
522.242720390705
 30
0.0
 11
1360.790443881868
 21
522.242720390705
 31
0.0
  0
LINE
  5
255B
330
2
100
AcDbEntity
  8
HIDS
  6
SEKKEI_H
100
AcDbLine
 10
1367.590443881868
 20
523.4427203907053
 30
0.0
 11
1359.590443881868
 21
523.4427203907053
 31
0.0
  0
LINE
  5
255C
330
2
100
AcDbEntity
  8
0
 48
0.3
100
AcDbLine
 10
1356.340443881875
 20
547.242720390705
 30
0.0
 11
1356.340443881875
 21
545.242720390705
 31
0.0
  0
LINE
  5
255D
330
2
100
AcDbEntity
  8
0
 48
0.3
100
AcDbLine
 10
1357.090443881875
 20
554.742720390705
 30
0.0
 11
1357.95646928566
 21
555.242720390705
 31
0.0
  0
LINE
  5
255E
330
2
100
AcDbEntity
  8
0
 48
0.3
100
AcDbLine
 10
1357.090443881875
 20
554.742720390705
 30
0.0
 11
1357.090443881875
 21
547.242720390705
 31
0.0
  0
LINE
  5
255F
330
2
100
AcDbEntity
  8
HIDS
  6
SEKKEI_H
100
AcDbLine
 10
1370.840443881875
 20
547.2427203907054
 30
0.0
 11
1370.840443881875
 21
545.2427203907054
 31
0.0
  0
LINE
  5
2560
330
2
100
AcDbEntity
  8
HIDS
  6
SEKKEI_H
100
AcDbLine
 10
1370.090443881875
 20
554.7427203907045
 30
0.0
 11
1369.22441847809
 21
555.2427203907045
 31
0.0
  0
LINE
  5
2561
330
2
100
AcDbEntity
  8
HIDS
  6
SEKKEI_H
100
AcDbLine
 10
1370.090443881875
 20
554.7427203907045
 30
0.0
 11
1370.090443881875
 21
547.2427203907054
 31
0.0
  0
LINE
  5
2562
330
2
100
AcDbEntity
  8
HIDS
  6
SEKKEI_H
100
AcDbLine
 10
1371.290443881875
 20
545.2427203907054
 30
0.0
 11
1358.5105714739
 21
545.242720390705
 31
0.0
  0
LINE
  5
2563
330
2
100
AcDbEntity
  8
HOJO
100
AcDbLine
 10
1360.190443881868
 20
534.4927203907023
 30
0.0
 11
1360.190443881868
 21
535.9927203907022
 31
0.0
  0
LINE
  5
2564
330
2
100
AcDbEntity
  8
0
100
AcDbLine
 10
1359.590443881868
 20
534.4927203907027
 30
0.0
 11
1359.590443881868
 21
535.9927203907022
 31
0.0
  0
LINE
  5
2565
330
2
100
AcDbEntity
  8
HOJO
100
AcDbLine
 10
1366.990443881868
 20
534.4927203907027
 30
0.0
 11
1366.990443881868
 21
535.9927203907022
 31
0.0
  0
LINE
  5
2566
330
2
100
AcDbEntity
  8
0
100
AcDbLine
 10
1367.590443881868
 20
534.4927203907027
 30
0.0
 11
1367.590443881868
 21
535.9927203907022
 31
0.0
  0
LINE
  5
2567
330
2
100
AcDbEntity
  8
HIDS
  6
SEKKEI_H
100
AcDbLine
 10
1367.590443881868
 20
535.9927203907022
 30
0.0
 11
1367.590443881868
 21
545.242720390705
 31
0.0
  0
LINE
  5
2568
330
2
100
AcDbEntity
  8
HIDS
  6
SEKKEI_H
100
AcDbLine
 10
1366.990443881868
 20
535.9927203907022
 30
0.0
 11
1366.990443881868
 21
545.242720390705
 31
0.0
  0
LINE
  5
2569
330
2
100
AcDbEntity
  8
HIDS
  6
SEKKEI_H
100
AcDbLine
 10
1360.190443881868
 20
535.9927203907022
 30
0.0
 11
1360.190443881868
 21
545.242720390705
 31
0.0
  0
LINE
  5
256A
330
2
100
AcDbEntity
  8
HIDS
  6
SEKKEI_H
100
AcDbLine
 10
1359.590443881868
 20
535.9927203907022
 30
0.0
 11
1359.590443881868
 21
545.2427203907054
 31
0.0
  0
LINE
  5
256B
330
2
100
AcDbEntity
  8
0
100
AcDbLine
 10
1365.452086734655
 20
555.242720390705
 30
0.0
 11
1357.95646928566
 21
555.242720390705
 31
0.0
  0
LINE
  5
256C
330
2
100
AcDbEntity
  8
0
100
AcDbLine
 10
1364.915594484888
 20
554.742720390705
 30
0.0
 11
1357.090443881875
 21
554.742720390705
 31
0.0
  0
LINE
  5
256D
330
2
100
AcDbEntity
  8
0
100
AcDbLine
 10
1359.403670636974
 20
547.242720390705
 30
0.0
 11
1356.340443881875
 21
547.242720390705
 31
0.0
  0
LINE
  5
256E
330
2
100
AcDbEntity
  8
0
100
AcDbLine
 10
1358.5105714739
 20
545.242720390705
 30
0.0
 11
1356.340443881875
 21
545.242720390705
 31
0.0
  0
LINE
  5
256F
330
2
100
AcDbEntity
  8
HIDS
  6
SEKKEI_H
100
AcDbLine
 10
1359.590443881868
 20
523.4427203907053
 30
0.0
 11
1360.790443881868
 21
522.242720390705
 31
0.0
  0
LINE
  5
2570
330
2
100
AcDbEntity
  8
HIDS
  6
SEKKEI_H
100
AcDbLine
 10
1367.590443881882
 20
523.4427203907053
 30
0.0
 11
1366.390443881882
 21
522.242720390705
 31
0.0
  0
CIRCLE
  5
2572
330
2
100
AcDbEntity
  8
0
100
AcDbCircle
 10
1383.59044388186
 20
535.2427203906905
 30
0.0
 40
26.99999999999249
  0
LINE
  5
2573
330
2
100
AcDbEntity
  8
0
100
AcDbLine
 10
1049.085817363461
 20
487.0663135194613
 30
0.0
 11
1050.585817363462
 21
487.0663135194613
 31
0.0
  0
LINE
  5
2574
330
2
100
AcDbEntity
  8
0
100
AcDbLine
 10
1049.085817363461
 20
498.5663135194613
 30
0.0
 11
1050.585817363462
 21
498.5663135194613
 31
0.0
  0
LINE
  5
2575
330
2
100
AcDbEntity
  8
0
100
AcDbLine
 10
1056.185817363462
 20
487.8163135194613
 30
0.0
 11
1056.585817363462
 21
488.5091338424886
 31
0.0
  0
LINE
  5
2576
330
2
100
AcDbEntity
  8
0
100
AcDbLine
 10
1050.585817363462
 20
487.0663135194613
 30
0.0
 11
1050.585817363462
 21
498.5663135194613
 31
0.0
  0
LINE
  5
2577
330
2
100
AcDbEntity
  8
0
100
AcDbLine
 10
1056.185817363462
 20
487.8163135194613
 30
0.0
 11
1056.185817363462
 21
497.8163135194613
 31
0.0
  0
LINE
  5
2578
330
2
100
AcDbEntity
  8
0
100
AcDbLine
 10
1050.585817363462
 20
487.8163135194613
 30
0.0
 11
1056.185817363462
 21
487.8163135194613
 31
0.0
  0
LINE
  5
2579
330
2
100
AcDbEntity
  8
0
100
AcDbLine
 10
1050.585817363462
 20
497.8163135194613
 30
0.0
 11
1056.185817363462
 21
497.8163135194613
 31
0.0
  0
LINE
  5
257A
330
2
100
AcDbEntity
  8
0
100
AcDbLine
 10
1056.185817363462
 20
497.8163135194613
 30
0.0
 11
1056.585817363462
 21
497.1234931964341
 31
0.0
  0
LINE
  5
257B
330
2
100
AcDbEntity
  8
0
100
AcDbLine
 10
1056.585817363462
 20
488.5091338424886
 30
0.0
 11
1056.585817363462
 21
497.1234931964341
 31
0.0
  0
LINE
  5
257C
330
2
100
AcDbEntity
  8
0
 48
12.0
100
AcDbLine
 10
1049.085817363461
 20
498.5663135194613
 30
0.0
 11
1049.085817363461
 21
487.0663135194613
 31
0.0
  0
LINE
  5
257D
330
2
100
AcDbEntity
  8
0
100
AcDbLine
 10
1049.085817363466
 20
571.9191272618495
 30
0.0
 11
1050.585817363466
 21
571.9191272618495
 31
0.0
  0
LINE
  5
257E
330
2
100
AcDbEntity
  8
0
100
AcDbLine
 10
1049.085817363466
 20
583.4191272618495
 30
0.0
 11
1050.585817363467
 21
583.4191272618495
 31
0.0
  0
LINE
  5
257F
330
2
100
AcDbEntity
  8
0
100
AcDbLine
 10
1056.185817363466
 20
572.6691272618495
 30
0.0
 11
1056.585817363466
 21
573.3619475848768
 31
0.0
  0
LINE
  5
2580
330
2
100
AcDbEntity
  8
0
100
AcDbLine
 10
1050.585817363466
 20
571.9191272618495
 30
0.0
 11
1050.585817363467
 21
583.4191272618495
 31
0.0
  0
LINE
  5
2581
330
2
100
AcDbEntity
  8
0
100
AcDbLine
 10
1056.185817363466
 20
572.6691272618495
 30
0.0
 11
1056.185817363466
 21
582.6691272618496
 31
0.0
  0
LINE
  5
2582
330
2
100
AcDbEntity
  8
0
100
AcDbLine
 10
1050.585817363466
 20
572.6691272618495
 30
0.0
 11
1056.185817363466
 21
572.6691272618495
 31
0.0
  0
LINE
  5
2583
330
2
100
AcDbEntity
  8
0
100
AcDbLine
 10
1050.585817363467
 20
582.6691272618496
 30
0.0
 11
1056.185817363466
 21
582.6691272618496
 31
0.0
  0
LINE
  5
2584
330
2
100
AcDbEntity
  8
0
100
AcDbLine
 10
1056.185817363466
 20
582.6691272618496
 30
0.0
 11
1056.585817363466
 21
581.9763069388223
 31
0.0
  0
LINE
  5
2585
330
2
100
AcDbEntity
  8
0
100
AcDbLine
 10
1056.585817363466
 20
573.3619475848768
 30
0.0
 11
1056.585817363466
 21
581.9763069388223
 31
0.0
  0
LINE
  5
2586
330
2
100
AcDbEntity
  8
0
 48
12.0
100
AcDbLine
 10
1049.085817363466
 20
583.4191272618495
 30
0.0
 11
1049.085817363466
 21
571.9191272618495
 31
0.0
  0
CIRCLE
  5
2587
330
2
100
AcDbEntity
  8
0
100
AcDbCircle
 10
1383.59044388186
 20
535.2427203906905
 30
0.0
 40
40.49999999999999
  0
CIRCLE
  5
2588
330
2
100
AcDbEntity
  8
0
100
AcDbCircle
 10
1383.59044388186
 20
535.2427203906905
 30
0.0
 40
47.5
  0
LINE
  5
2589
330
2
100
AcDbEntity
  8
CENTER
100
AcDbLine
 10
1424.249083800211
 20
583.1214806622238
 30
0.0
 11
1424.249083800211
 21
568.6812399556106
 31
0.0
  0
LINE
  5
258A
330
2
100
AcDbEntity
  8
CENTER
100
AcDbLine
 10
1417.028963446904
 20
575.9013603089174
 30
0.0
 11
1431.469204153517
 21
575.9013603089174
 31
0.0
  0
LINE
  5
258B
330
2
100
AcDbEntity
  8
CENTER
100
AcDbLine
 10
1424.249083800211
 20
501.8042008257707
 30
0.0
 11
1424.249083800211
 21
487.3639601191576
 31
0.0
  0
LINE
  5
258C
330
2
100
AcDbEntity
  8
CENTER
100
AcDbLine
 10
1417.028963446904
 20
494.5840804724643
 30
0.0
 11
1431.469204153517
 21
494.5840804724643
 31
0.0
  0
LINE
  5
258D
330
2
100
AcDbEntity
  8
CENTER
100
AcDbLine
 10
1342.931803963759
 20
501.8042008257707
 30
0.0
 11
1342.931803963759
 21
487.3639601191576
 31
0.0
  0
LINE
  5
258E
330
2
100
AcDbEntity
  8
CENTER
100
AcDbLine
 10
1335.711683610452
 20
494.5840804724643
 30
0.0
 11
1350.151924317065
 21
494.5840804724643
 31
0.0
  0
LINE
  5
258F
330
2
100
AcDbEntity
  8
CENTER
100
AcDbLine
 10
1342.931803963759
 20
583.1214806622247
 30
0.0
 11
1342.931803963759
 21
568.6812399556115
 31
0.0
  0
LINE
  5
2590
330
2
100
AcDbEntity
  8
CENTER
100
AcDbLine
 10
1335.711683610452
 20
575.9013603089183
 30
0.0
 11
1350.151924317065
 21
575.9013603089183
 31
0.0
  0
CIRCLE
  5
2591
330
2
100
AcDbEntity
  8
CENTER
100
AcDbCircle
 10
1383.590443881494
 20
535.2427203906914
 30
0.0
 40
57.50000000034606
  0
CIRCLE
  5
2592
330
2
100
AcDbEntity
  8
HOJO
100
AcDbCircle
 10
1342.931803962412
 20
494.5840804724643
 30
0.0
 40
4.0
  0
CIRCLE
  5
2593
330
2
100
AcDbEntity
  8
0
100
AcDbCircle
 10
1342.931803962412
 20
494.5840804724643
 30
0.0
 40
3.399999999999999
  0
CIRCLE
  5
2594
330
2
100
AcDbEntity
  8
HOJO
100
AcDbCircle
 10
1342.931803962412
 20
575.9013603098979
 30
0.0
 40
4.0
  0
CIRCLE
  5
2595
330
2
100
AcDbEntity
  8
0
100
AcDbCircle
 10
1342.931803962412
 20
575.9013603098979
 30
0.0
 40
3.399999999999999
  0
CIRCLE
  5
2596
330
2
100
AcDbEntity
  8
HOJO
100
AcDbCircle
 10
1424.249083798864
 20
575.9013603089174
 30
0.0
 40
4.0
  0
CIRCLE
  5
2597
330
2
100
AcDbEntity
  8
0
100
AcDbCircle
 10
1424.249083798864
 20
575.9013603089174
 30
0.0
 40
3.399999999999999
  0
CIRCLE
  5
2598
330
2
100
AcDbEntity
  8
HOJO
100
AcDbCircle
 10
1424.249083798864
 20
494.5840804724652
 30
0.0
 40
4.0
  0
CIRCLE
  5
2599
330
2
100
AcDbEntity
  8
0
100
AcDbCircle
 10
1424.249083798864
 20
494.5840804724652
 30
0.0
 40
3.399999999999999
  0
CIRCLE
  5
259A
330
2
100
AcDbEntity
  8
0
100
AcDbCircle
 10
1383.59044388186
 20
535.2427203906905
 30
0.0
 40
10.99999999999798
  0
ARC
  5
259B
330
2
100
AcDbEntity
  8
0
100
AcDbCircle
 10
1383.59044388186
 20
535.2427203906905
 30
0.0
 40
12.15470053838154
100
AcDbArc
 50
3.537656083416282
 51
176.4623439165967
  0
ARC
  5
259C
330
2
100
AcDbEntity
  8
0
100
AcDbCircle
 10
1383.59044388186
 20
535.2427203906905
 30
0.0
 40
12.15470053838154
100
AcDbArc
 50
183.5376560832988
 51
356.4623439167011
  0
CIRCLE
  5
259D
330
2
100
AcDbEntity
  8
HIDS
  6
SEKKEI_H
100
AcDbCircle
 10
1383.59044388186
 20
535.2427203906905
 30
0.0
 40
50.0
  0
LINE
  5
259E
330
2
100
AcDbEntity
  8
0
100
AcDbLine
 10
1085.481549426463
 20
485.2427203907778
 30
0.0
 11
1119.835798115398
 21
485.2427203907778
 31
0.0
  0
LINE
  5
259F
330
2
100
AcDbEntity
  8
0
100
AcDbLine
 10
1119.835798115398
 20
585.242720390778
 30
0.0
 11
1119.835798115398
 21
485.2427203907778
 31
0.0
  0
LINE
  5
25A0
330
2
100
AcDbEntity
  8
0
100
AcDbLine
 10
1085.481549426463
 20
585.2427203907772
 30
0.0
 11
1119.835798115398
 21
585.2427203907775
 31
0.0
  0
LINE
  5
25A1
330
2
100
AcDbEntity
  8
0
100
AcDbLine
 10
1112.835798115399
 20
582.7427203907777
 30
0.0
 11
1119.835798115398
 21
582.7427203907777
 31
0.0
  0
LINE
  5
25A2
330
2
100
AcDbEntity
  8
CENTER
  6
CENTERX2
100
AcDbLine
 10
1046.085817363466
 20
577.6691272618499
 30
0.0
 11
1059.585817363467
 21
577.6691272618495
 31
0.0
  0
LINE
  5
25A3
330
2
100
AcDbEntity
  8
CENTER
  6
CENTERX2
100
AcDbLine
 10
1046.085817363462
 20
492.8163135194617
 30
0.0
 11
1059.585817363463
 21
492.8163135194613
 31
0.0
  0
CIRCLE
  5
25A4
330
2
100
AcDbEntity
  8
0
100
AcDbCircle
 10
1383.590443881861
 20
535.2427203906905
 30
0.0
 40
41.99999999981815
  0
CIRCLE
  5
25A5
330
2
100
AcDbEntity
  8
0
100
AcDbCircle
 10
1383.590443881861
 20
535.2427203906905
 30
0.0
 40
43.79351760210176
  0
LINE
  5
2669
330
2
100
AcDbEntity
  8
0
100
AcDbLine
 10
895.0771009807994
 20
847.4327365736467
 30
0.0
 11
847.6544512499893
 21
847.4327365736467
 31
0.0
  0
LINE
  5
266A
330
2
100
AcDbEntity
  8
0
100
AcDbLine
 10
888.8657761153952
 20
846.4327365736467
 30
0.0
 11
853.8657761153952
 21
846.4327365736467
 31
0.0
  0
LINE
  5
266B
330
2
100
AcDbEntity
  8
0
100
AcDbLine
 10
855.3657761153953
 20
791.4327365736468
 30
0.0
 11
855.3657761153953
 21
846.4327365736467
 31
0.0
  0
LINE
  5
266C
330
2
100
AcDbEntity
  8
0
100
AcDbLine
 10
887.3657761153953
 20
791.4327365736468
 30
0.0
 11
855.3657761153953
 21
791.4327365736468
 31
0.0
  0
ARC
  5
266D
330
2
100
AcDbEntity
  8
0
100
AcDbCircle
 10
847.6544512499893
 20
847.9327365736468
 30
0.0
 40
0.5
100
AcDbArc
 50
210.0000000000005
 51
270.0
  0
LINE
  5
266E
330
2
100
AcDbEntity
  8
0
100
AcDbLine
 10
847.1337253078253
 20
847.8346603622936
 30
0.0
 11
847.2214385480983
 21
847.6827365736468
 31
0.0
  0
ARC
  5
266F
330
2
100
AcDbEntity
  8
0
100
AcDbCircle
 10
848.8657761153953
 20
848.8346603622936
 30
0.0
 40
2.0
100
AcDbArc
 50
191.5932136234841
 51
210.0000000000005
  0
LINE
  5
2670
330
2
100
AcDbEntity
  8
0
100
AcDbLine
 10
853.8657761153952
 20
846.4327365736467
 30
0.0
 11
853.2884258462052
 21
847.4327365736467
 31
0.0
  0
LINE
  5
2671
330
2
100
AcDbEntity
  8
0
100
AcDbLine
 10
887.3657761153953
 20
846.4327365736467
 30
0.0
 11
887.3657761153953
 21
791.4327365736468
 31
0.0
  0
LINE
  5
2672
330
2
100
AcDbEntity
  8
0
100
AcDbLine
 10
888.8657761153952
 20
846.4327365736467
 30
0.0
 11
889.4431263845852
 21
847.4327365736467
 31
0.0
  0
ARC
  5
2673
330
2
100
AcDbEntity
  8
0
100
AcDbCircle
 10
895.0771009807994
 20
847.9327365736468
 30
0.0
 40
0.5
100
AcDbArc
 50
270.0
 51
329.9999999999994
  0
LINE
  5
2674
330
2
100
AcDbEntity
  8
0
100
AcDbLine
 10
895.5978269229634
 20
847.8346603622936
 30
0.0
 11
895.5101136826923
 21
847.6827365736468
 31
0.0
  0
ARC
  5
2675
330
2
100
AcDbEntity
  8
0
100
AcDbCircle
 10
893.8657761153953
 20
848.8346603622936
 30
0.0
 40
2.0
100
AcDbArc
 50
329.9999999999994
 51
348.4067863765158
  0
CIRCLE
  5
2680
330
2
100
AcDbEntity
  8
0
100
AcDbCircle
 10
871.3657761154049
 20
535.2427203907759
 30
0.0
 40
24.5
  0
CIRCLE
  5
2681
330
2
100
AcDbEntity
  8
0
100
AcDbCircle
 10
871.3657761153957
 20
535.2427203907788
 30
0.0
 40
18.07735026892692
  0
CIRCLE
  5
2682
330
2
100
AcDbEntity
  8
0
100
AcDbCircle
 10
871.3657761153957
 20
535.2427203907788
 30
0.0
 40
17.49999999973715
  0
CIRCLE
  5
2683
330
2
100
AcDbEntity
  8
0
100
AcDbCircle
 10
871.3657761153939
 20
535.2427203907779
 30
0.0
 40
15.99999999973806
  0
LINE
  5
2699
330
2
100
AcDbEntity
  8
0
100
AcDbLine
 10
585.3890715053601
 20
552.742720390516
 30
0.0
 11
585.3890715053601
 21
517.742720390516
 31
0.0
  0
LINE
  5
269A
330
2
100
AcDbEntity
  8
0
100
AcDbLine
 10
584.3890715053602
 20
558.9540452559212
 30
0.0
 11
584.3890715053602
 21
511.5313955251108
 31
0.0
  0
LINE
  5
269B
330
2
100
AcDbEntity
  8
0
100
AcDbLine
 10
640.3890715053602
 20
551.2427203905161
 30
0.0
 11
640.3890715053602
 21
519.242720390516
 31
0.0
  0
LINE
  5
269C
330
2
100
AcDbEntity
  8
0
100
AcDbLine
 10
640.3890715053602
 20
519.242720390516
 30
0.0
 11
585.3890715053601
 21
519.242720390516
 31
0.0
  0
ARC
  5
269D
330
2
100
AcDbEntity
  8
0
100
AcDbCircle
 10
582.9871477167124
 20
512.7427203905161
 30
0.0
 40
2.0
100
AcDbArc
 50
281.593213623511
 51
300.0000000000005
  0
LINE
  5
269E
330
2
100
AcDbEntity
  8
0
100
AcDbLine
 10
583.9871477167124
 20
511.0106695829473
 30
0.0
 11
584.1390715053602
 21
511.0983828232185
 31
0.0
  0
ARC
  5
269F
330
2
100
AcDbEntity
  8
0
100
AcDbCircle
 10
583.8890715053602
 20
511.5313955251108
 30
0.0
 40
0.5
100
AcDbArc
 50
300.0000000000005
 51
0.0
  0
LINE
  5
26A0
330
2
100
AcDbEntity
  8
0
100
AcDbLine
 10
585.3890715053601
 20
517.742720390516
 30
0.0
 11
584.3890715053602
 21
517.1653701213263
 31
0.0
  0
LINE
  5
26A1
330
2
100
AcDbEntity
  8
0
100
AcDbLine
 10
585.3890715053601
 20
551.242720390516
 30
0.0
 11
640.3890715053602
 21
551.2427203905161
 31
0.0
  0
ARC
  5
26A2
330
2
100
AcDbEntity
  8
0
100
AcDbCircle
 10
582.9871477167124
 20
557.742720390516
 30
0.0
 40
2.0
100
AcDbArc
 50
59.99999999999946
 51
78.40678637648899
  0
LINE
  5
26A3
330
2
100
AcDbEntity
  8
0
100
AcDbLine
 10
583.9871477167124
 20
559.4747711980849
 30
0.0
 11
584.1390715053602
 21
559.3870579578135
 31
0.0
  0
LINE
  5
26A4
330
2
100
AcDbEntity
  8
0
100
AcDbLine
 10
585.3890715053601
 20
552.742720390516
 30
0.0
 11
584.3890715053602
 21
553.3200706597058
 31
0.0
  0
ARC
  5
26A5
330
2
100
AcDbEntity
  8
0
100
AcDbCircle
 10
583.8890715053602
 20
558.9540452559212
 30
0.0
 40
0.5
100
AcDbArc
 50
0.0
 51
59.99999999999946
  0
SPLINE
  5
2928
330
2
100
AcDbEntity
  8
HOJO
100
AcDbSpline
210
0.0
220
0.0
230
1.0
 70
     8
 71
     3
 72
    20
 73
    16
 74
    14
 42
0.0000000001
 43
0.0000000001
 44
0.0000000001
 40
0.0
 40
0.0
 40
0.0
 40
0.0
 40
12.44274368541433
 40
19.90148793934165
 40
26.2544763983343
 40
36.78748198616209
 40
45.48519906704548
 40
54.75983323079811
 40
62.72215742483695
 40
65.87503958034384
 40
70.89234008750914
 40
80.08211730831385
 40
85.12471671256534
 40
91.73000069914028
 40
102.6961990394578
 40
102.6961990394578
 40
102.6961990394578
 40
102.6961990394578
 10
1036.389695091237
 20
535.2427203907778
 30
0.0
 10
1037.974828904564
 20
539.0576254261568
 30
0.0
 10
1040.510163736315
 20
545.1593573649355
 30
0.0
 10
1044.658400056638
 20
553.0471478423696
 30
0.0
 10
1051.784081099375
 20
557.7042348670411
 30
0.0
 10
1060.670982854812
 20
557.4002175767246
 30
0.0
 10
1070.03001533127
 20
555.9477949255205
 30
0.0
 10
1078.697471920786
 20
557.3483152006684
 30
0.0
 10
1085.492235058642
 20
556.0055114912895
 30
0.0
 10
1090.829466784397
 20
556.8915302941103
 30
0.0
 10
1096.202631344747
 20
559.7454835378094
 30
0.0
 10
1098.434394451412
 20
566.2492729500184
 30
0.0
 10
1104.549555619287
 20
570.311597477456
 30
0.0
 10
1105.426415743867
 20
578.4543648744771
 30
0.0
 10
1109.782887411303
 20
582.6341533574422
 30
0.0
 10
1112.501720773242
 20
585.2427203907778
 30
0.0
 11
1036.389695091237
 21
535.2427203907778
 31
0.0
 11
1041.383199988508
 21
546.6395085024278
 31
0.0
 11
1045.375666152693
 21
552.9397529241416
 31
0.0
 11
1050.691256870341
 21
556.4189708941092
 31
0.0
 11
1061.198653755583
 21
557.1530127248084
 31
0.0
 11
1069.865340839462
 21
556.4189708941092
 31
0.0
 11
1079.131255561494
 21
556.8210445633162
 31
0.0
 11
1087.081225597477
 21
556.3776677507093
 31
0.0
 11
1090.186705183824
 21
556.9223350117913
 31
0.0
 11
1094.56819170375
 21
559.3668963742675
 31
0.0
 11
1099.968629896406
 21
566.8024375580225
 31
0.0
 11
1103.534956883134
 21
570.3674229121989
 31
0.0
 11
1105.776647211023
 21
576.5806830079259
 31
0.0
 11
1112.501720773242
 21
585.2427203907778
 31
0.0
  0
ENDSEC
  0
SECTION
  2
OBJECTS
  0
DICTIONARY
  5
7
330
0
100
AcDbDictionary
  3
ACAD_COLOR
350
832
  3
ACAD_GROUP
350
75
  3
ACAD_LAYOUT
350
61
  3
ACAD_MATERIAL
350
808
  3
ACAD_MLEADERSTYLE
350
857
  3
ACAD_MLINESTYLE
350
76
  3
ACAD_PLOTSETTINGS
350
77
  3
ACAD_PLOTSTYLENAME
350
6
  3
ACAD_SCALELIST
350
835
  3
ACAD_TABLESTYLE
350
833
  3
ACAD_VISUALSTYLE
350
821
  3
ACADDIM
350
480
  3
ACDB_RECOMPOSE_DATA
350
88E
  3
ACDBHEADERROUNDTRIPXREC
350
29AD
  3
ACDBVARIABLEDICTIONARY
350
102
  3
DWGPROPS
350
2983
  0
DICTIONARY
  5
1BB4
330
6E
100
AcDbDictionary
280
     1
  3
ACAD_XREC_ROUNDTRIP
360
2987
  0
DICTIONARY
  5
86B
330
66
100
AcDbDictionary
280
     1
  3
ACAD_LAYERSTATES
360
86C
  0
DICTIONARY
  5
1A25
330
5E
100
AcDbDictionary
280
     1
  3
ADSK_XREC_LAYER_RECONCILED
360
1A26
  0
DICTIONARY
  5
1A27
330
3E
100
AcDbDictionary
280
     1
  3
ADSK_XREC_LAYER_RECONCILED
360
1A28
  0
DICTIONARY
  5
1A2D
330
2B5
100
AcDbDictionary
280
     1
  3
ADSK_XREC_LAYER_RECONCILED
360
1A2E
  0
DICTIONARY
  5
1A2F
330
2BA
100
AcDbDictionary
280
     1
  3
ADSK_XREC_LAYER_RECONCILED
360
1A30
  0
DICTIONARY
  5
1A33
330
3FA
100
AcDbDictionary
280
     1
  3
ADSK_XREC_LAYER_RECONCILED
360
1A34
  0
DICTIONARY
  5
192E
330
2
100
AcDbDictionary
280
     1
  3
ACAD_LAYOUTSELFREF
360
29CE
  3
ACAD_SORTENTS
360
192F
  0
DICTIONARY
  5
29CF
330
29A7
100
AcDbDictionary
280
     1
  3
ACAD_LAYOUTSELFREF
360
29D0
  0
DICTIONARY
  5
832
102
{ACAD_REACTORS
330
7
102
}
330
7
100
AcDbDictionary
  0
DICTIONARY
  5
75
102
{ACAD_REACTORS
330
7
102
}
330
7
100
AcDbDictionary
  0
DICTIONARY
  5
61
102
{ACAD_REACTORS
330
7
102
}
330
7
100
AcDbDictionary
  0
DICTIONARY
  5
808
102
{ACAD_REACTORS
330
7
102
}
330
7
100
AcDbDictionary
  3
BYBLOCK
350
811
  3
BYLAYER
350
809
  3
GLOBAL
350
819
  0
DICTIONARY
  5
857
102
{ACAD_REACTORS
330
7
102
}
330
7
100
AcDbDictionary
  3
STANDARD
350
858
  0
DICTIONARY
  5
76
102
{ACAD_REACTORS
330
7
102
}
330
7
100
AcDbDictionary
  3
STANDARD
350
78
  0
DICTIONARY
  5
77
102
{ACAD_REACTORS
330
7
102
}
330
7
100
AcDbDictionary
  0
ACDBDICTIONARYWDFLT
  5
6
102
{ACAD_REACTORS
330
7
102
}
330
7
100
AcDbDictionary
281
     1
  3
Normal
350
5
100
AcDbDictionaryWithDefault
340
5
  0
DICTIONARY
  5
835
102
{ACAD_REACTORS
330
7
102
}
330
7
100
AcDbDictionary
  3
A0
350
836
  3
A1
350
837
  3
A2
350
838
  3
A3
350
839
  3
A4
350
83A
  3
A5
350
83B
  3
A6
350
83C
  3
A7
350
83D
  3
A8
350
83E
  3
A9
350
83F
  3
B0
350
840
  3
B1
350
841
  3
B2
350
842
  3
B3
350
843
  3
B4
350
844
  3
B5
350
845
  3
B6
350
846
  3
B7
350
847
  3
B8
350
848
  3
B9
350
849
  3
C0
350
84A
  3
C1
350
84B
  3
C2
350
84C
  3
C3
350
84D
  3
C4
350
84E
  3
C5
350
84F
  3
C6
350
850
  3
C7
350
851
  3
C8
350
852
  3
C9
350
853
  3
D0
350
854
  3
D1
350
855
  3
D2
350
856
  0
DICTIONARY
  5
833
102
{ACAD_REACTORS
330
7
102
}
330
7
100
AcDbDictionary
  3
STANDARD
350
834
  0
DICTIONARY
  5
821
102
{ACAD_REACTORS
330
7
102
}
330
7
100
AcDbDictionary
  3
2DWIREFRAME
350
827
  3
3D_HIDDEN
350
829
  3
3DWIREFRAME
350
828
  3
BASIC
350
826
  3
BRIGHTEN
350
82D
  3
COLORCHANGE
350
831
  3
CONCEPTUAL
350
82A
  3
DIM
350
82C
  3
FACEPATTERN
350
830
  3
FLAT
350
822
  3
FLATWITHEDGES
350
823
  3
GOURAUD
350
824
  3
GOURAUDWITHEDGES
350
825
  3
LINEPATTERN
350
82F
  3
REALISTIC
350
82B
  3
THICKEN
350
82E
  0
XRECORD
  5
480
102
{ACAD_REACTORS
330
7
102
}
330
7
100
AcDbXrecord
 90
   990106
  3

 60
     0
 61
     0
 62
     1
 63
     3
 64
     1
 65
     0
 66
     0
 67
     3
 68
     1
 69
     0
 70
     0
 71
     0
 72
     0
 40
0.0
170
     2
340
0
  0
XRECORD
  5
88E
102
{ACAD_REACTORS
330
7
102
}
330
7
100
AcDbXrecord
 90
        1
330
834
  0
DICTIONARY
  5
29AD
102
{ACAD_REACTORS
330
7
102
}
330
7
100
AcDbDictionary
  3
CEPSNTYPE
350
29B7
  3
DIMSTYLEDATA
350
29BB
  3
FINGERPRINTGUID
350
29B8
  3
HYPERLINKBASE
350
29B0
  3
INSUNITS
350
29B6
  3
LAYOUTDICT
350
29B2
  3
LWETCUNION
350
29B5
  3
PLOTSETDICT
350
29B3
  3
PLOTSTYLNAMDICT
350
29B4
  3
PSVPSCALE
350
29BA
  3
PUCSBASE
350
29BE
  3
PUCSORGBACK
350
29C4
  3
PUCSORGBOTTOM
350
29C0
  3
PUCSORGFRONT
350
29C3
  3
PUCSORGLEFT
350
29C1
  3
PUCSORGRIGHT
350
29C2
  3
PUCSORGTOP
350
29BF
  3
PUCSORTHOREF
350
29BC
  3
PUCSORTHOVIEW
350
29BD
  3
STYLESHEET
350
29B1
  3
TSTACKALIGN
350
29AE
  3
TSTACKSIZE
350
29AF
  3
UCSBASE
350
29C7
  3
UCSORGBACK
350
29CD
  3
UCSORGBOTTOM
350
29C9
  3
UCSORGFRONT
350
29CC
  3
UCSORGLEFT
350
29CA
  3
UCSORGRIGHT
350
29CB
  3
UCSORGTOP
350
29C8
  3
UCSORTHOREF
350
29C5
  3
UCSORTHOVIEW
350
29C6
  3
VERSIONGUID
350
29B9
  0
DICTIONARY
  5
102
102
{ACAD_REACTORS
330
7
102
}
330
7
100
AcDbDictionary
  3
CANNOSCALE
350
892
  3
CMLEADERSTYLE
350
890
  3
CTABLESTYLE
350
88F
  3
DIMASSOC
350
103
  3
INDEXCTL
350
1BC3
  3
LIGHTINGUNITS
350
893
  3
MSLTSCALE
350
891
  3
SORTENTS
350
549
  0
XRECORD
  5
2983
102
{ACAD_REACTORS
330
7
102
}
330
7
100
AcDbXrecord
  1
DWGPROPS COOKIE
  2

  3

  4

  6

  7

  8
knsuzuki
  9

300
=
301
=
302
=
303
=
304
=
305
=
306
=
307
=
308
=
309
=
 40
0.0579839351851852
 41
2454889.560527523
 42
2454908.347260555
  1

 90
        0
  0
XRECORD
  5
2987
102
{ACAD_REACTORS
330
1BB4
102
}
330
1BB4
100
AcDbXrecord
102
VTR_0.000_0.000_1.000_1.000_VISUALSTYLE
340
827
102
VTR_0.000_0.000_1.000_1.000_GRIDDISPLAY
 70
     3
102
VTR_0.000_0.000_1.000_1.000_GRIDMAJOR
 70
     5
102
VTR_0.000_0.000_1.000_1.000_DEFAULTLIGHTING
280
     1
102
VTR_0.000_0.000_1.000_1.000_DEFAULTLIGHTINGTYPE
 70
     1
102
VTR_0.000_0.000_1.000_1.000_BRIGHTNESS
141
0.0
102
VTR_0.000_0.000_1.000_1.000_CONTRAST
142
0.0
  0
DICTIONARY
  5
86C
102
{ACAD_REACTORS
330
86B
102
}
330
86B
100
AcDbDictionary
  0
XRECORD
  5
1A26
102
{ACAD_REACTORS
330
1A25
102
}
330
1A25
100
AcDbXrecord
290
     1
  0
XRECORD
  5
1A28
102
{ACAD_REACTORS
330
1A27
102
}
330
1A27
100
AcDbXrecord
290
     1
  0
XRECORD
  5
1A2E
102
{ACAD_REACTORS
330
1A2D
102
}
330
1A2D
100
AcDbXrecord
290
     1
  0
XRECORD
  5
1A30
102
{ACAD_REACTORS
330
1A2F
102
}
330
1A2F
100
AcDbXrecord
290
     1
  0
XRECORD
  5
1A34
102
{ACAD_REACTORS
330
1A33
102
}
330
1A33
100
AcDbXrecord
290
     1
  0
XRECORD
  5
29CE
102
{ACAD_REACTORS
330
192E
102
}
330
192E
100
AcDbXrecord
340
2
  0
SORTENTSTABLE
  5
192F
102
{ACAD_REACTORS
330
192E
102
}
330
192E
100
AcDbSortentsTable
330
2
331
1F01
  5
2065
331
1150
  5
1154
331
F6C
  5
F6D
331
EF5
  5
EF5
331
E77
  5
E77
331
EB6
  5
EB6
331
1073
  5
1074
331
10CA
  5
10CB
331
1101
  5
1102
331
1670
  5
1674
331
1109
  5
110A
331
107B
  5
107C
331
EFD
  5
EFD
331
E7F
  5
E7F
331
EBE
  5
EBE
331
F74
  5
F75
331
10D2
  5
10D3
331
1611
  5
1615
331
177F
  5
1783
331
1160
  5
1164
331
F7C
  5
F7D
331
10DA
  5
10DB
331
F05
  5
F05
331
E87
  5
E87
331
1121
  5
1123
331
1619
  5
161D
331
1678
  5
167C
331
198D
  5
1A49
331
1680
  5
1684
331
1787
  5
178B
331
1129
  5
112C
331
E8F
  5
E8F
331
F0D
  5
F0D
331
10A3
  5
10A4
331
1621
  5
1625
331
1629
  5
162D
331
178F
  5
1793
331
DF9
  5
DF9
331
E38
  5
E38
331
1EBC
  5
1EBF
331
E01
  5
E01
331
E40
  5
E40
331
1E85
  5
1E87
331
1B93
  5
1B9D
331
1EC4
  5
1EC7
331
E48
  5
E48
331
1ECC
  5
1ECF
331
E09
  5
E09
331
1E8D
  5
1E90
331
E11
  5
E11
331
1E95
  5
1E98
331
1ED2
  5
1ED5
331
1EDA
  5
1EDD
331
20A7
  5
20AB
331
1EE2
  5
1EE5
331
E50
  5
E50
331
E97
  5
E97
331
E58
  5
E58
331
ED6
  5
ED6
331
F84
  5
F85
331
10AB
  5
10AC
331
10E2
  5
10E3
331
1131
  5
1134
331
1688
  5
168C
331
10EA
  5
10EB
331
F8C
  5
F8D
331
F55
  5
F55
331
E60
  5
E60
331
E9F
  5
E9F
331
EDE
  5
EDE
331
10B3
  5
10B4
331
1139
  5
113D
331
1631
  5
1636
331
1141
  5
1145
331
10F2
  5
10F9
331
10BB
  5
10BC
331
F94
  5
F95
331
F5D
  5
F5E
331
EE6
  5
EE6
331
E68
  5
E68
331
EA7
  5
EA7
331
1184
  5
1188
331
179F
  5
17A3
331
1149
  5
114D
331
10FA
  5
10FB
331
10C3
  5
10C4
331
F65
  5
F66
331
EEE
  5
EEE
331
EAF
  5
EAF
331
118C
  5
1194
331
1720
  5
1724
331
17A7
  5
17AB
331
1669
  5
166D
331
160A
  5
160E
331
1194
  5
1198
331
E19
  5
E19
331
1E9D
  5
1EA0
331
E21
  5
E21
331
1EA5
  5
1EA8
331
E29
  5
E29
331
1EAD
  5
1EB0
331
E31
  5
E31
331
1EB5
  5
1EB8
331
1F02
  5
2066
331
E70
  5
E70
331
1151
  5
1155
331
1102
  5
1103
331
10CB
  5
10CC
331
1074
  5
1075
331
EF6
  5
EF6
331
EB7
  5
EB7
331
E78
  5
E78
331
F6D
  5
F6E
331
1671
  5
1675
331
110A
  5
110B
331
107C
  5
107D
331
EFE
  5
EFE
331
E80
  5
E80
331
EBF
  5
EBF
331
F75
  5
F76
331
10D3
  5
10D4
331
1159
  5
115D
331
1612
  5
1616
331
1778
  5
177C
331
1780
  5
1784
331
1161
  5
1165
331
10DB
  5
10DC
331
F7D
  5
F7E
331
1122
  5
1124
331
E88
  5
E88
331
F06
  5
F06
331
161A
  5
161E
331
1679
  5
167D
331
1681
  5
1685
331
1788
  5
178C
331
112A
  5
112D
331
10A4
  5
10A5
331
F0E
  5
F0E
331
1622
  5
1626
331
1790
  5
1794
331
162A
  5
162E
331
1B4C
  5
1B79
331
E39
  5
E39
331
DFA
  5
DFA
331
1EBD
  5
1EC0
331
E02
  5
E02
331
E41
  5
E41
331
1E86
  5
1E88
331
1B94
  5
1B9E
331
1EC5
  5
1EC8
331
E49
  5
E49
331
1ECD
  5
1ED0
331
E0A
  5
E0A
331
1E8E
  5
1E91
331
E12
  5
E12
331
1E96
  5
1E99
331
1ED3
  5
1ED6
331
1EDB
  5
1EDE
331
1EE3
  5
1EE6
331
20A8
  5
20AC
331
E51
  5
E51
331
E90
  5
E90
331
1132
  5
1135
331
10E3
  5
10E4
331
10AC
  5
10AD
331
E59
  5
E59
331
E98
  5
E98
331
ED7
  5
ED7
331
F85
  5
F86
331
1689
  5
168D
331
113A
  5
113E
331
10EB
  5
10EC
331
10B4
  5
10B5
331
F8D
  5
F8E
331
F56
  5
F56
331
EDF
  5
EDF
331
E61
  5
E61
331
EA0
  5
EA0
331
1632
  5
1637
331
1947
  5
1973
331
17A0
  5
17A4
331
F95
  5
F96
331
F5E
  5
F5F
331
EE7
  5
EE7
331
10BC
  5
10BD
331
1142
  5
1146
331
1185
  5
1189
331
1719
  5
171D
331
EA8
  5
EA8
331
E69
  5
E69
331
1721
  5
1725
331
1662
  5
1666
331
17A8
  5
17AC
331
114A
  5
114E
331
F66
  5
F67
331
EEF
  5
EEF
331
10C4
  5
10C5
331
10FB
  5
10FC
331
166A
  5
166E
331
160B
  5
160F
331
1195
  5
1199
331
E1A
  5
E1A
331
1E9E
  5
1EA1
331
E22
  5
E22
331
1EA6
  5
1EA9
331
E2A
  5
E2A
331
1EAE
  5
1EB1
331
E32
  5
E32
331
1EB6
  5
1EB9
331
1EFB
  5
1EFF
331
1F03
  5
2067
331
E71
  5
E71
331
EB0
  5
EB0
331
1152
  5
1156
331
10CC
  5
10CD
331
F6E
  5
F6F
331
EF7
  5
EF7
331
E79
  5
E79
331
EB8
  5
EB8
331
1103
  5
1104
331
1779
  5
177D
331
1672
  5
1676
331
1613
  5
1617
331
110B
  5
110C
331
107D
  5
107E
331
EC0
  5
EC0
331
EFF
  5
EFF
331
E81
  5
E81
331
F76
  5
F77
331
10D4
  5
10D5
331
115A
  5
115E
331
1781
  5
1785
331
161B
  5
161F
331
167A
  5
167E
331
1162
  5
1166
331
F7E
  5
F7F
331
10DC
  5
10DD
331
E89
  5
E89
331
F07
  5
F07
331
1123
  5
1125
331
1930
  5
1128
331
1682
  5
1686
331
1623
  5
1627
331
1789
  5
178D
331
112B
  5
112E
331
F0F
  5
F0F
331
10A5
  5
10A6
331
162B
  5
162F
331
1791
  5
1795
331
E3A
  5
E3A
331
DFB
  5
DFB
331
1EBE
  5
1EC1
331
E03
  5
E03
331
E42
  5
E42
331
1E87
  5
1E89
331
1EC6
  5
1EC9
331
1ECE
  5
1ED1
331
E0B
  5
E0B
331
1B9D
  5
1E84
331
1E8F
  5
1E92
331
E4A
  5
E4A
331
E13
  5
E13
331
1E97
  5
1E9A
331
1ED4
  5
1ED7
331
1EDC
  5
1EDF
331
1EE4
  5
1EE7
331
20A9
  5
20AD
331
E52
  5
E52
331
E91
  5
E91
331
F86
  5
F87
331
E5A
  5
E5A
331
E99
  5
E99
331
ED8
  5
ED8
331
10AD
  5
10AE
331
10E4
  5
10E5
331
1133
  5
1136
331
168A
  5
168E
331
10EC
  5
10ED
331
F8E
  5
F8F
331
F57
  5
F57
331
E62
  5
E62
331
EA1
  5
EA1
331
EE0
  5
EE0
331
10B5
  5
10B6
331
113B
  5
113F
331
1186
  5
118A
331
171A
  5
171F
331
17A1
  5
17A5
331
F96
  5
F97
331
EA9
  5
EA9
331
E6A
  5
E6A
331
EE8
  5
EE8
331
F5F
  5
F60
331
10BD
  5
10BE
331
1143
  5
1147
331
1663
  5
1667
331
1722
  5
1726
331
17A9
  5
17AD
331
114B
  5
114F
331
F67
  5
F68
331
10C5
  5
10C6
331
10FC
  5
10FD
331
1196
  5
119A
331
160C
  5
1610
331
166B
  5
166F
331
E1B
  5
E1B
331
1E9F
  5
1EA2
331
E23
  5
E23
331
1EA7
  5
1EAA
331
E2B
  5
E2B
331
1EAF
  5
1EB2
331
E33
  5
E33
331
1EB7
  5
1EBA
331
1EFC
  5
1F00
331
1F04
  5
2068
331
E72
  5
E72
331
EB1
  5
EB1
331
EF0
  5
EF0
331
1153
  5
1157
331
10CD
  5
10CE
331
1076
  5
1077
331
F6F
  5
F70
331
EF8
  5
EF8
331
E7A
  5
E7A
331
EB9
  5
EB9
331
1104
  5
1105
331
1614
  5
1618
331
1673
  5
1677
331
177A
  5
177E
331
1901
  5
1947
331
110C
  5
1120
331
107E
  5
109E
331
E82
  5
E82
331
F00
  5
F00
331
F77
  5
F78
331
10D5
  5
10D6
331
115B
  5
115F
331
1782
  5
1786
331
161C
  5
1620
331
167B
  5
167F
331
1163
  5
1167
331
10DD
  5
10DE
331
1124
  5
1126
331
F7F
  5
F80
331
E8A
  5
E8A
331
F08
  5
F08
331
109E
  5
109F
331
1931
  5
195D
331
1683
  5
1687
331
178A
  5
178E
331
1624
  5
1628
331
10A6
  5
10A7
331
112C
  5
112F
331
162C
  5
1630
331
E3B
  5
E3B
331
DFC
  5
DFC
331
1EBF
  5
1EC2
331
E04
  5
E04
331
E43
  5
E43
331
1E88
  5
1E8A
331
1EC7
  5
1ECA
331
1ECF
  5
1ED2
331
E0C
  5
E0C
331
1B9E
  5
1E85
331
1E90
  5
1E93
331
E4B
  5
E4B
331
E14
  5
E14
331
1ED5
  5
1ED8
331
1EDD
  5
1EE0
331
20A2
  5
20A6
331
1EE5
  5
1EE8
331
20AA
  5
20AE
331
E53
  5
E53
331
E92
  5
E92
331
F10
  5
F10
331
F87
  5
F88
331
E5B
  5
E5B
331
E9A
  5
E9A
331
ED9
  5
ED9
331
10AE
  5
10AF
331
10E5
  5
10E6
331
1134
  5
1137
331
168B
  5
16AC
331
10ED
  5
10EE
331
F8F
  5
F90
331
F58
  5
F58
331
E63
  5
E63
331
EA2
  5
EA2
331
EE1
  5
EE1
331
10B6
  5
10B7
331
113C
  5
1140
331
171B
  5
1720
331
1187
  5
118B
331
17A2
  5
17A6
331
F60
  5
F61
331
EAA
  5
EAA
331
E6B
  5
E6B
331
EE9
  5
EE9
331
F97
  5
F98
331
10BE
  5
10BF
331
1144
  5
1148
331
1723
  5
1727
331
1664
  5
1668
331
1605
  5
1609
331
114C
  5
1150
331
10C6
  5
10C7
331
10FD
  5
10FE
331
166C
  5
1670
331
160D
  5
1611
331
1197
  5
1605
331
1E98
  5
1E9B
331
E1C
  5
E1C
331
1EA0
  5
1EA3
331
E24
  5
E24
331
1EA8
  5
1EAB
331
1B27
  5
1B62
331
E2C
  5
E2C
331
1EB0
  5
1EB3
331
E34
  5
E34
331
1EFD
  5
1F01
331
F68
  5
F69
331
E73
  5
E73
331
EB2
  5
EB2
331
EF1
  5
EF1
331
1154
  5
1159
331
10CE
  5
10CF
331
EF9
  5
EF9
331
E7B
  5
E7B
331
EBA
  5
EBA
331
F70
  5
F71
331
1105
  5
1106
331
177B
  5
177F
331
1674
  5
1678
331
1615
  5
1619
331
1A98
  5
1B11
331
F78
  5
F79
331
E83
  5
E83
331
F01
  5
F01
331
10D6
  5
10D7
331
115C
  5
1160
331
1783
  5
1787
331
161D
  5
1621
331
167C
  5
1680
331
1AD0
  5
1B27
331
1164
  5
1168
331
10DE
  5
10DF
331
1125
  5
1127
331
E8B
  5
E8B
331
F09
  5
F09
331
109F
  5
10A0
331
1684
  5
1688
331
178B
  5
178F
331
1625
  5
1629
331
10A7
  5
10A8
331
112D
  5
1130
331
162D
  5
1631
331
1A19
  5
1A98
331
1EB8
  5
1EBB
331
1EC0
  5
1EC3
331
DFD
  5
DFD
331
E3C
  5
E3C
331
1E89
  5
1E8B
331
1EC8
  5
1ECB
331
E05
  5
E05
331
E44
  5
E44
331
E4C
  5
E4C
331
1E91
  5
1E94
331
E0D
  5
E0D
331
E15
  5
E15
331
1ED6
  5
1ED9
331
1EDE
  5
1EE1
331
20A3
  5
20A7
331
1EE6
  5
1EE9
331
20AB
  5
20AF
331
E54
  5
E54
331
E93
  5
E93
331
F80
  5
F81
331
1168
  5
116C
331
F88
  5
F89
331
E9B
  5
E9B
331
E5C
  5
E5C
331
EDA
  5
EDA
331
10AF
  5
10B0
331
10E6
  5
10E7
331
1135
  5
1138
331
168C
  5
16AD
331
10EE
  5
10EF
331
10B7
  5
10B8
331
F90
  5
F91
331
F59
  5
F5A
331
EA3
  5
EA3
331
E64
  5
E64
331
EE2
  5
EE2
331
113D
  5
1141
331
17A3
  5
17A7
331
1188
  5
118C
331
F61
  5
F62
331
E6C
  5
E6C
331
EAB
  5
EAB
331
EEA
  5
EEA
331
F98
  5
F99
331
10BF
  5
10C0
331
1145
  5
1149
331
1665
  5
1669
331
1606
  5
160A
331
10C7
  5
10C8
331
10FE
  5
10FF
331
114D
  5
1151
331
1774
  5
1778
331
166D
  5
1671
331
160E
  5
1612
331
1A49
  5
1AD0
331
1E99
  5
1E9C
331
1EA1
  5
1EA4
331
E1D
  5
E1D
331
1EA9
  5
1EAC
331
E25
  5
E25
331
1EB1
  5
1EB4
331
E2D
  5
E2D
331
E35
  5
E35
331
1EFE
  5
1F02
331
F69
  5
F6A
331
E74
  5
E74
331
EB3
  5
EB3
331
EF2
  5
EF2
331
1198
  5
1606
331
1155
  5
115A
331
10CF
  5
10D0
331
1078
  5
1079
331
EFA
  5
EFA
331
E7C
  5
E7C
331
EBB
  5
EBB
331
F71
  5
F72
331
1106
  5
1107
331
177C
  5
1780
331
1675
  5
1679
331
1616
  5
161A
331
F79
  5
F7A
331
E84
  5
E84
331
F02
  5
F02
331
10D7
  5
10D8
331
115D
  5
1161
331
1784
  5
1788
331
161E
  5
1622
331
167D
  5
1681
331
1165
  5
1169
331
10DF
  5
10E0
331
E8C
  5
E8C
331
F0A
  5
F0A
331
10A0
  5
10A1
331
1126
  5
1129
331
1685
  5
1689
331
178C
  5
1790
331
1626
  5
162A
331
112E
  5
1131
331
162E
  5
1632
331
1EB9
  5
1EBC
331
1EC1
  5
1EC4
331
DFE
  5
DFE
331
E3D
  5
E3D
331
1E8A
  5
1E8C
331
1EC9
  5
1ECC
331
E06
  5
E06
331
E45
  5
E45
331
E4D
  5
E4D
331
1E92
  5
1E95
331
E0E
  5
E0E
331
E16
  5
E16
331
1ED7
  5
1EDA
331
1EDF
  5
1EE2
331
20A4
  5
20A8
331
1EE7
  5
1EEA
331
20AC
  5
20B0
331
E55
  5
E55
331
E94
  5
E94
331
F81
  5
F82
331
10A8
  5
10A9
331
1169
  5
1183
331
F89
  5
F8A
331
E9C
  5
E9C
331
E5D
  5
E5D
331
EDB
  5
EDB
331
10B0
  5
10B1
331
10E7
  5
10E8
331
1136
  5
1139
331
1181
  5
1185
331
168D
  5
16AF
331
10EF
  5
10F0
331
F91
  5
F92
331
F5A
  5
F5B
331
EA4
  5
EA4
331
E65
  5
E65
331
EE3
  5
EE3
331
10B8
  5
10B9
331
113E
  5
1142
331
1189
  5
118D
331
17A4
  5
17A8
331
F99
  5
F9A
331
F62
  5
F63
331
E6D
  5
E6D
331
EAC
  5
EAC
331
EEB
  5
EEB
331
10C0
  5
10C1
331
1146
  5
114A
331
1666
  5
166A
331
1607
  5
160B
331
114E
  5
1152
331
10FF
  5
1100
331
1191
  5
1195
331
1775
  5
1779
331
166E
  5
1672
331
160F
  5
1613
331
1E9A
  5
1E9D
331
1B11
  5
1B4C
331
1EA2
  5
1EA5
331
E1E
  5
E1E
331
1EAA
  5
1EAD
331
E26
  5
E26
331
1EB2
  5
1EB5
331
E2E
  5
E2E
331
E36
  5
E36
331
1EFF
  5
1F03
331
EF3
  5
EF3
331
E75
  5
E75
331
EB4
  5
EB4
331
F6A
  5
F6B
331
10C8
  5
10C9
331
1156
  5
115B
331
1107
  5
1108
331
1079
  5
107A
331
EFB
  5
EFB
331
E7D
  5
E7D
331
EBC
  5
EBC
331
F72
  5
F73
331
10D0
  5
10D1
331
1199
  5
1607
331
177D
  5
1781
331
1676
  5
167A
331
F7A
  5
F7B
331
10D8
  5
10D9
331
E85
  5
E85
331
F03
  5
F03
331
115E
  5
1162
331
1617
  5
161B
331
1973
  5
1A19
331
1785
  5
1789
331
1166
  5
116A
331
E8D
  5
E8D
331
F0B
  5
F0B
331
10A1
  5
10A2
331
1127
  5
112A
331
161F
  5
1623
331
167E
  5
1682
331
1686
  5
168A
331
178D
  5
1791
331
112F
  5
1132
331
1627
  5
162B
331
162F
  5
1633
331
1B79
  5
1B94
331
1EBA
  5
1EBD
331
1EC2
  5
1EC5
331
DFF
  5
DFF
331
E3E
  5
E3E
331
1E8B
  5
1E8D
331
1ECA
  5
1ECD
331
E07
  5
E07
331
E46
  5
E46
331
E4E
  5
E4E
331
1E93
  5
1E96
331
E0F
  5
E0F
331
E17
  5
E17
331
1ED0
  5
1ED3
331
1ED8
  5
1EDB
331
20A5
  5
20A9
331
1EE0
  5
1EE3
331
1EE8
  5
1EEB
331
20AD
  5
20B1
331
F82
  5
F83
331
E56
  5
E56
331
E95
  5
E95
331
10A9
  5
10AA
331
10E0
  5
10E1
331
10E8
  5
10E9
331
F8A
  5
F8B
331
F53
  5
F53
331
E9D
  5
E9D
331
E5E
  5
E5E
331
EDC
  5
EDC
331
10B1
  5
10B2
331
1137
  5
113A
331
116A
  5
1184
331
113F
  5
1143
331
F92
  5
F93
331
F5B
  5
F5C
331
EA5
  5
EA5
331
E66
  5
E66
331
EE4
  5
EE4
331
10B9
  5
10BA
331
10F0
  5
10F1
331
1182
  5
1186
331
168E
  5
16B0
331
F9A
  5
F9B
331
F63
  5
F64
331
E6E
  5
E6E
331
EAD
  5
EAD
331
EEC
  5
EEC
331
10C1
  5
10C2
331
1147
  5
114B
331
118A
  5
118E
331
17A5
  5
17A9
331
114F
  5
1153
331
1192
  5
1196
331
1608
  5
160C
331
1667
  5
166B
331
1776
  5
177A
331
166F
  5
1673
331
1E9B
  5
1E9E
331
1EA3
  5
1EA6
331
E1F
  5
E1F
331
1EAB
  5
1EAE
331
E27
  5
E27
331
1EB3
  5
1EB6
331
E2F
  5
E2F
331
E37
  5
E37
331
1F00
  5
1F04
331
1072
  5
1073
331
F6B
  5
F6C
331
EF4
  5
EF4
331
E76
  5
E76
331
EB5
  5
EB5
331
10C9
  5
10CA
331
1100
  5
1101
331
1610
  5
1614
331
1108
  5
1109
331
107A
  5
107B
331
EFC
  5
EFC
331
E7E
  5
E7E
331
EBD
  5
EBD
331
F73
  5
F74
331
10D1
  5
10D2
331
1157
  5
115C
331
119A
  5
1608
331
177E
  5
1782
331
1677
  5
167B
331
115F
  5
1163
331
F7B
  5
F7C
331
10D9
  5
10DA
331
E86
  5
E86
331
F04
  5
F04
331
1120
  5
1122
331
1618
  5
161C
331
1786
  5
178A
331
1167
  5
116B
331
1128
  5
112B
331
E8E
  5
E8E
331
F0C
  5
F0C
331
10A2
  5
10A3
331
1620
  5
1624
331
167F
  5
1683
331
192D
  5
1121
331
1687
  5
168B
331
1628
  5
162C
331
178E
  5
1792
331
1EBB
  5
1EBE
331
1E84
  5
1E86
331
1EC3
  5
1EC6
331
E00
  5
E00
331
E3F
  5
E3F
331
1E8C
  5
1E8E
331
1ECB
  5
1ECE
331
E08
  5
E08
331
E47
  5
E47
331
E4F
  5
E4F
331
1E94
  5
1E97
331
E10
  5
E10
331
1ED1
  5
1ED4
331
1ED9
  5
1EDC
331
20A6
  5
20AA
331
1EE1
  5
1EE4
331
1EE9
  5
1EEC
331
20AE
  5
20B2
331
F83
  5
F84
331
E96
  5
E96
331
E57
  5
E57
331
10AA
  5
10AB
331
10E1
  5
10E2
331
1130
  5
1133
331
10E9
  5
10EA
331
F8B
  5
F8C
331
F54
  5
F54
331
E9E
  5
E9E
331
E5F
  5
E5F
331
EDD
  5
EDD
331
10B2
  5
10B3
331
1138
  5
113C
331
1630
  5
1635
331
F93
  5
F94
331
EA6
  5
EA6
331
E67
  5
E67
331
EE5
  5
EE5
331
F5C
  5
F5D
331
10BA
  5
10BB
331
10F1
  5
10F2
331
1140
  5
1144
331
1183
  5
1187
331
1638
  5
163C
331
F9B
  5
1072
331
F64
  5
F65
331
E6F
  5
E6F
331
EAE
  5
EAE
331
EED
  5
EED
331
10C2
  5
10C3
331
10F9
  5
10FA
331
1148
  5
114C
331
118B
  5
1193
331
1660
  5
1665
331
17A6
  5
17AA
331
1668
  5
166C
331
1193
  5
1197
331
1609
  5
160D
331
195D
  5
198D
331
1777
  5
177B
331
1E9C
  5
1E9F
331
E18
  5
E18
331
1EA4
  5
1EA7
331
E20
  5
E20
331
1EAC
  5
1EAF
331
E28
  5
E28
331
E30
  5
E30
331
1EB4
  5
1EB7
  0
XRECORD
  5
29D0
102
{ACAD_REACTORS
330
29CF
102
}
330
29CF
100
AcDbXrecord
340
29A7
  0
ACAD_PROXY_OBJECT
  5
811
102
{ACAD_XDICTIONARY
360
812
102
}
102
{ACAD_REACTORS
330
808
102
}
330
808
100
AcDbProxyObject
 90
      499
 91
      512
 93
     1340
310
42109E509B1BD8DAC02004014080404555555555555953FAA155555555555654FEA9AA400014080404555555555555953FAA155555555555654FEA9AA400000000000000E03F4080404555555555555953FAA155555555555654FEA9AA4014080404555555555555953FAA155555555555654FEA9AA4010201011555555555
310
55654FEA8555555555555953FAA6A9005020101155555555555654FEA8555555555555953FAA6A9000
 94
        0
1001
ACAD
1000
AcadProxyRoundTripData
1071
      504
1071
   851991
1070
     0
  0
ACAD_PROXY_OBJECT
  5
809
102
{ACAD_XDICTIONARY
360
80A
102
}
102
{ACAD_REACTORS
330
808
102
}
330
808
100
AcDbProxyObject
 90
      499
 91
      512
 93
     1340
310
42109E53185E595C802004014080404555555555555953FAA155555555555654FEA9AA400014080404555555555555953FAA155555555555654FEA9AA400000000000000E03F4080404555555555555953FAA155555555555654FEA9AA4014080404555555555555953FAA155555555555654FEA9AA4010201011555555555
310
55654FEA8555555555555953FAA6A9005020101155555555555654FEA8555555555555953FAA6A9000
 94
        0
1001
ACAD
1000
AcadProxyRoundTripData
1071
      504
1071
   851991
1070
     0
  0
ACAD_PROXY_OBJECT
  5
819
102
{ACAD_XDICTIONARY
360
81A
102
}
102
{ACAD_REACTORS
330
808
102
}
330
808
100
AcDbProxyObject
 90
      499
 91
      512
 93
     1332
310
41D1DB1BD8985B002004014080404555555555555953FAA155555555555654FEA9AA400014080404555555555555953FAA155555555555654FEA9AA400000000000000E03F4080404555555555555953FAA155555555555654FEA9AA4014080404555555555555953FAA155555555555654FEA9AA401020101155555555555
310
654FEA8555555555555953FAA6A9005020101155555555555654FEA8555555555555953FAA6A9000
 94
        0
1001
ACAD
1000
AcadProxyRoundTripData
1071
      504
1071
   851991
1070
     0
  0
ACAD_PROXY_OBJECT
  5
858
102
{ACAD_REACTORS
330
857
102
}
330
857
100
AcDbProxyObject
 90
      499
 91
      512
 93
      618
310
40901902A4063FBFFFFFE056BD1B81E855B9FC0AD7A3703D0AD73F4254DD185B99185C990000AD7A3703D0AC73F90141901A02B5E8DC0F42B1CFC02B5E8DC0F42B1CFE5764000000000000300FC6
340
6A
340
0
340
16
340
0
 94
        0
1001
ACAD_MLEADERVER
1070
     2
1001
ACAD
1000
AcadProxyRoundTripData
1071
      508
1071
   851991
1070
     0
  0
MLINESTYLE
  5
78
102
{ACAD_REACTORS
330
76
102
}
330
76
100
AcDbMlineStyle
  2
STANDARD
 70
     0
  3

 62
     0
 51
90.0
 52
90.0
 71
     2
 49
0.5
 62
   256
  6
BYLAYER
 49
-0.5
 62
   256
  6
BYLAYER
  0
ACDBPLACEHOLDER
  5
5
102
{ACAD_REACTORS
330
6
102
}
330
6
100
AcDbPlaceHolder
280
     0
  0
ACAD_PROXY_OBJECT
  5
836
102
{ACAD_REACTORS
330
835
102
}
330
835
100
AcDbProxyObject
 90
      499
 91
      512
 93
       49
310
904313A3100598
 94
        0
1001
ACAD
1000
AcadProxyRoundTripData
1071
      507
1071
   851991
1070
     0
  0
ACAD_PROXY_OBJECT
  5
837
102
{ACAD_REACTORS
330
835
102
}
330
835
100
AcDbProxyObject
 90
      499
 91
      512
 93
      113
310
904313A3200400000000000000406B
 94
        0
1001
ACAD
1000
AcadProxyRoundTripData
1071
      507
1071
   851991
1070
     0
  0
ACAD_PROXY_OBJECT
  5
838
102
{ACAD_REACTORS
330
835
102
}
330
835
100
AcDbProxyObject
 90
      499
 91
      512
 93
      113
310
904313A3400400000000000010406B
 94
        0
1001
ACAD
1000
AcadProxyRoundTripData
1071
      507
1071
   851991
1070
     0
  0
ACAD_PROXY_OBJECT
  5
839
102
{ACAD_REACTORS
330
835
102
}
330
835
100
AcDbProxyObject
 90
      499
 91
      512
 93
      113
310
904313A3500400000000000014406B
 94
        0
1001
ACAD
1000
AcadProxyRoundTripData
1071
      507
1071
   851991
1070
     0
  0
ACAD_PROXY_OBJECT
  5
83A
102
{ACAD_REACTORS
330
835
102
}
330
835
100
AcDbProxyObject
 90
      499
 91
      512
 93
      113
310
904313A3800400000000000020406B
 94
        0
1001
ACAD
1000
AcadProxyRoundTripData
1071
      507
1071
   851991
1070
     0
  0
ACAD_PROXY_OBJECT
  5
83B
102
{ACAD_REACTORS
330
835
102
}
330
835
100
AcDbProxyObject
 90
      499
 91
      512
 93
      121
310
905313A3130004000000000000244051
 94
        0
1001
ACAD
1000
AcadProxyRoundTripData
1071
      507
1071
   851991
1070
     0
  0
ACAD_PROXY_OBJECT
  5
83C
102
{ACAD_REACTORS
330
835
102
}
330
835
100
AcDbProxyObject
 90
      499
 91
      512
 93
      121
310
905313A3136004000000000000304051
 94
        0
1001
ACAD
1000
AcadProxyRoundTripData
1071
      507
1071
   851991
1070
     0
  0
ACAD_PROXY_OBJECT
  5
83D
102
{ACAD_REACTORS
330
835
102
}
330
835
100
AcDbProxyObject
 90
      499
 91
      512
 93
      121
310
905313A3230004000000000000344051
 94
        0
1001
ACAD
1000
AcadProxyRoundTripData
1071
      507
1071
   851991
1070
     0
  0
ACAD_PROXY_OBJECT
  5
83E
102
{ACAD_REACTORS
330
835
102
}
330
835
100
AcDbProxyObject
 90
      499
 91
      512
 93
      121
310
905313A33300040000000000003E4051
 94
        0
1001
ACAD
1000
AcadProxyRoundTripData
1071
      507
1071
   851991
1070
     0
  0
ACAD_PROXY_OBJECT
  5
83F
102
{ACAD_REACTORS
330
835
102
}
330
835
100
AcDbProxyObject
 90
      499
 91
      512
 93
      121
310
905313A3430004000000000000444051
 94
        0
1001
ACAD
1000
AcadProxyRoundTripData
1071
      507
1071
   851991
1070
     0
  0
ACAD_PROXY_OBJECT
  5
840
102
{ACAD_REACTORS
330
835
102
}
330
835
100
AcDbProxyObject
 90
      499
 91
      512
 93
      121
310
905313A3530004000000000000494051
 94
        0
1001
ACAD
1000
AcadProxyRoundTripData
1071
      507
1071
   851991
1070
     0
  0
ACAD_PROXY_OBJECT
  5
841
102
{ACAD_REACTORS
330
835
102
}
330
835
100
AcDbProxyObject
 90
      499
 91
      512
 93
      129
310
906313A313030004000000000000594038
 94
        0
1001
ACAD
1000
AcadProxyRoundTripData
1071
      507
1071
   851991
1070
     0
  0
ACAD_PROXY_OBJECT
  5
842
102
{ACAD_REACTORS
330
835
102
}
330
835
100
AcDbProxyObject
 90
      499
 91
      512
 93
      113
310
904323A31000000000000000010159
 94
        0
1001
ACAD
1000
AcadProxyRoundTripData
1071
      507
1071
   851991
1070
     0
  0
ACAD_PROXY_OBJECT
  5
843
102
{ACAD_REACTORS
330
835
102
}
330
835
100
AcDbProxyObject
 90
      499
 91
      512
 93
      113
310
904343A31000000000000000410159
 94
        0
1001
ACAD
1000
AcadProxyRoundTripData
1071
      507
1071
   851991
1070
     0
  0
ACAD_PROXY_OBJECT
  5
844
102
{ACAD_REACTORS
330
835
102
}
330
835
100
AcDbProxyObject
 90
      499
 91
      512
 93
      113
310
904383A31000000000000000810159
 94
        0
1001
ACAD
1000
AcadProxyRoundTripData
1071
      507
1071
   851991
1070
     0
  0
ACAD_PROXY_OBJECT
  5
845
102
{ACAD_REACTORS
330
835
102
}
330
835
100
AcDbProxyObject
 90
      499
 91
      512
 93
      121
310
90531303A31000000000000000910140
 94
        0
1001
ACAD
1000
AcadProxyRoundTripData
1071
      507
1071
   851991
1070
     0
  0
ACAD_PROXY_OBJECT
  5
846
102
{ACAD_REACTORS
330
835
102
}
330
835
100
AcDbProxyObject
 90
      499
 91
      512
 93
      129
310
9063130303A31000000000000001650138
 94
        0
1001
ACAD
1000
AcadProxyRoundTripData
1071
      507
1071
   851991
1070
     0
  0
ACAD_PROXY_OBJECT
  5
847
102
{ACAD_REACTORS
330
835
102
}
330
835
100
AcDbProxyObject
 90
      499
 91
      512
 93
      265
310
90F312F31323822203D2031272D302200000000000000200FC00000000000028402B
 94
        0
1001
ACAD
1000
AcadProxyRoundTripData
1071
      507
1071
   851991
1070
     0
  0
ACAD_PROXY_OBJECT
  5
848
102
{ACAD_REACTORS
330
835
102
}
330
835
100
AcDbProxyObject
 90
      499
 91
      512
 93
      257
310
90E312F363422203D2031272D302200000000000000240FC000000000000284040
 94
        0
1001
ACAD
1000
AcadProxyRoundTripData
1071
      507
1071
   851991
1070
     0
  0
ACAD_PROXY_OBJECT
  5
849
102
{ACAD_REACTORS
330
835
102
}
330
835
100
AcDbProxyObject
 90
      499
 91
      512
 93
      257
310
90E312F333222203D2031272D302200000000000000280FC000000000000284040
 94
        0
1001
ACAD
1000
AcadProxyRoundTripData
1071
      507
1071
   851991
1070
     0
  0
ACAD_PROXY_OBJECT
  5
84A
102
{ACAD_REACTORS
330
835
102
}
330
835
100
AcDbProxyObject
 90
      499
 91
      512
 93
      257
310
90E312F313622203D2031272D3022000000000000002C0FC000000000000284040
 94
        0
1001
ACAD
1000
AcadProxyRoundTripData
1071
      507
1071
   851991
1070
     0
  0
ACAD_PROXY_OBJECT
  5
84B
102
{ACAD_REACTORS
330
835
102
}
330
835
100
AcDbProxyObject
 90
      499
 91
      512
 93
      257
310
90E332F333222203D2031272D3022000000000000002E0FC000000000000284040
 94
        0
1001
ACAD
1000
AcadProxyRoundTripData
1071
      507
1071
   851991
1070
     0
  0
ACAD_PROXY_OBJECT
  5
84C
102
{ACAD_REACTORS
330
835
102
}
330
835
100
AcDbProxyObject
 90
      499
 91
      512
 93
      249
310
90D312F3822203D2031272D302200000000000000300FC000000000000284040
 94
        0
1001
ACAD
1000
AcadProxyRoundTripData
1071
      507
1071
   851991
1070
     0
  0
ACAD_PROXY_OBJECT
  5
84D
102
{ACAD_REACTORS
330
835
102
}
330
835
100
AcDbProxyObject
 90
      499
 91
      512
 93
      257
310
90E332F313622203D2031272D302200000000000000320FC000000000000284040
 94
        0
1001
ACAD
1000
AcadProxyRoundTripData
1071
      507
1071
   851991
1070
     0
  0
ACAD_PROXY_OBJECT
  5
84E
102
{ACAD_REACTORS
330
835
102
}
330
835
100
AcDbProxyObject
 90
      499
 91
      512
 93
      249
310
90D312F3422203D2031272D302200000000000000340FC000000000000284040
 94
        0
1001
ACAD
1000
AcadProxyRoundTripData
1071
      507
1071
   851991
1070
     0
  0
ACAD_PROXY_OBJECT
  5
84F
102
{ACAD_REACTORS
330
835
102
}
330
835
100
AcDbProxyObject
 90
      499
 91
      512
 93
      249
310
90D332F3822203D2031272D302200000000000000360FC000000000000284040
 94
        0
1001
ACAD
1000
AcadProxyRoundTripData
1071
      507
1071
   851991
1070
     0
  0
ACAD_PROXY_OBJECT
  5
850
102
{ACAD_REACTORS
330
835
102
}
330
835
100
AcDbProxyObject
 90
      499
 91
      512
 93
      249
310
90D312F3222203D2031272D302200000000000000380FC000000000000284040
 94
        0
1001
ACAD
1000
AcadProxyRoundTripData
1071
      507
1071
   851991
1070
     0
  0
ACAD_PROXY_OBJECT
  5
851
102
{ACAD_REACTORS
330
835
102
}
330
835
100
AcDbProxyObject
 90
      499
 91
      512
 93
      249
310
90D332F3422203D2031272D3022000000000000003A0FC000000000000284040
 94
        0
1001
ACAD
1000
AcadProxyRoundTripData
1071
      507
1071
   851991
1070
     0
  0
ACAD_PROXY_OBJECT
  5
852
102
{ACAD_REACTORS
330
835
102
}
330
835
100
AcDbProxyObject
 90
      499
 91
      512
 93
      169
310
90B3122203D2031272D3022004000000000000284020
 94
        0
1001
ACAD
1000
AcadProxyRoundTripData
1071
      507
1071
   851991
1070
     0
  0
ACAD_PROXY_OBJECT
  5
853
102
{ACAD_REACTORS
330
835
102
}
330
835
100
AcDbProxyObject
 90
      499
 91
      512
 93
      265
310
90F312D312F3222203D2031272D3022000000000000003E0FC00000000000028402B
 94
        0
1001
ACAD
1000
AcadProxyRoundTripData
1071
      507
1071
   851991
1070
     0
  0
ACAD_PROXY_OBJECT
  5
854
102
{ACAD_REACTORS
330
835
102
}
330
835
100
AcDbProxyObject
 90
      499
 91
      512
 93
      233
310
90B3322203D2031272D30220000000000000002100000000000000284000
 94
        0
1001
ACAD
1000
AcadProxyRoundTripData
1071
      507
1071
   851991
1070
     0
  0
ACAD_PROXY_OBJECT
  5
855
102
{ACAD_REACTORS
330
835
102
}
330
835
100
AcDbProxyObject
 90
      499
 91
      512
 93
      233
310
90B3622203D2031272D30220000000000000006100000000000000284000
 94
        0
1001
ACAD
1000
AcadProxyRoundTripData
1071
      507
1071
   851991
1070
     0
  0
ACAD_PROXY_OBJECT
  5
856
102
{ACAD_REACTORS
330
835
102
}
330
835
100
AcDbProxyObject
 90
      499
 91
      512
 93
      257
310
90E31272D3022203D2031272D3022000000000000000A100000000000000284040
 94
        0
1001
ACAD
1000
AcadProxyRoundTripData
1071
      507
1071
   851991
1070
     0
  0
ACAD_PROXY_OBJECT
  5
834
102
{ACAD_XDICTIONARY
360
88C
102
}
102
{ACAD_REACTORS
330
833
102
}
330
833
100
AcDbProxyObject
 90
      499
 91
      512
 93
     1849
310
4254DD185B99185C990028B81E85EB51B8AE3F2E07A17AD46E2B8FC02B5E8DC0F42B1CFD028000000C1008070000C3001FDFF8000000C1003FBFF000000182007F7FE00000030400FEFFC00000060801FDFF8000000C1003FBFF00000018200000000000000681FA0B0000001820100E000186003FBFF000000182007F7FE0
310
0000030400FEFFC00000060801FDFF8000000C1003FBFF000000182007F7FE000000304000AD7A3703D0AC73F4160000003040201C00030C007F7FE00000030400FEFFC00000060801FDFF8000000C1003FBFF000000182007F7FE00000030400FEFFC000000608000
340
16
340
16
340
16
 94
        0
1001
ACAD
1000
AcadProxyRoundTripData
1071
      506
1071
   851991
1070
     0
  0
ACAD_PROXY_OBJECT
  5
827
102
{ACAD_REACTORS
330
821
102
}
330
821
100
AcDbProxyObject
 90
      499
 91
      512
 93
      444
310
430C9915DA5C99599C985B59401049028333333333333E3BF0000000000000FB0107901411070040501600405405064090741402480A0340
 94
        0
1001
ACAD
1000
AcDbSavedByObjectVersion
1070
     0
1000
AcadProxyRoundTripData
1071
      505
1071
   851991
1070
     0
  0
ACAD_PROXY_OBJECT
  5
829
102
{ACAD_REACTORS
330
821
102
}
330
821
100
AcDbProxyObject
 90
      499
 91
      512
 93
      508
310
428CD108121A5919195B8010640502408333333333333E3BF0000000000000FB01079024090700405020000000000001110200405405064090740C02480A0340
 94
        0
1001
ACAD
1000
AcDbSavedByObjectVersion
1070
     0
1000
AcadProxyRoundTripData
1071
      505
1071
   851991
1070
     0
  0
ACAD_PROXY_OBJECT
  5
828
102
{ACAD_REACTORS
330
821
102
}
330
821
100
AcDbProxyObject
 90
      499
 91
      512
 93
      444
310
430CD915DA5C99599C985B59401059028333333333333E3BF0000000000000FB0107901411070040501600405405064090741402480A0340
 94
        0
1001
ACAD
1000
AcDbSavedByObjectVersion
1070
     0
1000
AcadProxyRoundTripData
1071
      505
1071
   851991
1070
     0
  0
ACAD_PROXY_OBJECT
  5
826
102
{ACAD_REACTORS
330
821
102
}
330
821
100
AcDbProxyObject
 90
      499
 91
      512
 93
      396
310
4190985CDA58C0107406404333333333333E3BF0000000000000FB0107A41107004050150841D405064090741402480A0356
 94
        0
1001
ACAD
1000
AcDbSavedByObjectVersion
1070
     0
1000
AcadProxyRoundTripData
1071
      505
1071
   851991
1070
     0
  0
ACAD_PROXY_OBJECT
  5
82D
102
{ACAD_REACTORS
330
821
102
}
330
821
100
AcDbProxyObject
 90
      499
 91
      512
 93
      436
310
42509C9A59DA1D195B8010C409028333333333333E3BF0000000000000FB010790141107004050150841D405064090741402480A029956
 94
        0
1001
ACAD
1000
AcDbSavedByObjectVersion
1070
     0
1000
AcadProxyRoundTripData
1071
      505
1071
   851991
1070
     0
  0
ACAD_PROXY_OBJECT
  5
831
102
{ACAD_REACTORS
330
821
102
}
330
821
100
AcDbProxyObject
 90
      499
 91
      512
 93
      460
310
4310DBDB1BDC90DA185B99D9401104090240C333333333333E3BF0000000000000FB0108901411070040501508421405064090741402480A0354
 94
        0
1001
ACAD
1000
AcDbSavedByObjectVersion
1070
     0
1000
AcadProxyRoundTripData
1071
      505
1071
   851991
1070
     0
  0
ACAD_PROXY_OBJECT
  5
82A
102
{ACAD_REACTORS
330
821
102
}
330
821
100
AcDbProxyObject
 90
      499
 91
      512
 93
      508
310
42D0DBDB98D95C1D1D585B0010940D028333333333333E3BF0000000000000FB0107902409070040501000000000000111010841D405064090740C02480A0340
 94
        0
1001
ACAD
1000
AcDbSavedByObjectVersion
1070
     0
1000
AcadProxyRoundTripData
1071
      505
1071
   851991
1070
     0
  0
ACAD_PROXY_OBJECT
  5
82C
102
{ACAD_REACTORS
330
821
102
}
330
821
100
AcDbProxyObject
 90
      499
 91
      512
 93
      420
310
41111A5B4010B409028333333333333E3BF0000000000000FB010790141107004050150841D405064090741402480A02677FFFFFDB
 94
        0
1001
ACAD
1000
AcDbSavedByObjectVersion
1070
     0
1000
AcadProxyRoundTripData
1071
      505
1071
   851991
1070
     0
  0
ACAD_PROXY_OBJECT
  5
830
102
{ACAD_REACTORS
330
821
102
}
330
821
100
AcDbProxyObject
 90
      499
 91
      512
 93
      452
310
43119858D95C185D1D195C9B8010F409028333333333333E3BF0000000000000FB010790141107004050150841D405064090741402480A0350
 94
        0
1001
ACAD
1000
AcDbSavedByObjectVersion
1070
     0
1000
AcadProxyRoundTripData
1071
      505
1071
   851991
1070
     0
  0
ACAD_PROXY_OBJECT
  5
822
102
{ACAD_REACTORS
330
821
102
}
330
821
100
AcDbProxyObject
 90
      499
 91
      512
 93
      396
310
41519B185D00240901404333333333333E3BF0000000000000F9010740A41107004050150841D405064090741402480A1B55
 94
        0
1001
ACAD
1000
AcDbSavedByObjectVersion
1070
     0
1000
AcadProxyRoundTripData
1071
      505
1071
   851991
1070
     0
  0
ACAD_PROXY_OBJECT
  5
823
102
{ACAD_REACTORS
330
821
102
}
330
821
100
AcDbProxyObject
 90
      499
 91
      512
 93
      484
310
43919B185D15DA5D1A115919D95CC010140901404333333333333E3BF0000000000000F9010740901411070040501600405405064090741402480A1B50
 94
        0
1001
ACAD
1000
AcDbSavedByObjectVersion
1070
     0
1000
AcadProxyRoundTripData
1071
      505
1071
   851991
1070
     0
  0
ACAD_PROXY_OBJECT
  5
824
102
{ACAD_REACTORS
330
821
102
}
330
821
100
AcDbProxyObject
 90
      499
 91
      512
 93
      420
310
4211DBDD5C985D590010240902404333333333333E3BF0000000000000F9010740A411070040501641D405064090741402480A1B50
 94
        0
1001
ACAD
1000
AcDbSavedByObjectVersion
1070
     0
1000
AcadProxyRoundTripData
1071
      505
1071
   851991
1070
     0
  0
ACAD_PROXY_OBJECT
  5
825
102
{ACAD_REACTORS
330
821
102
}
330
821
100
AcDbProxyObject
 90
      499
 91
      512
 93
      508
310
4451DBDD5C985D5915DA5D1A115919D95CC010340902404333333333333E3BF0000000000000F9010740901411070040501600405405064090741402480A1B50
 94
        0
1001
ACAD
1000
AcDbSavedByObjectVersion
1070
     0
1000
AcadProxyRoundTripData
1071
      505
1071
   851991
1070
     0
  0
ACAD_PROXY_OBJECT
  5
82F
102
{ACAD_REACTORS
330
821
102
}
330
821
100
AcDbProxyObject
 90
      499
 91
      512
 93
      452
310
43131A5B995C185D1D195C9B8010E409028333333333333E3BF0000000000000FB010790141107004050750841D405064090741402483A0350
 94
        0
1001
ACAD
1000
AcDbSavedByObjectVersion
1070
     0
1000
AcadProxyRoundTripData
1071
      505
1071
   851991
1070
     0
  0
ACAD_PROXY_OBJECT
  5
82B
102
{ACAD_REACTORS
330
821
102
}
330
821
100
AcDbProxyObject
 90
      499
 91
      512
 93
      428
310
429499585B1A5CDD1A58C0108409028333333333333E3BF0000000000000FB01079019070040501508421405064090741402480A1B45
 94
        0
1001
ACAD
1000
AcDbSavedByObjectVersion
1070
     0
1000
AcadProxyRoundTripData
1071
      505
1071
   851991
1070
     0
  0
ACAD_PROXY_OBJECT
  5
82E
102
{ACAD_REACTORS
330
821
102
}
330
821
100
AcDbProxyObject
 90
      499
 91
      512
 93
      420
310
42151A1A58DAD95B8010D409028333333333333E3BF0000000000000FB010790141107004050150C41D405064090741402480A0352
 94
        0
1001
ACAD
1000
AcDbSavedByObjectVersion
1070
     0
1000
AcadProxyRoundTripData
1071
      505
1071
   851991
1070
     0
  0
XRECORD
  5
29B7
102
{ACAD_REACTORS
330
29AD
102
}
330
29AD
100
AcDbXrecord
 90
        0
  0
XRECORD
  5
29BB
102
{ACAD_REACTORS
330
29AD
102
}
330
29AD
100
AcDbXrecord
1000
DSTYLE
1002
{
1070
   179
 70
     2
1070
   277
 70
     6
1002
}
  0
XRECORD
  5
29B8
102
{ACAD_REACTORS
330
29AD
102
}
330
29AD
100
AcDbXrecord
  1
{91BB5BC1-F61B-45BC-857E-FA9F3B90751E}
  0
XRECORD
  5
29B0
102
{ACAD_REACTORS
330
29AD
102
}
330
29AD
100
AcDbXrecord
  1

  0
XRECORD
  5
29B6
102
{ACAD_REACTORS
330
29AD
102
}
330
29AD
100
AcDbXrecord
 90
        0
  0
XRECORD
  5
29B2
102
{ACAD_REACTORS
330
29AD
102
}
330
29AD
100
AcDbXrecord
340
61
  0
XRECORD
  5
29B5
102
{ACAD_REACTORS
330
29AD
102
}
330
29AD
100
AcDbXrecord
 90
    10781
  0
XRECORD
  5
29B3
102
{ACAD_REACTORS
330
29AD
102
}
330
29AD
100
AcDbXrecord
340
77
  0
XRECORD
  5
29B4
102
{ACAD_REACTORS
330
29AD
102
}
330
29AD
100
AcDbXrecord
340
6
  0
XRECORD
  5
29BA
102
{ACAD_REACTORS
330
29AD
102
}
330
29AD
100
AcDbXrecord
 40
0.0
  0
XRECORD
  5
29BE
102
{ACAD_REACTORS
330
29AD
102
}
330
29AD
100
AcDbXrecord
340
0
  0
XRECORD
  5
29C4
102
{ACAD_REACTORS
330
29AD
102
}
330
29AD
100
AcDbXrecord
 10
0.0
 20
0.0
 30
0.0
  0
XRECORD
  5
29C0
102
{ACAD_REACTORS
330
29AD
102
}
330
29AD
100
AcDbXrecord
 10
0.0
 20
0.0
 30
0.0
  0
XRECORD
  5
29C3
102
{ACAD_REACTORS
330
29AD
102
}
330
29AD
100
AcDbXrecord
 10
0.0
 20
0.0
 30
0.0
  0
XRECORD
  5
29C1
102
{ACAD_REACTORS
330
29AD
102
}
330
29AD
100
AcDbXrecord
 10
0.0
 20
0.0
 30
0.0
  0
XRECORD
  5
29C2
102
{ACAD_REACTORS
330
29AD
102
}
330
29AD
100
AcDbXrecord
 10
0.0
 20
0.0
 30
0.0
  0
XRECORD
  5
29BF
102
{ACAD_REACTORS
330
29AD
102
}
330
29AD
100
AcDbXrecord
 10
0.0
 20
0.0
 30
0.0
  0
XRECORD
  5
29BC
102
{ACAD_REACTORS
330
29AD
102
}
330
29AD
100
AcDbXrecord
340
0
  0
XRECORD
  5
29BD
102
{ACAD_REACTORS
330
29AD
102
}
330
29AD
100
AcDbXrecord
 70
     0
  0
XRECORD
  5
29B1
102
{ACAD_REACTORS
330
29AD
102
}
330
29AD
100
AcDbXrecord
  1
Sekkei.ctb
  0
XRECORD
  5
29AE
102
{ACAD_REACTORS
330
29AD
102
}
330
29AD
100
AcDbXrecord
 90
        1
  0
XRECORD
  5
29AF
102
{ACAD_REACTORS
330
29AD
102
}
330
29AD
100
AcDbXrecord
 90
       70
  0
XRECORD
  5
29C7
102
{ACAD_REACTORS
330
29AD
102
}
330
29AD
100
AcDbXrecord
340
0
  0
XRECORD
  5
29CD
102
{ACAD_REACTORS
330
29AD
102
}
330
29AD
100
AcDbXrecord
 10
0.0
 20
0.0
 30
0.0
  0
XRECORD
  5
29C9
102
{ACAD_REACTORS
330
29AD
102
}
330
29AD
100
AcDbXrecord
 10
0.0
 20
0.0
 30
0.0
  0
XRECORD
  5
29CC
102
{ACAD_REACTORS
330
29AD
102
}
330
29AD
100
AcDbXrecord
 10
0.0
 20
0.0
 30
0.0
  0
XRECORD
  5
29CA
102
{ACAD_REACTORS
330
29AD
102
}
330
29AD
100
AcDbXrecord
 10
0.0
 20
0.0
 30
0.0
  0
XRECORD
  5
29CB
102
{ACAD_REACTORS
330
29AD
102
}
330
29AD
100
AcDbXrecord
 10
0.0
 20
0.0
 30
0.0
  0
XRECORD
  5
29C8
102
{ACAD_REACTORS
330
29AD
102
}
330
29AD
100
AcDbXrecord
 10
0.0
 20
0.0
 30
0.0
  0
XRECORD
  5
29C5
102
{ACAD_REACTORS
330
29AD
102
}
330
29AD
100
AcDbXrecord
340
0
  0
XRECORD
  5
29C6
102
{ACAD_REACTORS
330
29AD
102
}
330
29AD
100
AcDbXrecord
 70
     0
  0
XRECORD
  5
29B9
102
{ACAD_REACTORS
330
29AD
102
}
330
29AD
100
AcDbXrecord
  1
{E9F1DC2C-B924-4683-86F4-A92994CB6520}
  0
DICTIONARYVAR
  5
892
102
{ACAD_REACTORS
330
102
102
}
330
102
100
DictionaryVariables
280
     0
  1
1:1
  0
DICTIONARYVAR
  5
890
102
{ACAD_REACTORS
330
102
102
}
330
102
100
DictionaryVariables
280
     0
  1
STANDARD
  0
DICTIONARYVAR
  5
88F
102
{ACAD_REACTORS
330
102
102
}
330
102
100
DictionaryVariables
280
     0
  1
STANDARD
  0
DICTIONARYVAR
  5
103
102
{ACAD_REACTORS
330
102
102
}
330
102
100
DictionaryVariables
280
     0
  1
1
  0
DICTIONARYVAR
  5
1BC3
102
{ACAD_REACTORS
330
102
102
}
330
102
100
DictionaryVariables
280
     0
  1
0
  0
DICTIONARYVAR
  5
893
102
{ACAD_REACTORS
330
102
102
}
330
102
100
DictionaryVariables
280
     0
  1
0
  0
DICTIONARYVAR
  5
891
102
{ACAD_REACTORS
330
102
102
}
330
102
100
DictionaryVariables
280
     0
  1
0
  0
DICTIONARYVAR
  5
549
102
{ACAD_REACTORS
330
102
102
}
330
102
100
DictionaryVariables
280
     0
  1
96
  0
DICTIONARY
  5
812
330
811
100
AcDbDictionary
280
     1
  3
ACAD_XREC_ROUNDTRIP
360
298B
  3
BUMPTILE
360
814
  3
DIFFUSETILE
360
813
  3
OPACITYTILE
360
817
  3
REFLECTIONTILE
360
816
  3
REFRACTIONTILE
360
818
  3
SPECULARTILE
360
815
  0
DICTIONARY
  5
80A
330
809
100
AcDbDictionary
280
     1
  3
ACAD_XREC_ROUNDTRIP
360
298A
  3
BUMPTILE
360
80C
  3
DIFFUSETILE
360
80B
  3
OPACITYTILE
360
80F
  3
REFLECTIONTILE
360
80E
  3
REFRACTIONTILE
360
810
  3
SPECULARTILE
360
80D
  0
DICTIONARY
  5
81A
330
819
100
AcDbDictionary
280
     1
  3
ACAD_XREC_ROUNDTRIP
360
298C
  3
BUMPTILE
360
81C
  3
DIFFUSETILE
360
81B
  3
OPACITYTILE
360
81F
  3
REFLECTIONTILE
360
81E
  3
REFRACTIONTILE
360
820
  3
SPECULARTILE
360
81D
  0
DICTIONARY
  5
88C
330
834
100
AcDbDictionary
280
     1
  3
ACAD_ROUNDTRIP_2008_TABLES
360
2982
  3
ACAD_XREC_ROUNDTRIP
360
298D
  0
XRECORD
  5
298B
102
{ACAD_REACTORS
330
812
102
}
330
812
100
AcDbXrecord
102
MATERIAL
148
0.0
149
0.0
149
0.0
 93
        0
 94
      127
282
     0
 72
     0
 77
     0
171
     0
175
     0
179
     0
273
     0
  0
XRECORD
  5
814
102
{ACAD_REACTORS
330
812
102
}
330
812
100
AcDbXrecord
270
     1
271
     1
  0
XRECORD
  5
813
102
{ACAD_REACTORS
330
812
102
}
330
812
100
AcDbXrecord
270
     1
271
     1
  0
XRECORD
  5
817
102
{ACAD_REACTORS
330
812
102
}
330
812
100
AcDbXrecord
270
     1
271
     1
  0
XRECORD
  5
816
102
{ACAD_REACTORS
330
812
102
}
330
812
100
AcDbXrecord
270
     1
271
     1
  0
XRECORD
  5
818
102
{ACAD_REACTORS
330
812
102
}
330
812
100
AcDbXrecord
270
     1
271
     1
  0
XRECORD
  5
815
102
{ACAD_REACTORS
330
812
102
}
330
812
100
AcDbXrecord
270
     1
271
     1
  0
XRECORD
  5
298A
102
{ACAD_REACTORS
330
80A
102
}
330
80A
100
AcDbXrecord
102
MATERIAL
148
0.0
149
0.0
149
0.0
 93
        0
 94
      127
282
     0
 72
     0
 77
     0
171
     0
175
     0
179
     0
273
     0
  0
XRECORD
  5
80C
102
{ACAD_REACTORS
330
80A
102
}
330
80A
100
AcDbXrecord
270
     1
271
     1
  0
XRECORD
  5
80B
102
{ACAD_REACTORS
330
80A
102
}
330
80A
100
AcDbXrecord
270
     1
271
     1
  0
XRECORD
  5
80F
102
{ACAD_REACTORS
330
80A
102
}
330
80A
100
AcDbXrecord
270
     1
271
     1
  0
XRECORD
  5
80E
102
{ACAD_REACTORS
330
80A
102
}
330
80A
100
AcDbXrecord
270
     1
271
     1
  0
XRECORD
  5
810
102
{ACAD_REACTORS
330
80A
102
}
330
80A
100
AcDbXrecord
270
     1
271
     1
  0
XRECORD
  5
80D
102
{ACAD_REACTORS
330
80A
102
}
330
80A
100
AcDbXrecord
270
     1
271
     1
  0
XRECORD
  5
298C
102
{ACAD_REACTORS
330
81A
102
}
330
81A
100
AcDbXrecord
102
MATERIAL
148
0.0
149
0.0
149
0.0
 93
        0
 94
      127
282
     0
 72
     0
 77
     0
171
     0
175
     0
179
     0
273
     0
  0
XRECORD
  5
81C
102
{ACAD_REACTORS
330
81A
102
}
330
81A
100
AcDbXrecord
270
     1
271
     1
  0
XRECORD
  5
81B
102
{ACAD_REACTORS
330
81A
102
}
330
81A
100
AcDbXrecord
270
     1
271
     1
  0
XRECORD
  5
81F
102
{ACAD_REACTORS
330
81A
102
}
330
81A
100
AcDbXrecord
270
     1
271
     1
  0
XRECORD
  5
81E
102
{ACAD_REACTORS
330
81A
102
}
330
81A
100
AcDbXrecord
270
     1
271
     1
  0
XRECORD
  5
820
102
{ACAD_REACTORS
330
81A
102
}
330
81A
100
AcDbXrecord
270
     1
271
     1
  0
XRECORD
  5
81D
102
{ACAD_REACTORS
330
81A
102
}
330
81A
100
AcDbXrecord
270
     1
271
     1
  0
ACAD_PROXY_OBJECT
  5
2982
102
{ACAD_REACTORS
330
88C
102
}
330
88C
100
AcDbProxyObject
 90
      499
 91
      512
 93
     1044
310
40D054060020000020000003200101A000080002A5058000000C100000000000000340FE901405075F5449544C450041501A8000000C800406800020000A9416000000304000AD7A3703D0AC73FA409014217D2115051115480105406A0000003200101A000080002A5028000000C10002B5E8DC0F42B1CFE903409065F444
310
15441003
340
16
340
16
340
16
 94
        0
1001
ACAD
1000
AcadProxyRoundTripData
1071
      510
1071
   851991
1070
     0
  0
XRECORD
  5
298D
102
{ACAD_REACTORS
330
88C
102
}
330
88C
100
AcDbXrecord
102
ACAD_ROUNDTRIP_PRE2007_TABLESTYLE
 90
      512
 91
        0
  1

 92
      512
 93
        0
  2

 94
      512
 95
        0
  3

  0
ENDSEC
  0
EOF
