  0
SECTION
  2
HEADER
  9
$ACADVER
  1
AC1014
  9
$ACADMAINTVER
 70
     9
  9
$DWGCODEPAGE
  3
ANSI_932
  9
$INSBASE
 10
0.0
 20
0.0
 30
0.0
  9
$EXTMIN
 10
-32.19406526516673
 20
300.0678655566772
 30
0.0
  9
$EXTMAX
 10
1362.822052161547
 20
857.5897734496136
 30
0.0
  9
$LIMMIN
 10
0.0
 20
0.0
  9
$LIMMAX
 10
297.0
 20
210.0
  9
$ORTHOMODE
 70
     0
  9
$REGENMODE
 70
     1
  9
$FILLMODE
 70
     1
  9
$QTEXTMODE
 70
     0
  9
$MIRRTEXT
 70
     0
  9
$DRAGMODE
 70
     2
  9
$LTSCALE
 40
4.0
  9
$OSMODE
 70
    37
  9
$ATTMODE
 70
     1
  9
$TEXTSIZE
 40
2.0
  9
$TRACEWID
 40
1.0
  9
$TEXTSTYLE
  7
STANDARD
  9
$CLAYER
  8
0
  9
$CELTYPE
  6
BYLAYER
  9
$CECOLOR
 62
   256
  9
$CELTSCALE
 40
1.0
  9
$DELOBJ
 70
     1
  9
$DISPSILH
 70
     0
  9
$DIMSCALE
 40
4.0
  9
$DIMASZ
 40
1.8
  9
$DIMEXO
 40
0.625
  9
$DIMDLI
 40
3.75
  9
$DIMRND
 40
0.0
  9
$DIMDLE
 40
0.0
  9
$DIMEXE
 40
0.8
  9
$DIMTP
 40
0.0
  9
$DIMTM
 40
0.0
  9
$DIMTXT
 40
1.8
  9
$DIMCEN
 40
2.5
  9
$DIMTSZ
 40
0.0
  9
$DIMTOL
 70
     0
  9
$DIMLIM
 70
     0
  9
$DIMTIH
 70
     0
  9
$DIMTOH
 70
     0
  9
$DIMSE1
 70
     0
  9
$DIMSE2
 70
     0
  9
$DIMTAD
 70
     1
  9
$DIMZIN
 70
     8
  9
$DIMBLK
  1

  9
$DIMASO
 70
     1
  9
$DIMSHO
 70
     1
  9
$DIMPOST
  1

  9
$DIMAPOST
  1

  9
$DIMALT
 70
     0
  9
$DIMALTD
 70
     4
  9
$DIMALTF
 40
0.0394
  9
$DIMLFAC
 40
1.0
  9
$DIMTOFL
 70
     1
  9
$DIMTVP
 40
0.0
  9
$DIMTIX
 70
     0
  9
$DIMSOXD
 70
     0
  9
$DIMSAH
 70
     0
  9
$DIMBLK1
  1

  9
$DIMBLK2
  1

  9
$DIMSTYLE
  2
STANDARD
  9
$DIMCLRD
 70
     0
  9
$DIMCLRE
 70
     0
  9
$DIMCLRT
 70
     0
  9
$DIMTFAC
 40
1.0
  9
$DIMGAP
 40
0.75
  9
$DIMJUST
 70
     0
  9
$DIMSD1
 70
     0
  9
$DIMSD2
 70
     0
  9
$DIMTOLJ
 70
     1
  9
$DIMTZIN
 70
     0
  9
$DIMALTZ
 70
     0
  9
$DIMALTTZ
 70
     0
  9
$DIMFIT
 70
     3
  9
$DIMUPT
 70
     0
  9
$DIMUNIT
 70
     8
  9
$DIMDEC
 70
     2
  9
$DIMTDEC
 70
     2
  9
$DIMALTU
 70
     8
  9
$DIMALTTD
 70
     4
  9
$DIMTXSTY
  7
STANDARD
  9
$DIMAUNIT
 70
     0
  9
$LUNITS
 70
     2
  9
$LUPREC
 70
     3
  9
$SKETCHINC
 40
1.0
  9
$FILLETRAD
 40
10.0
  9
$AUNITS
 70
     0
  9
$AUPREC
 70
     2
  9
$MENU
  1
.
  9
$ELEVATION
 40
0.0
  9
$PELEVATION
 40
0.0
  9
$THICKNESS
 40
0.0
  9
$LIMCHECK
 70
     0
  9
$BLIPMODE
 70
     0
  9
$CHAMFERA
 40
0.0
  9
$CHAMFERB
 40
0.0
  9
$CHAMFERC
 40
20.0
  9
$CHAMFERD
 40
0.0
  9
$SKPOLY
 70
     0
  9
$TDCREATE
 40
2454889.454828194
  9
$TDUPDATE
 40
2454909.826819143
  9
$TDINDWG
 40
0.1685074653
  9
$TDUSRTIMER
 40
0.1685072801
  9
$USRTIMER
 70
     1
  9
$ANGBASE
 50
0.0
  9
$ANGDIR
 70
     0
  9
$PDMODE
 70
     0
  9
$PDSIZE
 40
-10.0
  9
$PLINEWID
 40
0.0
  9
$COORDS
 70
     1
  9
$SPLFRAME
 70
     0
  9
$SPLINETYPE
 70
     6
  9
$SPLINESEGS
 70
     8
  9
$ATTDIA
 70
     0
  9
$ATTREQ
 70
     1
  9
$HANDLING
 70
 22529
  9
$HANDSEED
  5
3BE8
  9
$SURFTAB1
 70
     6
  9
$SURFTAB2
 70
     6
  9
$SURFTYPE
 70
     6
  9
$SURFU
 70
     6
  9
$SURFV
 70
     6
  9
$UCSNAME
  2

  9
$UCSORG
 10
0.0
 20
0.0
 30
0.0
  9
$UCSXDIR
 10
1.0
 20
0.0
 30
0.0
  9
$UCSYDIR
 10
0.0
 20
1.0
 30
0.0
  9
$PUCSNAME
  2

  9
$PUCSORG
 10
0.0
 20
0.0
 30
0.0
  9
$PUCSXDIR
 10
1.0
 20
0.0
 30
0.0
  9
$PUCSYDIR
 10
0.0
 20
1.0
 30
0.0
  9
$USERI1
 70
     0
  9
$USERI2
 70
     0
  9
$USERI3
 70
     0
  9
$USERI4
 70
     0
  9
$USERI5
 70
     0
  9
$USERR1
 40
0.0
  9
$USERR2
 40
0.0
  9
$USERR3
 40
0.0
  9
$USERR4
 40
0.0
  9
$USERR5
 40
0.0
  9
$WORLDVIEW
 70
     1
  9
$SHADEDGE
 70
     3
  9
$SHADEDIF
 70
    70
  9
$TILEMODE
 70
     1
  9
$MAXACTVP
 70
    48
  9
$PINSBASE
 10
0.0
 20
0.0
 30
0.0
  9
$PLIMCHECK
 70
     0
  9
$PEXTMIN
 10
0.0
 20
0.0
 30
0.0
  9
$PEXTMAX
 10
0.0
 20
0.0
 30
0.0
  9
$PLIMMIN
 10
0.0
 20
0.0
  9
$PLIMMAX
 10
12.0
 20
9.0
  9
$UNITMODE
 70
     0
  9
$VISRETAIN
 70
     1
  9
$PLINEGEN
 70
     0
  9
$PSLTSCALE
 70
     1
  9
$TREEDEPTH
 70
  3020
  9
$PICKSTYLE
 70
     1
  9
$CMLSTYLE
  2
STANDARD
  9
$CMLJUST
 70
     0
  9
$CMLSCALE
 40
1.0
  9
$PROXYGRAPHICS
 70
     1
  9
$MEASUREMENT
 70
     0
  0
ENDSEC
  0
SECTION
  2
CLASSES
  0
CLASS
  1
DICTIONARYVAR
  2
AcDbDictionaryVar
  3
AutoCAD 2000
 90
        0
280
     0
281
     0
  0
CLASS
  1
ACDBDICTIONARYWDFLT
  2
AcDbDictionaryWithDefault
  3
AutoCAD 2000
 90
        0
280
     0
281
     0
  0
CLASS
  1
ACDBPLACEHOLDER
  2
AcDbPlaceHolder
  3
AutoCAD 2000
 90
        0
280
     0
281
     0
  0
CLASS
  1
LAYOUT
  2
AcDbLayout
  3
AutoCAD 2000
 90
        0
280
     0
281
     0
  0
CLASS
  1
MATERIAL
  2
AcDbMaterial
  3
ObjectDBX Classes
 90
     1153
280
     0
281
     0
  0
CLASS
  1
VISUALSTYLE
  2
AcDbVisualStyle
  3
ObjectDBX Classes
 90
     4095
280
     0
281
     0
  0
CLASS
  1
TABLESTYLE
  2
AcDbTableStyle
  3
ObjectDBX Classes
 90
     4095
280
     0
281
     0
  0
CLASS
  1
SCALE
  2
AcDbScale
  3
ObjectDBX Classes
 90
     1153
280
     0
281
     0
  0
CLASS
  1
MLEADERSTYLE
  2
AcDbMLeaderStyle
  3
ACDB_MLEADERSTYLE_CLASS
 90
     4095
280
     0
281
     0
  0
CLASS
  1
PLOTSETTINGS
  2
AcDbPlotSettings
  3
AutoCAD 2000
 90
        0
280
     0
281
     0
  0
CLASS
  1
CELLSTYLEMAP
  2
AcDbCellStyleMap
  3
ObjectDBX Classes
 90
     1152
280
     0
281
     0
  0
CLASS
  1
SORTENTSTABLE
  2
AcDbSortentsTable
  3
AutoCAD 2000
 90
        0
280
     0
281
     0
  0
CLASS
  1
ACAD_PROXY_OBJECT_WRAPPER
  2
AcDbProxyObjectWrapper
  3
AutoCAD 2000
 90
        0
280
     0
281
     0
  0
CLASS
  1
LONG_TRANSACTION
  2
AcDbLongTransaction
  3
AutoCAD 2000
 90
        0
280
     0
281
     0
  0
CLASS
  1
LWPOLYLINE
  2
AcDbPolyline
  3
AutoCAD 2000
 90
        0
280
     0
281
     1
  0
CLASS
  1
HATCH
  2
AcDbHatch
  3
AutoCAD 2000
 90
        0
280
     0
281
     1
  0
CLASS
  1
XRECORD
  2
AcDbXrecord
  3
AutoCAD 2000
 90
        0
280
     0
281
     0
  0
ENDSEC
  0
SECTION
  2
TABLES
  0
TABLE
  2
VPORT
  5
6E
102
{ACAD_XDICTIONARY
360
1BAE
102
}
330
0
100
AcDbSymbolTable
 70
     2
  0
VPORT
  5
3BC3
330
6E
100
AcDbSymbolTableRecord
100
AcDbViewportTableRecord
  2
*ACTIVE
 70
     0
 10
0.0
 20
0.0
 11
1.0
 21
1.0
 12
742.7844813655172
 22
558.245981918051
 13
0.0
 23
0.0
 14
10.0
 24
10.0
 15
10.0
 25
10.0
 16
0.0
 26
0.0
 36
1.0
 17
0.0
 27
0.0
 37
0.0
 40
976.528123727054
 41
1.593429158110883
 42
50.0
 43
0.0
 44
0.0
 50
0.0
 51
0.0
 71
     0
 72
   100
 73
     1
 74
     3
 75
     0
 76
     0
 77
     0
 78
     0
  0
ENDTAB
  0
TABLE
  2
LTYPE
  5
69
330
0
100
AcDbSymbolTable
 70
     7
  0
LTYPE
  5
6A
330
69
100
AcDbSymbolTableRecord
100
AcDbLinetypeTableRecord
  2
BYBLOCK
 70
     0
  3

 72
    65
 73
     0
 40
0.0
  0
LTYPE
  5
6B
330
69
100
AcDbSymbolTableRecord
100
AcDbLinetypeTableRecord
  2
BYLAYER
 70
     0
  3

 72
    65
 73
     0
 40
0.0
  0
LTYPE
  5
8
330
69
100
AcDbSymbolTableRecord
100
AcDbLinetypeTableRecord
  2
CONTINUOUS
 70
     0
  3
Solid line
 72
    65
 73
     0
 40
0.0
  0
LTYPE
  5
27C
330
69
100
AcDbSymbolTableRecord
100
AcDbLinetypeTableRecord
  2
SEKKEI_A2_
 70
     0
  3
center(A2)  ____ _ ____ _ ____ _ ____ _ ____ _ 
 72
    65
 73
     4
 40
14.28749999999999
 49
9.525
 74
     0
 49
-1.587499999999999
 74
     0
 49
1.587499999999999
 74
     0
 49
-1.587499999999999
 74
     0
  0
LTYPE
  5
2B4
330
69
100
AcDbSymbolTableRecord
100
AcDbLinetypeTableRecord
  2
HIDDEN2
 70
     0
  3
Hidden (.5x) _ _ _ _ _ _ _ _ _ _ _ _ _ _ _ _ _
 72
    65
 73
     2
 40
4.762499999999999
 49
3.174999999999999
 74
     0
 49
-1.587499999999999
 74
     0
  0
LTYPE
  5
48F
330
69
100
AcDbSymbolTableRecord
100
AcDbLinetypeTableRecord
  2
SEKKEI_H
 70
     0
  3
Hidden-S _ _ _ _ _ _ _ _ _ _ _ _ _ _ _ _ _
 72
    65
 73
     2
 40
2.381249999999999
 49
1.587499999999999
 74
     0
 49
-0.79375
 74
     0
  0
LTYPE
  5
54A
330
69
100
AcDbSymbolTableRecord
100
AcDbLinetypeTableRecord
  2
CENTERX2
 70
     0
  3
Center (2x) ________  __  ________  __  _____
 72
    65
 73
     4
 40
4.0
 49
2.5
 74
     0
 49
-0.5
 74
     0
 49
0.5
 74
     0
 49
-0.5
 74
     0
  0
ENDTAB
  0
TABLE
  2
LAYER
  5
66
102
{ACAD_XDICTIONARY
360
86B
102
}
330
0
100
AcDbSymbolTable
 70
    10
  0
LAYER
  5
5E
102
{ACAD_XDICTIONARY
360
1AF7
102
}
330
66
100
AcDbSymbolTableRecord
100
AcDbLayerTableRecord
  2
0
 70
     0
 62
     7
  6
CONTINUOUS
  0
LAYER
  5
3E
102
{ACAD_XDICTIONARY
360
1AF9
102
}
330
66
100
AcDbSymbolTableRecord
100
AcDbLayerTableRecord
  2
CENTER
 70
     0
 62
     3
  6
SEKKEI_A2_
  0
LAYER
  5
2B5
102
{ACAD_XDICTIONARY
360
1AFF
102
}
330
66
100
AcDbSymbolTableRecord
100
AcDbLayerTableRecord
  2
HIDS
 70
     0
 62
     1
  6
HIDDEN2
  0
LAYER
  5
2BA
102
{ACAD_XDICTIONARY
360
1B01
102
}
330
66
100
AcDbSymbolTableRecord
100
AcDbLayerTableRecord
  2
HOJO
 70
     0
 62
     4
  6
CONTINUOUS
  0
LAYER
  5
3FA
102
{ACAD_XDICTIONARY
360
1B05
102
}
330
66
100
AcDbSymbolTableRecord
100
AcDbLayerTableRecord
  2
TITLE
 70
     0
 62
     4
  6
CONTINUOUS
  0
ENDTAB
  0
TABLE
  2
STYLE
  5
67
330
0
100
AcDbSymbolTable
 70
     3
  0
STYLE
  5
16
330
67
100
AcDbSymbolTableRecord
100
AcDbTextStyleTableRecord
  2
STANDARD
 70
     0
 40
0.0
 41
1.0
 50
0.0
 71
     0
 42
2.0
  3
simplex.shx
  4
extfont.shx
  0
ENDTAB
  0
TABLE
  2
VIEW
  5
6C
330
0
100
AcDbSymbolTable
 70
     0
  0
ENDTAB
  0
TABLE
  2
UCS
  5
6D
330
0
100
AcDbSymbolTable
 70
     0
  0
ENDTAB
  0
TABLE
  2
APPID
  5
70
330
0
100
AcDbSymbolTable
 70
     7
  0
APPID
  5
71
330
70
100
AcDbSymbolTableRecord
100
AcDbRegAppTableRecord
  2
ACAD
 70
     0
  0
APPID
  5
859
330
70
100
AcDbSymbolTableRecord
100
AcDbRegAppTableRecord
  2
ACAD_MLEADERVER
 70
     0
  0
APPID
  5
866
330
70
100
AcDbSymbolTableRecord
100
AcDbRegAppTableRecord
  2
ACAD_PSEXT
 70
     0
  0
APPID
  5
12FA
330
70
100
AcDbSymbolTableRecord
100
AcDbRegAppTableRecord
  2
ACAD_EXEMPT_FROM_CAD_STANDARDS
 70
     0
  0
APPID
  5
135B
330
70
100
AcDbSymbolTableRecord
100
AcDbRegAppTableRecord
  2
ACAD_DSTYLE_DIMJAG
 70
     0
  0
APPID
  5
135C
330
70
100
AcDbSymbolTableRecord
100
AcDbRegAppTableRecord
  2
ACAD_DSTYLE_DIMTALN
 70
     0
  0
APPID
  5
150D
330
70
100
AcDbSymbolTableRecord
100
AcDbRegAppTableRecord
  2
ACAD_DSTYLE_DIMRADIAL_EXTENSION
 70
     0
  0
ENDTAB
  0
TABLE
  2
DIMSTYLE
  5
72
330
0
100
AcDbSymbolTable
 70
     1
  0
DIMSTYLE
105
73
330
72
100
AcDbSymbolTableRecord
100
AcDbDimStyleTableRecord
  2
STANDARD
 70
     0
  3

  4

  5

  6

  7

 40
4.0
 41
1.8
 42
0.625
 43
3.75
 44
0.8
 45
0.0
 46
0.0
 47
0.0
 48
0.0
140
1.8
141
2.5
142
0.0
143
0.0394
144
1.0
145
0.0
146
1.0
147
0.75
 71
     0
 72
     0
 73
     0
 74
     0
 75
     0
 76
     0
 77
     1
 78
     8
170
     0
171
     4
172
     1
173
     0
174
     0
175
     0
176
     0
177
     0
178
     0
270
     8
271
     2
272
     2
273
     8
274
     4
340
16
275
     0
280
     0
281
     0
282
     0
283
     1
284
     0
285
     0
286
     0
287
     3
288
     0
1001
ACAD_DSTYLE_DIMJAG
1070
   388
1040
1.5
1001
ACAD_DSTYLE_DIMTALN
1070
   392
1070
     0
  0
ENDTAB
  0
TABLE
  2
BLOCK_RECORD
  5
1
330
0
100
AcDbSymbolTable
 70
    44
  0
BLOCK_RECORD
  5
2
102
{ACAD_XDICTIONARY
360
1D16
102
}
330
1
100
AcDbSymbolTableRecord
100
AcDbBlockTableRecord
  2
*MODEL_SPACE
  0
BLOCK_RECORD
  5
3BBE
102
{ACAD_XDICTIONARY
360
3BE6
102
}
330
1
100
AcDbSymbolTableRecord
100
AcDbBlockTableRecord
  2
*PAPER_SPACE
  0
ENDTAB
  0
ENDSEC
  0
SECTION
  2
BLOCKS
  0
BLOCK
  5
5D
330
2
100
AcDbEntity
  8
0
100
AcDbBlockBegin
  2
*MODEL_SPACE
 70
     0
 10
0.0
 20
0.0
 30
0.0
  3
*MODEL_SPACE
  1

  0
ENDBLK
  5
5F
330
2
100
AcDbEntity
  8
0
100
AcDbBlockEnd
  0
BLOCK
  5
3BC0
330
3BBE
100
AcDbEntity
 67
     1
  8
0
100
AcDbBlockBegin
  2
*PAPER_SPACE
 70
     0
 10
0.0
 20
0.0
 30
0.0
  3
*PAPER_SPACE
  1

  0
ENDBLK
  5
3BC1
330
3BBE
100
AcDbEntity
 67
     1
  8
0
100
AcDbBlockEnd
  0
ENDSEC
  0
SECTION
  2
ENTITIES
  0
LINE
  5
C24
330
2
100
AcDbEntity
  8
0
100
AcDbLine
 10
886.5946935603153
 20
335.5678655566773
 30
0.0
 11
884.0946935603154
 21
335.5678655566773
 31
0.0
  0
LINE
  5
C25
330
2
100
AcDbEntity
  8
0
100
AcDbLine
 10
886.5946935603153
 20
434.5678655566773
 30
0.0
 11
884.0946935603154
 21
434.5678655566773
 31
0.0
  0
ARC
  5
C26
330
2
100
AcDbEntity
  8
0
100
AcDbCircle
 10
886.5946935603153
 20
439.5678655566773
 30
0.0
 40
5.0
100
AcDbArc
 50
270.0
 51
0.0
  0
LINE
  5
C27
330
2
100
AcDbEntity
  8
0
100
AcDbLine
 10
850.0946935603172
 20
388.0678655566773
 30
0.0
 11
878.0946935603154
 21
388.0678655566773
 31
0.0
  0
ARC
  5
C28
330
2
100
AcDbEntity
  8
0
100
AcDbCircle
 10
878.0946935603154
 20
391.0678655566775
 30
0.0
 40
3.0
100
AcDbArc
 50
270.0
 51
0.0
  0
LINE
  5
C29
330
2
100
AcDbEntity
  8
0
100
AcDbLine
 10
881.0946935603153
 20
338.5678655566773
 30
0.0
 11
881.0946935603153
 21
431.5678655566773
 31
0.0
  0
ARC
  5
C2A
330
2
100
AcDbEntity
  8
0
100
AcDbCircle
 10
884.0946935603154
 20
338.5678655566773
 30
0.0
 40
3.0
100
AcDbArc
 50
180.0
 51
270.0
  0
ARC
  5
C2B
330
2
100
AcDbEntity
  8
0
100
AcDbCircle
 10
884.0946935603154
 20
431.5678655566773
 30
0.0
 40
3.0
100
AcDbArc
 50
90.0
 51
180.0
  0
LINE
  5
C2C
330
2
100
AcDbEntity
  8
0
100
AcDbLine
 10
891.5946935603153
 20
326.567865556677
 30
0.0
 11
891.5946935603153
 21
443.5678655566773
 31
0.0
  0
ARC
  5
C2D
330
2
100
AcDbEntity
  8
0
100
AcDbCircle
 10
893.5946935603153
 20
327.0678655566773
 30
0.0
 40
2.0
100
AcDbArc
 50
180.0
 51
270.0
  0
ARC
  5
C2E
330
2
100
AcDbEntity
  8
0
100
AcDbCircle
 10
893.5946935603153
 20
443.0678655566773
 30
0.0
 40
2.0
100
AcDbArc
 50
90.0
 51
180.0
  0
LINE
  5
C2F
330
2
100
AcDbEntity
  8
0
100
AcDbLine
 10
850.0946935603172
 20
382.0678655566771
 30
0.0
 11
878.0946935603154
 21
382.0678655566769
 31
0.0
  0
ARC
  5
C30
330
2
100
AcDbEntity
  8
0
100
AcDbCircle
 10
878.0946935603154
 20
379.0678655566771
 30
0.0
 40
3.0
100
AcDbArc
 50
0.0
 51
90.0
  0
CIRCLE
  5
C31
330
2
100
AcDbEntity
  8
HOJO
100
AcDbCircle
 10
723.0261510653938
 20
328.4993230617535
 30
0.0
 40
5.0
  0
CIRCLE
  5
C32
330
2
100
AcDbEntity
  8
0
100
AcDbCircle
 10
723.0261510653938
 20
328.4993230617535
 30
0.0
 40
4.0
  0
CIRCLE
  5
C33
330
2
100
AcDbEntity
  8
HOJO
100
AcDbCircle
 10
723.0261510653938
 20
441.6364080516011
 30
0.0
 40
5.0
  0
CIRCLE
  5
C34
330
2
100
AcDbEntity
  8
0
100
AcDbCircle
 10
723.0261510653938
 20
441.6364080516011
 30
0.0
 40
4.0
  0
ARC
  5
C35
330
2
100
AcDbEntity
  8
0
100
AcDbCircle
 10
850.0946935603117
 20
353.0678655566773
 30
0.0
 40
3.0
100
AcDbArc
 50
90.0
 51
179.9999999999869
  0
LINE
  5
C37
330
2
100
AcDbEntity
  8
0
100
AcDbLine
 10
772.4529228105514
 20
329.5678655543202
 30
0.0
 11
775.3329240518835
 21
329.5678655543197
 31
0.0
  0
LINE
  5
C38
330
2
100
AcDbEntity
  8
0
100
AcDbLine
 10
776.4529228105568
 20
337.5678655543315
 30
0.0
 11
772.4529228105514
 21
329.5678655543202
 31
0.0
  0
ARC
  5
C39
330
2
100
AcDbEntity
  8
0
100
AcDbCircle
 10
782.9229228105671
 20
334.6778655543271
 30
0.0
 40
0.1700000000002474
100
AcDbArc
 50
270.0
 51
90.0
  0
LINE
  5
C3A
330
2
100
AcDbEntity
  8
0
100
AcDbLine
 10
780.7129228105625
 20
334.5078655543265
 30
0.0
 11
782.9229228105671
 21
334.5078655543265
 31
0.0
  0
LINE
  5
C3B
330
2
100
AcDbEntity
  8
0
100
AcDbLine
 10
780.3728500505624
 20
334.8478655543276
 30
0.0
 11
782.9229228105653
 21
334.8478655543276
 31
0.0
  0
LINE
  5
C3C
330
2
100
AcDbEntity
  8
0
100
AcDbLine
 10
776.4529228105568
 20
337.5678655543315
 30
0.0
 11
783.0928500505672
 21
337.5678655543315
 31
0.0
  0
LINE
  5
C3D
330
2
100
AcDbEntity
  8
0
100
AcDbLine
 10
775.9329240518838
 20
330.7678655543218
 30
0.0
 11
777.972922810559
 21
330.7678655543213
 31
0.0
  0
LINE
  5
C3E
330
2
100
AcDbEntity
  8
0
100
AcDbLine
 10
775.9329240518838
 20
330.7678655543218
 30
0.0
 11
775.3329240518835
 21
329.5678655543197
 31
0.0
  0
LINE
  5
C3F
330
2
100
AcDbEntity
  8
0
100
AcDbLine
 10
783.8564630687508
 20
329.5678655543197
 30
0.0
 11
786.7364643100811
 21
329.5678655543202
 31
0.0
  0
LINE
  5
C40
330
2
100
AcDbEntity
  8
0
100
AcDbLine
 10
784.7493954302265
 20
332.690492752712
 30
0.0
 11
786.7364643100811
 21
329.5678655543202
 31
0.0
  0
LINE
  5
C41
330
2
100
AcDbEntity
  8
0
100
AcDbLine
 10
777.972922810559
 20
329.5678655543197
 30
0.0
 11
780.3728500505624
 21
329.5678655543192
 31
0.0
  0
LINE
  5
C42
330
2
100
AcDbEntity
  8
0
100
AcDbLine
 10
777.2129240518864
 20
333.3278655543244
 30
0.0
 11
777.972922810559
 21
333.3278655543249
 31
0.0
  0
LINE
  5
C43
330
2
100
AcDbEntity
  8
0
100
AcDbLine
 10
777.972922810559
 20
330.7678655543213
 30
0.0
 11
777.972922810559
 21
329.5678655543197
 31
0.0
  0
ARC
  5
C44
330
2
100
AcDbEntity
  8
0
100
AcDbCircle
 10
783.0928500505672
 20
334.8478655543272
 30
0.0
 40
2.720000000003957
100
AcDbArc
 50
307.5189678668049
 51
90.0
  0
LINE
  5
C45
330
2
100
AcDbEntity
  8
0
100
AcDbLine
 10
780.7129228105625
 20
334.5078655543265
 30
0.0
 11
783.8564630687508
 21
329.5678655543197
 31
0.0
  0
LINE
  5
C46
330
2
100
AcDbEntity
  8
0
100
AcDbLine
 10
777.972922810559
 20
334.8478630716708
 30
0.0
 11
777.2129240518864
 21
333.3278655543244
 31
0.0
  0
LINE
  5
C47
330
2
100
AcDbEntity
  8
0
100
AcDbLine
 10
777.972922810559
 20
334.8478630716708
 30
0.0
 11
777.972922810559
 21
333.3278655543249
 31
0.0
  0
LINE
  5
C48
330
2
100
AcDbEntity
  8
0
100
AcDbLine
 10
780.3728500505624
 20
334.8478655543276
 30
0.0
 11
780.3728500505624
 21
329.5678655543192
 31
0.0
  0
CIRCLE
  5
C49
330
2
100
AcDbEntity
  8
HOJO
100
AcDbCircle
 10
836.1632360552414
 20
328.4993230617538
 30
0.0
 40
5.0
  0
CIRCLE
  5
C4A
330
2
100
AcDbEntity
  8
0
100
AcDbCircle
 10
836.1632360552414
 20
328.4993230617538
 30
0.0
 40
4.0
  0
CIRCLE
  5
C4B
330
2
100
AcDbEntity
  8
HOJO
100
AcDbCircle
 10
836.1632360552414
 20
441.6364080516011
 30
0.0
 40
5.0
  0
CIRCLE
  5
C4C
330
2
100
AcDbEntity
  8
0
100
AcDbCircle
 10
836.1632360552414
 20
441.6364080516011
 30
0.0
 40
4.0
  0
ARC
  5
C4D
330
2
100
AcDbEntity
  8
0
100
AcDbCircle
 10
886.5946935603153
 20
330.5678655566773
 30
0.0
 40
5.0
100
AcDbArc
 50
0.0
 51
90.0
  0
ARC
  5
C4E
330
2
100
AcDbEntity
  8
0
100
AcDbCircle
 10
850.0946935603172
 20
391.0678655566775
 30
0.0
 40
3.0
100
AcDbArc
 50
180.0
 51
270.0
  0
ARC
  5
C4F
330
2
100
AcDbEntity
  8
0
100
AcDbCircle
 10
850.0946935603172
 20
379.0678655566771
 30
0.0
 40
3.0
100
AcDbArc
 50
90.0
 51
180.0
  0
LINE
  5
C50
330
2
100
AcDbEntity
  8
0
100
AcDbLine
 10
893.5946935603153
 20
325.0678655566773
 30
0.0
 11
907.5946935603218
 21
325.0678655566772
 31
0.0
  0
LINE
  5
C51
330
2
100
AcDbEntity
  8
0
100
AcDbLine
 10
893.5946935603153
 20
445.0678655566771
 30
0.0
 11
907.5946935603218
 21
445.0678655566769
 31
0.0
  0
LINE
  5
C52
330
2
100
AcDbEntity
  8
0
100
AcDbLine
 10
907.5946935603218
 20
445.5678655566773
 30
0.0
 11
907.5946935603218
 21
324.567865556677
 31
0.0
  0
LINE
  5
C53
330
2
100
AcDbEntity
  8
0
100
AcDbLine
 10
873.0946935603153
 20
351.0678655566775
 30
0.0
 11
871.0946935603153
 21
351.0678655566775
 31
0.0
  0
ARC
  5
C54
330
2
100
AcDbEntity
  8
0
100
AcDbCircle
 10
873.0946935603153
 20
343.0678655566775
 30
0.0
 40
8.0
100
AcDbArc
 50
0.0
 51
90.0
  0
ARC
  5
C55
330
2
100
AcDbEntity
  8
0
100
AcDbCircle
 10
878.8641278225608
 20
434.5074543141449
 30
0.0
 40
3.0
100
AcDbArc
 50
259.9999999999948
 51
330.6639232880123
  0
ARC
  5
C56
330
2
100
AcDbEntity
  8
0
100
AcDbCircle
 10
878.8641278225608
 20
335.6282767992102
 30
0.0
 40
3.0
100
AcDbArc
 50
29.33607671198765
 51
99.99999999995232
  0
ARC
  5
C57
330
2
100
AcDbEntity
  8
0
100
AcDbCircle
 10
850.0946935603108
 20
330.5554493190566
 30
0.0
 40
3.0
100
AcDbArc
 50
100.0000000000051
 51
180.000000000013
  0
LINE
  5
C58
330
2
100
AcDbEntity
  8
0
100
AcDbLine
 10
873.0946935603153
 20
419.0678655566776
 30
0.0
 11
871.0946935603162
 21
419.0678655566776
 31
0.0
  0
ARC
  5
C59
330
2
100
AcDbEntity
  8
0
100
AcDbCircle
 10
873.0946935603153
 20
427.0678655566776
 30
0.0
 40
8.0
100
AcDbArc
 50
270.0
 51
0.0
  0
LINE
  5
C5A
330
2
100
AcDbEntity
  8
0
100
AcDbLine
 10
878.3431832895614
 20
338.5827000582469
 30
0.0
 11
849.5737490273096
 21
333.5098725780933
 31
0.0
  0
LINE
  5
C5B
330
2
100
AcDbEntity
  8
0
100
AcDbLine
 10
878.3431832895596
 20
431.5530310551085
 30
0.0
 11
849.5737490272761
 21
436.625858535268
 31
0.0
  0
ARC
  5
C5C
330
2
100
AcDbEntity
  8
0
100
AcDbCircle
 10
850.0946935602771
 20
439.5802817943044
 30
0.0
 40
3.0
100
AcDbArc
 50
180.000000000013
 51
259.9999999999948
  0
LINE
  5
C5D
330
2
100
AcDbEntity
  8
0
100
AcDbLine
 10
873.0946935603153
 20
419.0678655566776
 30
0.0
 11
871.0946935603162
 21
419.0678655566777
 31
0.0
  0
LINE
  5
C5E
330
2
100
AcDbEntity
  8
0
100
AcDbLine
 10
868.0946935603198
 20
416.067865556678
 30
0.0
 11
868.094693560319
 21
391.0678655566771
 31
0.0
  0
ARC
  5
C5F
330
2
100
AcDbEntity
  8
0
100
AcDbCircle
 10
865.094693560319
 20
391.0678655566773
 30
0.0
 40
3.0
100
AcDbArc
 50
270.0
 51
359.9999999999869
  0
LINE
  5
C60
330
2
100
AcDbEntity
  8
0
100
AcDbLine
 10
868.0946935603154
 20
379.0678655566771
 30
0.0
 11
868.0946935603154
 21
354.0678655566775
 31
0.0
  0
ARC
  5
C61
330
2
100
AcDbEntity
  8
0
100
AcDbCircle
 10
865.0946935603153
 20
379.0678655566771
 30
0.0
 40
3.0
100
AcDbArc
 50
359.9999999999869
 51
90.0
  0
ARC
  5
C62
330
2
100
AcDbEntity
  8
0
100
AcDbCircle
 10
871.0946935603153
 20
354.0678655566773
 30
0.0
 40
3.0
100
AcDbArc
 50
179.9999999999869
 51
270.0
  0
ARC
  5
C63
330
2
100
AcDbEntity
  8
0
100
AcDbCircle
 10
865.1786137772162
 20
353.0678655566771
 30
0.0
 40
3.0
100
AcDbArc
 50
9.594068226868955
 51
90.0
  0
ARC
  5
C64
330
2
100
AcDbEntity
  8
0
100
AcDbCircle
 10
871.0946935603162
 20
416.0678655566778
 30
0.0
 40
3.0
100
AcDbArc
 50
90.0
 51
179.9999999999869
  0
ARC
  5
C65
330
2
100
AcDbEntity
  8
0
100
AcDbCircle
 10
865.1786137772162
 20
417.0678655566771
 30
0.0
 40
3.0
100
AcDbArc
 50
270.0
 51
350.4059317731516
  0
LINE
  5
C66
330
2
100
AcDbEntity
  8
0
100
AcDbLine
 10
865.1786137772162
 20
356.0678655566771
 30
0.0
 11
850.0946935603117
 21
356.0678655566773
 31
0.0
  0
LINE
  5
C67
330
2
100
AcDbEntity
  8
0
100
AcDbLine
 10
865.1786137772162
 20
414.0678655566771
 30
0.0
 11
850.0946935603163
 21
414.0678655566771
 31
0.0
  0
ARC
  5
C68
330
2
100
AcDbEntity
  8
0
100
AcDbCircle
 10
850.0946935603163
 20
417.0678655566771
 30
0.0
 40
3.0
100
AcDbArc
 50
180.0
 51
270.0
  0
ARC
  5
C69
330
2
100
AcDbEntity
  8
0
100
AcDbCircle
 10
779.5946935603171
 20
112.5678655566773
 30
0.0
 40
340.0
100
AcDbArc
 50
85.85748119726867
 51
94.14251880273132
  0
ARC
  5
C6A
330
2
100
AcDbEntity
  8
0
100
AcDbCircle
 10
722.0946935603181
 20
442.5678655566773
 30
0.0
 40
10.0
100
AcDbArc
 50
90.0
 51
180.0
  0
LINE
  5
C6B
330
2
100
AcDbEntity
  8
0
100
AcDbLine
 10
722.0946935603181
 20
452.5678655566773
 30
0.0
 11
732.094693560318
 21
452.5678655566773
 31
0.0
  0
ARC
  5
C6C
330
2
100
AcDbEntity
  8
0
100
AcDbCircle
 10
732.094693560318
 20
444.5678655566773
 30
0.0
 40
8.0
100
AcDbArc
 50
81.63298947741271
 51
90.0
  0
ARC
  5
C6D
330
2
100
AcDbEntity
  8
0
100
AcDbCircle
 10
837.0946935603171
 20
442.5678655566773
 30
0.0
 40
10.0
100
AcDbArc
 50
0.0
 51
90.0
  0
ARC
  5
C6E
330
2
100
AcDbEntity
  8
0
100
AcDbCircle
 10
747.8101414193945
 20
551.4183437895272
 30
0.0
 40
100.0
100
AcDbArc
 50
261.6329894774127
 51
274.1425188027313
  0
LINE
  5
C6F
330
2
100
AcDbEntity
  8
0
100
AcDbLine
 10
712.0946935603171
 20
442.5678655566771
 30
0.0
 11
712.0946935603171
 21
432.5678655566771
 31
0.0
  0
ARC
  5
C70
330
2
100
AcDbEntity
  8
0
100
AcDbCircle
 10
720.0946935603171
 20
432.5678655566771
 30
0.0
 40
8.0
100
AcDbArc
 50
180.0
 51
188.3670105225864
  0
ARC
  5
C71
330
2
100
AcDbEntity
  8
0
100
AcDbCircle
 10
613.2442153274671
 20
416.8524176976006
 30
0.0
 40
100.0
100
AcDbArc
 50
355.857481197267
 51
8.36701052258649
  0
ARC
  5
C72
330
2
100
AcDbEntity
  8
0
100
AcDbCircle
 10
827.0946935603172
 20
444.5678655566773
 30
0.0
 40
8.0
100
AcDbArc
 50
90.0
 51
98.3670105225873
  0
ARC
  5
C73
330
2
100
AcDbEntity
  8
0
100
AcDbCircle
 10
811.3792457012406
 20
551.4183437895272
 30
0.0
 40
100.0
100
AcDbArc
 50
265.8574811972686
 51
278.3670105225872
  0
LINE
  5
C74
330
2
100
AcDbEntity
  8
0
100
AcDbLine
 10
837.0946935603171
 20
452.5678655566773
 30
0.0
 11
827.0946935603172
 21
452.5678655566773
 31
0.0
  0
ARC
  5
C75
330
2
100
AcDbEntity
  8
0
100
AcDbCircle
 10
722.0946935603181
 20
327.5678655566773
 30
0.0
 40
10.0
100
AcDbArc
 50
180.0
 51
270.0
  0
LINE
  5
C76
330
2
100
AcDbEntity
  8
0
100
AcDbLine
 10
722.0946935603181
 20
317.5678655566773
 30
0.0
 11
732.094693560318
 21
317.5678655566773
 31
0.0
  0
ARC
  5
C77
330
2
100
AcDbEntity
  8
0
100
AcDbCircle
 10
732.094693560318
 20
325.5678655566773
 30
0.0
 40
8.0
100
AcDbArc
 50
270.0
 51
278.3670105225872
  0
ARC
  5
C78
330
2
100
AcDbEntity
  8
0
100
AcDbCircle
 10
837.0946935603171
 20
327.5678655566773
 30
0.0
 40
10.0
100
AcDbArc
 50
270.0
 51
0.0
  0
ARC
  5
C79
330
2
100
AcDbEntity
  8
0
100
AcDbCircle
 10
747.8101414193945
 20
218.7173873238275
 30
0.0
 40
100.0
100
AcDbArc
 50
85.85748119726867
 51
98.3670105225873
  0
LINE
  5
C7A
330
2
100
AcDbEntity
  8
0
100
AcDbLine
 10
712.0946935603171
 20
327.5678655566776
 30
0.0
 11
712.0946935603171
 21
337.5678655566776
 31
0.0
  0
ARC
  5
C7B
330
2
100
AcDbEntity
  8
0
100
AcDbCircle
 10
720.0946935603171
 20
337.5678655566776
 30
0.0
 40
8.0
100
AcDbArc
 50
171.6329894774135
 51
180.0
  0
ARC
  5
C7C
330
2
100
AcDbEntity
  8
0
100
AcDbCircle
 10
613.2442153274671
 20
353.283313415754
 30
0.0
 40
100.0
100
AcDbArc
 50
351.6329894773889
 51
4.142518802733023
  0
ARC
  5
C7D
330
2
100
AcDbEntity
  8
0
100
AcDbCircle
 10
827.0946935603172
 20
325.5678655566773
 30
0.0
 40
8.0
100
AcDbArc
 50
261.6329894774127
 51
270.0
  0
ARC
  5
C7E
330
2
100
AcDbEntity
  8
0
100
AcDbCircle
 10
811.3792457012406
 20
218.7173873238275
 30
0.0
 40
100.0
100
AcDbArc
 50
81.63298947741271
 51
94.14251880273132
  0
LINE
  5
C7F
330
2
100
AcDbEntity
  8
0
100
AcDbLine
 10
847.0946935603171
 20
327.5678655566776
 30
0.0
 11
847.0946935603171
 21
442.5678655566773
 31
0.0
  0
LINE
  5
C80
330
2
100
AcDbEntity
  8
0
100
AcDbLine
 10
837.0946935603171
 20
317.5678655566773
 30
0.0
 11
827.0946935603172
 21
317.5678655566773
 31
0.0
  0
ARC
  5
C81
330
2
100
AcDbEntity
  8
0
100
AcDbCircle
 10
779.5946935603171
 20
657.5678655566774
 30
0.0
 40
340.0
100
AcDbArc
 50
265.8574811972686
 51
274.1425188027313
  0
ARC
  5
C82
330
2
100
AcDbEntity
  8
0
100
AcDbCircle
 10
1052.094693560317
 20
385.0678655566773
 30
0.0
 40
340.0
100
AcDbArc
 50
175.85748119728
 51
184.1425188027068
  0
CIRCLE
  5
C83
330
2
100
AcDbEntity
  8
0
100
AcDbCircle
 10
779.5946935603167
 20
385.0678655566773
 30
0.0
 40
35.99999999999954
  0
CIRCLE
  5
C84
330
2
100
AcDbEntity
  8
0
100
AcDbCircle
 10
779.5946935603167
 20
385.0678655566773
 30
0.0
 40
36.57735026918968
  0
CIRCLE
  5
C85
330
2
100
AcDbEntity
  8
0
100
AcDbCircle
 10
779.5946935603167
 20
385.0678655566773
 30
0.0
 40
43.49999999999954
  0
CIRCLE
  5
C86
330
2
100
AcDbEntity
  8
0
100
AcDbCircle
 10
779.5946935603167
 20
385.0678655566773
 30
0.0
 40
60.00000000000046
  0
LINE
  5
C87
330
2
100
AcDbEntity
  8
CENTER
100
AcDbLine
 10
836.1632360552418
 20
452.5678655566773
 30
0.0
 11
836.1632360552418
 21
430.7049505465199
 31
0.0
  0
LINE
  5
C88
330
2
100
AcDbEntity
  8
CENTER
100
AcDbLine
 10
825.2317785501615
 20
441.6364080515986
 30
0.0
 11
847.0946935603185
 21
441.6364080515986
 31
0.0
  0
LINE
  5
C89
330
2
100
AcDbEntity
  8
CENTER
100
AcDbLine
 10
723.0261510653924
 20
452.5678655566773
 30
0.0
 11
723.026151065392
 21
430.7049505465215
 31
0.0
  0
LINE
  5
C8A
330
2
100
AcDbEntity
  8
CENTER
100
AcDbLine
 10
733.9576085704736
 20
441.6364080515994
 30
0.0
 11
712.0946935603176
 21
441.6364080515995
 31
0.0
  0
LINE
  5
C8B
330
2
100
AcDbEntity
  8
CENTER
100
AcDbLine
 10
836.1632360552418
 20
317.5678655566773
 30
0.0
 11
836.1632360552418
 21
339.4307805668302
 31
0.0
  0
LINE
  5
C8C
330
2
100
AcDbEntity
  8
CENTER
100
AcDbLine
 10
825.2317785501652
 20
328.4993230617555
 30
0.0
 11
847.0946935603176
 21
328.4993230617553
 31
0.0
  0
LINE
  5
C8D
330
2
100
AcDbEntity
  8
CENTER
100
AcDbLine
 10
723.026151065392
 20
317.5678655566773
 30
0.0
 11
723.026151065392
 21
339.4307805668316
 31
0.0
  0
LINE
  5
C8E
330
2
100
AcDbEntity
  8
CENTER
100
AcDbLine
 10
733.9576085704691
 20
328.499323061755
 30
0.0
 11
712.0946935603149
 21
328.4993230617549
 31
0.0
  0
CIRCLE
  5
C8F
330
2
100
AcDbEntity
  8
CENTER
100
AcDbCircle
 10
779.5946935603167
 20
385.0678655566773
 30
0.0
 40
79.9999999999992
  0
LINE
  5
C90
330
2
100
AcDbEntity
  8
CENTER
100
AcDbLine
 10
716.3982956312331
 20
385.0678655566773
 30
0.0
 11
732.7910914894003
 21
385.0678655566773
 31
0.0
  0
LINE
  5
C91
330
2
100
AcDbEntity
  8
CENTER
100
AcDbLine
 10
851.4875382176704
 20
456.9607102140285
 30
0.0
 11
707.701848902963
 21
313.1750208993261
 31
0.0
  0
LINE
  5
C92
330
2
100
AcDbEntity
  8
CENTER
100
AcDbLine
 10
707.7018489029649
 20
456.9607102140304
 30
0.0
 11
851.4875382176684
 21
313.1750208993242
 31
0.0
  0
LINE
  5
C93
330
2
100
AcDbEntity
  8
0
 48
0.5
100
AcDbLine
 10
712.0990569942129
 20
822.5897734496143
 30
0.0
 11
712.9891975088683
 21
720.5897734496239
 31
0.0
  0
LINE
  5
C94
330
2
100
AcDbEntity
  8
CENTER
100
AcDbLine
 10
779.5946935603167
 20
857.5897734496136
 30
0.0
 11
779.5946935603167
 21
634.5897734496221
 31
0.0
  0
LINE
  5
C95
330
2
100
AcDbEntity
  8
0
100
AcDbLine
 10
827.1077865211015
 20
822.5897734496207
 30
0.0
 11
827.9987933219679
 21
788.5635965013145
 31
0.0
  0
LINE
  5
C96
330
2
100
AcDbEntity
  8
0
100
AcDbLine
 10
719.5946935603158
 20
715.5897734496207
 30
0.0
 11
839.5946935603166
 21
715.5897734496222
 31
0.0
  0
LINE
  5
C97
330
2
100
AcDbEntity
  8
CENTER
100
AcDbLine
 10
702.4041165830315
 20
787.5897734496224
 30
0.0
 11
1002.09469356032
 21
787.5897734496224
 31
0.0
  0
LINE
  5
C98
330
2
100
AcDbEntity
  8
0
100
AcDbLine
 10
846.4794493810689
 20
822.5897734496218
 30
0.0
 11
712.0946935603176
 21
822.5897734496143
 31
0.0
  0
LINE
  5
C99
330
2
100
AcDbEntity
  8
0
100
AcDbLine
 10
879.7984904426591
 20
787.5897734496224
 30
0.0
 11
881.0181921981545
 21
834.1683042945453
 31
0.0
  0
ARC
  5
C9A
330
2
100
AcDbEntity
  8
0
100
AcDbCircle
 10
876.9545775945996
 20
793.5897734496229
 30
0.0
 40
3.0
100
AcDbArc
 50
270.0
 51
358.5000000000103
  0
LINE
  5
C9B
330
2
100
AcDbEntity
  8
0
100
AcDbLine
 10
872.8955568086218
 20
821.5897734496225
 30
0.0
 11
871.0171641730809
 21
821.5897734496222
 31
0.0
  0
ARC
  5
C9C
330
2
100
AcDbEntity
  8
0
100
AcDbCircle
 10
872.8955568086218
 20
829.5897734496225
 30
0.0
 40
8.0
100
AcDbArc
 50
270.0
 51
358.5000000000103
  0
LINE
  5
C9D
330
2
100
AcDbEntity
  8
0
100
AcDbLine
 10
886.4489570292359
 20
738.0897734496222
 30
0.0
 11
884.0171421730817
 21
738.0897734496228
 31
0.0
  0
ARC
  5
C9E
330
2
100
AcDbEntity
  8
0
100
AcDbCircle
 10
886.4489570292342
 20
733.0897734496221
 30
0.0
 40
5.0
100
AcDbArc
 50
1.500000000015752
 51
89.99999999994789
  0
ARC
  5
C9F
330
2
100
AcDbEntity
  8
0
100
AcDbCircle
 10
884.0171421730827
 20
741.0897734496228
 30
0.0
 40
3.0
100
AcDbArc
 50
181.5000000000418
 51
270.0
  0
LINE
  5
CA0
330
2
100
AcDbEntity
  8
0
100
AcDbLine
 10
872.895534808619
 20
753.5897734496221
 30
0.0
 11
871.0171641730809
 21
753.5897734496221
 31
0.0
  0
LINE
  5
CA1
330
2
100
AcDbEntity
  8
0
100
AcDbLine
 10
881.0181701981562
 20
741.0112426046979
 30
0.0
 11
879.798468442607
 21
787.5897734496223
 31
0.0
  0
ARC
  5
CA2
330
2
100
AcDbEntity
  8
0
100
AcDbCircle
 10
872.895534808619
 20
745.5897734496221
 30
0.0
 40
8.0
100
AcDbArc
 50
1.500000000054848
 51
90.0
  0
LINE
  5
CA3
330
2
100
AcDbEntity
  8
0
 48
0.3
100
AcDbLine
 10
893.5430073021604
 20
847.5897734496223
 30
0.0
 11
907.5946935603212
 21
847.5897734496223
 31
0.0
  0
ARC
  5
CA4
330
2
100
AcDbEntity
  8
0
 48
0.5
100
AcDbCircle
 10
893.5430073021604
 20
845.5897734496225
 30
0.0
 40
2.0
100
AcDbArc
 50
90.0
 51
178.4999999999972
  0
LINE
  5
CA5
330
2
100
AcDbEntity
  8
0
100
AcDbLine
 10
891.5436926522104
 20
845.6421273462375
 30
0.0
 11
890.0235382661611
 21
787.5897734496224
 31
0.0
  0
ARC
  5
CA6
330
2
100
AcDbEntity
  8
0
100
AcDbCircle
 10
886.4489570292333
 20
842.0897734496216
 30
0.0
 40
5.0
100
AcDbArc
 50
270.0
 51
358.5000000000103
  0
LINE
  5
CA7
330
2
100
AcDbEntity
  8
0
100
AcDbLine
 10
884.017164173081
 20
837.0897734496216
 30
0.0
 11
886.4489570292333
 21
837.0897734496216
 31
0.0
  0
ARC
  5
CA8
330
2
100
AcDbEntity
  8
0
100
AcDbCircle
 10
884.017164173081
 20
834.0897734496216
 30
0.0
 40
3.0
100
AcDbArc
 50
90.0
 51
178.4999999999972
  0
LINE
  5
CA9
330
2
100
AcDbEntity
  8
0
 48
0.5
100
AcDbLine
 10
846.505858450403
 20
755.6159530561171
 30
0.0
 11
846.4449226865124
 21
748.6334061271133
 31
0.0
  0
ARC
  5
CAA
330
2
100
AcDbEntity
  8
0
 48
0.5
100
AcDbCircle
 10
849.5057442195955
 20
755.5897734496227
 30
0.0
 40
3.0
100
AcDbArc
 50
90.0
 51
179.5000000000084
  0
ARC
  5
CAB
330
2
100
AcDbEntity
  8
0
 48
0.5
100
AcDbCircle
 10
849.7326427821496
 20
781.5897734496225
 30
0.0
 40
3.0
100
AcDbArc
 50
90.0
 51
179.5000000000084
  0
LINE
  5
CAC
330
2
100
AcDbEntity
  8
0
 48
0.5
100
AcDbLine
 10
846.7848897537376
 20
787.5897734496227
 30
0.0
 11
846.2001896117651
 21
720.5897734496293
 31
0.0
  0
LINE
  5
CAD
330
2
100
AcDbEntity
  8
0
 48
0.5
100
AcDbLine
 10
846.7848897537495
 20
787.5897734496224
 30
0.0
 11
846.4794493810693
 21
822.5897734496218
 31
0.0
  0
LINE
  5
CAE
330
2
100
AcDbEntity
  8
0
 48
0.3
100
AcDbLine
 10
893.5430073021604
 20
727.5897734496226
 30
0.0
 11
907.5946935603212
 21
727.5897734496225
 31
0.0
  0
ARC
  5
CAF
330
2
100
AcDbEntity
  8
0
 48
0.5
100
AcDbCircle
 10
893.5430073021604
 20
729.5897734496223
 30
0.0
 40
2.0
100
AcDbArc
 50
181.5000000000157
 51
270.0
  0
LINE
  5
CB0
330
2
100
AcDbEntity
  8
0
100
AcDbLine
 10
891.5436926522104
 20
729.5374195530074
 30
0.0
 11
890.0235382661746
 21
787.5897734496224
 31
0.0
  0
LINE
  5
CB1
330
2
100
AcDbEntity
  8
0
100
AcDbLine
 10
907.5946935603168
 20
727.5897734496225
 30
0.0
 11
907.5946935603168
 21
847.5897734496225
 31
0.0
  0
LINE
  5
CB2
330
2
100
AcDbEntity
  8
0
100
AcDbLine
 10
712.9891975088683
 20
720.5897734496239
 30
0.0
 11
846.2001896117651
 21
720.5897734496296
 31
0.0
  0
LINE
  5
CB3
330
2
100
AcDbEntity
  8
0
100
AcDbLine
 10
849.7326427821587
 20
790.5897734496227
 30
0.0
 11
876.9545775945996
 21
790.5897734496234
 31
0.0
  0
ARC
  5
CB4
330
2
100
AcDbEntity
  8
0
100
AcDbCircle
 10
864.3604593789085
 20
793.5897734496229
 30
0.0
 40
3.0
100
AcDbArc
 50
270.0
 51
358.4999999999972
  0
ARC
  5
CB5
330
2
100
AcDbEntity
  8
0
100
AcDbCircle
 10
849.7326427821587
 20
793.5897734496227
 30
0.0
 40
3.0
100
AcDbArc
 50
180.5000000000045
 51
270.0
  0
LINE
  5
CB6
330
2
100
AcDbEntity
  8
0
100
AcDbLine
 10
849.7326427821496
 20
784.5897734496225
 30
0.0
 11
876.9545555945549
 21
784.5897734496218
 31
0.0
  0
ARC
  5
CB7
330
2
100
AcDbEntity
  8
0
100
AcDbCircle
 10
876.9545555945549
 20
781.5897734496222
 30
0.0
 40
3.0
100
AcDbArc
 50
1.500000000041816
 51
90.0
  0
LINE
  5
CB8
330
2
100
AcDbEntity
  8
0
100
AcDbLine
 10
828.9984506469433
 20
787.5897734496224
 30
0.0
 11
907.5946935603168
 21
787.5897734496224
 31
0.0
  0
ARC
  5
CB9
330
2
100
AcDbEntity
  8
0
100
AcDbCircle
 10
828.9984506469433
 20
788.5897734496225
 30
0.0
 40
1.0
100
AcDbArc
 50
181.5000000000027
 51
270.0
  0
LINE
  5
CBA
330
2
100
AcDbEntity
  8
0
100
AcDbLine
 10
722.0946935603181
 20
822.5897734496175
 30
0.0
 11
722.0946935603167
 21
722.0897734496239
 31
0.0
  0
LINE
  5
CBB
330
2
100
AcDbEntity
  8
0
100
AcDbLine
 10
867.3594313538339
 20
781.6683042945458
 30
0.0
 11
868.0181921981555
 21
756.5112426046989
 31
0.0
  0
ARC
  5
CBC
330
2
100
AcDbEntity
  8
0
100
AcDbCircle
 10
864.3604593789076
 20
781.5897734496222
 30
0.0
 40
3.0
100
AcDbArc
 50
1.500000000002719
 51
90.0
  0
LINE
  5
CBD
330
2
100
AcDbEntity
  8
0
100
AcDbLine
 10
865.1010843899809
 20
758.5897734496224
 30
0.0
 11
849.5057442195955
 21
758.5897734496227
 31
0.0
  0
ARC
  5
CBE
330
2
100
AcDbEntity
  8
0
100
AcDbCircle
 10
871.0171641730809
 20
756.5897734496225
 30
0.0
 40
3.0
100
AcDbArc
 50
181.5000000000027
 51
270.0
  0
ARC
  5
CBF
330
2
100
AcDbEntity
  8
0
100
AcDbCircle
 10
865.1010843899809
 20
755.5897734496227
 30
0.0
 40
3.0
100
AcDbArc
 50
9.594068226868996
 51
90.0
  0
LINE
  5
CC0
330
2
100
AcDbEntity
  8
0
100
AcDbLine
 10
865.1010843899809
 20
816.589773449623
 30
0.0
 11
849.5057442195991
 21
816.5897734496224
 31
0.0
  0
ARC
  5
CC1
330
2
100
AcDbEntity
  8
0
100
AcDbCircle
 10
849.5057442195991
 20
819.5897734496224
 30
0.0
 40
3.0
100
AcDbArc
 50
180.5000000000045
 51
270.0
  0
ARC
  5
CC2
330
2
100
AcDbEntity
  8
0
100
AcDbCircle
 10
871.0171641730809
 20
818.5897734496229
 30
0.0
 40
3.0
100
AcDbArc
 50
90.0
 51
178.4999999999972
  0
ARC
  5
CC3
330
2
100
AcDbEntity
  8
0
100
AcDbCircle
 10
865.1010843899809
 20
819.5897734496227
 30
0.0
 40
3.0
100
AcDbArc
 50
270.0
 51
350.4059317731516
  0
LINE
  5
CC4
330
2
100
AcDbEntity
  8
0
100
AcDbLine
 10
867.3594313538348
 20
793.5112426046996
 30
0.0
 11
868.0181921981555
 21
818.6683042945457
 31
0.0
  0
LINE
  5
CC5
330
2
100
AcDbEntity
  8
0
100
AcDbLine
 10
732.0946935603176
 20
722.0897734496246
 30
0.0
 11
732.0946935603176
 21
822.5897734496177
 31
0.0
  0
LINE
  5
CC6
330
2
100
AcDbEntity
  8
0
100
AcDbLine
 10
755.0339032696135
 20
722.0897734496255
 30
0.0
 11
755.0339032696131
 21
822.5897734496179
 31
0.0
  0
LINE
  5
CC7
330
2
100
AcDbEntity
  8
0
100
AcDbLine
 10
837.0946935603154
 20
822.5897734496186
 30
0.0
 11
837.0946935603168
 21
722.0897734496239
 31
0.0
  0
LINE
  5
CC8
330
2
100
AcDbEntity
  8
0
100
AcDbLine
 10
827.0946935603157
 20
722.0897734496246
 30
0.0
 11
827.0946935603157
 21
787.5897734496227
 31
0.0
  0
LINE
  5
CC9
330
2
100
AcDbEntity
  8
0
100
AcDbLine
 10
804.1554838510199
 20
722.0897734496255
 30
0.0
 11
804.1554838510212
 21
822.5897734496182
 31
0.0
  0
LINE
  5
CCA
330
2
100
AcDbEntity
  8
0
100
AcDbLine
 10
907.5946935603212
 20
727.5897734496225
 30
0.0
 11
907.5946935603212
 21
847.5897734496225
 31
0.0
  0
LINE
  5
CCB
330
2
100
AcDbEntity
  8
0
 48
0.5
100
AcDbLine
 10
719.5946935603167
 20
720.5897734496221
 30
0.0
 11
719.5946935603158
 21
715.5897734496207
 31
0.0
  0
LINE
  5
CCC
330
2
100
AcDbEntity
  8
0
 48
0.5
100
AcDbLine
 10
839.5946935603166
 20
720.5897734496221
 30
0.0
 11
839.5946935603166
 21
715.5897734496222
 31
0.0
  0
ARC
  5
CCD
330
2
100
AcDbEntity
  8
0
100
AcDbCircle
 10
879.2411037425342
 20
737.4580442595653
 30
0.0
 40
3.0
100
AcDbArc
 50
37.24958326181089
 51
114.9999999999782
  0
LINE
  5
CCE
330
2
100
AcDbEntity
  8
0
100
AcDbLine
 10
877.9732489573133
 20
740.1769676206753
 30
0.0
 11
847.9575100243453
 21
726.180398691051
 31
0.0
  0
ARC
  5
CCF
330
2
100
AcDbEntity
  8
0
100
AcDbCircle
 10
849.2253648095672
 20
723.461475329941
 30
0.0
 40
3.0
100
AcDbArc
 50
114.9999999999782
 51
179.5000000000084
  0
ARC
  5
CD0
330
2
100
AcDbEntity
  8
0
100
AcDbCircle
 10
878.2096439054173
 20
835.5973238934454
 30
0.0
 40
3.0
100
AcDbArc
 50
294.9999999999781
 51
345.4480092603792
  0
LINE
  5
CD1
330
2
100
AcDbEntity
  8
0
100
AcDbLine
 10
879.4774986906393
 20
832.878400532336
 30
0.0
 11
849.3417905265904
 21
818.8258890315141
 31
0.0
  0
ARC
  5
CD2
330
2
100
AcDbEntity
  8
0
100
AcDbCircle
 10
848.4965540031087
 20
820.6385046055874
 30
0.0
 40
2.0
100
AcDbArc
 50
180.5000000024668
 51
294.9999999999781
  0
LINE
  5
CD3
330
2
100
AcDbEntity
  8
0
100
AcDbLine
 10
735.8032773166467
 20
703.2424770942882
 30
0.0
 11
734.7917808050777
 21
708.9789588709561
 31
0.0
  0
LINE
  5
CD4
330
2
100
AcDbEntity
  8
0
100
AcDbLine
 10
823.3861098039866
 20
703.2424770942882
 30
0.0
 11
824.3976063155557
 21
708.9789588709578
 31
0.0
  0
ARC
  5
CD5
330
2
100
AcDbEntity
  8
0
100
AcDbCircle
 10
821.4164942979621
 20
703.5897734496221
 30
0.0
 40
2.0
100
AcDbArc
 50
270.0
 51
350.0000000000006
  0
LINE
  5
CD6
330
2
100
AcDbEntity
  8
0
100
AcDbLine
 10
737.7728928226713
 20
701.5897734496221
 30
0.0
 11
821.4164942979621
 21
701.5897734496221
 31
0.0
  0
ARC
  5
CD7
330
2
100
AcDbEntity
  8
0
100
AcDbCircle
 10
737.7728928226713
 20
703.5897734496221
 30
0.0
 40
2.0
100
AcDbArc
 50
189.9999999999993
 51
270.0
  0
ARC
  5
CD8
330
2
100
AcDbEntity
  8
0
100
AcDbCircle
 10
726.9133187809805
 20
707.5897734496207
 30
0.0
 40
8.0
100
AcDbArc
 50
9.999999999999365
 51
90.0
  0
ARC
  5
CD9
330
2
100
AcDbEntity
  8
0
100
AcDbCircle
 10
832.2760683396534
 20
707.5897734496223
 30
0.0
 40
8.0
100
AcDbArc
 50
90.0
 51
170.0000000000006
  0
LINE
  5
D0A
330
2
100
AcDbEntity
  8
CENTER
100
AcDbLine
 10
-32.19406526516673
 20
385.0678655566773
 30
0.0
 11
267.8059347348369
 21
385.0678655566773
 31
0.0
  0
LINE
  5
D0B
330
2
100
AcDbEntity
  8
0
100
AcDbLine
 10
96.80593473483828
 20
419.0678655566773
 30
0.0
 11
98.80593473483465
 21
419.0678655566773
 31
0.0
  0
LINE
  5
D0C
330
2
100
AcDbEntity
  8
0
100
AcDbLine
 10
83.30593473483828
 20
335.5678655566773
 30
0.0
 11
85.80593473483828
 21
335.5678655566773
 31
0.0
  0
LINE
  5
D0D
330
2
100
AcDbEntity
  8
0
100
AcDbLine
 10
83.30593473483828
 20
434.5678655566772
 30
0.0
 11
85.80593473483828
 21
434.5678655566772
 31
0.0
  0
ARC
  5
D0E
330
2
100
AcDbEntity
  8
0
100
AcDbCircle
 10
83.30593473483828
 20
439.5678655566773
 30
0.0
 40
5.0
100
AcDbArc
 50
180.0
 51
270.0
  0
LINE
  5
D0F
330
2
100
AcDbEntity
  8
0
100
AcDbLine
 10
88.80593473483827
 20
338.5678655566773
 30
0.0
 11
88.80593473483827
 21
431.5678655566773
 31
0.0
  0
ARC
  5
D10
330
2
100
AcDbEntity
  8
0
100
AcDbCircle
 10
96.80593473483828
 20
427.0678655566773
 30
0.0
 40
8.0
100
AcDbArc
 50
180.0
 51
270.0
  0
ARC
  5
D11
330
2
100
AcDbEntity
  8
0
100
AcDbCircle
 10
85.80593473483828
 20
338.5678655566773
 30
0.0
 40
3.0
100
AcDbArc
 50
270.0
 51
0.0
  0
ARC
  5
D12
330
2
100
AcDbEntity
  8
0
100
AcDbCircle
 10
91.03650047259293
 20
335.6282767992099
 30
0.0
 40
3.0
100
AcDbArc
 50
79.99999999999484
 51
150.6639232879818
  0
ARC
  5
D13
330
2
100
AcDbEntity
  8
0
100
AcDbCircle
 10
85.80593473483828
 20
431.5678655566773
 30
0.0
 40
3.0
100
AcDbArc
 50
0.0
 51
90.0
  0
ARC
  5
D14
330
2
100
AcDbEntity
  8
0
100
AcDbCircle
 10
91.03650047259293
 20
434.5074543141446
 30
0.0
 40
3.0
100
AcDbArc
 50
209.3360767120179
 51
279.9999999999522
  0
LINE
  5
D15
330
2
100
AcDbEntity
  8
0
100
AcDbLine
 10
78.30593473483827
 20
326.5678655566773
 30
0.0
 11
78.30593473483827
 21
443.5678655566773
 31
0.0
  0
ARC
  5
D16
330
2
100
AcDbEntity
  8
0
100
AcDbCircle
 10
76.30593473483827
 20
443.5678655566773
 30
0.0
 40
2.0
100
AcDbArc
 50
0.0
 51
90.0
  0
ARC
  5
D17
330
2
100
AcDbEntity
  8
0
100
AcDbCircle
 10
76.30593473483827
 20
327.0678655566773
 30
0.0
 40
2.0
100
AcDbArc
 50
270.0
 51
0.0
  0
ARC
  5
D18
330
2
100
AcDbEntity
  8
0
100
AcDbCircle
 10
76.30593473483827
 20
443.0678655566772
 30
0.0
 40
2.0
100
AcDbArc
 50
0.0
 51
90.0
  0
LINE
  5
D19
330
2
100
AcDbEntity
  8
CENTER
100
AcDbLine
 10
190.3059347348364
 20
307.5678655566773
 30
0.0
 11
190.3059347348373
 21
462.5678655566773
 31
0.0
  0
ARC
  5
D1A
330
2
100
AcDbEntity
  8
0
100
AcDbCircle
 10
83.30593473483828
 20
330.5678655566773
 30
0.0
 40
5.0
100
AcDbArc
 50
90.0
 51
180.0
  0
LINE
  5
D1B
330
2
100
AcDbEntity
  8
0
100
AcDbLine
 10
96.80593473483828
 20
351.0678655566771
 30
0.0
 11
98.80593473483465
 21
351.0678655566771
 31
0.0
  0
ARC
  5
D1C
330
2
100
AcDbEntity
  8
0
100
AcDbCircle
 10
96.80593473483828
 20
343.0678655566771
 30
0.0
 40
8.0
100
AcDbArc
 50
90.0
 51
180.0
  0
LINE
  5
D1D
330
2
100
AcDbEntity
  8
0
100
AcDbLine
 10
76.30593473483827
 20
325.0678655566773
 30
0.0
 11
62.30593473483191
 21
325.0678655566771
 31
0.0
  0
LINE
  5
D1E
330
2
100
AcDbEntity
  8
0
100
AcDbLine
 10
76.30593473483827
 20
445.067865556677
 30
0.0
 11
62.30593473483191
 21
445.0678655566768
 31
0.0
  0
LINE
  5
D1F
330
2
100
AcDbEntity
  8
0
100
AcDbLine
 10
62.30593473483191
 20
445.5678655566773
 30
0.0
 11
62.30593473483191
 21
324.5678655566773
 31
0.0
  0
LINE
  5
D20
330
2
100
AcDbEntity
  8
0
100
AcDbLine
 10
91.55744500559217
 20
431.5530310551079
 30
0.0
 11
120.6366830744193
 21
436.6804853050868
 31
0.0
  0
LINE
  5
D21
330
2
100
AcDbEntity
  8
0
100
AcDbLine
 10
91.55744500559398
 20
338.5827000582466
 30
0.0
 11
120.6366830744139
 21
333.4552458082685
 31
0.0
  0
ARC
  5
D22
330
2
100
AcDbEntity
  8
0
100
AcDbCircle
 10
120.1157385414128
 20
330.5008225492317
 30
0.0
 40
3.0
100
AcDbArc
 50
0.0
 51
79.99999999999484
  0
ARC
  5
D23
330
2
100
AcDbEntity
  8
0
100
AcDbCircle
 10
120.1157385414155
 20
417.0678655566772
 30
0.0
 40
3.0
100
AcDbArc
 50
270.0
 51
0.0
  0
ARC
  5
D24
330
2
100
AcDbEntity
  8
0
100
AcDbCircle
 10
120.1157385414183
 20
439.6349085641236
 30
0.0
 40
3.0
100
AcDbArc
 50
280.0000000000051
 51
0.0
  0
LINE
  5
D25
330
2
100
AcDbEntity
  8
0
100
AcDbLine
 10
96.80593473483828
 20
419.0678655566773
 30
0.0
 11
98.80593473483465
 21
419.0678655566773
 31
0.0
  0
ARC
  5
D26
330
2
100
AcDbEntity
  8
0
100
AcDbCircle
 10
98.80593473483465
 20
416.0678655566773
 30
0.0
 40
3.0
100
AcDbArc
 50
0.0
 51
90.0
  0
ARC
  5
D27
330
2
100
AcDbEntity
  8
0
100
AcDbCircle
 10
104.7220145179337
 20
417.0678655566775
 30
0.0
 40
3.0
100
AcDbArc
 50
189.5940682268688
 51
270.0
  0
LINE
  5
D28
330
2
100
AcDbEntity
  8
0
100
AcDbLine
 10
96.80593473483828
 20
351.0678655566771
 30
0.0
 11
98.80593473483465
 21
351.0678655566773
 31
0.0
  0
LINE
  5
D29
330
2
100
AcDbEntity
  8
0
100
AcDbLine
 10
101.8059347348346
 20
416.0678655566773
 30
0.0
 11
101.8059347348346
 21
388.0678655566752
 31
0.0
  0
LINE
  5
D2A
330
2
100
AcDbEntity
  8
0
100
AcDbLine
 10
101.8059347348346
 20
382.0678655566748
 30
0.0
 11
101.8059347348346
 21
354.0678655566773
 31
0.0
  0
ARC
  5
D2B
330
2
100
AcDbEntity
  8
0
100
AcDbCircle
 10
98.80593473483465
 20
354.0678655566773
 30
0.0
 40
3.0
100
AcDbArc
 50
270.0
 51
0.0
  0
ARC
  5
D2C
330
2
100
AcDbEntity
  8
0
100
AcDbCircle
 10
104.7220145179346
 20
353.0678655566775
 30
0.0
 40
3.0
100
AcDbArc
 50
90.0
 51
170.4059317731516
  0
LINE
  5
D2D
330
2
100
AcDbEntity
  8
0
100
AcDbLine
 10
104.7220145179337
 20
414.0678655566775
 30
0.0
 11
120.1157385414155
 21
414.0678655566772
 31
0.0
  0
LINE
  5
D2E
330
2
100
AcDbEntity
  8
0
100
AcDbLine
 10
104.7220145179346
 20
356.0678655566775
 30
0.0
 11
120.1157385414183
 21
356.0678655566775
 31
0.0
  0
ARC
  5
D2F
330
2
100
AcDbEntity
  8
0
100
AcDbCircle
 10
120.1157385414183
 20
353.0678655566775
 30
0.0
 40
3.0
100
AcDbArc
 50
0.0
 51
90.0
  0
LINE
  5
D30
330
2
100
AcDbEntity
  8
0
100
AcDbLine
 10
123.1157385414092
 20
442.5678655566775
 30
0.0
 11
123.1157385414092
 21
327.5678655566773
 31
0.0
  0
ARC
  5
D31
330
2
100
AcDbEntity
  8
0
100
AcDbCircle
 10
133.1157385414092
 20
442.5678655566775
 30
0.0
 40
10.0
100
AcDbArc
 50
90.0
 51
180.0
  0
ARC
  5
D32
330
2
100
AcDbEntity
  8
0
100
AcDbCircle
 10
133.1157385414092
 20
327.5678655566773
 30
0.0
 40
10.0
100
AcDbArc
 50
180.0
 51
270.0
  0
ARC
  5
D33
330
2
100
AcDbEntity
  8
0
100
AcDbCircle
 10
91.80593473483781
 20
391.067865556675
 30
0.0
 40
3.0
100
AcDbArc
 50
180.0
 51
270.0
  0
ARC
  5
D34
330
2
100
AcDbEntity
  8
0
100
AcDbCircle
 10
120.1157385414078
 20
391.067865556675
 30
0.0
 40
3.0
100
AcDbArc
 50
270.0
 51
0.0
  0
LINE
  5
D35
330
2
100
AcDbEntity
  8
0
100
AcDbLine
 10
120.1157385414078
 20
382.0678655566748
 30
0.0
 11
91.80593473483781
 21
382.0678655566747
 31
0.0
  0
ARC
  5
D36
330
2
100
AcDbEntity
  8
0
100
AcDbCircle
 10
91.80593473483781
 20
379.0678655566745
 30
0.0
 40
3.0
100
AcDbArc
 50
90.0
 51
180.0
  0
ARC
  5
D37
330
2
100
AcDbEntity
  8
0
100
AcDbCircle
 10
120.1157385414078
 20
379.0678655566748
 30
0.0
 40
3.0
100
AcDbArc
 50
0.0
 51
90.0
  0
LINE
  5
D38
330
2
100
AcDbEntity
  8
0
100
AcDbLine
 10
120.1157385414078
 20
388.067865556675
 30
0.0
 11
91.80593473483781
 21
388.0678655566752
 31
0.0
  0
LINE
  5
D39
330
2
100
AcDbEntity
  8
CENTER
100
AcDbLine
 10
331.709957918604
 20
385.0678655566773
 30
0.0
 11
554.7099579185954
 21
385.0678655566773
 31
0.0
  0
LINE
  5
D3A
330
2
100
AcDbEntity
  8
0
100
AcDbLine
 10
473.7099579185967
 20
325.0678655566762
 30
0.0
 11
473.7099579185949
 21
445.0678655566773
 31
0.0
  0
LINE
  5
D3B
330
2
100
AcDbEntity
  8
CENTER
100
AcDbLine
 10
401.7099579185948
 20
307.8729251454964
 30
0.0
 11
401.7099579185948
 21
462.2628059678582
 31
0.0
  0
LINE
  5
D3C
330
2
100
AcDbEntity
  8
0
100
AcDbLine
 10
366.7099579185958
 20
452.5678655566773
 30
0.0
 11
366.7099579186031
 21
317.5678655566782
 31
0.0
  0
LINE
  5
D3D
330
2
100
AcDbEntity
  8
0
100
AcDbLine
 10
468.7099579185953
 20
318.4623695052288
 30
0.0
 11
468.7099579185881
 21
451.6733616081258
 31
0.0
  0
LINE
  5
D3E
330
2
100
AcDbEntity
  8
0
100
AcDbLine
 10
366.7099579185999
 20
327.5678655566782
 30
0.0
 11
467.2099579185935
 21
327.5678655566772
 31
0.0
  0
LINE
  5
D3F
330
2
100
AcDbEntity
  8
0
100
AcDbLine
 10
467.2099579185931
 20
337.5678655566782
 30
0.0
 11
366.7099579185994
 21
337.5678655566782
 31
0.0
  0
LINE
  5
D40
330
2
100
AcDbEntity
  8
0
100
AcDbLine
 10
467.2099579185921
 20
360.5070752659741
 30
0.0
 11
366.7099579185994
 21
360.5070752659732
 31
0.0
  0
LINE
  5
D41
330
2
100
AcDbEntity
  8
0
100
AcDbLine
 10
366.7099579185994
 20
442.5678655566764
 30
0.0
 11
467.2099579185935
 21
442.5678655566772
 31
0.0
  0
LINE
  5
D42
330
2
100
AcDbEntity
  8
0
100
AcDbLine
 10
467.2099579185931
 20
432.5678655566764
 30
0.0
 11
366.7099579185994
 21
432.5678655566764
 31
0.0
  0
LINE
  5
D43
330
2
100
AcDbEntity
  8
0
100
AcDbLine
 10
467.2099579185921
 20
409.6286558473805
 30
0.0
 11
366.7099579185994
 21
409.6286558473813
 31
0.0
  0
LINE
  5
D44
330
2
100
AcDbEntity
  8
0
 48
0.5
100
AcDbLine
 10
468.7099579185953
 20
325.0678655566773
 30
0.0
 11
473.7099579185967
 21
325.0678655566763
 31
0.0
  0
LINE
  5
D45
330
2
100
AcDbEntity
  8
0
 48
0.5
100
AcDbLine
 10
468.7099579185953
 20
445.0678655566773
 30
0.0
 11
473.7099579185949
 21
445.0678655566773
 31
0.0
  0
LINE
  5
D46
330
2
100
AcDbEntity
  8
0
100
AcDbLine
 10
486.0572542739293
 20
341.2764493130075
 30
0.0
 11
480.3207724972614
 21
340.2649528014383
 31
0.0
  0
LINE
  5
D47
330
2
100
AcDbEntity
  8
0
100
AcDbLine
 10
486.0572542739293
 20
428.8592818003472
 30
0.0
 11
480.3207724972597
 21
429.8707783119166
 31
0.0
  0
ARC
  5
D48
330
2
100
AcDbEntity
  8
0
100
AcDbCircle
 10
485.7099579185954
 20
426.8896662943228
 30
0.0
 40
2.0
100
AcDbArc
 50
0.0
 51
79.99999999999484
  0
LINE
  5
D49
330
2
100
AcDbEntity
  8
0
100
AcDbLine
 10
487.7099579185953
 20
343.2460648190319
 30
0.0
 11
487.7099579185953
 21
426.8896662943228
 31
0.0
  0
ARC
  5
D4A
330
2
100
AcDbEntity
  8
0
100
AcDbCircle
 10
485.7099579185954
 20
343.2460648190319
 30
0.0
 40
2.0
100
AcDbArc
 50
280.0000000000051
 51
0.0
  0
ARC
  5
D4B
330
2
100
AcDbEntity
  8
0
100
AcDbCircle
 10
481.7099579185967
 20
332.3864907773409
 30
0.0
 40
8.0
100
AcDbArc
 50
100.0000000000051
 51
180.0
  0
ARC
  5
D4C
330
2
100
AcDbEntity
  8
0
100
AcDbCircle
 10
481.7099579185954
 20
437.7492403360142
 30
0.0
 40
8.0
100
AcDbArc
 50
180.0
 51
259.9999999999948
  0
LINE
  5
D4D
330
2
100
AcDbEntity
  8
0
100
AcDbLine
 10
341.7099579186039
 20
385.0678655566771
 30
0.0
 11
341.7099579186039
 21
426.9905152874897
 31
0.0
  0
LINE
  5
D4E
330
2
100
AcDbEntity
  8
0
 48
0.5
100
AcDbLine
 10
358.6925048476025
 20
452.4978983037079
 30
0.0
 11
366.709957918599
 21
452.5678655566771
 31
0.0
  0
ARC
  5
D4F
330
2
100
AcDbEntity
  8
0
100
AcDbCircle
 10
358.7099579185994
 20
450.4979744575796
 30
0.0
 40
2.0
100
AcDbArc
 50
90.49999999999155
 51
180.0
  0
ARC
  5
D50
330
2
100
AcDbEntity
  8
0
 48
0.5
100
AcDbCircle
 10
343.9099579185997
 20
427.2678655566772
 30
0.0
 40
0.3
100
AcDbArc
 50
0.0000000000065138
 51
90.0
  0
ARC
  5
D51
330
2
100
AcDbEntity
  8
0
100
AcDbCircle
 10
344.5099579185996
 20
427.1678655566772
 30
0.0
 40
0.3
100
AcDbArc
 50
180.0000000000065
 51
270.0
  0
LINE
  5
D52
330
2
100
AcDbEntity
  8
0
100
AcDbLine
 10
349.7099579185994
 20
429.5678655566776
 30
0.0
 11
349.7099579185999
 21
427.5678655566776
 31
0.0
  0
LINE
  5
D53
330
2
100
AcDbEntity
  8
0
 48
0.5
100
AcDbLine
 10
346.4099579185997
 20
427.5678655566776
 30
0.0
 11
349.7099579185999
 21
427.5678655566776
 31
0.0
  0
LINE
  5
D54
330
2
100
AcDbEntity
  8
0
 48
0.5
100
AcDbLine
 10
344.5099579185996
 20
426.8678655566773
 30
0.0
 11
345.9099579185997
 21
426.8678655566773
 31
0.0
  0
LINE
  5
D55
330
2
100
AcDbEntity
  8
0
 48
0.5
100
AcDbLine
 10
346.2099579185994
 20
427.3678655566773
 30
0.0
 11
346.4099579185997
 21
427.5678655566776
 31
0.0
  0
LINE
  5
D56
330
2
100
AcDbEntity
  8
0
100
AcDbLine
 10
346.2099579185994
 20
427.3678655566773
 30
0.0
 11
346.2099579185998
 21
342.767865556677
 31
0.0
  0
ARC
  5
D57
330
2
100
AcDbEntity
  8
0
100
AcDbCircle
 10
345.9099579185997
 20
427.1678655566775
 30
0.0
 40
0.3
100
AcDbArc
 50
270.0
 51
0.0000000000065138
  0
ARC
  5
D58
330
2
100
AcDbEntity
  8
HIDS
  6
SEKKEI_H
100
AcDbCircle
 10
352.2099579185944
 20
440.2394384319301
 30
0.0
 40
2.0
100
AcDbArc
 50
135.0000000000074
 51
180.0000000000065
  0
ARC
  5
D59
330
2
100
AcDbEntity
  8
HIDS
  6
SEKKEI_H
100
AcDbCircle
 10
354.709957918599
 20
448.3962926814235
 30
0.0
 40
2.0
100
AcDbArc
 50
315.0000000000074
 51
0.0
  0
LINE
  5
D5A
330
2
100
AcDbEntity
  8
HIDS
  6
SEKKEI_H
100
AcDbLine
 10
356.1241714809723
 20
446.9820791190504
 30
0.0
 11
350.7957443562233
 21
441.6536519943007
 31
0.0
  0
LINE
  5
D5B
330
2
100
AcDbEntity
  8
0
 48
0.5
100
AcDbLine
 10
350.2099579185994
 20
430.0678655566776
 30
0.0
 11
349.7099579185994
 21
429.5678655566776
 31
0.0
  0
LINE
  5
D5C
330
2
100
AcDbEntity
  8
0
100
AcDbLine
 10
350.2099579185994
 20
436.0678655566773
 30
0.0
 11
350.2099579185999
 21
430.0678655566779
 31
0.0
  0
LINE
  5
D5D
330
2
100
AcDbEntity
  8
0
100
AcDbLine
 10
342.7099579185999
 20
427.5678655566771
 30
0.0
 11
341.7099579185999
 21
426.9905152874872
 31
0.0
  0
LINE
  5
D5E
330
2
100
AcDbEntity
  8
0
 48
0.5
100
AcDbLine
 10
342.7099579185994
 20
427.5678655566771
 30
0.0
 11
343.9099579185997
 21
427.5678655566771
 31
0.0
  0
LINE
  5
D5F
330
2
100
AcDbEntity
  8
0
100
AcDbLine
 10
344.2099579185999
 20
427.2678655566772
 30
0.0
 11
344.2099579185999
 21
342.8678655566772
 31
0.0
  0
LINE
  5
D60
330
2
100
AcDbEntity
  8
0
100
AcDbLine
 10
341.7099579186039
 20
385.0678655566771
 30
0.0
 11
341.7099579186044
 21
343.1452158258647
 31
0.0
  0
LINE
  5
D61
330
2
100
AcDbEntity
  8
0
 48
0.5
100
AcDbLine
 10
358.692504847603
 20
317.6378328096466
 30
0.0
 11
366.7099579185994
 21
317.5678655566774
 31
0.0
  0
LINE
  5
D62
330
2
100
AcDbEntity
  8
0
100
AcDbLine
 10
356.7099579185999
 20
319.637756655775
 30
0.0
 11
356.7099579185994
 21
450.4979744575796
 31
0.0
  0
ARC
  5
D63
330
2
100
AcDbEntity
  8
0
100
AcDbCircle
 10
358.7099579185998
 20
319.637756655775
 30
0.0
 40
2.0
100
AcDbArc
 50
180.0
 51
269.5000000000084
  0
ARC
  5
D64
330
2
100
AcDbEntity
  8
0
 48
0.5
100
AcDbCircle
 10
343.9099579186001
 20
342.8678655566772
 30
0.0
 40
0.3
100
AcDbArc
 50
270.0
 51
359.9999999999934
  0
ARC
  5
D65
330
2
100
AcDbEntity
  8
0
100
AcDbCircle
 10
344.5099579186
 20
342.9678655566771
 30
0.0
 40
0.3
100
AcDbArc
 50
90.0
 51
179.9999999999934
  0
LINE
  5
D66
330
2
100
AcDbEntity
  8
0
100
AcDbLine
 10
349.7099579185999
 20
340.5678655566767
 30
0.0
 11
349.7099579185999
 21
342.5678655566767
 31
0.0
  0
LINE
  5
D67
330
2
100
AcDbEntity
  8
0
 48
0.5
100
AcDbLine
 10
346.4099579186001
 20
342.5678655566767
 30
0.0
 11
349.7099579185999
 21
342.5678655566767
 31
0.0
  0
LINE
  5
D68
330
2
100
AcDbEntity
  8
0
 48
0.5
100
AcDbLine
 10
344.5099579186
 20
343.267865556677
 30
0.0
 11
345.9099579186001
 21
343.267865556677
 31
0.0
  0
LINE
  5
D69
330
2
100
AcDbEntity
  8
0
 48
0.5
100
AcDbLine
 10
346.2099579185998
 20
342.767865556677
 30
0.0
 11
346.4099579186001
 21
342.5678655566767
 31
0.0
  0
ARC
  5
D6A
330
2
100
AcDbEntity
  8
0
100
AcDbCircle
 10
345.9099579186001
 20
342.9678655566768
 30
0.0
 40
0.3
100
AcDbArc
 50
359.9999999999934
 51
90.0
  0
ARC
  5
D6B
330
2
100
AcDbEntity
  8
HIDS
  6
SEKKEI_H
100
AcDbCircle
 10
352.2099579185949
 20
329.8962926814243
 30
0.0
 40
2.0
100
AcDbArc
 50
179.9999999999934
 51
224.9999999999926
  0
ARC
  5
D6C
330
2
100
AcDbEntity
  8
HIDS
  6
SEKKEI_H
100
AcDbCircle
 10
354.7099579185994
 20
321.7394384319309
 30
0.0
 40
2.0
100
AcDbArc
 50
0.0
 51
44.99999999999262
  0
LINE
  5
D6D
330
2
100
AcDbEntity
  8
HIDS
  6
SEKKEI_H
100
AcDbLine
 10
356.1241714809728
 20
323.1536519943041
 30
0.0
 11
350.7957443562238
 21
328.4820791190536
 31
0.0
  0
LINE
  5
D6E
330
2
100
AcDbEntity
  8
0
 48
0.5
100
AcDbLine
 10
350.2099579185999
 20
340.0678655566768
 30
0.0
 11
349.7099579185999
 21
340.5678655566767
 31
0.0
  0
LINE
  5
D6F
330
2
100
AcDbEntity
  8
0
100
AcDbLine
 10
350.2099579185999
 20
334.0678655566772
 30
0.0
 11
350.2099579186003
 21
340.0678655566765
 31
0.0
  0
LINE
  5
D70
330
2
100
AcDbEntity
  8
0
100
AcDbLine
 10
342.7099579185999
 20
342.5678655566772
 30
0.0
 11
341.7099579185999
 21
343.1452158258672
 31
0.0
  0
LINE
  5
D71
330
2
100
AcDbEntity
  8
0
 48
0.5
100
AcDbLine
 10
342.7099579185999
 20
342.5678655566772
 30
0.0
 11
343.9099579186001
 21
342.5678655566772
 31
0.0
  0
LINE
  5
D72
330
2
100
AcDbEntity
  8
0
100
AcDbLine
 10
342.7099579185994
 20
427.5678655566771
 30
0.0
 11
342.7099579185999
 21
342.5678655566772
 31
0.0
  0
LINE
  5
D73
330
2
100
AcDbEntity
  8
0
100
AcDbLine
 10
346.4099579186001
 20
342.5678655566767
 30
0.0
 11
346.4099579185997
 21
427.5678655566776
 31
0.0
  0
LINE
  5
D74
330
2
100
AcDbEntity
  8
0
100
AcDbLine
 10
349.7099579185999
 20
427.5678655566776
 30
0.0
 11
349.7099579185999
 21
342.5678655566767
 31
0.0
  0
LINE
  5
D75
330
2
100
AcDbEntity
  8
0
100
AcDbLine
 10
350.2099579186003
 20
340.0678655566765
 30
0.0
 11
350.2099579185999
 21
430.0678655566779
 31
0.0
  0
LINE
  5
D76
330
2
100
AcDbEntity
  8
0
100
AcDbLine
 10
366.709957918599
 20
452.5678655566771
 30
0.0
 11
366.7099579185999
 21
317.5678655566774
 31
0.0
  0
LINE
  5
D77
330
2
100
AcDbEntity
  8
0
100
AcDbLine
 10
366.7099579185994
 20
432.5678655566767
 30
0.0
 11
358.2099579185994
 21
432.5678655566767
 31
0.0
  0
LINE
  5
D78
330
2
100
AcDbEntity
  8
0
100
AcDbLine
 10
366.7099579185994
 20
409.6286558473904
 30
0.0
 11
358.2099579185994
 21
409.6286558473904
 31
0.0
  0
LINE
  5
D79
330
2
100
AcDbEntity
  8
0
100
AcDbLine
 10
366.7099579185994
 20
442.5678655571092
 30
0.0
 11
358.2099579185994
 21
442.5678655571092
 31
0.0
  0
LINE
  5
D7A
330
2
100
AcDbEntity
  8
0
100
AcDbLine
 10
366.7099579185994
 20
337.5678655566779
 30
0.0
 11
358.2099579185994
 21
337.5678655566778
 31
0.0
  0
LINE
  5
D7B
330
2
100
AcDbEntity
  8
0
100
AcDbLine
 10
366.7099579185994
 20
360.507075265964
 30
0.0
 11
358.2099579185994
 21
360.507075265964
 31
0.0
  0
LINE
  5
D7C
330
2
100
AcDbEntity
  8
0
100
AcDbLine
 10
366.7099579185999
 20
327.5678655562452
 30
0.0
 11
358.2099579185999
 21
327.5678655562452
 31
0.0
  0
LINE
  5
D81
330
2
100
AcDbEntity
  8
HIDS
  6
SEKKEI_H
100
AcDbLine
 10
351.6266274786301
 20
324.9852266436766
 30
0.0
 11
354.314999935407
 21
324.9628235398702
 31
0.0
  0
ARC
  5
D82
330
2
100
AcDbEntity
  8
0
100
AcDbCircle
 10
351.7099579185953
 20
334.9848794395394
 30
0.0
 40
10.0
100
AcDbArc
 50
180.0
 51
240.00000000003
  0
LINE
  5
D83
330
2
100
AcDbEntity
  8
0
100
AcDbLine
 10
341.7099579185958
 20
334.9848794395394
 30
0.0
 11
341.7099579185953
 21
435.150851673815
 31
0.0
  0
LINE
  5
D84
330
2
100
AcDbEntity
  8
HIDS
  6
SEKKEI_H
100
AcDbLine
 10
351.6266274786296
 20
445.1505044696761
 30
0.0
 11
354.3149999354048
 21
445.1729075734826
 31
0.0
  0
ARC
  5
D85
330
2
100
AcDbEntity
  8
0
100
AcDbCircle
 10
351.7099579185953
 20
435.150851673815
 30
0.0
 40
10.0
100
AcDbArc
 50
119.9999999999698
 51
180.0
  0
LINE
  5
D86
330
2
100
AcDbEntity
  8
0
100
AcDbLine
 10
220.7947874469757
 20
329.0678655571093
 30
0.0
 11
159.817082023562
 21
329.0678655571093
 31
0.0
  0
ARC
  5
D87
330
2
100
AcDbEntity
  8
0
100
AcDbCircle
 10
220.7947874469757
 20
337.0678655571092
 30
0.0
 40
8.0
100
AcDbArc
 50
270.0
 51
315.0000000000074
  0
LINE
  5
D88
330
2
100
AcDbEntity
  8
0
100
AcDbLine
 10
220.7947874469757
 20
441.0678655571093
 30
0.0
 11
159.817082023562
 21
441.0678655571093
 31
0.0
  0
ARC
  5
D89
330
2
100
AcDbEntity
  8
0
100
AcDbCircle
 10
159.817082023562
 20
433.0678655571093
 30
0.0
 40
8.0
100
AcDbArc
 50
90.0
 51
135.0000000000074
  0
LINE
  5
D8A
330
2
100
AcDbEntity
  8
0
100
AcDbLine
 10
220.7947874469757
 20
447.5678655571093
 30
0.0
 11
159.817082023562
 21
447.5678655571093
 31
0.0
  0
ARC
  5
D8B
330
2
100
AcDbEntity
  8
0
100
AcDbCircle
 10
159.817082023562
 20
433.0678655571093
 30
0.0
 40
14.5
100
AcDbArc
 50
90.0
 51
135.0000000000074
  0
LINE
  5
D8C
330
2
100
AcDbEntity
  8
0
100
AcDbLine
 10
220.7947874469757
 20
322.5678655571092
 30
0.0
 11
159.817082023562
 21
322.5678655571093
 31
0.0
  0
ARC
  5
D8D
330
2
100
AcDbEntity
  8
0
100
AcDbCircle
 10
220.7947874469757
 20
337.0678655571092
 30
0.0
 40
14.5
100
AcDbArc
 50
270.0
 51
315.0000000000074
  0
LINE
  5
D8E
330
2
100
AcDbEntity
  8
0
100
AcDbLine
 10
123.415934735269
 20
327.5678655571335
 30
0.0
 11
123.415934735269
 21
442.5678655566772
 31
0.0
  0
ARC
  5
D8F
330
2
100
AcDbEntity
  8
0
100
AcDbCircle
 10
133.415934735269
 20
442.5678655566772
 30
0.0
 40
10.0
100
AcDbArc
 50
90.0
 51
180.0
  0
ARC
  5
D90
330
2
100
AcDbEntity
  8
0
100
AcDbCircle
 10
133.415934735269
 20
327.5678655571335
 30
0.0
 40
10.0
100
AcDbArc
 50
180.0
 51
269.9999999972121
  0
CIRCLE
  5
D91
330
2
100
AcDbEntity
  8
0
100
AcDbCircle
 10
190.3059347352689
 20
385.0678655571093
 30
0.0
 40
36.00000000000003
  0
CIRCLE
  5
D92
330
2
100
AcDbEntity
  8
0
100
AcDbCircle
 10
190.3059347352689
 20
385.0678655571093
 30
0.0
 40
42.50000000000002
  0
CIRCLE
  5
D93
330
2
100
AcDbEntity
  8
0
100
AcDbCircle
 10
190.3059347352689
 20
385.0678655571093
 30
0.0
 40
44.50000000000048
  0
CIRCLE
  5
D94
330
2
100
AcDbEntity
  8
0
100
AcDbCircle
 10
190.3059347352689
 20
385.0678655571093
 30
0.0
 40
41.92264973081003
  0
LINE
  5
D95
330
2
100
AcDbEntity
  8
0
100
AcDbLine
 10
252.8059347352693
 20
415.556718268816
 30
0.0
 11
252.8059347352693
 21
354.5790128454026
 31
0.0
  0
ARC
  5
D96
330
2
100
AcDbEntity
  8
0
100
AcDbCircle
 10
238.3059347352693
 20
415.556718268816
 30
0.0
 40
14.5
100
AcDbArc
 50
0.0
 51
44.99999999999262
  0
LINE
  5
D97
330
2
100
AcDbEntity
  8
0
100
AcDbLine
 10
246.3059347352684
 20
415.5567182688169
 30
0.0
 11
246.3059347352684
 21
354.5790128454017
 31
0.0
  0
ARC
  5
D98
330
2
100
AcDbEntity
  8
0
100
AcDbCircle
 10
238.3059347352684
 20
415.5567182688169
 30
0.0
 40
8.0
100
AcDbArc
 50
0.0
 51
44.99999999999262
  0
LINE
  5
D99
330
2
100
AcDbEntity
  8
0
100
AcDbLine
 10
134.3059347352698
 20
415.5567182688168
 30
0.0
 11
134.3059347352698
 21
354.5790128454019
 31
0.0
  0
ARC
  5
D9A
330
2
100
AcDbEntity
  8
0
100
AcDbCircle
 10
142.3059347352698
 20
354.5790128454019
 30
0.0
 40
8.0
100
AcDbArc
 50
180.0
 51
224.9999999999926
  0
LINE
  5
D9B
330
2
100
AcDbEntity
  8
0
100
AcDbLine
 10
127.8059347352689
 20
415.556718268816
 30
0.0
 11
127.8059347352689
 21
354.5790128454027
 31
0.0
  0
LINE
  5
D9C
330
2
100
AcDbEntity
  8
0
100
AcDbLine
 10
132.052886408064
 20
425.8097665960208
 30
0.0
 11
149.5640336963572
 21
443.3209138843142
 31
0.0
  0
ARC
  5
D9D
330
2
100
AcDbEntity
  8
0
100
AcDbCircle
 10
142.3059347352689
 20
415.556718268816
 30
0.0
 40
14.5
100
AcDbArc
 50
135.0000000000074
 51
180.0
  0
LINE
  5
D9E
330
2
100
AcDbEntity
  8
0
100
AcDbLine
 10
231.0478357741806
 20
326.8148172299043
 30
0.0
 11
248.5589830624742
 21
344.3259645181977
 31
0.0
  0
ARC
  5
D9F
330
2
100
AcDbEntity
  8
0
100
AcDbCircle
 10
238.3059347352693
 20
354.5790128454026
 30
0.0
 40
14.5
100
AcDbArc
 50
315.0000000000074
 51
0.0
  0
LINE
  5
DA0
330
2
100
AcDbEntity
  8
0
100
AcDbLine
 10
226.4516416964681
 20
331.4110113076169
 30
0.0
 11
243.9627889847604
 21
348.9221585959094
 31
0.0
  0
ARC
  5
DA1
330
2
100
AcDbEntity
  8
0
100
AcDbCircle
 10
238.3059347352684
 20
354.5790128454017
 30
0.0
 40
8.0
100
AcDbArc
 50
315.0000000000074
 51
0.0
  0
LINE
  5
DA2
330
2
100
AcDbEntity
  8
0
100
AcDbLine
 10
136.6490804857773
 20
421.2135725183091
 30
0.0
 11
154.16022777407
 21
438.7247198066017
 31
0.0
  0
ARC
  5
DA3
330
2
100
AcDbEntity
  8
0
100
AcDbCircle
 10
142.3059347352698
 20
415.5567182688168
 30
0.0
 40
8.0
100
AcDbArc
 50
135.0000000000074
 51
180.0
  0
LINE
  5
DA4
330
2
100
AcDbEntity
  8
0
100
AcDbLine
 10
149.5640336963572
 20
326.8148172299043
 30
0.0
 11
132.052886408064
 21
344.3259645181977
 31
0.0
  0
ARC
  5
DA5
330
2
100
AcDbEntity
  8
0
100
AcDbCircle
 10
142.3059347352689
 20
354.5790128454027
 30
0.0
 40
14.5
100
AcDbArc
 50
180.0
 51
224.9999999999926
  0
ARC
  5
DA6
330
2
100
AcDbEntity
  8
0
100
AcDbCircle
 10
159.817082023562
 20
337.0678655571093
 30
0.0
 40
14.5
100
AcDbArc
 50
224.9999999999926
 51
270.0
  0
LINE
  5
DA7
330
2
100
AcDbEntity
  8
0
100
AcDbLine
 10
248.5589830624742
 20
425.8097665960209
 30
0.0
 11
231.0478357741806
 21
443.3209138843142
 31
0.0
  0
ARC
  5
DA8
330
2
100
AcDbEntity
  8
0
100
AcDbCircle
 10
220.7947874469757
 20
433.0678655571093
 30
0.0
 40
14.5
100
AcDbArc
 50
44.99999999999262
 51
90.0
  0
LINE
  5
DA9
330
2
100
AcDbEntity
  8
0
100
AcDbLine
 10
154.16022777407
 20
331.4110113076169
 30
0.0
 11
136.6490804857773
 21
348.9221585959096
 31
0.0
  0
ARC
  5
DAA
330
2
100
AcDbEntity
  8
0
100
AcDbCircle
 10
159.817082023562
 20
337.0678655571093
 30
0.0
 40
8.0
100
AcDbArc
 50
224.9999999999926
 51
270.0
  0
LINE
  5
DAB
330
2
100
AcDbEntity
  8
0
100
AcDbLine
 10
243.9627889847609
 20
421.2135725183093
 30
0.0
 11
226.4516416964681
 21
438.7247198066017
 31
0.0
  0
ARC
  5
DAC
330
2
100
AcDbEntity
  8
0
100
AcDbCircle
 10
220.7947874469757
 20
433.0678655571093
 30
0.0
 40
8.0
100
AcDbArc
 50
44.99999999999262
 51
90.0
  0
LINE
  5
DAD
330
2
100
AcDbEntity
  8
CENTER
100
AcDbLine
 10
257.8059347357013
 20
327.5678655571092
 30
0.0
 11
237.8059347348373
 21
327.5678655571092
 31
0.0
  0
LINE
  5
DAE
330
2
100
AcDbEntity
  8
CENTER
100
AcDbLine
 10
247.8059347352689
 20
337.5678655575412
 30
0.0
 11
247.8059347352689
 21
317.5678655566772
 31
0.0
  0
LINE
  5
DAF
330
2
100
AcDbEntity
  8
CENTER
100
AcDbLine
 10
257.8059347348369
 20
442.5678655571094
 30
0.0
 11
237.8059347357004
 21
442.5678655571094
 31
0.0
  0
LINE
  5
DB0
330
2
100
AcDbEntity
  8
CENTER
100
AcDbLine
 10
247.8059347352689
 20
432.567865557541
 30
0.0
 11
247.8059347352689
 21
452.5678655566773
 31
0.0
  0
LINE
  5
DB1
330
2
100
AcDbEntity
  8
CENTER
100
AcDbLine
 10
122.8245570748697
 20
327.5678655571092
 30
0.0
 11
142.7873123956681
 21
327.5678655571092
 31
0.0
  0
LINE
  5
DB2
330
2
100
AcDbEntity
  8
CENTER
100
AcDbLine
 10
132.8059347352693
 20
337.5492432175084
 30
0.0
 11
132.8059347352693
 21
317.5864878967102
 31
0.0
  0
LINE
  5
DB3
330
2
100
AcDbEntity
  8
CENTER
100
AcDbLine
 10
122.8011369667158
 20
442.5678655571094
 30
0.0
 11
142.8107325038229
 21
442.5678655571094
 31
0.0
  0
LINE
  5
DB4
330
2
100
AcDbEntity
  8
CENTER
100
AcDbLine
 10
132.8059347352693
 20
432.5630677885557
 30
0.0
 11
132.8059347352693
 21
452.5726633256633
 31
0.0
  0
CIRCLE
  5
DB5
330
2
100
AcDbEntity
  8
HOJO
100
AcDbCircle
 10
250.3059347352689
 20
339.0678655571092
 30
0.0
 40
2.5
  0
CIRCLE
  5
DB6
330
2
100
AcDbEntity
  8
0
100
AcDbCircle
 10
250.3059347352689
 20
339.0678655571092
 30
0.0
 40
2.0
  0
LINE
  5
DB7
330
2
100
AcDbEntity
  8
CENTER
100
AcDbLine
 10
250.3059347352689
 20
331.7018358111993
 30
0.0
 11
250.3059347352689
 21
346.4338953030189
 31
0.0
  0
LINE
  5
DB8
330
2
100
AcDbEntity
  8
CENTER
100
AcDbLine
 10
257.6719644811789
 20
339.0678655571091
 30
0.0
 11
242.9399049893593
 21
339.0678655571091
 31
0.0
  0
CIRCLE
  5
DB9
330
2
100
AcDbEntity
  8
HOJO
100
AcDbCircle
 10
130.3059347352689
 20
431.0678655571093
 30
0.0
 40
2.5
  0
CIRCLE
  5
DBA
330
2
100
AcDbEntity
  8
0
100
AcDbCircle
 10
130.3059347352689
 20
431.0678655571093
 30
0.0
 40
2.0
  0
LINE
  5
DBB
330
2
100
AcDbEntity
  8
CENTER
100
AcDbLine
 10
130.3059347352689
 20
437.9578655571093
 30
0.0
 11
130.3059347352689
 21
424.1778655571093
 31
0.0
  0
LINE
  5
DBC
330
2
100
AcDbEntity
  8
CENTER
100
AcDbLine
 10
123.415934735269
 20
431.0678655571094
 30
0.0
 11
137.1959347352692
 21
431.0678655571094
 31
0.0
  0
LINE
  5
DBD
330
2
100
AcDbEntity
  8
CENTER
100
AcDbLine
 10
119.6657534711714
 20
314.4276842930119
 30
0.0
 11
260.9461159993663
 21
455.708046821207
 31
0.0
  0
LINE
  5
DBE
330
2
100
AcDbEntity
  8
CENTER
100
AcDbLine
 10
260.9461159997988
 20
314.4276842925796
 30
0.0
 11
119.6657534716039
 21
455.7080468207749
 31
0.0
  0
LINE
  5
DBF
330
2
100
AcDbEntity
  8
0
100
AcDbLine
 10
154.2681722542686
 20
323.6716123356957
 30
0.0
 11
156.7556145646415
 21
329.6768292970191
 31
0.0
  0
LINE
  5
DC0
330
2
100
AcDbEntity
  8
0
100
AcDbLine
 10
128.9096815138552
 20
349.0301030761089
 30
0.0
 11
134.9148984751793
 21
351.5175453864813
 31
0.0
  0
LINE
  5
DC1
330
2
100
AcDbEntity
  8
0
100
AcDbLine
 10
251.7021879558185
 20
349.0301030761089
 30
0.0
 11
245.6969709944949
 21
351.5175453864819
 31
0.0
  0
LINE
  5
DC2
330
2
100
AcDbEntity
  8
0
100
AcDbLine
 10
226.3436972154051
 20
323.6716123356957
 30
0.0
 11
223.8562549050327
 21
329.6768292970198
 31
0.0
  0
LINE
  5
DC3
330
2
100
AcDbEntity
  8
0
100
AcDbLine
 10
226.3436972154051
 20
446.4641187776589
 30
0.0
 11
223.8562549050322
 21
440.4589018163355
 31
0.0
  0
LINE
  5
DC4
330
2
100
AcDbEntity
  8
0
100
AcDbLine
 10
251.7021879558185
 20
421.1056280372456
 30
0.0
 11
245.6969709944944
 21
418.6181857268733
 31
0.0
  0
LINE
  5
DC5
330
2
100
AcDbEntity
  8
0
100
AcDbLine
 10
128.9096815138552
 20
421.1056280372457
 30
0.0
 11
134.9148984751784
 21
418.6181857268726
 31
0.0
  0
LINE
  5
DC6
330
2
100
AcDbEntity
  8
0
100
AcDbLine
 10
154.2681722542686
 20
446.464118777659
 30
0.0
 11
156.755614564641
 21
440.4589018163348
 31
0.0
  0
LINE
  5
DC7
330
2
100
AcDbEntity
  8
CENTER
 48
0.2
100
AcDbLine
 10
190.3059347352689
 20
332.099457612758
 30
0.0
 11
190.3059347352689
 21
338.0362735005963
 31
0.0
  0
CIRCLE
  5
DC8
330
2
100
AcDbEntity
  8
0
100
AcDbCircle
 10
190.3059347352689
 20
385.0678655571095
 30
0.0
 40
36.57735026918982
  0
CIRCLE
  5
DC9
330
2
100
AcDbEntity
  8
0
100
AcDbCircle
 10
190.3059347348369
 20
385.0678655566773
 30
0.0
 40
44.99999999956847
  0
ARC
  5
DCA
330
2
100
AcDbEntity
  8
0
100
AcDbCircle
 10
190.3059347348369
 20
657.5678655566774
 30
0.0
 40
340.0
100
AcDbArc
 50
265.8574811972686
 51
274.1425188027313
  0
ARC
  5
DCB
330
2
100
AcDbEntity
  8
0
100
AcDbCircle
 10
247.8059347348359
 20
327.5678655566772
 30
0.0
 40
10.0
100
AcDbArc
 50
270.0
 51
0.0
  0
LINE
  5
DCC
330
2
100
AcDbEntity
  8
0
100
AcDbLine
 10
247.8059347348359
 20
317.5678655566772
 30
0.0
 11
237.805934734836
 21
317.5678655566772
 31
0.0
  0
ARC
  5
DCD
330
2
100
AcDbEntity
  8
0
100
AcDbCircle
 10
222.0904868757595
 20
218.7173873238274
 30
0.0
 40
100.0
100
AcDbArc
 50
81.63298947741269
 51
94.14251880273134
  0
LINE
  5
DCE
330
2
100
AcDbEntity
  8
0
100
AcDbLine
 10
257.8059347348369
 20
327.5678655566774
 30
0.0
 11
257.8059347348369
 21
337.5678655566774
 31
0.0
  0
ARC
  5
DCF
330
2
100
AcDbEntity
  8
0
100
AcDbCircle
 10
249.8059347348369
 20
337.5678655566774
 30
0.0
 40
8.0
100
AcDbArc
 50
0.0
 51
8.367010522602221
  0
ARC
  5
DD0
330
2
100
AcDbEntity
  8
0
100
AcDbCircle
 10
356.6564129676869
 20
353.2833134157539
 30
0.0
 40
100.0
100
AcDbArc
 50
175.8574811972766
 51
188.3670105226022
  0
ARC
  5
DD1
330
2
100
AcDbEntity
  8
0
100
AcDbCircle
 10
142.8059347348369
 20
325.5678655566772
 30
0.0
 40
8.0
100
AcDbArc
 50
270.0
 51
278.3670105225872
  0
ARC
  5
DD2
330
2
100
AcDbEntity
  8
0
100
AcDbCircle
 10
158.5213825939133
 20
218.7173873238274
 30
0.0
 40
100.0
100
AcDbArc
 50
85.85748119726863
 51
98.3670105225873
  0
LINE
  5
DD3
330
2
100
AcDbEntity
  8
0
100
AcDbLine
 10
133.4159347347829
 20
317.5678655571335
 30
0.0
 11
142.8059347348369
 21
317.5678655566772
 31
0.0
  0
ARC
  5
DD4
330
2
100
AcDbEntity
  8
0
100
AcDbCircle
 10
247.8059347348359
 20
442.5678655566772
 30
0.0
 40
10.0
100
AcDbArc
 50
0.0
 51
90.0
  0
LINE
  5
DD5
330
2
100
AcDbEntity
  8
0
100
AcDbLine
 10
247.8059347348359
 20
452.5678655566773
 30
0.0
 11
237.805934734836
 21
452.5678655566773
 31
0.0
  0
ARC
  5
DD6
330
2
100
AcDbEntity
  8
0
100
AcDbCircle
 10
237.805934734836
 20
444.5678655566773
 30
0.0
 40
8.0
100
AcDbArc
 50
90.0
 51
98.3670105225873
  0
ARC
  5
DD7
330
2
100
AcDbEntity
  8
0
100
AcDbCircle
 10
222.0904868757595
 20
551.4183437895269
 30
0.0
 40
100.0
100
AcDbArc
 50
265.8574811972686
 51
278.3670105225872
  0
LINE
  5
DD8
330
2
100
AcDbEntity
  8
0
100
AcDbLine
 10
257.8059347348369
 20
442.5678655566768
 30
0.0
 11
257.8059347348369
 21
432.5678655566768
 31
0.0
  0
ARC
  5
DD9
330
2
100
AcDbEntity
  8
0
100
AcDbCircle
 10
249.8059347348369
 20
432.5678655566768
 30
0.0
 40
8.0
100
AcDbArc
 50
351.6329894774042
 51
0.0
  0
ARC
  5
DDA
330
2
100
AcDbEntity
  8
0
100
AcDbCircle
 10
356.6564129676869
 20
416.8524176976004
 30
0.0
 40
100.0
100
AcDbArc
 50
171.6329894773977
 51
184.1425188027296
  0
ARC
  5
DDB
330
2
100
AcDbEntity
  8
0
100
AcDbCircle
 10
142.8059347348369
 20
444.5678655566773
 30
0.0
 40
8.0
100
AcDbArc
 50
81.63298947741269
 51
90.0
  0
ARC
  5
DDC
330
2
100
AcDbEntity
  8
0
100
AcDbCircle
 10
158.5213825939133
 20
551.4183437895269
 30
0.0
 40
100.0
100
AcDbArc
 50
261.6329894774127
 51
274.1425188027313
  0
LINE
  5
DDD
330
2
100
AcDbEntity
  8
0
100
AcDbLine
 10
133.415934735269
 20
452.5678655566773
 30
0.0
 11
142.8059347348369
 21
452.5678655566773
 31
0.0
  0
ARC
  5
DDE
330
2
100
AcDbEntity
  8
0
100
AcDbCircle
 10
190.3059347348369
 20
112.5678655566773
 30
0.0
 40
340.0
100
AcDbArc
 50
85.85748119726863
 51
94.14251880273134
  0
ARC
  5
DDF
330
2
100
AcDbEntity
  8
0
100
AcDbCircle
 10
-82.19406526516308
 20
385.0678655566773
 30
0.0
 40
340.0
100
AcDbArc
 50
355.8574811972766
 51
4.142518802716637
  0
ARC
  5
DE0
330
2
100
AcDbEntity
  8
0
100
AcDbCircle
 10
237.8059347348369
 20
325.5678655566772
 30
0.0
 40
8.0
100
AcDbArc
 50
261.63298947736
 51
270.0
  0
LINE
  5
DE1
330
2
100
AcDbEntity
  8
0
100
AcDbLine
 10
133.1157385422736
 20
317.5678655566773
 30
0.0
 11
133.4159347347829
 21
317.5678655571335
 31
0.0
  0
LINE
  5
DE2
330
2
100
AcDbEntity
  8
0
100
AcDbLine
 10
133.1157385422736
 20
452.5678655566775
 30
0.0
 11
133.415934735269
 21
452.5678655566773
 31
0.0
  0
LINE
  5
DE3
330
2
100
AcDbEntity
  8
0
100
AcDbLine
 10
846.4147263073476
 20
830.6072265206152
 30
0.0
 11
846.4846935603166
 21
822.5897734496186
 31
0.0
  0
ARC
  5
DE4
330
2
100
AcDbEntity
  8
0
100
AcDbCircle
 10
844.4148024612193
 20
830.5897734496184
 30
0.0
 40
2.0
100
AcDbArc
 50
0.499999999998063
 51
90.0
  0
LINE
  5
DE5
330
2
100
AcDbEntity
  8
0
100
AcDbLine
 10
779.5946935603167
 20
847.5897734496136
 30
0.0
 11
821.517343291129
 21
847.5897734496134
 31
0.0
  0
ARC
  5
DE6
330
2
100
AcDbEntity
  8
0
 48
0.5
100
AcDbCircle
 10
821.7946935603166
 20
845.3897734496178
 30
0.0
 40
0.3
100
AcDbArc
 50
270.0
 51
0.0000000000065138
  0
ARC
  5
DE7
330
2
100
AcDbEntity
  8
0
100
AcDbCircle
 10
821.6946935603166
 20
844.789773449618
 30
0.0
 40
0.3
100
AcDbArc
 50
90.0
 51
180.0000000000065
  0
LINE
  5
DE8
330
2
100
AcDbEntity
  8
0
100
AcDbLine
 10
824.0946935603167
 20
839.5897734496179
 30
0.0
 11
822.0946935603167
 21
839.5897734496179
 31
0.0
  0
LINE
  5
DE9
330
2
100
AcDbEntity
  8
0
 48
0.5
100
AcDbLine
 10
822.0946935603167
 20
842.8897734496178
 30
0.0
 11
822.0946935603167
 21
839.5897734496179
 31
0.0
  0
LINE
  5
DEA
330
2
100
AcDbEntity
  8
0
 48
0.5
100
AcDbLine
 10
821.394693560317
 20
844.789773449618
 30
0.0
 11
821.394693560317
 21
843.3897734496179
 31
0.0
  0
LINE
  5
DEB
330
2
100
AcDbEntity
  8
0
 48
0.5
100
AcDbLine
 10
821.8946935603169
 20
843.0897734496179
 30
0.0
 11
822.0946935603167
 21
842.8897734496178
 31
0.0
  0
LINE
  5
DEC
330
2
100
AcDbEntity
  8
0
100
AcDbLine
 10
821.8946935603169
 20
843.0897734496179
 30
0.0
 11
737.2946935603165
 21
843.0897734496172
 31
0.0
  0
ARC
  5
DED
330
2
100
AcDbEntity
  8
0
100
AcDbCircle
 10
821.6946935603171
 20
843.3897734496179
 30
0.0
 40
0.3
100
AcDbArc
 50
180.0
 51
270.0
  0
ARC
  5
DEE
330
2
100
AcDbEntity
  8
HIDS
  6
SEKKEI_H
100
AcDbCircle
 10
834.7662664355695
 20
837.0897734496233
 30
0.0
 40
2.0
100
AcDbArc
 50
44.99999999999243
 51
90.0
  0
ARC
  5
DEF
330
2
100
AcDbEntity
  8
HIDS
  6
SEKKEI_H
100
AcDbCircle
 10
842.9231206850628
 20
834.5897734496187
 30
0.0
 40
2.0
100
AcDbArc
 50
224.9999999999924
 51
270.0
  0
LINE
  5
DF0
330
2
100
AcDbEntity
  8
HIDS
  6
SEKKEI_H
100
AcDbLine
 10
841.5089071226899
 20
833.1755598872454
 30
0.0
 11
836.1804799979402
 21
838.5039870119943
 31
0.0
  0
LINE
  5
DF1
330
2
100
AcDbEntity
  8
0
 48
0.5
100
AcDbLine
 10
824.5946935603168
 20
839.0897734496181
 30
0.0
 11
824.0946935603167
 21
839.5897734496179
 31
0.0
  0
LINE
  5
DF2
330
2
100
AcDbEntity
  8
0
100
AcDbLine
 10
830.5946935603166
 20
839.0897734496183
 30
0.0
 11
824.5946935603171
 21
839.0897734496176
 31
0.0
  0
LINE
  5
DF3
330
2
100
AcDbEntity
  8
0
100
AcDbLine
 10
822.0946935603167
 20
846.5897734496179
 30
0.0
 11
821.5173432911267
 21
847.5897734496179
 31
0.0
  0
LINE
  5
DF4
330
2
100
AcDbEntity
  8
0
 48
0.5
100
AcDbLine
 10
822.0946935603167
 20
846.5897734496179
 30
0.0
 11
822.0946935603167
 21
845.3897734496178
 31
0.0
  0
LINE
  5
DF5
330
2
100
AcDbEntity
  8
0
100
AcDbLine
 10
821.7946935603166
 20
845.0897734496178
 30
0.0
 11
737.3946935603164
 21
845.0897734496173
 31
0.0
  0
LINE
  5
DF6
330
2
100
AcDbEntity
  8
0
100
AcDbLine
 10
779.5946935603167
 20
847.5897734496136
 30
0.0
 11
737.6720438295039
 21
847.5897734496127
 31
0.0
  0
LINE
  5
DF7
330
2
100
AcDbEntity
  8
0
 48
0.5
100
AcDbLine
 10
712.1646608132857
 20
830.6072265206141
 30
0.0
 11
712.0946935603167
 21
822.5897734496175
 31
0.0
  0
LINE
  5
DF8
330
2
100
AcDbEntity
  8
0
100
AcDbLine
 10
714.1645846594144
 20
832.5897734496175
 30
0.0
 11
844.4148024612193
 21
832.5897734496184
 31
0.0
  0
ARC
  5
DF9
330
2
100
AcDbEntity
  8
0
100
AcDbCircle
 10
714.1645846594144
 20
830.5897734496175
 30
0.0
 40
2.0
100
AcDbArc
 50
90.0
 51
179.4999999999954
  0
ARC
  5
DFA
330
2
100
AcDbEntity
  8
0
 48
0.5
100
AcDbCircle
 10
737.3946935603164
 20
845.3897734496171
 30
0.0
 40
0.3
100
AcDbArc
 50
179.9999999999934
 51
270.0
  0
ARC
  5
DFB
330
2
100
AcDbEntity
  8
0
100
AcDbCircle
 10
737.4946935603163
 20
844.7897734496173
 30
0.0
 40
0.3
100
AcDbArc
 50
359.9999999999934
 51
90.0
  0
LINE
  5
DFC
330
2
100
AcDbEntity
  8
0
100
AcDbLine
 10
735.0946935603162
 20
839.5897734496172
 30
0.0
 11
737.0946935603162
 21
839.5897734496172
 31
0.0
  0
LINE
  5
DFD
330
2
100
AcDbEntity
  8
0
 48
0.5
100
AcDbLine
 10
737.0946935603158
 20
842.8897734496171
 30
0.0
 11
737.0946935603162
 21
839.5897734496172
 31
0.0
  0
LINE
  5
DFE
330
2
100
AcDbEntity
  8
0
 48
0.5
100
AcDbLine
 10
737.7946935603165
 20
844.7897734496173
 30
0.0
 11
737.7946935603165
 21
843.3897734496172
 31
0.0
  0
LINE
  5
DFF
330
2
100
AcDbEntity
  8
0
 48
0.5
100
AcDbLine
 10
737.2946935603165
 20
843.0897734496172
 30
0.0
 11
737.0946935603158
 21
842.8897734496171
 31
0.0
  0
ARC
  5
E00
330
2
100
AcDbEntity
  8
0
100
AcDbCircle
 10
737.4946935603163
 20
843.3897734496172
 30
0.0
 40
0.3
100
AcDbArc
 50
270.0
 51
0.0
  0
ARC
  5
E01
330
2
100
AcDbEntity
  8
HIDS
  6
SEKKEI_H
100
AcDbCircle
 10
724.4231206850634
 20
837.0897734496224
 30
0.0
 40
2.0
100
AcDbArc
 50
90.0
 51
135.0000000000075
  0
ARC
  5
E02
330
2
100
AcDbEntity
  8
HIDS
  6
SEKKEI_H
100
AcDbCircle
 10
716.26626643557
 20
834.5897734496174
 30
0.0
 40
2.0
100
AcDbArc
 50
270.0
 51
315.0000000000075
  0
LINE
  5
E03
330
2
100
AcDbEntity
  8
HIDS
  6
SEKKEI_H
100
AcDbLine
 10
717.6804799979434
 20
833.1755598872444
 30
0.0
 11
723.0089071226927
 21
838.5039870119934
 31
0.0
  0
LINE
  5
E04
330
2
100
AcDbEntity
  8
0
 48
0.5
100
AcDbLine
 10
734.5946935603162
 20
839.0897734496174
 30
0.0
 11
735.0946935603162
 21
839.5897734496172
 31
0.0
  0
LINE
  5
E05
330
2
100
AcDbEntity
  8
0
100
AcDbLine
 10
728.5946935603167
 20
839.0897734496174
 30
0.0
 11
734.5946935603158
 21
839.0897734496171
 31
0.0
  0
LINE
  5
E06
330
2
100
AcDbEntity
  8
0
100
AcDbLine
 10
737.0946935603167
 20
846.5897734496172
 30
0.0
 11
737.6720438295067
 21
847.5897734496172
 31
0.0
  0
LINE
  5
E07
330
2
100
AcDbEntity
  8
0
 48
0.5
100
AcDbLine
 10
737.0946935603167
 20
846.5897734496172
 30
0.0
 11
737.0946935603167
 21
845.3897734496171
 31
0.0
  0
LINE
  5
E08
330
2
100
AcDbEntity
  8
0
100
AcDbLine
 10
822.0946935603167
 20
846.5897734496179
 30
0.0
 11
737.0946935603167
 21
846.5897734496172
 31
0.0
  0
LINE
  5
E09
330
2
100
AcDbEntity
  8
0
100
AcDbLine
 10
737.0946935603158
 20
842.8897734496171
 30
0.0
 11
822.0946935603167
 21
842.8897734496178
 31
0.0
  0
LINE
  5
E0A
330
2
100
AcDbEntity
  8
0
100
AcDbLine
 10
822.0946935603167
 20
839.5897734496179
 30
0.0
 11
737.0946935603162
 21
839.5897734496172
 31
0.0
  0
LINE
  5
E0B
330
2
100
AcDbEntity
  8
0
100
AcDbLine
 10
734.5946935603158
 20
839.0897734496171
 30
0.0
 11
824.5946935603171
 21
839.0897734496176
 31
0.0
  0
LINE
  5
E0C
330
2
100
AcDbEntity
  8
0
100
AcDbLine
 10
846.4846935603166
 20
822.5897734496186
 30
0.0
 11
712.0946935603167
 21
822.5897734496175
 31
0.0
  0
LINE
  5
E0D
330
2
100
AcDbEntity
  8
0
100
AcDbLine
 10
827.0946935603163
 20
822.5897734496207
 30
0.0
 11
827.0946935603157
 21
831.0897734496183
 31
0.0
  0
LINE
  5
E0E
330
2
100
AcDbEntity
  8
0
100
AcDbLine
 10
804.1554838510299
 20
822.5897734496195
 30
0.0
 11
804.1554838510299
 21
831.0897734496181
 31
0.0
  0
LINE
  5
E0F
330
2
100
AcDbEntity
  8
0
100
AcDbLine
 10
837.0946935607488
 20
822.5897734496212
 30
0.0
 11
837.0946935607488
 21
831.0897734496183
 31
0.0
  0
LINE
  5
E10
330
2
100
AcDbEntity
  8
0
100
AcDbLine
 10
732.0946935603172
 20
822.5897734496152
 30
0.0
 11
732.0946935603172
 21
831.0897734496174
 31
0.0
  0
LINE
  5
E11
330
2
100
AcDbEntity
  8
0
100
AcDbLine
 10
755.0339032696036
 20
822.5897734496166
 30
0.0
 11
755.0339032696036
 21
831.0897734496176
 31
0.0
  0
LINE
  5
E12
330
2
100
AcDbEntity
  8
0
100
AcDbLine
 10
722.0946935598846
 20
822.5897734496147
 30
0.0
 11
722.0946935598846
 21
831.0897734496174
 31
0.0
  0
LINE
  5
E1F
330
2
100
AcDbEntity
  8
0
 48
0.3
100
AcDbLine
 10
347.2099579185994
 20
334.0678655566772
 30
0.0
 11
347.2099579185999
 21
321.0678655566773
 31
0.0
  0
LINE
  5
E20
330
2
100
AcDbEntity
  8
0
 48
0.3
100
AcDbLine
 10
346.7099579185994
 20
333.2018401528914
 30
0.0
 11
346.7099579185999
 21
321.9338909604618
 31
0.0
  0
LINE
  5
E21
330
2
100
AcDbEntity
  8
CENTER
 48
0.5
100
AcDbLine
 10
343.7099579185999
 20
327.5678655566772
 30
0.0
 11
362.7099579185999
 21
327.5678655566772
 31
0.0
  0
LINE
  5
E22
330
2
100
AcDbEntity
  8
0
 48
0.3
100
AcDbLine
 10
347.2099579185999
 20
321.0678655566773
 30
0.0
 11
346.7099579185999
 21
321.9338909604618
 31
0.0
  0
LINE
  5
E23
330
2
100
AcDbEntity
  8
0
 48
0.3
100
AcDbLine
 10
347.2099579185999
 20
321.0678655566773
 30
0.0
 11
354.7099579185999
 21
321.0678655566773
 31
0.0
  0
LINE
  5
E24
330
2
100
AcDbEntity
  8
0
 48
0.3
100
AcDbLine
 10
347.2099579186003
 20
334.0678655566768
 30
0.0
 11
346.7099579186003
 21
333.2018401528925
 31
0.0
  0
LINE
  5
E25
330
2
100
AcDbEntity
  8
0
 48
0.3
100
AcDbLine
 10
347.2099579186003
 20
334.0678655566772
 30
0.0
 11
354.7099579185994
 21
334.0678655566772
 31
0.0
  0
LINE
  5
E26
330
2
100
AcDbEntity
  8
0
 48
0.3
100
AcDbLine
 10
347.2099579185994
 20
449.0678655566773
 30
0.0
 11
347.2099579185994
 21
436.0678655566773
 31
0.0
  0
LINE
  5
E27
330
2
100
AcDbEntity
  8
0
 48
0.3
100
AcDbLine
 10
346.7099579185994
 20
448.2018401528914
 30
0.0
 11
346.7099579185994
 21
436.9338909604618
 31
0.0
  0
LINE
  5
E28
330
2
100
AcDbEntity
  8
CENTER
 48
0.5
100
AcDbLine
 10
343.7099579185994
 20
442.5678655566772
 30
0.0
 11
362.7099579185994
 21
442.5678655566772
 31
0.0
  0
LINE
  5
E29
330
2
100
AcDbEntity
  8
0
 48
0.3
100
AcDbLine
 10
347.2099579185994
 20
436.0678655566773
 30
0.0
 11
346.7099579185994
 21
436.9338909604618
 31
0.0
  0
LINE
  5
E2A
330
2
100
AcDbEntity
  8
0
 48
0.3
100
AcDbLine
 10
347.2099579185994
 20
436.0678655566773
 30
0.0
 11
354.7099579185994
 21
436.0678655566773
 31
0.0
  0
LINE
  5
E2B
330
2
100
AcDbEntity
  8
0
 48
0.3
100
AcDbLine
 10
347.2099579185999
 20
449.0678655566768
 30
0.0
 11
346.7099579185999
 21
448.2018401528925
 31
0.0
  0
LINE
  5
E2C
330
2
100
AcDbEntity
  8
0
 48
0.3
100
AcDbLine
 10
347.2099579186003
 20
449.0678655566773
 30
0.0
 11
354.7099579185994
 21
449.0678655566773
 31
0.0
  0
LINE
  5
E2D
330
2
100
AcDbEntity
  8
0
 48
0.3
100
AcDbLine
 10
728.5946935603167
 20
842.0897734496177
 30
0.0
 11
715.5946935603167
 21
842.0897734496175
 31
0.0
  0
LINE
  5
E2E
330
2
100
AcDbEntity
  8
0
 48
0.3
100
AcDbLine
 10
727.7286681565308
 20
842.5897734496176
 30
0.0
 11
716.4607189641012
 21
842.5897734496174
 31
0.0
  0
LINE
  5
E2F
330
2
100
AcDbEntity
  8
CENTER
 48
0.5
100
AcDbLine
 10
722.0946935603167
 20
845.5897734496174
 30
0.0
 11
722.0946935603167
 21
826.5897734496174
 31
0.0
  0
LINE
  5
E30
330
2
100
AcDbEntity
  8
0
 48
0.3
100
AcDbLine
 10
715.5946935603167
 20
842.0897734496175
 30
0.0
 11
716.4607189641012
 21
842.5897734496174
 31
0.0
  0
LINE
  5
E31
330
2
100
AcDbEntity
  8
0
 48
0.3
100
AcDbLine
 10
715.5946935603167
 20
842.0897734496175
 30
0.0
 11
715.5946935603167
 21
834.5897734496174
 31
0.0
  0
LINE
  5
E32
330
2
100
AcDbEntity
  8
0
 48
0.3
100
AcDbLine
 10
728.5946935603162
 20
842.089773449617
 30
0.0
 11
727.7286681565317
 21
842.5897734496171
 31
0.0
  0
LINE
  5
E33
330
2
100
AcDbEntity
  8
0
 48
0.3
100
AcDbLine
 10
728.5946935603167
 20
842.0897734496168
 30
0.0
 11
728.5946935603167
 21
834.5897734496176
 31
0.0
  0
LINE
  5
E34
330
2
100
AcDbEntity
  8
0
 48
0.3
100
AcDbLine
 10
843.5946935603167
 20
842.0897734496184
 30
0.0
 11
830.5946935603166
 21
842.0897734496181
 31
0.0
  0
LINE
  5
E35
330
2
100
AcDbEntity
  8
0
 48
0.3
100
AcDbLine
 10
842.7286681565307
 20
842.5897734496183
 30
0.0
 11
831.4607189641012
 21
842.5897734496182
 31
0.0
  0
LINE
  5
E36
330
2
100
AcDbEntity
  8
CENTER
 48
0.5
100
AcDbLine
 10
837.0946935603168
 20
845.5897734496184
 30
0.0
 11
837.0946935603168
 21
826.5897734496183
 31
0.0
  0
LINE
  5
E37
330
2
100
AcDbEntity
  8
0
 48
0.3
100
AcDbLine
 10
830.5946935603166
 20
842.0897734496181
 30
0.0
 11
831.4607189641012
 21
842.5897734496182
 31
0.0
  0
LINE
  5
E38
330
2
100
AcDbEntity
  8
0
 48
0.3
100
AcDbLine
 10
830.5946935603166
 20
842.0897734496181
 30
0.0
 11
830.5946935603166
 21
834.5897734496181
 31
0.0
  0
LINE
  5
E39
330
2
100
AcDbEntity
  8
0
 48
0.3
100
AcDbLine
 10
843.5946935603162
 20
842.0897734496177
 30
0.0
 11
842.7286681565316
 21
842.589773449618
 31
0.0
  0
LINE
  5
E3A
330
2
100
AcDbEntity
  8
0
 48
0.3
100
AcDbLine
 10
843.5946935603167
 20
842.0897734496175
 30
0.0
 11
843.5946935603167
 21
834.5897734496183
 31
0.0
  0
LINE
  5
E3B
330
2
100
AcDbEntity
  8
0
100
AcDbLine
 10
247.8059347352689
 20
439.1037639419717
 30
0.0
 11
250.8059347352684
 21
440.8358147495406
 31
0.0
  0
LINE
  5
E3C
330
2
100
AcDbEntity
  8
0
100
AcDbLine
 10
244.8059347352689
 20
444.2999163646782
 30
0.0
 11
247.8059347352689
 21
446.0319671722472
 31
0.0
  0
CIRCLE
  5
E3D
330
2
100
AcDbEntity
  8
0
100
AcDbCircle
 10
247.8059347352689
 20
442.5678655571094
 30
0.0
 40
6.5
  0
LINE
  5
E3E
330
2
100
AcDbEntity
  8
0
100
AcDbLine
 10
250.8059347352684
 20
444.2999163646782
 30
0.0
 11
247.8059347352689
 21
446.0319671722471
 31
0.0
  0
LINE
  5
E3F
330
2
100
AcDbEntity
  8
0
100
AcDbLine
 10
247.8059347352689
 20
439.1037639419718
 30
0.0
 11
244.8059347352689
 21
440.8358147495405
 31
0.0
  0
LINE
  5
E40
330
2
100
AcDbEntity
  8
0
100
AcDbLine
 10
250.8059347352684
 20
440.8358147495408
 30
0.0
 11
250.8059347352684
 21
444.2999163646783
 31
0.0
  0
LINE
  5
E41
330
2
100
AcDbEntity
  8
0
100
AcDbLine
 10
244.8059347352689
 20
440.8358147495404
 30
0.0
 11
244.8059347352689
 21
444.2999163646782
 31
0.0
  0
CIRCLE
  5
E42
330
2
100
AcDbEntity
  8
0
100
AcDbCircle
 10
247.8059347352689
 20
442.5678655571094
 30
0.0
 40
5.633974596215466
  0
LINE
  5
E43
330
2
100
AcDbEntity
  8
0
100
AcDbLine
 10
132.8059347352693
 20
439.1037639419717
 30
0.0
 11
135.8059347352693
 21
440.8358147495406
 31
0.0
  0
LINE
  5
E44
330
2
100
AcDbEntity
  8
0
100
AcDbLine
 10
129.8059347352693
 20
444.2999163646782
 30
0.0
 11
132.8059347352693
 21
446.0319671722472
 31
0.0
  0
CIRCLE
  5
E45
330
2
100
AcDbEntity
  8
0
100
AcDbCircle
 10
132.8059347352693
 20
442.5678655571094
 30
0.0
 40
6.5
  0
LINE
  5
E46
330
2
100
AcDbEntity
  8
0
100
AcDbLine
 10
135.8059347352693
 20
444.2999163646782
 30
0.0
 11
132.8059347352693
 21
446.0319671722471
 31
0.0
  0
LINE
  5
E47
330
2
100
AcDbEntity
  8
0
100
AcDbLine
 10
132.8059347352693
 20
439.1037639419718
 30
0.0
 11
129.8059347352693
 21
440.8358147495405
 31
0.0
  0
LINE
  5
E48
330
2
100
AcDbEntity
  8
0
100
AcDbLine
 10
135.8059347352693
 20
440.8358147495408
 30
0.0
 11
135.8059347352693
 21
444.2999163646783
 31
0.0
  0
LINE
  5
E49
330
2
100
AcDbEntity
  8
0
100
AcDbLine
 10
129.8059347352693
 20
440.8358147495404
 30
0.0
 11
129.8059347352693
 21
444.2999163646782
 31
0.0
  0
CIRCLE
  5
E4A
330
2
100
AcDbEntity
  8
0
100
AcDbCircle
 10
132.8059347352693
 20
442.5678655571094
 30
0.0
 40
5.633974596215466
  0
LINE
  5
E4B
330
2
100
AcDbEntity
  8
0
100
AcDbLine
 10
132.8059347352693
 20
324.1037639419715
 30
0.0
 11
135.8059347352693
 21
325.8358147495405
 31
0.0
  0
LINE
  5
E4C
330
2
100
AcDbEntity
  8
0
100
AcDbLine
 10
129.8059347352693
 20
329.2999163646781
 30
0.0
 11
132.8059347352693
 21
331.031967172247
 31
0.0
  0
CIRCLE
  5
E4D
330
2
100
AcDbEntity
  8
0
100
AcDbCircle
 10
132.8059347352693
 20
327.5678655571092
 30
0.0
 40
6.5
  0
LINE
  5
E4E
330
2
100
AcDbEntity
  8
0
100
AcDbLine
 10
135.8059347352693
 20
329.2999163646781
 30
0.0
 11
132.8059347352693
 21
331.0319671722469
 31
0.0
  0
LINE
  5
E4F
330
2
100
AcDbEntity
  8
0
100
AcDbLine
 10
132.8059347352693
 20
324.1037639419717
 30
0.0
 11
129.8059347352693
 21
325.8358147495404
 31
0.0
  0
LINE
  5
E50
330
2
100
AcDbEntity
  8
0
100
AcDbLine
 10
135.8059347352693
 20
325.8358147495406
 30
0.0
 11
135.8059347352693
 21
329.2999163646782
 31
0.0
  0
LINE
  5
E51
330
2
100
AcDbEntity
  8
0
100
AcDbLine
 10
129.8059347352693
 20
325.8358147495403
 30
0.0
 11
129.8059347352693
 21
329.2999163646781
 31
0.0
  0
CIRCLE
  5
E52
330
2
100
AcDbEntity
  8
0
100
AcDbCircle
 10
132.8059347352693
 20
327.5678655571092
 30
0.0
 40
5.633974596215466
  0
LINE
  5
E53
330
2
100
AcDbEntity
  8
0
100
AcDbLine
 10
247.8059347352689
 20
324.1037639419715
 30
0.0
 11
250.8059347352684
 21
325.8358147495405
 31
0.0
  0
LINE
  5
E54
330
2
100
AcDbEntity
  8
0
100
AcDbLine
 10
244.8059347352689
 20
329.2999163646781
 30
0.0
 11
247.8059347352689
 21
331.031967172247
 31
0.0
  0
CIRCLE
  5
E55
330
2
100
AcDbEntity
  8
0
100
AcDbCircle
 10
247.8059347352689
 20
327.5678655571092
 30
0.0
 40
6.5
  0
LINE
  5
E56
330
2
100
AcDbEntity
  8
0
100
AcDbLine
 10
250.8059347352684
 20
329.2999163646781
 30
0.0
 11
247.8059347352689
 21
331.0319671722469
 31
0.0
  0
LINE
  5
E57
330
2
100
AcDbEntity
  8
0
100
AcDbLine
 10
247.8059347352689
 20
324.1037639419717
 30
0.0
 11
244.8059347352689
 21
325.8358147495404
 31
0.0
  0
LINE
  5
E58
330
2
100
AcDbEntity
  8
0
100
AcDbLine
 10
250.8059347352684
 20
325.8358147495406
 30
0.0
 11
250.8059347352684
 21
329.2999163646782
 31
0.0
  0
LINE
  5
E59
330
2
100
AcDbEntity
  8
0
100
AcDbLine
 10
244.8059347352689
 20
325.8358147495403
 30
0.0
 11
244.8059347352689
 21
329.2999163646781
 31
0.0
  0
CIRCLE
  5
E5A
330
2
100
AcDbEntity
  8
0
100
AcDbCircle
 10
247.8059347352689
 20
327.5678655571092
 30
0.0
 40
5.633974596215466
  0
LINE
  5
E5B
330
2
100
AcDbEntity
  8
HIDS
  6
SEKKEI_H
100
AcDbLine
 10
350.2099579185944
 20
440.23943843193
 30
0.0
 11
350.2099579185994
 21
436.0678655566773
 31
0.0
  0
LINE
  5
E5C
330
2
100
AcDbEntity
  8
HIDS
  6
SEKKEI_H
100
AcDbLine
 10
350.2099579185949
 20
329.8962926814245
 30
0.0
 11
350.2099579185999
 21
334.0678655566772
 31
0.0
  0
ARC
  5
E5D
330
2
100
AcDbEntity
  8
HIDS
  6
SEKKEI_H
100
AcDbCircle
 10
351.7099579185953
 20
435.150851673815
 30
0.0
 40
10.00000000000001
100
AcDbArc
 50
90.47745377731077
 51
119.9999999999698
  0
ARC
  5
E5E
330
2
100
AcDbEntity
  8
HIDS
  6
SEKKEI_H
100
AcDbCircle
 10
351.7099579185953
 20
334.9848794395394
 30
0.0
 40
10.00000000000001
100
AcDbArc
 50
240.00000000003
 51
269.5225462226892
  0
LINE
  5
E5F
330
2
100
AcDbEntity
  8
HIDS
  6
SEKKEI_H
100
AcDbLine
 10
728.5946935603167
 20
839.0897734496174
 30
0.0
 11
724.4231206850638
 21
839.0897734496224
 31
0.0
  0
LINE
  5
E60
330
2
100
AcDbEntity
  8
HIDS
  6
SEKKEI_H
100
AcDbLine
 10
830.5946935603166
 20
839.0897734496183
 30
0.0
 11
834.7662664355691
 21
839.0897734496233
 31
0.0
  0
CIRCLE
  5
E61
330
2
100
AcDbEntity
  8
0
100
AcDbCircle
 10
247.8059347352689
 20
327.5678655571092
 30
0.0
 40
7.25
  0
CIRCLE
  5
E62
330
2
100
AcDbEntity
  8
0
100
AcDbCircle
 10
247.8059347352689
 20
442.5678655571094
 30
0.0
 40
7.25
  0
CIRCLE
  5
E63
330
2
100
AcDbEntity
  8
0
100
AcDbCircle
 10
132.8059347352693
 20
442.5678655571095
 30
0.0
 40
7.25
  0
CIRCLE
  5
E64
330
2
100
AcDbEntity
  8
0
100
AcDbCircle
 10
132.8059347352693
 20
327.5678655571092
 30
0.0
 40
7.25
  0
LINE
  5
E65
330
2
100
AcDbEntity
  8
0
 48
0.3
100
AcDbLine
 10
354.7099579185994
 20
449.8178655566773
 30
0.0
 11
354.7099579185994
 21
435.3178655566773
 31
0.0
  0
LINE
  5
E66
330
2
100
AcDbEntity
  8
0
 48
0.3
100
AcDbLine
 10
354.7099579185994
 20
435.3178655566773
 30
0.0
 11
356.7099579185994
 21
435.3178655566773
 31
0.0
  0
LINE
  5
E67
330
2
100
AcDbEntity
  8
0
 48
0.3
100
AcDbLine
 10
354.7099579185994
 20
449.8178655566773
 30
0.0
 11
356.7099579185994
 21
449.8178655566773
 31
0.0
  0
LINE
  5
E68
330
2
100
AcDbEntity
  8
0
100
AcDbLine
 10
356.7099579185994
 20
449.8178655566773
 30
0.0
 11
356.7099579185994
 21
435.3178655566773
 31
0.0
  0
LINE
  5
E69
330
2
100
AcDbEntity
  8
0
 48
0.3
100
AcDbLine
 10
354.7099579185999
 20
334.8178655566773
 30
0.0
 11
354.7099579185999
 21
320.3178655566773
 31
0.0
  0
LINE
  5
E6A
330
2
100
AcDbEntity
  8
0
 48
0.3
100
AcDbLine
 10
354.7099579185999
 20
320.3178655566773
 30
0.0
 11
356.7099579185999
 21
320.3178655566773
 31
0.0
  0
LINE
  5
E6B
330
2
100
AcDbEntity
  8
0
 48
0.3
100
AcDbLine
 10
354.7099579185999
 20
334.8178655566773
 30
0.0
 11
356.7099579185999
 21
334.8178655566773
 31
0.0
  0
LINE
  5
E6C
330
2
100
AcDbEntity
  8
0
100
AcDbLine
 10
356.7099579185999
 20
334.8178655566773
 30
0.0
 11
356.7099579185999
 21
320.3178655566773
 31
0.0
  0
LINE
  5
E6D
330
2
100
AcDbEntity
  8
0
 48
0.3
100
AcDbLine
 10
729.3446935603167
 20
834.5897734496174
 30
0.0
 11
714.8446935603167
 21
834.5897734496174
 31
0.0
  0
LINE
  5
E6E
330
2
100
AcDbEntity
  8
0
 48
0.3
100
AcDbLine
 10
714.8446935603167
 20
834.5897734496174
 30
0.0
 11
714.8446935603167
 21
832.5897734496175
 31
0.0
  0
LINE
  5
E6F
330
2
100
AcDbEntity
  8
0
 48
0.3
100
AcDbLine
 10
729.3446935603167
 20
834.5897734496176
 30
0.0
 11
729.3446935603167
 21
832.5897734496177
 31
0.0
  0
LINE
  5
E70
330
2
100
AcDbEntity
  8
0
100
AcDbLine
 10
729.3446935603167
 20
832.5897734496177
 30
0.0
 11
714.8446935603167
 21
832.5897734496175
 31
0.0
  0
LINE
  5
E71
330
2
100
AcDbEntity
  8
0
 48
0.3
100
AcDbLine
 10
844.3446935603168
 20
834.5897734496183
 30
0.0
 11
829.8446935603166
 21
834.5897734496183
 31
0.0
  0
LINE
  5
E72
330
2
100
AcDbEntity
  8
0
 48
0.3
100
AcDbLine
 10
829.8446935603166
 20
834.5897734496183
 30
0.0
 11
829.8446935603166
 21
832.5897734496182
 31
0.0
  0
LINE
  5
E73
330
2
100
AcDbEntity
  8
0
 48
0.3
100
AcDbLine
 10
844.3446935603168
 20
834.5897734496183
 30
0.0
 11
844.3446935603168
 21
832.5897734496184
 31
0.0
  0
LINE
  5
E74
330
2
100
AcDbEntity
  8
0
100
AcDbLine
 10
844.3446935603168
 20
832.5897734496184
 30
0.0
 11
829.8446935603166
 21
832.5897734496184
 31
0.0
  0
LINE
  5
E83
330
2
100
AcDbEntity
  8
0
 48
0.5
100
AcDbLine
 10
366.7099579186031
 20
317.5722289905735
 30
0.0
 11
468.7099579185953
 21
318.4623695052288
 31
0.0
  0
LINE
  5
E84
330
2
100
AcDbEntity
  8
0
 48
0.5
100
AcDbLine
 10
366.7099579186031
 20
452.563502122781
 30
0.0
 11
468.7099579185881
 21
451.6733616081258
 31
0.0
  0
LINE
  5
E8C
330
2
100
AcDbEntity
  8
0
100
AcDbLine
 10
62.30593473483191
 20
445.5678655566773
 30
0.0
 11
76.30593473483827
 21
445.5678655566773
 31
0.0
  0
ARC
  5
E8D
330
2
100
AcDbEntity
  8
0
100
AcDbCircle
 10
76.30593473483827
 20
326.5678655566773
 30
0.0
 40
2.0
100
AcDbArc
 50
270.0
 51
0.0
  0
LINE
  5
E8E
330
2
100
AcDbEntity
  8
0
100
AcDbLine
 10
62.30593473483191
 20
324.5678655566774
 30
0.0
 11
76.30593473483827
 21
324.5678655566773
 31
0.0
  0
LINE
  5
E8F
330
2
100
AcDbEntity
  8
0
100
AcDbLine
 10
907.5946935603218
 20
445.5678655566773
 30
0.0
 11
893.5946935603153
 21
445.5678655566773
 31
0.0
  0
ARC
  5
E90
330
2
100
AcDbEntity
  8
0
100
AcDbCircle
 10
893.5946935603153
 20
443.5678655566773
 30
0.0
 40
2.0
100
AcDbArc
 50
90.0
 51
180.0
  0
LINE
  5
E91
330
2
100
AcDbEntity
  8
0
100
AcDbLine
 10
907.5946935603218
 20
324.567865556677
 30
0.0
 11
893.5946935603153
 21
324.567865556677
 31
0.0
  0
ARC
  5
E92
330
2
100
AcDbEntity
  8
0
100
AcDbCircle
 10
893.5946935603153
 20
326.567865556677
 30
0.0
 40
2.0
100
AcDbArc
 50
180.0
 51
270.0
  0
LINE
  5
1147
330
2
100
AcDbEntity
  8
0
100
AcDbLine
 10
907.5946935603218
 20
445.0678655566789
 30
0.0
 11
907.5946935603218
 21
325.0678655566771
 31
0.0
  0
ARC
  5
1208
330
2
100
AcDbEntity
  8
0
100
AcDbCircle
 10
351.6269718014556
 20
435.0678655566873
 30
0.0
 40
10.0
100
AcDbArc
 50
134.6637861676429
 51
179.5225462226762
  0
LINE
  5
1209
330
2
100
AcDbEntity
  8
0
100
AcDbLine
 10
341.6273190055944
 20
435.151195996653
 30
0.0
 11
341.2099579185905
 21
385.0678655566773
 31
0.0
  0
ARC
  5
120C
330
2
100
AcDbEntity
  8
0
100
AcDbCircle
 10
351.6269718014556
 20
335.0678655566677
 30
0.0
 40
10.0
100
AcDbArc
 50
180.4774537773237
 51
225.336213832201
  0
LINE
  5
120D
330
2
100
AcDbEntity
  8
0
100
AcDbLine
 10
341.6273190055944
 20
334.9845351167015
 30
0.0
 11
341.2099579185905
 21
385.0678655566773
 31
0.0
  0
LINE
  5
120F
330
2
100
AcDbEntity
  8
0
100
AcDbLine
 10
62.30593473483191
 20
445.0678655566791
 30
0.0
 11
62.30593473483191
 21
325.0678655566773
 31
0.0
  0
TEXT
  5
1B1C
330
2
100
AcDbEntity
  8
TITLE
100
AcDbText
 10
401.3548919300465
 20
826.6627372190065
 30
0.0
 40
10.0
  1
AFCZ32H-7.5~10M2000K41
100
AcDbText
  0
TEXT
  5
1B1E
330
2
100
AcDbEntity
  8
TITLE
100
AcDbText
 10
401.3548919300465
 20
811.8818430966687
 30
0.0
 40
10.0
  1
AFCZ32H-7.5~10L2000K41
100
AcDbText
  0
LINE
  5
234F
330
2
100
AcDbEntity
  8
0
100
AcDbLine
 10
907.5946935603218
 20
445.067865556679
 30
0.0
 11
907.5946935603218
 21
325.0678655566772
 31
0.0
  0
LINE
  5
25C2
330
2
100
AcDbEntity
  8
0
100
AcDbLine
 10
907.5946935603218
 20
445.067865556679
 30
0.0
 11
907.5946935603218
 21
325.0678655566772
 31
0.0
  0
LINE
  5
2824
330
2
100
AcDbEntity
  8
0
100
AcDbLine
 10
907.5946935603218
 20
445.067865556679
 30
0.0
 11
907.5946935603218
 21
325.0678655566772
 31
0.0
  0
LINE
  5
2AFC
330
2
100
AcDbEntity
  8
0
100
AcDbLine
 10
907.5946935603218
 20
445.0678655566772
 30
0.0
 11
907.5946935603218
 21
325.0678655566772
 31
0.0
  0
LINE
  5
2B1D
330
2
100
AcDbEntity
  8
0
100
AcDbLine
 10
907.5946935603218
 20
727.0897734496229
 30
0.0
 11
907.5946935603209
 21
848.0897734496224
 31
0.0
  0
LINE
  5
2BC9
330
2
100
AcDbEntity
  8
0
100
AcDbLine
 10
62.30593473483191
 20
445.0678655566774
 30
0.0
 11
62.30593473483191
 21
325.0678655566773
 31
0.0
  0
LINE
  5
2EF4
330
2
100
AcDbEntity
  8
0
100
AcDbLine
 10
907.5946935603218
 20
445.0678655566772
 30
0.0
 11
907.5946935603218
 21
325.0678655566772
 31
0.0
  0
LINE
  5
310A
330
2
100
AcDbEntity
  8
0
100
AcDbLine
 10
907.5946935603218
 20
445.0678655566772
 30
0.0
 11
907.5946935603218
 21
325.0678655566772
 31
0.0
  0
LINE
  5
337D
330
2
100
AcDbEntity
  8
0
100
AcDbLine
 10
907.5946935603218
 20
445.0678655566772
 30
0.0
 11
907.5946935603218
 21
325.0678655566772
 31
0.0
  0
LINE
  5
34F6
330
2
100
AcDbEntity
  8
CENTER
100
AcDbLine
 10
1285.882594473829
 20
462.2584425339625
 30
0.0
 11
1285.882594473829
 21
307.877288579392
 31
0.0
  0
LINE
  5
34F7
330
2
100
AcDbEntity
  8
CENTER
100
AcDbLine
 10
1362.822052161547
 20
385.0678655566772
 30
0.0
 11
1132.882594473829
 21
385.0678655566772
 31
0.0
  0
LINE
  5
34F8
330
2
100
AcDbEntity
  8
0
100
AcDbLine
 10
1335.965924913794
 20
445.1505044696779
 30
0.0
 11
1285.882594473829
 21
445.5678655566773
 31
0.0
  0
ARC
  5
34FA
330
2
100
AcDbEntity
  8
0
100
AcDbCircle
 10
1335.882594473829
 20
435.150851673815
 30
0.0
 40
10.0
100
AcDbArc
 50
44.6638139935388
 51
89.52254622268922
  0
LINE
  5
3500
330
2
100
AcDbEntity
  8
0
 48
0.5
100
AcDbLine
 10
1320.882594473821
 20
452.563502122781
 30
0.0
 11
1218.882594473829
 21
451.6733616081257
 31
0.0
  0
LINE
  5
3501
330
2
100
AcDbEntity
  8
0
100
AcDbLine
 10
1213.882594473827
 20
445.0678655566782
 30
0.0
 11
1213.882594473829
 21
325.0678655566773
 31
0.0
  0
LINE
  5
3502
330
2
100
AcDbEntity
  8
0
 48
0.5
100
AcDbLine
 10
1320.882594473821
 20
317.5722289905735
 30
0.0
 11
1218.882594473829
 21
318.4623695052289
 31
0.0
  0
LINE
  5
3503
330
2
100
AcDbEntity
  8
0
100
AcDbLine
 10
1320.882594473821
 20
452.5678655566763
 30
0.0
 11
1320.882594473821
 21
445.2720322233437
 31
0.0
  0
LINE
  5
3504
330
2
100
AcDbEntity
  8
0
100
AcDbLine
 10
1320.882594473821
 20
324.8636988900108
 30
0.0
 11
1320.882594473821
 21
317.5678655566782
 31
0.0
  0
LINE
  5
3505
330
2
100
AcDbEntity
  8
0
 48
0.5
100
AcDbLine
 10
1285.882594473829
 20
452.2580617501064
 30
0.0
 11
1320.882594473821
 21
451.952621377429
 31
0.0
  0
LINE
  5
3506
330
2
100
AcDbEntity
  8
0
 48
0.5
100
AcDbLine
 10
1285.882594473829
 20
317.8776693632473
 30
0.0
 11
1320.882594473821
 21
318.1831097359248
 31
0.0
  0
LINE
  5
3507
330
2
100
AcDbEntity
  8
0
100
AcDbLine
 10
1235.799264033864
 20
445.1505044696779
 30
0.0
 11
1259.576578261649
 21
445.3486487549094
 31
0.0
  0
ARC
  5
3509
330
2
100
AcDbEntity
  8
0
100
AcDbCircle
 10
1235.88259447383
 20
435.1508516738169
 30
0.0
 40
10.0
100
AcDbArc
 50
90.47745377731077
 51
135.3362029899242
  0
LINE
  5
350B
330
2
100
AcDbEntity
  8
0
100
AcDbLine
 10
1335.965924913794
 20
324.9852266436784
 30
0.0
 11
1285.882594473829
 21
324.5678655566773
 31
0.0
  0
ARC
  5
350D
330
2
100
AcDbEntity
  8
0
100
AcDbCircle
 10
1335.882594473829
 20
334.9848794395394
 30
0.0
 40
10.0
100
AcDbArc
 50
270.4774537773107
 51
315.3362424034169
  0
LINE
  5
350F
330
2
100
AcDbEntity
  8
0
100
AcDbLine
 10
1235.799264033863
 20
324.9852266436775
 30
0.0
 11
1285.882594473829
 21
324.5678655566773
 31
0.0
  0
ARC
  5
3511
330
2
100
AcDbEntity
  8
0
100
AcDbCircle
 10
1235.882594473829
 20
334.9848794395386
 30
0.0
 40
10.0
100
AcDbArc
 50
224.663847780377
 51
269.5225462226892
  0
LINE
  5
3513
330
2
100
AcDbEntity
  8
0
 48
0.5
100
AcDbLine
 10
1218.882594473829
 20
445.0678655566773
 30
0.0
 11
1213.882594473827
 21
445.0678655566782
 31
0.0
  0
LINE
  5
3514
330
2
100
AcDbEntity
  8
0
 48
0.5
100
AcDbLine
 10
1218.882594473829
 20
325.0678655566773
 30
0.0
 11
1213.882594473829
 21
325.0678655566773
 31
0.0
  0
LINE
  5
3515
330
2
100
AcDbEntity
  8
0
100
AcDbLine
 10
1218.882594473829
 20
318.4623695052288
 30
0.0
 11
1218.882594473829
 21
451.6733616081256
 31
0.0
  0
LINE
  5
3516
330
2
100
AcDbEntity
  8
0
 48
0.5
100
AcDbLine
 10
1328.900047544818
 20
317.6378328096467
 30
0.0
 11
1320.882594473821
 21
317.5678655566774
 31
0.0
  0
ARC
  5
3517
330
2
100
AcDbEntity
  8
0
100
AcDbCircle
 10
1328.882594473821
 20
319.637756655775
 30
0.0
 40
2.0
100
AcDbArc
 50
270.4999999999915
 51
0.0
  0
ARC
  5
3518
330
2
100
AcDbEntity
  8
0
100
AcDbCircle
 10
1332.882594473821
 20
321.7394384319311
 30
0.0
 40
2.0
100
AcDbArc
 50
135.0000000000069
 51
180.0
  0
LINE
  5
3519
330
2
100
AcDbEntity
  8
0
100
AcDbLine
 10
1331.468380911448
 20
323.1536519943042
 30
0.0
 11
1333.277552457015
 21
324.9628235398719
 31
0.0
  0
LINE
  5
351A
330
2
100
AcDbEntity
  8
0
 48
0.5
100
AcDbLine
 10
1328.900047544817
 20
452.497898303708
 30
0.0
 11
1320.882594473821
 21
452.5678655566771
 31
0.0
  0
LINE
  5
351B
330
2
100
AcDbEntity
  8
0
100
AcDbLine
 10
1330.88259447382
 20
450.4979744575797
 30
0.0
 11
1330.88259447382
 21
445.1928655566777
 31
0.0
  0
LINE
  5
351C
330
2
100
AcDbEntity
  8
0
100
AcDbLine
 10
1330.882594473821
 20
324.9428655566786
 30
0.0
 11
1330.882594473821
 21
319.637756655775
 31
0.0
  0
ARC
  5
351D
330
2
100
AcDbEntity
  8
0
100
AcDbCircle
 10
1328.88259447382
 20
450.4979744575796
 30
0.0
 40
2.0
100
AcDbArc
 50
0.0
 51
89.49999999998238
  0
ARC
  5
351E
330
2
100
AcDbEntity
  8
0
100
AcDbCircle
 10
1332.882594473821
 20
448.3962926814236
 30
0.0
 40
2.0
100
AcDbArc
 50
180.0
 51
224.999999999993
  0
LINE
  5
351F
330
2
100
AcDbEntity
  8
0
100
AcDbLine
 10
1331.468380911448
 20
446.9820791190506
 30
0.0
 11
1333.277552457013
 21
445.1729075734844
 31
0.0
  0
LINE
  5
3520
330
2
100
AcDbEntity
  8
0
100
AcDbLine
 10
1320.882594473821
 20
317.5678655566774
 30
0.0
 11
1320.882594473821
 21
324.8595322233449
 31
0.0
  0
LINE
  5
3521
330
2
100
AcDbEntity
  8
0
100
AcDbLine
 10
1320.88259447382
 20
445.2761988900109
 30
0.0
 11
1320.88259447382
 21
452.5678655566771
 31
0.0
  0
LINE
  5
3522
330
2
100
AcDbEntity
  8
0
100
AcDbLine
 10
1199.284518262476
 20
360.8358147491083
 30
0.0
 11
1199.132594473829
 21
360.9235279893801
 31
0.0
  0
ARC
  5
3523
330
2
100
AcDbEntity
  8
0
100
AcDbCircle
 10
1199.382594473829
 20
361.3565406912722
 30
0.0
 40
0.5
100
AcDbArc
 50
180.0
 51
240.0000000000011
  0
LINE
  5
3524
330
2
100
AcDbEntity
  8
0
100
AcDbLine
 10
1198.882594473829
 20
408.7791904220826
 30
0.0
 11
1198.882594473829
 21
361.3565406912722
 31
0.0
  0
LINE
  5
3525
330
2
100
AcDbEntity
  8
0
100
AcDbLine
 10
1197.882594473829
 20
369.0678655566774
 30
0.0
 11
1142.882594473829
 21
369.067865556677
 31
0.0
  0
LINE
  5
3526
330
2
100
AcDbEntity
  8
0
100
AcDbLine
 10
1197.882594473828
 20
402.5678655566772
 30
0.0
 11
1197.882594473829
 21
367.5678655566771
 31
0.0
  0
LINE
  5
3527
330
2
100
AcDbEntity
  8
0
100
AcDbLine
 10
1198.882594473829
 20
403.1452158258668
 30
0.0
 11
1197.882594473828
 21
402.5678655566772
 31
0.0
  0
LINE
  5
3528
330
2
100
AcDbEntity
  8
0
100
AcDbLine
 10
1197.882594473828
 20
401.0678655566776
 30
0.0
 11
1142.882594473829
 21
401.0678655566772
 31
0.0
  0
LINE
  5
3529
330
2
100
AcDbEntity
  8
0
100
AcDbLine
 10
1142.882594473829
 20
401.0678655566772
 30
0.0
 11
1142.882594473829
 21
369.067865556677
 31
0.0
  0
ARC
  5
352A
330
2
100
AcDbEntity
  8
0
100
AcDbCircle
 10
1200.284518262476
 20
362.5678655566772
 30
0.0
 40
2.0
100
AcDbArc
 50
240.0000000000011
 51
258.4067863764621
  0
LINE
  5
352B
330
2
100
AcDbEntity
  8
0
100
AcDbLine
 10
1199.284518262476
 20
409.2999163642465
 30
0.0
 11
1199.132594473828
 21
409.2122031239749
 31
0.0
  0
ARC
  5
352C
330
2
100
AcDbEntity
  8
0
100
AcDbCircle
 10
1199.382594473829
 20
408.7791904220826
 30
0.0
 40
0.5
100
AcDbArc
 50
120.0000000000005
 51
180.0
  0
ARC
  5
352D
330
2
100
AcDbEntity
  8
0
100
AcDbCircle
 10
1200.284518262476
 20
407.5678655566777
 30
0.0
 40
2.0
100
AcDbArc
 50
101.593213623511
 51
120.0000000000005
  0
LINE
  5
352E
330
2
100
AcDbEntity
  8
0
 48
0.3
100
AcDbLine
 10
1340.382594473824
 20
444.0811372235631
 30
0.0
 11
1340.382594473824
 21
449.0678655566772
 31
0.0
  0
LINE
  5
352F
330
2
100
AcDbEntity
  8
0
 48
0.3
100
AcDbLine
 10
1340.882594473824
 20
443.811105711662
 30
0.0
 11
1340.882594473824
 21
448.2018401528927
 31
0.0
  0
LINE
  5
3530
330
2
100
AcDbEntity
  8
0
 48
0.3
100
AcDbLine
 10
1340.382594473824
 20
449.0678655566772
 30
0.0
 11
1340.882594473824
 21
448.2018401528927
 31
0.0
  0
LINE
  5
3531
330
2
100
AcDbEntity
  8
0
 48
0.3
100
AcDbLine
 10
1340.382594473824
 20
449.0678655566772
 30
0.0
 11
1332.882594473824
 21
449.0678655566772
 31
0.0
  0
LINE
  5
3532
330
2
100
AcDbEntity
  8
0
 48
0.3
100
AcDbLine
 10
1340.382594473825
 20
321.0678655566772
 30
0.0
 11
1340.382594473825
 21
326.0545938897917
 31
0.0
  0
LINE
  5
3533
330
2
100
AcDbEntity
  8
0
 48
0.3
100
AcDbLine
 10
1340.882594473825
 20
321.9338909604631
 30
0.0
 11
1340.882594473825
 21
326.324625401693
 31
0.0
  0
LINE
  5
3534
330
2
100
AcDbEntity
  8
0
 48
0.3
100
AcDbLine
 10
1340.382594473824
 20
321.0678655566777
 30
0.0
 11
1340.882594473824
 21
321.933890960462
 31
0.0
  0
LINE
  5
3535
330
2
100
AcDbEntity
  8
0
 48
0.3
100
AcDbLine
 10
1340.382594473824
 20
321.0678655566772
 30
0.0
 11
1332.882594473825
 21
321.0678655566772
 31
0.0
  0
LINE
  5
3536
330
2
100
AcDbEntity
  8
0
 48
0.3
100
AcDbLine
 10
1332.882594473825
 20
320.3178655566772
 30
0.0
 11
1332.882594473824
 21
324.567865556681
 31
0.0
  0
LINE
  5
3537
330
2
100
AcDbEntity
  8
0
 48
0.3
100
AcDbLine
 10
1332.882594473825
 20
320.3178655566772
 30
0.0
 11
1330.882594473825
 21
320.3178655566772
 31
0.0
  0
LINE
  5
3538
330
2
100
AcDbEntity
  8
0
100
AcDbLine
 10
1330.882594473825
 20
320.3178655566772
 30
0.0
 11
1330.882594473825
 21
324.9428655566786
 31
0.0
  0
LINE
  5
3539
330
2
100
AcDbEntity
  8
0
 48
0.3
100
AcDbLine
 10
1332.882594473824
 20
445.5678655566734
 30
0.0
 11
1332.882594473824
 21
449.8178655566772
 31
0.0
  0
LINE
  5
353A
330
2
100
AcDbEntity
  8
0
 48
0.3
100
AcDbLine
 10
1332.882594473824
 20
449.8178655566772
 30
0.0
 11
1330.882594473824
 21
449.8178655566772
 31
0.0
  0
LINE
  5
353B
330
2
100
AcDbEntity
  8
0
100
AcDbLine
 10
1330.882594473824
 20
445.1928655566776
 30
0.0
 11
1330.882594473824
 21
449.8178655566772
 31
0.0
  0
LINE
  5
353C
330
2
100
AcDbEntity
  8
0
100
AcDbLine
 10
1198.882594473829
 20
366.9905152874877
 30
0.0
 11
1197.882594473828
 21
367.5678655566772
 31
0.0
  0
LINE
  5
353D
330
2
100
AcDbEntity
  8
0
100
AcDbLine
 10
1201.535298118495
 20
428.8592818003471
 30
0.0
 11
1207.271779895163
 21
429.8707783119163
 31
0.0
  0
LINE
  5
353E
330
2
100
AcDbEntity
  8
0
100
AcDbLine
 10
1201.535298118495
 20
341.2764493130072
 30
0.0
 11
1207.271779895165
 21
340.264952801438
 31
0.0
  0
ARC
  5
353F
330
2
100
AcDbEntity
  8
0
100
AcDbCircle
 10
1201.882594473829
 20
343.2460648190319
 30
0.0
 40
2.0
100
AcDbArc
 50
180.0
 51
259.9999999999949
  0
LINE
  5
3540
330
2
100
AcDbEntity
  8
0
100
AcDbLine
 10
1199.882594473829
 20
426.8896662943227
 30
0.0
 11
1199.882594473829
 21
343.2460648190319
 31
0.0
  0
ARC
  5
3541
330
2
100
AcDbEntity
  8
0
100
AcDbCircle
 10
1201.882594473829
 20
426.8896662943227
 30
0.0
 40
2.0
100
AcDbArc
 50
100.000000000005
 51
180.0
  0
ARC
  5
3542
330
2
100
AcDbEntity
  8
0
100
AcDbCircle
 10
1205.882594473827
 20
437.7492403360135
 30
0.0
 40
8.0
100
AcDbArc
 50
280.000000000005
 51
0.0
  0
ARC
  5
3543
330
2
100
AcDbEntity
  8
0
100
AcDbCircle
 10
1205.882594473829
 20
332.3864907773403
 30
0.0
 40
8.0
100
AcDbArc
 50
0.0
 51
79.99999999999499
  0
LINE
  5
36C1
330
2
100
AcDbEntity
  8
0
100
AcDbLine
 10
907.5946935603218
 20
445.0678655566772
 30
0.0
 11
907.5946935603218
 21
325.0678655566772
 31
0.0
  0
LINE
  5
36C2
330
2
100
AcDbEntity
  8
0
100
AcDbLine
 10
922.6419974560133
 20
385.0678655566771
 30
0.0
 11
921.628994424401
 21
327.0329607438022
 31
0.0
  0
LINE
  5
36C3
330
2
100
AcDbEntity
  8
0
100
AcDbLine
 10
979.0600880865543
 20
325.0678655566775
 30
0.0
 11
992.0946935603254
 21
325.0678655566773
 31
0.0
  0
ARC
  5
36C4
330
2
100
AcDbEntity
  8
0
100
AcDbCircle
 10
979.0600880865543
 20
327.0678655566776
 30
0.0
 40
2.0
100
AcDbArc
 50
181.0000000001451
 51
270.0
  0
LINE
  5
36C5
330
2
100
AcDbEntity
  8
0
100
AcDbLine
 10
929.3117573996052
 20
437.5678655566769
 30
0.0
 11
963.0248733006126
 21
437.5678655566767
 31
0.0
  0
LINE
  5
36C6
330
2
100
AcDbEntity
  8
0
100
AcDbLine
 10
907.5946935603209
 20
445.0678655566774
 30
0.0
 11
919.6292990340865
 21
445.0678655566769
 31
0.0
  0
ARC
  5
36C7
330
2
100
AcDbEntity
  8
0
100
AcDbCircle
 10
919.6292990340865
 20
443.067865556677
 30
0.0
 40
2.0
100
AcDbArc
 50
1.000000000001761
 51
90.0
  0
ARC
  5
36C8
330
2
100
AcDbEntity
  8
0
100
AcDbCircle
 10
929.3117573996052
 20
445.5678655566769
 30
0.0
 40
8.0
100
AcDbArc
 50
194.4775121859294
 51
232.6089831347951
  0
LINE
  5
36C9
330
2
100
AcDbEntity
  8
0
100
AcDbLine
 10
907.5946935603209
 20
325.0678655566774
 30
0.0
 11
919.6292990340891
 21
325.0678655566768
 31
0.0
  0
ARC
  5
36CA
330
2
100
AcDbEntity
  8
0
100
AcDbCircle
 10
919.6292990340891
 20
327.0678655566767
 30
0.0
 40
2.0
100
AcDbArc
 50
270.0
 51
358.9999999999982
  0
ARC
  5
36CB
330
2
100
AcDbEntity
  8
0
100
AcDbCircle
 10
929.3117573996081
 20
324.5678655566774
 30
0.0
 40
8.0
100
AcDbArc
 50
127.3910168324932
 51
165.5224878140705
  0
LINE
  5
36CC
330
2
100
AcDbEntity
  8
0
100
AcDbLine
 10
929.311757399609
 20
332.5678655566774
 30
0.0
 11
972.0502942577816
 21
332.5678655566771
 31
0.0
  0
ARC
  5
36CD
330
2
100
AcDbEntity
  8
0
100
AcDbCircle
 10
972.0502942577816
 20
327.5678655566772
 30
0.0
 40
5.0
100
AcDbArc
 50
1.000000000145156
 51
90.0
  0
LINE
  5
36CE
330
2
100
AcDbEntity
  8
0
100
AcDbLine
 10
992.0946935603256
 20
325.0678655566773
 30
0.0
 11
992.0946935603263
 21
445.0678655566784
 31
0.0
  0
LINE
  5
36CF
330
2
100
AcDbEntity
  8
0
100
AcDbLine
 10
977.0603926962415
 20
327.032960743803
 30
0.0
 11
976.0473896645018
 21
385.0678655566771
 31
0.0
  0
LINE
  5
36D0
330
2
100
AcDbEntity
  8
0
100
AcDbLine
 10
992.0946935603254
 20
385.0678655566771
 30
0.0
 11
907.5946935603218
 21
385.0678655566771
 31
0.0
  0
LINE
  5
36D1
330
2
100
AcDbEntity
  8
CENTER
100
AcDbLine
 10
973.5946935603244
 20
431.8154862745267
 30
0.0
 11
973.5946935603244
 21
449.1842664228769
 31
0.0
  0
LINE
  5
36D2
330
2
100
AcDbEntity
  8
0
100
AcDbLine
 10
963.0603926962441
 20
439.6027703695522
 30
0.0
 11
963.0591741646933
 21
439.5329607438009
 31
0.0
  0
ARC
  5
36D3
330
2
100
AcDbEntity
  8
0
 48
0.5
100
AcDbCircle
 10
961.0594787743805
 20
439.5678655566761
 30
0.0
 40
2.0
100
AcDbArc
 50
270.0
 51
358.9999999999721
  0
LINE
  5
36D4
330
2
100
AcDbEntity
  8
0
100
AcDbLine
 10
976.0509035699589
 20
441.5678655566776
 30
0.0
 11
965.060088086556
 21
441.5678655566772
 31
0.0
  0
ARC
  5
36D5
330
2
100
AcDbEntity
  8
0
100
AcDbCircle
 10
965.060088086556
 20
439.5678655566771
 30
0.0
 40
2.0
100
AcDbArc
 50
90.0
 51
178.9999999999982
  0
ARC
  5
36D6
330
2
100
AcDbEntity
  8
0
100
AcDbCircle
 10
976.0509035699589
 20
442.5678655566776
 30
0.0
 40
1.0
100
AcDbArc
 50
270.0
 51
358.9999999998548
  0
LINE
  5
36D7
330
2
100
AcDbEntity
  8
0
100
AcDbLine
 10
992.0946935603263
 20
445.0678655566784
 30
0.0
 11
979.0600880865543
 21
445.0678655566776
 31
0.0
  0
LINE
  5
36D8
330
2
100
AcDbEntity
  8
0
100
AcDbLine
 10
922.3052248168954
 20
404.3615571299969
 30
0.0
 11
921.6289944244001
 21
443.1027703695516
 31
0.0
  0
LINE
  5
36D9
330
2
100
AcDbEntity
  8
0
100
AcDbLine
 10
977.0603926962442
 20
443.1027703695521
 30
0.0
 11
976.9456092784889
 21
436.5268327723136
 31
0.0
  0
ARC
  5
36DA
330
2
100
AcDbEntity
  8
0
100
AcDbCircle
 10
979.0600880865543
 20
443.0678655566776
 30
0.0
 40
2.0
100
AcDbArc
 50
90.0
 51
178.9999999999461
  0
LINE
  5
36DC
330
2
100
AcDbEntity
  8
0
100
AcDbLine
 10
921.5946935603216
 20
729.5897734496229
 30
0.0
 11
921.5946935603199
 21
845.5897734496229
 31
0.0
  0
ARC
  5
36DD
330
2
100
AcDbEntity
  8
0
100
AcDbCircle
 10
919.5946935603208
 20
729.5897734496229
 30
0.0
 40
2.0
100
AcDbArc
 50
270.0
 51
0.0
  0
ARC
  5
36DE
330
2
100
AcDbEntity
  8
0
100
AcDbCircle
 10
929.2771519258396
 20
727.0897734496229
 30
0.0
 40
8.0
100
AcDbArc
 50
90.0
 51
91.30687510196528
  0
ARC
  5
36DF
330
2
100
AcDbEntity
  8
0
100
AcDbCircle
 10
929.2771519258396
 20
727.0897734496229
 30
0.0
 40
8.0
100
AcDbArc
 50
127.3910168652191
 51
165.5224878140705
  0
ARC
  5
36E0
330
2
100
AcDbEntity
  8
0
100
AcDbCircle
 10
919.594693560319
 20
846.089773449623
 30
0.0
 40
2.0
100
AcDbArc
 50
11.53695903280536
 51
90.0
  0
ARC
  5
36E1
330
2
100
AcDbEntity
  8
0
100
AcDbCircle
 10
929.3926525314521
 20
848.089773449622
 30
0.0
 40
8.0
100
AcDbArc
 50
191.5369590328053
 51
232.6089831347808
  0
ARC
  5
36E2
330
2
100
AcDbEntity
  8
0
100
AcDbCircle
 10
929.3926525314521
 20
848.089773449622
 30
0.0
 40
8.0
100
AcDbArc
 50
267.8655323847083
 51
270.0
  0
LINE
  5
36E3
330
2
100
AcDbEntity
  8
0
100
AcDbLine
 10
907.5946935603209
 20
727.0897734496225
 30
0.0
 11
907.5946935603218
 21
848.089773449622
 31
0.0
  0
LINE
  5
36E4
330
2
100
AcDbEntity
  8
0
100
AcDbLine
 10
979.0946935603262
 20
847.589773449622
 30
0.0
 11
992.0946935603254
 21
847.5897734496227
 31
0.0
  0
ARC
  5
36E5
330
2
100
AcDbEntity
  8
0
100
AcDbCircle
 10
979.0946935603262
 20
845.589773449622
 30
0.0
 40
2.0
100
AcDbArc
 50
90.0
 51
179.9999999999869
  0
LINE
  5
36E6
330
2
100
AcDbEntity
  8
0
100
AcDbLine
 10
965.0946935603244
 20
757.0897734496225
 30
0.0
 11
975.0946935603236
 21
757.0897734496227
 31
0.0
  0
ARC
  5
36E7
330
2
100
AcDbEntity
  8
0
100
AcDbCircle
 10
965.0946935603244
 20
759.0897734496224
 30
0.0
 40
2.0
100
AcDbArc
 50
179.9999999999869
 51
270.0
  0
ARC
  5
36E8
330
2
100
AcDbEntity
  8
0
100
AcDbCircle
 10
975.0946935603236
 20
755.0897734496227
 30
0.0
 40
2.0
100
AcDbArc
 50
0.0
 51
90.0
  0
LINE
  5
36E9
330
2
100
AcDbEntity
  8
0
100
AcDbLine
 10
929.3926525314548
 20
735.0897734496229
 30
0.0
 11
972.0946935603244
 21
735.0897734496234
 31
0.0
  0
ARC
  5
36EA
330
2
100
AcDbEntity
  8
0
100
AcDbCircle
 10
972.0946935603244
 20
730.0897734496234
 30
0.0
 40
5.0
100
AcDbArc
 50
0.0
 51
90.0
  0
LINE
  5
36EB
330
2
100
AcDbEntity
  8
0
100
AcDbLine
 10
907.5946935603209
 20
727.5897734496225
 30
0.0
 11
919.5946935603208
 21
727.5897734496229
 31
0.0
  0
LINE
  5
36EC
330
2
100
AcDbEntity
  8
0
100
AcDbLine
 10
907.5946935603209
 20
727.089773449622
 30
0.0
 11
919.5946935603217
 21
727.0897734496229
 31
0.0
  0
ARC
  5
36ED
330
2
100
AcDbEntity
  8
0
100
AcDbCircle
 10
919.5946935603217
 20
729.0897734496229
 30
0.0
 40
2.0
100
AcDbArc
 50
270.0
 51
348.4630409671946
  0
ARC
  5
36EE
330
2
100
AcDbEntity
  8
0
100
AcDbCircle
 10
929.3926525314548
 20
727.0897734496229
 30
0.0
 40
8.0
100
AcDbArc
 50
90.0
 51
92.13446761530471
  0
ARC
  5
36EF
330
2
100
AcDbEntity
  8
0
100
AcDbCircle
 10
929.3926525314548
 20
727.0897734496229
 30
0.0
 40
8.0
100
AcDbArc
 50
127.3910168652191
 51
168.4630409671818
  0
LINE
  5
36F0
330
2
100
AcDbEntity
  8
0
100
AcDbLine
 10
907.5946935603218
 20
847.589773449622
 30
0.0
 11
919.5946935603199
 21
847.5897734496228
 31
0.0
  0
ARC
  5
36F1
330
2
100
AcDbEntity
  8
0
100
AcDbCircle
 10
919.5946935603199
 20
845.5897734496229
 30
0.0
 40
2.0
100
AcDbArc
 50
0.0
 51
90.0
  0
ARC
  5
36F2
330
2
100
AcDbEntity
  8
0
100
AcDbCircle
 10
929.2771519258387
 20
848.089773449622
 30
0.0
 40
8.0
100
AcDbArc
 50
194.4775121859294
 51
232.6089831347808
  0
ARC
  5
36F3
330
2
100
AcDbEntity
  8
0
100
AcDbCircle
 10
929.2771519258387
 20
848.089773449622
 30
0.0
 40
8.0
100
AcDbArc
 50
268.6931248980216
 51
270.0
  0
LINE
  5
36F4
330
2
100
AcDbEntity
  8
0
100
AcDbLine
 10
907.5946935603218
 20
848.0897734496224
 30
0.0
 11
919.594693560319
 21
848.0897734496229
 31
0.0
  0
LINE
  5
36F5
330
2
100
AcDbEntity
  8
0
100
AcDbLine
 10
929.2771519258396
 20
840.089773449622
 30
0.0
 11
972.0946935603253
 21
840.089773449622
 31
0.0
  0
ARC
  5
36F6
330
2
100
AcDbEntity
  8
0
100
AcDbCircle
 10
972.0946935603253
 20
845.0897734496219
 30
0.0
 40
5.0
100
AcDbArc
 50
270.0
 51
359.9999999999869
  0
LINE
  5
36F7
330
2
100
AcDbEntity
  8
0
100
AcDbLine
 10
977.0946935603262
 20
845.589773449622
 30
0.0
 11
977.094693560207
 21
780.4641666392108
 31
0.0
  0
ARC
  5
36F8
330
2
100
AcDbEntity
  8
0
100
AcDbCircle
 10
975.0946935603254
 20
789.5897734496225
 30
0.0
 40
2.0
100
AcDbArc
 50
270.0
 51
0.0
  0
LINE
  5
36F9
330
2
100
AcDbEntity
  8
0
100
AcDbLine
 10
977.0946935603245
 20
755.0897734496227
 30
0.0
 11
977.0946935603245
 21
729.5897734496229
 31
0.0
  0
ARC
  5
36FA
330
2
100
AcDbEntity
  8
0
100
AcDbCircle
 10
979.0946935603244
 20
729.5897734496229
 30
0.0
 40
2.0
100
AcDbArc
 50
180.0
 51
270.0
  0
LINE
  5
36FB
330
2
100
AcDbEntity
  8
0
100
AcDbLine
 10
992.0946935603252
 20
847.5897734496227
 30
0.0
 11
992.0946935603245
 21
727.5897734496225
 31
0.0
  0
LINE
  5
36FC
330
2
100
AcDbEntity
  8
0
100
AcDbLine
 10
965.0946935603263
 20
787.5897734496224
 30
0.0
 11
975.0946935603254
 21
787.5897734496224
 31
0.0
  0
LINE
  5
36FD
330
2
100
AcDbEntity
  8
0
100
AcDbLine
 10
963.0946935603262
 20
785.5897734496225
 30
0.0
 11
963.0946935603244
 21
759.0897734496224
 31
0.0
  0
ARC
  5
36FE
330
2
100
AcDbEntity
  8
0
100
AcDbCircle
 10
965.0946935603263
 20
785.5897734496225
 30
0.0
 40
2.0
100
AcDbArc
 50
90.0
 51
180.0
  0
LINE
  5
36FF
330
2
100
AcDbEntity
  8
CENTER
100
AcDbLine
 10
959.8446935603272
 20
767.5897734496224
 30
0.0
 11
987.3446935603263
 21
767.5897734496224
 31
0.0
  0
LINE
  5
3700
330
2
100
AcDbEntity
  8
CENTER
100
AcDbLine
 10
973.5946935603253
 20
753.8397734496225
 30
0.0
 11
973.5946935603271
 21
781.3397734496224
 31
0.0
  0
LINE
  5
3701
330
2
100
AcDbEntity
  8
0
100
AcDbLine
 10
979.0946935603244
 20
727.5897734496229
 30
0.0
 11
992.0946935603245
 21
727.5897734496225
 31
0.0
  0
ARC
  5
3702
330
2
100
AcDbEntity
  8
0
100
AcDbCircle
 10
973.5946935603271
 20
767.5897734496224
 30
0.0
 40
12.0
100
AcDbArc
 50
293.1323963992815
 51
66.86760360071845
  0
ARC
  5
3703
330
2
100
AcDbEntity
  8
0
100
AcDbCircle
 10
979.0946935603244
 20
780.4641666392072
 30
0.0
 40
2.0
100
AcDbArc
 50
180.0
 51
246.8676036007184
  0
ARC
  5
3704
330
2
100
AcDbEntity
  8
0
100
AcDbCircle
 10
979.0946935603244
 20
754.7153802600377
 30
0.0
 40
2.0
100
AcDbArc
 50
113.1323963992815
 51
179.9999999999869
  0
LINE
  5
3707
330
2
100
AcDbEntity
  8
0
100
AcDbLine
 10
1335.966555776426
 20
325.0678655566772
 30
0.0
 11
1235.798632908535
 21
325.0678655566772
 31
0.0
  0
ARC
  5
3708
330
2
100
AcDbEntity
  8
0
100
AcDbCircle
 10
1335.737107656961
 20
335.0678655566772
 30
0.0
 40
10.0
100
AcDbArc
 50
270.0
 51
359.833333340008
  0
LINE
  5
3709
330
2
100
AcDbEntity
  8
HIDS
  6
SEKKEI_H
100
AcDbLine
 10
1255.348293602555
 20
439.60277036142
 30
0.0
 11
1255.181645440318
 21
430.0555035411462
 31
0.0
  0
LINE
  5
370A
330
2
100
AcDbEntity
  8
HIDS
  6
SEKKEI_H
100
AcDbLine
 10
1285.916895337913
 20
439.6027703614255
 30
0.0
 11
1285.918777842541
 21
439.4949217434906
 31
0.0
  0
LINE
  5
370B
330
2
100
AcDbEntity
  8
0
100
AcDbLine
 10
1335.737107656966
 20
445.0678655566772
 30
0.0
 11
1272.819086132237
 21
445.0678655566772
 31
0.0
  0
LINE
  5
370C
330
2
100
AcDbEntity
  8
0
100
AcDbLine
 10
1265.88259447383
 20
445.0678655566772
 30
0.0
 11
1235.798553257173
 21
445.0678655566772
 31
0.0
  0
ARC
  5
370D
330
2
100
AcDbEntity
  8
0
100
AcDbCircle
 10
1236.028081290697
 20
435.0678655566772
 30
0.0
 40
10.0
100
AcDbArc
 50
90.0
 51
179.833333340008
  0
CIRCLE
  5
370E
330
2
100
AcDbEntity
  8
HIDS
  6
SEKKEI_H
100
AcDbCircle
 10
1285.88259445837
 20
385.0678655412195
 30
0.0
 40
52.49999999999999
  0
ARC
  5
370F
330
2
100
AcDbEntity
  8
HIDS
  6
SEKKEI_H
100
AcDbCircle
 10
1287.918473232853
 20
439.5298265563679
 30
0.0
 40
2.0
100
AcDbArc
 50
181.0000000001059
 51
267.8591851844463
  0
ARC
  5
3710
330
2
100
AcDbEntity
  8
HIDS
  6
SEKKEI_H
100
AcDbCircle
 10
1250.182406964536
 20
430.1427655733333
 30
0.0
 40
5.0
100
AcDbArc
 50
308.3799009022199
 51
358.9999999999982
  0
LINE
  5
3711
330
2
100
AcDbEntity
  8
0
100
AcDbLine
 10
1335.96663574022
 20
445.0678655566772
 30
0.0
 11
1235.798553248223
 21
445.0678655566763
 31
0.0
  0
LINE
  5
3712
330
2
100
AcDbEntity
  8
0
100
AcDbLine
 10
1225.882594473835
 20
385.0678655566763
 30
0.0
 11
1226.028123598638
 21
435.0969543353559
 31
0.0
  0
LINE
  5
3713
330
2
100
AcDbEntity
  8
0
100
AcDbLine
 10
1345.882594473825
 20
385.0678655566763
 30
0.0
 11
1345.737065349024
 21
435.0969543353559
 31
0.0
  0
ARC
  5
3714
330
2
100
AcDbEntity
  8
0
100
AcDbCircle
 10
1335.737107656966
 20
435.0678655566772
 30
0.0
 40
10.0
100
AcDbArc
 50
0.1666666599919667
 51
90.0
  0
LINE
  5
3715
330
2
100
AcDbEntity
  8
0
100
AcDbLine
 10
1225.882594473835
 20
385.0678655566772
 30
0.0
 11
1226.028123598638
 21
335.0387767779976
 31
0.0
  0
ARC
  5
3716
330
2
100
AcDbEntity
  8
0
100
AcDbCircle
 10
1236.028081290696
 20
335.0678655566772
 30
0.0
 40
10.0
100
AcDbArc
 50
180.1666666599919
 51
270.0
  0
LINE
  5
3717
330
2
100
AcDbEntity
  8
0
100
AcDbLine
 10
1345.882594473825
 20
385.0678655566772
 30
0.0
 11
1345.737065349019
 21
335.0387767779976
 31
0.0
  0
ARC
  5
3718
330
2
100
AcDbEntity
  8
HIDS
  6
SEKKEI_H
100
AcDbCircle
 10
1257.347988992865
 20
439.5678655485454
 30
0.0
 40
2.0
100
AcDbArc
 50
89.99999999994789
 51
178.9999999999721
  0
LINE
  5
3719
330
2
100
AcDbEntity
  8
HIDS
  6
SEKKEI_H
100
AcDbLine
 10
1255.035291736939
 20
441.5678655485463
 30
0.0
 11
1283.917199947603
 21
441.5678655485463
 31
0.0
  0
ARC
  5
371A
330
2
100
AcDbEntity
  8
HIDS
  6
SEKKEI_H
100
AcDbCircle
 10
1283.917199947603
 20
439.5678655485482
 30
0.0
 40
2.0
100
AcDbArc
 50
1.000000000053863
 51
90.00000000005213
  0
ARC
  5
371B
330
2
100
AcDbEntity
  8
HIDS
  6
SEKKEI_H
100
AcDbCircle
 10
1279.739081727458
 20
443.0678655566835
 30
0.0
 40
2.0
100
AcDbArc
 50
90.0
 51
178.99999999992
  0
ARC
  5
371C
330
2
100
AcDbEntity
  8
HIDS
  6
SEKKEI_H
100
AcDbCircle
 10
1252.026107220202
 20
443.0678655566835
 30
0.0
 40
2.0
100
AcDbArc
 50
1.000000000079915
 51
90.0
  0
ARC
  5
371D
330
2
100
AcDbEntity
  8
HIDS
  6
SEKKEI_H
100
AcDbCircle
 10
1255.035291736939
 20
442.5678655485463
 30
0.0
 40
1.000000000000001
100
AcDbArc
 50
181.0000000000017
 51
270.0
  0
LINE
  5
371E
330
2
100
AcDbEntity
  8
HIDS
  6
SEKKEI_H
100
AcDbLine
 10
1254.025802610516
 20
443.1027703695609
 30
0.0
 11
1254.035444041784
 21
442.5504131421076
 31
0.0
  0
ARC
  5
371F
330
2
100
AcDbEntity
  8
HIDS
  6
SEKKEI_H
100
AcDbCircle
 10
1276.729897210721
 20
442.5678655485463
 30
0.0
 40
1.000000000000001
100
AcDbArc
 50
270.0
 51
358.9999999999982
  0
LINE
  5
3720
330
2
100
AcDbEntity
  8
HIDS
  6
SEKKEI_H
100
AcDbLine
 10
1277.739386337148
 20
443.1027703695609
 30
0.0
 11
1277.729744905876
 21
442.5504131421076
 31
0.0
  0
CIRCLE
  5
3721
330
2
100
AcDbEntity
  8
0
100
AcDbCircle
 10
1285.882594473829
 20
385.0678655566772
 30
0.0
 40
40.99999999186798
  0
CIRCLE
  5
3722
330
2
100
AcDbEntity
  8
0
100
AcDbCircle
 10
1285.882594473829
 20
385.0678655566772
 30
0.0
 40
54.99999999186821
  0
CIRCLE
  5
3723
330
2
100
AcDbEntity
  8
HOJO
100
AcDbCircle
 10
1234.617352837804
 20
436.3331071927019
 30
0.0
 40
4.0
  0
CIRCLE
  5
3724
330
2
100
AcDbEntity
  8
0
100
AcDbCircle
 10
1234.617352837804
 20
436.3331071927019
 30
0.0
 40
3.399999999999999
  0
LINE
  5
3725
330
2
100
AcDbEntity
  8
CENTER
100
AcDbLine
 10
1234.617352837804
 20
443.999588273295
 30
0.0
 11
1234.617352837804
 21
428.6666261121089
 31
0.0
  0
LINE
  5
3726
330
2
100
AcDbEntity
  8
CENTER
100
AcDbLine
 10
1226.950871757211
 20
436.3331071927019
 30
0.0
 11
1242.283833918397
 21
436.3331071927019
 31
0.0
  0
CIRCLE
  5
3727
330
2
100
AcDbEntity
  8
HOJO
100
AcDbCircle
 10
1337.147836109853
 20
436.3331071927031
 30
0.0
 40
4.0
  0
CIRCLE
  5
3728
330
2
100
AcDbEntity
  8
0
100
AcDbCircle
 10
1337.147836109853
 20
436.3331071927031
 30
0.0
 40
3.399999999999999
  0
CIRCLE
  5
3729
330
2
100
AcDbEntity
  8
HOJO
100
AcDbCircle
 10
1234.617352837804
 20
333.8026239206525
 30
0.0
 40
4.0
  0
CIRCLE
  5
372A
330
2
100
AcDbEntity
  8
0
100
AcDbCircle
 10
1234.617352837804
 20
333.8026239206525
 30
0.0
 40
3.399999999999999
  0
CIRCLE
  5
372B
330
2
100
AcDbEntity
  8
HOJO
100
AcDbCircle
 10
1337.147836109853
 20
333.8026239206513
 30
0.0
 40
4.0
  0
CIRCLE
  5
372C
330
2
100
AcDbEntity
  8
0
100
AcDbCircle
 10
1337.147836109853
 20
333.8026239206513
 30
0.0
 40
3.399999999999999
  0
CIRCLE
  5
372D
330
2
100
AcDbEntity
  8
0
100
AcDbCircle
 10
1285.882594473829
 20
385.0678655566772
 30
0.0
 40
40.49999999186735
  0
LINE
  5
372E
330
2
100
AcDbEntity
  8
HIDS
  6
SEKKEI_H
100
AcDbLine
 10
1271.324132116427
 20
423.3960689277463
 30
0.0
 11
1271.641322006296
 21
441.5678655485464
 31
0.0
  0
LINE
  5
372F
330
2
100
AcDbEntity
  8
HIDS
  6
SEKKEI_H
100
AcDbLine
 10
1260.547405168424
 20
417.3033767709704
 30
0.0
 11
1260.123866941364
 21
441.5678655485463
 31
0.0
  0
ARC
  5
3730
330
2
100
AcDbEntity
  8
0
100
AcDbCircle
 10
1285.882594442906
 20
385.0678655566708
 30
0.0
 40
59.50000000732598
100
AcDbArc
 50
300.4819941566239
 51
306.5033059355235
  0
ARC
  5
3731
330
2
100
AcDbEntity
  8
0
100
AcDbCircle
 10
1317.079549463109
 20
332.0678655721286
 30
0.0
 40
2.0
100
AcDbArc
 50
120.4819941566238
 51
270.0
  0
LINE
  5
3732
330
2
100
AcDbEntity
  8
0
100
AcDbLine
 10
1247.024576708219
 20
330.0678655721286
 30
0.0
 11
1254.685639453622
 21
330.0678655721286
 31
0.0
  0
LINE
  5
3733
330
2
100
AcDbEntity
  8
0
100
AcDbLine
 10
1230.973830384992
 20
353.7106237806188
 30
0.0
 11
1230.995346401592
 21
346.313982687996
 31
0.0
  0
LINE
  5
3734
330
2
100
AcDbEntity
  8
0
100
AcDbLine
 10
1324.740612177593
 20
330.0678655721286
 30
0.0
 11
1317.079549463109
 21
330.0678655721286
 31
0.0
  0
LINE
  5
3735
330
2
100
AcDbEntity
  8
0
100
AcDbLine
 10
1230.973830384992
 20
416.4251073636357
 30
0.0
 11
1230.995346401501
 21
423.821748425433
 31
0.0
  0
LINE
  5
3736
330
2
100
AcDbEntity
  8
0
100
AcDbLine
 10
1324.740612208221
 20
440.0678655721286
 30
0.0
 11
1317.079549463109
 21
440.0678655721286
 31
0.0
  0
ARC
  5
3737
330
2
100
AcDbEntity
  8
0
100
AcDbCircle
 10
1285.882594473825
 20
385.0678655566708
 30
0.0
 40
59.50000000732598
100
AcDbArc
 50
233.4966940363409
 51
239.5180058433761
  0
ARC
  5
3738
330
2
100
AcDbEntity
  8
0
100
AcDbCircle
 10
1254.685639453622
 20
332.0678655721286
 30
0.0
 40
2.0
100
AcDbArc
 50
270.0
 51
59.51800584337612
  0
ARC
  5
3739
330
2
100
AcDbEntity
  8
0
100
AcDbCircle
 10
1285.882594473825
 20
385.0678655566708
 30
0.0
 40
59.50000000732598
100
AcDbArc
 50
210.6491269688235
 51
216.5033059251364
  0
ARC
  5
373A
330
2
100
AcDbEntity
  8
0
100
AcDbCircle
 10
1236.447508354267
 20
348.4834117374201
 30
0.0
 40
2.0
100
AcDbArc
 50
290.3231475420369
 51
36.5033059251365
  0
ARC
  5
373B
330
2
100
AcDbEntity
  8
0
100
AcDbCircle
 10
1232.973821923402
 20
353.716441536355
 30
0.0
 40
2.0
100
AcDbArc
 50
30.64912696882352
 51
180.166666660018
  0
ARC
  5
373C
330
2
100
AcDbEntity
  8
0
100
AcDbCircle
 10
1285.882594442906
 20
385.0678655875864
 30
0.0
 40
59.50000000732598
100
AcDbArc
 50
53.49669405403984
 51
59.51800584337612
  0
ARC
  5
373D
330
2
100
AcDbEntity
  8
0
100
AcDbCircle
 10
1317.079549463109
 20
438.0678655721286
 30
0.0
 40
2.0
100
AcDbArc
 50
90.0
 51
239.5180058433761
  0
ARC
  5
373E
330
2
100
AcDbEntity
  8
0
100
AcDbCircle
 10
1285.882594473825
 20
385.0678655875864
 30
0.0
 40
59.50000000732598
100
AcDbArc
 50
143.4966941029827
 51
149.3508730311764
  0
ARC
  5
373F
330
2
100
AcDbEntity
  8
0
100
AcDbCircle
 10
1232.9738219234
 20
416.4192896078994
 30
0.0
 40
2.0
100
AcDbArc
 50
179.8333333399819
 51
329.3508730311764
  0
ARC
  5
3740
330
2
100
AcDbEntity
  8
0
100
AcDbCircle
 10
1239.92065366578
 20
339.1059247795455
 30
0.0
 40
8.0
100
AcDbArc
 50
315.266843248591
 51
339.6768524193829
  0
ARC
  5
3741
330
2
100
AcDbEntity
  8
0
100
AcDbCircle
 10
1247.024576708219
 20
332.0678655721286
 30
0.0
 40
2.0
100
AcDbArc
 50
135.266843248591
 51
270.0
  0
ARC
  5
3742
330
2
100
AcDbEntity
  8
0
100
AcDbCircle
 10
1249.298140621318
 20
335.6327794617233
 30
0.0
 40
2.0
100
AcDbArc
 50
53.49669403634091
 51
159.6768524193828
  0
ARC
  5
3743
330
2
100
AcDbEntity
  8
0
100
AcDbCircle
 10
1239.92065366578
 20
339.1059247795455
 30
0.0
 40
8.0
100
AcDbArc
 50
110.3231475420369
 51
133.8308403702429
  0
ARC
  5
3744
330
2
100
AcDbEntity
  8
0
100
AcDbCircle
 10
1232.995337940005
 20
346.3198004437318
 30
0.0
 40
2.0
100
AcDbArc
 50
180.1666666599919
 51
313.830840370243
  0
ARC
  5
3745
330
2
100
AcDbEntity
  8
0
100
AcDbCircle
 10
1239.92065366578
 20
431.0298063337962
 30
0.0
 40
8.0
100
AcDbArc
 50
226.169159629036
 51
249.6768523482129
  0
ARC
  5
3746
330
2
100
AcDbEntity
  8
0
100
AcDbCircle
 10
1236.447508336309
 20
421.6523193825723
 30
0.0
 40
2.0
100
AcDbArc
 50
323.4966941029997
 51
69.676852348213
  0
ARC
  5
3747
330
2
100
AcDbEntity
  8
0
100
AcDbCircle
 10
1232.995337939914
 20
423.8159306696978
 30
0.0
 40
2.0
100
AcDbArc
 50
46.16915962903604
 51
179.833333340008
  0
ARC
  5
3748
330
2
100
AcDbEntity
  8
0
100
AcDbCircle
 10
1331.844535220032
 20
431.0298063337967
 30
0.0
 40
8.0
100
AcDbArc
 50
135.266842999223
 51
159.676852161415
  0
ARC
  5
3749
330
2
100
AcDbEntity
  8
0
100
AcDbCircle
 10
1324.740612208221
 20
438.0678655721286
 30
0.0
 40
2.0
100
AcDbArc
 50
315.266842999223
 51
90.0
  0
ARC
  5
374A
330
2
100
AcDbEntity
  8
0
100
AcDbCircle
 10
1322.467048280132
 20
434.5029516938425
 30
0.0
 40
2.0
100
AcDbArc
 50
233.4966940540398
 51
339.676852161415
  0
ARC
  5
374B
330
2
100
AcDbEntity
  8
0
100
AcDbCircle
 10
1331.844535220032
 20
339.1059247795447
 30
0.0
 40
8.0
100
AcDbArc
 50
200.3231476903412
 51
224.7331567514089
  0
ARC
  5
374C
330
2
100
AcDbEntity
  8
0
100
AcDbCircle
 10
1324.740612177593
 20
332.0678655721286
 30
0.0
 40
2.0
100
AcDbArc
 50
270.0
 51
44.73315675140893
  0
ARC
  5
374D
330
2
100
AcDbEntity
  8
0
100
AcDbCircle
 10
1322.467048271146
 20
335.6327794437638
 30
0.0
 40
2.0
100
AcDbArc
 50
20.32314769032371
 51
126.5033059355235
  0
CIRCLE
  5
374E
330
2
100
AcDbEntity
  8
CENTER
100
AcDbCircle
 10
1285.882594513496
 20
385.0678655701128
 30
0.0
 40
72.50000001854868
  0
LINE
  5
3771
330
2
100
AcDbEntity
  8
0
100
AcDbLine
 10
62.30593473483191
 20
445.0678655566774
 30
0.0
 11
62.30593473483191
 21
325.0678655566773
 31
0.0
  0
LINE
  5
3772
330
2
100
AcDbEntity
  8
0
100
AcDbLine
 10
47.25863083914032
 20
385.0678655566773
 30
0.0
 11
48.27163387075256
 21
327.0329607438024
 31
0.0
  0
LINE
  5
3773
330
2
100
AcDbEntity
  8
0
100
AcDbLine
 10
-9.159459791400649
 20
325.0678655566777
 30
0.0
 11
-22.19406526517173
 21
325.0678655566774
 31
0.0
  0
ARC
  5
3774
330
2
100
AcDbEntity
  8
0
100
AcDbCircle
 10
-9.159459791400649
 20
327.0678655566778
 30
0.0
 40
2.0
100
AcDbArc
 50
270.0
 51
358.9999999998549
  0
LINE
  5
3775
330
2
100
AcDbEntity
  8
0
100
AcDbLine
 10
40.58887089554832
 20
437.5678655566771
 30
0.0
 11
-2.149665962630706
 21
437.567865556677
 31
0.0
  0
ARC
  5
3776
330
2
100
AcDbEntity
  8
0
100
AcDbCircle
 10
-2.149665962630706
 20
442.567865556677
 30
0.0
 40
5.0
100
AcDbArc
 50
181.0000000000538
 51
270.0
  0
LINE
  5
3777
330
2
100
AcDbEntity
  8
0
100
AcDbLine
 10
62.30593473483281
 20
445.0678655566775
 30
0.0
 11
50.2713292610672
 21
445.0678655566771
 31
0.0
  0
ARC
  5
3778
330
2
100
AcDbEntity
  8
0
100
AcDbCircle
 10
50.2713292610672
 20
443.0678655566771
 30
0.0
 40
2.0
100
AcDbArc
 50
90.0
 51
178.9999999999982
  0
ARC
  5
3779
330
2
100
AcDbEntity
  8
0
100
AcDbCircle
 10
40.58887089554832
 20
445.5678655566771
 30
0.0
 40
8.0
100
AcDbArc
 50
307.3910168652191
 51
345.5224878140705
  0
LINE
  5
377A
330
2
100
AcDbEntity
  8
0
100
AcDbLine
 10
62.30593473483281
 20
325.0678655566776
 30
0.0
 11
50.27132926106446
 21
325.067865556677
 31
0.0
  0
ARC
  5
377B
330
2
100
AcDbEntity
  8
0
100
AcDbCircle
 10
50.27132926106446
 20
327.0678655566769
 30
0.0
 40
2.0
100
AcDbArc
 50
181.0000000000017
 51
270.0
  0
ARC
  5
377C
330
2
100
AcDbEntity
  8
0
100
AcDbCircle
 10
40.58887089554559
 20
324.5678655566775
 30
0.0
 40
8.0
100
AcDbArc
 50
14.47751218592945
 51
52.60898316750672
  0
LINE
  5
377D
330
2
100
AcDbEntity
  8
0
100
AcDbLine
 10
40.58887089554469
 20
332.5678655566775
 30
0.0
 11
-2.149665962627977
 21
332.5678655566773
 31
0.0
  0
ARC
  5
377E
330
2
100
AcDbEntity
  8
0
100
AcDbCircle
 10
-2.149665962627977
 20
327.5678655566773
 30
0.0
 40
5.0
100
AcDbArc
 50
90.0
 51
178.9999999998419
  0
LINE
  5
377F
330
2
100
AcDbEntity
  8
0
100
AcDbLine
 10
-22.19406526517173
 20
325.0678655566774
 30
0.0
 11
-22.19406526517264
 21
445.0678655566782
 31
0.0
  0
LINE
  5
3780
330
2
100
AcDbEntity
  8
0
100
AcDbLine
 10
-7.159764401087841
 20
327.0329607438032
 30
0.0
 11
-6.146761369348268
 21
385.0678655566773
 31
0.0
  0
LINE
  5
3781
330
2
100
AcDbEntity
  8
0
100
AcDbLine
 10
-22.19406526517173
 20
385.0678655566773
 30
0.0
 11
62.30593473483191
 21
385.0678655566773
 31
0.0
  0
LINE
  5
3782
330
2
100
AcDbEntity
  8
CENTER
100
AcDbLine
 10
-3.69406526517082
 20
431.8154862745269
 30
0.0
 11
-3.69406526517082
 21
449.1842664228771
 31
0.0
  0
LINE
  5
3783
330
2
100
AcDbEntity
  8
0
100
AcDbLine
 10
6.84023559890943
 20
439.6027703695524
 30
0.0
 11
6.841454130460306
 21
439.5329607438011
 31
0.0
  0
ARC
  5
3784
330
2
100
AcDbEntity
  8
0
 48
0.5
100
AcDbCircle
 10
8.841149520773115
 20
439.5678655566763
 30
0.0
 40
2.0
100
AcDbArc
 50
181.0000000000148
 51
270.0
  0
LINE
  5
3785
330
2
100
AcDbEntity
  8
0
100
AcDbLine
 10
-6.15027527480538
 20
441.5678655566778
 30
0.0
 11
4.840540208597531
 21
441.5678655566773
 31
0.0
  0
ARC
  5
3786
330
2
100
AcDbEntity
  8
0
100
AcDbCircle
 10
4.840540208597531
 20
439.5678655566773
 30
0.0
 40
2.0
100
AcDbArc
 50
1.000000000001761
 51
90.0
  0
ARC
  5
3787
330
2
100
AcDbEntity
  8
0
100
AcDbCircle
 10
-6.15027527480538
 20
442.5678655566778
 30
0.0
 40
1.0
100
AcDbArc
 50
181.000000000132
 51
270.0
  0
LINE
  5
3788
330
2
100
AcDbEntity
  8
0
100
AcDbLine
 10
-22.19406526517264
 20
445.0678655566784
 30
0.0
 11
-9.159459791400649
 21
445.0678655566778
 31
0.0
  0
LINE
  5
3789
330
2
100
AcDbEntity
  8
0
100
AcDbLine
 10
47.25863083914032
 20
385.0678655566773
 30
0.0
 11
48.27163387075348
 21
443.1027703695518
 31
0.0
  0
LINE
  5
378A
330
2
100
AcDbEntity
  8
0
100
AcDbLine
 10
-7.159764401090569
 20
443.1027703695523
 30
0.0
 11
-6.146761369200021
 21
385.0678655566773
 31
0.0
  0
ARC
  5
378B
330
2
100
AcDbEntity
  8
0
100
AcDbCircle
 10
-9.159459791400649
 20
443.0678655566778
 30
0.0
 40
2.0
100
AcDbArc
 50
1.000000000053863
 51
90.0
  0
LINE
  5
378D
330
2
100
AcDbEntity
  8
0
100
AcDbLine
 10
978.5946935603245
 20
445.5678655566772
 30
0.0
 11
968.5946935603244
 21
445.5678655566772
 31
0.0
  0
ARC
  5
378E
330
2
100
AcDbEntity
  8
0
100
AcDbCircle
 10
968.5946935603244
 20
441.5678655566772
 30
0.0
 40
4.0
100
AcDbArc
 50
90.0
 51
180.0
  0
ARC
  5
378F
330
2
100
AcDbEntity
  8
0
100
AcDbCircle
 10
978.5946935603245
 20
441.5678655566772
 30
0.0
 40
4.0
100
AcDbArc
 50
61.04497562815389
 51
90.0
  0
LINE
  5
3790
330
2
100
AcDbEntity
  8
0
100
AcDbLine
 10
1.305934734829179
 20
445.5678655566774
 30
0.0
 11
-8.69406526517082
 21
445.5678655566774
 31
0.0
  0
ARC
  5
3791
330
2
100
AcDbEntity
  8
0
100
AcDbCircle
 10
-8.69406526517082
 20
441.5678655566773
 30
0.0
 40
4.0
100
AcDbArc
 50
90.0
 51
118.9550243718315
  0
ARC
  5
3792
330
2
100
AcDbEntity
  8
0
100
AcDbCircle
 10
1.305934734829179
 20
441.5678655566773
 30
0.0
 40
4.0
100
AcDbArc
 50
0.0
 51
90.0
  0
LINE
  5
3793
330
2
100
AcDbEntity
  8
0
100
AcDbLine
 10
1270.88259447383
 20
445.5678655485461
 30
0.0
 11
1260.88259447383
 21
445.5678655485461
 31
0.0
  0
ARC
  5
3794
330
2
100
AcDbEntity
  8
HIDS
  6
SEKKEI_H
100
AcDbCircle
 10
1260.88259447383
 20
441.5678655485461
 30
0.0
 40
4.0
100
AcDbArc
 50
118.9550241313059
 51
180.0
  0
ARC
  5
3795
330
2
100
AcDbEntity
  8
HIDS
  6
SEKKEI_H
100
AcDbCircle
 10
1270.88259447383
 20
441.5678655485461
 30
0.0
 40
4.0
100
AcDbArc
 50
0.0
 51
61.04497586870856
  0
LINE
  5
3799
330
2
100
AcDbEntity
  8
0
100
AcDbLine
 10
4.840540208597531
 20
441.5678655566773
 30
0.0
 11
5.305934734829179
 21
441.5678655566773
 31
0.0
  0
LINE
  5
379A
330
2
100
AcDbEntity
  8
0
100
AcDbLine
 10
965.060088086556
 20
441.5678655566772
 30
0.0
 11
964.5946935603245
 21
441.5678655566772
 31
0.0
  0
ARC
  5
379B
330
2
100
AcDbEntity
  8
0
100
AcDbCircle
 10
1260.88259447383
 20
441.5678655485461
 30
0.0
 40
3.999999999999957
100
AcDbArc
 50
90.0
 51
118.9550241313059
  0
ARC
  5
379C
330
2
100
AcDbEntity
  8
0
100
AcDbCircle
 10
1270.88259447383
 20
441.5678655485461
 30
0.0
 40
3.999999999999991
100
AcDbArc
 50
61.04497586870856
 51
90.0
  0
LINE
  5
379D
330
2
100
AcDbEntity
  8
0
100
AcDbLine
 10
48.01607455280282
 20
439.9617868497837
 30
0.0
 11
46.51607455280236
 21
439.9617868497837
 31
0.0
  0
LINE
  5
379E
330
2
100
AcDbEntity
  8
0
100
AcDbLine
 10
48.01607455280259
 20
428.4617868497837
 30
0.0
 11
46.51607455280191
 21
428.4617868497837
 31
0.0
  0
LINE
  5
379F
330
2
100
AcDbEntity
  8
0
100
AcDbLine
 10
40.91607455280246
 20
439.2117868497841
 30
0.0
 11
40.51607455280282
 21
438.5189665267569
 31
0.0
  0
LINE
  5
37A0
330
2
100
AcDbEntity
  8
0
100
AcDbLine
 10
46.51607455280236
 20
439.9617868497837
 30
0.0
 11
46.51607455280191
 21
428.4617868497837
 31
0.0
  0
LINE
  5
37A1
330
2
100
AcDbEntity
  8
0
100
AcDbLine
 10
40.91607455280246
 20
439.2117868497841
 30
0.0
 11
40.91607455280223
 21
429.2117868497841
 31
0.0
  0
LINE
  5
37A2
330
2
100
AcDbEntity
  8
0
100
AcDbLine
 10
46.51607455280236
 20
439.2117868497837
 30
0.0
 11
40.91607455280246
 21
439.2117868497841
 31
0.0
  0
LINE
  5
37A3
330
2
100
AcDbEntity
  8
0
100
AcDbLine
 10
46.51607455280191
 20
429.2117868497837
 30
0.0
 11
40.91607455280223
 21
429.2117868497841
 31
0.0
  0
LINE
  5
37A4
330
2
100
AcDbEntity
  8
0
100
AcDbLine
 10
40.91607455280223
 20
429.2117868497841
 30
0.0
 11
40.51607455280259
 21
429.9046071728114
 31
0.0
  0
LINE
  5
37A5
330
2
100
AcDbEntity
  8
0
100
AcDbLine
 10
40.51607455280282
 20
438.5189665267569
 30
0.0
 11
40.51607455280259
 21
429.9046071728114
 31
0.0
  0
LINE
  5
37A6
330
2
100
AcDbEntity
  8
0
 48
12.0
100
AcDbLine
 10
48.01607455280259
 20
428.4617868497837
 30
0.0
 11
48.01607455280282
 21
439.9617868497837
 31
0.0
  0
LINE
  5
37A7
330
2
100
AcDbEntity
  8
0
100
AcDbLine
 10
921.5946935603199
 20
830.9836947427296
 30
0.0
 11
923.0946935603206
 21
830.9836947427296
 31
0.0
  0
LINE
  5
37A8
330
2
100
AcDbEntity
  8
0
100
AcDbLine
 10
921.59469356032
 20
842.4836947427294
 30
0.0
 11
923.0946935603208
 21
842.4836947427294
 31
0.0
  0
LINE
  5
37A9
330
2
100
AcDbEntity
  8
0
100
AcDbLine
 10
928.6946935603202
 20
831.7336947427294
 30
0.0
 11
929.09469356032
 21
832.4265150657568
 31
0.0
  0
LINE
  5
37AA
330
2
100
AcDbEntity
  8
0
100
AcDbLine
 10
923.0946935603206
 20
830.9836947427296
 30
0.0
 11
923.0946935603208
 21
842.4836947427294
 31
0.0
  0
LINE
  5
37AB
330
2
100
AcDbEntity
  8
0
100
AcDbLine
 10
928.6946935603202
 20
831.7336947427294
 30
0.0
 11
928.6946935603205
 21
841.7336947427296
 31
0.0
  0
LINE
  5
37AC
330
2
100
AcDbEntity
  8
0
100
AcDbLine
 10
923.0946935603206
 20
831.7336947427294
 30
0.0
 11
928.6946935603202
 21
831.7336947427294
 31
0.0
  0
LINE
  5
37AD
330
2
100
AcDbEntity
  8
0
100
AcDbLine
 10
923.0946935603208
 20
841.7336947427296
 30
0.0
 11
928.6946935603205
 21
841.7336947427296
 31
0.0
  0
LINE
  5
37AE
330
2
100
AcDbEntity
  8
0
100
AcDbLine
 10
928.6946935603205
 20
841.7336947427296
 30
0.0
 11
929.0946935603201
 21
841.0408744197022
 31
0.0
  0
LINE
  5
37AF
330
2
100
AcDbEntity
  8
0
100
AcDbLine
 10
929.09469356032
 20
832.4265150657568
 30
0.0
 11
929.0946935603201
 21
841.0408744197022
 31
0.0
  0
LINE
  5
37B0
330
2
100
AcDbEntity
  8
0
 48
12.0
100
AcDbLine
 10
921.59469356032
 20
842.4836947427294
 30
0.0
 11
921.5946935603199
 21
830.9836947427296
 31
0.0
  0
LINE
  5
37B1
330
2
100
AcDbEntity
  8
0
100
AcDbLine
 10
921.8845537424002
 20
330.1739442663448
 30
0.0
 11
923.3845537424006
 21
330.1739442663448
 31
0.0
  0
LINE
  5
37B2
330
2
100
AcDbEntity
  8
0
100
AcDbLine
 10
921.8845537424002
 20
341.6739442663447
 30
0.0
 11
923.3845537424008
 21
341.6739442663447
 31
0.0
  0
LINE
  5
37B3
330
2
100
AcDbEntity
  8
0
100
AcDbLine
 10
928.9845537424005
 20
330.9239442663445
 30
0.0
 11
929.3845537424001
 21
331.6167645893718
 31
0.0
  0
LINE
  5
37B4
330
2
100
AcDbEntity
  8
0
100
AcDbLine
 10
923.3845537424006
 20
330.1739442663448
 30
0.0
 11
923.3845537424008
 21
341.6739442663447
 31
0.0
  0
LINE
  5
37B5
330
2
100
AcDbEntity
  8
0
100
AcDbLine
 10
928.9845537424005
 20
330.9239442663445
 30
0.0
 11
928.9845537424005
 21
340.9239442663445
 31
0.0
  0
LINE
  5
37B6
330
2
100
AcDbEntity
  8
0
100
AcDbLine
 10
923.3845537424006
 20
330.9239442663447
 30
0.0
 11
928.9845537424005
 21
330.9239442663445
 31
0.0
  0
LINE
  5
37B7
330
2
100
AcDbEntity
  8
0
100
AcDbLine
 10
923.3845537424008
 20
340.9239442663448
 30
0.0
 11
928.9845537424005
 21
340.9239442663445
 31
0.0
  0
LINE
  5
37B8
330
2
100
AcDbEntity
  8
0
100
AcDbLine
 10
928.9845537424005
 20
340.9239442663445
 30
0.0
 11
929.3845537424001
 21
340.2311239433172
 31
0.0
  0
LINE
  5
37B9
330
2
100
AcDbEntity
  8
0
100
AcDbLine
 10
929.3845537424001
 20
331.6167645893718
 30
0.0
 11
929.3845537424001
 21
340.2311239433172
 31
0.0
  0
LINE
  5
37BA
330
2
100
AcDbEntity
  8
0
 48
12.0
100
AcDbLine
 10
921.8845537424002
 20
341.6739442663447
 30
0.0
 11
921.8845537424002
 21
330.1739442663448
 31
0.0
  0
LINE
  5
37BB
330
2
100
AcDbEntity
  8
0
100
AcDbLine
 10
921.884553742351
 20
428.4617868497835
 30
0.0
 11
923.3845537423515
 21
428.4617868497835
 31
0.0
  0
LINE
  5
37BC
330
2
100
AcDbEntity
  8
0
100
AcDbLine
 10
921.884553742351
 20
439.9617868497835
 30
0.0
 11
923.3845537423519
 21
439.9617868497835
 31
0.0
  0
LINE
  5
37BD
330
2
100
AcDbEntity
  8
0
100
AcDbLine
 10
928.9845537423515
 20
429.2117868497832
 30
0.0
 11
929.3845537423511
 21
429.9046071728105
 31
0.0
  0
LINE
  5
37BE
330
2
100
AcDbEntity
  8
0
100
AcDbLine
 10
923.3845537423517
 20
428.4617868497835
 30
0.0
 11
923.3845537423519
 21
439.9617868497835
 31
0.0
  0
LINE
  5
37BF
330
2
100
AcDbEntity
  8
0
100
AcDbLine
 10
928.9845537423515
 20
429.2117868497832
 30
0.0
 11
928.9845537423515
 21
439.2117868497833
 31
0.0
  0
LINE
  5
37C0
330
2
100
AcDbEntity
  8
0
100
AcDbLine
 10
923.3845537423515
 20
429.2117868497835
 30
0.0
 11
928.9845537423515
 21
429.2117868497832
 31
0.0
  0
LINE
  5
37C1
330
2
100
AcDbEntity
  8
0
100
AcDbLine
 10
923.3845537423519
 20
439.2117868497835
 30
0.0
 11
928.9845537423515
 21
439.2117868497833
 31
0.0
  0
LINE
  5
37C2
330
2
100
AcDbEntity
  8
0
100
AcDbLine
 10
928.9845537423515
 20
439.2117868497833
 30
0.0
 11
929.3845537423511
 21
438.518966526756
 31
0.0
  0
LINE
  5
37C3
330
2
100
AcDbEntity
  8
0
100
AcDbLine
 10
929.3845537423511
 20
429.9046071728105
 30
0.0
 11
929.3845537423511
 21
438.518966526756
 31
0.0
  0
LINE
  5
37C4
330
2
100
AcDbEntity
  8
0
 48
12.0
100
AcDbLine
 10
921.884553742351
 20
439.9617868497835
 30
0.0
 11
921.884553742351
 21
428.4617868497835
 31
0.0
  0
LINE
  5
37C5
330
2
100
AcDbEntity
  8
0
100
AcDbLine
 10
48.01607455275348
 20
341.6739442663449
 30
0.0
 11
46.51607455275303
 21
341.6739442663449
 31
0.0
  0
LINE
  5
37C6
330
2
100
AcDbEntity
  8
0
100
AcDbLine
 10
48.01607455275325
 20
330.1739442663449
 30
0.0
 11
46.51607455275256
 21
330.1739442663449
 31
0.0
  0
LINE
  5
37C7
330
2
100
AcDbEntity
  8
0
100
AcDbLine
 10
40.91607455275311
 20
340.9239442663454
 30
0.0
 11
40.51607455275347
 21
340.2311239433181
 31
0.0
  0
LINE
  5
37C8
330
2
100
AcDbEntity
  8
0
100
AcDbLine
 10
46.51607455275303
 20
341.6739442663449
 30
0.0
 11
46.51607455275256
 21
330.1739442663449
 31
0.0
  0
LINE
  5
37C9
330
2
100
AcDbEntity
  8
0
100
AcDbLine
 10
40.91607455275311
 20
340.9239442663454
 30
0.0
 11
40.91607455275289
 21
330.9239442663454
 31
0.0
  0
LINE
  5
37CA
330
2
100
AcDbEntity
  8
0
100
AcDbLine
 10
46.51607455275303
 20
340.9239442663449
 30
0.0
 11
40.91607455275311
 21
340.9239442663454
 31
0.0
  0
LINE
  5
37CB
330
2
100
AcDbEntity
  8
0
100
AcDbLine
 10
46.51607455275256
 20
330.9239442663449
 30
0.0
 11
40.91607455275289
 21
330.9239442663454
 31
0.0
  0
LINE
  5
37CC
330
2
100
AcDbEntity
  8
0
100
AcDbLine
 10
40.91607455275289
 20
330.9239442663454
 30
0.0
 11
40.51607455275325
 21
331.6167645893727
 31
0.0
  0
LINE
  5
37CD
330
2
100
AcDbEntity
  8
0
100
AcDbLine
 10
40.51607455275347
 20
340.2311239433181
 30
0.0
 11
40.51607455275325
 21
331.6167645893727
 31
0.0
  0
LINE
  5
37CE
330
2
100
AcDbEntity
  8
0
 48
12.0
100
AcDbLine
 10
48.01607455275325
 20
330.1739442663449
 30
0.0
 11
48.01607455275348
 21
341.6739442663449
 31
0.0
  0
CIRCLE
  5
37CF
330
2
100
AcDbEntity
  8
0
100
AcDbCircle
 10
973.5946935603262
 20
767.5897734496224
 30
0.0
 40
9.0
  0
LINE
  5
37D0
330
2
100
AcDbEntity
  8
0
100
AcDbLine
 10
962.0946935603193
 20
406.597277409251
 30
0.0
 11
962.0946935603196
 21
385.067865556677
 31
0.0
  0
LINE
  5
37D1
330
2
100
AcDbEntity
  8
0
100
AcDbLine
 10
984.0946935603197
 20
385.0678655566771
 30
0.0
 11
984.0946935603192
 21
412.0678655566796
 31
0.0
  0
LINE
  5
37D2
330
2
100
AcDbEntity
  8
0
100
AcDbLine
 10
982.0946935603197
 20
385.0678655566771
 30
0.0
 11
982.0946935603192
 21
394.5678655566793
 31
0.0
  0
LINE
  5
37D3
330
2
100
AcDbEntity
  8
0
100
AcDbLine
 10
964.0946935603192
 20
407.6681913920936
 30
0.0
 11
964.0946935603196
 21
385.067865556677
 31
0.0
  0
LINE
  5
37D4
330
2
100
AcDbEntity
  8
0
100
AcDbLine
 10
920.5946935603197
 20
385.0678655566767
 30
0.0
 11
920.5946935603197
 21
395.0678655566779
 31
0.0
  0
LINE
  5
37D5
330
2
100
AcDbEntity
  8
0
 48
0.3
100
AcDbLine
 10
940.5946935603202
 20
395.0678655566781
 30
0.0
 11
920.5946935603197
 21
395.0678655566779
 31
0.0
  0
LINE
  5
37D6
330
2
100
AcDbEntity
  8
0
 48
0.3
100
AcDbLine
 10
940.5946935603202
 20
394.5678655566783
 30
0.0
 11
962.0946935603193
 21
394.5678655566785
 31
0.0
  0
LINE
  5
37D7
330
2
100
AcDbEntity
  8
0
100
AcDbLine
 10
940.5946935603202
 20
385.0678655566768
 30
0.0
 11
940.5946935603202
 21
395.0678655566781
 31
0.0
  0
LINE
  5
37D8
330
2
100
AcDbEntity
  8
0
100
AcDbLine
 10
967.7136682069493
 20
412.0678655566792
 30
0.0
 11
984.0946935603192
 21
412.0678655566796
 31
0.0
  0
LINE
  5
37D9
330
2
100
AcDbEntity
  8
0
 48
0.3
100
AcDbLine
 10
964.0946935603192
 20
394.567865556679
 30
0.0
 11
982.0946935603192
 21
394.5678655566794
 31
0.0
  0
LINE
  5
37DA
330
2
100
AcDbEntity
  8
0
 48
0.3
100
AcDbLine
 10
915.3985411376124
 20
385.0678655566771
 30
0.0
 11
920.5946935603197
 21
394.0678655566778
 31
0.0
  0
LINE
  5
37DB
330
2
100
AcDbEntity
  8
0
100
AcDbLine
 10
982.0946935603197
 20
394.5678655566751
 30
0.0
 11
984.0946935603197
 21
395.7225660950544
 31
0.0
  0
LINE
  5
37DD
330
2
100
AcDbEntity
  8
0
100
AcDbLine
 10
985.0946935603262
 20
385.0678655566771
 30
0.0
 11
985.0946935603287
 21
440.0678655566773
 31
0.0
  0
LINE
  5
37DE
330
2
100
AcDbEntity
  8
0
100
AcDbLine
 10
985.0946935603278
 20
440.0678655566773
 30
0.0
 11
992.0946935603263
 21
440.0678655566768
 31
0.0
  0
LINE
  5
37DF
330
2
100
AcDbEntity
  8
0
100
AcDbLine
 10
984.0946935603271
 20
385.0678655566771
 30
0.0
 11
984.0946935603305
 21
437.7178655567022
 31
0.0
  0
LINE
  5
37E0
330
2
100
AcDbEntity
  8
0
100
AcDbLine
 10
984.0946935603055
 20
437.7178655566773
 30
0.0
 11
985.0946935603287
 21
438.7178655567018
 31
0.0
  0
LINE
  5
37E1
330
2
100
AcDbEntity
  8
0
100
AcDbLine
 10
979.7756658858329
 20
429.0973345324684
 30
0.0
 11
979.9629344486657
 21
429.1303550327343
 31
0.0
  0
ARC
  5
37E2
330
2
100
AcDbEntity
  8
0
100
AcDbCircle
 10
979.0946935603308
 20
434.0543937977957
 30
0.0
 40
5.0
100
AcDbArc
 50
280.000000000005
 51
359.9999999999869
  0
LINE
  5
37E4
330
2
100
AcDbEntity
  8
CENTER
100
AcDbLine
 10
1265.882594473843
 20
362.1932794685047
 30
0.0
 11
1265.882594473843
 21
449.184266422877
 31
0.0
  0
LINE
  5
37E5
330
2
100
AcDbEntity
  8
HIDS
  6
SEKKEI_H
100
AcDbLine
 10
1260.802722065869
 20
395.067865556692
 30
0.0
 11
1273.632594473836
 21
395.0678655566917
 31
0.0
  0
LINE
  5
37E6
330
2
100
AcDbEntity
  8
HIDS
  6
SEKKEI_H
100
AcDbLine
 10
1270.382594473836
 20
385.8178655566888
 30
0.0
 11
1270.382594473836
 21
395.0678655566917
 31
0.0
  0
LINE
  5
37E7
330
2
100
AcDbEntity
  8
HIDS
  6
SEKKEI_H
100
AcDbLine
 10
1261.382594473837
 20
385.8178655566888
 30
0.0
 11
1261.382594473837
 21
395.067865556692
 31
0.0
  0
LINE
  5
37E8
330
2
100
AcDbEntity
  8
HIDS
  6
SEKKEI_H
100
AcDbLine
 10
1262.482594473836
 20
371.5978989643027
 30
0.0
 11
1262.482594473837
 21
384.3178655566891
 31
0.0
  0
LINE
  5
37E9
330
2
100
AcDbEntity
  8
HIDS
  6
SEKKEI_H
100
AcDbLine
 10
1261.882594473836
 20
372.067865556692
 30
0.0
 11
1261.882594473836
 21
384.3178655566893
 31
0.0
  0
LINE
  5
37EA
330
2
100
AcDbEntity
  8
HIDS
  6
SEKKEI_H
100
AcDbLine
 10
1269.882594473837
 20
363.3193023857571
 30
0.0
 11
1269.882594473837
 21
384.3178655566893
 31
0.0
  0
LINE
  5
37EB
330
2
100
AcDbEntity
  8
HIDS
  6
SEKKEI_H
100
AcDbLine
 10
1269.282594473837
 20
363.773734909959
 30
0.0
 11
1269.282594473837
 21
384.3178655566893
 31
0.0
  0
LINE
  5
37EC
330
2
100
AcDbEntity
  8
0
100
AcDbLine
 10
1258.893013150667
 20
384.3178655566891
 30
0.0
 11
1276.412246011392
 21
384.3178655566891
 31
0.0
  0
LINE
  5
37ED
330
2
100
AcDbEntity
  8
0
100
AcDbLine
 10
1295.352942936266
 20
384.3178655566891
 30
0.0
 11
1311.891314519884
 21
384.3178655566893
 31
0.0
  0
LINE
  5
37EE
330
2
100
AcDbEntity
  8
0
100
AcDbLine
 10
1258.893013150667
 20
385.8178655566888
 30
0.0
 11
1276.412246011394
 21
385.8178655566891
 31
0.0
  0
LINE
  5
37EF
330
2
100
AcDbEntity
  8
0
100
AcDbLine
 10
1295.352942936264
 20
385.8178655566894
 30
0.0
 11
1311.891314519884
 21
385.817865556689
 31
0.0
  0
LINE
  5
37F0
330
2
100
AcDbEntity
  8
0
100
AcDbLine
 10
1311.891314519884
 20
385.817865556689
 30
0.0
 11
1311.891314519884
 21
384.3178655566893
 31
0.0
  0
LINE
  5
37F1
330
2
100
AcDbEntity
  8
HIDS
  6
SEKKEI_H
100
AcDbLine
 10
1272.382594473844
 20
404.567865556692
 30
0.0
 11
1267.207745076857
 21
404.567865556692
 31
0.0
  0
LINE
  5
37F2
330
2
100
AcDbEntity
  8
HIDS
  6
SEKKEI_H
100
AcDbLine
 10
1271.516569070058
 20
405.067865556692
 30
0.0
 11
1267.744237326623
 21
405.067865556692
 31
0.0
  0
LINE
  5
37F3
330
2
100
AcDbEntity
  8
HIDS
  6
SEKKEI_H
100
AcDbLine
 10
1273.132594473844
 20
397.067865556692
 30
0.0
 11
1261.695821228943
 21
397.067865556692
 31
0.0
  0
LINE
  5
37F4
330
2
100
AcDbEntity
  8
HIDS
  6
SEKKEI_H
100
AcDbLine
 10
1268.682594473851
 20
372.067865556692
 30
0.0
 11
1263.082594473837
 21
372.067865556692
 31
0.0
  0
LINE
  5
37F5
330
2
100
AcDbEntity
  8
HIDS
  6
SEKKEI_H
100
AcDbLine
 10
1269.882594473837
 20
373.267865556692
 30
0.0
 11
1261.882594473836
 21
373.2678655566918
 31
0.0
  0
LINE
  5
37F6
330
2
100
AcDbEntity
  8
0
 48
0.3
100
AcDbLine
 10
1258.632594473843
 20
397.0678655566917
 30
0.0
 11
1258.632594473843
 21
395.0678655566917
 31
0.0
  0
LINE
  5
37F7
330
2
100
AcDbEntity
  8
0
 48
0.3
100
AcDbLine
 10
1259.382594473843
 20
404.5678655566917
 30
0.0
 11
1260.248619877628
 21
405.0678655566917
 31
0.0
  0
LINE
  5
37F8
330
2
100
AcDbEntity
  8
0
 48
0.3
100
AcDbLine
 10
1259.382594473843
 20
404.5678655566917
 30
0.0
 11
1259.382594473843
 21
397.0678655566917
 31
0.0
  0
LINE
  5
37F9
330
2
100
AcDbEntity
  8
HIDS
  6
SEKKEI_H
100
AcDbLine
 10
1273.132594473844
 20
397.067865556692
 30
0.0
 11
1273.132594473844
 21
395.067865556692
 31
0.0
  0
LINE
  5
37FA
330
2
100
AcDbEntity
  8
HIDS
  6
SEKKEI_H
100
AcDbLine
 10
1272.382594473843
 20
404.5678655566913
 30
0.0
 11
1271.516569070059
 21
405.0678655566915
 31
0.0
  0
LINE
  5
37FB
330
2
100
AcDbEntity
  8
HIDS
  6
SEKKEI_H
100
AcDbLine
 10
1272.382594473844
 20
404.5678655566911
 30
0.0
 11
1272.382594473844
 21
397.067865556692
 31
0.0
  0
LINE
  5
37FC
330
2
100
AcDbEntity
  8
HIDS
  6
SEKKEI_H
100
AcDbLine
 10
1273.582594473844
 20
395.067865556692
 30
0.0
 11
1260.802722065869
 21
395.0678655566917
 31
0.0
  0
LINE
  5
37FD
330
2
100
AcDbEntity
  8
HOJO
100
AcDbLine
 10
1262.482594473837
 20
384.3178655566891
 30
0.0
 11
1262.482594473837
 21
385.8178655566888
 31
0.0
  0
LINE
  5
37FE
330
2
100
AcDbEntity
  8
0
100
AcDbLine
 10
1261.882594473836
 20
384.3178655566893
 30
0.0
 11
1261.882594473836
 21
385.8178655566888
 31
0.0
  0
LINE
  5
37FF
330
2
100
AcDbEntity
  8
HOJO
100
AcDbLine
 10
1269.282594473837
 20
384.3178655566893
 30
0.0
 11
1269.282594473837
 21
385.817865556689
 31
0.0
  0
LINE
  5
3800
330
2
100
AcDbEntity
  8
0
100
AcDbLine
 10
1269.882594473837
 20
384.3178655566893
 30
0.0
 11
1269.882594473837
 21
385.817865556689
 31
0.0
  0
LINE
  5
3801
330
2
100
AcDbEntity
  8
HIDS
  6
SEKKEI_H
100
AcDbLine
 10
1269.882594473837
 20
385.817865556689
 30
0.0
 11
1269.882594473837
 21
395.0678655566917
 31
0.0
  0
LINE
  5
3802
330
2
100
AcDbEntity
  8
HIDS
  6
SEKKEI_H
100
AcDbLine
 10
1269.282594473837
 20
385.817865556689
 30
0.0
 11
1269.282594473837
 21
395.0678655566917
 31
0.0
  0
LINE
  5
3803
330
2
100
AcDbEntity
  8
HIDS
  6
SEKKEI_H
100
AcDbLine
 10
1262.482594473837
 20
385.8178655566888
 30
0.0
 11
1262.482594473837
 21
395.067865556692
 31
0.0
  0
LINE
  5
3804
330
2
100
AcDbEntity
  8
HIDS
  6
SEKKEI_H
100
AcDbLine
 10
1261.882594473836
 20
385.8178655566888
 30
0.0
 11
1261.882594473836
 21
395.067865556692
 31
0.0
  0
LINE
  5
3805
330
2
100
AcDbEntity
  8
0
100
AcDbLine
 10
1267.744237326623
 20
405.067865556692
 30
0.0
 11
1260.248619877628
 21
405.0678655566917
 31
0.0
  0
LINE
  5
3806
330
2
100
AcDbEntity
  8
0
100
AcDbLine
 10
1267.207745076857
 20
404.567865556692
 30
0.0
 11
1259.382594473843
 21
404.5678655566917
 31
0.0
  0
LINE
  5
3807
330
2
100
AcDbEntity
  8
0
100
AcDbLine
 10
1261.695821228943
 20
397.067865556692
 30
0.0
 11
1258.632594473843
 21
397.0678655566917
 31
0.0
  0
LINE
  5
3808
330
2
100
AcDbEntity
  8
0
100
AcDbLine
 10
1260.802722065869
 20
395.0678655566917
 30
0.0
 11
1258.632594473843
 21
395.0678655566917
 31
0.0
  0
LINE
  5
3809
330
2
100
AcDbEntity
  8
HIDS
  6
SEKKEI_H
100
AcDbLine
 10
1261.882594473836
 20
373.2678655566918
 30
0.0
 11
1263.082594473837
 21
372.067865556692
 31
0.0
  0
LINE
  5
380A
330
2
100
AcDbEntity
  8
HIDS
  6
SEKKEI_H
100
AcDbLine
 10
1269.88259447385
 20
373.2678655566918
 30
0.0
 11
1268.68259447385
 21
372.067865556692
 31
0.0
  0
CIRCLE
  5
380B
330
2
100
AcDbEntity
  8
0
100
AcDbCircle
 10
1285.882594473829
 20
385.0678655566772
 30
0.0
 40
26.99999999999249
  0
CIRCLE
  5
380C
330
2
100
AcDbEntity
  8
0
100
AcDbCircle
 10
1285.882594473829
 20
385.067865556677
 30
0.0
 40
9.499999999997783
  0
ARC
  5
380D
330
2
100
AcDbEntity
  8
0
100
AcDbCircle
 10
1285.88259447383
 20
385.0678655566778
 30
0.0
 40
10.6547005383764
100
AcDbArc
 50
4.03647208280233
 51
175.9635279172106
  0
ARC
  5
380E
330
2
100
AcDbEntity
  8
0
100
AcDbCircle
 10
1285.88259447383
 20
385.0678655566778
 30
0.0
 40
10.6547005383764
100
AcDbArc
 50
184.0364720826719
 51
355.963527917328
  0
LINE
  5
380F
330
2
100
AcDbEntity
  8
HIDS
  6
SEKKEI_H
100
AcDbLine
 10
1273.632594473836
 20
395.0678655566917
 30
0.0
 11
1273.632594473836
 21
409.1289856469922
 31
0.0
  0
LINE
  5
3810
330
2
100
AcDbEntity
  8
0
100
AcDbLine
 10
921.5946935603199
 20
744.1958521565155
 30
0.0
 11
923.0946935603206
 21
744.1958521565155
 31
0.0
  0
LINE
  5
3811
330
2
100
AcDbEntity
  8
0
100
AcDbLine
 10
921.59469356032
 20
732.6958521565154
 30
0.0
 11
923.0946935603208
 21
732.6958521565154
 31
0.0
  0
LINE
  5
3812
330
2
100
AcDbEntity
  8
0
100
AcDbLine
 10
928.6946935603202
 20
743.4458521565154
 30
0.0
 11
929.09469356032
 21
742.7530318334881
 31
0.0
  0
LINE
  5
3813
330
2
100
AcDbEntity
  8
0
100
AcDbLine
 10
923.0946935603206
 20
744.1958521565155
 30
0.0
 11
923.0946935603208
 21
732.6958521565154
 31
0.0
  0
LINE
  5
3814
330
2
100
AcDbEntity
  8
0
100
AcDbLine
 10
928.6946935603202
 20
743.4458521565154
 30
0.0
 11
928.6946935603205
 21
733.4458521565154
 31
0.0
  0
LINE
  5
3815
330
2
100
AcDbEntity
  8
0
100
AcDbLine
 10
923.0946935603206
 20
743.4458521565154
 30
0.0
 11
928.6946935603202
 21
743.4458521565154
 31
0.0
  0
LINE
  5
3816
330
2
100
AcDbEntity
  8
0
100
AcDbLine
 10
923.0946935603208
 20
733.4458521565154
 30
0.0
 11
928.6946935603205
 21
733.4458521565154
 31
0.0
  0
LINE
  5
3817
330
2
100
AcDbEntity
  8
0
100
AcDbLine
 10
928.6946935603205
 20
733.4458521565154
 30
0.0
 11
929.0946935603201
 21
734.1386724795427
 31
0.0
  0
LINE
  5
3818
330
2
100
AcDbEntity
  8
0
100
AcDbLine
 10
929.09469356032
 20
742.7530318334881
 30
0.0
 11
929.0946935603201
 21
734.1386724795427
 31
0.0
  0
LINE
  5
3819
330
2
100
AcDbEntity
  8
0
 48
12.0
100
AcDbLine
 10
921.59469356032
 20
732.6958521565154
 30
0.0
 11
921.5946935603199
 21
744.1958521565155
 31
0.0
  0
LINE
  5
381A
330
2
100
AcDbEntity
  8
CENTER
  6
CENTERX2
100
AcDbLine
 10
918.5946935603201
 20
836.73369474273
 30
0.0
 11
932.094693560321
 21
836.7336947427295
 31
0.0
  0
LINE
  5
381B
330
2
100
AcDbEntity
  8
CENTER
  6
CENTERX2
100
AcDbLine
 10
918.5946935603201
 20
738.4458521565159
 30
0.0
 11
932.094693560321
 21
738.4458521565155
 31
0.0
  0
LINE
  5
381C
330
2
100
AcDbEntity
  8
CENTER
  6
CENTERX2
100
AcDbLine
 10
918.8845537423512
 20
434.2117868497838
 30
0.0
 11
932.3845537423521
 21
434.2117868497834
 31
0.0
  0
LINE
  5
381D
330
2
100
AcDbEntity
  8
CENTER
  6
CENTERX2
100
AcDbLine
 10
918.8845537424004
 20
335.9239442663451
 30
0.0
 11
932.3845537424013
 21
335.9239442663446
 31
0.0
  0
LINE
  5
381E
330
2
100
AcDbEntity
  8
CENTER
  6
CENTERX2
100
AcDbLine
 10
51.01607455280282
 20
434.2117868497844
 30
0.0
 11
37.50996528007704
 21
434.2117868497841
 31
0.0
  0
LINE
  5
381F
330
2
100
AcDbEntity
  8
CENTER
  6
CENTERX2
100
AcDbLine
 10
51.01607455275348
 20
335.9239442663456
 30
0.0
 11
37.5099652800277
 21
335.9239442663454
 31
0.0
  0
LINE
  5
3820
330
2
100
AcDbEntity
  8
CENTER
100
AcDbLine
 10
1337.147836109853
 20
443.999588273296
 30
0.0
 11
1337.147836109853
 21
428.6666261121099
 31
0.0
  0
LINE
  5
3821
330
2
100
AcDbEntity
  8
CENTER
100
AcDbLine
 10
1329.481355029259
 20
436.333107192703
 30
0.0
 11
1344.814317190445
 21
436.333107192703
 31
0.0
  0
LINE
  5
3822
330
2
100
AcDbEntity
  8
CENTER
100
AcDbLine
 10
1337.147836109853
 20
341.4691050012443
 30
0.0
 11
1337.147836109853
 21
326.1361428400582
 31
0.0
  0
LINE
  5
3823
330
2
100
AcDbEntity
  8
CENTER
100
AcDbLine
 10
1329.481355029259
 20
333.8026239206512
 30
0.0
 11
1344.814317190445
 21
333.8026239206512
 31
0.0
  0
LINE
  5
3824
330
2
100
AcDbEntity
  8
CENTER
100
AcDbLine
 10
1234.617352837804
 20
341.4691050012454
 30
0.0
 11
1234.617352837804
 21
326.1361428400594
 31
0.0
  0
LINE
  5
3825
330
2
100
AcDbEntity
  8
CENTER
100
AcDbLine
 10
1226.950871757211
 20
333.8026239206524
 30
0.0
 11
1242.283833918397
 21
333.8026239206524
 31
0.0
  0
CIRCLE
  5
3826
330
2
100
AcDbEntity
  8
0
100
AcDbCircle
 10
1285.882594473829
 20
385.0678655566767
 30
0.0
 40
44.79103006366023
  0
CIRCLE
  5
3827
330
2
100
AcDbEntity
  8
0
100
AcDbCircle
 10
1285.882594473829
 20
385.0678655566767
 30
0.0
 40
52.64999997843251
  0
CIRCLE
  5
3828
330
2
100
AcDbEntity
  8
0
100
AcDbCircle
 10
1285.882594473829
 20
385.0678655566767
 30
0.0
 40
53.64999997845711
  0
LINE
  5
3829
330
2
100
AcDbEntity
  8
0
 48
0.5
100
AcDbLine
 10
1225.382594373363
 20
385.0678656042312
 30
0.0
 11
1225.799955460364
 21
435.1511960442041
 31
0.0
  0
LINE
  5
382A
330
2
100
AcDbEntity
  8
0
 48
0.5
100
AcDbLine
 10
1345.965233286371
 20
435.1511960442032
 30
0.0
 11
1346.382594373369
 21
385.0678656042312
 31
0.0
  0
LINE
  5
382B
330
2
100
AcDbEntity
  8
0
 48
0.5
100
AcDbLine
 10
1225.382594373363
 20
385.0678656042321
 30
0.0
 11
1225.799955460364
 21
334.9845351642591
 31
0.0
  0
LINE
  5
382C
330
2
100
AcDbEntity
  8
0
 48
0.5
100
AcDbLine
 10
1345.965233286372
 20
334.98453516426
 30
0.0
 11
1346.382594373369
 21
385.0678656042321
 31
0.0
  0
ARC
  5
382D
330
2
100
AcDbEntity
  8
0
 48
0.5
100
AcDbCircle
 10
1235.79960838143
 20
435.0678656123416
 30
0.0
 40
10.0
100
AcDbArc
 50
90.0
 51
179.5225462226892
  0
ARC
  5
382E
330
2
100
AcDbEntity
  8
0
 48
0.5
100
AcDbCircle
 10
1335.965580615714
 20
435.0678656123416
 30
0.0
 40
10.0
100
AcDbArc
 50
0.4774537773107715
 51
90.0
  0
LINE
  5
382F
330
2
100
AcDbEntity
  8
0
100
AcDbLine
 10
1345.882594473825
 20
385.0678656042321
 30
0.0
 11
1346.382594373369
 21
385.0678656042312
 31
0.0
  0
LINE
  5
3830
330
2
100
AcDbEntity
  8
0
100
AcDbLine
 10
1225.382594373363
 20
385.0678656042312
 30
0.0
 11
1225.882594473835
 21
385.0678656042321
 31
0.0
  0
ARC
  5
3831
330
2
100
AcDbEntity
  8
0
 48
0.5
100
AcDbCircle
 10
1235.799608225295
 20
335.0678655091151
 30
0.0
 40
10.0
100
AcDbArc
 50
180.4774537773107
 51
270.0
  0
ARC
  5
3832
330
2
100
AcDbEntity
  8
0
 48
0.5
100
AcDbCircle
 10
1335.965580459579
 20
335.0678655091151
 30
0.0
 40
10.0
100
AcDbArc
 50
270.0
 51
359.5225462226892
  0
LINE
  5
3833
330
2
100
AcDbEntity
  8
0
100
AcDbLine
 10
963.0591741646906
 20
439.5329607437796
 30
0.0
 11
962.8856708191953
 21
429.5929607437805
 31
0.0
  0
ARC
  5
3834
330
2
100
AcDbEntity
  8
0
100
AcDbCircle
 10
960.8859754288825
 20
429.627865556677
 30
0.0
 40
2.0
100
AcDbArc
 50
270.0
 51
358.9999999993597
  0
LINE
  5
3835
330
2
100
AcDbEntity
  8
0
100
AcDbLine
 10
971.7895155876833
 20
427.6278655566774
 30
0.0
 11
960.8859754288825
 21
427.627865556677
 31
0.0
  0
LINE
  5
3836
330
2
100
AcDbEntity
  8
0
100
AcDbLine
 10
1271.842952614914
 20
445.4508685411865
 30
0.0
 11
1285.882594473829
 21
445.5678655566773
 31
0.0
  0
LINE
  5
3964
330
2
100
AcDbEntity
  8
0
100
AcDbLine
 10
803.8267443678858
 20
700.9916972382694
 30
0.0
 11
803.7390311276139
 21
700.8397734496222
 31
0.0
  0
ARC
  5
3965
330
2
100
AcDbEntity
  8
0
100
AcDbCircle
 10
803.3060184257218
 20
701.0897734496222
 30
0.0
 40
0.5
100
AcDbArc
 50
270.0
 51
330.0000000000083
  0
LINE
  5
3966
330
2
100
AcDbEntity
  8
0
100
AcDbLine
 10
755.8833686949115
 20
700.5897734496219
 30
0.0
 11
803.3060184257218
 21
700.5897734496222
 31
0.0
  0
LINE
  5
3967
330
2
100
AcDbEntity
  8
0
100
AcDbLine
 10
795.5946935603167
 20
699.5897734496221
 30
0.0
 11
795.594693560317
 21
644.5897734496222
 31
0.0
  0
LINE
  5
3968
330
2
100
AcDbEntity
  8
0
100
AcDbLine
 10
762.094693560317
 20
699.5897734496219
 30
0.0
 11
797.0946935603167
 21
699.5897734496221
 31
0.0
  0
LINE
  5
3969
330
2
100
AcDbEntity
  8
0
100
AcDbLine
 10
797.6720438295065
 20
700.5897734496222
 30
0.0
 11
797.0946935603167
 21
699.5897734496221
 31
0.0
  0
LINE
  5
396A
330
2
100
AcDbEntity
  8
0
100
AcDbLine
 10
763.5946935603165
 20
699.5897734496219
 30
0.0
 11
763.5946935603167
 21
644.5897734496221
 31
0.0
  0
LINE
  5
396B
330
2
100
AcDbEntity
  8
0
100
AcDbLine
 10
763.5946935603167
 20
644.5897734496221
 30
0.0
 11
795.594693560317
 21
644.5897734496222
 31
0.0
  0
ARC
  5
396C
330
2
100
AcDbEntity
  8
0
100
AcDbCircle
 10
802.094693560317
 20
701.9916972382694
 30
0.0
 40
2.0
100
AcDbArc
 50
330.0000000000083
 51
348.4067863764762
  0
LINE
  5
396D
330
2
100
AcDbEntity
  8
0
100
AcDbLine
 10
755.3626427527474
 20
700.9916972382692
 30
0.0
 11
755.4503559930192
 21
700.839773449622
 31
0.0
  0
ARC
  5
396E
330
2
100
AcDbEntity
  8
0
100
AcDbCircle
 10
755.8833686949115
 20
701.089773449622
 30
0.0
 40
0.5
100
AcDbArc
 50
209.9999999999916
 51
270.0
  0
ARC
  5
396F
330
2
100
AcDbEntity
  8
0
100
AcDbCircle
 10
757.0946935603163
 20
701.9916972382692
 30
0.0
 40
2.0
100
AcDbArc
 50
191.5932136235173
 51
209.9999999999916
  0
LINE
  5
3970
330
2
100
AcDbEntity
  8
0
100
AcDbLine
 10
761.5173432911269
 20
700.5897734496222
 30
0.0
 11
762.0946935603167
 21
699.5897734496221
 31
0.0
  0
CIRCLE
  5
397B
330
2
100
AcDbEntity
  8
0
100
AcDbCircle
 10
779.5946935603168
 20
385.0678655566772
 30
0.0
 40
16.00000000000011
  0
CIRCLE
  5
397C
330
2
100
AcDbEntity
  8
0
100
AcDbCircle
 10
779.5946935603168
 20
385.0678655566772
 30
0.0
 40
24.5
  0
CIRCLE
  5
397D
330
2
100
AcDbEntity
  8
0
100
AcDbCircle
 10
779.5946935603168
 20
385.0678655566772
 30
0.0
 40
17.49999999999994
  0
CIRCLE
  5
397E
330
2
100
AcDbEntity
  8
0
100
AcDbCircle
 10
779.5946935603168
 20
385.0678655566772
 30
0.0
 40
18.0773502691897
  0
LINE
  5
399B
330
2
100
AcDbEntity
  8
0
100
AcDbLine
 10
488.308034129948
 20
409.2999163642463
 30
0.0
 11
488.4599579185951
 21
409.2122031239745
 31
0.0
  0
ARC
  5
399C
330
2
100
AcDbEntity
  8
0
100
AcDbCircle
 10
488.2099579185951
 20
408.7791904220824
 30
0.0
 40
0.5
100
AcDbArc
 50
0.0
 51
60.00000000000109
  0
LINE
  5
399D
330
2
100
AcDbEntity
  8
0
100
AcDbLine
 10
488.7099579185953
 20
361.356540691272
 30
0.0
 11
488.7099579185951
 21
408.7791904220824
 31
0.0
  0
LINE
  5
399E
330
2
100
AcDbEntity
  8
0
100
AcDbLine
 10
489.7099579185952
 20
401.0678655566772
 30
0.0
 11
544.7099579185952
 21
401.0678655566774
 31
0.0
  0
LINE
  5
399F
330
2
100
AcDbEntity
  8
0
100
AcDbLine
 10
489.7099579185954
 20
367.5678655566773
 30
0.0
 11
489.7099579185952
 21
402.5678655566772
 31
0.0
  0
LINE
  5
39A0
330
2
100
AcDbEntity
  8
0
100
AcDbLine
 10
488.7099579185951
 20
403.1452158258669
 30
0.0
 11
489.7099579185952
 21
402.5678655566772
 31
0.0
  0
LINE
  5
39A1
330
2
100
AcDbEntity
  8
0
100
AcDbLine
 10
488.7099579185952
 20
366.9905152874877
 30
0.0
 11
489.7099579185954
 21
367.5678655566773
 31
0.0
  0
LINE
  5
39A2
330
2
100
AcDbEntity
  8
0
100
AcDbLine
 10
489.7099579185954
 20
369.067865556677
 30
0.0
 11
544.7099579185952
 21
369.0678655566772
 31
0.0
  0
LINE
  5
39A3
330
2
100
AcDbEntity
  8
0
100
AcDbLine
 10
544.7099579185952
 20
369.0678655566772
 30
0.0
 11
544.7099579185952
 21
401.0678655566774
 31
0.0
  0
ARC
  5
39A4
330
2
100
AcDbEntity
  8
0
100
AcDbCircle
 10
487.308034129948
 20
407.5678655566774
 30
0.0
 40
2.0
100
AcDbArc
 50
60.00000000000109
 51
78.4067863764756
  0
LINE
  5
39A5
330
2
100
AcDbEntity
  8
0
100
AcDbLine
 10
488.3080341299481
 20
360.8358147491081
 30
0.0
 11
488.4599579185952
 21
360.9235279893798
 31
0.0
  0
ARC
  5
39A6
330
2
100
AcDbEntity
  8
0
100
AcDbCircle
 10
488.2099579185952
 20
361.356540691272
 30
0.0
 40
0.5
100
AcDbArc
 50
299.9999999999989
 51
0.0
  0
ARC
  5
39A7
330
2
100
AcDbEntity
  8
0
100
AcDbCircle
 10
487.3080341299481
 20
362.5678655566769
 30
0.0
 40
2.0
100
AcDbArc
 50
281.5932136235243
 51
299.9999999999989
  0
LINE
  5
3A12
330
2
100
AcDbEntity
  8
CENTER
100
AcDbLine
 10
1002.094693560316
 20
385.0678655566772
 30
0.0
 11
694.5946935603168
 21
385.0678655566772
 31
0.0
  0
LINE
  5
3A13
330
2
100
AcDbEntity
  8
CENTER
100
AcDbLine
 10
779.5946935603168
 20
470.0678655566772
 30
0.0
 11
779.5946935603168
 21
300.0678655566772
 31
0.0
  0
SPLINE
  5
3B35
330
2
100
AcDbEntity
  8
HOJO
100
AcDbSpline
210
0.0
220
0.0
230
1.0
 70
     8
 71
     3
 72
    19
 73
    15
 74
    13
 42
0.0000000001
 43
0.0000000001
 44
0.0000000001
 40
0.0
 40
0.0
 40
0.0
 40
0.0
 40
18.37115282813626
 40
26.82686419010492
 40
34.41443027196517
 40
43.69308705430969
 40
52.15458482579997
 40
61.0219005937996
 40
64.21194539914488
 40
69.29056184957153
 40
80.51270150590049
 40
90.35074264380439
 40
102.4999819168683
 40
107.4886059916838
 40
107.4886059916838
 40
107.4886059916838
 40
107.4886059916838
 10
909.2746309670124
 20
385.0678655566771
 30
0.0
 10
911.154696286808
 20
391.209675917011
 30
0.0
 10
913.9001014050672
 20
400.1783843023504
 30
0.0
 10
924.848251868674
 20
406.0374601264601
 30
0.0
 10
933.3799575503695
 20
404.6329443642364
 30
0.0
 10
941.7946016723396
 20
405.4105001099052
 30
0.0
 10
950.6371711017928
 20
405.8141347793669
 30
0.0
 10
957.5634312530182
 20
405.2269019242212
 30
0.0
 10
963.1084514177899
 20
406.7621706827296
 30
0.0
 10
968.5962374220853
 20
410.9554271194928
 30
0.0
 10
969.0747423819857
 20
420.5021240052394
 30
0.0
 10
976.1235245221067
 20
429.4055574917816
 30
0.0
 10
976.8334578453961
 20
438.8507126005731
 30
0.0
 10
979.9803307358144
 20
443.6661501229925
 30
0.0
 10
980.8963472509926
 20
445.0678655566776
 30
0.0
 11
909.2746309670124
 21
385.0678655566771
 31
0.0
 11
917.6295896298212
 21
401.4292200842674
 31
0.0
 11
925.2082289982904
 21
405.1793240774404
 31
0.0
 11
932.7941402156147
 21
405.0208625695943
 31
0.0
 11
942.0665890918312
 21
405.360220083877
 31
0.0
 11
950.5238784348502
 21
405.6270561859904
 31
0.0
 11
959.3887481891066
 21
405.8353184473051
 31
0.0
 11
962.4456006287459
 21
406.7474801776911
 31
0.0
 11
966.4499436305286
 21
409.8711930605627
 31
0.0
 11
970.2598463876174
 21
420.426810496207
 31
0.0
 11
974.8144883815839
 21
429.147033528784
 31
0.0
 11
978.3767228928217
 21
440.7623036591385
 31
0.0
 11
980.8963472509926
 21
445.0678655566776
 31
0.0
  0
LINE
  5
3B38
330
2
100
AcDbEntity
  8
0
100
AcDbLine
 10
974.3543316473489
 20
428.1414070347856
 30
0.0
 11
979.9629344486659
 21
429.1303550327345
 31
0.0
  0
ENDSEC
  0
SECTION
  2
OBJECTS
  0
DICTIONARY
  5
7
330
0
100
AcDbDictionary
  3
ACAD_COLOR
350
832
  3
ACAD_GROUP
350
75
  3
ACAD_LAYOUT
350
61
  3
ACAD_MATERIAL
350
808
  3
ACAD_MLEADERSTYLE
350
857
  3
ACAD_MLINESTYLE
350
76
  3
ACAD_PLOTSETTINGS
350
77
  3
ACAD_PLOTSTYLENAME
350
6
  3
ACAD_SCALELIST
350
835
  3
ACAD_TABLESTYLE
350
833
  3
ACAD_VISUALSTYLE
350
821
  3
ACADDIM
350
480
  3
ACDB_RECOMPOSE_DATA
350
88E
  3
ACDBHEADERROUNDTRIPXREC
350
3BC4
  3
ACDBVARIABLEDICTIONARY
350
102
  3
DWGPROPS
350
3B9A
  0
DICTIONARY
  5
1BAE
330
6E
100
AcDbDictionary
280
     1
  3
ACAD_XREC_ROUNDTRIP
360
3B9E
  0
DICTIONARY
  5
86B
330
66
100
AcDbDictionary
280
     1
  3
ACAD_LAYERSTATES
360
86C
  0
DICTIONARY
  5
1AF7
330
5E
100
AcDbDictionary
280
     1
  3
ADSK_XREC_LAYER_RECONCILED
360
1AF8
  0
DICTIONARY
  5
1AF9
330
3E
100
AcDbDictionary
280
     1
  3
ADSK_XREC_LAYER_RECONCILED
360
1AFA
  0
DICTIONARY
  5
1AFF
330
2B5
100
AcDbDictionary
280
     1
  3
ADSK_XREC_LAYER_RECONCILED
360
1B00
  0
DICTIONARY
  5
1B01
330
2BA
100
AcDbDictionary
280
     1
  3
ADSK_XREC_LAYER_RECONCILED
360
1B02
  0
DICTIONARY
  5
1B05
330
3FA
100
AcDbDictionary
280
     1
  3
ADSK_XREC_LAYER_RECONCILED
360
1B06
  0
DICTIONARY
  5
1D16
330
2
100
AcDbDictionary
280
     1
  3
ACAD_LAYOUTSELFREF
360
3BE5
  3
ACAD_SORTENTS
360
1D17
  0
DICTIONARY
  5
3BE6
330
3BBE
100
AcDbDictionary
280
     1
  3
ACAD_LAYOUTSELFREF
360
3BE7
  0
DICTIONARY
  5
832
102
{ACAD_REACTORS
330
7
102
}
330
7
100
AcDbDictionary
  0
DICTIONARY
  5
75
102
{ACAD_REACTORS
330
7
102
}
330
7
100
AcDbDictionary
  0
DICTIONARY
  5
61
102
{ACAD_REACTORS
330
7
102
}
330
7
100
AcDbDictionary
  0
DICTIONARY
  5
808
102
{ACAD_REACTORS
330
7
102
}
330
7
100
AcDbDictionary
  3
BYBLOCK
350
811
  3
BYLAYER
350
809
  3
GLOBAL
350
819
  0
DICTIONARY
  5
857
102
{ACAD_REACTORS
330
7
102
}
330
7
100
AcDbDictionary
  3
STANDARD
350
858
  0
DICTIONARY
  5
76
102
{ACAD_REACTORS
330
7
102
}
330
7
100
AcDbDictionary
  3
STANDARD
350
78
  0
DICTIONARY
  5
77
102
{ACAD_REACTORS
330
7
102
}
330
7
100
AcDbDictionary
  0
ACDBDICTIONARYWDFLT
  5
6
102
{ACAD_REACTORS
330
7
102
}
330
7
100
AcDbDictionary
281
     1
  3
Normal
350
5
100
AcDbDictionaryWithDefault
340
5
  0
DICTIONARY
  5
835
102
{ACAD_REACTORS
330
7
102
}
330
7
100
AcDbDictionary
  3
A0
350
836
  3
A1
350
837
  3
A2
350
838
  3
A3
350
839
  3
A4
350
83A
  3
A5
350
83B
  3
A6
350
83C
  3
A7
350
83D
  3
A8
350
83E
  3
A9
350
83F
  3
B0
350
840
  3
B1
350
841
  3
B2
350
842
  3
B3
350
843
  3
B4
350
844
  3
B5
350
845
  3
B6
350
846
  3
B7
350
847
  3
B8
350
848
  3
B9
350
849
  3
C0
350
84A
  3
C1
350
84B
  3
C2
350
84C
  3
C3
350
84D
  3
C4
350
84E
  3
C5
350
84F
  3
C6
350
850
  3
C7
350
851
  3
C8
350
852
  3
C9
350
853
  3
D0
350
854
  3
D1
350
855
  3
D2
350
856
  0
DICTIONARY
  5
833
102
{ACAD_REACTORS
330
7
102
}
330
7
100
AcDbDictionary
  3
STANDARD
350
834
  0
DICTIONARY
  5
821
102
{ACAD_REACTORS
330
7
102
}
330
7
100
AcDbDictionary
  3
2DWIREFRAME
350
827
  3
3D_HIDDEN
350
829
  3
3DWIREFRAME
350
828
  3
BASIC
350
826
  3
BRIGHTEN
350
82D
  3
COLORCHANGE
350
831
  3
CONCEPTUAL
350
82A
  3
DIM
350
82C
  3
FACEPATTERN
350
830
  3
FLAT
350
822
  3
FLATWITHEDGES
350
823
  3
GOURAUD
350
824
  3
GOURAUDWITHEDGES
350
825
  3
LINEPATTERN
350
82F
  3
REALISTIC
350
82B
  3
THICKEN
350
82E
  0
XRECORD
  5
480
102
{ACAD_REACTORS
330
7
102
}
330
7
100
AcDbXrecord
 90
   990106
  3

 60
     0
 61
     0
 62
     1
 63
     3
 64
     1
 65
     0
 66
     0
 67
     3
 68
     1
 69
     0
 70
     0
 71
     0
 72
     0
 40
0.0
170
     2
340
0
  0
XRECORD
  5
88E
102
{ACAD_REACTORS
330
7
102
}
330
7
100
AcDbXrecord
 90
        1
330
834
  0
DICTIONARY
  5
3BC4
102
{ACAD_REACTORS
330
7
102
}
330
7
100
AcDbDictionary
  3
CEPSNTYPE
350
3BCE
  3
DIMSTYLEDATA
350
3BD2
  3
FINGERPRINTGUID
350
3BCF
  3
HYPERLINKBASE
350
3BC7
  3
INSUNITS
350
3BCD
  3
LAYOUTDICT
350
3BC9
  3
LWETCUNION
350
3BCC
  3
PLOTSETDICT
350
3BCA
  3
PLOTSTYLNAMDICT
350
3BCB
  3
PSVPSCALE
350
3BD1
  3
PUCSBASE
350
3BD5
  3
PUCSORGBACK
350
3BDB
  3
PUCSORGBOTTOM
350
3BD7
  3
PUCSORGFRONT
350
3BDA
  3
PUCSORGLEFT
350
3BD8
  3
PUCSORGRIGHT
350
3BD9
  3
PUCSORGTOP
350
3BD6
  3
PUCSORTHOREF
350
3BD3
  3
PUCSORTHOVIEW
350
3BD4
  3
STYLESHEET
350
3BC8
  3
TSTACKALIGN
350
3BC5
  3
TSTACKSIZE
350
3BC6
  3
UCSBASE
350
3BDE
  3
UCSORGBACK
350
3BE4
  3
UCSORGBOTTOM
350
3BE0
  3
UCSORGFRONT
350
3BE3
  3
UCSORGLEFT
350
3BE1
  3
UCSORGRIGHT
350
3BE2
  3
UCSORGTOP
350
3BDF
  3
UCSORTHOREF
350
3BDC
  3
UCSORTHOVIEW
350
3BDD
  3
VERSIONGUID
350
3BD0
  0
DICTIONARY
  5
102
102
{ACAD_REACTORS
330
7
102
}
330
7
100
AcDbDictionary
  3
CANNOSCALE
350
892
  3
CMLEADERSTYLE
350
890
  3
CTABLESTYLE
350
88F
  3
DIMASSOC
350
103
  3
INDEXCTL
350
1BBB
  3
LIGHTINGUNITS
350
893
  3
MSLTSCALE
350
891
  3
SORTENTS
350
549
  0
XRECORD
  5
3B9A
102
{ACAD_REACTORS
330
7
102
}
330
7
100
AcDbXrecord
  1
DWGPROPS COOKIE
  2

  3

  4

  6

  7

  8
knsuzuki
  9

300
=
301
=
302
=
303
=
304
=
305
=
306
=
307
=
308
=
309
=
 40
0.1672860532407407
 41
2454889.454828194
 42
2454908.460582499
  1

 90
        0
  0
XRECORD
  5
3B9E
102
{ACAD_REACTORS
330
1BAE
102
}
330
1BAE
100
AcDbXrecord
102
VTR_0.000_0.000_1.000_1.000_VISUALSTYLE
340
827
102
VTR_0.000_0.000_1.000_1.000_GRIDDISPLAY
 70
     3
102
VTR_0.000_0.000_1.000_1.000_GRIDMAJOR
 70
     5
102
VTR_0.000_0.000_1.000_1.000_DEFAULTLIGHTING
280
     1
102
VTR_0.000_0.000_1.000_1.000_DEFAULTLIGHTINGTYPE
 70
     1
102
VTR_0.000_0.000_1.000_1.000_BRIGHTNESS
141
0.0
102
VTR_0.000_0.000_1.000_1.000_CONTRAST
142
0.0
  0
DICTIONARY
  5
86C
102
{ACAD_REACTORS
330
86B
102
}
330
86B
100
AcDbDictionary
  0
XRECORD
  5
1AF8
102
{ACAD_REACTORS
330
1AF7
102
}
330
1AF7
100
AcDbXrecord
290
     1
  0
XRECORD
  5
1AFA
102
{ACAD_REACTORS
330
1AF9
102
}
330
1AF9
100
AcDbXrecord
290
     1
  0
XRECORD
  5
1B00
102
{ACAD_REACTORS
330
1AFF
102
}
330
1AFF
100
AcDbXrecord
290
     1
  0
XRECORD
  5
1B02
102
{ACAD_REACTORS
330
1B01
102
}
330
1B01
100
AcDbXrecord
290
     1
  0
XRECORD
  5
1B06
102
{ACAD_REACTORS
330
1B05
102
}
330
1B05
100
AcDbXrecord
290
     1
  0
XRECORD
  5
3BE5
102
{ACAD_REACTORS
330
1D16
102
}
330
1D16
100
AcDbXrecord
340
2
  0
SORTENTSTABLE
  5
1D17
102
{ACAD_REACTORS
330
1D16
102
}
330
1D16
100
AcDbSortentsTable
330
2
331
CB3
  5
CB3
331
D1A
  5
D1A
331
D51
  5
D52
331
D90
  5
D91
331
C3D
  5
C3D
331
C7C
  5
C7C
331
DCF
  5
DD0
331
D59
  5
D5A
331
CBB
  5
CBB
331
D22
  5
D22
331
D98
  5
D99
331
E0E
  5
E10
331
E45
  5
E47
331
E8C
  5
E8E
331
C45
  5
C45
331
C84
  5
C84
331
3734
  5
3735
331
36F5
  5
36F6
331
DA0
  5
DA1
331
DD7
  5
DD8
331
D2A
  5
D2A
331
C8C
  5
C8C
331
CC3
  5
CC3
331
D61
  5
D62
331
E4D
  5
E4F
331
C4D
  5
C4D
331
3507
  5
3507
331
373C
  5
373D
331
36FD
  5
36FE
331
CCB
  5
CCB
331
D69
  5
D6A
331
DDF
  5
DE0
331
E55
  5
E57
331
C55
  5
C55
331
350F
  5
3511
331
36C6
  5
36C7
331
36CE
  5
36CF
331
3744
  5
3745
331
DE7
  5
DE9
331
E5D
  5
E5F
331
3517
  5
3518
331
370D
  5
370E
331
351F
  5
3520
331
37CA
  5
37CB
331
378B
  5
378C
331
3801
  5
3802
331
13F6
  5
144E
331
150C
  5
159A
331
1EA0
  5
1EA0
331
3809
  5
380A
331
3793
  5
3794
331
37D2
  5
37D3
331
1514
  5
15F7
331
37DA
  5
37DB
331
379B
  5
379C
331
3811
  5
3812
331
37A3
  5
37A4
331
3819
  5
381A
331
C94
  5
C94
331
CD3
  5
CD3
331
D32
  5
D32
331
D71
  5
D72
331
DA8
  5
DA9
331
C5D
  5
C5D
331
C9C
  5
C9C
331
D3A
  5
D3A
331
D79
  5
D7A
331
DB0
  5
DB1
331
DEF
  5
DF1
331
E26
  5
E28
331
E65
  5
E67
331
C26
  5
C26
331
C65
  5
C65
331
3715
  5
3716
331
36D6
  5
36D7
331
DF7
  5
DF9
331
CA4
  5
CA4
331
D0B
  5
D0B
331
D42
  5
D42
331
D81
  5
D82
331
DB8
  5
DB9
331
E2E
  5
E30
331
E6D
  5
E6F
331
C2E
  5
C2E
331
C6D
  5
C6D
331
3527
  5
3528
331
371D
  5
371E
331
36DE
  5
36DF
331
CAC
  5
CAC
331
D13
  5
D13
331
D4A
  5
D4A
331
D89
  5
D8A
331
DC0
  5
DC1
331
DFF
  5
E01
331
E36
  5
E38
331
C75
  5
C75
331
352F
  5
3530
331
3725
  5
3726
331
36E6
  5
36E7
331
E07
  5
E09
331
E3E
  5
E40
331
34F8
  5
34F8
331
3537
  5
3538
331
372D
  5
372E
331
36EE
  5
36EF
331
353F
  5
3540
331
1208
  5
120D
331
374C
  5
374D
331
37AB
  5
37AC
331
37E2
  5
37E3
331
3821
  5
3822
331
179B
  5
17F0
331
3774
  5
3775
331
37B3
  5
37B4
331
37EA
  5
37EB
331
3829
  5
382A
331
144E
  5
1490
331
37F2
  5
37F3
331
377C
  5
377D
331
37BB
  5
37BC
331
3831
  5
3832
331
3784
  5
3785
331
37C3
  5
37C4
331
37FA
  5
37FB
331
CB4
  5
CB4
331
D1B
  5
D1B
331
D52
  5
D53
331
D91
  5
D92
331
DC8
  5
DC9
331
C3E
  5
C3E
331
C7D
  5
C7D
331
DD0
  5
DD1
331
D5A
  5
D5B
331
CBC
  5
CBC
331
D23
  5
D23
331
D99
  5
D9A
331
E0F
  5
E11
331
E46
  5
E48
331
E8D
  5
E8F
331
C85
  5
C85
331
C46
  5
C46
331
3500
  5
3500
331
3735
  5
3736
331
E4E
  5
E50
331
DA1
  5
DA2
331
D2B
  5
D2B
331
C8D
  5
C8D
331
CC4
  5
CC4
331
D62
  5
D63
331
DD8
  5
DD9
331
C4E
  5
C4E
331
36F6
  5
36F7
331
36FE
  5
36FF
331
E1F
  5
E21
331
CCC
  5
CCC
331
D6A
  5
D6B
331
DE0
  5
DE1
331
E56
  5
E58
331
C56
  5
C56
331
2824
  5
2824
331
36C7
  5
36C8
331
373D
  5
373E
331
36CF
  5
36D0
331
3518
  5
3519
331
E5E
  5
E60
331
2AFC
  5
2AFC
331
3745
  5
3746
331
370E
  5
370F
331
3802
  5
3803
331
37CB
  5
37CC
331
1AE3
  5
1B1E
331
380A
  5
380B
331
3794
  5
3795
331
37D3
  5
37D4
331
1515
  5
163D
331
37DB
  5
37DC
331
379C
  5
379D
331
3812
  5
3813
331
1378
  5
13CE
331
37A4
  5
37A5
331
381A
  5
381B
331
C95
  5
C95
331
CD4
  5
CD4
331
D33
  5
D33
331
D72
  5
D73
331
DA9
  5
DAA
331
DE8
  5
DEA
331
C5E
  5
C5E
331
C9D
  5
C9D
331
D3B
  5
D3B
331
D7A
  5
D7B
331
DB1
  5
DB2
331
DF0
  5
DF2
331
E27
  5
E29
331
E66
  5
E68
331
C27
  5
C27
331
C66
  5
C66
331
3520
  5
3521
331
3716
  5
3717
331
36D7
  5
36D8
331
E2F
  5
E31
331
CA5
  5
CA5
331
D0C
  5
D0C
331
D43
  5
D43
331
D82
  5
D83
331
DB9
  5
DBA
331
DF8
  5
DFA
331
E6E
  5
E70
331
C2F
  5
C2F
331
C6E
  5
C6E
331
3528
  5
3529
331
371E
  5
371F
331
36DF
  5
36E0
331
CAD
  5
CAD
331
D14
  5
D14
331
D4B
  5
D4B
331
D8A
  5
D8B
331
DC1
  5
DC2
331
E00
  5
E02
331
E37
  5
E39
331
C37
  5
C37
331
C76
  5
C76
331
3530
  5
3531
331
3726
  5
3727
331
E3F
  5
E41
331
3538
  5
3539
331
36E7
  5
36E8
331
372E
  5
372F
331
36EF
  5
36F0
331
1209
  5
120F
331
374D
  5
374E
331
37AC
  5
37AD
331
3822
  5
3823
331
3775
  5
3776
331
37B4
  5
37B5
331
37EB
  5
37EC
331
382A
  5
382B
331
37F3
  5
37F4
331
377D
  5
377E
331
37BC
  5
37BD
331
3832
  5
3833
331
163D
  5
16B3
331
37FB
  5
37FC
331
3785
  5
3786
331
37C4
  5
37C5
331
181C
  5
18A2
331
1E8A
  5
1E8A
331
CB5
  5
CB5
331
D1C
  5
D1C
331
D53
  5
D54
331
D92
  5
D93
331
DC9
  5
DCA
331
E08
  5
E0A
331
C3F
  5
C3F
331
C7E
  5
C7E
331
3540
  5
3541
331
E47
  5
E49
331
DD1
  5
DD2
331
D5B
  5
D5C
331
CBD
  5
CBD
331
D24
  5
D24
331
D9A
  5
D9B
331
E10
  5
E12
331
E8E
  5
E90
331
C86
  5
C86
331
C47
  5
C47
331
3501
  5
3501
331
3736
  5
3737
331
36F7
  5
36F8
331
E4F
  5
E51
331
DA2
  5
DA3
331
D2C
  5
D2C
331
C8E
  5
C8E
331
CC5
  5
CC5
331
D63
  5
D64
331
DD9
  5
DDA
331
C4F
  5
C4F
331
3509
  5
350B
331
36C8
  5
36C9
331
36FF
  5
3700
331
CCD
  5
CCD
331
D6B
  5
D6C
331
DE1
  5
DE2
331
E57
  5
E59
331
C57
  5
C57
331
3511
  5
3513
331
373E
  5
373F
331
3746
  5
3747
331
E5F
  5
E61
331
3519
  5
351A
331
3707
  5
3708
331
370F
  5
3710
331
37CC
  5
37CD
331
378D
  5
378E
331
3803
  5
3804
331
380B
  5
380C
331
3795
  5
3796
331
37D4
  5
37D5
331
379D
  5
379E
331
3813
  5
3814
331
37A5
  5
37A6
331
381B
  5
381C
331
1DCB
  5
1DCB
331
C96
  5
C96
331
CD5
  5
CD5
331
D34
  5
D34
331
D73
  5
D74
331
DAA
  5
DAB
331
DE9
  5
DEB
331
E20
  5
E22
331
C5F
  5
C5F
331
36D0
  5
36D1
331
3521
  5
3522
331
310A
  5
310A
331
C9E
  5
C9E
331
D3C
  5
D3C
331
D7B
  5
D7C
331
DB2
  5
DB3
331
DF1
  5
DF3
331
E28
  5
E2A
331
E67
  5
E69
331
C67
  5
C67
331
C28
  5
C28
331
2B1D
  5
2B1D
331
3717
  5
3718
331
36D8
  5
36D9
331
E6F
  5
E71
331
CA6
  5
CA6
331
D0D
  5
D0D
331
D44
  5
D44
331
D83
  5
D84
331
DBA
  5
DBB
331
DF9
  5
DFB
331
E30
  5
E32
331
C30
  5
C30
331
C6F
  5
C6F
331
3529
  5
352A
331
371F
  5
3720
331
36E0
  5
36E1
331
CAE
  5
CAE
331
D15
  5
D15
331
D4C
  5
D4C
331
D8B
  5
D8C
331
DC2
  5
DC3
331
E01
  5
E03
331
E38
  5
E3A
331
C77
  5
C77
331
3531
  5
3532
331
36E8
  5
36E9
331
3539
  5
353A
331
34FA
  5
34FA
331
3727
  5
3728
331
372F
  5
3730
331
374E
  5
374F
331
37AD
  5
37AE
331
37E4
  5
37E5
331
3823
  5
3824
331
1DF3
  5
1DF3
331
3776
  5
3777
331
37B5
  5
37B6
331
37EC
  5
37ED
331
382B
  5
382C
331
37BD
  5
37BE
331
377E
  5
377F
331
37F4
  5
37F5
331
3833
  5
3834
331
14EF
  5
1514
331
37FC
  5
37FD
331
3786
  5
3787
331
37C5
  5
37C6
331
1B1C
  5
1B1F
331
C38
  5
C38
331
CB6
  5
CB6
331
D1D
  5
D1D
331
D54
  5
D55
331
D93
  5
D94
331
DCA
  5
DCB
331
E09
  5
E0B
331
E40
  5
E42
331
C40
  5
C40
331
C7F
  5
C7F
331
36F0
  5
36F1
331
3541
  5
3542
331
E48
  5
E4A
331
DD2
  5
DD3
331
D5C
  5
D5D
331
CBE
  5
CBE
331
D25
  5
D25
331
D9B
  5
D9C
331
E11
  5
E13
331
E8F
  5
E91
331
C87
  5
C87
331
C48
  5
C48
331
3502
  5
3502
331
3737
  5
3738
331
36F8
  5
36F9
331
DA3
  5
DA4
331
D2D
  5
D2D
331
C8F
  5
C8F
331
CC6
  5
CC6
331
D64
  5
D65
331
DDA
  5
DDB
331
E50
  5
E52
331
C50
  5
C50
331
36C1
  5
36C2
331
36C9
  5
36CA
331
3700
  5
3701
331
373F
  5
3740
331
CCE
  5
CCE
331
D6C
  5
D6D
331
DE2
  5
DE3
331
E58
  5
E5A
331
1147
  5
1149
331
3708
  5
3709
331
351A
  5
351B
331
3747
  5
3748
331
37CD
  5
37CE
331
378E
  5
378F
331
3804
  5
3805
331
380C
  5
380D
331
37D5
  5
37D6
331
16BE
  5
1767
331
37DD
  5
37DE
331
3814
  5
3815
331
379E
  5
379F
331
1490
  5
14EF
331
37A6
  5
37A7
331
381C
  5
381D
331
C58
  5
C58
331
C97
  5
C97
331
CD6
  5
CD6
331
D35
  5
D35
331
D74
  5
D75
331
DAB
  5
DAC
331
DEA
  5
DEC
331
E21
  5
E23
331
E60
  5
E62
331
C60
  5
C60
331
3710
  5
3711
331
36D1
  5
36D2
331
3522
  5
3523
331
C9F
  5
C9F
331
D3D
  5
D3D
331
D7C
  5
D81
331
DB3
  5
DB4
331
DF2
  5
DF4
331
E29
  5
E2B
331
E68
  5
E6A
331
C29
  5
C29
331
C68
  5
C68
331
1EFF
  5
1EFF
331
3718
  5
3719
331
36D9
  5
36DA
331
CA7
  5
CA7
331
D0E
  5
D0E
331
D45
  5
D45
331
D84
  5
D85
331
DBB
  5
DBC
331
DFA
  5
DFC
331
E31
  5
E33
331
E70
  5
E72
331
C31
  5
C31
331
C70
  5
C70
331
352A
  5
352B
331
3720
  5
3721
331
36E1
  5
36E2
331
3532
  5
3533
331
CAF
  5
CAF
331
D16
  5
D16
331
D4D
  5
D4D
331
D8C
  5
D8D
331
DC3
  5
DC4
331
E02
  5
E04
331
E39
  5
E3B
331
3728
  5
3729
331
36E9
  5
36EA
331
353A
  5
353B
331
1392
  5
13F6
331
37AE
  5
37AF
331
37E5
  5
37E6
331
3824
  5
3825
331
15F7
  5
1682
331
13C2
  5
1415
331
3777
  5
3778
331
37B6
  5
37B7
331
37ED
  5
37EE
331
382C
  5
382D
331
37F5
  5
37F6
331
377F
  5
3780
331
37BE
  5
37BF
331
3834
  5
3835
331
37FD
  5
37FE
331
3787
  5
3788
331
37C6
  5
37C7
331
C39
  5
C39
331
C78
  5
C78
331
C80
  5
C80
331
C41
  5
C41
331
CB7
  5
CB7
331
D1E
  5
D1E
331
D55
  5
D56
331
D94
  5
D95
331
DCB
  5
DCC
331
E0A
  5
E0C
331
E41
  5
E43
331
3730
  5
3731
331
36F1
  5
36F2
331
3542
  5
3543
331
3503
  5
3503
331
234F
  5
234F
331
E49
  5
E4B
331
DD3
  5
DD4
331
D5D
  5
D5E
331
C49
  5
C49
331
C88
  5
C88
331
CBF
  5
CBF
331
D26
  5
D26
331
D9C
  5
D9D
331
E12
  5
E14
331
E90
  5
E92
331
36F9
  5
36FA
331
350B
  5
350D
331
36C2
  5
36C3
331
3738
  5
3739
331
DA4
  5
DA5
331
D2E
  5
D2E
331
C51
  5
C51
331
CC7
  5
CC7
331
D65
  5
D66
331
DDB
  5
DDC
331
E51
  5
E53
331
3740
  5
3741
331
36CA
  5
36CB
331
3701
  5
3702
331
2EF4
  5
2EF4
331
3513
  5
3514
331
CCF
  5
CCF
331
D6D
  5
D6E
331
DE3
  5
DE4
331
E59
  5
E5B
331
3709
  5
370A
331
351B
  5
351C
331
37CE
  5
37CF
331
378F
  5
3790
331
3805
  5
3806
331
380D
  5
380E
331
37D6
  5
37D7
331
37DE
  5
37DF
331
3815
  5
3816
331
379F
  5
37A0
331
37A7
  5
37A8
331
381D
  5
381E
331
C59
  5
C59
331
C90
  5
C90
331
C61
  5
C61
331
C98
  5
C98
331
CD7
  5
CD7
331
D36
  5
D36
331
D75
  5
D76
331
DAC
  5
DAD
331
DEB
  5
DED
331
E22
  5
E24
331
E61
  5
E63
331
3711
  5
3712
331
36D2
  5
36D3
331
3523
  5
3524
331
D3E
  5
D3E
331
C2A
  5
C2A
331
C69
  5
C69
331
CA0
  5
CA0
331
DB4
  5
DB5
331
DF3
  5
DF5
331
E2A
  5
E2C
331
E69
  5
E6B
331
3719
  5
371A
331
36DA
  5
36DB
331
352B
  5
352C
331
C32
  5
C32
331
C71
  5
C71
331
CA8
  5
CA8
331
D0F
  5
D0F
331
D46
  5
D46
331
D85
  5
D86
331
DBC
  5
DBD
331
DFB
  5
DFD
331
E32
  5
E34
331
E71
  5
E73
331
3721
  5
3722
331
36E2
  5
36E3
331
3533
  5
3534
331
2D1F
  5
2D1F
331
D17
  5
D17
331
D4E
  5
D4F
331
D8D
  5
D8E
331
DC4
  5
DC5
331
E03
  5
E05
331
E3A
  5
E3C
331
3729
  5
372A
331
36EA
  5
36EB
331
353B
  5
353C
331
3748
  5
3749
331
120C
  5
1210
331
37AF
  5
37B0
331
37E6
  5
37E7
331
3825
  5
3826
331
3778
  5
3779
331
37B7
  5
37B8
331
37EE
  5
37EF
331
382D
  5
382E
331
37F6
  5
37F7
331
3780
  5
3781
331
37BF
  5
37C0
331
3835
  5
3836
331
37FE
  5
37FF
331
37C7
  5
37C8
331
1B1E
  5
1D06
331
C3A
  5
C3A
331
C79
  5
C79
331
CB0
  5
CB0
331
C81
  5
C81
331
C42
  5
C42
331
CB8
  5
CB8
331
D1F
  5
D1F
331
D56
  5
D57
331
D95
  5
D96
331
DCC
  5
DCD
331
E0B
  5
E0D
331
E42
  5
E44
331
3731
  5
3732
331
36F2
  5
36F3
331
3543
  5
36C0
331
3504
  5
3504
331
DD4
  5
DD5
331
D5E
  5
D5F
331
C4A
  5
C4A
331
C89
  5
C89
331
CC0
  5
CC0
331
D27
  5
D27
331
D9D
  5
D9E
331
E4A
  5
E4C
331
E91
  5
1147
331
3739
  5
373A
331
36FA
  5
36FB
331
36C3
  5
36C4
331
DA5
  5
DA6
331
D2F
  5
D2F
331
C52
  5
C52
331
CC8
  5
CC8
331
D66
  5
D67
331
DDC
  5
DDD
331
E52
  5
E54
331
3741
  5
3742
331
36CB
  5
36CC
331
3702
  5
3703
331
3514
  5
3515
331
D6E
  5
D6F
331
DE4
  5
DE5
331
E5A
  5
E5C
331
370A
  5
370B
331
351C
  5
351D
331
3788
  5
3789
331
147A
  5
14D0
331
37CF
  5
37D0
331
3790
  5
3791
331
3806
  5
3807
331
380E
  5
380F
331
37D7
  5
37D8
331
37DF
  5
37E0
331
37A0
  5
37A1
331
3816
  5
3817
331
381E
  5
381F
331
C5A
  5
C5A
331
C91
  5
C91
331
CD0
  5
CD0
331
C62
  5
C62
331
C99
  5
C99
331
CD8
  5
CD8
331
D37
  5
D37
331
D76
  5
D77
331
DAD
  5
DAE
331
DEC
  5
DEE
331
E23
  5
E25
331
E62
  5
E64
331
36D3
  5
36D4
331
3524
  5
3525
331
3712
  5
3713
331
D3F
  5
D3F
331
C2B
  5
C2B
331
C6A
  5
C6A
331
CA1
  5
CA1
331
DB5
  5
DB6
331
DF4
  5
DF6
331
E2B
  5
E2D
331
E6A
  5
E6C
331
371A
  5
371B
331
352C
  5
352D
331
337D
  5
337D
331
C33
  5
C33
331
C72
  5
C72
331
CA9
  5
CA9
331
D10
  5
D10
331
D47
  5
D47
331
D86
  5
D87
331
DBD
  5
DBE
331
DFC
  5
DFE
331
E33
  5
E35
331
E72
  5
E74
331
3722
  5
3723
331
36E3
  5
36E4
331
1F71
  5
1F71
331
3534
  5
3535
331
D4F
  5
D50
331
D8E
  5
D8F
331
DC5
  5
DC6
331
E04
  5
E06
331
E3B
  5
E3D
331
372A
  5
372B
331
36EB
  5
36EC
331
353C
  5
353D
331
3749
  5
374A
331
37A8
  5
37A9
331
120D
  5
1211
331
3771
  5
3772
331
37B0
  5
37B1
331
37E7
  5
37E8
331
3826
  5
3827
331
14BA
  5
150B
331
37EF
  5
37F0
331
3779
  5
377A
331
37B8
  5
37B9
331
382E
  5
382F
331
17F0
  5
1841
331
3781
  5
3782
331
37C0
  5
37C1
331
37F7
  5
37F8
331
3836
  5
3509
331
37FF
  5
3800
331
C3B
  5
C3B
331
C7A
  5
C7A
331
CB1
  5
CB1
331
D18
  5
D18
331
D57
  5
D58
331
C82
  5
C82
331
C43
  5
C43
331
CB9
  5
CB9
331
D20
  5
D20
331
D96
  5
D97
331
DCD
  5
DCE
331
E0C
  5
E0E
331
E43
  5
E45
331
3732
  5
3733
331
36F3
  5
36F4
331
3505
  5
3505
331
DD5
  5
DD6
331
D28
  5
D28
331
D5F
  5
D60
331
C4B
  5
C4B
331
C8A
  5
C8A
331
CC1
  5
CC1
331
D9E
  5
D9F
331
E4B
  5
E4D
331
E92
  5
1148
331
373A
  5
373B
331
36FB
  5
36FC
331
350D
  5
350F
331
36C4
  5
36C5
331
DA6
  5
DA7
331
C53
  5
C53
331
CC9
  5
CC9
331
D67
  5
D68
331
DDD
  5
DDE
331
E53
  5
E55
331
3742
  5
3743
331
36CC
  5
36CD
331
3703
  5
3704
331
3515
  5
3516
331
D6F
  5
D70
331
DE5
  5
DE7
331
E5B
  5
E5D
331
370B
  5
370C
331
351D
  5
351E
331
37C8
  5
37C9
331
3789
  5
378A
331
3807
  5
3808
331
3791
  5
3792
331
37D0
  5
37D1
331
37D8
  5
37D9
331
380F
  5
3810
331
3799
  5
379A
331
37A1
  5
37A2
331
3817
  5
3818
331
159A
  5
1663
331
1EB6
  5
1EB6
331
381F
  5
3820
331
1789
  5
1792
331
C5B
  5
C5B
331
C92
  5
C92
331
CD1
  5
CD1
331
D30
  5
D30
331
C24
  5
C24
331
C63
  5
C63
331
C9A
  5
C9A
331
CD9
  5
CD9
331
D38
  5
D38
331
D77
  5
D78
331
DAE
  5
DAF
331
DED
  5
DEF
331
E24
  5
E26
331
E63
  5
E65
331
3713
  5
3714
331
36D4
  5
36D5
331
3525
  5
3526
331
2BC9
  5
2BC9
331
DB6
  5
DB7
331
D40
  5
D40
331
C2C
  5
C2C
331
C6B
  5
C6B
331
CA2
  5
CA2
331
DF5
  5
DF7
331
E2C
  5
E2E
331
E6B
  5
E6D
331
371B
  5
371C
331
36DC
  5
36DD
331
352D
  5
352E
331
C34
  5
C34
331
C73
  5
C73
331
CAA
  5
CAA
331
D11
  5
D11
331
D48
  5
D48
331
D87
  5
D88
331
DBE
  5
DBF
331
DFD
  5
DFF
331
E34
  5
E36
331
E73
  5
E75
331
3723
  5
3724
331
36E4
  5
36E5
331
3535
  5
3536
331
34F6
  5
34F6
331
D8F
  5
D90
331
DC6
  5
DC7
331
E05
  5
E07
331
E3C
  5
E3E
331
E83
  5
E85
331
372B
  5
372C
331
36EC
  5
36ED
331
353D
  5
353E
331
374A
  5
374B
331
37A9
  5
37AA
331
37E0
  5
37E1
331
3772
  5
3773
331
37B1
  5
37B2
331
37E8
  5
37E9
331
3827
  5
3828
331
382F
  5
3830
331
37F0
  5
37F1
331
377A
  5
377B
331
37B9
  5
37BA
331
3782
  5
3783
331
37C1
  5
37C2
331
37F8
  5
37F9
331
1316
  5
13C2
331
1464
  5
14BA
331
C3C
  5
C3C
331
C7B
  5
C7B
331
CB2
  5
CB2
331
D19
  5
D19
331
D50
  5
D51
331
D58
  5
D59
331
C44
  5
C44
331
C83
  5
C83
331
CBA
  5
CBA
331
D21
  5
D21
331
D97
  5
D98
331
DCE
  5
DCF
331
E0D
  5
E0F
331
E44
  5
E46
331
3733
  5
3734
331
36F4
  5
36F5
331
3506
  5
3506
331
25C2
  5
25C2
331
DD6
  5
DD7
331
D29
  5
D29
331
C4C
  5
C4C
331
C8B
  5
C8B
331
CC2
  5
CC2
331
D60
  5
D61
331
D9F
  5
DA0
331
E4C
  5
E4E
331
373B
  5
373C
331
36FC
  5
36FD
331
36C5
  5
36C6
331
DA7
  5
DA8
331
C54
  5
C54
331
CCA
  5
CCA
331
D68
  5
D69
331
DDE
  5
DDF
331
E54
  5
E56
331
3743
  5
3744
331
36CD
  5
36CE
331
3704
  5
3707
331
3516
  5
3517
331
DE6
  5
DE8
331
E5C
  5
E5E
331
370C
  5
370D
331
351E
  5
351F
331
37C9
  5
37CA
331
378A
  5
378B
331
3800
  5
3801
331
1682
  5
16BE
331
3808
  5
3809
331
3792
  5
3793
331
37D1
  5
37D2
331
150B
  5
1515
331
37D9
  5
37DA
331
379A
  5
379B
331
3810
  5
3811
331
37A2
  5
37A3
331
3818
  5
3819
331
1415
  5
1464
331
178A
  5
1799
331
C5C
  5
C5C
331
C93
  5
C93
331
CD2
  5
CD2
331
D31
  5
D31
331
D70
  5
D71
331
C25
  5
C25
331
C64
  5
C64
331
C9B
  5
C9B
331
D39
  5
D39
331
D78
  5
D79
331
DAF
  5
DB0
331
DEE
  5
DF0
331
E25
  5
E27
331
E64
  5
E66
331
3714
  5
3715
331
36D5
  5
36D6
331
3526
  5
3527
331
DB7
  5
DB8
331
C2D
  5
C2D
331
C6C
  5
C6C
331
CA3
  5
CA3
331
D0A
  5
D0A
331
D41
  5
D41
331
DF6
  5
DF8
331
E2D
  5
E2F
331
E6C
  5
E6E
331
371C
  5
371D
331
36DD
  5
36DE
331
352E
  5
352F
331
1F5B
  5
1F5B
331
CAB
  5
CAB
331
D12
  5
D12
331
D49
  5
D49
331
D88
  5
D89
331
DBF
  5
DC0
331
DFE
  5
E00
331
E35
  5
E37
331
E74
  5
E76
331
C35
  5
C35
331
C74
  5
C74
331
3724
  5
3725
331
36E5
  5
36E6
331
3536
  5
3537
331
34F7
  5
34F7
331
DC7
  5
DC8
331
E06
  5
E08
331
E3D
  5
E3F
331
E84
  5
E86
331
372C
  5
372D
331
36ED
  5
36EE
331
353E
  5
353F
331
374B
  5
374C
331
37AA
  5
37AB
331
37E1
  5
37E2
331
3820
  5
3821
331
3773
  5
3774
331
37B2
  5
37B3
331
37E9
  5
37EA
331
3828
  5
3829
331
120F
  5
1212
331
37F1
  5
37F2
331
377B
  5
377C
331
37BA
  5
37BB
331
3830
  5
3831
331
17DA
  5
181C
331
1E30
  5
1E30
331
13CE
  5
1434
331
1E58
  5
1E58
331
37F9
  5
37FA
331
3783
  5
3784
331
37C2
  5
37C3
  0
XRECORD
  5
3BE7
102
{ACAD_REACTORS
330
3BE6
102
}
330
3BE6
100
AcDbXrecord
340
3BBE
  0
ACAD_PROXY_OBJECT
  5
811
102
{ACAD_XDICTIONARY
360
812
102
}
102
{ACAD_REACTORS
330
808
102
}
330
808
100
AcDbProxyObject
 90
      499
 91
      512
 93
     1340
310
42109E509B1BD8DAC02004014080404555555555555953FAA155555555555654FEA9AA400014080404555555555555953FAA155555555555654FEA9AA400000000000000E03F4080404555555555555953FAA155555555555654FEA9AA4014080404555555555555953FAA155555555555654FEA9AA4010201011555555555
310
55654FEA8555555555555953FAA6A9005020101155555555555654FEA8555555555555953FAA6A9000
 94
        0
1001
ACAD
1000
AcadProxyRoundTripData
1071
      504
1071
   851991
1070
     0
  0
ACAD_PROXY_OBJECT
  5
809
102
{ACAD_XDICTIONARY
360
80A
102
}
102
{ACAD_REACTORS
330
808
102
}
330
808
100
AcDbProxyObject
 90
      499
 91
      512
 93
     1340
310
42109E53185E595C802004014080404555555555555953FAA155555555555654FEA9AA400014080404555555555555953FAA155555555555654FEA9AA400000000000000E03F4080404555555555555953FAA155555555555654FEA9AA4014080404555555555555953FAA155555555555654FEA9AA4010201011555555555
310
55654FEA8555555555555953FAA6A9005020101155555555555654FEA8555555555555953FAA6A9000
 94
        0
1001
ACAD
1000
AcadProxyRoundTripData
1071
      504
1071
   851991
1070
     0
  0
ACAD_PROXY_OBJECT
  5
819
102
{ACAD_XDICTIONARY
360
81A
102
}
102
{ACAD_REACTORS
330
808
102
}
330
808
100
AcDbProxyObject
 90
      499
 91
      512
 93
     1332
310
41D1DB1BD8985B002004014080404555555555555953FAA155555555555654FEA9AA400014080404555555555555953FAA155555555555654FEA9AA400000000000000E03F4080404555555555555953FAA155555555555654FEA9AA4014080404555555555555953FAA155555555555654FEA9AA401020101155555555555
310
654FEA8555555555555953FAA6A9005020101155555555555654FEA8555555555555953FAA6A9000
 94
        0
1001
ACAD
1000
AcadProxyRoundTripData
1071
      504
1071
   851991
1070
     0
  0
ACAD_PROXY_OBJECT
  5
858
102
{ACAD_REACTORS
330
857
102
}
330
857
100
AcDbProxyObject
 90
      499
 91
      512
 93
      618
310
40901902A4063FBFFFFFE056BD1B81E855B9FC0AD7A3703D0AD73F4254DD185B99185C990000AD7A3703D0AC73F90141901A02B5E8DC0F42B1CFC02B5E8DC0F42B1CFE5764000000000000300FC6
340
6A
340
0
340
16
340
0
 94
        0
1001
ACAD_MLEADERVER
1070
     2
1001
ACAD
1000
AcadProxyRoundTripData
1071
      508
1071
   851991
1070
     0
  0
MLINESTYLE
  5
78
102
{ACAD_REACTORS
330
76
102
}
330
76
100
AcDbMlineStyle
  2
STANDARD
 70
     0
  3

 62
     0
 51
90.0
 52
90.0
 71
     2
 49
0.5
 62
   256
  6
BYLAYER
 49
-0.5
 62
   256
  6
BYLAYER
  0
ACDBPLACEHOLDER
  5
5
102
{ACAD_REACTORS
330
6
102
}
330
6
100
AcDbPlaceHolder
280
     0
  0
ACAD_PROXY_OBJECT
  5
836
102
{ACAD_REACTORS
330
835
102
}
330
835
100
AcDbProxyObject
 90
      499
 91
      512
 93
       49
310
904313A3100598
 94
        0
1001
ACAD
1000
AcadProxyRoundTripData
1071
      507
1071
   851991
1070
     0
  0
ACAD_PROXY_OBJECT
  5
837
102
{ACAD_REACTORS
330
835
102
}
330
835
100
AcDbProxyObject
 90
      499
 91
      512
 93
      113
310
904313A3200400000000000000406B
 94
        0
1001
ACAD
1000
AcadProxyRoundTripData
1071
      507
1071
   851991
1070
     0
  0
ACAD_PROXY_OBJECT
  5
838
102
{ACAD_REACTORS
330
835
102
}
330
835
100
AcDbProxyObject
 90
      499
 91
      512
 93
      113
310
904313A3400400000000000010406B
 94
        0
1001
ACAD
1000
AcadProxyRoundTripData
1071
      507
1071
   851991
1070
     0
  0
ACAD_PROXY_OBJECT
  5
839
102
{ACAD_REACTORS
330
835
102
}
330
835
100
AcDbProxyObject
 90
      499
 91
      512
 93
      113
310
904313A3500400000000000014406B
 94
        0
1001
ACAD
1000
AcadProxyRoundTripData
1071
      507
1071
   851991
1070
     0
  0
ACAD_PROXY_OBJECT
  5
83A
102
{ACAD_REACTORS
330
835
102
}
330
835
100
AcDbProxyObject
 90
      499
 91
      512
 93
      113
310
904313A3800400000000000020406B
 94
        0
1001
ACAD
1000
AcadProxyRoundTripData
1071
      507
1071
   851991
1070
     0
  0
ACAD_PROXY_OBJECT
  5
83B
102
{ACAD_REACTORS
330
835
102
}
330
835
100
AcDbProxyObject
 90
      499
 91
      512
 93
      121
310
905313A3130004000000000000244051
 94
        0
1001
ACAD
1000
AcadProxyRoundTripData
1071
      507
1071
   851991
1070
     0
  0
ACAD_PROXY_OBJECT
  5
83C
102
{ACAD_REACTORS
330
835
102
}
330
835
100
AcDbProxyObject
 90
      499
 91
      512
 93
      121
310
905313A3136004000000000000304051
 94
        0
1001
ACAD
1000
AcadProxyRoundTripData
1071
      507
1071
   851991
1070
     0
  0
ACAD_PROXY_OBJECT
  5
83D
102
{ACAD_REACTORS
330
835
102
}
330
835
100
AcDbProxyObject
 90
      499
 91
      512
 93
      121
310
905313A3230004000000000000344051
 94
        0
1001
ACAD
1000
AcadProxyRoundTripData
1071
      507
1071
   851991
1070
     0
  0
ACAD_PROXY_OBJECT
  5
83E
102
{ACAD_REACTORS
330
835
102
}
330
835
100
AcDbProxyObject
 90
      499
 91
      512
 93
      121
310
905313A33300040000000000003E4051
 94
        0
1001
ACAD
1000
AcadProxyRoundTripData
1071
      507
1071
   851991
1070
     0
  0
ACAD_PROXY_OBJECT
  5
83F
102
{ACAD_REACTORS
330
835
102
}
330
835
100
AcDbProxyObject
 90
      499
 91
      512
 93
      121
310
905313A3430004000000000000444051
 94
        0
1001
ACAD
1000
AcadProxyRoundTripData
1071
      507
1071
   851991
1070
     0
  0
ACAD_PROXY_OBJECT
  5
840
102
{ACAD_REACTORS
330
835
102
}
330
835
100
AcDbProxyObject
 90
      499
 91
      512
 93
      121
310
905313A3530004000000000000494051
 94
        0
1001
ACAD
1000
AcadProxyRoundTripData
1071
      507
1071
   851991
1070
     0
  0
ACAD_PROXY_OBJECT
  5
841
102
{ACAD_REACTORS
330
835
102
}
330
835
100
AcDbProxyObject
 90
      499
 91
      512
 93
      129
310
906313A313030004000000000000594038
 94
        0
1001
ACAD
1000
AcadProxyRoundTripData
1071
      507
1071
   851991
1070
     0
  0
ACAD_PROXY_OBJECT
  5
842
102
{ACAD_REACTORS
330
835
102
}
330
835
100
AcDbProxyObject
 90
      499
 91
      512
 93
      113
310
904323A31000000000000000010159
 94
        0
1001
ACAD
1000
AcadProxyRoundTripData
1071
      507
1071
   851991
1070
     0
  0
ACAD_PROXY_OBJECT
  5
843
102
{ACAD_REACTORS
330
835
102
}
330
835
100
AcDbProxyObject
 90
      499
 91
      512
 93
      113
310
904343A31000000000000000410159
 94
        0
1001
ACAD
1000
AcadProxyRoundTripData
1071
      507
1071
   851991
1070
     0
  0
ACAD_PROXY_OBJECT
  5
844
102
{ACAD_REACTORS
330
835
102
}
330
835
100
AcDbProxyObject
 90
      499
 91
      512
 93
      113
310
904383A31000000000000000810159
 94
        0
1001
ACAD
1000
AcadProxyRoundTripData
1071
      507
1071
   851991
1070
     0
  0
ACAD_PROXY_OBJECT
  5
845
102
{ACAD_REACTORS
330
835
102
}
330
835
100
AcDbProxyObject
 90
      499
 91
      512
 93
      121
310
90531303A31000000000000000910140
 94
        0
1001
ACAD
1000
AcadProxyRoundTripData
1071
      507
1071
   851991
1070
     0
  0
ACAD_PROXY_OBJECT
  5
846
102
{ACAD_REACTORS
330
835
102
}
330
835
100
AcDbProxyObject
 90
      499
 91
      512
 93
      129
310
9063130303A31000000000000001650138
 94
        0
1001
ACAD
1000
AcadProxyRoundTripData
1071
      507
1071
   851991
1070
     0
  0
ACAD_PROXY_OBJECT
  5
847
102
{ACAD_REACTORS
330
835
102
}
330
835
100
AcDbProxyObject
 90
      499
 91
      512
 93
      265
310
90F312F31323822203D2031272D302200000000000000200FC00000000000028402B
 94
        0
1001
ACAD
1000
AcadProxyRoundTripData
1071
      507
1071
   851991
1070
     0
  0
ACAD_PROXY_OBJECT
  5
848
102
{ACAD_REACTORS
330
835
102
}
330
835
100
AcDbProxyObject
 90
      499
 91
      512
 93
      257
310
90E312F363422203D2031272D302200000000000000240FC000000000000284040
 94
        0
1001
ACAD
1000
AcadProxyRoundTripData
1071
      507
1071
   851991
1070
     0
  0
ACAD_PROXY_OBJECT
  5
849
102
{ACAD_REACTORS
330
835
102
}
330
835
100
AcDbProxyObject
 90
      499
 91
      512
 93
      257
310
90E312F333222203D2031272D302200000000000000280FC000000000000284040
 94
        0
1001
ACAD
1000
AcadProxyRoundTripData
1071
      507
1071
   851991
1070
     0
  0
ACAD_PROXY_OBJECT
  5
84A
102
{ACAD_REACTORS
330
835
102
}
330
835
100
AcDbProxyObject
 90
      499
 91
      512
 93
      257
310
90E312F313622203D2031272D3022000000000000002C0FC000000000000284040
 94
        0
1001
ACAD
1000
AcadProxyRoundTripData
1071
      507
1071
   851991
1070
     0
  0
ACAD_PROXY_OBJECT
  5
84B
102
{ACAD_REACTORS
330
835
102
}
330
835
100
AcDbProxyObject
 90
      499
 91
      512
 93
      257
310
90E332F333222203D2031272D3022000000000000002E0FC000000000000284040
 94
        0
1001
ACAD
1000
AcadProxyRoundTripData
1071
      507
1071
   851991
1070
     0
  0
ACAD_PROXY_OBJECT
  5
84C
102
{ACAD_REACTORS
330
835
102
}
330
835
100
AcDbProxyObject
 90
      499
 91
      512
 93
      249
310
90D312F3822203D2031272D302200000000000000300FC000000000000284040
 94
        0
1001
ACAD
1000
AcadProxyRoundTripData
1071
      507
1071
   851991
1070
     0
  0
ACAD_PROXY_OBJECT
  5
84D
102
{ACAD_REACTORS
330
835
102
}
330
835
100
AcDbProxyObject
 90
      499
 91
      512
 93
      257
310
90E332F313622203D2031272D302200000000000000320FC000000000000284040
 94
        0
1001
ACAD
1000
AcadProxyRoundTripData
1071
      507
1071
   851991
1070
     0
  0
ACAD_PROXY_OBJECT
  5
84E
102
{ACAD_REACTORS
330
835
102
}
330
835
100
AcDbProxyObject
 90
      499
 91
      512
 93
      249
310
90D312F3422203D2031272D302200000000000000340FC000000000000284040
 94
        0
1001
ACAD
1000
AcadProxyRoundTripData
1071
      507
1071
   851991
1070
     0
  0
ACAD_PROXY_OBJECT
  5
84F
102
{ACAD_REACTORS
330
835
102
}
330
835
100
AcDbProxyObject
 90
      499
 91
      512
 93
      249
310
90D332F3822203D2031272D302200000000000000360FC000000000000284040
 94
        0
1001
ACAD
1000
AcadProxyRoundTripData
1071
      507
1071
   851991
1070
     0
  0
ACAD_PROXY_OBJECT
  5
850
102
{ACAD_REACTORS
330
835
102
}
330
835
100
AcDbProxyObject
 90
      499
 91
      512
 93
      249
310
90D312F3222203D2031272D302200000000000000380FC000000000000284040
 94
        0
1001
ACAD
1000
AcadProxyRoundTripData
1071
      507
1071
   851991
1070
     0
  0
ACAD_PROXY_OBJECT
  5
851
102
{ACAD_REACTORS
330
835
102
}
330
835
100
AcDbProxyObject
 90
      499
 91
      512
 93
      249
310
90D332F3422203D2031272D3022000000000000003A0FC000000000000284040
 94
        0
1001
ACAD
1000
AcadProxyRoundTripData
1071
      507
1071
   851991
1070
     0
  0
ACAD_PROXY_OBJECT
  5
852
102
{ACAD_REACTORS
330
835
102
}
330
835
100
AcDbProxyObject
 90
      499
 91
      512
 93
      169
310
90B3122203D2031272D3022004000000000000284020
 94
        0
1001
ACAD
1000
AcadProxyRoundTripData
1071
      507
1071
   851991
1070
     0
  0
ACAD_PROXY_OBJECT
  5
853
102
{ACAD_REACTORS
330
835
102
}
330
835
100
AcDbProxyObject
 90
      499
 91
      512
 93
      265
310
90F312D312F3222203D2031272D3022000000000000003E0FC00000000000028402B
 94
        0
1001
ACAD
1000
AcadProxyRoundTripData
1071
      507
1071
   851991
1070
     0
  0
ACAD_PROXY_OBJECT
  5
854
102
{ACAD_REACTORS
330
835
102
}
330
835
100
AcDbProxyObject
 90
      499
 91
      512
 93
      233
310
90B3322203D2031272D30220000000000000002100000000000000284000
 94
        0
1001
ACAD
1000
AcadProxyRoundTripData
1071
      507
1071
   851991
1070
     0
  0
ACAD_PROXY_OBJECT
  5
855
102
{ACAD_REACTORS
330
835
102
}
330
835
100
AcDbProxyObject
 90
      499
 91
      512
 93
      233
310
90B3622203D2031272D30220000000000000006100000000000000284000
 94
        0
1001
ACAD
1000
AcadProxyRoundTripData
1071
      507
1071
   851991
1070
     0
  0
ACAD_PROXY_OBJECT
  5
856
102
{ACAD_REACTORS
330
835
102
}
330
835
100
AcDbProxyObject
 90
      499
 91
      512
 93
      257
310
90E31272D3022203D2031272D3022000000000000000A100000000000000284040
 94
        0
1001
ACAD
1000
AcadProxyRoundTripData
1071
      507
1071
   851991
1070
     0
  0
ACAD_PROXY_OBJECT
  5
834
102
{ACAD_XDICTIONARY
360
88C
102
}
102
{ACAD_REACTORS
330
833
102
}
330
833
100
AcDbProxyObject
 90
      499
 91
      512
 93
     1849
310
4254DD185B99185C990028B81E85EB51B8AE3F2E07A17AD46E2B8FC02B5E8DC0F42B1CFD028000000C1008070000C3001FDFF8000000C1003FBFF000000182007F7FE00000030400FEFFC00000060801FDFF8000000C1003FBFF00000018200000000000000681FA0B0000001820100E000186003FBFF000000182007F7FE0
310
0000030400FEFFC00000060801FDFF8000000C1003FBFF000000182007F7FE000000304000AD7A3703D0AC73F4160000003040201C00030C007F7FE00000030400FEFFC00000060801FDFF8000000C1003FBFF000000182007F7FE00000030400FEFFC000000608000
340
16
340
16
340
16
 94
        0
1001
ACAD
1000
AcadProxyRoundTripData
1071
      506
1071
   851991
1070
     0
  0
ACAD_PROXY_OBJECT
  5
827
102
{ACAD_REACTORS
330
821
102
}
330
821
100
AcDbProxyObject
 90
      499
 91
      512
 93
      444
310
430C9915DA5C99599C985B59401049028333333333333E3BF0000000000000FB0107901411070040501600405405064090741402480A0340
 94
        0
1001
ACAD
1000
AcDbSavedByObjectVersion
1070
     0
1000
AcadProxyRoundTripData
1071
      505
1071
   851991
1070
     0
  0
ACAD_PROXY_OBJECT
  5
829
102
{ACAD_REACTORS
330
821
102
}
330
821
100
AcDbProxyObject
 90
      499
 91
      512
 93
      508
310
428CD108121A5919195B8010640502408333333333333E3BF0000000000000FB01079024090700405020000000000001110200405405064090740C02480A0340
 94
        0
1001
ACAD
1000
AcDbSavedByObjectVersion
1070
     0
1000
AcadProxyRoundTripData
1071
      505
1071
   851991
1070
     0
  0
ACAD_PROXY_OBJECT
  5
828
102
{ACAD_REACTORS
330
821
102
}
330
821
100
AcDbProxyObject
 90
      499
 91
      512
 93
      444
310
430CD915DA5C99599C985B59401059028333333333333E3BF0000000000000FB0107901411070040501600405405064090741402480A0340
 94
        0
1001
ACAD
1000
AcDbSavedByObjectVersion
1070
     0
1000
AcadProxyRoundTripData
1071
      505
1071
   851991
1070
     0
  0
ACAD_PROXY_OBJECT
  5
826
102
{ACAD_REACTORS
330
821
102
}
330
821
100
AcDbProxyObject
 90
      499
 91
      512
 93
      396
310
4190985CDA58C0107406404333333333333E3BF0000000000000FB0107A41107004050150841D405064090741402480A0356
 94
        0
1001
ACAD
1000
AcDbSavedByObjectVersion
1070
     0
1000
AcadProxyRoundTripData
1071
      505
1071
   851991
1070
     0
  0
ACAD_PROXY_OBJECT
  5
82D
102
{ACAD_REACTORS
330
821
102
}
330
821
100
AcDbProxyObject
 90
      499
 91
      512
 93
      436
310
42509C9A59DA1D195B8010C409028333333333333E3BF0000000000000FB010790141107004050150841D405064090741402480A029956
 94
        0
1001
ACAD
1000
AcDbSavedByObjectVersion
1070
     0
1000
AcadProxyRoundTripData
1071
      505
1071
   851991
1070
     0
  0
ACAD_PROXY_OBJECT
  5
831
102
{ACAD_REACTORS
330
821
102
}
330
821
100
AcDbProxyObject
 90
      499
 91
      512
 93
      460
310
4310DBDB1BDC90DA185B99D9401104090240C333333333333E3BF0000000000000FB0108901411070040501508421405064090741402480A0354
 94
        0
1001
ACAD
1000
AcDbSavedByObjectVersion
1070
     0
1000
AcadProxyRoundTripData
1071
      505
1071
   851991
1070
     0
  0
ACAD_PROXY_OBJECT
  5
82A
102
{ACAD_REACTORS
330
821
102
}
330
821
100
AcDbProxyObject
 90
      499
 91
      512
 93
      508
310
42D0DBDB98D95C1D1D585B0010940D028333333333333E3BF0000000000000FB0107902409070040501000000000000111010841D405064090740C02480A0340
 94
        0
1001
ACAD
1000
AcDbSavedByObjectVersion
1070
     0
1000
AcadProxyRoundTripData
1071
      505
1071
   851991
1070
     0
  0
ACAD_PROXY_OBJECT
  5
82C
102
{ACAD_REACTORS
330
821
102
}
330
821
100
AcDbProxyObject
 90
      499
 91
      512
 93
      420
310
41111A5B4010B409028333333333333E3BF0000000000000FB010790141107004050150841D405064090741402480A02677FFFFFDB
 94
        0
1001
ACAD
1000
AcDbSavedByObjectVersion
1070
     0
1000
AcadProxyRoundTripData
1071
      505
1071
   851991
1070
     0
  0
ACAD_PROXY_OBJECT
  5
830
102
{ACAD_REACTORS
330
821
102
}
330
821
100
AcDbProxyObject
 90
      499
 91
      512
 93
      452
310
43119858D95C185D1D195C9B8010F409028333333333333E3BF0000000000000FB010790141107004050150841D405064090741402480A0350
 94
        0
1001
ACAD
1000
AcDbSavedByObjectVersion
1070
     0
1000
AcadProxyRoundTripData
1071
      505
1071
   851991
1070
     0
  0
ACAD_PROXY_OBJECT
  5
822
102
{ACAD_REACTORS
330
821
102
}
330
821
100
AcDbProxyObject
 90
      499
 91
      512
 93
      396
310
41519B185D00240901404333333333333E3BF0000000000000F9010740A41107004050150841D405064090741402480A1B55
 94
        0
1001
ACAD
1000
AcDbSavedByObjectVersion
1070
     0
1000
AcadProxyRoundTripData
1071
      505
1071
   851991
1070
     0
  0
ACAD_PROXY_OBJECT
  5
823
102
{ACAD_REACTORS
330
821
102
}
330
821
100
AcDbProxyObject
 90
      499
 91
      512
 93
      484
310
43919B185D15DA5D1A115919D95CC010140901404333333333333E3BF0000000000000F9010740901411070040501600405405064090741402480A1B50
 94
        0
1001
ACAD
1000
AcDbSavedByObjectVersion
1070
     0
1000
AcadProxyRoundTripData
1071
      505
1071
   851991
1070
     0
  0
ACAD_PROXY_OBJECT
  5
824
102
{ACAD_REACTORS
330
821
102
}
330
821
100
AcDbProxyObject
 90
      499
 91
      512
 93
      420
310
4211DBDD5C985D590010240902404333333333333E3BF0000000000000F9010740A411070040501641D405064090741402480A1B50
 94
        0
1001
ACAD
1000
AcDbSavedByObjectVersion
1070
     0
1000
AcadProxyRoundTripData
1071
      505
1071
   851991
1070
     0
  0
ACAD_PROXY_OBJECT
  5
825
102
{ACAD_REACTORS
330
821
102
}
330
821
100
AcDbProxyObject
 90
      499
 91
      512
 93
      508
310
4451DBDD5C985D5915DA5D1A115919D95CC010340902404333333333333E3BF0000000000000F9010740901411070040501600405405064090741402480A1B50
 94
        0
1001
ACAD
1000
AcDbSavedByObjectVersion
1070
     0
1000
AcadProxyRoundTripData
1071
      505
1071
   851991
1070
     0
  0
ACAD_PROXY_OBJECT
  5
82F
102
{ACAD_REACTORS
330
821
102
}
330
821
100
AcDbProxyObject
 90
      499
 91
      512
 93
      452
310
43131A5B995C185D1D195C9B8010E409028333333333333E3BF0000000000000FB010790141107004050750841D405064090741402483A0350
 94
        0
1001
ACAD
1000
AcDbSavedByObjectVersion
1070
     0
1000
AcadProxyRoundTripData
1071
      505
1071
   851991
1070
     0
  0
ACAD_PROXY_OBJECT
  5
82B
102
{ACAD_REACTORS
330
821
102
}
330
821
100
AcDbProxyObject
 90
      499
 91
      512
 93
      428
310
429499585B1A5CDD1A58C0108409028333333333333E3BF0000000000000FB01079019070040501508421405064090741402480A1B45
 94
        0
1001
ACAD
1000
AcDbSavedByObjectVersion
1070
     0
1000
AcadProxyRoundTripData
1071
      505
1071
   851991
1070
     0
  0
ACAD_PROXY_OBJECT
  5
82E
102
{ACAD_REACTORS
330
821
102
}
330
821
100
AcDbProxyObject
 90
      499
 91
      512
 93
      420
310
42151A1A58DAD95B8010D409028333333333333E3BF0000000000000FB010790141107004050150C41D405064090741402480A0352
 94
        0
1001
ACAD
1000
AcDbSavedByObjectVersion
1070
     0
1000
AcadProxyRoundTripData
1071
      505
1071
   851991
1070
     0
  0
XRECORD
  5
3BCE
102
{ACAD_REACTORS
330
3BC4
102
}
330
3BC4
100
AcDbXrecord
 90
        0
  0
XRECORD
  5
3BD2
102
{ACAD_REACTORS
330
3BC4
102
}
330
3BC4
100
AcDbXrecord
1000
DSTYLE
1002
{
1070
   179
 70
     2
1070
   277
 70
     6
1002
}
  0
XRECORD
  5
3BCF
102
{ACAD_REACTORS
330
3BC4
102
}
330
3BC4
100
AcDbXrecord
  1
{F8E7DCD7-EF2B-4E83-868E-1BB3A7734B1D}
  0
XRECORD
  5
3BC7
102
{ACAD_REACTORS
330
3BC4
102
}
330
3BC4
100
AcDbXrecord
  1

  0
XRECORD
  5
3BCD
102
{ACAD_REACTORS
330
3BC4
102
}
330
3BC4
100
AcDbXrecord
 90
        0
  0
XRECORD
  5
3BC9
102
{ACAD_REACTORS
330
3BC4
102
}
330
3BC4
100
AcDbXrecord
340
61
  0
XRECORD
  5
3BCC
102
{ACAD_REACTORS
330
3BC4
102
}
330
3BC4
100
AcDbXrecord
 90
    10781
  0
XRECORD
  5
3BCA
102
{ACAD_REACTORS
330
3BC4
102
}
330
3BC4
100
AcDbXrecord
340
77
  0
XRECORD
  5
3BCB
102
{ACAD_REACTORS
330
3BC4
102
}
330
3BC4
100
AcDbXrecord
340
6
  0
XRECORD
  5
3BD1
102
{ACAD_REACTORS
330
3BC4
102
}
330
3BC4
100
AcDbXrecord
 40
0.0
  0
XRECORD
  5
3BD5
102
{ACAD_REACTORS
330
3BC4
102
}
330
3BC4
100
AcDbXrecord
340
0
  0
XRECORD
  5
3BDB
102
{ACAD_REACTORS
330
3BC4
102
}
330
3BC4
100
AcDbXrecord
 10
0.0
 20
0.0
 30
0.0
  0
XRECORD
  5
3BD7
102
{ACAD_REACTORS
330
3BC4
102
}
330
3BC4
100
AcDbXrecord
 10
0.0
 20
0.0
 30
0.0
  0
XRECORD
  5
3BDA
102
{ACAD_REACTORS
330
3BC4
102
}
330
3BC4
100
AcDbXrecord
 10
0.0
 20
0.0
 30
0.0
  0
XRECORD
  5
3BD8
102
{ACAD_REACTORS
330
3BC4
102
}
330
3BC4
100
AcDbXrecord
 10
0.0
 20
0.0
 30
0.0
  0
XRECORD
  5
3BD9
102
{ACAD_REACTORS
330
3BC4
102
}
330
3BC4
100
AcDbXrecord
 10
0.0
 20
0.0
 30
0.0
  0
XRECORD
  5
3BD6
102
{ACAD_REACTORS
330
3BC4
102
}
330
3BC4
100
AcDbXrecord
 10
0.0
 20
0.0
 30
0.0
  0
XRECORD
  5
3BD3
102
{ACAD_REACTORS
330
3BC4
102
}
330
3BC4
100
AcDbXrecord
340
0
  0
XRECORD
  5
3BD4
102
{ACAD_REACTORS
330
3BC4
102
}
330
3BC4
100
AcDbXrecord
 70
     0
  0
XRECORD
  5
3BC8
102
{ACAD_REACTORS
330
3BC4
102
}
330
3BC4
100
AcDbXrecord
  1
Sekkei.ctb
  0
XRECORD
  5
3BC5
102
{ACAD_REACTORS
330
3BC4
102
}
330
3BC4
100
AcDbXrecord
 90
        1
  0
XRECORD
  5
3BC6
102
{ACAD_REACTORS
330
3BC4
102
}
330
3BC4
100
AcDbXrecord
 90
       70
  0
XRECORD
  5
3BDE
102
{ACAD_REACTORS
330
3BC4
102
}
330
3BC4
100
AcDbXrecord
340
0
  0
XRECORD
  5
3BE4
102
{ACAD_REACTORS
330
3BC4
102
}
330
3BC4
100
AcDbXrecord
 10
0.0
 20
0.0
 30
0.0
  0
XRECORD
  5
3BE0
102
{ACAD_REACTORS
330
3BC4
102
}
330
3BC4
100
AcDbXrecord
 10
0.0
 20
0.0
 30
0.0
  0
XRECORD
  5
3BE3
102
{ACAD_REACTORS
330
3BC4
102
}
330
3BC4
100
AcDbXrecord
 10
0.0
 20
0.0
 30
0.0
  0
XRECORD
  5
3BE1
102
{ACAD_REACTORS
330
3BC4
102
}
330
3BC4
100
AcDbXrecord
 10
0.0
 20
0.0
 30
0.0
  0
XRECORD
  5
3BE2
102
{ACAD_REACTORS
330
3BC4
102
}
330
3BC4
100
AcDbXrecord
 10
0.0
 20
0.0
 30
0.0
  0
XRECORD
  5
3BDF
102
{ACAD_REACTORS
330
3BC4
102
}
330
3BC4
100
AcDbXrecord
 10
0.0
 20
0.0
 30
0.0
  0
XRECORD
  5
3BDC
102
{ACAD_REACTORS
330
3BC4
102
}
330
3BC4
100
AcDbXrecord
340
0
  0
XRECORD
  5
3BDD
102
{ACAD_REACTORS
330
3BC4
102
}
330
3BC4
100
AcDbXrecord
 70
     0
  0
XRECORD
  5
3BD0
102
{ACAD_REACTORS
330
3BC4
102
}
330
3BC4
100
AcDbXrecord
  1
{4C67C8D2-6221-40E9-92B5-FAB3F5BB07E7}
  0
DICTIONARYVAR
  5
892
102
{ACAD_REACTORS
330
102
102
}
330
102
100
DictionaryVariables
280
     0
  1
1:1
  0
DICTIONARYVAR
  5
890
102
{ACAD_REACTORS
330
102
102
}
330
102
100
DictionaryVariables
280
     0
  1
STANDARD
  0
DICTIONARYVAR
  5
88F
102
{ACAD_REACTORS
330
102
102
}
330
102
100
DictionaryVariables
280
     0
  1
STANDARD
  0
DICTIONARYVAR
  5
103
102
{ACAD_REACTORS
330
102
102
}
330
102
100
DictionaryVariables
280
     0
  1
1
  0
DICTIONARYVAR
  5
1BBB
102
{ACAD_REACTORS
330
102
102
}
330
102
100
DictionaryVariables
280
     0
  1
0
  0
DICTIONARYVAR
  5
893
102
{ACAD_REACTORS
330
102
102
}
330
102
100
DictionaryVariables
280
     0
  1
0
  0
DICTIONARYVAR
  5
891
102
{ACAD_REACTORS
330
102
102
}
330
102
100
DictionaryVariables
280
     0
  1
0
  0
DICTIONARYVAR
  5
549
102
{ACAD_REACTORS
330
102
102
}
330
102
100
DictionaryVariables
280
     0
  1
96
  0
DICTIONARY
  5
812
330
811
100
AcDbDictionary
280
     1
  3
ACAD_XREC_ROUNDTRIP
360
3BA2
  3
BUMPTILE
360
814
  3
DIFFUSETILE
360
813
  3
OPACITYTILE
360
817
  3
REFLECTIONTILE
360
816
  3
REFRACTIONTILE
360
818
  3
SPECULARTILE
360
815
  0
DICTIONARY
  5
80A
330
809
100
AcDbDictionary
280
     1
  3
ACAD_XREC_ROUNDTRIP
360
3BA1
  3
BUMPTILE
360
80C
  3
DIFFUSETILE
360
80B
  3
OPACITYTILE
360
80F
  3
REFLECTIONTILE
360
80E
  3
REFRACTIONTILE
360
810
  3
SPECULARTILE
360
80D
  0
DICTIONARY
  5
81A
330
819
100
AcDbDictionary
280
     1
  3
ACAD_XREC_ROUNDTRIP
360
3BA3
  3
BUMPTILE
360
81C
  3
DIFFUSETILE
360
81B
  3
OPACITYTILE
360
81F
  3
REFLECTIONTILE
360
81E
  3
REFRACTIONTILE
360
820
  3
SPECULARTILE
360
81D
  0
DICTIONARY
  5
88C
330
834
100
AcDbDictionary
280
     1
  3
ACAD_ROUNDTRIP_2008_TABLES
360
3B99
  3
ACAD_XREC_ROUNDTRIP
360
3BA4
  0
XRECORD
  5
3BA2
102
{ACAD_REACTORS
330
812
102
}
330
812
100
AcDbXrecord
102
MATERIAL
148
0.0
149
0.0
149
0.0
 93
        0
 94
      127
282
     0
 72
     0
 77
     0
171
     0
175
     0
179
     0
273
     0
  0
XRECORD
  5
814
102
{ACAD_REACTORS
330
812
102
}
330
812
100
AcDbXrecord
270
     1
271
     1
  0
XRECORD
  5
813
102
{ACAD_REACTORS
330
812
102
}
330
812
100
AcDbXrecord
270
     1
271
     1
  0
XRECORD
  5
817
102
{ACAD_REACTORS
330
812
102
}
330
812
100
AcDbXrecord
270
     1
271
     1
  0
XRECORD
  5
816
102
{ACAD_REACTORS
330
812
102
}
330
812
100
AcDbXrecord
270
     1
271
     1
  0
XRECORD
  5
818
102
{ACAD_REACTORS
330
812
102
}
330
812
100
AcDbXrecord
270
     1
271
     1
  0
XRECORD
  5
815
102
{ACAD_REACTORS
330
812
102
}
330
812
100
AcDbXrecord
270
     1
271
     1
  0
XRECORD
  5
3BA1
102
{ACAD_REACTORS
330
80A
102
}
330
80A
100
AcDbXrecord
102
MATERIAL
148
0.0
149
0.0
149
0.0
 93
        0
 94
      127
282
     0
 72
     0
 77
     0
171
     0
175
     0
179
     0
273
     0
  0
XRECORD
  5
80C
102
{ACAD_REACTORS
330
80A
102
}
330
80A
100
AcDbXrecord
270
     1
271
     1
  0
XRECORD
  5
80B
102
{ACAD_REACTORS
330
80A
102
}
330
80A
100
AcDbXrecord
270
     1
271
     1
  0
XRECORD
  5
80F
102
{ACAD_REACTORS
330
80A
102
}
330
80A
100
AcDbXrecord
270
     1
271
     1
  0
XRECORD
  5
80E
102
{ACAD_REACTORS
330
80A
102
}
330
80A
100
AcDbXrecord
270
     1
271
     1
  0
XRECORD
  5
810
102
{ACAD_REACTORS
330
80A
102
}
330
80A
100
AcDbXrecord
270
     1
271
     1
  0
XRECORD
  5
80D
102
{ACAD_REACTORS
330
80A
102
}
330
80A
100
AcDbXrecord
270
     1
271
     1
  0
XRECORD
  5
3BA3
102
{ACAD_REACTORS
330
81A
102
}
330
81A
100
AcDbXrecord
102
MATERIAL
148
0.0
149
0.0
149
0.0
 93
        0
 94
      127
282
     0
 72
     0
 77
     0
171
     0
175
     0
179
     0
273
     0
  0
XRECORD
  5
81C
102
{ACAD_REACTORS
330
81A
102
}
330
81A
100
AcDbXrecord
270
     1
271
     1
  0
XRECORD
  5
81B
102
{ACAD_REACTORS
330
81A
102
}
330
81A
100
AcDbXrecord
270
     1
271
     1
  0
XRECORD
  5
81F
102
{ACAD_REACTORS
330
81A
102
}
330
81A
100
AcDbXrecord
270
     1
271
     1
  0
XRECORD
  5
81E
102
{ACAD_REACTORS
330
81A
102
}
330
81A
100
AcDbXrecord
270
     1
271
     1
  0
XRECORD
  5
820
102
{ACAD_REACTORS
330
81A
102
}
330
81A
100
AcDbXrecord
270
     1
271
     1
  0
XRECORD
  5
81D
102
{ACAD_REACTORS
330
81A
102
}
330
81A
100
AcDbXrecord
270
     1
271
     1
  0
ACAD_PROXY_OBJECT
  5
3B99
102
{ACAD_REACTORS
330
88C
102
}
330
88C
100
AcDbProxyObject
 90
      499
 91
      512
 93
     1044
310
40D054060020000020000003200101A000080002A5058000000C100000000000000340FE901405075F5449544C450041501A8000000C800406800020000A9416000000304000AD7A3703D0AC73FA409014217D2115051115480105406A0000003200101A000080002A5028000000C10002B5E8DC0F42B1CFE903409065F444
310
15441003
340
16
340
16
340
16
 94
        0
1001
ACAD
1000
AcadProxyRoundTripData
1071
      510
1071
   851991
1070
     0
  0
XRECORD
  5
3BA4
102
{ACAD_REACTORS
330
88C
102
}
330
88C
100
AcDbXrecord
102
ACAD_ROUNDTRIP_PRE2007_TABLESTYLE
 90
      512
 91
        0
  1

 92
      512
 93
        0
  2

 94
      512
 95
        0
  3

  0
ENDSEC
  0
EOF
