  0
SECTION
  2
HEADER
  9
$ACADVER
  1
AC1014
  9
$ACADMAINTVER
 70
     9
  9
$DWGCODEPAGE
  3
ANSI_932
  9
$INSBASE
 10
0.0
 20
0.0
 30
0.0
  9
$EXTMIN
 10
83.31653801361358
 20
90.2584628305866
 30
0.0
  9
$EXTMAX
 10
1509.773248252535
 20
660.2298369518472
 30
0.0
  9
$LIMMIN
 10
0.0
 20
0.0
  9
$LIMMAX
 10
297.0
 20
210.0
  9
$ORTHOMODE
 70
     1
  9
$REGENMODE
 70
     1
  9
$FILLMODE
 70
     1
  9
$QTEXTMODE
 70
     0
  9
$MIRRTEXT
 70
     0
  9
$DRAGMODE
 70
     2
  9
$LTSCALE
 40
4.0
  9
$OSMODE
 70
    37
  9
$ATTMODE
 70
     1
  9
$TEXTSIZE
 40
2.0
  9
$TRACEWID
 40
1.0
  9
$TEXTSTYLE
  7
STANDARD
  9
$CLAYER
  8
0
  9
$CELTYPE
  6
BYLAYER
  9
$CECOLOR
 62
   256
  9
$CELTSCALE
 40
1.0
  9
$DELOBJ
 70
     1
  9
$DISPSILH
 70
     0
  9
$DIMSCALE
 40
4.0
  9
$DIMASZ
 40
1.8
  9
$DIMEXO
 40
0.625
  9
$DIMDLI
 40
3.75
  9
$DIMRND
 40
0.0
  9
$DIMDLE
 40
0.0
  9
$DIMEXE
 40
0.8
  9
$DIMTP
 40
0.0
  9
$DIMTM
 40
0.0
  9
$DIMTXT
 40
1.8
  9
$DIMCEN
 40
2.5
  9
$DIMTSZ
 40
0.0
  9
$DIMTOL
 70
     0
  9
$DIMLIM
 70
     0
  9
$DIMTIH
 70
     0
  9
$DIMTOH
 70
     0
  9
$DIMSE1
 70
     0
  9
$DIMSE2
 70
     0
  9
$DIMTAD
 70
     1
  9
$DIMZIN
 70
     8
  9
$DIMBLK
  1

  9
$DIMASO
 70
     1
  9
$DIMSHO
 70
     1
  9
$DIMPOST
  1

  9
$DIMAPOST
  1

  9
$DIMALT
 70
     0
  9
$DIMALTD
 70
     4
  9
$DIMALTF
 40
0.0394
  9
$DIMLFAC
 40
1.0
  9
$DIMTOFL
 70
     1
  9
$DIMTVP
 40
0.0
  9
$DIMTIX
 70
     0
  9
$DIMSOXD
 70
     0
  9
$DIMSAH
 70
     0
  9
$DIMBLK1
  1

  9
$DIMBLK2
  1

  9
$DIMSTYLE
  2
STANDARD
  9
$DIMCLRD
 70
     0
  9
$DIMCLRE
 70
     0
  9
$DIMCLRT
 70
     0
  9
$DIMTFAC
 40
1.0
  9
$DIMGAP
 40
0.75
  9
$DIMJUST
 70
     0
  9
$DIMSD1
 70
     0
  9
$DIMSD2
 70
     0
  9
$DIMTOLJ
 70
     1
  9
$DIMTZIN
 70
     0
  9
$DIMALTZ
 70
     0
  9
$DIMALTTZ
 70
     0
  9
$DIMFIT
 70
     3
  9
$DIMUPT
 70
     0
  9
$DIMUNIT
 70
     8
  9
$DIMDEC
 70
     2
  9
$DIMTDEC
 70
     2
  9
$DIMALTU
 70
     8
  9
$DIMALTTD
 70
     4
  9
$DIMTXSTY
  7
STANDARD
  9
$DIMAUNIT
 70
     0
  9
$LUNITS
 70
     2
  9
$LUPREC
 70
     3
  9
$SKETCHINC
 40
1.0
  9
$FILLETRAD
 40
0.0
  9
$AUNITS
 70
     0
  9
$AUPREC
 70
     2
  9
$MENU
  1
.
  9
$ELEVATION
 40
0.0
  9
$PELEVATION
 40
0.0
  9
$THICKNESS
 40
0.0
  9
$LIMCHECK
 70
     0
  9
$BLIPMODE
 70
     0
  9
$CHAMFERA
 40
0.0
  9
$CHAMFERB
 40
0.0
  9
$CHAMFERC
 40
20.0
  9
$CHAMFERD
 40
0.0
  9
$SKPOLY
 70
     0
  9
$TDCREATE
 40
2454413.474664884
  9
$TDUPDATE
 40
2454424.574350219
  9
$TDINDWG
 40
0.0617881829
  9
$TDUSRTIMER
 40
0.0617881829
  9
$USRTIMER
 70
     1
  9
$ANGBASE
 50
0.0
  9
$ANGDIR
 70
     0
  9
$PDMODE
 70
     0
  9
$PDSIZE
 40
-10.0
  9
$PLINEWID
 40
0.0
  9
$COORDS
 70
     0
  9
$SPLFRAME
 70
     0
  9
$SPLINETYPE
 70
     6
  9
$SPLINESEGS
 70
     8
  9
$ATTDIA
 70
     0
  9
$ATTREQ
 70
     1
  9
$HANDLING
 70
-16383
  9
$HANDSEED
  5
23D8
  9
$SURFTAB1
 70
     6
  9
$SURFTAB2
 70
     6
  9
$SURFTYPE
 70
     6
  9
$SURFU
 70
     6
  9
$SURFV
 70
     6
  9
$UCSNAME
  2

  9
$UCSORG
 10
0.0
 20
0.0
 30
0.0
  9
$UCSXDIR
 10
1.0
 20
0.0
 30
0.0
  9
$UCSYDIR
 10
0.0
 20
1.0
 30
0.0
  9
$PUCSNAME
  2

  9
$PUCSORG
 10
0.0
 20
0.0
 30
0.0
  9
$PUCSXDIR
 10
1.0
 20
0.0
 30
0.0
  9
$PUCSYDIR
 10
0.0
 20
1.0
 30
0.0
  9
$USERI1
 70
     0
  9
$USERI2
 70
     0
  9
$USERI3
 70
     0
  9
$USERI4
 70
     0
  9
$USERI5
 70
     0
  9
$USERR1
 40
0.0
  9
$USERR2
 40
0.0
  9
$USERR3
 40
0.0
  9
$USERR4
 40
0.0
  9
$USERR5
 40
0.0
  9
$WORLDVIEW
 70
     1
  9
$SHADEDGE
 70
     3
  9
$SHADEDIF
 70
    70
  9
$TILEMODE
 70
     1
  9
$MAXACTVP
 70
    48
  9
$PINSBASE
 10
0.0
 20
0.0
 30
0.0
  9
$PLIMCHECK
 70
     0
  9
$PEXTMIN
 10
0.0
 20
0.0
 30
0.0
  9
$PEXTMAX
 10
0.0
 20
0.0
 30
0.0
  9
$PLIMMIN
 10
0.0
 20
0.0
  9
$PLIMMAX
 10
12.0
 20
9.0
  9
$UNITMODE
 70
     0
  9
$VISRETAIN
 70
     1
  9
$PLINEGEN
 70
     0
  9
$PSLTSCALE
 70
     1
  9
$TREEDEPTH
 70
  3020
  9
$PICKSTYLE
 70
     1
  9
$CMLSTYLE
  2
STANDARD
  9
$CMLJUST
 70
     0
  9
$CMLSCALE
 40
1.0
  9
$PROXYGRAPHICS
 70
     1
  9
$MEASUREMENT
 70
     0
  0
ENDSEC
  0
SECTION
  2
CLASSES
  0
CLASS
  1
DICTIONARYVAR
  2
AcDbDictionaryVar
  3
AutoCAD 2000
 90
        0
280
     0
281
     0
  0
CLASS
  1
ACDBDICTIONARYWDFLT
  2
AcDbDictionaryWithDefault
  3
AutoCAD 2000
 90
        0
280
     0
281
     0
  0
CLASS
  1
ACDBPLACEHOLDER
  2
AcDbPlaceHolder
  3
AutoCAD 2000
 90
        0
280
     0
281
     0
  0
CLASS
  1
LAYOUT
  2
AcDbLayout
  3
AutoCAD 2000
 90
        0
280
     0
281
     0
  0
CLASS
  1
MATERIAL
  2
AcDbMaterial
  3
ObjectDBX Classes
 90
     1153
280
     0
281
     0
  0
CLASS
  1
VISUALSTYLE
  2
AcDbVisualStyle
  3
ObjectDBX Classes
 90
     4095
280
     0
281
     0
  0
CLASS
  1
TABLESTYLE
  2
AcDbTableStyle
  3
ObjectDBX Classes
 90
     4095
280
     0
281
     0
  0
CLASS
  1
SCALE
  2
AcDbScale
  3
ObjectDBX Classes
 90
     1153
280
     0
281
     0
  0
CLASS
  1
MLEADERSTYLE
  2
AcDbMLeaderStyle
  3
ACDB_MLEADERSTYLE_CLASS
 90
     4095
280
     0
281
     0
  0
CLASS
  1
SORTENTSTABLE
  2
AcDbSortentsTable
  3
AutoCAD 2000
 90
        0
280
     0
281
     0
  0
CLASS
  1
CELLSTYLEMAP
  2
AcDbCellStyleMap
  3
ObjectDBX Classes
 90
     1152
280
     0
281
     0
  0
CLASS
  1
ACAD_PROXY_OBJECT_WRAPPER
  2
AcDbProxyObjectWrapper
  3
AutoCAD 2000
 90
        0
280
     0
281
     0
  0
CLASS
  1
LONG_TRANSACTION
  2
AcDbLongTransaction
  3
AutoCAD 2000
 90
        0
280
     0
281
     0
  0
CLASS
  1
LWPOLYLINE
  2
AcDbPolyline
  3
AutoCAD 2000
 90
        0
280
     0
281
     1
  0
CLASS
  1
HATCH
  2
AcDbHatch
  3
AutoCAD 2000
 90
        0
280
     0
281
     1
  0
CLASS
  1
XRECORD
  2
AcDbXrecord
  3
AutoCAD 2000
 90
        0
280
     0
281
     0
  0
ENDSEC
  0
SECTION
  2
TABLES
  0
TABLE
  2
VPORT
  5
6E
102
{ACAD_XDICTIONARY
360
19E2
102
}
330
0
100
AcDbSymbolTable
 70
     2
  0
VPORT
  5
23B2
330
6E
100
AcDbSymbolTableRecord
100
AcDbViewportTableRecord
  2
*ACTIVE
 70
     0
 10
0.0
 20
0.0
 11
1.0
 21
1.0
 12
881.8737663796783
 22
363.1893790596554
 13
0.0
 23
0.0
 14
10.0
 24
10.0
 15
10.0
 25
10.0
 16
0.0
 26
0.0
 36
1.0
 17
0.0
 27
0.0
 37
0.0
 40
914.951416919705
 41
1.753504672897196
 42
50.0
 43
0.0
 44
0.0
 50
0.0
 51
0.0
 71
     0
 72
   100
 73
     1
 74
     3
 75
     0
 76
     0
 77
     0
 78
     0
  0
ENDTAB
  0
TABLE
  2
LTYPE
  5
69
330
0
100
AcDbSymbolTable
 70
     5
  0
LTYPE
  5
6A
330
69
100
AcDbSymbolTableRecord
100
AcDbLinetypeTableRecord
  2
BYBLOCK
 70
     0
  3

 72
    65
 73
     0
 40
0.0
  0
LTYPE
  5
6B
330
69
100
AcDbSymbolTableRecord
100
AcDbLinetypeTableRecord
  2
BYLAYER
 70
     0
  3

 72
    65
 73
     0
 40
0.0
  0
LTYPE
  5
8
330
69
100
AcDbSymbolTableRecord
100
AcDbLinetypeTableRecord
  2
CONTINUOUS
 70
     0
  3
Solid line
 72
    65
 73
     0
 40
0.0
  0
LTYPE
  5
27C
330
69
100
AcDbSymbolTableRecord
100
AcDbLinetypeTableRecord
  2
SEKKEI_A2_
 70
     0
  3
center(A2)  ____ _ ____ _ ____ _ ____ _ ____ _ 
 72
    65
 73
     4
 40
14.28749999999999
 49
9.525
 74
     0
 49
-1.587499999999999
 74
     0
 49
1.587499999999999
 74
     0
 49
-1.587499999999999
 74
     0
  0
LTYPE
  5
7F0
330
69
100
AcDbSymbolTableRecord
100
AcDbLinetypeTableRecord
  2
HIDDEN3
 70
     0
  3
Hidden (.3x) _ _ _ _ _ _ _ _ _ _ _ _ _ _ _ _ _
 72
    65
 73
     2
 40
2.857499999999999
 49
1.905
 74
     0
 49
-0.9525
 74
     0
  0
LTYPE
  5
B18
330
69
100
AcDbSymbolTableRecord
100
AcDbLinetypeTableRecord
  2
CENS
 70
     0
  3
(一点鎖線１)---- - ---- - ---- - ---- - ---- - 
 72
    65
 73
     4
 40
7.0
 49
4.0
 74
     0
 49
-1.0
 74
     0
 49
1.0
 74
     0
 49
-1.0
 74
     0
  0
ENDTAB
  0
TABLE
  2
LAYER
  5
66
102
{ACAD_XDICTIONARY
360
B19
102
}
330
0
100
AcDbSymbolTable
 70
     9
  0
LAYER
  5
5E
102
{ACAD_XDICTIONARY
360
19C5
102
}
330
66
100
AcDbSymbolTableRecord
100
AcDbLayerTableRecord
  2
0
 70
     0
 62
     7
  6
CONTINUOUS
  0
LAYER
  5
3E
102
{ACAD_XDICTIONARY
360
19C7
102
}
330
66
100
AcDbSymbolTableRecord
100
AcDbLayerTableRecord
  2
CENTER
 70
     0
 62
     3
  6
SEKKEI_A2_
  0
LAYER
  5
2B5
102
{ACAD_XDICTIONARY
360
19CD
102
}
330
66
100
AcDbSymbolTableRecord
100
AcDbLayerTableRecord
  2
HIDS
 70
     0
 62
     1
  6
HIDDEN3
  0
LAYER
  5
2BA
102
{ACAD_XDICTIONARY
360
19CF
102
}
330
66
100
AcDbSymbolTableRecord
100
AcDbLayerTableRecord
  2
HOJO
 70
     0
 62
     4
  6
CONTINUOUS
  0
LAYER
  5
3FA
102
{ACAD_XDICTIONARY
360
19D3
102
}
330
66
100
AcDbSymbolTableRecord
100
AcDbLayerTableRecord
  2
TITLE
 70
     0
 62
     4
  6
CONTINUOUS
  0
ENDTAB
  0
TABLE
  2
STYLE
  5
67
330
0
100
AcDbSymbolTable
 70
     1
  0
STYLE
  5
16
330
67
100
AcDbSymbolTableRecord
100
AcDbTextStyleTableRecord
  2
STANDARD
 70
     0
 40
0.0
 41
1.0
 50
0.0
 71
     0
 42
2.0
  3
simplex.shx
  4
extfont.shx
  0
ENDTAB
  0
TABLE
  2
VIEW
  5
6C
330
0
100
AcDbSymbolTable
 70
     0
  0
ENDTAB
  0
TABLE
  2
UCS
  5
6D
330
0
100
AcDbSymbolTable
 70
     0
  0
ENDTAB
  0
TABLE
  2
APPID
  5
70
330
0
100
AcDbSymbolTable
 70
     2
  0
APPID
  5
71
330
70
100
AcDbSymbolTableRecord
100
AcDbRegAppTableRecord
  2
ACAD
 70
     0
  0
APPID
  5
18F4
330
70
100
AcDbSymbolTableRecord
100
AcDbRegAppTableRecord
  2
ACAD_MLEADERVER
 70
     0
  0
ENDTAB
  0
TABLE
  2
DIMSTYLE
  5
72
330
0
100
AcDbSymbolTable
 70
     1
  0
DIMSTYLE
105
73
330
72
100
AcDbSymbolTableRecord
100
AcDbDimStyleTableRecord
  2
STANDARD
 70
     0
  3

  4

  5

  6

  7

 40
4.0
 41
1.8
 42
0.625
 43
3.75
 44
0.8
 45
0.0
 46
0.0
 47
0.0
 48
0.0
140
1.8
141
2.5
142
0.0
143
0.0394
144
1.0
145
0.0
146
1.0
147
0.75
 71
     0
 72
     0
 73
     0
 74
     0
 75
     0
 76
     0
 77
     1
 78
     8
170
     0
171
     4
172
     1
173
     0
174
     0
175
     0
176
     0
177
     0
178
     0
270
     8
271
     2
272
     2
273
     8
274
     4
340
16
275
     0
280
     0
281
     0
282
     0
283
     1
284
     0
285
     0
286
     0
287
     3
288
     0
  0
ENDTAB
  0
TABLE
  2
BLOCK_RECORD
  5
1
330
0
100
AcDbSymbolTable
 70
    42
  0
BLOCK_RECORD
  5
2
102
{ACAD_XDICTIONARY
360
23D4
102
}
330
1
100
AcDbSymbolTableRecord
100
AcDbBlockTableRecord
  2
*MODEL_SPACE
  0
BLOCK_RECORD
  5
23AD
102
{ACAD_XDICTIONARY
360
23D6
102
}
330
1
100
AcDbSymbolTableRecord
100
AcDbBlockTableRecord
  2
*PAPER_SPACE
  0
ENDTAB
  0
ENDSEC
  0
SECTION
  2
BLOCKS
  0
BLOCK
  5
5D
330
2
100
AcDbEntity
  8
0
100
AcDbBlockBegin
  2
*MODEL_SPACE
 70
     0
 10
0.0
 20
0.0
 30
0.0
  3
*MODEL_SPACE
  1

  0
ENDBLK
  5
5F
330
2
100
AcDbEntity
  8
0
100
AcDbBlockEnd
  0
BLOCK
  5
23AF
330
23AD
100
AcDbEntity
 67
     1
  8
0
100
AcDbBlockBegin
  2
*PAPER_SPACE
 70
     0
 10
0.0
 20
0.0
 30
0.0
  3
*PAPER_SPACE
  1

  0
ENDBLK
  5
23B0
330
23AD
100
AcDbEntity
 67
     1
  8
0
100
AcDbBlockEnd
  0
ENDSEC
  0
SECTION
  2
ENTITIES
  0
TEXT
  5
FB0
330
2
100
AcDbEntity
  8
TITLE
100
AcDbText
 10
521.8189528469174
 20
581.5610937701735
 30
0.0
 40
10.0
  1
AFCZ32H-40~60M750S4
100
AcDbText
  0
TEXT
  5
FB1
330
2
100
AcDbEntity
  8
TITLE
100
AcDbText
 10
521.8189528469174
 20
566.5610937701735
 30
0.0
 40
10.0
  1
AFCZ32H-40~60L750S4
100
AcDbText
  0
LINE
  5
FB2
330
2
100
AcDbEntity
  8
CENTER
100
AcDbLine
 10
1427.773248252536
 20
267.4442955899426
 30
0.0
 11
1427.773248252536
 21
103.0726300708771
 31
0.0
  0
LINE
  5
FB3
330
2
100
AcDbEntity
  8
0
100
AcDbLine
 10
1355.773251581346
 20
226.8270852808819
 30
0.0
 11
1355.773251581346
 21
143.6898403801097
 31
0.0
  0
LINE
  5
FB4
330
2
100
AcDbEntity
  8
0
100
AcDbLine
 10
1369.773251581346
 20
245.2584628304103
 30
0.0
 11
1369.773251581346
 21
125.2584628304103
 31
0.0
  0
LINE
  5
FB5
330
2
100
AcDbEntity
  8
CENTER
100
AcDbLine
 10
1509.773248252535
 20
185.2584628304959
 30
0.0
 11
1283.773251581258
 21
185.2584628304958
 31
0.0
  0
LINE
  5
FB6
330
2
100
AcDbEntity
  8
0
100
AcDbLine
 10
1463.773248252536
 20
252.7584628304103
 30
0.0
 11
1374.773251581346
 21
251.9817716260823
 31
0.0
  0
LINE
  5
FB7
330
2
100
AcDbEntity
  8
0
100
AcDbLine
 10
1374.773251581346
 20
245.2584628304103
 30
0.0
 11
1369.773251581346
 21
245.2584628304103
 31
0.0
  0
LINE
  5
FB8
330
2
100
AcDbEntity
  8
0
100
AcDbLine
 10
1374.773251581346
 20
118.5351540347365
 30
0.0
 11
1463.773248252536
 21
117.7584628304104
 31
0.0
  0
LINE
  5
FB9
330
2
100
AcDbEntity
  8
0
100
AcDbLine
 10
1374.773251581346
 20
125.2584628304103
 30
0.0
 11
1369.773251581346
 21
125.2584628304103
 31
0.0
  0
LINE
  5
FBA
330
2
100
AcDbEntity
  8
0
100
AcDbLine
 10
1376.77325158143
 20
137.0046861542033
 30
0.0
 11
1376.773251581346
 21
233.5122395066101
 31
0.0
  0
LINE
  5
FBB
330
2
100
AcDbEntity
  8
0
100
AcDbLine
 10
1463.773248252536
 20
252.7584628304103
 30
0.0
 11
1463.773248252536
 21
236.4055182690099
 31
0.0
  0
LINE
  5
FBC
330
2
100
AcDbEntity
  8
0
100
AcDbLine
 10
1463.773248252536
 20
134.1114073919817
 30
0.0
 11
1463.773248252536
 21
117.7584628304104
 31
0.0
  0
LINE
  5
FBD
330
2
100
AcDbEntity
  8
0
100
AcDbLine
 10
1374.773251581346
 20
118.5351540347365
 30
0.0
 11
1374.773251581346
 21
251.9817716260823
 31
0.0
  0
LINE
  5
FBE
330
2
100
AcDbEntity
  8
0
100
AcDbLine
 10
1427.773248252536
 20
236.7584579917366
 30
0.0
 11
1470.851676814966
 21
236.3361221963951
 31
0.0
  0
ARC
  5
FBF
330
2
100
AcDbEntity
  8
0
100
AcDbCircle
 10
1470.773249534443
 20
228.336506633028
 30
0.0
 40
8.0
100
AcDbArc
 50
0.0324355144522694
 51
89.438296980908
  0
LINE
  5
FC0
330
2
100
AcDbEntity
  8
0
100
AcDbLine
 10
1427.773248252536
 20
236.7584579917366
 30
0.0
 11
1384.694819690105
 21
236.3361221963951
 31
0.0
  0
ARC
  5
FC1
330
2
100
AcDbEntity
  8
0
100
AcDbCircle
 10
1384.77324697063
 20
228.336506633028
 30
0.0
 40
8.0
100
AcDbArc
 50
90.56170301909203
 51
180.0
  0
LINE
  5
FC2
330
2
100
AcDbEntity
  8
0
100
AcDbLine
 10
1427.773248252536
 20
133.758467669255
 30
0.0
 11
1384.694819690105
 21
134.1808034645965
 31
0.0
  0
LINE
  5
FC3
330
2
100
AcDbEntity
  8
0
100
AcDbLine
 10
1427.773248252536
 20
133.758467669255
 30
0.0
 11
1470.851676814966
 21
134.1808034645965
 31
0.0
  0
ARC
  5
FC4
330
2
100
AcDbEntity
  8
0
100
AcDbCircle
 10
1384.77324697063
 20
142.1804190279655
 30
0.0
 40
8.0
100
AcDbArc
 50
180.0
 51
269.4382969809079
  0
ARC
  5
FC5
330
2
100
AcDbEntity
  8
0
100
AcDbCircle
 10
1470.773249534443
 20
142.1804190279655
 30
0.0
 40
8.0
100
AcDbArc
 50
270.5617030190919
 51
359.9675644788776
  0
LINE
  5
FC6
330
2
100
AcDbEntity
  8
0
100
AcDbLine
 10
1381.281376937123
 20
235.5342037417631
 30
0.0
 11
1378.755798510349
 21
235.5121633527379
 31
0.0
  0
LINE
  5
FC7
330
2
100
AcDbEntity
  8
0
100
AcDbLine
 10
1357.703452587941
 20
228.8258669349198
 30
0.0
 11
1367.843050574751
 21
229.1799494989573
 31
0.0
  0
LINE
  5
FC8
330
2
100
AcDbEntity
  8
0
100
AcDbLine
 10
1357.703452587941
 20
141.6910587260719
 30
0.0
 11
1367.843050574751
 21
141.3369761620361
 31
0.0
  0
ARC
  5
FC9
330
2
100
AcDbEntity
  8
0
100
AcDbCircle
 10
1367.773251581346
 20
139.3381945079983
 30
0.0
 40
2.0
100
AcDbArc
 50
0.0
 51
87.99999999999636
  0
ARC
  5
FCA
330
2
100
AcDbEntity
  8
0
100
AcDbCircle
 10
1367.773251581346
 20
231.1787311529952
 30
0.0
 40
2.0
100
AcDbArc
 50
272.0000000000036
 51
0.0
  0
ARC
  5
FCB
330
2
100
AcDbEntity
  8
0
100
AcDbCircle
 10
1357.773251581346
 20
226.8270852808819
 30
0.0
 40
2.0
100
AcDbArc
 50
92.00000000000365
 51
180.0
  0
ARC
  5
FCC
330
2
100
AcDbEntity
  8
0
100
AcDbCircle
 10
1357.773251581346
 20
143.6898403801097
 30
0.0
 40
2.0
100
AcDbArc
 50
180.0
 51
267.9999999999963
  0
ARC
  5
FCD
330
2
100
AcDbEntity
  8
0
100
AcDbCircle
 10
1378.773251581346
 20
233.5122395066101
 30
0.0
 40
2.0
100
AcDbArc
 50
90.49999999996549
 51
180.0
  0
ARC
  5
FCE
330
2
100
AcDbEntity
  8
0
100
AcDbCircle
 10
1378.77325158143
 20
137.0046861542069
 30
0.0
 40
2.0
100
AcDbArc
 50
180.0000000001042
 51
269.5000000000866
  0
LINE
  5
FCF
330
2
100
AcDbEntity
  8
0
100
AcDbLine
 10
1381.281371711139
 20
134.982721964665
 30
0.0
 11
1378.755798510436
 21
135.0047623080792
 31
0.0
  0
ARC
  5
FD0
330
2
100
AcDbEntity
  8
0
100
AcDbCircle
 10
1482.273248252536
 20
250.596939619596
 30
0.0
 40
2.0
100
AcDbArc
 50
0.0
 51
89.49999999998238
  0
LINE
  5
FD1
330
2
100
AcDbEntity
  8
0
100
AcDbLine
 10
1484.859034690162
 20
239.6726763928691
 30
0.0
 11
1485.687461814909
 21
238.8442492681243
 31
0.0
  0
LINE
  5
FD2
330
2
100
AcDbEntity
  8
0
100
AcDbLine
 10
1494.773248252536
 20
227.1811125613058
 30
0.0
 11
1494.773248252536
 21
143.335813099684
 31
0.0
  0
LINE
  5
FD3
330
2
100
AcDbEntity
  8
0
100
AcDbLine
 10
1486.273248252536
 20
230.2584628304958
 30
0.0
 11
1486.773248252536
 21
229.7584628304958
 31
0.0
  0
LINE
  5
FD4
330
2
100
AcDbEntity
  8
0
100
AcDbLine
 10
1490.273248252536
 20
227.5584628304969
 30
0.0
 11
1490.073248252537
 21
227.7584628304958
 31
0.0
  0
LINE
  5
FD5
330
2
100
AcDbEntity
  8
0
100
AcDbLine
 10
1492.073248252537
 20
227.0584628304969
 30
0.0
 11
1490.473248252536
 21
227.0584628304969
 31
0.0
  0
LINE
  5
FD6
330
2
100
AcDbEntity
  8
0
100
AcDbLine
 10
1493.773248252536
 20
227.7584628304958
 30
0.0
 11
1494.773248252536
 21
227.1811125613076
 31
0.0
  0
LINE
  5
FD7
330
2
100
AcDbEntity
  8
0
100
AcDbLine
 10
1493.773248252536
 20
227.7584628304958
 30
0.0
 11
1492.473248252536
 21
227.7584628304958
 31
0.0
  0
LINE
  5
FD8
330
2
100
AcDbEntity
  8
0
100
AcDbLine
 10
1490.073248252537
 20
227.7584628304958
 30
0.0
 11
1486.773248252536
 21
227.7584628304958
 31
0.0
  0
LINE
  5
FD9
330
2
100
AcDbEntity
  8
0
100
AcDbLine
 10
1486.273248252541
 20
133.0868899552425
 30
0.0
 11
1486.273248252528
 21
237.430035705751
 31
0.0
  0
LINE
  5
FDA
330
2
100
AcDbEntity
  8
0
100
AcDbLine
 10
1486.273248252539
 20
140.2584628304959
 30
0.0
 11
1486.773248252539
 21
140.7584628304958
 31
0.0
  0
LINE
  5
FDB
330
2
100
AcDbEntity
  8
0
100
AcDbLine
 10
1490.273248252539
 20
142.9584628304966
 30
0.0
 11
1490.273248252539
 21
227.5584628304932
 31
0.0
  0
LINE
  5
FDC
330
2
100
AcDbEntity
  8
0
100
AcDbLine
 10
1490.273248252539
 20
142.9584628304966
 30
0.0
 11
1490.07324825254
 21
142.7584628304958
 31
0.0
  0
LINE
  5
FDD
330
2
100
AcDbEntity
  8
0
100
AcDbLine
 10
1492.273248252539
 20
142.9584628304966
 30
0.0
 11
1492.273248252605
 21
227.5584628304969
 31
0.0
  0
LINE
  5
FDE
330
2
100
AcDbEntity
  8
0
100
AcDbLine
 10
1493.773248252539
 20
142.7584628304958
 30
0.0
 11
1492.47324825254
 21
142.7584628304958
 31
0.0
  0
LINE
  5
FDF
330
2
100
AcDbEntity
  8
0
100
AcDbLine
 10
1492.07324825254
 20
143.4584628304966
 30
0.0
 11
1490.47324825254
 21
143.4584628304966
 31
0.0
  0
LINE
  5
FE0
330
2
100
AcDbEntity
  8
0
100
AcDbLine
 10
1493.773248252539
 20
142.7584628304958
 30
0.0
 11
1494.773248252539
 21
143.3358130996858
 31
0.0
  0
LINE
  5
FE1
330
2
100
AcDbEntity
  8
0
100
AcDbLine
 10
1486.773248252539
 20
140.7584628304958
 30
0.0
 11
1486.773248252539
 21
229.7584628304921
 31
0.0
  0
LINE
  5
FE2
330
2
100
AcDbEntity
  8
0
100
AcDbLine
 10
1490.07324825254
 20
142.7584628304958
 30
0.0
 11
1486.773248252539
 21
142.7584628304958
 31
0.0
  0
LINE
  5
FE3
330
2
100
AcDbEntity
  8
0
100
AcDbLine
 10
1484.273248252541
 20
119.9199860413974
 30
0.0
 11
1484.273248252541
 21
250.596939619596
 31
0.0
  0
LINE
  5
FE4
330
2
100
AcDbEntity
  8
0
100
AcDbLine
 10
1484.859034690168
 20
130.8442492681225
 30
0.0
 11
1485.687461814914
 21
131.6726763928692
 31
0.0
  0
LINE
  5
FE5
330
2
100
AcDbEntity
  8
0
100
AcDbLine
 10
1482.290701323533
 20
252.5968634657238
 30
0.0
 11
1463.773248252536
 21
252.7584628304958
 31
0.0
  0
ARC
  5
FE6
330
2
100
AcDbEntity
  8
0
100
AcDbCircle
 10
1484.273248252541
 20
133.0868899552425
 30
0.0
 40
2.0
100
AcDbArc
 50
314.9999999999821
 51
0.0
  0
ARC
  5
FE7
330
2
100
AcDbEntity
  8
0
100
AcDbCircle
 10
1486.273248252541
 20
129.4300357057492
 30
0.0
 40
2.0
100
AcDbArc
 50
134.9999999999821
 51
180.0
  0
ARC
  5
FE8
330
2
100
AcDbEntity
  8
0
100
AcDbCircle
 10
1484.273248252535
 20
237.430035705751
 30
0.0
 40
2.0
100
AcDbArc
 50
0.0
 51
45.00000000001784
  0
ARC
  5
FE9
330
2
100
AcDbEntity
  8
0
100
AcDbCircle
 10
1486.273248252536
 20
241.0868899552425
 30
0.0
 40
2.0
100
AcDbArc
 50
180.0
 51
225.0000000000178
  0
ARC
  5
FEA
330
2
100
AcDbEntity
  8
0
100
AcDbCircle
 10
1492.473248252536
 20
227.5584628304969
 30
0.0
 40
0.2
100
AcDbArc
 50
90.0
 51
180.0
  0
ARC
  5
FEB
330
2
100
AcDbEntity
  8
0
100
AcDbCircle
 10
1492.073248252537
 20
227.2584628304958
 30
0.0
 40
0.2
100
AcDbArc
 50
270.0
 51
0.0
  0
ARC
  5
FEC
330
2
100
AcDbEntity
  8
0
100
AcDbCircle
 10
1490.473248252536
 20
227.2584628304958
 30
0.0
 40
0.2
100
AcDbArc
 50
180.0
 51
270.0
  0
ARC
  5
FED
330
2
100
AcDbEntity
  8
0
100
AcDbCircle
 10
1492.47324825254
 20
142.9584628304966
 30
0.0
 40
0.2
100
AcDbArc
 50
180.0
 51
270.0
  0
ARC
  5
FEE
330
2
100
AcDbEntity
  8
0
100
AcDbCircle
 10
1492.07324825254
 20
143.2584628304958
 30
0.0
 40
0.2
100
AcDbArc
 50
0.0
 51
90.0
  0
ARC
  5
FEF
330
2
100
AcDbEntity
  8
0
100
AcDbCircle
 10
1490.47324825254
 20
143.2584628304958
 30
0.0
 40
0.2
100
AcDbArc
 50
90.0
 51
180.0
  0
LINE
  5
FF0
330
2
100
AcDbEntity
  8
0
100
AcDbLine
 10
1493.773248252536
 20
227.7584628304958
 30
0.0
 11
1493.773248252539
 21
142.7584628304958
 31
0.0
  0
ARC
  5
FF1
330
2
100
AcDbEntity
  8
0
100
AcDbCircle
 10
1482.273248252536
 20
119.9199860413974
 30
0.0
 40
2.0
100
AcDbArc
 50
270.5000000000175
 51
0.0
  0
LINE
  5
FF2
330
2
100
AcDbEntity
  8
0
100
AcDbLine
 10
1482.290701323533
 20
117.9200621952678
 30
0.0
 11
1463.773248252536
 21
117.7584628304958
 31
0.0
  0
LINE
  5
FF3
330
2
100
AcDbEntity
  8
0
100
AcDbLine
 10
1478.773248252536
 20
228.3319777810884
 30
0.0
 11
1478.773248252536
 21
142.1849478808309
 31
0.0
  0
ARC
  5
FF4
330
2
100
AcDbEntity
  8
0
100
AcDbCircle
 10
1476.773248252536
 20
234.1449373924461
 30
0.0
 40
2.0
100
AcDbArc
 50
17.86424478083681
 51
89.50000000000846
  0
LINE
  5
FF5
330
2
100
AcDbEntity
  8
0
100
AcDbLine
 10
1476.790701323533
 20
236.1448612385739
 30
0.0
 11
1472.328885694371
 21
236.1837989136766
 31
0.0
  0
ARC
  5
FF6
330
2
100
AcDbEntity
  8
0
100
AcDbCircle
 10
1476.773248252536
 20
136.3719882685473
 30
0.0
 40
2.0
100
AcDbArc
 50
270.4999999999915
 51
342.1357552191631
  0
LINE
  5
FF7
330
2
100
AcDbEntity
  8
0
100
AcDbLine
 10
1476.790701323533
 20
134.3720644224196
 30
0.0
 11
1472.328885694373
 21
134.3331267473168
 31
0.0
  0
LINE
  5
FF8
330
2
100
AcDbEntity
  8
CENTER
100
AcDbLine
 10
1491.418078845102
 20
228.2584628304958
 30
0.0
 11
1453.026347441517
 21
228.2584628304958
 31
0.0
  0
LINE
  5
FF9
330
2
100
AcDbEntity
  8
CENTER
100
AcDbLine
 10
1491.418078845102
 20
142.2584628304977
 30
0.0
 11
1453.026347441517
 21
142.2584628304977
 31
0.0
  0
LINE
  5
FFA
330
2
100
AcDbEntity
  8
0
100
AcDbLine
 10
1483.773248252536
 20
233.8924374267099
 30
0.0
 11
1483.773248252536
 21
222.6244882342799
 31
0.0
  0
LINE
  5
FFB
330
2
100
AcDbEntity
  8
0
100
AcDbLine
 10
1475.773248252536
 20
234.7584628304958
 30
0.0
 11
1475.773248252536
 21
234.5815056577722
 31
0.0
  0
LINE
  5
FFC
330
2
100
AcDbEntity
  8
0
100
AcDbLine
 10
1483.273248252536
 20
221.7584628304958
 30
0.0
 11
1483.773248252536
 21
222.6244882342799
 31
0.0
  0
LINE
  5
FFD
330
2
100
AcDbEntity
  8
0
100
AcDbLine
 10
1478.773248252536
 20
221.7584628304958
 30
0.0
 11
1483.273248252536
 21
221.7584628304958
 31
0.0
  0
LINE
  5
FFE
330
2
100
AcDbEntity
  8
0
100
AcDbLine
 10
1483.273248252536
 20
234.7584628304958
 30
0.0
 11
1483.773248252536
 21
233.8924374267117
 31
0.0
  0
LINE
  5
FFF
330
2
100
AcDbEntity
  8
0
100
AcDbLine
 10
1475.543834257284
 20
234.7584628304958
 30
0.0
 11
1475.773248252536
 21
234.7584628304958
 31
0.0
  0
LINE
  5
1000
330
2
100
AcDbEntity
  8
0
100
AcDbLine
 10
1475.773248252536
 20
234.7584628304958
 30
0.0
 11
1483.273248252536
 21
234.7584628304958
 31
0.0
  0
LINE
  5
1001
330
2
100
AcDbEntity
  8
0
100
AcDbLine
 10
1483.273248252536
 20
234.7584628304958
 30
0.0
 11
1483.273248252536
 21
221.7584628304958
 31
0.0
  0
LINE
  5
1002
330
2
100
AcDbEntity
  8
0
100
AcDbLine
 10
1483.773248252536
 20
147.8924374267118
 30
0.0
 11
1483.773248252536
 21
136.6244882342817
 31
0.0
  0
LINE
  5
1003
330
2
100
AcDbEntity
  8
0
100
AcDbLine
 10
1475.773248252536
 20
135.9354200032195
 30
0.0
 11
1475.773248252536
 21
135.7584628304977
 31
0.0
  0
LINE
  5
1004
330
2
100
AcDbEntity
  8
0
100
AcDbLine
 10
1483.273248252536
 20
135.7584628304977
 30
0.0
 11
1483.773248252536
 21
136.6244882342817
 31
0.0
  0
LINE
  5
1005
330
2
100
AcDbEntity
  8
0
100
AcDbLine
 10
1475.543834257284
 20
135.7584628304977
 30
0.0
 11
1475.773248252536
 21
135.7584628304977
 31
0.0
  0
LINE
  5
1006
330
2
100
AcDbEntity
  8
0
100
AcDbLine
 10
1475.773248252536
 20
135.7584628304977
 30
0.0
 11
1483.273248252536
 21
135.7584628304977
 31
0.0
  0
LINE
  5
1007
330
2
100
AcDbEntity
  8
0
100
AcDbLine
 10
1483.273248252536
 20
148.7584628304977
 30
0.0
 11
1483.773248252536
 21
147.8924374267136
 31
0.0
  0
LINE
  5
1008
330
2
100
AcDbEntity
  8
0
100
AcDbLine
 10
1478.773248252536
 20
148.7584628304977
 30
0.0
 11
1483.273248252536
 21
148.7584628304977
 31
0.0
  0
LINE
  5
1009
330
2
100
AcDbEntity
  8
0
100
AcDbLine
 10
1483.273248252536
 20
148.7584628304977
 30
0.0
 11
1483.273248252536
 21
135.7584628304977
 31
0.0
  0
LINE
  5
1022
330
2
100
AcDbEntity
  8
CENTER
100
AcDbLine
 10
815.7285153905549
 20
185.2584628305866
 30
0.0
 11
1144.698537390553
 21
185.2584628305866
 31
0.0
  0
LINE
  5
1026
330
2
100
AcDbEntity
  8
0
100
AcDbLine
 10
1074.698537390554
 20
133.7584628305866
 30
0.0
 11
1074.698537390552
 21
236.7584628305865
 31
0.0
  0
LINE
  5
1050
330
2
100
AcDbEntity
  8
CENTER
100
AcDbLine
 10
828.2285153905524
 20
578.2298369518327
 30
0.0
 11
1144.698537390553
 21
578.2298369518327
 31
0.0
  0
LINE
  5
1051
330
2
100
AcDbEntity
  8
0
100
AcDbLine
 10
1074.698537390551
 20
629.2298369518327
 30
0.0
 11
1074.698537390551
 21
527.2298369518328
 31
0.0
  0
LINE
  5
105C
330
2
100
AcDbEntity
  8
0
100
AcDbLine
 10
1074.698537390551
 20
527.2298369518328
 30
0.0
 11
1074.698537390551
 21
578.2298369518327
 31
0.0
  0
LINE
  5
10B6
330
2
100
AcDbEntity
  8
0
100
AcDbLine
 10
153.3165380136126
 20
236.758462830584
 30
0.0
 11
153.3165380136144
 21
133.7584628305841
 31
0.0
  0
LINE
  5
10D9
330
2
100
AcDbEntity
  8
CENTER
100
AcDbLine
 10
399.7865600136122
 20
185.2584628305841
 30
0.0
 11
83.31653801361358
 21
185.2584628305841
 31
0.0
  0
LINE
  5
133C
330
2
100
AcDbEntity
  8
CENTER
100
AcDbLine
 10
1461.703248252536
 20
227.6884628304951
 30
0.0
 11
1478.703248252536
 21
227.6884628304951
 31
0.0
  0
LINE
  5
133D
330
2
100
AcDbEntity
  8
0
100
AcDbLine
 10
1384.773248252537
 20
236.2584628304949
 30
0.0
 11
1470.773248252536
 21
236.2584628304949
 31
0.0
  0
LINE
  5
133E
330
2
100
AcDbEntity
  8
CENTER
100
AcDbLine
 10
1461.703248252536
 20
142.8284628304955
 30
0.0
 11
1478.703248252536
 21
142.8284628304955
 31
0.0
  0
ARC
  5
133F
330
2
100
AcDbEntity
  8
0
100
AcDbCircle
 10
1454.773248252536
 20
158.2584628304949
 30
0.0
 40
15.0
100
AcDbArc
 50
270.0
 51
0.0
  0
ARC
  5
1340
330
2
100
AcDbEntity
  8
0
100
AcDbCircle
 10
1454.773248252534
 20
158.2584628304949
 30
0.0
 40
13.0
100
AcDbArc
 50
270.0
 51
0.0
  0
LINE
  5
1341
330
2
100
AcDbEntity
  8
0
100
AcDbLine
 10
1384.773248252535
 20
134.2584628304949
 30
0.0
 11
1470.773248252536
 21
134.2584628304949
 31
0.0
  0
ARC
  5
1342
330
2
100
AcDbEntity
  8
0
100
AcDbCircle
 10
1454.773248252534
 20
212.2584628304949
 30
0.0
 40
13.0
100
AcDbArc
 50
0.0
 51
90.0
  0
ARC
  5
1343
330
2
100
AcDbEntity
  8
0
100
AcDbCircle
 10
1454.773248252536
 20
212.2584628304949
 30
0.0
 40
15.0
100
AcDbArc
 50
0.0
 51
90.0
  0
LINE
  5
1344
330
2
100
AcDbEntity
  8
0
100
AcDbLine
 10
1467.773248252534
 20
212.2584628304949
 30
0.0
 11
1467.773248252534
 21
158.2584628304949
 31
0.0
  0
LINE
  5
1345
330
2
100
AcDbEntity
  8
0
100
AcDbLine
 10
1387.773248252536
 20
212.2584628304949
 30
0.0
 11
1387.773248252536
 21
158.2584628304949
 31
0.0
  0
LINE
  5
1346
330
2
100
AcDbEntity
  8
0
100
AcDbLine
 10
1385.773248252536
 20
212.2584628304949
 30
0.0
 11
1385.773248252536
 21
158.2584628304949
 31
0.0
  0
LINE
  5
1347
330
2
100
AcDbEntity
  8
CENTER
100
AcDbLine
 10
1459.59305340593
 20
145.9386576771004
 30
0.0
 11
1459.59305340593
 21
160.9386576771004
 31
0.0
  0
LINE
  5
1348
330
2
100
AcDbEntity
  8
CENTER
100
AcDbLine
 10
1395.953443099141
 20
145.9386576771004
 30
0.0
 11
1395.953443099141
 21
160.9386576771004
 31
0.0
  0
ARC
  5
1349
330
2
100
AcDbEntity
  8
0
100
AcDbCircle
 10
1400.773248252535
 20
158.2584628304949
 30
0.0
 40
15.0
100
AcDbArc
 50
180.0
 51
270.0
  0
ARC
  5
134A
330
2
100
AcDbEntity
  8
0
100
AcDbCircle
 10
1400.773248252535
 20
158.2584628304949
 30
0.0
 40
13.0
100
AcDbArc
 50
180.0
 51
270.0
  0
LINE
  5
134B
330
2
100
AcDbEntity
  8
0
100
AcDbLine
 10
1400.773248252535
 20
143.2584628304949
 30
0.0
 11
1454.773248252536
 21
143.2584628304949
 31
0.0
  0
LINE
  5
134C
330
2
100
AcDbEntity
  8
0
100
AcDbLine
 10
1400.773248252535
 20
145.2584628304949
 30
0.0
 11
1454.773248252534
 21
145.2584628304949
 31
0.0
  0
ARC
  5
134D
330
2
100
AcDbEntity
  8
0
100
AcDbCircle
 10
1384.773248252535
 20
142.2584628304949
 30
0.0
 40
8.0
100
AcDbArc
 50
180.0
 51
270.0
  0
LINE
  5
134E
330
2
100
AcDbEntity
  8
CENTER
100
AcDbLine
 10
1385.343248252535
 20
134.3284628304955
 30
0.0
 11
1385.343248252535
 21
151.3284628304955
 31
0.0
  0
LINE
  5
134F
330
2
100
AcDbEntity
  8
CENTER
100
AcDbLine
 10
1393.843248252535
 20
142.8284628304955
 30
0.0
 11
1376.843248252535
 21
142.8284628304955
 31
0.0
  0
LINE
  5
1350
330
2
100
AcDbEntity
  8
CENTER
100
AcDbLine
 10
1403.453443099141
 20
153.4386576771004
 30
0.0
 11
1388.453443099141
 21
153.4386576771004
 31
0.0
  0
LINE
  5
1351
330
2
100
AcDbEntity
  8
CENTER
100
AcDbLine
 10
1452.09305340593
 20
153.4386576771004
 30
0.0
 11
1467.09305340593
 21
153.4386576771004
 31
0.0
  0
LINE
  5
1352
330
2
100
AcDbEntity
  8
0
100
AcDbLine
 10
1400.773248252535
 20
227.2584628304949
 30
0.0
 11
1454.773248252536
 21
227.2584628304949
 31
0.0
  0
LINE
  5
1353
330
2
100
AcDbEntity
  8
0
100
AcDbLine
 10
1400.773248252535
 20
225.2584628304949
 30
0.0
 11
1454.773248252534
 21
225.2584628304949
 31
0.0
  0
ARC
  5
1354
330
2
100
AcDbEntity
  8
0
100
AcDbCircle
 10
1384.773248252537
 20
228.2584628304949
 30
0.0
 40
8.0
100
AcDbArc
 50
90.0
 51
180.0
  0
LINE
  5
1355
330
2
100
AcDbEntity
  8
CENTER
100
AcDbLine
 10
1385.343248252535
 20
236.1884628304952
 30
0.0
 11
1385.343248252535
 21
219.1884628304952
 31
0.0
  0
ARC
  5
1356
330
2
100
AcDbEntity
  8
0
100
AcDbCircle
 10
1400.773248252535
 20
212.2584628304949
 30
0.0
 40
15.0
100
AcDbArc
 50
90.0
 51
180.0
  0
LINE
  5
1357
330
2
100
AcDbEntity
  8
CENTER
100
AcDbLine
 10
1403.453443099141
 20
217.0782679838903
 30
0.0
 11
1388.453443099141
 21
217.0782679838903
 31
0.0
  0
ARC
  5
1358
330
2
100
AcDbEntity
  8
0
100
AcDbCircle
 10
1400.773248252535
 20
212.2584628304949
 30
0.0
 40
13.0
100
AcDbArc
 50
90.0
 51
180.0
  0
LINE
  5
1359
330
2
100
AcDbEntity
  8
CENTER
100
AcDbLine
 10
1395.953443099141
 20
224.5782679838904
 30
0.0
 11
1395.953443099141
 21
209.5782679838904
 31
0.0
  0
LINE
  5
135A
330
2
100
AcDbEntity
  8
CENTER
100
AcDbLine
 10
1393.843248252535
 20
227.6884628304951
 30
0.0
 11
1376.843248252535
 21
227.6884628304951
 31
0.0
  0
LINE
  5
135B
330
2
100
AcDbEntity
  8
CENTER
100
AcDbLine
 10
1459.59305340593
 20
224.5782679838904
 30
0.0
 11
1459.59305340593
 21
209.5782679838904
 31
0.0
  0
LINE
  5
135C
330
2
100
AcDbEntity
  8
CENTER
100
AcDbLine
 10
1452.09305340593
 20
217.0782679838903
 30
0.0
 11
1467.09305340593
 21
217.0782679838903
 31
0.0
  0
LINE
  5
135D
330
2
100
AcDbEntity
  8
0
100
AcDbLine
 10
1469.773248252536
 20
212.2584628304949
 30
0.0
 11
1469.773248252536
 21
158.2584628304949
 31
0.0
  0
ARC
  5
135E
330
2
100
AcDbEntity
  8
0
100
AcDbCircle
 10
1470.773248252536
 20
142.2584628304949
 30
0.0
 40
8.0
100
AcDbArc
 50
270.0
 51
0.0
  0
LINE
  5
135F
330
2
100
AcDbEntity
  8
CENTER
100
AcDbLine
 10
1470.203248252536
 20
134.3284628304955
 30
0.0
 11
1470.203248252536
 21
151.3284628304955
 31
0.0
  0
ARC
  5
1360
330
2
100
AcDbEntity
  8
0
100
AcDbCircle
 10
1470.773248252536
 20
228.2584628304949
 30
0.0
 40
8.0
100
AcDbArc
 50
0.0
 51
90.0
  0
LINE
  5
1361
330
2
100
AcDbEntity
  8
CENTER
100
AcDbLine
 10
1470.203248252536
 20
236.1884628304952
 30
0.0
 11
1470.203248252536
 21
219.1884628304952
 31
0.0
  0
LINE
  5
1362
330
2
100
AcDbEntity
  8
0
100
AcDbLine
 10
1123.698537390555
 20
536.2298369518355
 30
0.0
 11
1123.698537390555
 21
559.1067313262199
 31
0.0
  0
LINE
  5
1363
330
2
100
AcDbEntity
  8
0
100
AcDbLine
 10
1123.698537390555
 20
567.3529425774447
 30
0.0
 11
1123.698537390555
 21
620.2298369518291
 31
0.0
  0
LINE
  5
1364
330
2
100
AcDbEntity
  8
0
100
AcDbLine
 10
1125.698537390555
 20
538.1600166921195
 30
0.0
 11
1125.698537390553
 21
618.2996572115451
 31
0.0
  0
LINE
  5
1365
330
2
100
AcDbEntity
  8
0
100
AcDbLine
 10
1089.698537390552
 20
528.3520511792892
 30
0.0
 11
1089.698537390553
 21
628.1076227243755
 31
0.0
  0
LINE
  5
1366
330
2
100
AcDbEntity
  8
0
100
AcDbLine
 10
1125.698537390553
 20
618.2996572115451
 30
0.0
 11
1123.698537390552
 21
620.2298369518318
 31
0.0
  0
LINE
  5
1367
330
2
100
AcDbEntity
  8
0
100
AcDbLine
 10
1129.698537390552
 20
618.2298369518319
 30
0.0
 11
1125.698537390553
 21
618.2996572115451
 31
0.0
  0
LINE
  5
1368
330
2
100
AcDbEntity
  8
0
100
AcDbLine
 10
1074.698537390551
 20
629.2298369518318
 30
0.0
 11
1088.707263926051
 21
629.1075846474402
 31
0.0
  0
LINE
  5
1369
330
2
100
AcDbEntity
  8
0
100
AcDbLine
 10
1123.698537390552
 20
620.2298369518318
 30
0.0
 11
1096.698537390552
 21
620.3869183567283
 31
0.0
  0
LINE
  5
136A
330
2
100
AcDbEntity
  8
0
100
AcDbLine
 10
1125.698537390555
 20
538.1600166921195
 30
0.0
 11
1123.698537390555
 21
536.2298369518355
 31
0.0
  0
LINE
  5
136B
330
2
100
AcDbEntity
  8
0
100
AcDbLine
 10
1129.698537390552
 20
538.2298369518328
 30
0.0
 11
1125.698537390555
 21
538.1600166921195
 31
0.0
  0
LINE
  5
136C
330
2
100
AcDbEntity
  8
0
100
AcDbLine
 10
1074.698537390551
 20
527.2298369518328
 30
0.0
 11
1088.707263926051
 21
527.3520892562252
 31
0.0
  0
LINE
  5
136D
330
2
100
AcDbEntity
  8
0
100
AcDbLine
 10
1123.698537390553
 20
536.2298369518327
 30
0.0
 11
1096.698537390552
 21
536.0727555469373
 31
0.0
  0
CIRCLE
  5
136E
330
2
100
AcDbEntity
  8
0
100
AcDbCircle
 10
1427.773248252536
 20
185.2584628304949
 30
0.0
 40
34.99999999953029
  0
ARC
  5
136F
330
2
100
AcDbEntity
  8
0
100
AcDbCircle
 10
1088.698537390552
 20
528.3520511792892
 30
0.0
 40
1.0
100
AcDbArc
 50
270.4999999999654
 51
0.0
  0
ARC
  5
1370
330
2
100
AcDbEntity
  8
0
100
AcDbCircle
 10
1088.698537390554
 20
628.1076227243755
 30
0.0
 40
1.0
100
AcDbArc
 50
0.0
 51
89.5000000000345
  0
LINE
  5
1371
330
2
100
AcDbEntity
  8
0
100
AcDbLine
 10
1129.698537390552
 20
538.2298369518328
 30
0.0
 11
1129.698537390552
 21
618.2298369518319
 31
0.0
  0
CIRCLE
  5
1372
330
2
100
AcDbEntity
  8
CENTER
100
AcDbCircle
 10
1427.773248252536
 20
185.2584628304949
 30
0.0
 40
45.0
  0
LINE
  5
1373
330
2
100
AcDbEntity
  8
HIDS
100
AcDbLine
 10
1419.023248252536
 20
227.2584628304949
 30
0.0
 11
1419.023248252536
 21
212.906925717246
 31
0.0
  0
LINE
  5
1374
330
2
100
AcDbEntity
  8
HIDS
100
AcDbLine
 10
1406.523248252536
 20
227.2584628304949
 30
0.0
 11
1406.523248252536
 21
204.9926337023617
 31
0.0
  0
LINE
  5
1375
330
2
100
AcDbEntity
  8
0
100
AcDbLine
 10
1123.698537390557
 20
227.2584628305838
 30
0.0
 11
1123.698537390557
 21
223.7577631461197
 31
0.0
  0
LINE
  5
1376
330
2
100
AcDbEntity
  8
0
100
AcDbLine
 10
1125.698537390557
 20
225.3282830902997
 30
0.0
 11
1125.698537390557
 21
225.1389713171509
 31
0.0
  0
LINE
  5
1377
330
2
100
AcDbEntity
  8
0
100
AcDbLine
 10
1089.698537390553
 20
235.1362486031301
 30
0.0
 11
1089.698537390555
 21
196.3011638360711
 31
0.0
  0
LINE
  5
1378
330
2
100
AcDbEntity
  8
0
100
AcDbLine
 10
1089.698537390555
 20
185.2584628305866
 30
0.0
 11
1089.698537390555
 21
135.3806770580439
 31
0.0
  0
LINE
  5
1379
330
2
100
AcDbEntity
  8
0
100
AcDbLine
 10
1125.698537390555
 20
145.1886425708743
 30
0.0
 11
1123.698537390553
 21
143.2584628305875
 31
0.0
  0
LINE
  5
137A
330
2
100
AcDbEntity
  8
0
100
AcDbLine
 10
1129.698537390553
 20
145.2584628305875
 30
0.0
 11
1125.698537390555
 21
145.1886425708743
 31
0.0
  0
LINE
  5
137B
330
2
100
AcDbEntity
  8
0
100
AcDbLine
 10
1074.698537390553
 20
134.2584628305875
 30
0.0
 11
1088.707263926053
 21
134.3807151349791
 31
0.0
  0
LINE
  5
137C
330
2
100
AcDbEntity
  8
0
100
AcDbLine
 10
1123.698537390553
 20
143.2584628305875
 30
0.0
 11
1096.698537390553
 21
143.1013814256911
 31
0.0
  0
LINE
  5
137D
330
2
100
AcDbEntity
  8
0
100
AcDbLine
 10
1125.698537390557
 20
225.3282830902997
 30
0.0
 11
1123.698537390557
 21
227.2584628305838
 31
0.0
  0
LINE
  5
137E
330
2
100
AcDbEntity
  8
0
100
AcDbLine
 10
1129.698537390553
 20
225.2584628305865
 30
0.0
 11
1125.698537390557
 21
225.3282830902997
 31
0.0
  0
LINE
  5
137F
330
2
100
AcDbEntity
  8
0
100
AcDbLine
 10
1074.698537390553
 20
236.2584628305865
 30
0.0
 11
1088.707263926053
 21
236.136210526194
 31
0.0
  0
LINE
  5
1380
330
2
100
AcDbEntity
  8
0
100
AcDbLine
 10
1124.698385063236
 20
227.2526458869904
 30
0.0
 11
1096.698537390553
 21
227.415544235482
 31
0.0
  0
ARC
  5
1381
330
2
100
AcDbEntity
  8
0
100
AcDbCircle
 10
1088.698537390553
 20
235.1362486031301
 30
0.0
 40
1.0
100
AcDbArc
 50
0.0
 51
89.5000000000345
  0
ARC
  5
1382
330
2
100
AcDbEntity
  8
0
100
AcDbCircle
 10
1088.698537390555
 20
135.3806770580439
 30
0.0
 40
1.0
100
AcDbArc
 50
270.4999999999654
 51
0.0
  0
LINE
  5
1383
330
2
100
AcDbEntity
  8
0
100
AcDbLine
 10
1129.698537390553
 20
225.2584628305865
 30
0.0
 11
1129.698537390553
 21
145.2584628305875
 31
0.0
  0
CIRCLE
  5
1384
330
2
100
AcDbEntity
  8
0
100
AcDbCircle
 10
1385.343248252535
 20
227.6884628304951
 30
0.0
 40
5.0
  0
CIRCLE
  5
1385
330
2
100
AcDbEntity
  8
0
100
AcDbCircle
 10
1385.343248252535
 20
227.6884628304951
 30
0.0
 40
4.307179676972423
  0
CIRCLE
  5
1386
330
2
100
AcDbEntity
  8
0
100
AcDbCircle
 10
1385.343248252535
 20
227.6884628304951
 30
0.0
 40
2.886751345948113
  0
LWPOLYLINE
  5
1387
330
2
100
AcDbEntity
  8
0
100
AcDbPolyline
 90
        6
 70
     1
 43
0.0
 10
1387.843248252535
 20
229.1318385034692
 10
1385.343248252535
 20
230.5752141764433
 10
1382.843248252535
 20
229.1318385034692
 10
1382.843248252535
 20
226.2450871575211
 10
1385.343248252535
 20
224.801711484547
 10
1387.843248252535
 20
226.2450871575211
  0
CIRCLE
  5
1388
330
2
100
AcDbEntity
  8
0
100
AcDbCircle
 10
1470.203248252536
 20
227.6884628304951
 30
0.0
 40
5.0
  0
CIRCLE
  5
1389
330
2
100
AcDbEntity
  8
0
100
AcDbCircle
 10
1470.203248252536
 20
227.6884628304951
 30
0.0
 40
4.307179676972423
  0
CIRCLE
  5
138A
330
2
100
AcDbEntity
  8
0
100
AcDbCircle
 10
1470.203248252536
 20
227.6884628304951
 30
0.0
 40
2.886751345948113
  0
LWPOLYLINE
  5
138B
330
2
100
AcDbEntity
  8
0
100
AcDbPolyline
 90
        6
 70
     1
 43
0.0
 10
1472.703248252536
 20
229.1318385034692
 10
1470.203248252536
 20
230.5752141764433
 10
1467.703248252536
 20
229.1318385034692
 10
1467.703248252536
 20
226.2450871575211
 10
1470.203248252536
 20
224.801711484547
 10
1472.703248252536
 20
226.2450871575211
  0
CIRCLE
  5
138C
330
2
100
AcDbEntity
  8
0
100
AcDbCircle
 10
1470.203248252536
 20
142.8284628304955
 30
0.0
 40
5.0
  0
CIRCLE
  5
138D
330
2
100
AcDbEntity
  8
0
100
AcDbCircle
 10
1470.203248252536
 20
142.8284628304955
 30
0.0
 40
4.307179676972423
  0
CIRCLE
  5
138E
330
2
100
AcDbEntity
  8
0
100
AcDbCircle
 10
1470.203248252536
 20
142.8284628304955
 30
0.0
 40
2.886751345948113
  0
LWPOLYLINE
  5
138F
330
2
100
AcDbEntity
  8
0
100
AcDbPolyline
 90
        6
 70
     1
 43
0.0
 10
1472.703248252536
 20
144.2718385034696
 10
1470.203248252536
 20
145.7152141764437
 10
1467.703248252536
 20
144.2718385034696
 10
1467.703248252536
 20
141.3850871575215
 10
1470.203248252536
 20
139.9417114845474
 10
1472.703248252536
 20
141.3850871575215
  0
CIRCLE
  5
1390
330
2
100
AcDbEntity
  8
0
100
AcDbCircle
 10
1385.343248252535
 20
142.8284628304955
 30
0.0
 40
5.0
  0
CIRCLE
  5
1391
330
2
100
AcDbEntity
  8
0
100
AcDbCircle
 10
1385.343248252535
 20
142.8284628304955
 30
0.0
 40
4.307179676972423
  0
CIRCLE
  5
1392
330
2
100
AcDbEntity
  8
0
100
AcDbCircle
 10
1385.343248252535
 20
142.8284628304955
 30
0.0
 40
2.886751345948113
  0
LWPOLYLINE
  5
1393
330
2
100
AcDbEntity
  8
0
100
AcDbPolyline
 90
        6
 70
     1
 43
0.0
 10
1387.843248252535
 20
144.2718385034696
 10
1385.343248252535
 20
145.7152141764437
 10
1382.843248252535
 20
144.2718385034696
 10
1382.843248252535
 20
141.3850871575215
 10
1385.343248252535
 20
139.9417114845474
 10
1387.843248252535
 20
141.3850871575215
  0
LINE
  5
1394
330
2
100
AcDbEntity
  8
0
100
AcDbLine
 10
1096.298537390554
 20
222.6884628305868
 30
0.0
 11
1096.698537390553
 21
223.381283153615
 31
0.0
  0
LINE
  5
1395
330
2
100
AcDbEntity
  8
0
100
AcDbLine
 10
1096.298537390554
 20
222.6884628305868
 30
0.0
 11
1096.298537390554
 21
232.6884628305868
 31
0.0
  0
LINE
  5
1396
330
2
100
AcDbEntity
  8
0
100
AcDbLine
 10
1090.698537390553
 20
222.6884628305868
 30
0.0
 11
1090.698537390553
 21
232.6884628305868
 31
0.0
  0
LINE
  5
1397
330
2
100
AcDbEntity
  8
0
100
AcDbLine
 10
1090.698537390553
 20
232.6884628305868
 30
0.0
 11
1089.698537390553
 21
232.6884628305868
 31
0.0
  0
LINE
  5
1398
330
2
100
AcDbEntity
  8
0
100
AcDbLine
 10
1089.698537390553
 20
232.6884628305868
 30
0.0
 11
1089.698537390553
 21
222.6884628305868
 31
0.0
  0
LINE
  5
1399
330
2
100
AcDbEntity
  8
0
100
AcDbLine
 10
1089.698537390553
 20
222.6884628305868
 30
0.0
 11
1090.698537390553
 21
222.6884628305868
 31
0.0
  0
LINE
  5
139A
330
2
100
AcDbEntity
  8
0
100
AcDbLine
 10
1090.698537390553
 20
222.6884628305868
 30
0.0
 11
1090.698537390553
 21
232.6884628305868
 31
0.0
  0
LINE
  5
139B
330
2
100
AcDbEntity
  8
0
100
AcDbLine
 10
1096.298537390554
 20
222.6884628305868
 30
0.0
 11
1090.698537390553
 21
222.6884628305868
 31
0.0
  0
LINE
  5
139C
330
2
100
AcDbEntity
  8
0
100
AcDbLine
 10
1096.698537390553
 20
231.9956425075595
 30
0.0
 11
1096.698537390553
 21
223.381283153615
 31
0.0
  0
LINE
  5
139D
330
2
100
AcDbEntity
  8
0
100
AcDbLine
 10
1090.698537390553
 20
232.6884628305868
 30
0.0
 11
1096.298537390554
 21
232.6884628305868
 31
0.0
  0
LINE
  5
139E
330
2
100
AcDbEntity
  8
0
100
AcDbLine
 10
1096.298537390554
 20
232.6884628305868
 30
0.0
 11
1096.698537390553
 21
231.9956425075595
 31
0.0
  0
LINE
  5
139F
330
2
100
AcDbEntity
  8
CENTER
  6
CENS
100
AcDbLine
 10
1069.698537390555
 20
227.6884628305868
 30
0.0
 11
1101.698537390553
 21
227.6884628305868
 31
0.0
  0
LINE
  5
13A0
330
2
100
AcDbEntity
  8
0
100
AcDbLine
 10
1096.298537390554
 20
147.8284628305872
 30
0.0
 11
1096.698537390553
 21
147.135642507559
 31
0.0
  0
LINE
  5
13A1
330
2
100
AcDbEntity
  8
0
100
AcDbLine
 10
1096.298537390554
 20
147.8284628305872
 30
0.0
 11
1096.298537390554
 21
137.8284628305872
 31
0.0
  0
LINE
  5
13A2
330
2
100
AcDbEntity
  8
0
100
AcDbLine
 10
1090.698537390553
 20
147.8284628305872
 30
0.0
 11
1090.698537390553
 21
137.8284628305872
 31
0.0
  0
LINE
  5
13A3
330
2
100
AcDbEntity
  8
0
100
AcDbLine
 10
1090.698537390553
 20
137.8284628305872
 30
0.0
 11
1089.698537390553
 21
137.8284628305872
 31
0.0
  0
LINE
  5
13A4
330
2
100
AcDbEntity
  8
0
100
AcDbLine
 10
1089.698537390553
 20
137.8284628305872
 30
0.0
 11
1089.698537390553
 21
147.8284628305872
 31
0.0
  0
LINE
  5
13A5
330
2
100
AcDbEntity
  8
0
100
AcDbLine
 10
1089.698537390553
 20
147.8284628305872
 30
0.0
 11
1090.698537390553
 21
147.8284628305872
 31
0.0
  0
LINE
  5
13A6
330
2
100
AcDbEntity
  8
0
100
AcDbLine
 10
1090.698537390553
 20
147.8284628305872
 30
0.0
 11
1090.698537390553
 21
137.8284628305872
 31
0.0
  0
LINE
  5
13A7
330
2
100
AcDbEntity
  8
0
100
AcDbLine
 10
1096.298537390554
 20
147.8284628305872
 30
0.0
 11
1090.698537390553
 21
147.8284628305872
 31
0.0
  0
LINE
  5
13A8
330
2
100
AcDbEntity
  8
0
100
AcDbLine
 10
1096.698537390553
 20
138.5212831536144
 30
0.0
 11
1096.698537390553
 21
147.135642507559
 31
0.0
  0
LINE
  5
13A9
330
2
100
AcDbEntity
  8
0
100
AcDbLine
 10
1090.698537390553
 20
137.8284628305872
 30
0.0
 11
1096.298537390554
 21
137.8284628305872
 31
0.0
  0
LINE
  5
13AA
330
2
100
AcDbEntity
  8
0
100
AcDbLine
 10
1096.298537390554
 20
137.8284628305872
 30
0.0
 11
1096.698537390553
 21
138.5212831536144
 31
0.0
  0
LINE
  5
13AB
330
2
100
AcDbEntity
  8
CENTER
  6
CENS
100
AcDbLine
 10
1069.698537390555
 20
142.8284628305872
 30
0.0
 11
1101.698537390553
 21
142.8284628305872
 31
0.0
  0
LINE
  5
13AC
330
2
100
AcDbEntity
  8
0
100
AcDbLine
 10
1096.298537390552
 20
540.7998369518325
 30
0.0
 11
1096.698537390552
 21
540.1070166288052
 31
0.0
  0
LINE
  5
13AD
330
2
100
AcDbEntity
  8
0
100
AcDbLine
 10
1096.298537390552
 20
540.7998369518325
 30
0.0
 11
1096.298537390552
 21
530.7998369518324
 31
0.0
  0
LINE
  5
13AE
330
2
100
AcDbEntity
  8
0
100
AcDbLine
 10
1090.698537390552
 20
540.7998369518325
 30
0.0
 11
1090.698537390552
 21
530.7998369518324
 31
0.0
  0
LINE
  5
13AF
330
2
100
AcDbEntity
  8
0
100
AcDbLine
 10
1090.698537390552
 20
530.7998369518324
 30
0.0
 11
1089.698537390552
 21
530.7998369518324
 31
0.0
  0
LINE
  5
13B0
330
2
100
AcDbEntity
  8
0
100
AcDbLine
 10
1089.698537390552
 20
530.7998369518324
 30
0.0
 11
1089.698537390552
 21
540.7998369518325
 31
0.0
  0
LINE
  5
13B1
330
2
100
AcDbEntity
  8
0
100
AcDbLine
 10
1089.698537390552
 20
540.7998369518325
 30
0.0
 11
1090.698537390552
 21
540.7998369518325
 31
0.0
  0
LINE
  5
13B2
330
2
100
AcDbEntity
  8
0
100
AcDbLine
 10
1090.698537390552
 20
540.7998369518325
 30
0.0
 11
1090.698537390552
 21
530.7998369518324
 31
0.0
  0
LINE
  5
13B3
330
2
100
AcDbEntity
  8
0
100
AcDbLine
 10
1096.298537390552
 20
540.7998369518325
 30
0.0
 11
1090.698537390552
 21
540.7998369518325
 31
0.0
  0
LINE
  5
13B4
330
2
100
AcDbEntity
  8
0
100
AcDbLine
 10
1096.698537390552
 20
531.4926572748597
 30
0.0
 11
1096.698537390552
 21
540.1070166288052
 31
0.0
  0
LINE
  5
13B5
330
2
100
AcDbEntity
  8
0
100
AcDbLine
 10
1090.698537390552
 20
530.7998369518324
 30
0.0
 11
1096.298537390552
 21
530.7998369518324
 31
0.0
  0
LINE
  5
13B6
330
2
100
AcDbEntity
  8
0
100
AcDbLine
 10
1096.298537390552
 20
530.7998369518324
 30
0.0
 11
1096.698537390552
 21
531.4926572748597
 31
0.0
  0
LINE
  5
13B7
330
2
100
AcDbEntity
  8
CENTER
  6
CENS
100
AcDbLine
 10
1069.698537390553
 20
535.7998369518325
 30
0.0
 11
1101.698537390552
 21
535.7998369518325
 31
0.0
  0
LINE
  5
13B8
330
2
100
AcDbEntity
  8
0
100
AcDbLine
 10
1096.298537390552
 20
615.6598369518321
 30
0.0
 11
1096.698537390552
 21
616.3526572748603
 31
0.0
  0
LINE
  5
13B9
330
2
100
AcDbEntity
  8
0
100
AcDbLine
 10
1096.298537390552
 20
615.6598369518321
 30
0.0
 11
1096.298537390552
 21
625.6598369518322
 31
0.0
  0
LINE
  5
13BA
330
2
100
AcDbEntity
  8
0
100
AcDbLine
 10
1090.698537390552
 20
615.6598369518321
 30
0.0
 11
1090.698537390552
 21
625.6598369518322
 31
0.0
  0
LINE
  5
13BB
330
2
100
AcDbEntity
  8
0
100
AcDbLine
 10
1090.698537390552
 20
625.6598369518322
 30
0.0
 11
1089.698537390552
 21
625.6598369518322
 31
0.0
  0
LINE
  5
13BC
330
2
100
AcDbEntity
  8
0
100
AcDbLine
 10
1089.698537390552
 20
625.6598369518322
 30
0.0
 11
1089.698537390552
 21
615.6598369518321
 31
0.0
  0
LINE
  5
13BD
330
2
100
AcDbEntity
  8
0
100
AcDbLine
 10
1089.698537390552
 20
615.6598369518321
 30
0.0
 11
1090.698537390552
 21
615.6598369518321
 31
0.0
  0
LINE
  5
13BE
330
2
100
AcDbEntity
  8
0
100
AcDbLine
 10
1090.698537390552
 20
615.6598369518321
 30
0.0
 11
1090.698537390552
 21
625.6598369518322
 31
0.0
  0
LINE
  5
13BF
330
2
100
AcDbEntity
  8
0
100
AcDbLine
 10
1096.298537390552
 20
615.6598369518321
 30
0.0
 11
1090.698537390552
 21
615.6598369518321
 31
0.0
  0
LINE
  5
13C0
330
2
100
AcDbEntity
  8
0
100
AcDbLine
 10
1096.698537390552
 20
624.9670166288049
 30
0.0
 11
1096.698537390552
 21
616.3526572748603
 31
0.0
  0
LINE
  5
13C1
330
2
100
AcDbEntity
  8
0
100
AcDbLine
 10
1090.698537390552
 20
625.6598369518322
 30
0.0
 11
1096.298537390552
 21
625.6598369518322
 31
0.0
  0
LINE
  5
13C2
330
2
100
AcDbEntity
  8
0
100
AcDbLine
 10
1096.298537390552
 20
625.659836951833
 30
0.0
 11
1096.698537390552
 21
624.9670166288049
 31
0.0
  0
LINE
  5
13C3
330
2
100
AcDbEntity
  8
CENTER
  6
CENS
100
AcDbLine
 10
1069.698537390553
 20
620.6598369518322
 30
0.0
 11
1101.698537390552
 21
620.6598369518322
 31
0.0
  0
LINE
  5
13C4
330
2
100
AcDbEntity
  8
0
100
AcDbLine
 10
1120.721492677443
 20
231.2761413501437
 30
0.0
 11
1110.721658541169
 21
231.333736897024
 31
0.0
  0
ARC
  5
13C5
330
2
100
AcDbEntity
  8
0
100
AcDbCircle
 10
1110.698620322416
 20
227.3338032425143
 30
0.0
 40
4.000000000000014
100
AcDbArc
 50
89.67000000001375
 51
179.6699999999877
  0
ARC
  5
13C6
330
2
100
AcDbEntity
  8
0
100
AcDbCircle
 10
1120.69845445869
 20
227.2762076956349
 30
0.0
 40
4.000000000000014
100
AcDbArc
 50
359.6699999999876
 51
89.67000000001375
  0
LINE
  5
13C7
330
2
100
AcDbEntity
  8
CENTER
  6
CENS
100
AcDbLine
 10
1115.698537390553
 20
236.2008627041048
 30
0.0
 11
1115.698537390553
 21
207.84093670174
 31
0.0
  0
CIRCLE
  5
13C8
330
2
100
AcDbEntity
  8
0
100
AcDbCircle
 10
1115.698537390552
 20
563.2298369518328
 30
0.0
 40
9.0
  0
LINE
  5
13C9
330
2
100
AcDbEntity
  8
CENTER
  6
CENS
100
AcDbLine
 10
1115.698537390548
 20
551.3509070528386
 30
0.0
 11
1115.698537390548
 21
575.1087668508269
 31
0.0
  0
LINE
  5
13CA
330
2
100
AcDbEntity
  8
CENTER
  6
CENS
100
AcDbLine
 10
1127.577467289542
 20
563.2298369518328
 30
0.0
 11
1103.819607491554
 21
563.2298369518328
 31
0.0
  0
LINE
  5
13CB
330
2
100
AcDbEntity
  8
0
100
AcDbLine
 10
1129.698537390553
 20
220.2584628305874
 30
0.0
 11
1122.698537390553
 21
220.2584628305865
 31
0.0
  0
LINE
  5
13CC
330
2
100
AcDbEntity
  8
0
100
AcDbLine
 10
1122.698537390553
 20
220.2584628305865
 30
0.0
 11
1122.698537390553
 21
185.2584628305866
 31
0.0
  0
LINE
  5
13CD
330
2
100
AcDbEntity
  8
0
100
AcDbLine
 10
1122.698537390553
 20
205.0084628305865
 30
0.0
 11
1112.960732820036
 21
205.0084628305865
 31
0.0
  0
LINE
  5
13CE
330
2
100
AcDbEntity
  8
0
100
AcDbLine
 10
1120.698537390553
 20
193.2584628305865
 30
0.0
 11
1109.698537390553
 21
193.2584628305874
 31
0.0
  0
LINE
  5
13CF
330
2
100
AcDbEntity
  8
0
100
AcDbLine
 10
1091.198537390553
 20
193.5084628305865
 30
0.0
 11
1091.198537390553
 21
185.2584628305875
 31
0.0
  0
LINE
  5
13D0
330
2
100
AcDbEntity
  8
0
100
AcDbLine
 10
1091.198537390553
 20
193.5084628305865
 30
0.0
 11
1085.198537390553
 21
193.5084628305865
 31
0.0
  0
LINE
  5
13D1
330
2
100
AcDbEntity
  8
0
100
AcDbLine
 10
1085.198537390553
 20
193.5084628305865
 30
0.0
 11
1085.198537390553
 21
185.2584628305866
 31
0.0
  0
LINE
  5
13D2
330
2
100
AcDbEntity
  8
0
100
AcDbLine
 10
1107.698537390553
 20
199.533873051282
 30
0.0
 11
1107.698537390553
 21
185.2584628305866
 31
0.0
  0
LINE
  5
13D3
330
2
100
AcDbEntity
  8
0
100
AcDbLine
 10
1109.698537390553
 20
200.5876063916637
 30
0.0
 11
1109.698537390553
 21
185.2584628305866
 31
0.0
  0
LINE
  5
13D4
330
2
100
AcDbEntity
  8
0
100
AcDbLine
 10
1107.698537390553
 20
193.2584628305874
 30
0.0
 11
1091.198537390553
 21
193.2584628305865
 31
0.0
  0
LINE
  5
13D5
330
2
100
AcDbEntity
  8
0
100
AcDbLine
 10
1122.698537390553
 20
194.4131633689665
 30
0.0
 11
1120.698537390553
 21
193.2584628305865
 31
0.0
  0
LINE
  5
13D6
330
2
100
AcDbEntity
  8
0
100
AcDbLine
 10
1120.698537390553
 20
193.2584628305865
 30
0.0
 11
1120.698537390553
 21
185.2584628305866
 31
0.0
  0
LINE
  5
13D7
330
2
100
AcDbEntity
  8
0
100
AcDbLine
 10
1085.198537390553
 20
192.7584628305865
 30
0.0
 11
1080.868410371631
 21
185.2584628305866
 31
0.0
  0
SPLINE
  5
13D8
330
2
100
AcDbEntity
  8
HOJO
100
AcDbSpline
210
0.0
220
0.0
230
1.0
 70
     8
 71
     3
 72
    20
 73
    16
 74
     0
 42
0.0000000001
 43
0.0000000001
 40
1.221331719906463
 40
1.221331719906463
 40
1.221331719906463
 40
1.221331719906463
 40
5.647385924430076
 40
9.759277458584113
 40
14.59638394258456
 40
18.6386056126129
 40
22.25598020257161
 40
26.57819511411361
 40
31.00332353479096
 40
40.39337194914635
 40
45.49899296170218
 40
52.02718752358933
 40
57.17041693382338
 40
65.63449353306062
 40
69.3611614947018
 40
69.3611614947018
 40
69.3611614947018
 40
69.3611614947018
 10
1125.999019947583
 20
225.3230381477568
 30
0.0
 10
1124.631859743991
 20
224.4877649345178
 30
0.0
 10
1122.176188013059
 20
222.9591422889551
 30
0.0
 10
1120.866889584582
 20
218.4348001013857
 30
0.0
 10
1119.716980259034
 20
215.0432306068676
 30
0.0
 10
1116.229223847045
 20
211.3694653956234
 30
0.0
 10
1114.557388670682
 20
207.8441052656442
 30
0.0
 10
1112.580142110227
 20
204.2933885681494
 30
0.0
 10
1109.192360797664
 20
198.7043439796951
 30
0.0
 10
1101.668001753349
 20
198.8799204272871
 30
0.0
 10
1094.9396623967
 20
197.7335498937889
 30
0.0
 10
1089.596395851293
 20
196.0149377893083
 30
0.0
 10
1082.597615336906
 20
195.6787665045847
 30
0.0
 10
1078.882882537682
 20
190.1927721726295
 30
0.0
 10
1077.561041098886
 20
186.4228656794538
 30
0.0
 10
1077.148368325777
 20
185.2584628305866
 30
0.0
  0
LINE
  5
13D9
330
2
100
AcDbEntity
  8
CENTER
  6
CENS
100
AcDbLine
 10
1412.773248252536
 20
236.2008627040132
 30
0.0
 11
1412.773248252536
 21
169.4107976729657
 31
0.0
  0
LINE
  5
13DA
330
2
100
AcDbEntity
  8
0
100
AcDbLine
 10
1408.037493896546
 20
184.5084628304949
 30
0.0
 11
1419.808482091498
 21
184.5084628304949
 31
0.0
  0
LINE
  5
13DB
330
2
100
AcDbEntity
  8
0
100
AcDbLine
 10
1408.037493896546
 20
186.0084628304949
 30
0.0
 11
1419.808482091498
 21
186.0084628304949
 31
0.0
  0
CIRCLE
  5
13DC
330
2
100
AcDbEntity
  8
0
100
AcDbCircle
 10
1427.773248252536
 20
185.2584628304949
 30
0.0
 40
8.0
  0
LINE
  5
13DD
330
2
100
AcDbEntity
  8
0
100
AcDbLine
 10
1444.973248252535
 20
184.5084628304949
 30
0.0
 11
1444.973248252535
 21
186.0084628304949
 31
0.0
  0
LINE
  5
13DE
330
2
100
AcDbEntity
  8
0
100
AcDbLine
 10
1435.738014413574
 20
184.5084628304949
 30
0.0
 11
1444.973248252535
 21
184.5084628304949
 31
0.0
  0
LINE
  5
13DF
330
2
100
AcDbEntity
  8
0
100
AcDbLine
 10
1435.738014413574
 20
186.0084628304949
 30
0.0
 11
1444.973248252535
 21
186.0084628304949
 31
0.0
  0
LINE
  5
13E0
330
2
100
AcDbEntity
  8
HIDS
100
AcDbLine
 10
1415.273248252536
 20
184.5084628304949
 30
0.0
 11
1415.273248252536
 21
169.9675341471221
 31
0.0
  0
LINE
  5
13E1
330
2
100
AcDbEntity
  8
HIDS
100
AcDbLine
 10
1414.85658158587
 20
184.5084628304949
 30
0.0
 11
1414.85658158587
 21
170.3178396098184
 31
0.0
  0
LINE
  5
13E2
330
2
100
AcDbEntity
  8
HIDS
100
AcDbLine
 10
1410.689914919202
 20
184.5084628304949
 30
0.0
 11
1410.689914919202
 21
175.3477503322829
 31
0.0
  0
LINE
  5
13E3
330
2
100
AcDbEntity
  8
HIDS
100
AcDbLine
 10
1410.273248252535
 20
184.5084628304949
 30
0.0
 11
1410.273248252535
 21
176.1035461186958
 31
0.0
  0
LINE
  5
13E4
330
2
100
AcDbEntity
  8
HIDS
100
AcDbLine
 10
1415.773248252536
 20
190.2584628304949
 30
0.0
 11
1415.773248252536
 21
186.0084628304949
 31
0.0
  0
LINE
  5
13E5
330
2
100
AcDbEntity
  8
HIDS
100
AcDbLine
 10
1409.773248252536
 20
190.2584628304949
 30
0.0
 11
1409.773248252536
 21
186.0084628304949
 31
0.0
  0
LINE
  5
13E6
330
2
100
AcDbEntity
  8
HIDS
100
AcDbLine
 10
1408.666639448251
 20
190.2584628304949
 30
0.0
 11
1417.773248252536
 21
190.2584628304949
 31
0.0
  0
LINE
  5
13E7
330
2
100
AcDbEntity
  8
HIDS
100
AcDbLine
 10
1417.023248252536
 20
190.2584628304949
 30
0.0
 11
1417.023248252536
 21
194.9584628304956
 31
0.0
  0
LINE
  5
13E8
330
2
100
AcDbEntity
  8
0
100
AcDbLine
 10
1408.523248252536
 20
194.9584628304956
 30
0.0
 11
1408.523248252536
 21
190.2584628304949
 31
0.0
  0
LINE
  5
13E9
330
2
100
AcDbEntity
  8
HIDS
100
AcDbLine
 10
1415.273248252536
 20
176.2584628304949
 30
0.0
 11
1414.273248252536
 21
175.2584628304949
 31
0.0
  0
LINE
  5
13EA
330
2
100
AcDbEntity
  8
HIDS
100
AcDbLine
 10
1410.273248252535
 20
176.2584628304949
 30
0.0
 11
1411.273248252536
 21
175.2584628304949
 31
0.0
  0
LINE
  5
13EB
330
2
100
AcDbEntity
  8
HIDS
100
AcDbLine
 10
1414.273248252536
 20
175.2584628304949
 30
0.0
 11
1411.273248252536
 21
175.2584628304949
 31
0.0
  0
LINE
  5
13EC
330
2
100
AcDbEntity
  8
HIDS
100
AcDbLine
 10
1415.273248252536
 20
190.2584628304949
 30
0.0
 11
1415.273248252536
 21
186.0084628304949
 31
0.0
  0
LINE
  5
13ED
330
2
100
AcDbEntity
  8
HIDS
100
AcDbLine
 10
1414.85658158587
 20
188.1751294971618
 30
0.0
 11
1414.85658158587
 21
186.0084628304949
 31
0.0
  0
LINE
  5
13EE
330
2
100
AcDbEntity
  8
HIDS
100
AcDbLine
 10
1410.689914919202
 20
188.1751294971618
 30
0.0
 11
1410.689914919202
 21
186.0084628304949
 31
0.0
  0
LINE
  5
13EF
330
2
100
AcDbEntity
  8
HIDS
100
AcDbLine
 10
1410.273248252535
 20
190.2584628304949
 30
0.0
 11
1410.273248252535
 21
186.0084628304949
 31
0.0
  0
LINE
  5
13F0
330
2
100
AcDbEntity
  8
HIDS
100
AcDbLine
 10
1415.273248252536
 20
176.2584628304949
 30
0.0
 11
1410.273248252535
 21
176.2584628304949
 31
0.0
  0
LINE
  5
13F1
330
2
100
AcDbEntity
  8
HIDS
100
AcDbLine
 10
1415.273248252536
 20
188.1751294971618
 30
0.0
 11
1410.273248252535
 21
188.1751294971618
 31
0.0
  0
LINE
  5
13F2
330
2
100
AcDbEntity
  8
0
100
AcDbLine
 10
1408.523248252536
 20
190.2584628304949
 30
0.0
 11
1408.666639448251
 21
190.2584628304949
 31
0.0
  0
LINE
  5
13F3
330
2
100
AcDbEntity
  8
HIDS
100
AcDbLine
 10
1410.273248252535
 20
190.2584628304949
 30
0.0
 11
1410.689914919202
 21
188.1751294971618
 31
0.0
  0
LINE
  5
13F4
330
2
100
AcDbEntity
  8
HIDS
100
AcDbLine
 10
1415.273248252536
 20
190.2584628304949
 30
0.0
 11
1414.85658158587
 21
188.1751294971618
 31
0.0
  0
LINE
  5
13F5
330
2
100
AcDbEntity
  8
0
100
AcDbLine
 10
1408.523248252536
 20
194.9584628304956
 30
0.0
 11
1410.569396939531
 21
194.9584628304956
 31
0.0
  0
LINE
  5
13F6
330
2
100
AcDbEntity
  8
HIDS
100
AcDbLine
 10
1416.503633010265
 20
195.2584628304949
 30
0.0
 11
1410.742026922284
 21
195.2584628304949
 31
0.0
  0
LINE
  5
13F7
330
2
100
AcDbEntity
  8
0
100
AcDbLine
 10
1408.523248252536
 20
194.9584628304956
 30
0.0
 11
1409.042863494806
 21
195.2584628304949
 31
0.0
  0
LINE
  5
13F8
330
2
100
AcDbEntity
  8
HIDS
100
AcDbLine
 10
1416.503633010265
 20
195.2584628304949
 30
0.0
 11
1417.023248252536
 21
194.9584628304956
 31
0.0
  0
LINE
  5
13F9
330
2
100
AcDbEntity
  8
0
100
AcDbLine
 10
1410.742026922284
 20
195.2584628304949
 30
0.0
 11
1409.042863494806
 21
195.2584628304949
 31
0.0
  0
LINE
  5
13FA
330
2
100
AcDbEntity
  8
HIDS
100
AcDbLine
 10
1410.569396939531
 20
194.9584628304956
 30
0.0
 11
1417.023248252536
 21
194.9584628304956
 31
0.0
  0
LINE
  5
13FB
330
2
100
AcDbEntity
  8
0
100
AcDbLine
 10
1415.273248252536
 20
186.0084628304949
 30
0.0
 11
1415.273248252536
 21
184.5084628304958
 31
0.0
  0
LINE
  5
13FC
330
2
100
AcDbEntity
  8
HOJO
100
AcDbLine
 10
1414.85658158587
 20
186.0084628304949
 30
0.0
 11
1414.85658158587
 21
184.5084628304958
 31
0.0
  0
LINE
  5
13FD
330
2
100
AcDbEntity
  8
HOJO
100
AcDbLine
 10
1410.689914919202
 20
186.0084628304949
 30
0.0
 11
1410.689914919202
 21
184.5084628304958
 31
0.0
  0
LINE
  5
13FE
330
2
100
AcDbEntity
  8
0
100
AcDbLine
 10
1410.273248252535
 20
186.0084628304949
 30
0.0
 11
1410.273248252535
 21
184.5084628304949
 31
0.0
  0
LINE
  5
13FF
330
2
100
AcDbEntity
  8
HIDS
100
AcDbLine
 10
1410.273248252535
 20
184.5084628304949
 30
0.0
 11
1410.273248252535
 21
176.2584628304949
 31
0.0
  0
LINE
  5
1400
330
2
100
AcDbEntity
  8
HIDS
100
AcDbLine
 10
1410.689914919202
 20
184.5084628304949
 30
0.0
 11
1410.689914919202
 21
175.8417961638289
 31
0.0
  0
CIRCLE
  5
1401
330
2
100
AcDbEntity
  8
0
100
AcDbCircle
 10
1427.773248252536
 20
185.2584628304949
 30
0.0
 40
19.75
  0
ARC
  5
1402
330
2
100
AcDbEntity
  8
0
100
AcDbCircle
 10
1427.773248252536
 20
185.2584628304949
 30
0.0
 40
9.154700538379415
100
AcDbArc
 50
4.699230675929105
 51
175.3007693240709
  0
ARC
  5
1403
330
2
100
AcDbEntity
  8
0
100
AcDbCircle
 10
1427.773248252536
 20
185.2584628304949
 30
0.0
 40
9.154700538379415
100
AcDbArc
 50
184.6992306759291
 51
355.3007693240708
  0
LINE
  5
1405
330
2
100
AcDbEntity
  8
0
100
AcDbLine
 10
1407.898249275988
 20
231.3337368969324
 30
0.0
 11
1417.648249275988
 21
231.3337368969324
 31
0.0
  0
ARC
  5
1406
330
2
100
AcDbEntity
  8
0
100
AcDbCircle
 10
1407.898249275988
 20
227.0837368969324
 30
0.0
 40
4.25
100
AcDbArc
 50
90.0
 51
177.6437927484533
  0
ARC
  5
1407
330
2
100
AcDbEntity
  8
0
100
AcDbCircle
 10
1417.398249275988
 20
227.0837368969324
 30
0.0
 40
4.25
100
AcDbArc
 50
2.356207251546686
 51
90.0
  0
LINE
  5
1408
330
2
100
AcDbEntity
  8
0
100
AcDbLine
 10
104.3165380136099
 20
227.2584628305813
 30
0.0
 11
104.3165380136099
 21
143.2584628305877
 31
0.0
  0
LINE
  5
1409
330
2
100
AcDbEntity
  8
0
100
AcDbLine
 10
102.3165380136099
 20
225.3282830902972
 30
0.0
 11
102.3165380136117
 21
145.1886425708718
 31
0.0
  0
LINE
  5
140A
330
2
100
AcDbEntity
  8
0
100
AcDbLine
 10
138.3165380136108
 20
235.1362486031276
 30
0.0
 11
138.3165380136117
 21
135.3806770580414
 31
0.0
  0
LINE
  5
140B
330
2
100
AcDbEntity
  8
0
100
AcDbLine
 10
102.3165380136117
 20
145.1886425708718
 30
0.0
 11
104.3165380136135
 21
143.258462830585
 31
0.0
  0
LINE
  5
140C
330
2
100
AcDbEntity
  8
0
100
AcDbLine
 10
98.31653801361358
 20
145.258462830585
 30
0.0
 11
102.3165380136117
 21
145.1886425708718
 31
0.0
  0
LINE
  5
140D
330
2
100
AcDbEntity
  8
0
100
AcDbLine
 10
153.3165380136135
 20
134.258462830585
 30
0.0
 11
139.3078114781139
 21
134.3807151349766
 31
0.0
  0
LINE
  5
140E
330
2
100
AcDbEntity
  8
0
100
AcDbLine
 10
104.3165380136135
 20
143.258462830585
 30
0.0
 11
131.3165380136135
 21
143.1013814256886
 31
0.0
  0
LINE
  5
140F
330
2
100
AcDbEntity
  8
0
100
AcDbLine
 10
102.3165380136099
 20
225.3282830902972
 30
0.0
 11
104.3165380136099
 21
227.2584628305813
 31
0.0
  0
LINE
  5
1410
330
2
100
AcDbEntity
  8
0
100
AcDbLine
 10
98.31653801361358
 20
225.258462830584
 30
0.0
 11
102.3165380136099
 21
225.3282830902972
 31
0.0
  0
LINE
  5
1411
330
2
100
AcDbEntity
  8
0
100
AcDbLine
 10
153.3165380136135
 20
236.258462830584
 30
0.0
 11
139.3078114781139
 21
236.1362105261915
 31
0.0
  0
LINE
  5
1412
330
2
100
AcDbEntity
  8
0
100
AcDbLine
 10
103.3166903409303
 20
227.2526458869879
 30
0.0
 11
131.3165380136135
 21
227.4155442354795
 31
0.0
  0
ARC
  5
1413
330
2
100
AcDbEntity
  8
0
100
AcDbCircle
 10
139.3165380136135
 20
235.1362486031276
 30
0.0
 40
1.0
100
AcDbArc
 50
90.49999999996549
 51
180.0
  0
ARC
  5
1414
330
2
100
AcDbEntity
  8
0
100
AcDbCircle
 10
139.3165380136117
 20
135.3806770580414
 30
0.0
 40
1.0
100
AcDbArc
 50
180.0
 51
269.5000000000345
  0
LINE
  5
1415
330
2
100
AcDbEntity
  8
0
100
AcDbLine
 10
98.31653801361358
 20
225.258462830584
 30
0.0
 11
98.31653801361358
 21
145.258462830585
 31
0.0
  0
LINE
  5
1416
330
2
100
AcDbEntity
  8
0
100
AcDbLine
 10
131.7165380136132
 20
222.6884628305843
 30
0.0
 11
131.3165380136135
 21
223.3812831536125
 31
0.0
  0
LINE
  5
1417
330
2
100
AcDbEntity
  8
0
100
AcDbLine
 10
131.7165380136132
 20
222.6884628305843
 30
0.0
 11
131.7165380136132
 21
232.6884628305843
 31
0.0
  0
LINE
  5
1418
330
2
100
AcDbEntity
  8
0
100
AcDbLine
 10
137.3165380136135
 20
222.6884628305843
 30
0.0
 11
137.3165380136135
 21
232.6884628305843
 31
0.0
  0
LINE
  5
1419
330
2
100
AcDbEntity
  8
0
100
AcDbLine
 10
137.3165380136135
 20
232.6884628305843
 30
0.0
 11
138.3165380136135
 21
232.6884628305843
 31
0.0
  0
LINE
  5
141A
330
2
100
AcDbEntity
  8
0
100
AcDbLine
 10
138.3165380136135
 20
232.6884628305843
 30
0.0
 11
138.3165380136135
 21
222.6884628305843
 31
0.0
  0
LINE
  5
141B
330
2
100
AcDbEntity
  8
0
100
AcDbLine
 10
138.3165380136135
 20
222.6884628305843
 30
0.0
 11
137.3165380136135
 21
222.6884628305843
 31
0.0
  0
LINE
  5
141C
330
2
100
AcDbEntity
  8
0
100
AcDbLine
 10
137.3165380136135
 20
222.6884628305843
 30
0.0
 11
137.3165380136135
 21
232.6884628305843
 31
0.0
  0
LINE
  5
141D
330
2
100
AcDbEntity
  8
0
100
AcDbLine
 10
131.7165380136132
 20
222.6884628305843
 30
0.0
 11
137.3165380136135
 21
222.6884628305843
 31
0.0
  0
LINE
  5
141E
330
2
100
AcDbEntity
  8
0
100
AcDbLine
 10
131.3165380136135
 20
231.995642507557
 30
0.0
 11
131.3165380136135
 21
223.3812831536125
 31
0.0
  0
LINE
  5
141F
330
2
100
AcDbEntity
  8
0
100
AcDbLine
 10
137.3165380136135
 20
232.6884628305843
 30
0.0
 11
131.7165380136132
 21
232.6884628305843
 31
0.0
  0
LINE
  5
1420
330
2
100
AcDbEntity
  8
0
100
AcDbLine
 10
131.7165380136132
 20
232.6884628305843
 30
0.0
 11
131.3165380136135
 21
231.995642507557
 31
0.0
  0
LINE
  5
1421
330
2
100
AcDbEntity
  8
CENTER
  6
CENS
100
AcDbLine
 10
158.3165380136135
 20
227.6884628305843
 30
0.0
 11
126.3165380136135
 21
227.6884628305843
 31
0.0
  0
LINE
  5
1422
330
2
100
AcDbEntity
  8
0
100
AcDbLine
 10
131.7165380136132
 20
147.8284628305847
 30
0.0
 11
131.3165380136135
 21
147.1356425075565
 31
0.0
  0
LINE
  5
1423
330
2
100
AcDbEntity
  8
0
100
AcDbLine
 10
131.7165380136132
 20
147.8284628305847
 30
0.0
 11
131.7165380136132
 21
137.8284628305847
 31
0.0
  0
LINE
  5
1424
330
2
100
AcDbEntity
  8
0
100
AcDbLine
 10
137.3165380136135
 20
147.8284628305847
 30
0.0
 11
137.3165380136135
 21
137.8284628305847
 31
0.0
  0
LINE
  5
1425
330
2
100
AcDbEntity
  8
0
100
AcDbLine
 10
137.3165380136135
 20
137.8284628305847
 30
0.0
 11
138.3165380136135
 21
137.8284628305847
 31
0.0
  0
LINE
  5
1426
330
2
100
AcDbEntity
  8
0
100
AcDbLine
 10
138.3165380136135
 20
137.8284628305847
 30
0.0
 11
138.3165380136135
 21
147.8284628305847
 31
0.0
  0
LINE
  5
1427
330
2
100
AcDbEntity
  8
0
100
AcDbLine
 10
138.3165380136135
 20
147.8284628305847
 30
0.0
 11
137.3165380136135
 21
147.8284628305847
 31
0.0
  0
LINE
  5
1428
330
2
100
AcDbEntity
  8
0
100
AcDbLine
 10
137.3165380136135
 20
147.8284628305847
 30
0.0
 11
137.3165380136135
 21
137.8284628305847
 31
0.0
  0
LINE
  5
1429
330
2
100
AcDbEntity
  8
0
100
AcDbLine
 10
131.7165380136132
 20
147.8284628305847
 30
0.0
 11
137.3165380136135
 21
147.8284628305847
 31
0.0
  0
LINE
  5
142A
330
2
100
AcDbEntity
  8
0
100
AcDbLine
 10
131.3165380136135
 20
138.5212831536119
 30
0.0
 11
131.3165380136135
 21
147.1356425075565
 31
0.0
  0
LINE
  5
142B
330
2
100
AcDbEntity
  8
0
100
AcDbLine
 10
137.3165380136135
 20
137.8284628305847
 30
0.0
 11
131.7165380136132
 21
137.8284628305847
 31
0.0
  0
LINE
  5
142C
330
2
100
AcDbEntity
  8
0
100
AcDbLine
 10
131.7165380136132
 20
137.8284628305847
 30
0.0
 11
131.3165380136135
 21
138.5212831536119
 31
0.0
  0
LINE
  5
142D
330
2
100
AcDbEntity
  8
CENTER
  6
CENS
100
AcDbLine
 10
158.3165380136135
 20
142.8284628305847
 30
0.0
 11
126.3165380136135
 21
142.8284628305847
 31
0.0
  0
LINE
  5
142E
330
2
100
AcDbEntity
  8
0
100
AcDbLine
 10
107.293582726724
 20
231.2761413501412
 30
0.0
 11
117.2934168629974
 21
231.3337368970215
 31
0.0
  0
ARC
  5
142F
330
2
100
AcDbEntity
  8
0
100
AcDbCircle
 10
117.3164550817503
 20
227.3338032425118
 30
0.0
 40
4.000000000000014
100
AcDbArc
 50
0.3300000000122996
 51
90.32999999998624
  0
ARC
  5
1430
330
2
100
AcDbEntity
  8
0
100
AcDbCircle
 10
107.3166209454768
 20
227.2762076956324
 30
0.0
 40
4.000000000000014
100
AcDbArc
 50
90.32999999998624
 51
180.3299999999862
  0
LINE
  5
1431
330
2
100
AcDbEntity
  8
CENTER
  6
CENS
100
AcDbLine
 10
112.3165380136135
 20
236.2008627041023
 30
0.0
 11
112.3165380136135
 21
207.8409367017375
 31
0.0
  0
LINE
  5
1432
330
2
100
AcDbEntity
  8
0
100
AcDbLine
 10
1123.698537390553
 20
143.2584628305875
 30
0.0
 11
1123.698537390553
 21
185.2584628305866
 31
0.0
  0
LINE
  5
1433
330
2
100
AcDbEntity
  8
0
100
AcDbLine
 10
1125.698537390555
 20
145.1886425708743
 30
0.0
 11
1125.698537390555
 21
185.2584628305866
 31
0.0
  0
LINE
  5
1434
330
2
100
AcDbEntity
  8
HIDS
100
AcDbLine
 10
1417.773248252536
 20
190.2584628304949
 30
0.0
 11
1417.773248252536
 21
202.2896841607462
 31
0.0
  0
CIRCLE
  5
1435
330
2
100
AcDbEntity
  8
0
100
AcDbCircle
 10
1459.59305340593
 20
153.4386576771004
 30
0.0
 40
2.0
  0
CIRCLE
  5
1436
330
2
100
AcDbEntity
  8
HOJO
100
AcDbCircle
 10
1459.59305340593
 20
153.4386576771004
 30
0.0
 40
2.5
  0
CIRCLE
  5
1437
330
2
100
AcDbEntity
  8
0
100
AcDbCircle
 10
1459.59305340593
 20
217.0782679838894
 30
0.0
 40
2.0
  0
CIRCLE
  5
1438
330
2
100
AcDbEntity
  8
HOJO
100
AcDbCircle
 10
1459.59305340593
 20
217.0782679838894
 30
0.0
 40
2.5
  0
CIRCLE
  5
1439
330
2
100
AcDbEntity
  8
0
100
AcDbCircle
 10
1395.953443099141
 20
153.4386576771004
 30
0.0
 40
2.0
  0
CIRCLE
  5
143A
330
2
100
AcDbEntity
  8
HOJO
100
AcDbCircle
 10
1395.953443099141
 20
153.4386576771004
 30
0.0
 40
2.5
  0
CIRCLE
  5
143B
330
2
100
AcDbEntity
  8
0
100
AcDbCircle
 10
1395.953443099141
 20
217.0782679838894
 30
0.0
 40
2.0
  0
CIRCLE
  5
143C
330
2
100
AcDbEntity
  8
HOJO
100
AcDbCircle
 10
1395.953443099141
 20
217.0782679838894
 30
0.0
 40
2.5
  0
LINE
  5
143D
330
2
100
AcDbEntity
  8
0
100
AcDbLine
 10
1122.698537390553
 20
214.2584628305865
 30
0.0
 11
1118.788884041767
 21
214.2584628305865
 31
0.0
  0
CIRCLE
  5
143E
330
2
100
AcDbEntity
  8
0
100
AcDbCircle
 10
1427.773248252536
 20
185.2584628304949
 30
0.0
 40
29.0
  0
LINE
  5
1E94
330
2
100
AcDbEntity
  8
0
100
AcDbLine
 10
488.3065361042961
 20
142.7584628305846
 30
0.0
 11
489.6065361042953
 21
142.7584628305846
 31
0.0
  0
LINE
  5
1E95
330
2
100
AcDbEntity
  8
0
100
AcDbLine
 10
488.3065361042997
 20
227.7584628305846
 30
0.0
 11
489.606536104299
 21
227.7584628305846
 31
0.0
  0
LINE
  5
1E96
330
2
100
AcDbEntity
  8
CENTER
100
AcDbLine
 10
472.3065361042997
 20
185.2584628305839
 30
0.0
 11
698.3065327754887
 21
185.2584628305846
 31
0.0
  0
LINE
  5
1E97
330
2
100
AcDbEntity
  8
0
100
AcDbLine
 10
241.8491688989599
 20
236.2584628305841
 30
0.0
 11
206.2865600136122
 21
236.2584628305841
 31
0.0
  0
LINE
  5
1E98
330
2
100
AcDbEntity
  8
0
100
AcDbLine
 10
241.8491688989599
 20
134.2584628305841
 30
0.0
 11
206.2865600136122
 21
134.2584628305841
 31
0.0
  0
LINE
  5
1E9A
330
2
100
AcDbEntity
  8
0
100
AcDbLine
 10
198.2865600136122
 20
142.2584628305841
 30
0.0
 11
198.2865600136122
 21
228.2584628305841
 31
0.0
  0
LINE
  5
1E9B
330
2
100
AcDbEntity
  8
0
100
AcDbLine
 10
180.8165380136126
 20
148.2584628305841
 30
0.0
 11
180.8165380136126
 21
222.2584628305841
 31
0.0
  0
LINE
  5
1E9D
330
2
100
AcDbEntity
  8
0
100
AcDbLine
 10
168.8165380136144
 20
135.7584628305841
 30
0.0
 11
168.8165380136144
 21
234.7584628305841
 31
0.0
  0
ARC
  5
1E9E
330
2
100
AcDbEntity
  8
0
100
AcDbCircle
 10
173.8165380136145
 20
140.2584628305841
 30
0.0
 40
5.0
100
AcDbArc
 50
90.0
 51
180.0
  0
ARC
  5
1E9F
330
2
100
AcDbEntity
  8
0
100
AcDbCircle
 10
166.8165380136126
 20
136.2584628305841
 30
0.0
 40
2.0
100
AcDbArc
 50
270.0
 51
0.0
  0
ARC
  5
1EA0
330
2
100
AcDbEntity
  8
0
100
AcDbCircle
 10
166.8165380136126
 20
135.7584628305841
 30
0.0
 40
2.0
100
AcDbArc
 50
270.0
 51
0.0
  0
LINE
  5
1EA1
330
2
100
AcDbEntity
  8
0
100
AcDbLine
 10
153.3165380136126
 20
134.2584628305841
 30
0.0
 11
166.8165380136126
 21
134.2584628305841
 31
0.0
  0
LINE
  5
1EA2
330
2
100
AcDbEntity
  8
0
100
AcDbLine
 10
153.3165380136126
 20
133.7584628305841
 30
0.0
 11
166.8165380136126
 21
133.7584628305841
 31
0.0
  0
LINE
  5
1EA3
330
2
100
AcDbEntity
  8
0
100
AcDbLine
 10
203.2865600136121
 20
140.5264120230159
 30
0.0
 11
206.2865600136122
 21
138.7943612154459
 31
0.0
  0
ARC
  5
1EA4
330
2
100
AcDbEntity
  8
0
100
AcDbCircle
 10
206.2865600136122
 20
142.2584628305841
 30
0.0
 40
8.0
100
AcDbArc
 50
180.0
 51
270.0
  0
LINE
  5
1EA5
330
2
100
AcDbEntity
  8
0
100
AcDbLine
 10
203.2865600136121
 20
143.990513638154
 30
0.0
 11
206.2865600136122
 21
145.7225644457222
 31
0.0
  0
LINE
  5
1EA6
330
2
100
AcDbEntity
  8
0
100
AcDbLine
 10
206.286560013614
 20
150.7584628305841
 30
0.0
 11
200.2865600136122
 21
150.7584628305804
 31
0.0
  0
CIRCLE
  5
1EA7
330
2
100
AcDbEntity
  8
0
100
AcDbCircle
 10
206.2865600136122
 20
142.2584628305841
 30
0.0
 40
5.63397459621558
  0
CIRCLE
  5
1EA8
330
2
100
AcDbEntity
  8
0
100
AcDbCircle
 10
206.2865600136122
 20
142.2584628305841
 30
0.0
 40
6.5
  0
LINE
  5
1EA9
330
2
100
AcDbEntity
  8
CENTER
100
AcDbLine
 10
217.0365600136122
 20
142.2584628305841
 30
0.0
 11
195.5365600136121
 21
142.2584628305859
 31
0.0
  0
LINE
  5
1EAA
330
2
100
AcDbEntity
  8
0
100
AcDbLine
 10
203.2865600136121
 20
143.990513638154
 30
0.0
 11
203.2865600136121
 21
140.5264120230159
 31
0.0
  0
ARC
  5
1EAB
330
2
100
AcDbEntity
  8
0
100
AcDbCircle
 10
193.286560013614
 20
152.2584628305841
 30
0.0
 40
5.0
100
AcDbArc
 50
0.0
 51
90.0
  0
ARC
  5
1EAC
330
2
100
AcDbEntity
  8
0
100
AcDbCircle
 10
195.286560013614
 20
149.2584628305841
 30
0.0
 40
3.0
100
AcDbArc
 50
0.0
 51
90.0
  0
LINE
  5
1EAD
330
2
100
AcDbEntity
  8
0
100
AcDbLine
 10
177.8165380136126
 20
145.2584628305841
 30
0.0
 11
173.8165380136145
 21
145.2584628305841
 31
0.0
  0
ARC
  5
1EAE
330
2
100
AcDbEntity
  8
0
100
AcDbCircle
 10
183.8165380136126
 20
149.2584628305841
 30
0.0
 40
3.0
100
AcDbArc
 50
90.0
 51
180.0
  0
ARC
  5
1EAF
330
2
100
AcDbEntity
  8
0
100
AcDbCircle
 10
185.8165380136126
 20
152.2584628305841
 30
0.0
 40
5.0
100
AcDbArc
 50
90.0
 51
180.0
  0
ARC
  5
1EB0
330
2
100
AcDbEntity
  8
0
100
AcDbCircle
 10
177.8165380136126
 20
148.2584628305841
 30
0.0
 40
3.0
100
AcDbArc
 50
270.0
 51
0.0
  0
LINE
  5
1EB1
330
2
100
AcDbEntity
  8
0
100
AcDbLine
 10
193.286560013614
 20
157.2584628305841
 30
0.0
 11
185.8165380136126
 21
157.2584628305841
 31
0.0
  0
LINE
  5
1EB2
330
2
100
AcDbEntity
  8
0
100
AcDbLine
 10
195.286560013614
 20
152.2584628305841
 30
0.0
 11
183.8165380136126
 21
152.2584628305841
 31
0.0
  0
ARC
  5
1EB3
330
2
100
AcDbEntity
  8
0
100
AcDbCircle
 10
200.2865600136122
 20
152.7584628305804
 30
0.0
 40
2.0
100
AcDbArc
 50
180.0
 51
270.0
  0
CIRCLE
  5
1EB4
330
2
100
AcDbEntity
  8
HOJO
100
AcDbCircle
 10
220.7865600136122
 20
139.7584628305841
 30
0.0
 40
2.5
  0
CIRCLE
  5
1EB5
330
2
100
AcDbEntity
  8
0
100
AcDbCircle
 10
220.7865600136122
 20
139.7584628305841
 30
0.0
 40
2.0
  0
LINE
  5
1EB6
330
2
100
AcDbEntity
  8
0
100
AcDbLine
 10
214.7865600136194
 20
142.2584628305895
 30
0.0
 11
214.7865600136213
 21
136.2584628305841
 31
0.0
  0
CIRCLE
  5
1EB7
330
2
100
AcDbEntity
  8
0
100
AcDbCircle
 10
220.7865600136122
 20
139.7584628305841
 30
0.0
 40
4.0
  0
CIRCLE
  5
1EB8
330
2
100
AcDbEntity
  8
0
100
AcDbCircle
 10
220.7865600136122
 20
139.7584628305841
 30
0.0
 40
3.5
  0
LINE
  5
1EB9
330
2
100
AcDbEntity
  8
CENTER
100
AcDbLine
 10
220.7865600136122
 20
131.758462830584
 30
0.0
 11
220.7865600136122
 21
147.7584628305841
 31
0.0
  0
LINE
  5
1EBA
330
2
100
AcDbEntity
  8
CENTER
100
AcDbLine
 10
228.7865600136121
 20
139.7584628305841
 30
0.0
 11
212.7865600136122
 21
139.7584628305841
 31
0.0
  0
ARC
  5
1EBB
330
2
100
AcDbEntity
  8
0
100
AcDbCircle
 10
216.7865600136213
 20
136.2584628305841
 30
0.0
 40
2.0
100
AcDbArc
 50
180.0
 51
270.0
  0
LINE
  5
1EBC
330
2
100
AcDbEntity
  8
0
100
AcDbLine
 10
209.2865600136121
 20
140.5264120230159
 30
0.0
 11
209.2865600136121
 21
143.990513638154
 31
0.0
  0
LINE
  5
1EBD
330
2
100
AcDbEntity
  8
CENTER
100
AcDbLine
 10
206.2865600136122
 20
131.5084628305841
 30
0.0
 11
206.286560013614
 21
153.0084628305841
 31
0.0
  0
LINE
  5
1EBE
330
2
100
AcDbEntity
  8
0
100
AcDbLine
 10
206.2865600136122
 20
138.7943612154459
 30
0.0
 11
209.2865600136121
 21
140.5264120230159
 31
0.0
  0
ARC
  5
1EBF
330
2
100
AcDbEntity
  8
0
100
AcDbCircle
 10
206.2865600136194
 20
142.2584628305841
 30
0.0
 40
8.5
100
AcDbArc
 50
0.0
 51
90.0
  0
LINE
  5
1EC0
330
2
100
AcDbEntity
  8
0
100
AcDbLine
 10
206.2865600136122
 20
145.7225644457222
 30
0.0
 11
209.2865600136121
 21
143.990513638154
 31
0.0
  0
ARC
  5
1EC1
330
2
100
AcDbEntity
  8
0
100
AcDbCircle
 10
173.8165380136145
 20
230.2584628305841
 30
0.0
 40
5.0
100
AcDbArc
 50
180.0
 51
270.0
  0
ARC
  5
1EC2
330
2
100
AcDbEntity
  8
0
100
AcDbCircle
 10
166.8165380136144
 20
234.2584628305841
 30
0.0
 40
2.0
100
AcDbArc
 50
0.0
 51
90.0
  0
ARC
  5
1EC3
330
2
100
AcDbEntity
  8
0
100
AcDbCircle
 10
166.8165380136144
 20
234.7584628305841
 30
0.0
 40
2.0
100
AcDbArc
 50
0.0
 51
90.0
  0
LINE
  5
1EC4
330
2
100
AcDbEntity
  8
0
100
AcDbLine
 10
153.3165380136126
 20
236.2584628305841
 30
0.0
 11
166.8165380136144
 21
236.2584628305841
 31
0.0
  0
LINE
  5
1EC5
330
2
100
AcDbEntity
  8
0
100
AcDbLine
 10
153.3165380136126
 20
236.7584628305841
 30
0.0
 11
166.8165380136144
 21
236.7584628305841
 31
0.0
  0
ARC
  5
1EC6
330
2
100
AcDbEntity
  8
0
100
AcDbCircle
 10
193.286560013614
 20
218.258462830584
 30
0.0
 40
5.0
100
AcDbArc
 50
270.0
 51
0.0
  0
ARC
  5
1EC7
330
2
100
AcDbEntity
  8
0
100
AcDbCircle
 10
185.8165380136126
 20
218.258462830584
 30
0.0
 40
5.0
100
AcDbArc
 50
180.0
 51
270.0
  0
ARC
  5
1EC8
330
2
100
AcDbEntity
  8
0
100
AcDbCircle
 10
195.2865600136122
 20
179.7584628305841
 30
0.0
 40
3.0
100
AcDbArc
 50
0.0
 51
90.0
  0
ARC
  5
1EC9
330
2
100
AcDbEntity
  8
0
100
AcDbCircle
 10
183.8165380136126
 20
179.7584628305841
 30
0.0
 40
3.0
100
AcDbArc
 50
90.0
 51
180.0
  0
LINE
  5
1ECA
330
2
100
AcDbEntity
  8
0
100
AcDbLine
 10
195.2865600136122
 20
182.7584628305841
 30
0.0
 11
183.8165380136126
 21
182.7584628305841
 31
0.0
  0
ARC
  5
1ECB
330
2
100
AcDbEntity
  8
0
100
AcDbCircle
 10
195.2865600136122
 20
190.7584628305841
 30
0.0
 40
3.0
100
AcDbArc
 50
270.0
 51
0.0
  0
ARC
  5
1ECC
330
2
100
AcDbEntity
  8
0
100
AcDbCircle
 10
183.8165380136126
 20
190.7584628305841
 30
0.0
 40
3.0
100
AcDbArc
 50
180.0
 51
270.0
  0
LINE
  5
1ECD
330
2
100
AcDbEntity
  8
0
100
AcDbLine
 10
195.2865600136122
 20
187.7584628305841
 30
0.0
 11
183.8165380136126
 21
187.7584628305841
 31
0.0
  0
LINE
  5
1ECE
330
2
100
AcDbEntity
  8
0
100
AcDbLine
 10
193.286560013614
 20
213.2584628305841
 30
0.0
 11
185.8165380136126
 21
213.2584628305841
 31
0.0
  0
LINE
  5
1ECF
330
2
100
AcDbEntity
  8
0
100
AcDbLine
 10
203.2865600136194
 20
226.5264120230159
 30
0.0
 11
206.2865600136194
 21
224.7943612154478
 31
0.0
  0
LINE
  5
1ED0
330
2
100
AcDbEntity
  8
0
100
AcDbLine
 10
206.286560013614
 20
219.7584628305841
 30
0.0
 11
200.2865600136122
 21
219.7584628305877
 31
0.0
  0
LINE
  5
1ED1
330
2
100
AcDbEntity
  8
0
100
AcDbLine
 10
203.2865600136194
 20
229.9905136381541
 30
0.0
 11
206.2865600136194
 21
231.7225644457222
 31
0.0
  0
ARC
  5
1ED2
330
2
100
AcDbEntity
  8
0
100
AcDbCircle
 10
206.2865600136122
 20
228.2584628305841
 30
0.0
 40
8.0
100
AcDbArc
 50
90.0
 51
180.0
  0
CIRCLE
  5
1ED3
330
2
100
AcDbEntity
  8
0
100
AcDbCircle
 10
206.2865600136194
 20
228.2584628305841
 30
0.0
 40
5.63397459621558
  0
CIRCLE
  5
1ED4
330
2
100
AcDbEntity
  8
0
100
AcDbCircle
 10
206.2865600136194
 20
228.2584628305841
 30
0.0
 40
6.5
  0
LINE
  5
1ED5
330
2
100
AcDbEntity
  8
CENTER
100
AcDbLine
 10
217.0365600136122
 20
228.2584628305859
 30
0.0
 11
195.5365600136121
 21
228.2584628305841
 31
0.0
  0
LINE
  5
1ED6
330
2
100
AcDbEntity
  8
0
100
AcDbLine
 10
203.2865600136194
 20
229.9905136381541
 30
0.0
 11
203.2865600136194
 21
226.5264120230159
 31
0.0
  0
ARC
  5
1ED7
330
2
100
AcDbEntity
  8
0
100
AcDbCircle
 10
195.286560013614
 20
221.2584628305841
 30
0.0
 40
3.0
100
AcDbArc
 50
270.0
 51
0.0
  0
LINE
  5
1ED8
330
2
100
AcDbEntity
  8
0
100
AcDbLine
 10
177.8165380136126
 20
225.2584628305841
 30
0.0
 11
173.8165380136145
 21
225.2584628305841
 31
0.0
  0
ARC
  5
1ED9
330
2
100
AcDbEntity
  8
0
100
AcDbCircle
 10
177.8165380136126
 20
222.2584628305841
 30
0.0
 40
3.0
100
AcDbArc
 50
0.0
 51
90.0
  0
ARC
  5
1EDA
330
2
100
AcDbEntity
  8
0
100
AcDbCircle
 10
183.8165380136126
 20
221.2584628305841
 30
0.0
 40
3.0
100
AcDbArc
 50
180.0
 51
270.0
  0
LINE
  5
1EDB
330
2
100
AcDbEntity
  8
0
100
AcDbLine
 10
195.286560013614
 20
218.258462830584
 30
0.0
 11
183.8165380136126
 21
218.258462830584
 31
0.0
  0
ARC
  5
1EDC
330
2
100
AcDbEntity
  8
0
100
AcDbCircle
 10
200.2865600136122
 20
217.7584628305877
 30
0.0
 40
2.0
100
AcDbArc
 50
89.99999999994789
 51
180.0
  0
LINE
  5
1EDD
330
2
100
AcDbEntity
  8
CENTER
100
AcDbLine
 10
220.7865600136122
 20
238.7584628305841
 30
0.0
 11
220.7865600136122
 21
222.758462830584
 31
0.0
  0
LINE
  5
1EDE
330
2
100
AcDbEntity
  8
0
100
AcDbLine
 10
209.2865600136194
 20
226.5264120230159
 30
0.0
 11
209.2865600136194
 21
229.9905136381541
 31
0.0
  0
CIRCLE
  5
1EDF
330
2
100
AcDbEntity
  8
0
100
AcDbCircle
 10
220.7865600136122
 20
230.758462830584
 30
0.0
 40
4.0
  0
CIRCLE
  5
1EE0
330
2
100
AcDbEntity
  8
0
100
AcDbCircle
 10
220.7865600136122
 20
230.758462830584
 30
0.0
 40
2.0
  0
CIRCLE
  5
1EE1
330
2
100
AcDbEntity
  8
HOJO
100
AcDbCircle
 10
220.7865600136122
 20
230.758462830584
 30
0.0
 40
2.5
  0
LINE
  5
1EE2
330
2
100
AcDbEntity
  8
0
100
AcDbLine
 10
214.7865600136194
 20
228.2584628305786
 30
0.0
 11
214.7865600136213
 21
234.2584628305859
 31
0.0
  0
ARC
  5
1EE3
330
2
100
AcDbEntity
  8
0
100
AcDbCircle
 10
216.7865600136213
 20
234.2584628305841
 30
0.0
 40
2.0
100
AcDbArc
 50
90.0
 51
179.9999999998957
  0
CIRCLE
  5
1EE4
330
2
100
AcDbEntity
  8
0
100
AcDbCircle
 10
220.7865600136122
 20
230.758462830584
 30
0.0
 40
3.5
  0
LINE
  5
1EE5
330
2
100
AcDbEntity
  8
CENTER
100
AcDbLine
 10
228.7865600136121
 20
230.7584628305859
 30
0.0
 11
212.7865600136122
 21
230.758462830584
 31
0.0
  0
LINE
  5
1EE6
330
2
100
AcDbEntity
  8
CENTER
100
AcDbLine
 10
206.2865600136122
 20
239.0084628305841
 30
0.0
 11
206.286560013614
 21
217.5084628305841
 31
0.0
  0
ARC
  5
1EE7
330
2
100
AcDbEntity
  8
0
100
AcDbCircle
 10
206.2865600136194
 20
228.2584628305841
 30
0.0
 40
8.5
100
AcDbArc
 50
269.9999999999478
 51
359.9999999998958
  0
LINE
  5
1EE8
330
2
100
AcDbEntity
  8
0
100
AcDbLine
 10
206.2865600136194
 20
224.7943612154478
 30
0.0
 11
209.2865600136194
 21
226.5264120230159
 31
0.0
  0
LINE
  5
1EE9
330
2
100
AcDbEntity
  8
0
100
AcDbLine
 10
206.2865600136194
 20
231.7225644457222
 30
0.0
 11
209.2865600136194
 21
229.9905136381541
 31
0.0
  0
CIRCLE
  5
1EEB
330
2
100
AcDbEntity
  8
0
100
AcDbCircle
 10
317.2865600136121
 20
185.2584628305841
 30
0.0
 40
45.0
  0
CIRCLE
  5
1EEC
330
2
100
AcDbEntity
  8
0
100
AcDbCircle
 10
317.2865600136121
 20
185.2584628305841
 30
0.0
 40
44.5
  0
CIRCLE
  5
1EED
330
2
100
AcDbEntity
  8
0
100
AcDbCircle
 10
317.2865600136121
 20
185.2584628305841
 30
0.0
 40
42.5
  0
CIRCLE
  5
1EEE
330
2
100
AcDbEntity
  8
0
100
AcDbCircle
 10
317.2865600136121
 20
185.2584628305841
 30
0.0
 40
36.57739999999999
  0
CIRCLE
  5
1EEF
330
2
100
AcDbEntity
  8
0
100
AcDbCircle
 10
317.2865600136121
 20
185.2584628305841
 30
0.0
 40
41.9226
  0
CIRCLE
  5
1EF0
330
2
100
AcDbEntity
  8
0
100
AcDbCircle
 10
317.2865600136121
 20
185.2584628305841
 30
0.0
 40
36.0
  0
LINE
  5
1EF1
330
2
100
AcDbEntity
  8
0
100
AcDbLine
 10
249.7865600136122
 20
127.7584628305841
 30
0.0
 11
249.7865600136122
 21
242.7584628305841
 31
0.0
  0
LINE
  5
1EF2
330
2
100
AcDbEntity
  8
0
100
AcDbLine
 10
262.2865600136122
 20
147.2584628305841
 30
0.0
 11
262.2865600136122
 21
223.2584628305841
 31
0.0
  0
LINE
  5
1EF3
330
2
100
AcDbEntity
  8
0
100
AcDbLine
 10
264.2865600136122
 20
147.2584628305841
 30
0.0
 11
264.2865600136122
 21
223.2584628305841
 31
0.0
  0
LINE
  5
1EF4
330
2
100
AcDbEntity
  8
CENTER
100
AcDbLine
 10
317.2865600136121
 20
267.7584628305832
 30
0.0
 11
317.2865600136121
 21
102.7584628305832
 31
0.0
  0
LINE
  5
1EF5
330
2
100
AcDbEntity
  8
0
100
AcDbLine
 10
370.2865600136121
 20
223.2584628305841
 30
0.0
 11
370.2865600136121
 21
147.2584628305841
 31
0.0
  0
ARC
  5
1EF6
330
2
100
AcDbEntity
  8
0
100
AcDbCircle
 10
44.78656001361218
 20
185.2584628305841
 30
0.0
 40
340.0
100
AcDbArc
 50
355.3322773121704
 51
4.667722687829444
  0
LINE
  5
1EF7
330
2
100
AcDbEntity
  8
0
100
AcDbLine
 10
372.2865600136121
 20
223.2584628305841
 30
0.0
 11
372.2865600136121
 21
147.2584628305841
 31
0.0
  0
LINE
  5
1EF8
330
2
100
AcDbEntity
  8
0
100
AcDbLine
 10
488.3065361042997
 20
227.7584628305846
 30
0.0
 11
488.3065361042961
 21
142.7584628305846
 31
0.0
  0
LINE
  5
1EF9
330
2
100
AcDbEntity
  8
0
100
AcDbLine
 10
487.3065361042997
 20
227.1811125613965
 30
0.0
 11
487.3065361042997
 21
143.3358130997728
 31
0.0
  0
CIRCLE
  5
1EFA
330
2
100
AcDbEntity
  8
0
100
AcDbCircle
 10
377.7865600136085
 20
142.2584628305877
 30
0.0
 40
3.5
  0
CIRCLE
  5
1EFB
330
2
100
AcDbEntity
  8
0
100
AcDbCircle
 10
377.7865600136085
 20
142.2584628305877
 30
0.0
 40
4.0
  0
LINE
  5
1EFC
330
2
100
AcDbEntity
  8
0
100
AcDbLine
 10
374.7865600136103
 20
136.2584628305841
 30
0.0
 11
381.9433659906664
 21
136.2584628305859
 31
0.0
  0
CIRCLE
  5
1EFD
330
2
100
AcDbEntity
  8
0
100
AcDbCircle
 10
374.7865600136122
 20
127.7584628305841
 30
0.0
 40
6.5
  0
LINE
  5
1EFE
330
2
100
AcDbEntity
  8
CENTER
100
AcDbLine
 10
371.3965508449875
 20
142.2584628305877
 30
0.0
 11
384.1765691822203
 21
142.2584628305877
 31
0.0
  0
LINE
  5
1EFF
330
2
100
AcDbEntity
  8
CENTER
100
AcDbLine
 10
385.5365600136085
 20
127.7584628305822
 30
0.0
 11
364.0365600136085
 21
127.7584628305841
 31
0.0
  0
ARC
  5
1F00
330
2
100
AcDbEntity
  8
0
100
AcDbCircle
 10
374.7865600136122
 20
127.7584628305841
 30
0.0
 40
10.0
100
AcDbArc
 50
270.0
 51
0.0
  0
LINE
  5
1F01
330
2
100
AcDbEntity
  8
0
100
AcDbLine
 10
355.2865600136121
 20
130.2584628305841
 30
0.0
 11
279.2865600136122
 21
130.2584628305841
 31
0.0
  0
LINE
  5
1F02
330
2
100
AcDbEntity
  8
0
100
AcDbLine
 10
355.2865600136121
 20
132.2584628305841
 30
0.0
 11
279.2865600136122
 21
132.2584628305841
 31
0.0
  0
ARC
  5
1F03
330
2
100
AcDbEntity
  8
0
100
AcDbCircle
 10
317.2865600136121
 20
457.7584628305832
 30
0.0
 40
340.0
100
AcDbArc
 50
265.3322773121705
 51
274.6677226878294
  0
ARC
  5
1F04
330
2
100
AcDbEntity
  8
0
100
AcDbCircle
 10
259.7865600136121
 20
127.7584628305841
 30
0.0
 40
10.0
100
AcDbArc
 50
184.7801918472342
 51
270.0
  0
ARC
  5
1F05
330
2
100
AcDbEntity
  8
0
100
AcDbCircle
 10
281.4806603897252
 20
19.21777195672086
 30
0.0
 40
100.0
100
AcDbArc
 50
85.33227731217056
 51
99.42952112167283
  0
ARC
  5
1F06
330
2
100
AcDbEntity
  8
0
100
AcDbCircle
 10
263.7865600136121
 20
125.7584628305841
 30
0.0
 40
8.0
100
AcDbArc
 50
270.0
 51
279.4295211216728
  0
LINE
  5
1F07
330
2
100
AcDbEntity
  8
0
100
AcDbLine
 10
263.7865600136121
 20
117.7584628305841
 30
0.0
 11
259.7865600136121
 21
117.7584628305841
 31
0.0
  0
ARC
  5
1F08
330
2
100
AcDbEntity
  8
0
100
AcDbCircle
 10
279.2865600136122
 20
147.2584628305841
 30
0.0
 40
15.0
100
AcDbArc
 50
180.0
 51
270.0
  0
ARC
  5
1F09
330
2
100
AcDbEntity
  8
0
100
AcDbCircle
 10
279.2865600136122
 20
147.2584628305841
 30
0.0
 40
17.0
100
AcDbArc
 50
180.0
 51
270.0
  0
LINE
  5
1F0A
330
2
100
AcDbEntity
  8
0
100
AcDbLine
 10
267.2657447334406
 20
135.2376475504125
 30
0.0
 11
268.679958295814
 21
136.6518611127859
 31
0.0
  0
ARC
  5
1F0B
330
2
100
AcDbEntity
  8
0
100
AcDbCircle
 10
241.8491688989599
 20
126.2584628305841
 30
0.0
 40
8.0
100
AcDbArc
 50
4.780191847234233
 51
90.0
  0
LINE
  5
1F0C
330
2
100
AcDbEntity
  8
0
100
AcDbLine
 10
377.7865600136121
 20
126.0264120230159
 30
0.0
 11
377.7865600136121
 21
129.4905136381522
 31
0.0
  0
LINE
  5
1F0D
330
2
100
AcDbEntity
  8
0
100
AcDbLine
 10
366.2865600136103
 20
127.7584628305859
 30
0.0
 11
366.2865600136103
 21
120.6016568535307
 31
0.0
  0
LINE
  5
1F0E
330
2
100
AcDbEntity
  8
0
100
AcDbLine
 10
371.7865600136121
 20
129.4905136381522
 30
0.0
 11
371.7865600136121
 21
126.0264120230141
 31
0.0
  0
LINE
  5
1F0F
330
2
100
AcDbEntity
  8
CENTER
100
AcDbLine
 10
374.786560013614
 20
117.0084628305877
 30
0.0
 11
374.7865600136122
 21
138.5084628305877
 31
0.0
  0
CIRCLE
  5
1F10
330
2
100
AcDbEntity
  8
0
100
AcDbCircle
 10
374.7865600136122
 20
127.7584628305841
 30
0.0
 40
5.63397459621558
  0
ARC
  5
1F11
330
2
100
AcDbEntity
  8
0
100
AcDbCircle
 10
353.0924596374973
 20
19.21777195672086
 30
0.0
 40
100.0
100
AcDbArc
 50
80.5704788783272
 51
94.66772268782944
  0
LINE
  5
1F12
330
2
100
AcDbEntity
  8
0
100
AcDbLine
 10
374.7865600136122
 20
117.7584628305841
 30
0.0
 11
370.7865600136122
 21
117.7584628305841
 31
0.0
  0
ARC
  5
1F13
330
2
100
AcDbEntity
  8
0
100
AcDbCircle
 10
370.7865600136122
 20
125.7584628305841
 30
0.0
 40
8.0
100
AcDbArc
 50
260.5704788783271
 51
270.0
  0
ARC
  5
1F14
330
2
100
AcDbEntity
  8
0
100
AcDbCircle
 10
364.2865600136085
 20
120.6016568535307
 30
0.0
 40
2.0
100
AcDbArc
 50
263.6993214717104
 51
0.0
  0
LINE
  5
1F15
330
2
100
AcDbEntity
  8
0
100
AcDbLine
 10
371.7865600136121
 20
126.0264120230141
 30
0.0
 11
374.7865600136122
 21
124.2943612154459
 31
0.0
  0
LINE
  5
1F16
330
2
100
AcDbEntity
  8
0
100
AcDbLine
 10
374.7865600136122
 20
124.2943612154459
 30
0.0
 11
377.7865600136121
 21
126.0264120230159
 31
0.0
  0
ARC
  5
1F17
330
2
100
AcDbEntity
  8
0
100
AcDbCircle
 10
355.2865600136121
 20
147.2584628305841
 30
0.0
 40
15.0
100
AcDbArc
 50
270.0
 51
0.0
  0
ARC
  5
1F18
330
2
100
AcDbEntity
  8
0
100
AcDbCircle
 10
355.2865600136121
 20
147.2584628305841
 30
0.0
 40
17.0
100
AcDbArc
 50
270.0
 51
0.0
  0
CIRCLE
  5
1F19
330
2
100
AcDbEntity
  8
HOJO
100
AcDbCircle
 10
377.7865600136085
 20
142.2584628305877
 30
0.0
 40
2.5
  0
LINE
  5
1F1A
330
2
100
AcDbEntity
  8
CENTER
100
AcDbLine
 10
377.786560013603
 20
135.8684536619722
 30
0.0
 11
377.786560013603
 21
148.648471999205
 31
0.0
  0
ARC
  5
1F1B
330
2
100
AcDbEntity
  8
0
100
AcDbCircle
 10
374.7865600136103
 20
127.7584628305841
 30
0.0
 40
8.5
100
AcDbArc
 50
90.0
 51
180.0
  0
LINE
  5
1F1C
330
2
100
AcDbEntity
  8
0
100
AcDbLine
 10
367.3073752937836
 20
135.2376475504125
 30
0.0
 11
365.8931617314103
 21
136.6518611127859
 31
0.0
  0
LINE
  5
1F1D
330
2
100
AcDbEntity
  8
0
100
AcDbLine
 10
371.7865600136121
 20
129.4905136381522
 30
0.0
 11
374.7865600136122
 21
131.2225644457222
 31
0.0
  0
LINE
  5
1F1E
330
2
100
AcDbEntity
  8
0
100
AcDbLine
 10
374.7865600136122
 20
131.2225644457222
 30
0.0
 11
377.7865600136121
 21
129.4905136381522
 31
0.0
  0
CIRCLE
  5
1F1F
330
2
100
AcDbEntity
  8
0
100
AcDbCircle
 10
377.7865600136085
 20
142.2584628305877
 30
0.0
 40
2.0
  0
ARC
  5
1F20
330
2
100
AcDbEntity
  8
0
100
AcDbCircle
 10
483.3272508874745
 20
149.452563206698
 30
0.0
 40
100.0
100
AcDbArc
 50
175.3322773121705
 51
189.4295211216728
  0
LINE
  5
1F21
330
2
100
AcDbEntity
  8
0
100
AcDbLine
 10
384.7865600136121
 20
127.7584628305841
 30
0.0
 11
384.7865600136121
 21
131.758462830584
 31
0.0
  0
ARC
  5
1F22
330
2
100
AcDbEntity
  8
0
100
AcDbCircle
 10
376.7865600136122
 20
131.758462830584
 30
0.0
 40
8.0
100
AcDbArc
 50
0.0
 51
9.429521121672813
  0
ARC
  5
1F23
330
2
100
AcDbEntity
  8
0
100
AcDbCircle
 10
381.9433659906646
 20
138.2584628305859
 30
0.0
 40
2.0
100
AcDbArc
 50
270.0
 51
6.300678528289503
  0
LINE
  5
1F24
330
2
100
AcDbEntity
  8
0
100
AcDbLine
 10
488.3065361042961
 20
142.7584628305846
 30
0.0
 11
487.3065361042961
 21
143.3358130997746
 31
0.0
  0
CIRCLE
  5
1F25
330
2
100
AcDbEntity
  8
0
100
AcDbCircle
 10
377.7865600136049
 20
228.2584628305804
 30
0.0
 40
4.0
  0
CIRCLE
  5
1F26
330
2
100
AcDbEntity
  8
0
100
AcDbCircle
 10
377.7865600136049
 20
228.2584628305804
 30
0.0
 40
3.5
  0
CIRCLE
  5
1F27
330
2
100
AcDbEntity
  8
0
100
AcDbCircle
 10
374.7865600136122
 20
242.7584628305859
 30
0.0
 40
6.5
  0
LINE
  5
1F28
330
2
100
AcDbEntity
  8
0
100
AcDbLine
 10
374.7865600136085
 20
234.2584628305859
 30
0.0
 11
381.9433659906664
 21
234.2584628305859
 31
0.0
  0
LINE
  5
1F29
330
2
100
AcDbEntity
  8
CENTER
100
AcDbLine
 10
385.5365600136085
 20
242.7584628305859
 30
0.0
 11
364.0365600136085
 21
242.7584628305841
 31
0.0
  0
LINE
  5
1F2A
330
2
100
AcDbEntity
  8
CENTER
100
AcDbLine
 10
371.3965508449875
 20
228.2584628305804
 30
0.0
 11
384.1765691822203
 21
228.2584628305804
 31
0.0
  0
ARC
  5
1F2B
330
2
100
AcDbEntity
  8
0
100
AcDbCircle
 10
374.7865600136122
 20
242.7584628305841
 30
0.0
 40
10.0
100
AcDbArc
 50
0.0
 51
90.0
  0
LINE
  5
1F2C
330
2
100
AcDbEntity
  8
0
100
AcDbLine
 10
279.2865600136122
 20
240.2584628305841
 30
0.0
 11
355.2865600136121
 21
240.2584628305841
 31
0.0
  0
LINE
  5
1F2D
330
2
100
AcDbEntity
  8
0
100
AcDbLine
 10
279.2865600136122
 20
238.2584628305841
 30
0.0
 11
355.2865600136121
 21
238.2584628305841
 31
0.0
  0
ARC
  5
1F2E
330
2
100
AcDbEntity
  8
0
100
AcDbCircle
 10
317.2865600136121
 20
-87.2415371694168
 30
0.0
 40
340.0
100
AcDbArc
 50
85.33227731217056
 51
94.66772268782944
  0
ARC
  5
1F2F
330
2
100
AcDbEntity
  8
0
100
AcDbCircle
 10
279.2865600136122
 20
223.2584628305841
 30
0.0
 40
15.0
100
AcDbArc
 50
90.0
 51
180.0
  0
ARC
  5
1F30
330
2
100
AcDbEntity
  8
0
100
AcDbCircle
 10
279.2865600136122
 20
223.2584628305841
 30
0.0
 40
17.0
100
AcDbArc
 50
90.0
 51
180.0
  0
ARC
  5
1F31
330
2
100
AcDbEntity
  8
0
100
AcDbCircle
 10
281.4806603897325
 20
351.2991537044455
 30
0.0
 40
100.0
100
AcDbArc
 50
260.5704788783271
 51
274.6677226878294
  0
ARC
  5
1F32
330
2
100
AcDbEntity
  8
0
100
AcDbCircle
 10
263.7865600136121
 20
244.7584628305841
 30
0.0
 40
8.0
100
AcDbArc
 50
80.5704788783272
 51
90.0
  0
LINE
  5
1F33
330
2
100
AcDbEntity
  8
0
100
AcDbLine
 10
263.7865600136121
 20
252.7584628305841
 30
0.0
 11
259.7865600136121
 21
252.7584628305841
 31
0.0
  0
ARC
  5
1F34
330
2
100
AcDbEntity
  8
0
100
AcDbCircle
 10
259.7865600136121
 20
242.7584628305841
 30
0.0
 40
10.0
100
AcDbArc
 50
90.0
 51
175.2198081527657
  0
LINE
  5
1F35
330
2
100
AcDbEntity
  8
0
100
AcDbLine
 10
267.2657447334406
 20
235.2792781107556
 30
0.0
 11
268.679958295814
 21
233.8650645483823
 31
0.0
  0
ARC
  5
1F36
330
2
100
AcDbEntity
  8
0
100
AcDbCircle
 10
241.8491688989599
 20
244.2584628305841
 30
0.0
 40
8.0
100
AcDbArc
 50
270.0
 51
355.2198081527657
  0
ARC
  5
1F37
330
2
100
AcDbEntity
  8
0
100
AcDbCircle
 10
353.09245963749
 20
351.2991537044455
 30
0.0
 40
100.0
100
AcDbArc
 50
265.3322773121705
 51
279.4295211216728
  0
ARC
  5
1F38
330
2
100
AcDbEntity
  8
0
100
AcDbCircle
 10
355.2865600136121
 20
223.2584628305841
 30
0.0
 40
17.0
100
AcDbArc
 50
0.0
 51
90.0
  0
ARC
  5
1F39
330
2
100
AcDbEntity
  8
0
100
AcDbCircle
 10
355.2865600136121
 20
223.2584628305841
 30
0.0
 40
15.0
100
AcDbArc
 50
0.0
 51
90.0
  0
CIRCLE
  5
1F3A
330
2
100
AcDbEntity
  8
HOJO
100
AcDbCircle
 10
377.7865600136049
 20
228.2584628305804
 30
0.0
 40
2.5
  0
CIRCLE
  5
1F3B
330
2
100
AcDbEntity
  8
0
100
AcDbCircle
 10
377.7865600136049
 20
228.2584628305804
 30
0.0
 40
2.0
  0
LINE
  5
1F3C
330
2
100
AcDbEntity
  8
CENTER
100
AcDbLine
 10
377.786560013603
 20
234.6484719991977
 30
0.0
 11
377.786560013603
 21
221.8684536619649
 31
0.0
  0
LINE
  5
1F3D
330
2
100
AcDbEntity
  8
0
100
AcDbLine
 10
377.7865600136121
 20
241.0264120230159
 30
0.0
 11
377.7865600136121
 21
244.4905136381541
 31
0.0
  0
LINE
  5
1F3E
330
2
100
AcDbEntity
  8
0
100
AcDbLine
 10
374.7865600136122
 20
252.7584628305841
 30
0.0
 11
370.7865600136122
 21
252.7584628305841
 31
0.0
  0
ARC
  5
1F3F
330
2
100
AcDbEntity
  8
0
100
AcDbCircle
 10
374.7865600136085
 20
242.7584628305859
 30
0.0
 40
8.5
100
AcDbArc
 50
180.0
 51
270.0
  0
LINE
  5
1F40
330
2
100
AcDbEntity
  8
0
100
AcDbLine
 10
366.2865600136085
 20
242.7584628305841
 30
0.0
 11
366.2865600136103
 21
249.9152688076366
 31
0.0
  0
ARC
  5
1F41
330
2
100
AcDbEntity
  8
0
100
AcDbCircle
 10
370.7865600136122
 20
244.7584628305841
 30
0.0
 40
8.0
100
AcDbArc
 50
90.0
 51
99.42952112167283
  0
LINE
  5
1F42
330
2
100
AcDbEntity
  8
0
100
AcDbLine
 10
367.3073752937836
 20
235.2792781107556
 30
0.0
 11
365.8931617314103
 21
233.8650645483823
 31
0.0
  0
ARC
  5
1F43
330
2
100
AcDbEntity
  8
0
100
AcDbCircle
 10
364.2865600136085
 20
249.9152688076366
 30
0.0
 40
2.0
100
AcDbArc
 50
0.0
 51
96.3006785282895
  0
LINE
  5
1F44
330
2
100
AcDbEntity
  8
CENTER
100
AcDbLine
 10
374.786560013614
 20
253.5084628305804
 30
0.0
 11
374.7865600136122
 21
232.0084628305822
 31
0.0
  0
LINE
  5
1F45
330
2
100
AcDbEntity
  8
0
100
AcDbLine
 10
371.7865600136121
 20
244.4905136381541
 30
0.0
 11
371.7865600136121
 21
241.0264120230159
 31
0.0
  0
LINE
  5
1F46
330
2
100
AcDbEntity
  8
0
100
AcDbLine
 10
371.7865600136121
 20
241.0264120230159
 30
0.0
 11
374.7865600136122
 21
239.2943612154478
 31
0.0
  0
LINE
  5
1F47
330
2
100
AcDbEntity
  8
0
100
AcDbLine
 10
371.7865600136121
 20
244.4905136381541
 30
0.0
 11
374.7865600136122
 21
246.222564445724
 31
0.0
  0
CIRCLE
  5
1F48
330
2
100
AcDbEntity
  8
0
100
AcDbCircle
 10
374.7865600136122
 20
242.7584628305859
 30
0.0
 40
5.63397459621558
  0
LINE
  5
1F49
330
2
100
AcDbEntity
  8
0
100
AcDbLine
 10
374.7865600136122
 20
239.2943612154478
 30
0.0
 11
377.7865600136121
 21
241.0264120230159
 31
0.0
  0
LINE
  5
1F4A
330
2
100
AcDbEntity
  8
0
100
AcDbLine
 10
374.7865600136122
 20
246.2225644457222
 30
0.0
 11
377.7865600136121
 21
244.4905136381541
 31
0.0
  0
ARC
  5
1F4B
330
2
100
AcDbEntity
  8
0
100
AcDbCircle
 10
483.3272508874745
 20
221.0643624544701
 30
0.0
 40
100.0
100
AcDbArc
 50
170.5704788783271
 51
184.6677226878294
  0
LINE
  5
1F4C
330
2
100
AcDbEntity
  8
0
100
AcDbLine
 10
384.7865600136121
 20
238.7584628305841
 30
0.0
 11
384.7865600136121
 21
242.7584628305841
 31
0.0
  0
ARC
  5
1F4D
330
2
100
AcDbEntity
  8
0
100
AcDbCircle
 10
376.7865600136122
 20
238.7584628305841
 30
0.0
 40
8.0
100
AcDbArc
 50
350.5704788783272
 51
0.0
  0
ARC
  5
1F4E
330
2
100
AcDbEntity
  8
0
100
AcDbCircle
 10
381.9433659906664
 20
232.2584628305859
 30
0.0
 40
2.0
100
AcDbArc
 50
353.6993214717105
 51
90.0
  0
LINE
  5
1F4F
330
2
100
AcDbEntity
  8
0
100
AcDbLine
 10
488.3065361042997
 20
227.7584628305846
 30
0.0
 11
487.3065361042997
 21
227.1811125613965
 31
0.0
  0
LINE
  5
1F51
330
2
100
AcDbEntity
  8
0
100
AcDbLine
 10
1074.698537390552
 20
236.2584628305866
 30
0.0
 11
1061.198537390552
 21
236.2584628305866
 31
0.0
  0
LINE
  5
1F52
330
2
100
AcDbEntity
  8
0
100
AcDbLine
 10
1074.698537390552
 20
236.7584628305866
 30
0.0
 11
1061.198537390552
 21
236.7584628305866
 31
0.0
  0
LINE
  5
1F53
330
2
100
AcDbEntity
  8
0
100
AcDbLine
 10
1074.698537390552
 20
134.2584628305866
 30
0.0
 11
1061.198537390552
 21
134.2584628305866
 31
0.0
  0
LINE
  5
1F54
330
2
100
AcDbEntity
  8
0
100
AcDbLine
 10
1074.698537390552
 20
133.7584628305866
 30
0.0
 11
1061.198537390552
 21
133.7584628305866
 31
0.0
  0
LINE
  5
1F59
330
2
100
AcDbEntity
  8
0
100
AcDbLine
 10
682.8065327754891
 20
201.2584628305846
 30
0.0
 11
682.8065327754891
 21
169.2584628305846
 31
0.0
  0
LINE
  5
1F5A
330
2
100
AcDbEntity
  8
0
100
AcDbLine
 10
683.3065327754891
 20
200.7584628305846
 30
0.0
 11
683.3065327754891
 21
169.7584628305846
 31
0.0
  0
LINE
  5
1F5B
330
2
100
AcDbEntity
  8
0
100
AcDbLine
 10
518.3065361042998
 20
117.7584628306719
 30
0.0
 11
518.3065361042998
 21
252.758462830672
 31
0.0
  0
LINE
  5
1F5C
330
2
100
AcDbEntity
  8
0
100
AcDbLine
 10
497.8065361042943
 20
119.9199860414862
 30
0.0
 11
497.8065361042943
 21
250.5969396196849
 31
0.0
  0
LINE
  5
1F5D
330
2
100
AcDbEntity
  8
0
100
AcDbLine
 10
495.3065361042961
 20
140.7584628305846
 30
0.0
 11
495.3065361042961
 21
229.758462830581
 31
0.0
  0
LINE
  5
1F5E
330
2
100
AcDbEntity
  8
0
100
AcDbLine
 10
489.8065361042961
 20
142.9584628305853
 30
0.0
 11
489.8065361042306
 21
227.5584628305857
 31
0.0
  0
LINE
  5
1F5F
330
2
100
AcDbEntity
  8
0
100
AcDbLine
 10
491.8065361042961
 20
142.9584628305853
 30
0.0
 11
491.8065361042961
 21
227.5584628305821
 31
0.0
  0
LINE
  5
1F60
330
2
100
AcDbEntity
  8
0
100
AcDbLine
 10
495.8065361042943
 20
133.0868899553313
 30
0.0
 11
495.806536104307
 21
237.4300357058398
 31
0.0
  0
LINE
  5
1F61
330
2
100
AcDbEntity
  8
0
100
AcDbLine
 10
607.306532775491
 20
251.9817716263458
 30
0.0
 11
607.3065327754891
 21
118.535154035
 31
0.0
  0
LINE
  5
1F62
330
2
100
AcDbEntity
  8
0
100
AcDbLine
 10
612.3065327754891
 20
125.2584628306719
 30
0.0
 11
612.3065327754891
 21
245.2584628306719
 31
0.0
  0
LINE
  5
1F63
330
2
100
AcDbEntity
  8
0
100
AcDbLine
 10
626.3065327754891
 20
143.6898403802004
 30
0.0
 11
626.3065327754891
 21
226.8270852809707
 31
0.0
  0
LINE
  5
1F64
330
2
100
AcDbEntity
  8
0
100
AcDbLine
 10
628.3065327754891
 20
202.7584628305846
 30
0.0
 11
628.3065327754891
 21
167.7584628305846
 31
0.0
  0
LINE
  5
1F65
330
2
100
AcDbEntity
  8
0
100
AcDbLine
 10
627.3065327754891
 20
208.9697876959899
 30
0.0
 11
627.3065327754891
 21
161.5471379651794
 31
0.0
  0
LINE
  5
1F66
330
2
100
AcDbEntity
  8
CENTER
100
AcDbLine
 10
554.3065361043002
 20
103.0726300711395
 30
0.0
 11
554.3065361042993
 21
267.4442955902051
 31
0.0
  0
LINE
  5
1F67
330
2
100
AcDbEntity
  8
0
100
AcDbLine
 10
682.8065327754891
 20
169.2584628305846
 30
0.0
 11
628.3065327754891
 21
169.2584628305846
 31
0.0
  0
LINE
  5
1F68
330
2
100
AcDbEntity
  8
0
100
AcDbLine
 10
607.3065327754891
 20
131.7584628303245
 30
0.0
 11
518.3065361042998
 21
131.7584628303245
 31
0.0
  0
LINE
  5
1F69
330
2
100
AcDbEntity
  8
0
100
AcDbLine
 10
607.3065327754891
 20
127.7584628303245
 30
0.0
 11
518.3065361042998
 21
127.7584628303245
 31
0.0
  0
LINE
  5
1F6A
330
2
100
AcDbEntity
  8
0
100
AcDbLine
 10
518.3065361042998
 20
117.7584628306719
 30
0.0
 11
607.3065327754891
 21
118.535154035
 31
0.0
  0
LINE
  5
1F6B
330
2
100
AcDbEntity
  8
0
100
AcDbLine
 10
607.3065327754891
 20
157.590267666417
 30
0.0
 11
518.3065361042998
 21
157.590267666417
 31
0.0
  0
LINE
  5
1F6C
330
2
100
AcDbEntity
  8
0
100
AcDbLine
 10
508.3065361042907
 20
135.762807225288
 30
0.0
 11
508.3065361042907
 21
118.8370427190891
 31
0.0
  0
LINE
  5
1F6D
330
2
100
AcDbEntity
  8
0
100
AcDbLine
 10
498.8065361042906
 20
121.2584628305846
 30
0.0
 11
498.8065361042906
 21
134.2584628305846
 31
0.0
  0
LINE
  5
1F6E
330
2
100
AcDbEntity
  8
0
100
AcDbLine
 10
498.3065361042906
 20
122.1244882343687
 30
0.0
 11
498.3065361042906
 21
133.3924374267987
 31
0.0
  0
LINE
  5
1F6F
330
2
100
AcDbEntity
  8
0
100
AcDbLine
 10
506.3065361042906
 20
121.2584628305846
 30
0.0
 11
506.3065361042906
 21
134.2584628305846
 31
0.0
  0
LINE
  5
1F70
330
2
100
AcDbEntity
  8
0
100
AcDbLine
 10
499.7890830333024
 20
117.9200621953584
 30
0.0
 11
518.3065361042998
 21
117.7584628305846
 31
0.0
  0
LINE
  5
1F71
330
2
100
AcDbEntity
  8
0
100
AcDbLine
 10
506.3065361042906
 20
121.2584628305846
 30
0.0
 11
498.8065361042906
 21
121.2584628305846
 31
0.0
  0
LINE
  5
1F72
330
2
100
AcDbEntity
  8
0
100
AcDbLine
 10
498.8065361042906
 20
121.2584628305846
 30
0.0
 11
498.3065361042906
 21
122.1244882343687
 31
0.0
  0
ARC
  5
1F73
330
2
100
AcDbEntity
  8
0
100
AcDbCircle
 10
499.8065361042997
 20
119.9199860414862
 30
0.0
 40
2.0
100
AcDbArc
 50
180.0
 51
269.5000000000344
  0
LINE
  5
1F74
330
2
100
AcDbEntity
  8
0
100
AcDbLine
 10
508.3065361042907
 20
121.2584628305846
 30
0.0
 11
506.3065361042906
 21
121.2584628305846
 31
0.0
  0
ARC
  5
1F75
330
2
100
AcDbEntity
  8
0
100
AcDbCircle
 10
509.3065361042906
 20
118.8370427190891
 30
0.0
 40
1.0
100
AcDbArc
 50
180.0
 51
269.4999999999823
  0
LINE
  5
1F76
330
2
100
AcDbEntity
  8
CENTER
  6
CENS
100
AcDbLine
 10
527.8840305574983
 20
127.7584628305846
 30
0.0
 11
495.3065361042907
 21
127.7584628305846
 31
0.0
  0
LINE
  5
1F77
330
2
100
AcDbEntity
  8
0
100
AcDbLine
 10
499.7890830332969
 20
157.590267666417
 30
0.0
 11
518.3065361042998
 21
157.590267666417
 31
0.0
  0
ARC
  5
1F78
330
2
100
AcDbEntity
  8
0
100
AcDbCircle
 10
491.6065361042954
 20
143.2584628305846
 30
0.0
 40
0.2
100
AcDbArc
 50
0.0
 51
90.0
  0
ARC
  5
1F79
330
2
100
AcDbEntity
  8
0
100
AcDbCircle
 10
490.006536104295
 20
143.2584628305846
 30
0.0
 40
0.2
100
AcDbArc
 50
90.0
 51
180.0
  0
ARC
  5
1F7A
330
2
100
AcDbEntity
  8
0
100
AcDbCircle
 10
489.6065361042953
 20
142.9584628305853
 30
0.0
 40
0.2
100
AcDbArc
 50
270.0
 51
0.0
  0
LINE
  5
1F7B
330
2
100
AcDbEntity
  8
0
100
AcDbLine
 10
492.006536104295
 20
142.7584628305846
 30
0.0
 11
495.3065361042961
 21
142.7584628305846
 31
0.0
  0
LINE
  5
1F7C
330
2
100
AcDbEntity
  8
0
100
AcDbLine
 10
490.006536104295
 20
143.4584628305854
 30
0.0
 11
491.6065361042954
 21
143.4584628305854
 31
0.0
  0
LINE
  5
1F7D
330
2
100
AcDbEntity
  8
0
100
AcDbLine
 10
491.8065361042961
 20
142.9584628305853
 30
0.0
 11
492.006536104295
 21
142.7584628305846
 31
0.0
  0
LINE
  5
1F7E
330
2
100
AcDbEntity
  8
0
100
AcDbLine
 10
495.8065361042961
 20
140.2584628305846
 30
0.0
 11
495.3065361042961
 21
140.7584628305846
 31
0.0
  0
LINE
  5
1F7F
330
2
100
AcDbEntity
  8
0
100
AcDbLine
 10
509.2978095687929
 20
131.7584628305846
 30
0.0
 11
518.3065361042998
 21
131.7584628305846
 31
0.0
  0
LINE
  5
1F80
330
2
100
AcDbEntity
  8
0
100
AcDbLine
 10
509.2978095687929
 20
127.7584628305846
 30
0.0
 11
518.3065361042998
 21
127.7584628305846
 31
0.0
  0
LINE
  5
1F81
330
2
100
AcDbEntity
  8
0
100
AcDbLine
 10
506.3065361042906
 20
134.2584628305846
 30
0.0
 11
498.8065361042906
 21
134.2584628305846
 31
0.0
  0
LINE
  5
1F82
330
2
100
AcDbEntity
  8
0
100
AcDbLine
 10
498.8065361042906
 20
134.2584628305846
 30
0.0
 11
498.3065361042906
 21
133.3924374267987
 31
0.0
  0
ARC
  5
1F83
330
2
100
AcDbEntity
  8
0
100
AcDbCircle
 10
495.8065361042943
 20
129.4300357058398
 30
0.0
 40
2.0
100
AcDbArc
 50
0.0
 51
44.99999999999078
  0
ARC
  5
1F84
330
2
100
AcDbEntity
  8
0
100
AcDbCircle
 10
497.8065361042943
 20
133.0868899553313
 30
0.0
 40
2.0
100
AcDbArc
 50
180.0
 51
224.9999999999908
  0
LINE
  5
1F85
330
2
100
AcDbEntity
  8
0
100
AcDbLine
 10
497.2207496666676
 20
130.8442492682113
 30
0.0
 11
496.3923225419209
 21
131.672676392958
 31
0.0
  0
LINE
  5
1F86
330
2
100
AcDbEntity
  8
0
100
AcDbLine
 10
508.3065361042907
 20
134.2584628305846
 30
0.0
 11
506.3065361042906
 21
134.2584628305846
 31
0.0
  0
LINE
  5
1F87
330
2
100
AcDbEntity
  8
0
100
AcDbLine
 10
507.8108993720386
 20
136.2627881868227
 30
0.0
 11
499.7890830332969
 21
136.3327935174527
 31
0.0
  0
ARC
  5
1F88
330
2
100
AcDbEntity
  8
0
100
AcDbCircle
 10
499.8065361042943
 20
138.3327173635805
 30
0.0
 40
2.0
100
AcDbArc
 50
180.0
 51
269.5000000000344
  0
ARC
  5
1F89
330
2
100
AcDbEntity
  8
0
100
AcDbCircle
 10
507.8065361042907
 20
135.762807225288
 30
0.0
 40
0.5
100
AcDbArc
 50
0.0
 51
89.49999999998238
  0
LINE
  5
1F8A
330
2
100
AcDbEntity
  8
0
100
AcDbLine
 10
607.3065327754891
 20
125.2584628306719
 30
0.0
 11
612.3065327754891
 21
125.2584628306719
 31
0.0
  0
LINE
  5
1F8B
330
2
100
AcDbEntity
  8
0
100
AcDbLine
 10
624.3763317688943
 20
141.6910587261607
 30
0.0
 11
614.2367337820839
 21
141.3369761621249
 31
0.0
  0
ARC
  5
1F8C
330
2
100
AcDbEntity
  8
0
100
AcDbCircle
 10
624.3065327754891
 20
143.6898403802004
 30
0.0
 40
2.0
100
AcDbArc
 50
272.0000000000037
 51
0.0
  0
ARC
  5
1F8D
330
2
100
AcDbEntity
  8
0
100
AcDbCircle
 10
625.9046089868432
 20
162.7584628305846
 30
0.0
 40
2.0
100
AcDbArc
 50
281.593213623511
 51
300.0000000000005
  0
LINE
  5
1F8E
330
2
100
AcDbEntity
  8
0
100
AcDbLine
 10
626.9046089868432
 20
161.0264120230158
 30
0.0
 11
627.0565327754891
 21
161.1141252632871
 31
0.0
  0
ARC
  5
1F8F
330
2
100
AcDbEntity
  8
0
100
AcDbCircle
 10
626.8065327754891
 20
161.5471379651794
 30
0.0
 40
0.5
100
AcDbArc
 50
300.0000000000005
 51
0.0
  0
LINE
  5
1F90
330
2
100
AcDbEntity
  8
0
100
AcDbLine
 10
628.3065327754891
 20
167.7584628305846
 30
0.0
 11
627.3065327754891
 21
167.1811125613949
 31
0.0
  0
ARC
  5
1F91
330
2
100
AcDbEntity
  8
0
100
AcDbCircle
 10
614.3065327754891
 20
139.3381945080871
 30
0.0
 40
2.0
100
AcDbArc
 50
92.0000000000037
 51
180.0
  0
LINE
  5
1F92
330
2
100
AcDbEntity
  8
0
100
AcDbLine
 10
683.3065327754891
 20
169.7584628305846
 30
0.0
 11
682.8065327754891
 21
169.2584628305846
 31
0.0
  0
LINE
  5
1F96
330
2
100
AcDbEntity
  8
0
100
AcDbLine
 10
628.3065327754891
 20
201.2584628305846
 30
0.0
 11
682.8065327754891
 21
201.2584628305846
 31
0.0
  0
LINE
  5
1F9A
330
2
100
AcDbEntity
  8
0
100
AcDbLine
 10
607.3065327754891
 20
212.9266579947541
 30
0.0
 11
518.3065361042998
 21
212.9266579947541
 31
0.0
  0
LINE
  5
1F9B
330
2
100
AcDbEntity
  8
0
100
AcDbLine
 10
607.3065327754891
 20
238.7584628308466
 30
0.0
 11
518.3065361042998
 21
238.7584628308466
 31
0.0
  0
LINE
  5
1F9C
330
2
100
AcDbEntity
  8
0
100
AcDbLine
 10
607.3065327754891
 20
242.7584628308466
 30
0.0
 11
518.3065361042998
 21
242.7584628308466
 31
0.0
  0
LINE
  5
1F9D
330
2
100
AcDbEntity
  8
0
100
AcDbLine
 10
607.306532775491
 20
251.9817716263458
 30
0.0
 11
518.3065361042998
 21
252.758462830672
 31
0.0
  0
LINE
  5
1F9E
330
2
100
AcDbEntity
  8
0
100
AcDbLine
 10
499.7890830332969
 20
212.9266579947541
 30
0.0
 11
518.3065361042998
 21
212.9266579947541
 31
0.0
  0
LINE
  5
1F9F
330
2
100
AcDbEntity
  8
CENTER
  6
CENS
100
AcDbLine
 10
527.8840305574983
 20
242.7584628305865
 30
0.0
 11
495.3065361042907
 21
242.7584628305865
 31
0.0
  0
LINE
  5
1FA0
330
2
100
AcDbEntity
  8
0
100
AcDbLine
 10
499.7890830333024
 20
252.5968634658127
 30
0.0
 11
518.3065361042998
 21
252.7584628305865
 31
0.0
  0
LINE
  5
1FA1
330
2
100
AcDbEntity
  8
0
100
AcDbLine
 10
509.2978095687929
 20
238.7584628305865
 30
0.0
 11
518.3065361042998
 21
238.7584628305865
 31
0.0
  0
LINE
  5
1FA2
330
2
100
AcDbEntity
  8
0
100
AcDbLine
 10
509.2978095687929
 20
242.7584628305865
 30
0.0
 11
518.3065361042998
 21
242.7584628305865
 31
0.0
  0
LINE
  5
1FA3
330
2
100
AcDbEntity
  8
0
100
AcDbLine
 10
506.3065361042906
 20
249.2584628305865
 30
0.0
 11
498.8065361042906
 21
249.2584628305865
 31
0.0
  0
LINE
  5
1FA4
330
2
100
AcDbEntity
  8
0
100
AcDbLine
 10
506.3065361042906
 20
236.2584628305865
 30
0.0
 11
498.8065361042906
 21
236.2584628305865
 31
0.0
  0
LINE
  5
1FA5
330
2
100
AcDbEntity
  8
0
100
AcDbLine
 10
507.8108993720386
 20
234.2541374743484
 30
0.0
 11
499.7890830332969
 21
234.1841321437184
 31
0.0
  0
LINE
  5
1FA6
330
2
100
AcDbEntity
  8
0
100
AcDbLine
 10
498.8065361042906
 20
249.2584628305865
 30
0.0
 11
498.8065361042906
 21
236.2584628305865
 31
0.0
  0
LINE
  5
1FA7
330
2
100
AcDbEntity
  8
0
100
AcDbLine
 10
498.8065361042906
 20
249.2584628305865
 30
0.0
 11
498.3065361042906
 21
248.3924374268024
 31
0.0
  0
LINE
  5
1FA8
330
2
100
AcDbEntity
  8
0
100
AcDbLine
 10
498.8065361042906
 20
236.2584628305865
 30
0.0
 11
498.3065361042906
 21
237.1244882343723
 31
0.0
  0
LINE
  5
1FA9
330
2
100
AcDbEntity
  8
0
100
AcDbLine
 10
498.3065361042906
 20
248.3924374268024
 30
0.0
 11
498.3065361042906
 21
237.1244882343723
 31
0.0
  0
ARC
  5
1FAA
330
2
100
AcDbEntity
  8
0
100
AcDbCircle
 10
499.8065361042943
 20
232.1842082975906
 30
0.0
 40
2.0
100
AcDbArc
 50
90.49999999996552
 51
180.0
  0
ARC
  5
1FAB
330
2
100
AcDbEntity
  8
0
100
AcDbCircle
 10
491.606536104299
 20
227.2584628305864
 30
0.0
 40
0.2
100
AcDbArc
 50
270.0
 51
0.0
  0
ARC
  5
1FAC
330
2
100
AcDbEntity
  8
0
100
AcDbCircle
 10
490.0065361042987
 20
227.2584628305864
 30
0.0
 40
0.2
100
AcDbArc
 50
180.0
 51
270.0
  0
ARC
  5
1FAD
330
2
100
AcDbEntity
  8
0
100
AcDbCircle
 10
489.606536104299
 20
227.5584628305857
 30
0.0
 40
0.2
100
AcDbArc
 50
0.0
 51
90.0
  0
ARC
  5
1FAE
330
2
100
AcDbEntity
  8
0
100
AcDbCircle
 10
495.8065361042997
 20
241.0868899553313
 30
0.0
 40
2.0
100
AcDbArc
 50
315.0000000000092
 51
0.0
  0
ARC
  5
1FAF
330
2
100
AcDbEntity
  8
0
100
AcDbCircle
 10
497.8065361042998
 20
237.4300357058398
 30
0.0
 40
2.0
100
AcDbArc
 50
135.0000000000092
 51
180.0
  0
LINE
  5
1FB0
330
2
100
AcDbEntity
  8
0
100
AcDbLine
 10
492.0065361042986
 20
227.7584628305846
 30
0.0
 11
495.3065361042997
 21
227.7584628305846
 31
0.0
  0
LINE
  5
1FB1
330
2
100
AcDbEntity
  8
0
100
AcDbLine
 10
490.0065361042987
 20
227.0584628305857
 30
0.0
 11
491.606536104299
 21
227.0584628305857
 31
0.0
  0
LINE
  5
1FB2
330
2
100
AcDbEntity
  8
0
100
AcDbLine
 10
491.8065361042997
 20
227.5584628305857
 30
0.0
 11
492.0065361042986
 21
227.7584628305846
 31
0.0
  0
LINE
  5
1FB3
330
2
100
AcDbEntity
  8
0
100
AcDbLine
 10
495.8065361042997
 20
230.2584628305846
 30
0.0
 11
495.3065361042997
 21
229.7584628305846
 31
0.0
  0
LINE
  5
1FB4
330
2
100
AcDbEntity
  8
0
100
AcDbLine
 10
497.220749666673
 20
239.672676392958
 30
0.0
 11
496.3923225419264
 21
238.8442492682131
 31
0.0
  0
ARC
  5
1FB5
330
2
100
AcDbEntity
  8
0
100
AcDbCircle
 10
499.8065361042997
 20
250.5969396196849
 30
0.0
 40
2.0
100
AcDbArc
 50
90.49999999996552
 51
180.0
  0
LINE
  5
1FB6
330
2
100
AcDbEntity
  8
0
100
AcDbLine
 10
508.3065361042907
 20
249.2584628305865
 30
0.0
 11
506.3065361042906
 21
249.2584628305865
 31
0.0
  0
LINE
  5
1FB7
330
2
100
AcDbEntity
  8
0
100
AcDbLine
 10
508.3065361042907
 20
236.2584628305865
 30
0.0
 11
506.3065361042906
 21
236.2584628305865
 31
0.0
  0
LINE
  5
1FB8
330
2
100
AcDbEntity
  8
0
100
AcDbLine
 10
506.3065361042906
 20
249.2584628305865
 30
0.0
 11
506.3065361042906
 21
236.2584628305865
 31
0.0
  0
LINE
  5
1FB9
330
2
100
AcDbEntity
  8
0
100
AcDbLine
 10
508.3065361042907
 20
249.2584628305865
 30
0.0
 11
508.3065361042907
 21
236.2584628305865
 31
0.0
  0
ARC
  5
1FBA
330
2
100
AcDbEntity
  8
0
100
AcDbCircle
 10
509.3065361042906
 20
251.679882942082
 30
0.0
 40
1.0
100
AcDbArc
 50
90.50000000001762
 51
180.0
  0
ARC
  5
1FBB
330
2
100
AcDbEntity
  8
0
100
AcDbCircle
 10
507.8065361042907
 20
234.7541184358831
 30
0.0
 40
0.5
100
AcDbArc
 50
270.5000000000176
 51
0.0
  0
LINE
  5
1FBC
330
2
100
AcDbEntity
  8
0
100
AcDbLine
 10
508.3065361042907
 20
234.7541184358831
 30
0.0
 11
508.3065361042907
 21
251.679882942082
 31
0.0
  0
ARC
  5
1FBD
330
2
100
AcDbEntity
  8
0
100
AcDbCircle
 10
625.9046089868432
 20
207.7584628305846
 30
0.0
 40
2.0
100
AcDbArc
 50
59.99999999999946
 51
78.40678637648899
  0
LINE
  5
1FBE
330
2
100
AcDbEntity
  8
0
100
AcDbLine
 10
626.9046089868432
 20
209.4905136381535
 30
0.0
 11
627.0565327754891
 21
209.4028003978821
 31
0.0
  0
LINE
  5
1FBF
330
2
100
AcDbEntity
  8
0
100
AcDbLine
 10
628.3065327754891
 20
202.7584628305846
 30
0.0
 11
627.3065327754891
 21
203.3358130997744
 31
0.0
  0
ARC
  5
1FC0
330
2
100
AcDbEntity
  8
0
100
AcDbCircle
 10
626.8065327754891
 20
208.9697876959899
 30
0.0
 40
0.5
100
AcDbArc
 50
0.0
 51
59.99999999999946
  0
LINE
  5
1FC1
330
2
100
AcDbEntity
  8
0
100
AcDbLine
 10
624.3763317688943
 20
228.8258669350105
 30
0.0
 11
614.2367337820839
 21
229.1799494990462
 31
0.0
  0
LINE
  5
1FC2
330
2
100
AcDbEntity
  8
0
100
AcDbLine
 10
607.3065327754891
 20
245.2584628306719
 30
0.0
 11
612.3065327754891
 21
245.2584628306719
 31
0.0
  0
ARC
  5
1FC3
330
2
100
AcDbEntity
  8
0
100
AcDbCircle
 10
614.3065327754891
 20
231.178731153084
 30
0.0
 40
2.0
100
AcDbArc
 50
180.0
 51
267.9999999999963
  0
ARC
  5
1FC4
330
2
100
AcDbEntity
  8
0
100
AcDbCircle
 10
624.3065327754891
 20
226.8270852809707
 30
0.0
 40
2.0
100
AcDbArc
 50
0.0
 51
87.99999999999627
  0
LINE
  5
1FC5
330
2
100
AcDbEntity
  8
0
100
AcDbLine
 10
682.8065327754891
 20
201.2584628305846
 30
0.0
 11
683.3065327754891
 21
200.7584628305846
 31
0.0
  0
CIRCLE
  5
1FC6
330
2
100
AcDbEntity
  8
CENTER
100
AcDbCircle
 10
910.728515390555
 20
185.2584628305866
 30
0.0
 40
80.0
  0
CIRCLE
  5
1FC7
330
2
100
AcDbEntity
  8
0
100
AcDbCircle
 10
910.728515390555
 20
185.2584628305866
 30
0.0
 40
43.5
  0
CIRCLE
  5
1FC8
330
2
100
AcDbEntity
  8
0
100
AcDbCircle
 10
910.728515390555
 20
185.2584628305866
 30
0.0
 40
60.0
  0
LINE
  5
1FC9
330
2
100
AcDbEntity
  8
CENTER
100
AcDbLine
 10
839.086379766824
 20
113.6163272068557
 30
0.0
 11
982.3706510142846
 21
256.9005984543185
 31
0.0
  0
LINE
  5
1FCA
330
2
100
AcDbEntity
  8
CENTER
100
AcDbLine
 10
982.3706510142855
 20
113.6163272068556
 30
0.0
 11
839.0863797668243
 21
256.9005984543177
 31
0.0
  0
ARC
  5
1FCB
330
2
100
AcDbEntity
  8
0
100
AcDbCircle
 10
1183.228515390553
 20
185.2584628305866
 30
0.0
 40
340.0
100
AcDbArc
 50
175.332277312118
 51
184.6677226878819
  0
LINE
  5
1FCC
330
2
100
AcDbEntity
  8
0
100
AcDbLine
 10
1047.198537390552
 20
222.2584628305866
 30
0.0
 11
1047.198537390552
 21
148.2584628305866
 31
0.0
  0
LINE
  5
1FCD
330
2
100
AcDbEntity
  8
0
100
AcDbLine
 10
1029.728515390555
 20
142.2584628305866
 30
0.0
 11
1029.728515390555
 21
228.2584628305865
 31
0.0
  0
LINE
  5
1FCE
330
2
100
AcDbEntity
  8
0
100
AcDbLine
 10
1059.198537390552
 20
234.7584628305866
 30
0.0
 11
1059.198537390552
 21
135.7584628305866
 31
0.0
  0
CIRCLE
  5
1FCF
330
2
100
AcDbEntity
  8
0
100
AcDbCircle
 10
910.728515390555
 20
185.2584628305875
 30
0.0
 40
18.07735026892692
  0
CIRCLE
  5
1FD0
330
2
100
AcDbEntity
  8
0
100
AcDbCircle
 10
910.728515390555
 20
185.2584628305875
 30
0.0
 40
17.49999999973715
  0
CIRCLE
  5
1FD1
330
2
100
AcDbEntity
  8
0
100
AcDbCircle
 10
910.7285153905532
 20
185.2584628305866
 30
0.0
 40
15.99999999973806
  0
CIRCLE
  5
1FD2
330
2
100
AcDbEntity
  8
0
100
AcDbCircle
 10
910.7285153905532
 20
185.2584628305884
 30
0.0
 40
36.0
  0
CIRCLE
  5
1FD3
330
2
100
AcDbEntity
  8
0
100
AcDbCircle
 10
910.7285153905532
 20
185.2584628305884
 30
0.0
 40
24.5
  0
LINE
  5
1FD4
330
2
100
AcDbEntity
  8
0
100
AcDbLine
 10
978.2285153905549
 20
127.7584628305866
 30
0.0
 11
978.2285153905549
 21
242.7584628305865
 31
0.0
  0
LINE
  5
1FD5
330
2
100
AcDbEntity
  8
CENTER
100
AcDbLine
 10
910.728515390555
 20
90.2584628305866
 30
0.0
 11
910.728515390555
 21
280.2584628305865
 31
0.0
  0
ARC
  5
1FD6
330
2
100
AcDbEntity
  8
0
100
AcDbCircle
 10
910.728515390555
 20
457.7584628305865
 30
0.0
 40
340.0
100
AcDbArc
 50
265.332277312118
 51
274.6677226878819
  0
LINE
  5
1FD8
330
2
100
AcDbEntity
  8
CENTER
100
AcDbLine
 10
845.1599728956306
 20
128.6899203356641
 30
0.0
 11
863.1599728956308
 21
128.6899203356641
 31
0.0
  0
LINE
  5
1FD9
330
2
100
AcDbEntity
  8
0
100
AcDbLine
 10
853.2285153905549
 20
117.7584628305866
 30
0.0
 11
857.228515390555
 21
117.7584628305866
 31
0.0
  0
CIRCLE
  5
1FDA
330
2
100
AcDbEntity
  8
HOJO
100
AcDbCircle
 10
854.1599728956308
 20
128.6899203356623
 30
0.0
 40
5.0
  0
CIRCLE
  5
1FDB
330
2
100
AcDbEntity
  8
0
100
AcDbCircle
 10
854.1599728956308
 20
128.6899203356623
 30
0.0
 40
4.0
  0
LINE
  5
1FDC
330
2
100
AcDbEntity
  8
CENTER
100
AcDbLine
 10
854.1599728956308
 20
137.6899203356623
 30
0.0
 11
854.1599728956308
 21
119.6899203356623
 31
0.0
  0
ARC
  5
1FDD
330
2
100
AcDbEntity
  8
0
100
AcDbCircle
 10
853.2285153905549
 20
127.7584628305866
 30
0.0
 40
10.0
100
AcDbArc
 50
180.0
 51
270.0
  0
ARC
  5
1FDE
330
2
100
AcDbEntity
  8
0
100
AcDbCircle
 10
851.2285153905532
 20
131.7584628305866
 30
0.0
 40
8.0
100
AcDbArc
 50
170.5704788783807
 51
180.0
  0
LINE
  5
1FDF
330
2
100
AcDbEntity
  8
0
100
AcDbLine
 10
843.2285153905549
 20
127.7584628305866
 30
0.0
 11
843.2285153905549
 21
131.7584628305866
 31
0.0
  0
ARC
  5
1FE0
330
2
100
AcDbEntity
  8
0
100
AcDbCircle
 10
744.6878245166926
 20
149.4525632067051
 30
0.0
 40
100.0
100
AcDbArc
 50
350.5704788783807
 51
4.667722687881911
  0
ARC
  5
1FE1
330
2
100
AcDbEntity
  8
0
100
AcDbCircle
 10
874.9226157666717
 20
19.21777195672427
 30
0.0
 40
100.0
100
AcDbArc
 50
85.33227731211809
 51
99.42952112167283
  0
ARC
  5
1FE2
330
2
100
AcDbEntity
  8
0
100
AcDbCircle
 10
857.228515390555
 20
125.7584628305866
 30
0.0
 40
8.0
100
AcDbArc
 50
270.0
 51
279.4295211216728
  0
LINE
  5
1FE3
330
2
100
AcDbEntity
  8
0
100
AcDbLine
 10
909.1067446407969
 20
135.0384603455803
 30
0.0
 11
908.3467458821242
 21
133.5184628282348
 31
0.0
  0
LINE
  5
1FE4
330
2
100
AcDbEntity
  8
0
100
AcDbLine
 10
908.3467458821242
 20
133.5184628282348
 30
0.0
 11
909.1067446407969
 21
133.5184628282348
 31
0.0
  0
LINE
  5
1FE5
330
2
100
AcDbEntity
  8
0
100
AcDbLine
 10
907.0667458821217
 20
130.9584628282317
 30
0.0
 11
909.1067446407969
 21
130.9584628282317
 31
0.0
  0
LINE
  5
1FE6
330
2
100
AcDbEntity
  8
0
100
AcDbLine
 10
907.5867446407947
 20
137.7584628282419
 30
0.0
 11
914.226671880805
 21
137.7584628282419
 31
0.0
  0
LINE
  5
1FE7
330
2
100
AcDbEntity
  8
0
100
AcDbLine
 10
907.5867446407947
 20
137.7584628282419
 30
0.0
 11
903.5867446407891
 21
129.7584628282292
 31
0.0
  0
LINE
  5
1FE8
330
2
100
AcDbEntity
  8
0
100
AcDbLine
 10
907.0667458821217
 20
130.9584628282317
 30
0.0
 11
906.4667458821213
 21
129.7584628282292
 31
0.0
  0
LINE
  5
1FE9
330
2
100
AcDbEntity
  8
0
100
AcDbLine
 10
903.5867446407891
 20
129.7584628282292
 30
0.0
 11
906.4667458821213
 21
129.7584628282292
 31
0.0
  0
ARC
  5
1FEA
330
2
100
AcDbEntity
  8
0
100
AcDbCircle
 10
914.0567446408049
 20
134.868462828237
 30
0.0
 40
0.1700000000002474
100
AcDbArc
 50
270.0
 51
90.0
  0
LINE
  5
1FEB
330
2
100
AcDbEntity
  8
0
100
AcDbLine
 10
911.5066718808002
 20
135.0384628282371
 30
0.0
 11
911.5066718808002
 21
129.7584628282292
 31
0.0
  0
LINE
  5
1FEC
330
2
100
AcDbEntity
  8
0
100
AcDbLine
 10
909.1067446407969
 20
135.0384603455803
 30
0.0
 11
909.1067446407969
 21
133.5184628282348
 31
0.0
  0
ARC
  5
1FED
330
2
100
AcDbEntity
  8
0
100
AcDbCircle
 10
914.226671880805
 20
135.0384628282371
 30
0.0
 40
2.720000000003957
100
AcDbArc
 50
307.5189678668038
 51
90.0
  0
LINE
  5
1FEE
330
2
100
AcDbEntity
  8
0
100
AcDbLine
 10
911.8467446408002
 20
134.6984628282369
 30
0.0
 11
914.0567446408049
 21
134.6984628282369
 31
0.0
  0
LINE
  5
1FEF
330
2
100
AcDbEntity
  8
0
100
AcDbLine
 10
911.8467446408002
 20
134.6984628282369
 30
0.0
 11
914.9902848989867
 21
129.7584628282292
 31
0.0
  0
LINE
  5
1FF0
330
2
100
AcDbEntity
  8
0
100
AcDbLine
 10
909.1067446407969
 20
130.9584628282317
 30
0.0
 11
909.1067446407969
 21
129.7584628282292
 31
0.0
  0
LINE
  5
1FF1
330
2
100
AcDbEntity
  8
0
100
AcDbLine
 10
909.1067446407969
 20
129.7584628282292
 30
0.0
 11
911.5066718808002
 21
129.7584628282292
 31
0.0
  0
LINE
  5
1FF2
330
2
100
AcDbEntity
  8
0
100
AcDbLine
 10
914.9902848989867
 20
129.7584628282292
 30
0.0
 11
917.870286140319
 21
129.7584628282292
 31
0.0
  0
LINE
  5
1FF3
330
2
100
AcDbEntity
  8
0
100
AcDbLine
 10
915.8832172604643
 20
132.8810900266215
 30
0.0
 11
917.870286140319
 21
129.7584628282292
 31
0.0
  0
LINE
  5
1FF4
330
2
100
AcDbEntity
  8
0
100
AcDbLine
 10
911.5066718808002
 20
135.0384628282371
 30
0.0
 11
914.0567446408031
 21
135.0384628282371
 31
0.0
  0
LINE
  5
1FF5
330
2
100
AcDbEntity
  8
0
100
AcDbLine
 10
986.1659065052053
 20
134.2584628305866
 30
0.0
 11
1021.728515390555
 21
134.2584628305866
 31
0.0
  0
LINE
  5
1FF6
330
2
100
AcDbEntity
  8
CENTER
100
AcDbLine
 10
967.2970578854775
 20
137.6899203356623
 30
0.0
 11
967.2970578854775
 21
119.6899203356623
 31
0.0
  0
CIRCLE
  5
1FF7
330
2
100
AcDbEntity
  8
HOJO
100
AcDbCircle
 10
967.2970578854775
 20
128.6899203356641
 30
0.0
 40
5.0
  0
CIRCLE
  5
1FF8
330
2
100
AcDbEntity
  8
0
100
AcDbCircle
 10
967.2970578854775
 20
128.6899203356641
 30
0.0
 40
4.0
  0
ARC
  5
1FF9
330
2
100
AcDbEntity
  8
0
100
AcDbCircle
 10
968.2285153905549
 20
127.7584628305866
 30
0.0
 40
10.0
100
AcDbArc
 50
270.0
 51
0.0
  0
ARC
  5
1FFA
330
2
100
AcDbEntity
  8
0
100
AcDbCircle
 10
946.5344150144364
 20
19.21777195672427
 30
0.0
 40
100.0
100
AcDbArc
 50
80.5704788783272
 51
94.66772268788192
  0
ARC
  5
1FFB
330
2
100
AcDbEntity
  8
0
100
AcDbCircle
 10
964.228515390555
 20
125.7584628305866
 30
0.0
 40
8.0
100
AcDbArc
 50
260.5704788783271
 51
270.0
  0
LINE
  5
1FFC
330
2
100
AcDbEntity
  8
0
100
AcDbLine
 10
964.228515390555
 20
117.7584628305866
 30
0.0
 11
968.2285153905549
 21
117.7584628305866
 31
0.0
  0
LINE
  5
1FFD
330
2
100
AcDbEntity
  8
CENTER
100
AcDbLine
 10
976.2970578854774
 20
128.6899203356641
 30
0.0
 11
958.2970578854775
 21
128.6899203356641
 31
0.0
  0
ARC
  5
1FFE
330
2
100
AcDbEntity
  8
0
100
AcDbCircle
 10
986.1659065052053
 20
126.2584628305866
 30
0.0
 40
8.0
100
AcDbArc
 50
90.0
 51
175.2198081527657
  0
ARC
  5
1FFF
330
2
100
AcDbEntity
  8
0
100
AcDbCircle
 10
1032.728515390551
 20
149.2584628305866
 30
0.0
 40
3.0
100
AcDbArc
 50
90.0
 51
180.0
  0
ARC
  5
2000
330
2
100
AcDbEntity
  8
0
100
AcDbCircle
 10
1034.728515390551
 20
152.2584628305866
 30
0.0
 40
5.0
100
AcDbArc
 50
90.0
 51
180.0
  0
ARC
  5
2001
330
2
100
AcDbEntity
  8
0
100
AcDbCircle
 10
1021.728515390555
 20
142.2584628305866
 30
0.0
 40
8.0
100
AcDbArc
 50
270.0
 51
0.0
  0
ARC
  5
2002
330
2
100
AcDbEntity
  8
0
100
AcDbCircle
 10
1050.198537390552
 20
148.2584628305866
 30
0.0
 40
3.0
100
AcDbArc
 50
180.0
 51
270.0
  0
ARC
  5
2003
330
2
100
AcDbEntity
  8
0
100
AcDbCircle
 10
1042.198537390552
 20
152.2584628305866
 30
0.0
 40
5.0
100
AcDbArc
 50
0.0
 51
90.0
  0
LINE
  5
2004
330
2
100
AcDbEntity
  8
0
100
AcDbLine
 10
1032.728515390551
 20
152.2584628305866
 30
0.0
 11
1044.198537390552
 21
152.2584628305866
 31
0.0
  0
LINE
  5
2005
330
2
100
AcDbEntity
  8
0
100
AcDbLine
 10
1034.728515390551
 20
157.2584628305866
 30
0.0
 11
1042.198537390552
 21
157.2584628305866
 31
0.0
  0
ARC
  5
2006
330
2
100
AcDbEntity
  8
0
100
AcDbCircle
 10
1044.198537390552
 20
149.2584628305866
 30
0.0
 40
3.0
100
AcDbArc
 50
0.0
 51
90.0
  0
ARC
  5
2007
330
2
100
AcDbEntity
  8
0
100
AcDbCircle
 10
1054.198537390552
 20
140.2584628305866
 30
0.0
 40
5.0
100
AcDbArc
 50
0.0
 51
90.0
  0
LINE
  5
2008
330
2
100
AcDbEntity
  8
0
100
AcDbLine
 10
1050.198537390552
 20
145.2584628305866
 30
0.0
 11
1054.198537390552
 21
145.2584628305866
 31
0.0
  0
ARC
  5
2009
330
2
100
AcDbEntity
  8
0
100
AcDbCircle
 10
1061.198537390552
 20
136.2584628305866
 30
0.0
 40
2.0
100
AcDbArc
 50
180.0
 51
270.0
  0
ARC
  5
200A
330
2
100
AcDbEntity
  8
0
100
AcDbCircle
 10
1061.198537390552
 20
135.7584628305866
 30
0.0
 40
2.0
100
AcDbArc
 50
180.0
 51
270.0
  0
ARC
  5
200B
330
2
100
AcDbEntity
  8
0
100
AcDbCircle
 10
910.728515390555
 20
-87.24153716941339
 30
0.0
 40
340.0
100
AcDbArc
 50
85.33227731211809
 51
94.66772268788192
  0
LINE
  5
200C
330
2
100
AcDbEntity
  8
0
100
AcDbLine
 10
853.2285153905549
 20
252.7584628305866
 30
0.0
 11
857.228515390555
 21
252.7584628305866
 31
0.0
  0
CIRCLE
  5
200D
330
2
100
AcDbEntity
  8
HOJO
100
AcDbCircle
 10
854.1599728956308
 20
241.8270053255108
 30
0.0
 40
5.0
  0
CIRCLE
  5
200E
330
2
100
AcDbEntity
  8
0
100
AcDbCircle
 10
854.1599728956308
 20
241.8270053255108
 30
0.0
 40
4.0
  0
LINE
  5
200F
330
2
100
AcDbEntity
  8
CENTER
100
AcDbLine
 10
845.1599728956306
 20
241.8270053255108
 30
0.0
 11
863.1599728956308
 21
241.8270053255108
 31
0.0
  0
ARC
  5
2010
330
2
100
AcDbEntity
  8
0
100
AcDbCircle
 10
744.6878245166926
 20
221.0643624544699
 30
0.0
 40
100.0
100
AcDbArc
 50
355.332277312118
 51
9.429521121619272
  0
LINE
  5
2011
330
2
100
AcDbEntity
  8
CENTER
100
AcDbLine
 10
854.1599728956308
 20
232.8270053255108
 30
0.0
 11
854.1599728956308
 21
250.8270053255108
 31
0.0
  0
ARC
  5
2012
330
2
100
AcDbEntity
  8
0
100
AcDbCircle
 10
851.2285153905532
 20
238.7584628305865
 30
0.0
 40
8.0
100
AcDbArc
 50
180.0
 51
189.4295211216192
  0
LINE
  5
2013
330
2
100
AcDbEntity
  8
0
100
AcDbLine
 10
843.2285153905549
 20
238.7584628305865
 30
0.0
 11
843.2285153905549
 21
242.7584628305865
 31
0.0
  0
ARC
  5
2014
330
2
100
AcDbEntity
  8
0
100
AcDbCircle
 10
853.2285153905549
 20
242.7584628305865
 30
0.0
 40
10.0
100
AcDbArc
 50
90.0
 51
180.0
  0
ARC
  5
2015
330
2
100
AcDbEntity
  8
0
100
AcDbCircle
 10
874.9226157666717
 20
351.2991537044489
 30
0.0
 40
100.0
100
AcDbArc
 50
260.5704788783271
 51
274.6677226878819
  0
ARC
  5
2016
330
2
100
AcDbEntity
  8
0
100
AcDbCircle
 10
857.228515390555
 20
244.7584628305865
 30
0.0
 40
8.0
100
AcDbArc
 50
80.5704788783272
 51
90.0
  0
LINE
  5
2017
330
2
100
AcDbEntity
  8
0
100
AcDbLine
 10
986.1659065052053
 20
236.2584628305866
 30
0.0
 11
1021.728515390555
 21
236.2584628305866
 31
0.0
  0
LINE
  5
2018
330
2
100
AcDbEntity
  8
CENTER
100
AcDbLine
 10
976.2970578854774
 20
241.8270053255108
 30
0.0
 11
958.2970578854775
 21
241.8270053255108
 31
0.0
  0
ARC
  5
2019
330
2
100
AcDbEntity
  8
0
100
AcDbCircle
 10
946.5344150144364
 20
351.2991537044489
 30
0.0
 40
100.0
100
AcDbArc
 50
265.332277312118
 51
279.4295211216728
  0
ARC
  5
201A
330
2
100
AcDbEntity
  8
0
100
AcDbCircle
 10
968.2285153905549
 20
242.7584628305865
 30
0.0
 40
10.0
100
AcDbArc
 50
0.0
 51
90.0
  0
ARC
  5
201B
330
2
100
AcDbEntity
  8
0
100
AcDbCircle
 10
986.1659065052053
 20
244.2584628305866
 30
0.0
 40
8.0
100
AcDbArc
 50
184.7801918472342
 51
270.0
  0
LINE
  5
201C
330
2
100
AcDbEntity
  8
CENTER
100
AcDbLine
 10
967.2970578854775
 20
232.8270053255108
 30
0.0
 11
967.2970578854775
 21
250.8270053255108
 31
0.0
  0
ARC
  5
201D
330
2
100
AcDbEntity
  8
0
100
AcDbCircle
 10
964.228515390555
 20
244.7584628305865
 30
0.0
 40
8.0
100
AcDbArc
 50
90.0
 51
99.42952112167283
  0
LINE
  5
201E
330
2
100
AcDbEntity
  8
0
100
AcDbLine
 10
964.228515390555
 20
252.7584628305866
 30
0.0
 11
968.2285153905549
 21
252.7584628305866
 31
0.0
  0
CIRCLE
  5
201F
330
2
100
AcDbEntity
  8
HOJO
100
AcDbCircle
 10
967.2970578854775
 20
241.8270053255108
 30
0.0
 40
5.0
  0
CIRCLE
  5
2020
330
2
100
AcDbEntity
  8
0
100
AcDbCircle
 10
967.2970578854775
 20
241.8270053255108
 30
0.0
 40
4.0
  0
ARC
  5
2021
330
2
100
AcDbEntity
  8
0
100
AcDbCircle
 10
1042.198537390552
 20
218.2584628305866
 30
0.0
 40
5.0
100
AcDbArc
 50
270.0
 51
0.0
  0
ARC
  5
2022
330
2
100
AcDbEntity
  8
0
100
AcDbCircle
 10
1034.728515390551
 20
218.2584628305866
 30
0.0
 40
5.0
100
AcDbArc
 50
180.0
 51
270.0
  0
ARC
  5
2023
330
2
100
AcDbEntity
  8
0
100
AcDbCircle
 10
1032.728515390554
 20
190.7584628305866
 30
0.0
 40
3.0
100
AcDbArc
 50
180.0
 51
270.0
  0
ARC
  5
2024
330
2
100
AcDbEntity
  8
0
100
AcDbCircle
 10
1032.728515390554
 20
179.7584628305866
 30
0.0
 40
3.0
100
AcDbArc
 50
90.0
 51
180.0
  0
LINE
  5
2025
330
2
100
AcDbEntity
  8
0
100
AcDbLine
 10
1032.728515390554
 20
187.7584628305866
 30
0.0
 11
1044.198537390552
 21
187.7584628305866
 31
0.0
  0
LINE
  5
2026
330
2
100
AcDbEntity
  8
0
100
AcDbLine
 10
1034.728515390551
 20
213.2584628305866
 30
0.0
 11
1042.198537390552
 21
213.2584628305866
 31
0.0
  0
ARC
  5
2027
330
2
100
AcDbEntity
  8
0
100
AcDbCircle
 10
1044.198537390552
 20
190.7584628305866
 30
0.0
 40
3.0
100
AcDbArc
 50
270.0
 51
0.0
  0
LINE
  5
2028
330
2
100
AcDbEntity
  8
0
100
AcDbLine
 10
1032.728515390554
 20
182.7584628305866
 30
0.0
 11
1044.198537390552
 21
182.7584628305866
 31
0.0
  0
ARC
  5
2029
330
2
100
AcDbEntity
  8
0
100
AcDbCircle
 10
1044.198537390552
 20
179.7584628305866
 30
0.0
 40
3.0
100
AcDbArc
 50
0.0
 51
90.0
  0
ARC
  5
202A
330
2
100
AcDbEntity
  8
0
100
AcDbCircle
 10
1032.728515390551
 20
221.2584628305866
 30
0.0
 40
3.0
100
AcDbArc
 50
180.0
 51
270.0
  0
ARC
  5
202B
330
2
100
AcDbEntity
  8
0
100
AcDbCircle
 10
1021.728515390555
 20
228.2584628305865
 30
0.0
 40
8.0
100
AcDbArc
 50
0.0
 51
90.0
  0
ARC
  5
202C
330
2
100
AcDbEntity
  8
0
100
AcDbCircle
 10
1050.198537390552
 20
222.2584628305866
 30
0.0
 40
3.0
100
AcDbArc
 50
90.0
 51
180.0
  0
LINE
  5
202D
330
2
100
AcDbEntity
  8
0
100
AcDbLine
 10
1032.728515390551
 20
218.2584628305866
 30
0.0
 11
1044.198537390552
 21
218.2584628305866
 31
0.0
  0
ARC
  5
202E
330
2
100
AcDbEntity
  8
0
100
AcDbCircle
 10
1044.198537390552
 20
221.2584628305866
 30
0.0
 40
3.0
100
AcDbArc
 50
270.0
 51
0.0
  0
ARC
  5
202F
330
2
100
AcDbEntity
  8
0
100
AcDbCircle
 10
1061.198537390552
 20
234.2584628305866
 30
0.0
 40
2.0
100
AcDbArc
 50
90.0
 51
180.0
  0
ARC
  5
2030
330
2
100
AcDbEntity
  8
0
100
AcDbCircle
 10
1061.198537390552
 20
234.7584628305866
 30
0.0
 40
2.0
100
AcDbArc
 50
90.0
 51
180.0
  0
LINE
  5
2031
330
2
100
AcDbEntity
  8
0
100
AcDbLine
 10
1050.198537390552
 20
225.2584628305866
 30
0.0
 11
1054.198537390552
 21
225.2584628305866
 31
0.0
  0
ARC
  5
2032
330
2
100
AcDbEntity
  8
0
100
AcDbCircle
 10
1054.198537390552
 20
230.2584628305865
 30
0.0
 40
5.0
100
AcDbArc
 50
270.0
 51
0.0
  0
LINE
  5
2033
330
2
100
AcDbEntity
  8
0
100
AcDbLine
 10
1299.273251581259
 20
169.2584628305802
 30
0.0
 11
1299.273251581259
 21
201.2584628305802
 31
0.0
  0
LINE
  5
2034
330
2
100
AcDbEntity
  8
0
100
AcDbLine
 10
1298.773251581259
 20
169.7584628305802
 30
0.0
 11
1298.773251581259
 21
200.7584628305802
 31
0.0
  0
LINE
  5
2042
330
2
100
AcDbEntity
  8
0
100
AcDbLine
 10
1353.773251581259
 20
167.7584628305802
 30
0.0
 11
1353.773251581259
 21
202.7584628305802
 31
0.0
  0
LINE
  5
2043
330
2
100
AcDbEntity
  8
0
100
AcDbLine
 10
1354.773251581259
 20
161.5471379651752
 30
0.0
 11
1354.773251581259
 21
208.9697876959852
 31
0.0
  0
LINE
  5
204E
330
2
100
AcDbEntity
  8
0
100
AcDbLine
 10
1353.773251581259
 20
169.2584628305802
 30
0.0
 11
1299.273251581259
 21
169.2584628305802
 31
0.0
  0
LINE
  5
204F
330
2
100
AcDbEntity
  8
0
100
AcDbLine
 10
1299.273251581259
 20
169.2584628305802
 30
0.0
 11
1298.773251581259
 21
169.7584628305802
 31
0.0
  0
ARC
  5
2055
330
2
100
AcDbEntity
  8
0
100
AcDbCircle
 10
1356.175175369906
 20
162.7584628305802
 30
0.0
 40
2.0
100
AcDbArc
 50
239.9999999999994
 51
258.4067863765158
  0
LINE
  5
2056
330
2
100
AcDbEntity
  8
0
100
AcDbLine
 10
1355.175175369907
 20
161.0264120230111
 30
0.0
 11
1355.023251581259
 21
161.1141252632823
 31
0.0
  0
LINE
  5
2057
330
2
100
AcDbEntity
  8
0
100
AcDbLine
 10
1353.773251581259
 20
167.7584628305802
 30
0.0
 11
1354.773251581259
 21
167.1811125613902
 31
0.0
  0
ARC
  5
2058
330
2
100
AcDbEntity
  8
0
100
AcDbCircle
 10
1355.273251581259
 20
161.5471379651752
 30
0.0
 40
0.5
100
AcDbArc
 50
180.0
 51
239.9999999999994
  0
LINE
  5
2082
330
2
100
AcDbEntity
  8
0
100
AcDbLine
 10
1299.273251581259
 20
201.2584628305802
 30
0.0
 11
1353.773251581259
 21
201.2584628305802
 31
0.0
  0
LINE
  5
2083
330
2
100
AcDbEntity
  8
0
100
AcDbLine
 10
1298.773251581259
 20
200.7584628305802
 30
0.0
 11
1299.273251581259
 21
201.2584628305802
 31
0.0
  0
ARC
  5
2084
330
2
100
AcDbEntity
  8
0
100
AcDbCircle
 10
1356.175175369906
 20
207.7584628305802
 30
0.0
 40
2.0
100
AcDbArc
 50
101.5932136234841
 51
120.0000000000005
  0
LINE
  5
2085
330
2
100
AcDbEntity
  8
0
100
AcDbLine
 10
1355.175175369907
 20
209.4905136381493
 30
0.0
 11
1355.023251581259
 21
209.4028003978773
 31
0.0
  0
ARC
  5
2086
330
2
100
AcDbEntity
  8
0
100
AcDbCircle
 10
1355.273251581259
 20
208.9697876959852
 30
0.0
 40
0.5
100
AcDbArc
 50
120.0000000000005
 51
180.0
  0
LINE
  5
2087
330
2
100
AcDbEntity
  8
0
100
AcDbLine
 10
1353.773251581259
 20
202.7584628305802
 30
0.0
 11
1354.773251581259
 21
203.3358130997693
 31
0.0
  0
LINE
  5
20B0
330
2
100
AcDbEntity
  8
0
100
AcDbLine
 10
926.7285153905543
 20
449.7298402806425
 30
0.0
 11
926.2285153905542
 21
449.2298402806425
 31
0.0
  0
LINE
  5
20B1
330
2
100
AcDbEntity
  8
0
100
AcDbLine
 10
926.7285153905543
 20
449.7298402806425
 30
0.0
 11
894.7285153905543
 21
449.7298402806425
 31
0.0
  0
LINE
  5
20B2
330
2
100
AcDbEntity
  8
0
100
AcDbLine
 10
895.2285153905544
 20
449.2298402806425
 30
0.0
 11
894.7285153905543
 21
449.7298402806425
 31
0.0
  0
LINE
  5
20B3
330
2
100
AcDbEntity
  8
0
100
AcDbLine
 10
926.2285153905542
 20
449.2298402806425
 30
0.0
 11
895.2285153905544
 21
449.2298402806425
 31
0.0
  0
LINE
  5
20B4
330
2
100
AcDbEntity
  8
0
100
AcDbLine
 10
1074.698537390551
 20
629.2298369518327
 30
0.0
 11
1061.146851132394
 21
629.2298369518327
 31
0.0
  0
LINE
  5
20B5
330
2
100
AcDbEntity
  8
0
100
AcDbLine
 10
1057.86330966521
 20
578.2201265936753
 30
0.0
 11
1074.698537390551
 21
578.2298369518327
 31
0.0
  0
LINE
  5
20B7
330
2
100
AcDbEntity
  8
0
100
AcDbLine
 10
1074.698537390551
 20
527.2298369518328
 30
0.0
 11
1061.146851132394
 21
527.2298369518328
 31
0.0
  0
LINE
  5
20B8
330
2
100
AcDbEntity
  8
0
100
AcDbLine
 10
857.2285153905561
 20
613.7298369518273
 30
0.0
 11
857.2285153905598
 21
526.7298369518345
 31
0.0
  0
LINE
  5
20B9
330
2
100
AcDbEntity
  8
0
100
AcDbLine
 10
853.2285153905561
 20
613.7298369518273
 30
0.0
 11
853.2285153905597
 21
526.7298369518345
 31
0.0
  0
LINE
  5
20BB
330
2
100
AcDbEntity
  8
CENTER
100
AcDbLine
 10
910.7285153905529
 20
660.2298369518472
 30
0.0
 11
910.7285153905552
 21
434.2298402806425
 31
0.0
  0
ARC
  5
20BC
330
2
100
AcDbEntity
  8
0
100
AcDbCircle
 10
1043.294072718934
 20
572.7298369518328
 30
0.0
 40
3.0
100
AcDbArc
 50
1.499999999989629
 51
90.0
  0
ARC
  5
20BD
330
2
100
AcDbEntity
  8
0
100
AcDbCircle
 10
1032.994799093334
 20
572.7298369518328
 30
0.0
 40
3.0
100
AcDbArc
 50
90.0
 51
179.5000000000344
  0
LINE
  5
20BE
330
2
100
AcDbEntity
  8
0
100
AcDbLine
 10
1046.151078527775
 20
578.2298369518327
 30
0.0
 11
1047.122014028391
 21
541.1513061069097
 31
0.0
  0
LINE
  5
20BF
330
2
100
AcDbEntity
  8
0
100
AcDbLine
 10
1059.147536482444
 20
529.1774830552173
 30
0.0
 11
1057.86330966521
 21
578.2201265936753
 31
0.0
  0
LINE
  5
20C0
330
2
100
AcDbEntity
  8
0
100
AcDbLine
 10
1029.61491379863
 20
529.2123838808354
 30
0.0
 11
1030.042682631026
 21
578.2298369518327
 31
0.0
  0
LINE
  5
20C1
330
2
100
AcDbEntity
  8
0
100
AcDbLine
 10
978.2285153906617
 20
614.729836951831
 30
0.0
 11
977.4474607232829
 21
525.2298369518327
 31
0.0
  0
LINE
  5
20C2
330
2
100
AcDbEntity
  8
0
100
AcDbLine
 10
968.2285153905542
 20
613.7298369518309
 30
0.0
 11
968.2285153905525
 21
526.7298369518382
 31
0.0
  0
LINE
  5
20C3
330
2
100
AcDbEntity
  8
0
100
AcDbLine
 10
964.2285153905525
 20
613.7298369518309
 30
0.0
 11
964.2285153905525
 21
526.7298369518382
 31
0.0
  0
LINE
  5
20C4
330
2
100
AcDbEntity
  8
0
100
AcDbLine
 10
883.0603202266287
 20
613.7298369518291
 30
0.0
 11
883.0603202266305
 21
526.7298369518345
 31
0.0
  0
LINE
  5
20C5
330
2
100
AcDbEntity
  8
0
100
AcDbLine
 10
938.3967105544764
 20
613.7298369518309
 30
0.0
 11
938.3967105544764
 21
526.7298369518382
 31
0.0
  0
LINE
  5
20C6
330
2
100
AcDbEntity
  8
0
100
AcDbLine
 10
934.4398402559583
 20
505.2298402806425
 30
0.0
 11
887.0171905251483
 21
505.2298402806425
 31
0.0
  0
LINE
  5
20C7
330
2
100
AcDbEntity
  8
0
100
AcDbLine
 10
928.2285153905544
 20
504.2298402806425
 30
0.0
 11
893.2285153905542
 21
504.2298402806425
 31
0.0
  0
LINE
  5
20C8
330
2
100
AcDbEntity
  8
0
100
AcDbLine
 10
869.1598929401681
 20
506.2298369518328
 30
0.0
 11
952.2971378409385
 21
506.2298369518328
 31
0.0
  0
LINE
  5
20C9
330
2
100
AcDbEntity
  8
0
100
AcDbLine
 10
850.7285153905524
 20
520.2298369518327
 30
0.0
 11
970.7285153905525
 21
520.2298369518327
 31
0.0
  0
LINE
  5
20CA
330
2
100
AcDbEntity
  8
0
100
AcDbLine
 10
844.0095700578252
 20
525.2298369518327
 30
0.0
 11
977.4474607232829
 21
525.2298369518327
 31
0.0
  0
LINE
  5
20CB
330
2
100
AcDbEntity
  8
0
100
AcDbLine
 10
894.7285153905543
 20
449.7298402806425
 30
0.0
 11
894.7285153905543
 21
504.2298402806425
 31
0.0
  0
LINE
  5
20CC
330
2
100
AcDbEntity
  8
0
100
AcDbLine
 10
850.7285153905524
 20
525.2298369518327
 30
0.0
 11
850.7285153905524
 21
520.2298369518327
 31
0.0
  0
ARC
  5
20CD
330
2
100
AcDbEntity
  8
0
100
AcDbCircle
 10
887.0171905251483
 20
505.7298402806424
 30
0.0
 40
0.5
100
AcDbArc
 50
209.9999999999949
 51
270.0
  0
LINE
  5
20CE
330
2
100
AcDbEntity
  8
0
100
AcDbLine
 10
886.4964645829843
 20
505.6317640692894
 30
0.0
 11
886.5841778232573
 21
505.4798402806425
 31
0.0
  0
LINE
  5
20CF
330
2
100
AcDbEntity
  8
0
100
AcDbLine
 10
867.1611112861285
 20
508.1600379584276
 30
0.0
 11
866.8070287220928
 21
518.2996359452379
 31
0.0
  0
ARC
  5
20D0
330
2
100
AcDbEntity
  8
0
100
AcDbCircle
 10
864.8082470680549
 20
518.2298369518328
 30
0.0
 40
2.0
100
AcDbArc
 50
2.000000000003725
 51
90.0
  0
ARC
  5
20D1
330
2
100
AcDbEntity
  8
0
100
AcDbCircle
 10
869.1598929401681
 20
508.2298369518327
 30
0.0
 40
2.0
100
AcDbArc
 50
182.0000000000037
 51
270.0
  0
ARC
  5
20D2
330
2
100
AcDbEntity
  8
0
100
AcDbCircle
 10
888.2285153905543
 20
506.6317640692894
 30
0.0
 40
2.0
100
AcDbArc
 50
191.5932136234841
 51
209.9999999999949
  0
LINE
  5
20D3
330
2
100
AcDbEntity
  8
0
100
AcDbLine
 10
893.2285153905542
 20
504.2298402806425
 30
0.0
 11
892.6511651213642
 21
505.2298402806425
 31
0.0
  0
LINE
  5
20D4
330
2
100
AcDbEntity
  8
0
100
AcDbLine
 10
926.7285153905543
 20
504.2298402806425
 30
0.0
 11
926.7285153905543
 21
449.7298402806425
 31
0.0
  0
LINE
  5
20D5
330
2
100
AcDbEntity
  8
0
100
AcDbLine
 10
978.9518833040972
 20
527.2366145173741
 30
0.0
 11
1027.6149899525
 21
527.2298369518328
 31
0.0
  0
LINE
  5
20D6
330
2
100
AcDbEntity
  8
0
100
AcDbLine
 10
928.2285153905544
 20
504.2298402806425
 30
0.0
 11
928.8058656597442
 21
505.2298402806425
 31
0.0
  0
ARC
  5
20D7
330
2
100
AcDbEntity
  8
0
100
AcDbCircle
 10
934.4398402559583
 20
505.7298402806424
 30
0.0
 40
0.5
100
AcDbArc
 50
270.0
 51
330.0000000000051
  0
LINE
  5
20D8
330
2
100
AcDbEntity
  8
0
100
AcDbLine
 10
934.9605661981225
 20
505.6317640692894
 30
0.0
 11
934.8728529578513
 21
505.4798402806425
 31
0.0
  0
ARC
  5
20D9
330
2
100
AcDbEntity
  8
0
100
AcDbCircle
 10
933.2285153905543
 20
506.6317640692894
 30
0.0
 40
2.0
100
AcDbArc
 50
330.0000000000051
 51
348.4067863765158
  0
ARC
  5
20DA
330
2
100
AcDbEntity
  8
0
100
AcDbCircle
 10
956.6487837130519
 20
518.2298369518328
 30
0.0
 40
2.0
100
AcDbArc
 50
90.0
 51
177.9999999999962
  0
LINE
  5
20DB
330
2
100
AcDbEntity
  8
0
100
AcDbLine
 10
954.2959194949784
 20
508.1600379584276
 30
0.0
 11
954.6500020590141
 21
518.2996359452379
 31
0.0
  0
ARC
  5
20DC
330
2
100
AcDbEntity
  8
0
100
AcDbCircle
 10
952.2971378409385
 20
508.2298369518327
 30
0.0
 40
2.0
100
AcDbArc
 50
270.0
 51
357.9999999999962
  0
ARC
  5
20DD
330
2
100
AcDbEntity
  8
0
100
AcDbCircle
 10
978.9518833040972
 20
525.7366145173741
 30
0.0
 40
1.5
100
AcDbArc
 50
90.0
 51
180.0
  0
LINE
  5
20DF
330
2
100
AcDbEntity
  8
0
100
AcDbLine
 10
970.7285153905525
 20
525.2298369518327
 30
0.0
 11
970.7285153905525
 21
520.2298369518327
 31
0.0
  0
ARC
  5
20E0
330
2
100
AcDbEntity
  8
0
100
AcDbCircle
 10
1027.6149899525
 20
529.2298369518327
 30
0.0
 40
2.0
100
AcDbArc
 50
270.0
 51
359.5000000000345
  0
ARC
  5
20E1
330
2
100
AcDbEntity
  8
0
100
AcDbCircle
 10
1061.146851132394
 20
529.2298369518327
 30
0.0
 40
2.0
100
AcDbArc
 50
181.4999999999896
 51
270.0
  0
ARC
  5
20E2
330
2
100
AcDbEntity
  8
0
100
AcDbCircle
 10
1032.728629625711
 20
542.2298369518328
 30
0.0
 40
3.0
100
AcDbArc
 50
90.0
 51
179.5000000000344
  0
ARC
  5
20E3
330
2
100
AcDbEntity
  8
0
100
AcDbCircle
 10
1034.754886385857
 20
545.2298369518327
 30
0.0
 40
5.0
100
AcDbArc
 50
90.0
 51
179.5000000000344
  0
ARC
  5
20E4
330
2
100
AcDbEntity
  8
0
100
AcDbCircle
 10
1050.120986003318
 20
541.2298369518327
 30
0.0
 40
3.0
100
AcDbArc
 50
181.4999999999896
 51
270.0
  0
ARC
  5
20E5
330
2
100
AcDbEntity
  8
0
100
AcDbCircle
 10
1044.092743326804
 20
542.2298369518328
 30
0.0
 40
3.0
100
AcDbArc
 50
1.499999999989629
 51
90.0
  0
LINE
  5
20E6
330
2
100
AcDbEntity
  8
0
100
AcDbLine
 10
1034.754886385857
 20
550.2298369518327
 30
0.0
 11
1042.013499977112
 21
550.2298369518327
 31
0.0
  0
LINE
  5
20E7
330
2
100
AcDbEntity
  8
0
100
AcDbLine
 10
1032.72851539055
 20
545.2298369518327
 30
0.0
 11
1044.092743326804
 21
545.2298369518327
 31
0.0
  0
ARC
  5
20E8
330
2
100
AcDbEntity
  8
0
100
AcDbCircle
 10
1042.013499977112
 20
545.2298369518327
 30
0.0
 40
5.0
100
AcDbArc
 50
1.499999999989629
 51
90.0
  0
LINE
  5
20E9
330
2
100
AcDbEntity
  8
0
100
AcDbLine
 10
1050.120986003318
 20
538.2298369518328
 30
0.0
 11
1054.039707898682
 21
538.2298369518328
 31
0.0
  0
ARC
  5
20EA
330
2
100
AcDbEntity
  8
0
100
AcDbCircle
 10
1054.039707898682
 20
533.2298369518327
 30
0.0
 40
5.0
100
AcDbArc
 50
1.499999999989629
 51
90.0
  0
LINE
  5
20EB
330
2
100
AcDbEntity
  8
0
100
AcDbLine
 10
868.8058656597425
 20
645.2298369518473
 30
0.0
 11
952.6511651213661
 21
645.2298369518473
 31
0.0
  0
LINE
  5
20EC
330
2
100
AcDbEntity
  8
0
100
AcDbLine
 10
953.0285153905536
 20
640.7298369518509
 30
0.0
 11
868.4285153905568
 21
640.7298369518509
 31
0.0
  0
LINE
  5
20ED
330
2
100
AcDbEntity
  8
0
100
AcDbLine
 10
953.0285153905536
 20
642.729836951851
 30
0.0
 11
868.4285153905532
 21
642.7298369519164
 31
0.0
  0
LINE
  5
20EE
330
2
100
AcDbEntity
  8
0
100
AcDbLine
 10
955.2285153905526
 20
637.2298369518509
 30
0.0
 11
866.228515390556
 21
637.2298369518509
 31
0.0
  0
LINE
  5
20EF
330
2
100
AcDbEntity
  8
0
100
AcDbLine
 10
868.2285153905525
 20
644.2298369518473
 30
0.0
 11
953.2285153905524
 21
644.229836951851
 31
0.0
  0
LINE
  5
20F0
330
2
100
AcDbEntity
  8
0
100
AcDbLine
 10
962.9000882658058
 20
636.7298369518528
 30
0.0
 11
858.5569425152991
 21
636.72983695184
 31
0.0
  0
LINE
  5
20F1
330
2
100
AcDbEntity
  8
0
100
AcDbLine
 10
976.2285153905525
 20
634.7298369518528
 30
0.0
 11
845.390038601454
 21
634.7298369518528
 31
0.0
  0
LINE
  5
20F2
330
2
100
AcDbEntity
  8
0
100
AcDbLine
 10
843.2285153905525
 20
614.2298369518473
 30
0.0
 11
1029.728515390552
 21
614.2298369518473
 31
0.0
  0
LINE
  5
20F3
330
2
100
AcDbEntity
  8
0
100
AcDbLine
 10
856.3143018281792
 20
635.315623389474
 30
0.0
 11
857.1427289529259
 21
636.1440505142207
 31
0.0
  0
LINE
  5
20F4
330
2
100
AcDbEntity
  8
0
100
AcDbLine
 10
861.232859785254
 20
624.2298369518564
 30
0.0
 11
844.307095279055
 21
624.2298369518564
 31
0.0
  0
LINE
  5
20F5
330
2
100
AcDbEntity
  8
0
100
AcDbLine
 10
847.5945407943365
 20
634.2298369518564
 30
0.0
 11
858.8624899867665
 21
634.2298369518564
 31
0.0
  0
LINE
  5
20F6
330
2
100
AcDbEntity
  8
0
100
AcDbLine
 10
846.7285153905507
 20
624.2298369518564
 30
0.0
 11
859.7285153905506
 21
624.2298369518564
 31
0.0
  0
LINE
  5
20F7
330
2
100
AcDbEntity
  8
0
100
AcDbLine
 10
846.7285153905507
 20
626.2298369518564
 30
0.0
 11
859.7285153905506
 21
626.2298369518564
 31
0.0
  0
LINE
  5
20F8
330
2
100
AcDbEntity
  8
0
100
AcDbLine
 10
846.7285153905507
 20
633.7298369518564
 30
0.0
 11
859.7285153905506
 21
633.7298369518564
 31
0.0
  0
LINE
  5
20F9
330
2
100
AcDbEntity
  8
CENTER
  6
CENS
100
AcDbLine
 10
853.2285153905524
 20
606.0328446777591
 30
0.0
 11
853.2285153905524
 21
637.2298369518564
 31
0.0
  0
LINE
  5
20FA
330
2
100
AcDbEntity
  8
0
100
AcDbLine
 10
843.3901147553244
 20
632.7472900228447
 30
0.0
 11
843.2285153905525
 21
614.2298369518473
 31
0.0
  0
LINE
  5
20FB
330
2
100
AcDbEntity
  8
0
100
AcDbLine
 10
853.2285153905524
 20
623.2385634873542
 30
0.0
 11
853.2285153905524
 21
614.2298369518473
 31
0.0
  0
ARC
  5
20FC
330
2
100
AcDbEntity
  8
0
100
AcDbCircle
 10
854.9000882658058
 20
636.7298369518473
 30
0.0
 40
2.0
100
AcDbArc
 50
270.0
 51
315.0000000000092
  0
ARC
  5
20FD
330
2
100
AcDbEntity
  8
0
100
AcDbCircle
 10
845.390038601454
 20
632.7298369518473
 30
0.0
 40
2.0
100
AcDbArc
 50
90.0
 51
179.5000000000344
  0
ARC
  5
20FE
330
2
100
AcDbEntity
  8
0
100
AcDbCircle
 10
844.307095279055
 20
623.2298369518564
 30
0.0
 40
1.0
100
AcDbArc
 50
90.0
 51
179.5000000000344
  0
LINE
  5
20FF
330
2
100
AcDbEntity
  8
0
100
AcDbLine
 10
846.7285153905507
 20
633.7298369518564
 30
0.0
 11
847.5945407943365
 21
634.2298369518564
 31
0.0
  0
LINE
  5
2100
330
2
100
AcDbEntity
  8
0
100
AcDbLine
 10
846.7285153905507
 20
624.2298369518564
 30
0.0
 11
846.7285153905507
 21
626.2298369518564
 31
0.0
  0
LINE
  5
2101
330
2
100
AcDbEntity
  8
0
100
AcDbLine
 10
846.7285153905507
 20
626.2298369518564
 30
0.0
 11
846.7285153905507
 21
633.7298369518564
 31
0.0
  0
LINE
  5
2102
330
2
100
AcDbEntity
  8
0
100
AcDbLine
 10
857.2285153905525
 20
623.2385634873542
 30
0.0
 11
857.2285153905525
 21
614.2298369518473
 31
0.0
  0
LINE
  5
2103
330
2
100
AcDbEntity
  8
0
100
AcDbLine
 10
883.0603202266287
 20
632.7472900228501
 30
0.0
 11
883.0603202266287
 21
614.2298369518473
 31
0.0
  0
LINE
  5
2104
330
2
100
AcDbEntity
  8
0
100
AcDbLine
 10
868.4285153905532
 20
640.7298369518473
 30
0.0
 11
868.2285153905525
 21
640.5298369518484
 31
0.0
  0
LINE
  5
2105
330
2
100
AcDbEntity
  8
0
100
AcDbLine
 10
868.9285153905531
 20
642.5298369518484
 30
0.0
 11
868.9285153905531
 21
640.9298369518481
 31
0.0
  0
LINE
  5
2106
330
2
100
AcDbEntity
  8
0
100
AcDbLine
 10
868.2285153905525
 20
644.2298369518473
 30
0.0
 11
868.8058656597425
 21
645.2298369518473
 31
0.0
  0
LINE
  5
2107
330
2
100
AcDbEntity
  8
0
100
AcDbLine
 10
868.2285153905525
 20
644.2298369518473
 30
0.0
 11
868.2285153905525
 21
642.929836951848
 31
0.0
  0
LINE
  5
2108
330
2
100
AcDbEntity
  8
0
100
AcDbLine
 10
868.2285153905525
 20
640.5298369518484
 30
0.0
 11
868.2285153905525
 21
637.2298369518473
 31
0.0
  0
ARC
  5
2109
330
2
100
AcDbEntity
  8
0
100
AcDbCircle
 10
868.4285153905532
 20
642.929836951848
 30
0.0
 40
0.2
100
AcDbArc
 50
180.0
 51
270.0
  0
ARC
  5
210A
330
2
100
AcDbEntity
  8
0
100
AcDbCircle
 10
868.7285153905525
 20
642.5298369518484
 30
0.0
 40
0.2
100
AcDbArc
 50
0.0
 51
90.0
  0
ARC
  5
210B
330
2
100
AcDbEntity
  8
0
100
AcDbCircle
 10
868.7285153905525
 20
640.9298369518481
 30
0.0
 40
0.2
100
AcDbArc
 50
270.0
 51
0.0
  0
ARC
  5
210C
330
2
100
AcDbEntity
  8
0
100
AcDbCircle
 10
863.8027699235482
 20
632.7298369518528
 30
0.0
 40
2.0
100
AcDbArc
 50
90.0
 51
179.5000000000344
  0
ARC
  5
210D
330
2
100
AcDbEntity
  8
0
100
AcDbCircle
 10
858.5569425152991
 20
634.7298369518473
 30
0.0
 40
2.0
100
AcDbArc
 50
90.0
 51
135.0000000000092
  0
LINE
  5
210E
330
2
100
AcDbEntity
  8
0
100
AcDbLine
 10
861.7328407467887
 20
624.7254736841084
 30
0.0
 11
861.8028460774187
 21
632.7472900228501
 31
0.0
  0
ARC
  5
210F
330
2
100
AcDbEntity
  8
0
100
AcDbCircle
 10
861.232859785254
 20
624.7298369518564
 30
0.0
 40
0.5
100
AcDbArc
 50
270.0
 51
359.5000000000345
  0
LINE
  5
2110
330
2
100
AcDbEntity
  8
0
100
AcDbLine
 10
859.7285153905506
 20
633.7298369518564
 30
0.0
 11
858.8624899867665
 21
634.2298369518564
 31
0.0
  0
LINE
  5
2111
330
2
100
AcDbEntity
  8
0
100
AcDbLine
 10
859.7285153905506
 20
624.2298369518564
 30
0.0
 11
859.7285153905506
 21
626.2298369518564
 31
0.0
  0
LINE
  5
2112
330
2
100
AcDbEntity
  8
0
100
AcDbLine
 10
859.7285153905506
 20
626.2298369518564
 30
0.0
 11
859.7285153905506
 21
633.7298369518564
 31
0.0
  0
LINE
  5
2113
330
2
100
AcDbEntity
  8
0
100
AcDbLine
 10
865.7285153905524
 20
636.7298369518473
 30
0.0
 11
866.2285153905525
 21
637.2298369518473
 31
0.0
  0
LINE
  5
2114
330
2
100
AcDbEntity
  8
0
100
AcDbLine
 10
1015.228515390552
 20
629.2298369518528
 30
0.0
 11
980.2285153905526
 21
629.2298369518528
 31
0.0
  0
LINE
  5
2115
330
2
100
AcDbEntity
  8
0
100
AcDbLine
 10
978.2285153905524
 20
614.2298369518473
 30
0.0
 11
978.2285153905524
 21
632.7298369518528
 31
0.0
  0
LINE
  5
2116
330
2
100
AcDbEntity
  8
0
100
AcDbLine
 10
968.2285153905525
 20
632.7298369518528
 30
0.0
 11
968.2285153905525
 21
614.2298369518473
 31
0.0
  0
LINE
  5
2117
330
2
100
AcDbEntity
  8
0
100
AcDbLine
 10
964.2285153905525
 20
632.7298369518528
 30
0.0
 11
964.2285153905525
 21
614.2298369518473
 31
0.0
  0
LINE
  5
2118
330
2
100
AcDbEntity
  8
0
100
AcDbLine
 10
938.3967105544764
 20
632.7472900228501
 30
0.0
 11
938.3967105544764
 21
614.2298369518473
 31
0.0
  0
LINE
  5
2119
330
2
100
AcDbEntity
  8
0
100
AcDbLine
 10
955.7285153905525
 20
636.7298369518528
 30
0.0
 11
955.2285153905526
 21
637.2298369518509
 31
0.0
  0
LINE
  5
211A
330
2
100
AcDbEntity
  8
0
100
AcDbLine
 10
953.0285153905536
 20
640.7298369518509
 30
0.0
 11
953.2285153905524
 21
640.529836951852
 31
0.0
  0
LINE
  5
211B
330
2
100
AcDbEntity
  8
0
100
AcDbLine
 10
953.2285153905524
 20
644.229836951851
 30
0.0
 11
953.2285153905524
 21
642.9298369518517
 31
0.0
  0
LINE
  5
211C
330
2
100
AcDbEntity
  8
0
100
AcDbLine
 10
952.5285153905535
 20
642.5298369518521
 30
0.0
 11
952.5285153905535
 21
640.9298369518516
 31
0.0
  0
LINE
  5
211D
330
2
100
AcDbEntity
  8
0
100
AcDbLine
 10
953.2285153905524
 20
644.229836951851
 30
0.0
 11
952.6511651213624
 21
645.2298369518509
 31
0.0
  0
LINE
  5
211E
330
2
100
AcDbEntity
  8
0
100
AcDbLine
 10
953.2285153905524
 20
640.529836951852
 30
0.0
 11
953.2285153905524
 21
637.2298369518509
 31
0.0
  0
ARC
  5
211F
330
2
100
AcDbEntity
  8
0
100
AcDbCircle
 10
953.0285153905536
 20
642.9298369518517
 30
0.0
 40
0.2
100
AcDbArc
 50
270.0
 51
0.0
  0
ARC
  5
2120
330
2
100
AcDbEntity
  8
0
100
AcDbCircle
 10
952.7285153905525
 20
642.5298369518521
 30
0.0
 40
0.2
100
AcDbArc
 50
90.0
 51
180.0
  0
ARC
  5
2121
330
2
100
AcDbEntity
  8
0
100
AcDbCircle
 10
952.7285153905525
 20
640.9298369518516
 30
0.0
 40
0.2
100
AcDbArc
 50
180.0
 51
270.0
  0
ARC
  5
2122
330
2
100
AcDbEntity
  8
0
100
AcDbCircle
 10
980.2285153905526
 20
631.2298369518527
 30
0.0
 40
2.0
100
AcDbArc
 50
180.0
 51
270.0
  0
LINE
  5
2123
330
2
100
AcDbEntity
  8
0
100
AcDbLine
 10
978.2285153905524
 20
631.2298369518527
 30
0.0
 11
978.2285153905524
 21
632.7298369518528
 31
0.0
  0
ARC
  5
2124
330
2
100
AcDbEntity
  8
0
100
AcDbCircle
 10
976.2285153905525
 20
632.7298369518528
 30
0.0
 40
2.0
100
AcDbArc
 50
0.0
 51
90.0
  0
LINE
  5
2125
330
2
100
AcDbEntity
  8
0
100
AcDbLine
 10
965.1427289529259
 20
635.3156233894794
 30
0.0
 11
964.3143018281792
 21
636.1440505142261
 31
0.0
  0
ARC
  5
2126
330
2
100
AcDbEntity
  8
0
100
AcDbCircle
 10
962.9000882658075
 20
634.7298369518528
 30
0.0
 40
2.0
100
AcDbArc
 50
44.99999999999078
 51
90.0
  0
ARC
  5
2127
330
2
100
AcDbEntity
  8
0
100
AcDbCircle
 10
966.5569425152991
 20
636.7298369518528
 30
0.0
 40
2.0
100
AcDbArc
 50
224.9999999999908
 51
270.0
  0
ARC
  5
2128
330
2
100
AcDbEntity
  8
0
100
AcDbCircle
 10
1054.039707898682
 20
623.2298369518328
 30
0.0
 40
5.0
100
AcDbArc
 50
270.0
 51
358.5000000000103
  0
ARC
  5
2129
330
2
100
AcDbEntity
  8
0
100
AcDbCircle
 10
1050.120986003318
 20
615.2298369518327
 30
0.0
 40
3.0
100
AcDbArc
 50
90.0
 51
178.5000000000103
  0
LINE
  5
212A
330
2
100
AcDbEntity
  8
0
100
AcDbLine
 10
1059.147536482444
 20
627.2821908484481
 30
0.0
 11
1057.86330966521
 21
578.2395473099902
 31
0.0
  0
LINE
  5
212B
330
2
100
AcDbEntity
  8
0
100
AcDbLine
 10
1029.728515390552
 20
614.2298369518473
 30
0.0
 11
1029.614913798629
 21
627.2472900228483
 31
0.0
  0
LINE
  5
212C
330
2
100
AcDbEntity
  8
CENTER
  6
CENS
100
AcDbLine
 10
1021.728515390552
 20
606.0328446777591
 30
0.0
 11
1021.728515390552
 21
637.2298369518564
 31
0.0
  0
ARC
  5
212D
330
2
100
AcDbEntity
  8
0
100
AcDbCircle
 10
1034.754886385855
 20
611.2298369518327
 30
0.0
 40
5.0
100
AcDbArc
 50
180.4999999999655
 51
270.0
  0
ARC
  5
212E
330
2
100
AcDbEntity
  8
0
100
AcDbCircle
 10
1032.994799093323
 20
583.7298369518328
 30
0.0
 40
3.0
100
AcDbArc
 50
180.4999999999655
 51
270.0
  0
ARC
  5
212F
330
2
100
AcDbEntity
  8
0
100
AcDbCircle
 10
1032.728629625711
 20
614.2298369518328
 30
0.0
 40
3.0
100
AcDbArc
 50
180.4999999999655
 51
270.0
  0
LINE
  5
2130
330
2
100
AcDbEntity
  8
0
100
AcDbLine
 10
1029.728515390554
 20
614.2298369518401
 30
0.0
 11
1030.042682631016
 21
578.2298369518327
 31
0.0
  0
ARC
  5
2131
330
2
100
AcDbEntity
  8
0
100
AcDbCircle
 10
1023.658458398706
 20
579.2298369518327
 30
0.0
 40
1.0
100
AcDbArc
 50
181.4999999998854
 51
270.0
  0
LINE
  5
2132
330
2
100
AcDbEntity
  8
0
100
AcDbLine
 10
1021.741608351338
 20
614.2298369518401
 30
0.0
 11
1022.65880107373
 21
579.2036600035268
 31
0.0
  0
LINE
  5
2133
330
2
100
AcDbEntity
  8
0
100
AcDbLine
 10
1029.728515390557
 20
578.2298369518327
 30
0.0
 11
1023.658458398706
 21
578.2298369518327
 31
0.0
  0
ARC
  5
2134
330
2
100
AcDbEntity
  8
0
100
AcDbCircle
 10
1044.092743326804
 20
614.2298369518328
 30
0.0
 40
3.0
100
AcDbArc
 50
270.0
 51
358.5000000000103
  0
LINE
  5
2135
330
2
100
AcDbEntity
  8
0
100
AcDbLine
 10
1046.151078527775
 20
578.2298369518327
 30
0.0
 11
1047.122014028391
 21
615.3083677967576
 31
0.0
  0
LINE
  5
2136
330
2
100
AcDbEntity
  8
0
100
AcDbLine
 10
1034.754886385855
 20
606.2298369518328
 30
0.0
 11
1042.013499977112
 21
606.2298369518328
 31
0.0
  0
LINE
  5
2137
330
2
100
AcDbEntity
  8
0
100
AcDbLine
 10
1032.994799093334
 20
575.7298369518328
 30
0.0
 11
1043.294072718934
 21
575.7298369518328
 31
0.0
  0
LINE
  5
2138
330
2
100
AcDbEntity
  8
0
100
AcDbLine
 10
1032.994799093323
 20
580.7298369518328
 30
0.0
 11
1043.294072718934
 21
580.7298369518328
 31
0.0
  0
LINE
  5
2139
330
2
100
AcDbEntity
  8
0
100
AcDbLine
 10
1032.72851539055
 20
611.2298369518327
 30
0.0
 11
1044.092743326804
 21
611.2298369518327
 31
0.0
  0
ARC
  5
213A
330
2
100
AcDbEntity
  8
0
100
AcDbCircle
 10
1042.013499977112
 20
611.2298369518327
 30
0.0
 40
5.0
100
AcDbArc
 50
270.0
 51
358.5000000000103
  0
ARC
  5
213B
330
2
100
AcDbEntity
  8
0
100
AcDbCircle
 10
1043.294072718934
 20
583.7298369518328
 30
0.0
 40
3.0
100
AcDbArc
 50
270.0
 51
358.5000000000103
  0
LINE
  5
213C
330
2
100
AcDbEntity
  8
0
100
AcDbLine
 10
1050.120986003318
 20
618.2298369518328
 30
0.0
 11
1054.039707898682
 21
618.2298369518328
 31
0.0
  0
ARC
  5
213D
330
2
100
AcDbEntity
  8
0
100
AcDbCircle
 10
1027.6149899525
 20
627.2298369518527
 30
0.0
 40
2.0
100
AcDbArc
 50
0.499999999965521
 51
72.13575521910335
  0
ARC
  5
213E
330
2
100
AcDbEntity
  8
0
100
AcDbCircle
 10
1028.649935502049
 20
623.2298369518564
 30
0.0
 40
1.0
100
AcDbArc
 50
0.499999999965521
 51
90.0
  0
LINE
  5
213F
330
2
100
AcDbEntity
  8
0
100
AcDbLine
 10
1028.228515390552
 20
633.7298369518564
 30
0.0
 11
1027.362489986768
 21
634.2298369518564
 31
0.0
  0
LINE
  5
2140
330
2
100
AcDbEntity
  8
0
100
AcDbLine
 10
1028.228515390552
 20
624.2298369518564
 30
0.0
 11
1028.228515390552
 21
626.2298369518564
 31
0.0
  0
LINE
  5
2141
330
2
100
AcDbEntity
  8
0
100
AcDbLine
 10
1028.228515390552
 20
626.2298369518564
 30
0.0
 11
1028.228515390552
 21
633.7298369518564
 31
0.0
  0
LINE
  5
2142
330
2
100
AcDbEntity
  8
0
100
AcDbLine
 10
1013.279516298656
 20
627.2821908484681
 30
0.0
 11
1013.346694771368
 21
624.7167484777025
 31
0.0
  0
ARC
  5
2143
330
2
100
AcDbEntity
  8
0
100
AcDbCircle
 10
1013.846523433856
 20
624.7298369518564
 30
0.0
 40
0.5
100
AcDbArc
 50
181.4999999999896
 51
270.0
  0
ARC
  5
2144
330
2
100
AcDbEntity
  8
0
100
AcDbCircle
 10
1011.280201648706
 20
627.2298369518527
 30
0.0
 40
2.0
100
AcDbArc
 50
1.499999999989629
 51
90.0
  0
LINE
  5
2145
330
2
100
AcDbEntity
  8
0
100
AcDbLine
 10
1015.228515390552
 20
633.7298369518564
 30
0.0
 11
1016.094540794336
 21
634.2298369518564
 31
0.0
  0
LINE
  5
2146
330
2
100
AcDbEntity
  8
0
100
AcDbLine
 10
1015.228515390552
 20
624.2298369518564
 30
0.0
 11
1015.228515390552
 21
626.2298369518564
 31
0.0
  0
LINE
  5
2147
330
2
100
AcDbEntity
  8
0
100
AcDbLine
 10
1015.228515390552
 20
626.2298369518564
 30
0.0
 11
1015.228515390552
 21
633.7298369518564
 31
0.0
  0
LINE
  5
2148
330
2
100
AcDbEntity
  8
0
100
AcDbLine
 10
1013.846523433856
 20
624.2298369518564
 30
0.0
 11
1028.649935502049
 21
624.2298369518564
 31
0.0
  0
LINE
  5
2149
330
2
100
AcDbEntity
  8
0
100
AcDbLine
 10
1016.094540794338
 20
634.2298369518564
 30
0.0
 11
1027.362489986768
 21
634.2298369518564
 31
0.0
  0
LINE
  5
214A
330
2
100
AcDbEntity
  8
0
100
AcDbLine
 10
1015.228515390552
 20
624.2298369518564
 30
0.0
 11
1028.228515390552
 21
624.2298369518564
 31
0.0
  0
LINE
  5
214B
330
2
100
AcDbEntity
  8
0
100
AcDbLine
 10
1015.228515390552
 20
626.2298369518564
 30
0.0
 11
1028.228515390552
 21
626.2298369518564
 31
0.0
  0
LINE
  5
214C
330
2
100
AcDbEntity
  8
0
100
AcDbLine
 10
1015.228515390552
 20
633.7298369518564
 30
0.0
 11
1028.228515390552
 21
633.7298369518564
 31
0.0
  0
ARC
  5
214D
330
2
100
AcDbEntity
  8
0
100
AcDbCircle
 10
1061.146851132394
 20
627.2298369518328
 30
0.0
 40
2.0
100
AcDbArc
 50
90.0
 51
178.5000000000103
  0
LINE
  5
2373
330
2
100
AcDbEntity
  8
0
100
AcDbLine
 10
843.2328788243408
 20
614.2298369518459
 30
0.0
 11
844.0095700578252
 21
525.2298369518327
 31
0.0
  0
CIRCLE
  5
2399
330
2
100
AcDbEntity
  8
0
100
AcDbCircle
 10
910.7285153905532
 20
185.2584628305883
 30
0.0
 40
36.57739999999999
  0
ENDSEC
  0
SECTION
  2
OBJECTS
  0
DICTIONARY
  5
7
330
0
100
AcDbDictionary
  3
ACAD_COLOR
350
18CD
  3
ACAD_GROUP
350
75
  3
ACAD_LAYOUT
350
61
  3
ACAD_MATERIAL
350
18A3
  3
ACAD_MLEADERSTYLE
350
18F2
  3
ACAD_MLINESTYLE
350
76
  3
ACAD_PLOTSETTINGS
350
77
  3
ACAD_PLOTSTYLENAME
350
6
  3
ACAD_SCALELIST
350
18D0
  3
ACAD_TABLESTYLE
350
18CE
  3
ACAD_VISUALSTYLE
350
18BC
  3
ACADDIM
350
480
  3
ACDB_RECOMPOSE_DATA
350
19D9
  3
ACDBHEADERROUNDTRIPXREC
350
23B3
  3
ACDBVARIABLEDICTIONARY
350
102
  3
DWGPROPS
350
2375
  0
DICTIONARY
  5
19E2
330
6E
100
AcDbDictionary
280
     1
  3
ACAD_XREC_ROUNDTRIP
360
237D
  0
DICTIONARY
  5
B19
330
66
100
AcDbDictionary
280
     1
  3
ACAD_LAYERSTATES
360
B1A
  0
DICTIONARY
  5
19C5
330
5E
100
AcDbDictionary
280
     1
  3
ACAD_XREC_ROUNDTRIP
360
2378
  3
ADSK_XREC_LAYER_RECONCILED
360
19C6
  0
DICTIONARY
  5
19C7
330
3E
100
AcDbDictionary
280
     1
  3
ACAD_XREC_ROUNDTRIP
360
2377
  3
ADSK_XREC_LAYER_RECONCILED
360
19C8
  0
DICTIONARY
  5
19CD
330
2B5
100
AcDbDictionary
280
     1
  3
ACAD_XREC_ROUNDTRIP
360
2383
  3
ADSK_XREC_LAYER_RECONCILED
360
19CE
  0
DICTIONARY
  5
19CF
330
2BA
100
AcDbDictionary
280
     1
  3
ACAD_XREC_ROUNDTRIP
360
2384
  3
ADSK_XREC_LAYER_RECONCILED
360
19D0
  0
DICTIONARY
  5
19D3
330
3FA
100
AcDbDictionary
280
     1
  3
ACAD_XREC_ROUNDTRIP
360
2386
  3
ADSK_XREC_LAYER_RECONCILED
360
19D4
  0
DICTIONARY
  5
23D4
330
2
100
AcDbDictionary
280
     1
  3
ACAD_LAYOUTSELFREF
360
23D5
  0
DICTIONARY
  5
23D6
330
23AD
100
AcDbDictionary
280
     1
  3
ACAD_LAYOUTSELFREF
360
23D7
  0
DICTIONARY
  5
18CD
102
{ACAD_REACTORS
330
7
102
}
330
7
100
AcDbDictionary
  0
DICTIONARY
  5
75
102
{ACAD_REACTORS
330
7
102
}
330
7
100
AcDbDictionary
  0
DICTIONARY
  5
61
102
{ACAD_REACTORS
330
7
102
}
330
7
100
AcDbDictionary
  0
DICTIONARY
  5
18A3
102
{ACAD_REACTORS
330
7
102
}
330
7
100
AcDbDictionary
  3
BYBLOCK
350
18AC
  3
BYLAYER
350
18A4
  3
GLOBAL
350
18B4
  0
DICTIONARY
  5
18F2
102
{ACAD_REACTORS
330
7
102
}
330
7
100
AcDbDictionary
  3
STANDARD
350
18F3
  0
DICTIONARY
  5
76
102
{ACAD_REACTORS
330
7
102
}
330
7
100
AcDbDictionary
  3
STANDARD
350
78
  0
DICTIONARY
  5
77
102
{ACAD_REACTORS
330
7
102
}
330
7
100
AcDbDictionary
  0
ACDBDICTIONARYWDFLT
  5
6
102
{ACAD_REACTORS
330
7
102
}
330
7
100
AcDbDictionary
281
     1
  3
Normal
350
5
100
AcDbDictionaryWithDefault
340
5
  0
DICTIONARY
  5
18D0
102
{ACAD_REACTORS
330
7
102
}
330
7
100
AcDbDictionary
  3
A0
350
18D1
  3
A1
350
18D2
  3
A2
350
18D3
  3
A3
350
18D4
  3
A4
350
18D5
  3
A5
350
18D6
  3
A6
350
18D7
  3
A7
350
18D8
  3
A8
350
18D9
  3
A9
350
18DA
  3
B0
350
18DB
  3
B1
350
18DC
  3
B2
350
18DD
  3
B3
350
18DE
  3
B4
350
18DF
  3
B5
350
18E0
  3
B6
350
18E1
  3
B7
350
18E2
  3
B8
350
18E3
  3
B9
350
18E4
  3
C0
350
18E5
  3
C1
350
18E6
  3
C2
350
18E7
  3
C3
350
18E8
  3
C4
350
18E9
  3
C5
350
18EA
  3
C6
350
18EB
  3
C7
350
18EC
  3
C8
350
18ED
  3
C9
350
18EE
  3
D0
350
18EF
  3
D1
350
18F0
  3
D2
350
18F1
  0
DICTIONARY
  5
18CE
102
{ACAD_REACTORS
330
7
102
}
330
7
100
AcDbDictionary
  3
STANDARD
350
18CF
  0
DICTIONARY
  5
18BC
102
{ACAD_REACTORS
330
7
102
}
330
7
100
AcDbDictionary
  3
2DWIREFRAME
350
18C2
  3
3D_HIDDEN
350
18C4
  3
3DWIREFRAME
350
18C3
  3
BASIC
350
18C1
  3
BRIGHTEN
350
18C8
  3
COLORCHANGE
350
18CC
  3
CONCEPTUAL
350
18C5
  3
DIM
350
18C7
  3
FACEPATTERN
350
18CB
  3
FLAT
350
18BD
  3
FLATWITHEDGES
350
18BE
  3
GOURAUD
350
18BF
  3
GOURAUDWITHEDGES
350
18C0
  3
LINEPATTERN
350
18CA
  3
REALISTIC
350
18C6
  3
THICKEN
350
18C9
  0
XRECORD
  5
480
102
{ACAD_REACTORS
330
7
102
}
330
7
100
AcDbXrecord
 90
   990106
  3

 60
     0
 61
     0
 62
     1
 63
     3
 64
     1
 65
     0
 66
     0
 67
     3
 68
     1
 69
     0
 70
     0
 71
     0
 72
     0
 40
0.0
170
     2
340
0
  0
XRECORD
  5
19D9
102
{ACAD_REACTORS
330
7
102
}
330
7
100
AcDbXrecord
 90
        1
330
18CF
  0
DICTIONARY
  5
23B3
102
{ACAD_REACTORS
330
7
102
}
330
7
100
AcDbDictionary
  3
CEPSNTYPE
350
23BD
  3
DIMSTYLEDATA
350
23C1
  3
FINGERPRINTGUID
350
23BE
  3
HYPERLINKBASE
350
23B6
  3
INSUNITS
350
23BC
  3
LAYOUTDICT
350
23B8
  3
LWETCUNION
350
23BB
  3
PLOTSETDICT
350
23B9
  3
PLOTSTYLNAMDICT
350
23BA
  3
PSVPSCALE
350
23C0
  3
PUCSBASE
350
23C4
  3
PUCSORGBACK
350
23CA
  3
PUCSORGBOTTOM
350
23C6
  3
PUCSORGFRONT
350
23C9
  3
PUCSORGLEFT
350
23C7
  3
PUCSORGRIGHT
350
23C8
  3
PUCSORGTOP
350
23C5
  3
PUCSORTHOREF
350
23C2
  3
PUCSORTHOVIEW
350
23C3
  3
STYLESHEET
350
23B7
  3
TSTACKALIGN
350
23B4
  3
TSTACKSIZE
350
23B5
  3
UCSBASE
350
23CD
  3
UCSORGBACK
350
23D3
  3
UCSORGBOTTOM
350
23CF
  3
UCSORGFRONT
350
23D2
  3
UCSORGLEFT
350
23D0
  3
UCSORGRIGHT
350
23D1
  3
UCSORGTOP
350
23CE
  3
UCSORTHOREF
350
23CB
  3
UCSORTHOVIEW
350
23CC
  3
VERSIONGUID
350
23BF
  0
DICTIONARY
  5
102
102
{ACAD_REACTORS
330
7
102
}
330
7
100
AcDbDictionary
  3
CANNOSCALE
350
19FA
  3
CMLEADERSTYLE
350
19F9
  3
CTABLESTYLE
350
19F8
  3
DIMASSOC
350
103
  3
INDEXCTL
350
19FB
  3
SORTENTS
350
549
  0
XRECORD
  5
2375
102
{ACAD_REACTORS
330
7
102
}
330
7
100
AcDbXrecord
  1
DWGPROPS COOKIE
  2

  3

  4

  6

  7

  8
ymorima
  9

300
=
301
=
302
=
303
=
304
=
305
=
306
=
307
=
308
=
309
=
 40
0.0305278703703704
 41
2454413.474664884
 42
2454421.490478148
  1

 90
        0
  0
XRECORD
  5
237D
102
{ACAD_REACTORS
330
19E2
102
}
330
19E2
100
AcDbXrecord
102
VTR_0.000_0.000_1.000_1.000_VISUALSTYLE
340
18C2
102
VTR_0.000_0.000_1.000_1.000_GRIDDISPLAY
 70
     3
102
VTR_0.000_0.000_1.000_1.000_GRIDMAJOR
 70
     5
102
VTR_0.000_0.000_1.000_1.000_DEFAULTLIGHTING
280
     1
102
VTR_0.000_0.000_1.000_1.000_DEFAULTLIGHTINGTYPE
 70
     1
102
VTR_0.000_0.000_1.000_1.000_BRIGHTNESS
141
0.0
102
VTR_0.000_0.000_1.000_1.000_CONTRAST
142
0.0
  0
DICTIONARY
  5
B1A
102
{ACAD_REACTORS
330
B19
102
}
330
B19
100
AcDbDictionary
  0
XRECORD
  5
2378
102
{ACAD_REACTORS
330
19C5
102
}
330
19C5
100
AcDbXrecord
102
MATERIAL
340
18B4
  0
XRECORD
  5
19C6
102
{ACAD_REACTORS
330
19C5
102
}
330
19C5
100
AcDbXrecord
290
     1
  0
XRECORD
  5
2377
102
{ACAD_REACTORS
330
19C7
102
}
330
19C7
100
AcDbXrecord
102
MATERIAL
340
18B4
  0
XRECORD
  5
19C8
102
{ACAD_REACTORS
330
19C7
102
}
330
19C7
100
AcDbXrecord
290
     1
  0
XRECORD
  5
2383
102
{ACAD_REACTORS
330
19CD
102
}
330
19CD
100
AcDbXrecord
102
MATERIAL
340
18B4
  0
XRECORD
  5
19CE
102
{ACAD_REACTORS
330
19CD
102
}
330
19CD
100
AcDbXrecord
290
     1
  0
XRECORD
  5
2384
102
{ACAD_REACTORS
330
19CF
102
}
330
19CF
100
AcDbXrecord
102
MATERIAL
340
18B4
  0
XRECORD
  5
19D0
102
{ACAD_REACTORS
330
19CF
102
}
330
19CF
100
AcDbXrecord
290
     1
  0
XRECORD
  5
2386
102
{ACAD_REACTORS
330
19D3
102
}
330
19D3
100
AcDbXrecord
102
MATERIAL
340
18B4
  0
XRECORD
  5
19D4
102
{ACAD_REACTORS
330
19D3
102
}
330
19D3
100
AcDbXrecord
290
     1
  0
XRECORD
  5
23D5
102
{ACAD_REACTORS
330
23D4
102
}
330
23D4
100
AcDbXrecord
340
2
  0
XRECORD
  5
23D7
102
{ACAD_REACTORS
330
23D6
102
}
330
23D6
100
AcDbXrecord
340
23AD
  0
ACAD_PROXY_OBJECT
  5
18AC
102
{ACAD_XDICTIONARY
360
18AD
102
}
102
{ACAD_REACTORS
330
18A3
102
}
330
18A3
100
AcDbProxyObject
 90
      499
 91
      511
 93
     1340
310
42109E509B1BD8DAC02004014080404555555555555953FAA155555555555654FEA9AA400014080404555555555555953FAA155555555555654FEA9AA400000000000000E03F4080404555555555555953FAA155555555555654FEA9AA4014080404555555555555953FAA155555555555654FEA9AA4010201011555555555
310
55654FEA8555555555555953FAA6A9005020101155555555555654FEA8555555555555953FAA6A9000
 94
        0
1001
ACAD
1000
AcadProxyRoundTripData
1071
      504
1071
   655383
1070
     0
  0
ACAD_PROXY_OBJECT
  5
18A4
102
{ACAD_XDICTIONARY
360
18A5
102
}
102
{ACAD_REACTORS
330
18A3
102
}
330
18A3
100
AcDbProxyObject
 90
      499
 91
      511
 93
     1340
310
42109E53185E595C802004014080404555555555555953FAA155555555555654FEA9AA400014080404555555555555953FAA155555555555654FEA9AA400000000000000E03F4080404555555555555953FAA155555555555654FEA9AA4014080404555555555555953FAA155555555555654FEA9AA4010201011555555555
310
55654FEA8555555555555953FAA6A9005020101155555555555654FEA8555555555555953FAA6A9000
 94
        0
1001
ACAD
1000
AcadProxyRoundTripData
1071
      504
1071
   655383
1070
     0
  0
ACAD_PROXY_OBJECT
  5
18B4
102
{ACAD_XDICTIONARY
360
18B5
102
}
102
{ACAD_REACTORS
330
18A3
102
}
330
18A3
100
AcDbProxyObject
 90
      499
 91
      511
 93
     1332
310
41D1DB1BD8985B002004014080404555555555555953FAA155555555555654FEA9AA400014080404555555555555953FAA155555555555654FEA9AA400000000000000E03F4080404555555555555953FAA155555555555654FEA9AA4014080404555555555555953FAA155555555555654FEA9AA401020101155555555555
310
654FEA8555555555555953FAA6A9005020101155555555555654FEA8555555555555953FAA6A9000
 94
        0
1001
ACAD
1000
AcadProxyRoundTripData
1071
      504
1071
   655383
1070
     0
  0
ACAD_PROXY_OBJECT
  5
18F3
102
{ACAD_REACTORS
330
18F2
102
}
330
18F2
100
AcDbProxyObject
 90
      499
 91
      511
 93
      618
310
40901902A4063FBFFFFFE056BD1B81E855B9FC0AD7A3703D0AD73F4254DD185B99185C990000AD7A3703D0AC73F90141901A02B5E8DC0F42B1CFC02B5E8DC0F42B1CFE5764000000000000300FC6
340
6A
340
0
340
16
340
0
 94
        0
1001
ACAD_MLEADERVER
1070
     2
1001
ACAD
1000
AcadProxyRoundTripData
1071
      508
1071
   655383
1070
     0
  0
MLINESTYLE
  5
78
102
{ACAD_REACTORS
330
76
102
}
330
76
100
AcDbMlineStyle
  2
STANDARD
 70
     0
  3

 62
     0
 51
90.0
 52
90.0
 71
     2
 49
0.5
 62
   256
  6
BYLAYER
 49
-0.5
 62
   256
  6
BYLAYER
  0
ACDBPLACEHOLDER
  5
5
102
{ACAD_REACTORS
330
6
102
}
330
6
100
AcDbPlaceHolder
280
     0
  0
ACAD_PROXY_OBJECT
  5
18D1
102
{ACAD_REACTORS
330
18D0
102
}
330
18D0
100
AcDbProxyObject
 90
      499
 91
      511
 93
       49
310
904313A3100598
 94
        0
1001
ACAD
1000
AcadProxyRoundTripData
1071
      507
1071
   655383
1070
     0
  0
ACAD_PROXY_OBJECT
  5
18D2
102
{ACAD_REACTORS
330
18D0
102
}
330
18D0
100
AcDbProxyObject
 90
      499
 91
      511
 93
      113
310
904313A3200400000000000000406B
 94
        0
1001
ACAD
1000
AcadProxyRoundTripData
1071
      507
1071
   655383
1070
     0
  0
ACAD_PROXY_OBJECT
  5
18D3
102
{ACAD_REACTORS
330
18D0
102
}
330
18D0
100
AcDbProxyObject
 90
      499
 91
      511
 93
      113
310
904313A3400400000000000010406B
 94
        0
1001
ACAD
1000
AcadProxyRoundTripData
1071
      507
1071
   655383
1070
     0
  0
ACAD_PROXY_OBJECT
  5
18D4
102
{ACAD_REACTORS
330
18D0
102
}
330
18D0
100
AcDbProxyObject
 90
      499
 91
      511
 93
      113
310
904313A3500400000000000014406B
 94
        0
1001
ACAD
1000
AcadProxyRoundTripData
1071
      507
1071
   655383
1070
     0
  0
ACAD_PROXY_OBJECT
  5
18D5
102
{ACAD_REACTORS
330
18D0
102
}
330
18D0
100
AcDbProxyObject
 90
      499
 91
      511
 93
      113
310
904313A3800400000000000020406B
 94
        0
1001
ACAD
1000
AcadProxyRoundTripData
1071
      507
1071
   655383
1070
     0
  0
ACAD_PROXY_OBJECT
  5
18D6
102
{ACAD_REACTORS
330
18D0
102
}
330
18D0
100
AcDbProxyObject
 90
      499
 91
      511
 93
      121
310
905313A3130004000000000000244051
 94
        0
1001
ACAD
1000
AcadProxyRoundTripData
1071
      507
1071
   655383
1070
     0
  0
ACAD_PROXY_OBJECT
  5
18D7
102
{ACAD_REACTORS
330
18D0
102
}
330
18D0
100
AcDbProxyObject
 90
      499
 91
      511
 93
      121
310
905313A3136004000000000000304051
 94
        0
1001
ACAD
1000
AcadProxyRoundTripData
1071
      507
1071
   655383
1070
     0
  0
ACAD_PROXY_OBJECT
  5
18D8
102
{ACAD_REACTORS
330
18D0
102
}
330
18D0
100
AcDbProxyObject
 90
      499
 91
      511
 93
      121
310
905313A3230004000000000000344051
 94
        0
1001
ACAD
1000
AcadProxyRoundTripData
1071
      507
1071
   655383
1070
     0
  0
ACAD_PROXY_OBJECT
  5
18D9
102
{ACAD_REACTORS
330
18D0
102
}
330
18D0
100
AcDbProxyObject
 90
      499
 91
      511
 93
      121
310
905313A33300040000000000003E4051
 94
        0
1001
ACAD
1000
AcadProxyRoundTripData
1071
      507
1071
   655383
1070
     0
  0
ACAD_PROXY_OBJECT
  5
18DA
102
{ACAD_REACTORS
330
18D0
102
}
330
18D0
100
AcDbProxyObject
 90
      499
 91
      511
 93
      121
310
905313A3430004000000000000444051
 94
        0
1001
ACAD
1000
AcadProxyRoundTripData
1071
      507
1071
   655383
1070
     0
  0
ACAD_PROXY_OBJECT
  5
18DB
102
{ACAD_REACTORS
330
18D0
102
}
330
18D0
100
AcDbProxyObject
 90
      499
 91
      511
 93
      121
310
905313A3530004000000000000494051
 94
        0
1001
ACAD
1000
AcadProxyRoundTripData
1071
      507
1071
   655383
1070
     0
  0
ACAD_PROXY_OBJECT
  5
18DC
102
{ACAD_REACTORS
330
18D0
102
}
330
18D0
100
AcDbProxyObject
 90
      499
 91
      511
 93
      129
310
906313A313030004000000000000594038
 94
        0
1001
ACAD
1000
AcadProxyRoundTripData
1071
      507
1071
   655383
1070
     0
  0
ACAD_PROXY_OBJECT
  5
18DD
102
{ACAD_REACTORS
330
18D0
102
}
330
18D0
100
AcDbProxyObject
 90
      499
 91
      511
 93
      113
310
904323A31000000000000000010159
 94
        0
1001
ACAD
1000
AcadProxyRoundTripData
1071
      507
1071
   655383
1070
     0
  0
ACAD_PROXY_OBJECT
  5
18DE
102
{ACAD_REACTORS
330
18D0
102
}
330
18D0
100
AcDbProxyObject
 90
      499
 91
      511
 93
      113
310
904343A31000000000000000410159
 94
        0
1001
ACAD
1000
AcadProxyRoundTripData
1071
      507
1071
   655383
1070
     0
  0
ACAD_PROXY_OBJECT
  5
18DF
102
{ACAD_REACTORS
330
18D0
102
}
330
18D0
100
AcDbProxyObject
 90
      499
 91
      511
 93
      113
310
904383A31000000000000000810159
 94
        0
1001
ACAD
1000
AcadProxyRoundTripData
1071
      507
1071
   655383
1070
     0
  0
ACAD_PROXY_OBJECT
  5
18E0
102
{ACAD_REACTORS
330
18D0
102
}
330
18D0
100
AcDbProxyObject
 90
      499
 91
      511
 93
      121
310
90531303A31000000000000000910140
 94
        0
1001
ACAD
1000
AcadProxyRoundTripData
1071
      507
1071
   655383
1070
     0
  0
ACAD_PROXY_OBJECT
  5
18E1
102
{ACAD_REACTORS
330
18D0
102
}
330
18D0
100
AcDbProxyObject
 90
      499
 91
      511
 93
      129
310
9063130303A31000000000000001650138
 94
        0
1001
ACAD
1000
AcadProxyRoundTripData
1071
      507
1071
   655383
1070
     0
  0
ACAD_PROXY_OBJECT
  5
18E2
102
{ACAD_REACTORS
330
18D0
102
}
330
18D0
100
AcDbProxyObject
 90
      499
 91
      511
 93
      265
310
90F312F31323822203D2031272D302200000000000000200FC00000000000028402B
 94
        0
1001
ACAD
1000
AcadProxyRoundTripData
1071
      507
1071
   655383
1070
     0
  0
ACAD_PROXY_OBJECT
  5
18E3
102
{ACAD_REACTORS
330
18D0
102
}
330
18D0
100
AcDbProxyObject
 90
      499
 91
      511
 93
      257
310
90E312F363422203D2031272D302200000000000000240FC000000000000284040
 94
        0
1001
ACAD
1000
AcadProxyRoundTripData
1071
      507
1071
   655383
1070
     0
  0
ACAD_PROXY_OBJECT
  5
18E4
102
{ACAD_REACTORS
330
18D0
102
}
330
18D0
100
AcDbProxyObject
 90
      499
 91
      511
 93
      257
310
90E312F333222203D2031272D302200000000000000280FC000000000000284040
 94
        0
1001
ACAD
1000
AcadProxyRoundTripData
1071
      507
1071
   655383
1070
     0
  0
ACAD_PROXY_OBJECT
  5
18E5
102
{ACAD_REACTORS
330
18D0
102
}
330
18D0
100
AcDbProxyObject
 90
      499
 91
      511
 93
      257
310
90E312F313622203D2031272D3022000000000000002C0FC000000000000284040
 94
        0
1001
ACAD
1000
AcadProxyRoundTripData
1071
      507
1071
   655383
1070
     0
  0
ACAD_PROXY_OBJECT
  5
18E6
102
{ACAD_REACTORS
330
18D0
102
}
330
18D0
100
AcDbProxyObject
 90
      499
 91
      511
 93
      257
310
90E332F333222203D2031272D3022000000000000002E0FC000000000000284040
 94
        0
1001
ACAD
1000
AcadProxyRoundTripData
1071
      507
1071
   655383
1070
     0
  0
ACAD_PROXY_OBJECT
  5
18E7
102
{ACAD_REACTORS
330
18D0
102
}
330
18D0
100
AcDbProxyObject
 90
      499
 91
      511
 93
      249
310
90D312F3822203D2031272D302200000000000000300FC000000000000284040
 94
        0
1001
ACAD
1000
AcadProxyRoundTripData
1071
      507
1071
   655383
1070
     0
  0
ACAD_PROXY_OBJECT
  5
18E8
102
{ACAD_REACTORS
330
18D0
102
}
330
18D0
100
AcDbProxyObject
 90
      499
 91
      511
 93
      257
310
90E332F313622203D2031272D302200000000000000320FC000000000000284040
 94
        0
1001
ACAD
1000
AcadProxyRoundTripData
1071
      507
1071
   655383
1070
     0
  0
ACAD_PROXY_OBJECT
  5
18E9
102
{ACAD_REACTORS
330
18D0
102
}
330
18D0
100
AcDbProxyObject
 90
      499
 91
      511
 93
      249
310
90D312F3422203D2031272D302200000000000000340FC000000000000284040
 94
        0
1001
ACAD
1000
AcadProxyRoundTripData
1071
      507
1071
   655383
1070
     0
  0
ACAD_PROXY_OBJECT
  5
18EA
102
{ACAD_REACTORS
330
18D0
102
}
330
18D0
100
AcDbProxyObject
 90
      499
 91
      511
 93
      249
310
90D332F3822203D2031272D302200000000000000360FC000000000000284040
 94
        0
1001
ACAD
1000
AcadProxyRoundTripData
1071
      507
1071
   655383
1070
     0
  0
ACAD_PROXY_OBJECT
  5
18EB
102
{ACAD_REACTORS
330
18D0
102
}
330
18D0
100
AcDbProxyObject
 90
      499
 91
      511
 93
      249
310
90D312F3222203D2031272D302200000000000000380FC000000000000284040
 94
        0
1001
ACAD
1000
AcadProxyRoundTripData
1071
      507
1071
   655383
1070
     0
  0
ACAD_PROXY_OBJECT
  5
18EC
102
{ACAD_REACTORS
330
18D0
102
}
330
18D0
100
AcDbProxyObject
 90
      499
 91
      511
 93
      249
310
90D332F3422203D2031272D3022000000000000003A0FC000000000000284040
 94
        0
1001
ACAD
1000
AcadProxyRoundTripData
1071
      507
1071
   655383
1070
     0
  0
ACAD_PROXY_OBJECT
  5
18ED
102
{ACAD_REACTORS
330
18D0
102
}
330
18D0
100
AcDbProxyObject
 90
      499
 91
      511
 93
      169
310
90B3122203D2031272D3022004000000000000284020
 94
        0
1001
ACAD
1000
AcadProxyRoundTripData
1071
      507
1071
   655383
1070
     0
  0
ACAD_PROXY_OBJECT
  5
18EE
102
{ACAD_REACTORS
330
18D0
102
}
330
18D0
100
AcDbProxyObject
 90
      499
 91
      511
 93
      265
310
90F312D312F3222203D2031272D3022000000000000003E0FC00000000000028402B
 94
        0
1001
ACAD
1000
AcadProxyRoundTripData
1071
      507
1071
   655383
1070
     0
  0
ACAD_PROXY_OBJECT
  5
18EF
102
{ACAD_REACTORS
330
18D0
102
}
330
18D0
100
AcDbProxyObject
 90
      499
 91
      511
 93
      233
310
90B3322203D2031272D30220000000000000002100000000000000284000
 94
        0
1001
ACAD
1000
AcadProxyRoundTripData
1071
      507
1071
   655383
1070
     0
  0
ACAD_PROXY_OBJECT
  5
18F0
102
{ACAD_REACTORS
330
18D0
102
}
330
18D0
100
AcDbProxyObject
 90
      499
 91
      511
 93
      233
310
90B3622203D2031272D30220000000000000006100000000000000284000
 94
        0
1001
ACAD
1000
AcadProxyRoundTripData
1071
      507
1071
   655383
1070
     0
  0
ACAD_PROXY_OBJECT
  5
18F1
102
{ACAD_REACTORS
330
18D0
102
}
330
18D0
100
AcDbProxyObject
 90
      499
 91
      511
 93
      257
310
90E31272D3022203D2031272D3022000000000000000A100000000000000284040
 94
        0
1001
ACAD
1000
AcadProxyRoundTripData
1071
      507
1071
   655383
1070
     0
  0
ACAD_PROXY_OBJECT
  5
18CF
102
{ACAD_XDICTIONARY
360
19D7
102
}
102
{ACAD_REACTORS
330
18CE
102
}
330
18CE
100
AcDbProxyObject
 90
      499
 91
      511
 93
     1849
310
4254DD185B99185C990028B81E85EB51B8AE3F2E07A17AD46E2B8FC02B5E8DC0F42B1CFD028000000C1008070000C3001FDFF8000000C1003FBFF000000182007F7FE00000030400FEFFC00000060801FDFF8000000C1003FBFF00000018200000000000000681FA0B0000001820100E000186003FBFF000000182007F7FE0
310
0000030400FEFFC00000060801FDFF8000000C1003FBFF000000182007F7FE000000304000AD7A3703D0AC73F4160000003040201C00030C007F7FE00000030400FEFFC00000060801FDFF8000000C1003FBFF000000182007F7FE00000030400FEFFC000000608000
340
16
340
16
340
16
 94
        0
1001
ACAD
1000
AcadProxyRoundTripData
1071
      506
1071
   655383
1070
     0
  0
ACAD_PROXY_OBJECT
  5
18C2
102
{ACAD_REACTORS
330
18BC
102
}
330
18BC
100
AcDbProxyObject
 90
      499
 91
      511
 93
      444
310
430C9915DA5C99599C985B59401049028333333333333E3BF0000000000000FB0107901411070040501600405405064090741402480A0340
 94
        0
1001
ACAD
1000
AcDbSavedByObjectVersion
1070
     0
1000
AcadProxyRoundTripData
1071
      505
1071
   655383
1070
     0
  0
ACAD_PROXY_OBJECT
  5
18C4
102
{ACAD_REACTORS
330
18BC
102
}
330
18BC
100
AcDbProxyObject
 90
      499
 91
      511
 93
      508
310
428CD108121A5919195B8010640502408333333333333E3BF0000000000000FB01079024090700405020000000000001110200405405064090740C02480A0340
 94
        0
1001
ACAD
1000
AcDbSavedByObjectVersion
1070
     0
1000
AcadProxyRoundTripData
1071
      505
1071
   655383
1070
     0
  0
ACAD_PROXY_OBJECT
  5
18C3
102
{ACAD_REACTORS
330
18BC
102
}
330
18BC
100
AcDbProxyObject
 90
      499
 91
      511
 93
      444
310
430CD915DA5C99599C985B59401059028333333333333E3BF0000000000000FB0107901411070040501600405405064090741402480A0340
 94
        0
1001
ACAD
1000
AcDbSavedByObjectVersion
1070
     0
1000
AcadProxyRoundTripData
1071
      505
1071
   655383
1070
     0
  0
ACAD_PROXY_OBJECT
  5
18C1
102
{ACAD_REACTORS
330
18BC
102
}
330
18BC
100
AcDbProxyObject
 90
      499
 91
      511
 93
      396
310
4190985CDA58C0107406404333333333333E3BF0000000000000FB0107A41107004050150841D405064090741402480A0356
 94
        0
1001
ACAD
1000
AcDbSavedByObjectVersion
1070
     0
1000
AcadProxyRoundTripData
1071
      505
1071
   655383
1070
     0
  0
ACAD_PROXY_OBJECT
  5
18C8
102
{ACAD_REACTORS
330
18BC
102
}
330
18BC
100
AcDbProxyObject
 90
      499
 91
      511
 93
      436
310
42509C9A59DA1D195B8010C409028333333333333E3BF0000000000000FB010790141107004050150841D405064090741402480A029956
 94
        0
1001
ACAD
1000
AcDbSavedByObjectVersion
1070
     0
1000
AcadProxyRoundTripData
1071
      505
1071
   655383
1070
     0
  0
ACAD_PROXY_OBJECT
  5
18CC
102
{ACAD_REACTORS
330
18BC
102
}
330
18BC
100
AcDbProxyObject
 90
      499
 91
      511
 93
      460
310
4310DBDB1BDC90DA185B99D9401104090240C333333333333E3BF0000000000000FB0108901411070040501508421405064090741402480A0354
 94
        0
1001
ACAD
1000
AcDbSavedByObjectVersion
1070
     0
1000
AcadProxyRoundTripData
1071
      505
1071
   655383
1070
     0
  0
ACAD_PROXY_OBJECT
  5
18C5
102
{ACAD_REACTORS
330
18BC
102
}
330
18BC
100
AcDbProxyObject
 90
      499
 91
      511
 93
      508
310
42D0DBDB98D95C1D1D585B0010940D028333333333333E3BF0000000000000FB0107902409070040501000000000000111010841D405064090740C02480A0340
 94
        0
1001
ACAD
1000
AcDbSavedByObjectVersion
1070
     0
1000
AcadProxyRoundTripData
1071
      505
1071
   655383
1070
     0
  0
ACAD_PROXY_OBJECT
  5
18C7
102
{ACAD_REACTORS
330
18BC
102
}
330
18BC
100
AcDbProxyObject
 90
      499
 91
      511
 93
      420
310
41111A5B4010B409028333333333333E3BF0000000000000FB010790141107004050150841D405064090741402480A02677FFFFFDB
 94
        0
1001
ACAD
1000
AcDbSavedByObjectVersion
1070
     0
1000
AcadProxyRoundTripData
1071
      505
1071
   655383
1070
     0
  0
ACAD_PROXY_OBJECT
  5
18CB
102
{ACAD_REACTORS
330
18BC
102
}
330
18BC
100
AcDbProxyObject
 90
      499
 91
      511
 93
      452
310
43119858D95C185D1D195C9B8010F409028333333333333E3BF0000000000000FB010790141107004050150841D405064090741402480A0350
 94
        0
1001
ACAD
1000
AcDbSavedByObjectVersion
1070
     0
1000
AcadProxyRoundTripData
1071
      505
1071
   655383
1070
     0
  0
ACAD_PROXY_OBJECT
  5
18BD
102
{ACAD_REACTORS
330
18BC
102
}
330
18BC
100
AcDbProxyObject
 90
      499
 91
      511
 93
      396
310
41519B185D00240901404333333333333E3BF0000000000000F9010740A41107004050150841D405064090741402480A1B55
 94
        0
1001
ACAD
1000
AcDbSavedByObjectVersion
1070
     0
1000
AcadProxyRoundTripData
1071
      505
1071
   655383
1070
     0
  0
ACAD_PROXY_OBJECT
  5
18BE
102
{ACAD_REACTORS
330
18BC
102
}
330
18BC
100
AcDbProxyObject
 90
      499
 91
      511
 93
      484
310
43919B185D15DA5D1A115919D95CC010140901404333333333333E3BF0000000000000F9010740901411070040501600405405064090741402480A1B50
 94
        0
1001
ACAD
1000
AcDbSavedByObjectVersion
1070
     0
1000
AcadProxyRoundTripData
1071
      505
1071
   655383
1070
     0
  0
ACAD_PROXY_OBJECT
  5
18BF
102
{ACAD_REACTORS
330
18BC
102
}
330
18BC
100
AcDbProxyObject
 90
      499
 91
      511
 93
      420
310
4211DBDD5C985D590010240902404333333333333E3BF0000000000000F9010740A411070040501641D405064090741402480A1B50
 94
        0
1001
ACAD
1000
AcDbSavedByObjectVersion
1070
     0
1000
AcadProxyRoundTripData
1071
      505
1071
   655383
1070
     0
  0
ACAD_PROXY_OBJECT
  5
18C0
102
{ACAD_REACTORS
330
18BC
102
}
330
18BC
100
AcDbProxyObject
 90
      499
 91
      511
 93
      508
310
4451DBDD5C985D5915DA5D1A115919D95CC010340902404333333333333E3BF0000000000000F9010740901411070040501600405405064090741402480A1B50
 94
        0
1001
ACAD
1000
AcDbSavedByObjectVersion
1070
     0
1000
AcadProxyRoundTripData
1071
      505
1071
   655383
1070
     0
  0
ACAD_PROXY_OBJECT
  5
18CA
102
{ACAD_REACTORS
330
18BC
102
}
330
18BC
100
AcDbProxyObject
 90
      499
 91
      511
 93
      452
310
43131A5B995C185D1D195C9B8010E409028333333333333E3BF0000000000000FB010790141107004050750841D405064090741402483A0350
 94
        0
1001
ACAD
1000
AcDbSavedByObjectVersion
1070
     0
1000
AcadProxyRoundTripData
1071
      505
1071
   655383
1070
     0
  0
ACAD_PROXY_OBJECT
  5
18C6
102
{ACAD_REACTORS
330
18BC
102
}
330
18BC
100
AcDbProxyObject
 90
      499
 91
      511
 93
      428
310
429499585B1A5CDD1A58C0108409028333333333333E3BF0000000000000FB01079019070040501508421405064090741402480A1B45
 94
        0
1001
ACAD
1000
AcDbSavedByObjectVersion
1070
     0
1000
AcadProxyRoundTripData
1071
      505
1071
   655383
1070
     0
  0
ACAD_PROXY_OBJECT
  5
18C9
102
{ACAD_REACTORS
330
18BC
102
}
330
18BC
100
AcDbProxyObject
 90
      499
 91
      511
 93
      420
310
42151A1A58DAD95B8010D409028333333333333E3BF0000000000000FB010790141107004050150C41D405064090741402480A0352
 94
        0
1001
ACAD
1000
AcDbSavedByObjectVersion
1070
     0
1000
AcadProxyRoundTripData
1071
      505
1071
   655383
1070
     0
  0
XRECORD
  5
23BD
102
{ACAD_REACTORS
330
23B3
102
}
330
23B3
100
AcDbXrecord
 90
        0
  0
XRECORD
  5
23C1
102
{ACAD_REACTORS
330
23B3
102
}
330
23B3
100
AcDbXrecord
1000
DSTYLE
1002
{
1070
   179
 70
     2
1070
   277
 70
     6
1002
}
  0
XRECORD
  5
23BE
102
{ACAD_REACTORS
330
23B3
102
}
330
23B3
100
AcDbXrecord
  1
{6385560B-F4B1-4644-A7C2-A3E32AC3D232}
  0
XRECORD
  5
23B6
102
{ACAD_REACTORS
330
23B3
102
}
330
23B3
100
AcDbXrecord
  1

  0
XRECORD
  5
23BC
102
{ACAD_REACTORS
330
23B3
102
}
330
23B3
100
AcDbXrecord
 90
        0
  0
XRECORD
  5
23B8
102
{ACAD_REACTORS
330
23B3
102
}
330
23B3
100
AcDbXrecord
340
61
  0
XRECORD
  5
23BB
102
{ACAD_REACTORS
330
23B3
102
}
330
23B3
100
AcDbXrecord
 90
    10781
  0
XRECORD
  5
23B9
102
{ACAD_REACTORS
330
23B3
102
}
330
23B3
100
AcDbXrecord
340
77
  0
XRECORD
  5
23BA
102
{ACAD_REACTORS
330
23B3
102
}
330
23B3
100
AcDbXrecord
340
6
  0
XRECORD
  5
23C0
102
{ACAD_REACTORS
330
23B3
102
}
330
23B3
100
AcDbXrecord
 40
0.0
  0
XRECORD
  5
23C4
102
{ACAD_REACTORS
330
23B3
102
}
330
23B3
100
AcDbXrecord
340
0
  0
XRECORD
  5
23CA
102
{ACAD_REACTORS
330
23B3
102
}
330
23B3
100
AcDbXrecord
 10
0.0
 20
0.0
 30
0.0
  0
XRECORD
  5
23C6
102
{ACAD_REACTORS
330
23B3
102
}
330
23B3
100
AcDbXrecord
 10
0.0
 20
0.0
 30
0.0
  0
XRECORD
  5
23C9
102
{ACAD_REACTORS
330
23B3
102
}
330
23B3
100
AcDbXrecord
 10
0.0
 20
0.0
 30
0.0
  0
XRECORD
  5
23C7
102
{ACAD_REACTORS
330
23B3
102
}
330
23B3
100
AcDbXrecord
 10
0.0
 20
0.0
 30
0.0
  0
XRECORD
  5
23C8
102
{ACAD_REACTORS
330
23B3
102
}
330
23B3
100
AcDbXrecord
 10
0.0
 20
0.0
 30
0.0
  0
XRECORD
  5
23C5
102
{ACAD_REACTORS
330
23B3
102
}
330
23B3
100
AcDbXrecord
 10
0.0
 20
0.0
 30
0.0
  0
XRECORD
  5
23C2
102
{ACAD_REACTORS
330
23B3
102
}
330
23B3
100
AcDbXrecord
340
0
  0
XRECORD
  5
23C3
102
{ACAD_REACTORS
330
23B3
102
}
330
23B3
100
AcDbXrecord
 70
     0
  0
XRECORD
  5
23B7
102
{ACAD_REACTORS
330
23B3
102
}
330
23B3
100
AcDbXrecord
  1
Sekkei.ctb
  0
XRECORD
  5
23B4
102
{ACAD_REACTORS
330
23B3
102
}
330
23B3
100
AcDbXrecord
 90
        1
  0
XRECORD
  5
23B5
102
{ACAD_REACTORS
330
23B3
102
}
330
23B3
100
AcDbXrecord
 90
       70
  0
XRECORD
  5
23CD
102
{ACAD_REACTORS
330
23B3
102
}
330
23B3
100
AcDbXrecord
340
0
  0
XRECORD
  5
23D3
102
{ACAD_REACTORS
330
23B3
102
}
330
23B3
100
AcDbXrecord
 10
0.0
 20
0.0
 30
0.0
  0
XRECORD
  5
23CF
102
{ACAD_REACTORS
330
23B3
102
}
330
23B3
100
AcDbXrecord
 10
0.0
 20
0.0
 30
0.0
  0
XRECORD
  5
23D2
102
{ACAD_REACTORS
330
23B3
102
}
330
23B3
100
AcDbXrecord
 10
0.0
 20
0.0
 30
0.0
  0
XRECORD
  5
23D0
102
{ACAD_REACTORS
330
23B3
102
}
330
23B3
100
AcDbXrecord
 10
0.0
 20
0.0
 30
0.0
  0
XRECORD
  5
23D1
102
{ACAD_REACTORS
330
23B3
102
}
330
23B3
100
AcDbXrecord
 10
0.0
 20
0.0
 30
0.0
  0
XRECORD
  5
23CE
102
{ACAD_REACTORS
330
23B3
102
}
330
23B3
100
AcDbXrecord
 10
0.0
 20
0.0
 30
0.0
  0
XRECORD
  5
23CB
102
{ACAD_REACTORS
330
23B3
102
}
330
23B3
100
AcDbXrecord
340
0
  0
XRECORD
  5
23CC
102
{ACAD_REACTORS
330
23B3
102
}
330
23B3
100
AcDbXrecord
 70
     0
  0
XRECORD
  5
23BF
102
{ACAD_REACTORS
330
23B3
102
}
330
23B3
100
AcDbXrecord
  1
{911F0A49-F234-41B1-B28A-DBBA24D7DC6B}
  0
DICTIONARYVAR
  5
19FA
102
{ACAD_REACTORS
330
102
102
}
330
102
100
DictionaryVariables
280
     0
  1
1:1
  0
DICTIONARYVAR
  5
19F9
102
{ACAD_REACTORS
330
102
102
}
330
102
100
DictionaryVariables
280
     0
  1
STANDARD
  0
DICTIONARYVAR
  5
19F8
102
{ACAD_REACTORS
330
102
102
}
330
102
100
DictionaryVariables
280
     0
  1
STANDARD
  0
DICTIONARYVAR
  5
103
102
{ACAD_REACTORS
330
102
102
}
330
102
100
DictionaryVariables
280
     0
  1
1
  0
DICTIONARYVAR
  5
19FB
102
{ACAD_REACTORS
330
102
102
}
330
102
100
DictionaryVariables
280
     0
  1
0
  0
DICTIONARYVAR
  5
549
102
{ACAD_REACTORS
330
102
102
}
330
102
100
DictionaryVariables
280
     0
  1
96
  0
DICTIONARY
  5
18AD
330
18AC
100
AcDbDictionary
280
     1
  3
ACAD_XREC_ROUNDTRIP
360
238A
  3
BUMPTILE
360
18AF
  3
DIFFUSETILE
360
18AE
  3
OPACITYTILE
360
18B2
  3
REFLECTIONTILE
360
18B1
  3
REFRACTIONTILE
360
18B3
  3
SPECULARTILE
360
18B0
  0
DICTIONARY
  5
18A5
330
18A4
100
AcDbDictionary
280
     1
  3
ACAD_XREC_ROUNDTRIP
360
2389
  3
BUMPTILE
360
18A7
  3
DIFFUSETILE
360
18A6
  3
OPACITYTILE
360
18AA
  3
REFLECTIONTILE
360
18A9
  3
REFRACTIONTILE
360
18AB
  3
SPECULARTILE
360
18A8
  0
DICTIONARY
  5
18B5
330
18B4
100
AcDbDictionary
280
     1
  3
ACAD_XREC_ROUNDTRIP
360
238B
  3
BUMPTILE
360
18B7
  3
DIFFUSETILE
360
18B6
  3
OPACITYTILE
360
18BA
  3
REFLECTIONTILE
360
18B9
  3
REFRACTIONTILE
360
18BB
  3
SPECULARTILE
360
18B8
  0
DICTIONARY
  5
19D7
330
18CF
100
AcDbDictionary
280
     1
  3
ACAD_ROUNDTRIP_2008_TABLES
360
2374
  3
ACAD_XREC_ROUNDTRIP
360
238C
  0
XRECORD
  5
238A
102
{ACAD_REACTORS
330
18AD
102
}
330
18AD
100
AcDbXrecord
102
MATERIAL
148
0.0
149
0.0
149
0.0
 93
        0
 94
      127
282
     0
 72
     0
 77
     0
171
     0
175
     0
179
     0
273
     0
  0
XRECORD
  5
18AF
102
{ACAD_REACTORS
330
18AD
102
}
330
18AD
100
AcDbXrecord
270
     1
271
     1
  0
XRECORD
  5
18AE
102
{ACAD_REACTORS
330
18AD
102
}
330
18AD
100
AcDbXrecord
270
     1
271
     1
  0
XRECORD
  5
18B2
102
{ACAD_REACTORS
330
18AD
102
}
330
18AD
100
AcDbXrecord
270
     1
271
     1
  0
XRECORD
  5
18B1
102
{ACAD_REACTORS
330
18AD
102
}
330
18AD
100
AcDbXrecord
270
     1
271
     1
  0
XRECORD
  5
18B3
102
{ACAD_REACTORS
330
18AD
102
}
330
18AD
100
AcDbXrecord
270
     1
271
     1
  0
XRECORD
  5
18B0
102
{ACAD_REACTORS
330
18AD
102
}
330
18AD
100
AcDbXrecord
270
     1
271
     1
  0
XRECORD
  5
2389
102
{ACAD_REACTORS
330
18A5
102
}
330
18A5
100
AcDbXrecord
102
MATERIAL
148
0.0
149
0.0
149
0.0
 93
        0
 94
      127
282
     0
 72
     0
 77
     0
171
     0
175
     0
179
     0
273
     0
  0
XRECORD
  5
18A7
102
{ACAD_REACTORS
330
18A5
102
}
330
18A5
100
AcDbXrecord
270
     1
271
     1
  0
XRECORD
  5
18A6
102
{ACAD_REACTORS
330
18A5
102
}
330
18A5
100
AcDbXrecord
270
     1
271
     1
  0
XRECORD
  5
18AA
102
{ACAD_REACTORS
330
18A5
102
}
330
18A5
100
AcDbXrecord
270
     1
271
     1
  0
XRECORD
  5
18A9
102
{ACAD_REACTORS
330
18A5
102
}
330
18A5
100
AcDbXrecord
270
     1
271
     1
  0
XRECORD
  5
18AB
102
{ACAD_REACTORS
330
18A5
102
}
330
18A5
100
AcDbXrecord
270
     1
271
     1
  0
XRECORD
  5
18A8
102
{ACAD_REACTORS
330
18A5
102
}
330
18A5
100
AcDbXrecord
270
     1
271
     1
  0
XRECORD
  5
238B
102
{ACAD_REACTORS
330
18B5
102
}
330
18B5
100
AcDbXrecord
102
MATERIAL
148
0.0
149
0.0
149
0.0
 93
        0
 94
      127
282
     0
 72
     0
 77
     0
171
     0
175
     0
179
     0
273
     0
  0
XRECORD
  5
18B7
102
{ACAD_REACTORS
330
18B5
102
}
330
18B5
100
AcDbXrecord
270
     1
271
     1
  0
XRECORD
  5
18B6
102
{ACAD_REACTORS
330
18B5
102
}
330
18B5
100
AcDbXrecord
270
     1
271
     1
  0
XRECORD
  5
18BA
102
{ACAD_REACTORS
330
18B5
102
}
330
18B5
100
AcDbXrecord
270
     1
271
     1
  0
XRECORD
  5
18B9
102
{ACAD_REACTORS
330
18B5
102
}
330
18B5
100
AcDbXrecord
270
     1
271
     1
  0
XRECORD
  5
18BB
102
{ACAD_REACTORS
330
18B5
102
}
330
18B5
100
AcDbXrecord
270
     1
271
     1
  0
XRECORD
  5
18B8
102
{ACAD_REACTORS
330
18B5
102
}
330
18B5
100
AcDbXrecord
270
     1
271
     1
  0
ACAD_PROXY_OBJECT
  5
2374
102
{ACAD_REACTORS
330
19D7
102
}
330
19D7
100
AcDbProxyObject
 90
      499
 91
      511
 93
     5304
310
40D054060020000020000003200101A000080002A5058000000C100000000000000340FD012E07A17AD46E2B8FCB81E85EB51B8AE3F2E07A17AD46E2B8FCB81E85EB51B8AE3F02B5E8DC0F42B1CFC0AD7A3703D0AC73F419019018000000C1003FBFFFFFE02B5E8DC0F42A9CFD029018000000C1003FBFFFFFE02B5E8DC0F4
310
2A9CFD049018000000C1003FBFFFFFE02B5E8DC0F42A9CFD089018000000C1003FBFFFFFE02B5E8DC0F42A9CFD109018000000C1003FBFFFFFE02B5E8DC0F42A9CFD209018000000C1003FBFFFFFE02B5E8DC0F42A9CFD01405075F5449544C450041501A8000000C800406800020000A9416000000304000AD7A3703D0AC7
310
3F404B81E85EB51B8AE3F2E07A17AD46E2B8FCB81E85EB51B8AE3F2E07A17AD46E2B8FC0AD7A3703D0AC73F02B5E8DC0F42B1CFD0640640600000030400FEFFFFFF80AD7A3703D0AA73F40A40600000030400FEFFFFFF80AD7A3703D0AA73F41240600000030400FEFFFFFF80AD7A3703D0AA73F42240600000030400FEFFF
310
FFF80AD7A3703D0AA73F44240600000030400FEFFFFFF80AD7A3703D0AA73F48240600000030400FEFFFFFF80AD7A3703D0AA73F409014217D2115051115480105406A0000003200101A000080002A5028000000C10002B5E8DC0F42B1CFD012E07A17AD46E2B8FCB81E85EB51B8AE3F2E07A17AD46E2B8FCB81E85EB51B8A
310
E3F02B5E8DC0F42B1CFC0AD7A3703D0AC73F419019018000000C1003FBFFFFFE02B5E8DC0F42A9CFD029018000000C1003FBFFFFFE02B5E8DC0F42A9CFD049018000000C1003FBFFFFFE02B5E8DC0F42A9CFD089018000000C1003FBFFFFFE02B5E8DC0F42A9CFD109018000000C1003FBFFFFFE02B5E8DC0F42A9CFD20901
310
8000000C1003FBFFFFFE02B5E8DC0F42A9CFD03409065F444154410000
340
16
340
0
340
0
340
0
340
0
340
0
340
0
340
16
340
0
340
0
340
0
340
0
340
0
340
0
340
16
340
0
340
0
340
0
340
0
340
0
340
0
 94
        0
1001
ACAD
1000
AcadProxyRoundTripData
1071
      510
1071
   655383
1070
     0
  0
XRECORD
  5
238C
102
{ACAD_REACTORS
330
19D7
102
}
330
19D7
100
AcDbXrecord
102
ACAD_ROUNDTRIP_PRE2007_TABLESTYLE
 90
      512
 91
        0
  1

 92
      512
 93
        0
  2

 94
      512
 95
        0
  3

  0
ENDSEC
  0
EOF
