  0
SECTION
  2
HEADER
  9
$ACADVER
  1
AC1014
  9
$ACADMAINTVER
 70
     9
  9
$DWGCODEPAGE
  3
ANSI_932
  9
$INSBASE
 10
0.0
 20
0.0
 30
0.0
  9
$EXTMIN
 10
-24.48957474645272
 20
300.0678655566771
 30
0.0
  9
$EXTMAX
 10
1364.78162907625
 20
857.5897734496136
 30
0.0
  9
$LIMMIN
 10
0.0
 20
0.0
  9
$LIMMAX
 10
297.0
 20
210.0
  9
$ORTHOMODE
 70
     0
  9
$REGENMODE
 70
     1
  9
$FILLMODE
 70
     1
  9
$QTEXTMODE
 70
     0
  9
$MIRRTEXT
 70
     0
  9
$DRAGMODE
 70
     2
  9
$LTSCALE
 40
4.0
  9
$OSMODE
 70
    37
  9
$ATTMODE
 70
     1
  9
$TEXTSIZE
 40
2.0
  9
$TRACEWID
 40
1.0
  9
$TEXTSTYLE
  7
STANDARD
  9
$CLAYER
  8
0
  9
$CELTYPE
  6
BYLAYER
  9
$CECOLOR
 62
   256
  9
$CELTSCALE
 40
1.0
  9
$DELOBJ
 70
     1
  9
$DISPSILH
 70
     0
  9
$DIMSCALE
 40
4.0
  9
$DIMASZ
 40
1.8
  9
$DIMEXO
 40
0.625
  9
$DIMDLI
 40
3.75
  9
$DIMRND
 40
0.0
  9
$DIMDLE
 40
0.0
  9
$DIMEXE
 40
0.8
  9
$DIMTP
 40
0.0
  9
$DIMTM
 40
0.0
  9
$DIMTXT
 40
1.8
  9
$DIMCEN
 40
2.5
  9
$DIMTSZ
 40
0.0
  9
$DIMTOL
 70
     0
  9
$DIMLIM
 70
     0
  9
$DIMTIH
 70
     0
  9
$DIMTOH
 70
     0
  9
$DIMSE1
 70
     0
  9
$DIMSE2
 70
     0
  9
$DIMTAD
 70
     1
  9
$DIMZIN
 70
     8
  9
$DIMBLK
  1

  9
$DIMASO
 70
     1
  9
$DIMSHO
 70
     1
  9
$DIMPOST
  1

  9
$DIMAPOST
  1

  9
$DIMALT
 70
     0
  9
$DIMALTD
 70
     4
  9
$DIMALTF
 40
0.0394
  9
$DIMLFAC
 40
1.0
  9
$DIMTOFL
 70
     1
  9
$DIMTVP
 40
0.0
  9
$DIMTIX
 70
     0
  9
$DIMSOXD
 70
     0
  9
$DIMSAH
 70
     0
  9
$DIMBLK1
  1

  9
$DIMBLK2
  1

  9
$DIMSTYLE
  2
STANDARD
  9
$DIMCLRD
 70
     0
  9
$DIMCLRE
 70
     0
  9
$DIMCLRT
 70
     0
  9
$DIMTFAC
 40
1.0
  9
$DIMGAP
 40
0.75
  9
$DIMJUST
 70
     0
  9
$DIMSD1
 70
     0
  9
$DIMSD2
 70
     0
  9
$DIMTOLJ
 70
     1
  9
$DIMTZIN
 70
     0
  9
$DIMALTZ
 70
     0
  9
$DIMALTTZ
 70
     0
  9
$DIMFIT
 70
     3
  9
$DIMUPT
 70
     0
  9
$DIMUNIT
 70
     8
  9
$DIMDEC
 70
     2
  9
$DIMTDEC
 70
     2
  9
$DIMALTU
 70
     8
  9
$DIMALTTD
 70
     4
  9
$DIMTXSTY
  7
STANDARD
  9
$DIMAUNIT
 70
     0
  9
$LUNITS
 70
     2
  9
$LUPREC
 70
     3
  9
$SKETCHINC
 40
1.0
  9
$FILLETRAD
 40
10.0
  9
$AUNITS
 70
     0
  9
$AUPREC
 70
     2
  9
$MENU
  1
.
  9
$ELEVATION
 40
0.0
  9
$PELEVATION
 40
0.0
  9
$THICKNESS
 40
0.0
  9
$LIMCHECK
 70
     0
  9
$BLIPMODE
 70
     0
  9
$CHAMFERA
 40
0.0
  9
$CHAMFERB
 40
0.0
  9
$CHAMFERC
 40
20.0
  9
$CHAMFERD
 40
0.0
  9
$SKPOLY
 70
     0
  9
$TDCREATE
 40
2454889.454828194
  9
$TDUPDATE
 40
2454909.828167523
  9
$TDINDWG
 40
0.1156957523
  9
$TDUSRTIMER
 40
0.1156955671
  9
$USRTIMER
 70
     1
  9
$ANGBASE
 50
0.0
  9
$ANGDIR
 70
     0
  9
$PDMODE
 70
     0
  9
$PDSIZE
 40
-10.0
  9
$PLINEWID
 40
0.0
  9
$COORDS
 70
     1
  9
$SPLFRAME
 70
     0
  9
$SPLINETYPE
 70
     6
  9
$SPLINESEGS
 70
     8
  9
$ATTDIA
 70
     0
  9
$ATTREQ
 70
     1
  9
$HANDLING
 70
 22529
  9
$HANDSEED
  5
2429
  9
$SURFTAB1
 70
     6
  9
$SURFTAB2
 70
     6
  9
$SURFTYPE
 70
     6
  9
$SURFU
 70
     6
  9
$SURFV
 70
     6
  9
$UCSNAME
  2

  9
$UCSORG
 10
0.0
 20
0.0
 30
0.0
  9
$UCSXDIR
 10
1.0
 20
0.0
 30
0.0
  9
$UCSYDIR
 10
0.0
 20
1.0
 30
0.0
  9
$PUCSNAME
  2

  9
$PUCSORG
 10
0.0
 20
0.0
 30
0.0
  9
$PUCSXDIR
 10
1.0
 20
0.0
 30
0.0
  9
$PUCSYDIR
 10
0.0
 20
1.0
 30
0.0
  9
$USERI1
 70
     0
  9
$USERI2
 70
     0
  9
$USERI3
 70
     0
  9
$USERI4
 70
     0
  9
$USERI5
 70
     0
  9
$USERR1
 40
0.0
  9
$USERR2
 40
0.0
  9
$USERR3
 40
0.0
  9
$USERR4
 40
0.0
  9
$USERR5
 40
0.0
  9
$WORLDVIEW
 70
     1
  9
$SHADEDGE
 70
     3
  9
$SHADEDIF
 70
    70
  9
$TILEMODE
 70
     1
  9
$MAXACTVP
 70
    48
  9
$PINSBASE
 10
0.0
 20
0.0
 30
0.0
  9
$PLIMCHECK
 70
     0
  9
$PEXTMIN
 10
0.0
 20
0.0
 30
0.0
  9
$PEXTMAX
 10
0.0
 20
0.0
 30
0.0
  9
$PLIMMIN
 10
0.0
 20
0.0
  9
$PLIMMAX
 10
12.0
 20
9.0
  9
$UNITMODE
 70
     0
  9
$VISRETAIN
 70
     1
  9
$PLINEGEN
 70
     0
  9
$PSLTSCALE
 70
     1
  9
$TREEDEPTH
 70
  3020
  9
$PICKSTYLE
 70
     1
  9
$CMLSTYLE
  2
STANDARD
  9
$CMLJUST
 70
     0
  9
$CMLSCALE
 40
1.0
  9
$PROXYGRAPHICS
 70
     1
  9
$MEASUREMENT
 70
     0
  0
ENDSEC
  0
SECTION
  2
CLASSES
  0
CLASS
  1
DICTIONARYVAR
  2
AcDbDictionaryVar
  3
AutoCAD 2000
 90
        0
280
     0
281
     0
  0
CLASS
  1
ACDBDICTIONARYWDFLT
  2
AcDbDictionaryWithDefault
  3
AutoCAD 2000
 90
        0
280
     0
281
     0
  0
CLASS
  1
ACDBPLACEHOLDER
  2
AcDbPlaceHolder
  3
AutoCAD 2000
 90
        0
280
     0
281
     0
  0
CLASS
  1
LAYOUT
  2
AcDbLayout
  3
AutoCAD 2000
 90
        0
280
     0
281
     0
  0
CLASS
  1
MATERIAL
  2
AcDbMaterial
  3
ObjectDBX Classes
 90
     1153
280
     0
281
     0
  0
CLASS
  1
VISUALSTYLE
  2
AcDbVisualStyle
  3
ObjectDBX Classes
 90
     4095
280
     0
281
     0
  0
CLASS
  1
TABLESTYLE
  2
AcDbTableStyle
  3
ObjectDBX Classes
 90
     4095
280
     0
281
     0
  0
CLASS
  1
SCALE
  2
AcDbScale
  3
ObjectDBX Classes
 90
     1153
280
     0
281
     0
  0
CLASS
  1
MLEADERSTYLE
  2
AcDbMLeaderStyle
  3
ACDB_MLEADERSTYLE_CLASS
 90
     4095
280
     0
281
     0
  0
CLASS
  1
PLOTSETTINGS
  2
AcDbPlotSettings
  3
AutoCAD 2000
 90
        0
280
     0
281
     0
  0
CLASS
  1
CELLSTYLEMAP
  2
AcDbCellStyleMap
  3
ObjectDBX Classes
 90
     1152
280
     0
281
     0
  0
CLASS
  1
SORTENTSTABLE
  2
AcDbSortentsTable
  3
AutoCAD 2000
 90
        0
280
     0
281
     0
  0
CLASS
  1
ACAD_PROXY_OBJECT_WRAPPER
  2
AcDbProxyObjectWrapper
  3
AutoCAD 2000
 90
        0
280
     0
281
     0
  0
CLASS
  1
LONG_TRANSACTION
  2
AcDbLongTransaction
  3
AutoCAD 2000
 90
        0
280
     0
281
     0
  0
CLASS
  1
LWPOLYLINE
  2
AcDbPolyline
  3
AutoCAD 2000
 90
        0
280
     0
281
     1
  0
CLASS
  1
HATCH
  2
AcDbHatch
  3
AutoCAD 2000
 90
        0
280
     0
281
     1
  0
CLASS
  1
XRECORD
  2
AcDbXrecord
  3
AutoCAD 2000
 90
        0
280
     0
281
     0
  0
ENDSEC
  0
SECTION
  2
TABLES
  0
TABLE
  2
VPORT
  5
6E
102
{ACAD_XDICTIONARY
360
1BAE
102
}
330
0
100
AcDbSymbolTable
 70
     2
  0
VPORT
  5
2404
330
6E
100
AcDbSymbolTableRecord
100
AcDbViewportTableRecord
  2
*ACTIVE
 70
     0
 10
0.0
 20
0.0
 11
1.0
 21
1.0
 12
730.7214041745035
 22
560.0452768702391
 13
0.0
 23
0.0
 14
10.0
 24
10.0
 15
10.0
 25
10.0
 16
0.0
 26
0.0
 36
1.0
 17
0.0
 27
0.0
 37
0.0
 40
951.6195815613993
 41
1.593429158110883
 42
50.0
 43
0.0
 44
0.0
 50
0.0
 51
0.0
 71
     0
 72
   100
 73
     1
 74
     3
 75
     0
 76
     0
 77
     0
 78
     0
  0
ENDTAB
  0
TABLE
  2
LTYPE
  5
69
330
0
100
AcDbSymbolTable
 70
     7
  0
LTYPE
  5
6A
330
69
100
AcDbSymbolTableRecord
100
AcDbLinetypeTableRecord
  2
BYBLOCK
 70
     0
  3

 72
    65
 73
     0
 40
0.0
  0
LTYPE
  5
6B
330
69
100
AcDbSymbolTableRecord
100
AcDbLinetypeTableRecord
  2
BYLAYER
 70
     0
  3

 72
    65
 73
     0
 40
0.0
  0
LTYPE
  5
8
330
69
100
AcDbSymbolTableRecord
100
AcDbLinetypeTableRecord
  2
CONTINUOUS
 70
     0
  3
Solid line
 72
    65
 73
     0
 40
0.0
  0
LTYPE
  5
27C
330
69
100
AcDbSymbolTableRecord
100
AcDbLinetypeTableRecord
  2
SEKKEI_A2_
 70
     0
  3
center(A2)  ____ _ ____ _ ____ _ ____ _ ____ _ 
 72
    65
 73
     4
 40
14.28749999999999
 49
9.525
 74
     0
 49
-1.587499999999999
 74
     0
 49
1.587499999999999
 74
     0
 49
-1.587499999999999
 74
     0
  0
LTYPE
  5
2B4
330
69
100
AcDbSymbolTableRecord
100
AcDbLinetypeTableRecord
  2
HIDDEN2
 70
     0
  3
Hidden (.5x) _ _ _ _ _ _ _ _ _ _ _ _ _ _ _ _ _
 72
    65
 73
     2
 40
4.762499999999999
 49
3.174999999999999
 74
     0
 49
-1.587499999999999
 74
     0
  0
LTYPE
  5
48F
330
69
100
AcDbSymbolTableRecord
100
AcDbLinetypeTableRecord
  2
SEKKEI_H
 70
     0
  3
Hidden-S _ _ _ _ _ _ _ _ _ _ _ _ _ _ _ _ _
 72
    65
 73
     2
 40
2.381249999999999
 49
1.587499999999999
 74
     0
 49
-0.79375
 74
     0
  0
LTYPE
  5
54A
330
69
100
AcDbSymbolTableRecord
100
AcDbLinetypeTableRecord
  2
CENTERX2
 70
     0
  3
Center (2x) ________  __  ________  __  _____
 72
    65
 73
     4
 40
4.0
 49
2.5
 74
     0
 49
-0.5
 74
     0
 49
0.5
 74
     0
 49
-0.5
 74
     0
  0
ENDTAB
  0
TABLE
  2
LAYER
  5
66
102
{ACAD_XDICTIONARY
360
86B
102
}
330
0
100
AcDbSymbolTable
 70
    10
  0
LAYER
  5
5E
102
{ACAD_XDICTIONARY
360
1AF7
102
}
330
66
100
AcDbSymbolTableRecord
100
AcDbLayerTableRecord
  2
0
 70
     0
 62
     7
  6
CONTINUOUS
  0
LAYER
  5
3E
102
{ACAD_XDICTIONARY
360
1AF9
102
}
330
66
100
AcDbSymbolTableRecord
100
AcDbLayerTableRecord
  2
CENTER
 70
     0
 62
     3
  6
SEKKEI_A2_
  0
LAYER
  5
2B5
102
{ACAD_XDICTIONARY
360
1AFF
102
}
330
66
100
AcDbSymbolTableRecord
100
AcDbLayerTableRecord
  2
HIDS
 70
     0
 62
     1
  6
HIDDEN2
  0
LAYER
  5
2BA
102
{ACAD_XDICTIONARY
360
1B01
102
}
330
66
100
AcDbSymbolTableRecord
100
AcDbLayerTableRecord
  2
HOJO
 70
     0
 62
     4
  6
CONTINUOUS
  0
LAYER
  5
3FA
102
{ACAD_XDICTIONARY
360
1B05
102
}
330
66
100
AcDbSymbolTableRecord
100
AcDbLayerTableRecord
  2
TITLE
 70
     0
 62
     4
  6
CONTINUOUS
  0
ENDTAB
  0
TABLE
  2
STYLE
  5
67
330
0
100
AcDbSymbolTable
 70
     3
  0
STYLE
  5
16
330
67
100
AcDbSymbolTableRecord
100
AcDbTextStyleTableRecord
  2
STANDARD
 70
     0
 40
0.0
 41
1.0
 50
0.0
 71
     0
 42
2.0
  3
simplex.shx
  4
extfont.shx
  0
ENDTAB
  0
TABLE
  2
VIEW
  5
6C
330
0
100
AcDbSymbolTable
 70
     0
  0
ENDTAB
  0
TABLE
  2
UCS
  5
6D
330
0
100
AcDbSymbolTable
 70
     0
  0
ENDTAB
  0
TABLE
  2
APPID
  5
70
330
0
100
AcDbSymbolTable
 70
     7
  0
APPID
  5
71
330
70
100
AcDbSymbolTableRecord
100
AcDbRegAppTableRecord
  2
ACAD
 70
     0
  0
APPID
  5
859
330
70
100
AcDbSymbolTableRecord
100
AcDbRegAppTableRecord
  2
ACAD_MLEADERVER
 70
     0
  0
APPID
  5
866
330
70
100
AcDbSymbolTableRecord
100
AcDbRegAppTableRecord
  2
ACAD_PSEXT
 70
     0
  0
APPID
  5
12FA
330
70
100
AcDbSymbolTableRecord
100
AcDbRegAppTableRecord
  2
ACAD_EXEMPT_FROM_CAD_STANDARDS
 70
     0
  0
APPID
  5
135B
330
70
100
AcDbSymbolTableRecord
100
AcDbRegAppTableRecord
  2
ACAD_DSTYLE_DIMJAG
 70
     0
  0
APPID
  5
135C
330
70
100
AcDbSymbolTableRecord
100
AcDbRegAppTableRecord
  2
ACAD_DSTYLE_DIMTALN
 70
     0
  0
APPID
  5
150D
330
70
100
AcDbSymbolTableRecord
100
AcDbRegAppTableRecord
  2
ACAD_DSTYLE_DIMRADIAL_EXTENSION
 70
     0
  0
ENDTAB
  0
TABLE
  2
DIMSTYLE
  5
72
330
0
100
AcDbSymbolTable
 70
     1
  0
DIMSTYLE
105
73
330
72
100
AcDbSymbolTableRecord
100
AcDbDimStyleTableRecord
  2
STANDARD
 70
     0
  3

  4

  5

  6

  7

 40
4.0
 41
1.8
 42
0.625
 43
3.75
 44
0.8
 45
0.0
 46
0.0
 47
0.0
 48
0.0
140
1.8
141
2.5
142
0.0
143
0.0394
144
1.0
145
0.0
146
1.0
147
0.75
 71
     0
 72
     0
 73
     0
 74
     0
 75
     0
 76
     0
 77
     1
 78
     8
170
     0
171
     4
172
     1
173
     0
174
     0
175
     0
176
     0
177
     0
178
     0
270
     8
271
     2
272
     2
273
     8
274
     4
340
16
275
     0
280
     0
281
     0
282
     0
283
     1
284
     0
285
     0
286
     0
287
     3
288
     0
1001
ACAD_DSTYLE_DIMJAG
1070
   388
1040
1.5
1001
ACAD_DSTYLE_DIMTALN
1070
   392
1070
     0
  0
ENDTAB
  0
TABLE
  2
BLOCK_RECORD
  5
1
330
0
100
AcDbSymbolTable
 70
    49
  0
BLOCK_RECORD
  5
2
102
{ACAD_XDICTIONARY
360
1D16
102
}
330
1
100
AcDbSymbolTableRecord
100
AcDbBlockTableRecord
  2
*MODEL_SPACE
  0
BLOCK_RECORD
  5
23FF
102
{ACAD_XDICTIONARY
360
2427
102
}
330
1
100
AcDbSymbolTableRecord
100
AcDbBlockTableRecord
  2
*PAPER_SPACE
  0
ENDTAB
  0
ENDSEC
  0
SECTION
  2
BLOCKS
  0
BLOCK
  5
5D
330
2
100
AcDbEntity
  8
0
100
AcDbBlockBegin
  2
*MODEL_SPACE
 70
     0
 10
0.0
 20
0.0
 30
0.0
  3
*MODEL_SPACE
  1

  0
ENDBLK
  5
5F
330
2
100
AcDbEntity
  8
0
100
AcDbBlockEnd
  0
BLOCK
  5
2401
330
23FF
100
AcDbEntity
 67
     1
  8
0
100
AcDbBlockBegin
  2
*PAPER_SPACE
 70
     0
 10
0.0
 20
0.0
 30
0.0
  3
*PAPER_SPACE
  1

  0
ENDBLK
  5
2402
330
23FF
100
AcDbEntity
 67
     1
  8
0
100
AcDbBlockEnd
  0
ENDSEC
  0
SECTION
  2
ENTITIES
  0
LINE
  5
C23
330
2
100
AcDbEntity
  8
CENTER
100
AcDbLine
 10
1002.09469356032
 20
385.0678655566771
 30
0.0
 11
694.5946935603205
 21
385.0678655566771
 31
0.0
  0
LINE
  5
C24
330
2
100
AcDbEntity
  8
0
100
AcDbLine
 10
886.5946935603153
 20
335.5678655566773
 30
0.0
 11
884.0946935603154
 21
335.5678655566773
 31
0.0
  0
LINE
  5
C25
330
2
100
AcDbEntity
  8
0
100
AcDbLine
 10
886.5946935603153
 20
434.5678655566773
 30
0.0
 11
884.0946935603154
 21
434.5678655566773
 31
0.0
  0
ARC
  5
C26
330
2
100
AcDbEntity
  8
0
100
AcDbCircle
 10
886.5946935603153
 20
439.5678655566773
 30
0.0
 40
5.0
100
AcDbArc
 50
270.0
 51
0.0
  0
LINE
  5
C27
330
2
100
AcDbEntity
  8
0
100
AcDbLine
 10
850.0946935603172
 20
388.0678655566773
 30
0.0
 11
878.0946935603154
 21
388.0678655566773
 31
0.0
  0
ARC
  5
C28
330
2
100
AcDbEntity
  8
0
100
AcDbCircle
 10
878.0946935603154
 20
391.0678655566775
 30
0.0
 40
3.0
100
AcDbArc
 50
270.0
 51
0.0
  0
LINE
  5
C29
330
2
100
AcDbEntity
  8
0
100
AcDbLine
 10
881.0946935603153
 20
338.5678655566773
 30
0.0
 11
881.0946935603153
 21
431.5678655566773
 31
0.0
  0
ARC
  5
C2A
330
2
100
AcDbEntity
  8
0
100
AcDbCircle
 10
884.0946935603154
 20
338.5678655566773
 30
0.0
 40
3.0
100
AcDbArc
 50
180.0
 51
270.0
  0
ARC
  5
C2B
330
2
100
AcDbEntity
  8
0
100
AcDbCircle
 10
884.0946935603154
 20
431.5678655566773
 30
0.0
 40
3.0
100
AcDbArc
 50
90.0
 51
180.0
  0
LINE
  5
C2C
330
2
100
AcDbEntity
  8
0
100
AcDbLine
 10
891.5946935603153
 20
326.567865556677
 30
0.0
 11
891.5946935603153
 21
443.5678655566773
 31
0.0
  0
ARC
  5
C2D
330
2
100
AcDbEntity
  8
0
100
AcDbCircle
 10
893.5946935603153
 20
327.0678655566773
 30
0.0
 40
2.0
100
AcDbArc
 50
180.0
 51
270.0
  0
ARC
  5
C2E
330
2
100
AcDbEntity
  8
0
100
AcDbCircle
 10
893.5946935603153
 20
443.0678655566773
 30
0.0
 40
2.0
100
AcDbArc
 50
90.0
 51
180.0
  0
LINE
  5
C2F
330
2
100
AcDbEntity
  8
0
100
AcDbLine
 10
850.0946935603172
 20
382.0678655566771
 30
0.0
 11
878.0946935603154
 21
382.0678655566769
 31
0.0
  0
ARC
  5
C30
330
2
100
AcDbEntity
  8
0
100
AcDbCircle
 10
878.0946935603154
 20
379.0678655566771
 30
0.0
 40
3.0
100
AcDbArc
 50
0.0
 51
90.0
  0
CIRCLE
  5
C31
330
2
100
AcDbEntity
  8
HOJO
100
AcDbCircle
 10
723.0261510653938
 20
328.4993230617535
 30
0.0
 40
5.0
  0
CIRCLE
  5
C32
330
2
100
AcDbEntity
  8
0
100
AcDbCircle
 10
723.0261510653938
 20
328.4993230617535
 30
0.0
 40
4.0
  0
CIRCLE
  5
C33
330
2
100
AcDbEntity
  8
HOJO
100
AcDbCircle
 10
723.0261510653938
 20
441.6364080516011
 30
0.0
 40
5.0
  0
CIRCLE
  5
C34
330
2
100
AcDbEntity
  8
0
100
AcDbCircle
 10
723.0261510653938
 20
441.6364080516011
 30
0.0
 40
4.0
  0
ARC
  5
C35
330
2
100
AcDbEntity
  8
0
100
AcDbCircle
 10
850.0946935603117
 20
353.0678655566773
 30
0.0
 40
3.0
100
AcDbArc
 50
90.0
 51
179.9999999999869
  0
LINE
  5
C37
330
2
100
AcDbEntity
  8
0
100
AcDbLine
 10
772.4529228105514
 20
329.5678655543202
 30
0.0
 11
775.3329240518835
 21
329.5678655543197
 31
0.0
  0
LINE
  5
C38
330
2
100
AcDbEntity
  8
0
100
AcDbLine
 10
776.4529228105568
 20
337.5678655543315
 30
0.0
 11
772.4529228105514
 21
329.5678655543202
 31
0.0
  0
ARC
  5
C39
330
2
100
AcDbEntity
  8
0
100
AcDbCircle
 10
782.9229228105671
 20
334.6778655543271
 30
0.0
 40
0.1700000000002474
100
AcDbArc
 50
270.0
 51
90.0
  0
LINE
  5
C3A
330
2
100
AcDbEntity
  8
0
100
AcDbLine
 10
780.7129228105625
 20
334.5078655543265
 30
0.0
 11
782.9229228105671
 21
334.5078655543265
 31
0.0
  0
LINE
  5
C3B
330
2
100
AcDbEntity
  8
0
100
AcDbLine
 10
780.3728500505624
 20
334.8478655543276
 30
0.0
 11
782.9229228105653
 21
334.8478655543276
 31
0.0
  0
LINE
  5
C3C
330
2
100
AcDbEntity
  8
0
100
AcDbLine
 10
776.4529228105568
 20
337.5678655543315
 30
0.0
 11
783.0928500505672
 21
337.5678655543315
 31
0.0
  0
LINE
  5
C3D
330
2
100
AcDbEntity
  8
0
100
AcDbLine
 10
775.9329240518838
 20
330.7678655543218
 30
0.0
 11
777.972922810559
 21
330.7678655543213
 31
0.0
  0
LINE
  5
C3E
330
2
100
AcDbEntity
  8
0
100
AcDbLine
 10
775.9329240518838
 20
330.7678655543218
 30
0.0
 11
775.3329240518835
 21
329.5678655543197
 31
0.0
  0
LINE
  5
C3F
330
2
100
AcDbEntity
  8
0
100
AcDbLine
 10
783.8564630687508
 20
329.5678655543197
 30
0.0
 11
786.7364643100811
 21
329.5678655543202
 31
0.0
  0
LINE
  5
C40
330
2
100
AcDbEntity
  8
0
100
AcDbLine
 10
784.7493954302265
 20
332.690492752712
 30
0.0
 11
786.7364643100811
 21
329.5678655543202
 31
0.0
  0
LINE
  5
C41
330
2
100
AcDbEntity
  8
0
100
AcDbLine
 10
777.972922810559
 20
329.5678655543197
 30
0.0
 11
780.3728500505624
 21
329.5678655543192
 31
0.0
  0
LINE
  5
C42
330
2
100
AcDbEntity
  8
0
100
AcDbLine
 10
777.2129240518864
 20
333.3278655543244
 30
0.0
 11
777.972922810559
 21
333.3278655543249
 31
0.0
  0
LINE
  5
C43
330
2
100
AcDbEntity
  8
0
100
AcDbLine
 10
777.972922810559
 20
330.7678655543213
 30
0.0
 11
777.972922810559
 21
329.5678655543197
 31
0.0
  0
ARC
  5
C44
330
2
100
AcDbEntity
  8
0
100
AcDbCircle
 10
783.0928500505672
 20
334.8478655543272
 30
0.0
 40
2.720000000003957
100
AcDbArc
 50
307.5189678668049
 51
90.0
  0
LINE
  5
C45
330
2
100
AcDbEntity
  8
0
100
AcDbLine
 10
780.7129228105625
 20
334.5078655543265
 30
0.0
 11
783.8564630687508
 21
329.5678655543197
 31
0.0
  0
LINE
  5
C46
330
2
100
AcDbEntity
  8
0
100
AcDbLine
 10
777.972922810559
 20
334.8478630716708
 30
0.0
 11
777.2129240518864
 21
333.3278655543244
 31
0.0
  0
LINE
  5
C47
330
2
100
AcDbEntity
  8
0
100
AcDbLine
 10
777.972922810559
 20
334.8478630716708
 30
0.0
 11
777.972922810559
 21
333.3278655543249
 31
0.0
  0
LINE
  5
C48
330
2
100
AcDbEntity
  8
0
100
AcDbLine
 10
780.3728500505624
 20
334.8478655543276
 30
0.0
 11
780.3728500505624
 21
329.5678655543192
 31
0.0
  0
CIRCLE
  5
C49
330
2
100
AcDbEntity
  8
HOJO
100
AcDbCircle
 10
836.1632360552414
 20
328.4993230617538
 30
0.0
 40
5.0
  0
CIRCLE
  5
C4A
330
2
100
AcDbEntity
  8
0
100
AcDbCircle
 10
836.1632360552414
 20
328.4993230617538
 30
0.0
 40
4.0
  0
CIRCLE
  5
C4B
330
2
100
AcDbEntity
  8
HOJO
100
AcDbCircle
 10
836.1632360552414
 20
441.6364080516011
 30
0.0
 40
5.0
  0
CIRCLE
  5
C4C
330
2
100
AcDbEntity
  8
0
100
AcDbCircle
 10
836.1632360552414
 20
441.6364080516011
 30
0.0
 40
4.0
  0
ARC
  5
C4D
330
2
100
AcDbEntity
  8
0
100
AcDbCircle
 10
886.5946935603153
 20
330.5678655566773
 30
0.0
 40
5.0
100
AcDbArc
 50
0.0
 51
90.0
  0
ARC
  5
C4E
330
2
100
AcDbEntity
  8
0
100
AcDbCircle
 10
850.0946935603172
 20
391.0678655566775
 30
0.0
 40
3.0
100
AcDbArc
 50
180.0
 51
270.0
  0
ARC
  5
C4F
330
2
100
AcDbEntity
  8
0
100
AcDbCircle
 10
850.0946935603172
 20
379.0678655566771
 30
0.0
 40
3.0
100
AcDbArc
 50
90.0
 51
180.0
  0
LINE
  5
C50
330
2
100
AcDbEntity
  8
0
100
AcDbLine
 10
893.5946935603153
 20
325.0678655566773
 30
0.0
 11
907.5946935603218
 21
325.0678655566772
 31
0.0
  0
LINE
  5
C51
330
2
100
AcDbEntity
  8
0
100
AcDbLine
 10
893.5946935603153
 20
445.0678655566771
 30
0.0
 11
907.5946935603218
 21
445.0678655566769
 31
0.0
  0
LINE
  5
C52
330
2
100
AcDbEntity
  8
0
100
AcDbLine
 10
907.5946935603218
 20
445.5678655566773
 30
0.0
 11
907.5946935603218
 21
324.567865556677
 31
0.0
  0
LINE
  5
C53
330
2
100
AcDbEntity
  8
0
100
AcDbLine
 10
873.0946935603153
 20
351.0678655566775
 30
0.0
 11
871.0946935603153
 21
351.0678655566775
 31
0.0
  0
ARC
  5
C54
330
2
100
AcDbEntity
  8
0
100
AcDbCircle
 10
873.0946935603153
 20
343.0678655566775
 30
0.0
 40
8.0
100
AcDbArc
 50
0.0
 51
90.0
  0
ARC
  5
C55
330
2
100
AcDbEntity
  8
0
100
AcDbCircle
 10
878.8641278225608
 20
434.5074543141449
 30
0.0
 40
3.0
100
AcDbArc
 50
259.9999999999948
 51
330.6639232880123
  0
ARC
  5
C56
330
2
100
AcDbEntity
  8
0
100
AcDbCircle
 10
878.8641278225608
 20
335.6282767992102
 30
0.0
 40
3.0
100
AcDbArc
 50
29.33607671198765
 51
99.99999999995232
  0
ARC
  5
C57
330
2
100
AcDbEntity
  8
0
100
AcDbCircle
 10
850.0946935603108
 20
330.5554493190566
 30
0.0
 40
3.0
100
AcDbArc
 50
100.0000000000051
 51
180.000000000013
  0
LINE
  5
C58
330
2
100
AcDbEntity
  8
0
100
AcDbLine
 10
873.0946935603153
 20
419.0678655566776
 30
0.0
 11
871.0946935603162
 21
419.0678655566776
 31
0.0
  0
ARC
  5
C59
330
2
100
AcDbEntity
  8
0
100
AcDbCircle
 10
873.0946935603153
 20
427.0678655566776
 30
0.0
 40
8.0
100
AcDbArc
 50
270.0
 51
0.0
  0
LINE
  5
C5A
330
2
100
AcDbEntity
  8
0
100
AcDbLine
 10
878.3431832895614
 20
338.5827000582469
 30
0.0
 11
849.5737490273096
 21
333.5098725780933
 31
0.0
  0
LINE
  5
C5B
330
2
100
AcDbEntity
  8
0
100
AcDbLine
 10
878.3431832895596
 20
431.5530310551085
 30
0.0
 11
849.5737490272761
 21
436.625858535268
 31
0.0
  0
ARC
  5
C5C
330
2
100
AcDbEntity
  8
0
100
AcDbCircle
 10
850.0946935602771
 20
439.5802817943044
 30
0.0
 40
3.0
100
AcDbArc
 50
180.000000000013
 51
259.9999999999948
  0
LINE
  5
C5D
330
2
100
AcDbEntity
  8
0
100
AcDbLine
 10
873.0946935603153
 20
419.0678655566776
 30
0.0
 11
871.0946935603162
 21
419.0678655566777
 31
0.0
  0
LINE
  5
C5E
330
2
100
AcDbEntity
  8
0
100
AcDbLine
 10
868.0946935603198
 20
416.067865556678
 30
0.0
 11
868.094693560319
 21
391.0678655566771
 31
0.0
  0
ARC
  5
C5F
330
2
100
AcDbEntity
  8
0
100
AcDbCircle
 10
865.094693560319
 20
391.0678655566773
 30
0.0
 40
3.0
100
AcDbArc
 50
270.0
 51
359.9999999999869
  0
LINE
  5
C60
330
2
100
AcDbEntity
  8
0
100
AcDbLine
 10
868.0946935603154
 20
379.0678655566771
 30
0.0
 11
868.0946935603154
 21
354.0678655566775
 31
0.0
  0
ARC
  5
C61
330
2
100
AcDbEntity
  8
0
100
AcDbCircle
 10
865.0946935603153
 20
379.0678655566771
 30
0.0
 40
3.0
100
AcDbArc
 50
359.9999999999869
 51
90.0
  0
ARC
  5
C62
330
2
100
AcDbEntity
  8
0
100
AcDbCircle
 10
871.0946935603153
 20
354.0678655566773
 30
0.0
 40
3.0
100
AcDbArc
 50
179.9999999999869
 51
270.0
  0
ARC
  5
C63
330
2
100
AcDbEntity
  8
0
100
AcDbCircle
 10
865.1786137772162
 20
353.0678655566771
 30
0.0
 40
3.0
100
AcDbArc
 50
9.594068226868955
 51
90.0
  0
ARC
  5
C64
330
2
100
AcDbEntity
  8
0
100
AcDbCircle
 10
871.0946935603162
 20
416.0678655566778
 30
0.0
 40
3.0
100
AcDbArc
 50
90.0
 51
179.9999999999869
  0
ARC
  5
C65
330
2
100
AcDbEntity
  8
0
100
AcDbCircle
 10
865.1786137772162
 20
417.0678655566771
 30
0.0
 40
3.0
100
AcDbArc
 50
270.0
 51
350.4059317731516
  0
LINE
  5
C66
330
2
100
AcDbEntity
  8
0
100
AcDbLine
 10
865.1786137772162
 20
356.0678655566771
 30
0.0
 11
850.0946935603117
 21
356.0678655566773
 31
0.0
  0
LINE
  5
C67
330
2
100
AcDbEntity
  8
0
100
AcDbLine
 10
865.1786137772162
 20
414.0678655566771
 30
0.0
 11
850.0946935603163
 21
414.0678655566771
 31
0.0
  0
ARC
  5
C68
330
2
100
AcDbEntity
  8
0
100
AcDbCircle
 10
850.0946935603163
 20
417.0678655566771
 30
0.0
 40
3.0
100
AcDbArc
 50
180.0
 51
270.0
  0
ARC
  5
C69
330
2
100
AcDbEntity
  8
0
100
AcDbCircle
 10
779.5946935603171
 20
112.5678655566773
 30
0.0
 40
340.0
100
AcDbArc
 50
85.85748119726867
 51
94.14251880273132
  0
ARC
  5
C6A
330
2
100
AcDbEntity
  8
0
100
AcDbCircle
 10
722.0946935603181
 20
442.5678655566773
 30
0.0
 40
10.0
100
AcDbArc
 50
90.0
 51
180.0
  0
LINE
  5
C6B
330
2
100
AcDbEntity
  8
0
100
AcDbLine
 10
722.0946935603181
 20
452.5678655566773
 30
0.0
 11
732.094693560318
 21
452.5678655566773
 31
0.0
  0
ARC
  5
C6C
330
2
100
AcDbEntity
  8
0
100
AcDbCircle
 10
732.094693560318
 20
444.5678655566773
 30
0.0
 40
8.0
100
AcDbArc
 50
81.63298947741271
 51
90.0
  0
ARC
  5
C6D
330
2
100
AcDbEntity
  8
0
100
AcDbCircle
 10
837.0946935603171
 20
442.5678655566773
 30
0.0
 40
10.0
100
AcDbArc
 50
0.0
 51
90.0
  0
ARC
  5
C6E
330
2
100
AcDbEntity
  8
0
100
AcDbCircle
 10
747.8101414193945
 20
551.4183437895272
 30
0.0
 40
100.0
100
AcDbArc
 50
261.6329894774127
 51
274.1425188027313
  0
LINE
  5
C6F
330
2
100
AcDbEntity
  8
0
100
AcDbLine
 10
712.0946935603171
 20
442.5678655566771
 30
0.0
 11
712.0946935603171
 21
432.5678655566771
 31
0.0
  0
ARC
  5
C70
330
2
100
AcDbEntity
  8
0
100
AcDbCircle
 10
720.0946935603171
 20
432.5678655566771
 30
0.0
 40
8.0
100
AcDbArc
 50
180.0
 51
188.3670105225864
  0
ARC
  5
C71
330
2
100
AcDbEntity
  8
0
100
AcDbCircle
 10
613.2442153274671
 20
416.8524176976006
 30
0.0
 40
100.0
100
AcDbArc
 50
355.857481197267
 51
8.36701052258649
  0
ARC
  5
C72
330
2
100
AcDbEntity
  8
0
100
AcDbCircle
 10
827.0946935603172
 20
444.5678655566773
 30
0.0
 40
8.0
100
AcDbArc
 50
90.0
 51
98.3670105225873
  0
ARC
  5
C73
330
2
100
AcDbEntity
  8
0
100
AcDbCircle
 10
811.3792457012406
 20
551.4183437895272
 30
0.0
 40
100.0
100
AcDbArc
 50
265.8574811972686
 51
278.3670105225872
  0
LINE
  5
C74
330
2
100
AcDbEntity
  8
0
100
AcDbLine
 10
837.0946935603171
 20
452.5678655566773
 30
0.0
 11
827.0946935603172
 21
452.5678655566773
 31
0.0
  0
ARC
  5
C75
330
2
100
AcDbEntity
  8
0
100
AcDbCircle
 10
722.0946935603181
 20
327.5678655566773
 30
0.0
 40
10.0
100
AcDbArc
 50
180.0
 51
270.0
  0
LINE
  5
C76
330
2
100
AcDbEntity
  8
0
100
AcDbLine
 10
722.0946935603181
 20
317.5678655566773
 30
0.0
 11
732.094693560318
 21
317.5678655566773
 31
0.0
  0
ARC
  5
C77
330
2
100
AcDbEntity
  8
0
100
AcDbCircle
 10
732.094693560318
 20
325.5678655566773
 30
0.0
 40
8.0
100
AcDbArc
 50
270.0
 51
278.3670105225872
  0
ARC
  5
C78
330
2
100
AcDbEntity
  8
0
100
AcDbCircle
 10
837.0946935603171
 20
327.5678655566773
 30
0.0
 40
10.0
100
AcDbArc
 50
270.0
 51
0.0
  0
ARC
  5
C79
330
2
100
AcDbEntity
  8
0
100
AcDbCircle
 10
747.8101414193945
 20
218.7173873238275
 30
0.0
 40
100.0
100
AcDbArc
 50
85.85748119726867
 51
98.3670105225873
  0
LINE
  5
C7A
330
2
100
AcDbEntity
  8
0
100
AcDbLine
 10
712.0946935603171
 20
327.5678655566776
 30
0.0
 11
712.0946935603171
 21
337.5678655566776
 31
0.0
  0
ARC
  5
C7B
330
2
100
AcDbEntity
  8
0
100
AcDbCircle
 10
720.0946935603171
 20
337.5678655566776
 30
0.0
 40
8.0
100
AcDbArc
 50
171.6329894774135
 51
180.0
  0
ARC
  5
C7C
330
2
100
AcDbEntity
  8
0
100
AcDbCircle
 10
613.2442153274671
 20
353.283313415754
 30
0.0
 40
100.0
100
AcDbArc
 50
351.6329894773889
 51
4.142518802733023
  0
ARC
  5
C7D
330
2
100
AcDbEntity
  8
0
100
AcDbCircle
 10
827.0946935603172
 20
325.5678655566773
 30
0.0
 40
8.0
100
AcDbArc
 50
261.6329894774127
 51
270.0
  0
ARC
  5
C7E
330
2
100
AcDbEntity
  8
0
100
AcDbCircle
 10
811.3792457012406
 20
218.7173873238275
 30
0.0
 40
100.0
100
AcDbArc
 50
81.63298947741271
 51
94.14251880273132
  0
LINE
  5
C7F
330
2
100
AcDbEntity
  8
0
100
AcDbLine
 10
847.0946935603171
 20
327.5678655566776
 30
0.0
 11
847.0946935603171
 21
442.5678655566773
 31
0.0
  0
LINE
  5
C80
330
2
100
AcDbEntity
  8
0
100
AcDbLine
 10
837.0946935603171
 20
317.5678655566773
 30
0.0
 11
827.0946935603172
 21
317.5678655566773
 31
0.0
  0
ARC
  5
C81
330
2
100
AcDbEntity
  8
0
100
AcDbCircle
 10
779.5946935603171
 20
657.5678655566774
 30
0.0
 40
340.0
100
AcDbArc
 50
265.8574811972686
 51
274.1425188027313
  0
ARC
  5
C82
330
2
100
AcDbEntity
  8
0
100
AcDbCircle
 10
1052.094693560317
 20
385.0678655566773
 30
0.0
 40
340.0
100
AcDbArc
 50
175.85748119728
 51
184.1425188027068
  0
CIRCLE
  5
C83
330
2
100
AcDbEntity
  8
0
100
AcDbCircle
 10
779.5946935603167
 20
385.0678655566773
 30
0.0
 40
35.99999999999954
  0
CIRCLE
  5
C84
330
2
100
AcDbEntity
  8
0
100
AcDbCircle
 10
779.5946935603167
 20
385.0678655566773
 30
0.0
 40
36.57735026918968
  0
CIRCLE
  5
C85
330
2
100
AcDbEntity
  8
0
100
AcDbCircle
 10
779.5946935603167
 20
385.0678655566773
 30
0.0
 40
43.49999999999954
  0
CIRCLE
  5
C86
330
2
100
AcDbEntity
  8
0
100
AcDbCircle
 10
779.5946935603167
 20
385.0678655566773
 30
0.0
 40
60.00000000000046
  0
LINE
  5
C87
330
2
100
AcDbEntity
  8
CENTER
100
AcDbLine
 10
836.1632360552418
 20
452.5678655566773
 30
0.0
 11
836.1632360552418
 21
430.7049505465199
 31
0.0
  0
LINE
  5
C88
330
2
100
AcDbEntity
  8
CENTER
100
AcDbLine
 10
825.2317785501615
 20
441.6364080515986
 30
0.0
 11
847.0946935603185
 21
441.6364080515986
 31
0.0
  0
LINE
  5
C89
330
2
100
AcDbEntity
  8
CENTER
100
AcDbLine
 10
723.0261510653924
 20
452.5678655566773
 30
0.0
 11
723.026151065392
 21
430.7049505465215
 31
0.0
  0
LINE
  5
C8A
330
2
100
AcDbEntity
  8
CENTER
100
AcDbLine
 10
733.9576085704736
 20
441.6364080515994
 30
0.0
 11
712.0946935603176
 21
441.6364080515995
 31
0.0
  0
LINE
  5
C8B
330
2
100
AcDbEntity
  8
CENTER
100
AcDbLine
 10
836.1632360552418
 20
317.5678655566773
 30
0.0
 11
836.1632360552418
 21
339.4307805668302
 31
0.0
  0
LINE
  5
C8C
330
2
100
AcDbEntity
  8
CENTER
100
AcDbLine
 10
825.2317785501652
 20
328.4993230617555
 30
0.0
 11
847.0946935603176
 21
328.4993230617553
 31
0.0
  0
LINE
  5
C8D
330
2
100
AcDbEntity
  8
CENTER
100
AcDbLine
 10
723.026151065392
 20
317.5678655566773
 30
0.0
 11
723.026151065392
 21
339.4307805668316
 31
0.0
  0
LINE
  5
C8E
330
2
100
AcDbEntity
  8
CENTER
100
AcDbLine
 10
733.9576085704691
 20
328.499323061755
 30
0.0
 11
712.0946935603149
 21
328.4993230617549
 31
0.0
  0
CIRCLE
  5
C8F
330
2
100
AcDbEntity
  8
CENTER
100
AcDbCircle
 10
779.5946935603167
 20
385.0678655566773
 30
0.0
 40
79.9999999999992
  0
LINE
  5
C90
330
2
100
AcDbEntity
  8
CENTER
100
AcDbLine
 10
716.3982956312331
 20
385.0678655566773
 30
0.0
 11
732.7910914894003
 21
385.0678655566773
 31
0.0
  0
LINE
  5
C91
330
2
100
AcDbEntity
  8
CENTER
100
AcDbLine
 10
851.4875382176704
 20
456.9607102140285
 30
0.0
 11
707.701848902963
 21
313.1750208993261
 31
0.0
  0
LINE
  5
C92
330
2
100
AcDbEntity
  8
CENTER
100
AcDbLine
 10
707.7018489029649
 20
456.9607102140304
 30
0.0
 11
851.4875382176684
 21
313.1750208993242
 31
0.0
  0
LINE
  5
C93
330
2
100
AcDbEntity
  8
0
 48
0.5
100
AcDbLine
 10
712.0990569942129
 20
822.5897734496143
 30
0.0
 11
712.9891975088683
 21
720.5897734496239
 31
0.0
  0
LINE
  5
C94
330
2
100
AcDbEntity
  8
CENTER
100
AcDbLine
 10
779.5946935603167
 20
857.5897734496136
 30
0.0
 11
779.5946935603167
 21
634.5897734496221
 31
0.0
  0
LINE
  5
C95
330
2
100
AcDbEntity
  8
0
100
AcDbLine
 10
827.1077865211015
 20
822.5897734496207
 30
0.0
 11
827.9987933219679
 21
788.5635965013145
 31
0.0
  0
LINE
  5
C96
330
2
100
AcDbEntity
  8
0
100
AcDbLine
 10
719.5946935603158
 20
715.5897734496207
 30
0.0
 11
839.5946935603166
 21
715.5897734496222
 31
0.0
  0
LINE
  5
C97
330
2
100
AcDbEntity
  8
CENTER
100
AcDbLine
 10
702.4041165830315
 20
787.5897734496224
 30
0.0
 11
1002.09469356032
 21
787.5897734496224
 31
0.0
  0
LINE
  5
C98
330
2
100
AcDbEntity
  8
0
100
AcDbLine
 10
846.4794493810689
 20
822.5897734496218
 30
0.0
 11
712.0946935603176
 21
822.5897734496143
 31
0.0
  0
LINE
  5
C99
330
2
100
AcDbEntity
  8
0
100
AcDbLine
 10
879.7984904426591
 20
787.5897734496224
 30
0.0
 11
881.0181921981545
 21
834.1683042945453
 31
0.0
  0
ARC
  5
C9A
330
2
100
AcDbEntity
  8
0
100
AcDbCircle
 10
876.9545775945996
 20
793.5897734496229
 30
0.0
 40
3.0
100
AcDbArc
 50
270.0
 51
358.5000000000103
  0
LINE
  5
C9B
330
2
100
AcDbEntity
  8
0
100
AcDbLine
 10
872.8955568086218
 20
821.5897734496225
 30
0.0
 11
871.0171641730809
 21
821.5897734496222
 31
0.0
  0
ARC
  5
C9C
330
2
100
AcDbEntity
  8
0
100
AcDbCircle
 10
872.8955568086218
 20
829.5897734496225
 30
0.0
 40
8.0
100
AcDbArc
 50
270.0
 51
358.5000000000103
  0
LINE
  5
C9D
330
2
100
AcDbEntity
  8
0
100
AcDbLine
 10
886.4489570292359
 20
738.0897734496222
 30
0.0
 11
884.0171421730817
 21
738.0897734496228
 31
0.0
  0
ARC
  5
C9E
330
2
100
AcDbEntity
  8
0
100
AcDbCircle
 10
886.4489570292342
 20
733.0897734496221
 30
0.0
 40
5.0
100
AcDbArc
 50
1.500000000015752
 51
89.99999999994789
  0
ARC
  5
C9F
330
2
100
AcDbEntity
  8
0
100
AcDbCircle
 10
884.0171421730827
 20
741.0897734496228
 30
0.0
 40
3.0
100
AcDbArc
 50
181.5000000000418
 51
270.0
  0
LINE
  5
CA0
330
2
100
AcDbEntity
  8
0
100
AcDbLine
 10
872.895534808619
 20
753.5897734496221
 30
0.0
 11
871.0171641730809
 21
753.5897734496221
 31
0.0
  0
LINE
  5
CA1
330
2
100
AcDbEntity
  8
0
100
AcDbLine
 10
881.0181701981562
 20
741.0112426046979
 30
0.0
 11
879.798468442607
 21
787.5897734496223
 31
0.0
  0
ARC
  5
CA2
330
2
100
AcDbEntity
  8
0
100
AcDbCircle
 10
872.895534808619
 20
745.5897734496221
 30
0.0
 40
8.0
100
AcDbArc
 50
1.500000000054848
 51
90.0
  0
LINE
  5
CA3
330
2
100
AcDbEntity
  8
0
 48
0.3
100
AcDbLine
 10
893.5430073021604
 20
847.5897734496223
 30
0.0
 11
907.5946935603212
 21
847.5897734496223
 31
0.0
  0
ARC
  5
CA4
330
2
100
AcDbEntity
  8
0
 48
0.5
100
AcDbCircle
 10
893.5430073021604
 20
845.5897734496225
 30
0.0
 40
2.0
100
AcDbArc
 50
90.0
 51
178.4999999999972
  0
LINE
  5
CA5
330
2
100
AcDbEntity
  8
0
100
AcDbLine
 10
891.5436926522104
 20
845.6421273462375
 30
0.0
 11
890.0235382661611
 21
787.5897734496224
 31
0.0
  0
ARC
  5
CA6
330
2
100
AcDbEntity
  8
0
100
AcDbCircle
 10
886.4489570292333
 20
842.0897734496216
 30
0.0
 40
5.0
100
AcDbArc
 50
270.0
 51
358.5000000000103
  0
LINE
  5
CA7
330
2
100
AcDbEntity
  8
0
100
AcDbLine
 10
884.017164173081
 20
837.0897734496216
 30
0.0
 11
886.4489570292333
 21
837.0897734496216
 31
0.0
  0
ARC
  5
CA8
330
2
100
AcDbEntity
  8
0
100
AcDbCircle
 10
884.017164173081
 20
834.0897734496216
 30
0.0
 40
3.0
100
AcDbArc
 50
90.0
 51
178.4999999999972
  0
LINE
  5
CA9
330
2
100
AcDbEntity
  8
0
 48
0.5
100
AcDbLine
 10
846.505858450403
 20
755.6159530561171
 30
0.0
 11
846.4449226865124
 21
748.6334061271133
 31
0.0
  0
ARC
  5
CAA
330
2
100
AcDbEntity
  8
0
 48
0.5
100
AcDbCircle
 10
849.5057442195955
 20
755.5897734496227
 30
0.0
 40
3.0
100
AcDbArc
 50
90.0
 51
179.5000000000084
  0
ARC
  5
CAB
330
2
100
AcDbEntity
  8
0
 48
0.5
100
AcDbCircle
 10
849.7326427821496
 20
781.5897734496225
 30
0.0
 40
3.0
100
AcDbArc
 50
90.0
 51
179.5000000000084
  0
LINE
  5
CAC
330
2
100
AcDbEntity
  8
0
 48
0.5
100
AcDbLine
 10
846.7848897537376
 20
787.5897734496227
 30
0.0
 11
846.2001896117651
 21
720.5897734496293
 31
0.0
  0
LINE
  5
CAD
330
2
100
AcDbEntity
  8
0
 48
0.5
100
AcDbLine
 10
846.7848897537495
 20
787.5897734496224
 30
0.0
 11
846.4794493810693
 21
822.5897734496218
 31
0.0
  0
LINE
  5
CAE
330
2
100
AcDbEntity
  8
0
 48
0.3
100
AcDbLine
 10
893.5430073021604
 20
727.5897734496226
 30
0.0
 11
907.5946935603212
 21
727.5897734496225
 31
0.0
  0
ARC
  5
CAF
330
2
100
AcDbEntity
  8
0
 48
0.5
100
AcDbCircle
 10
893.5430073021604
 20
729.5897734496223
 30
0.0
 40
2.0
100
AcDbArc
 50
181.5000000000157
 51
270.0
  0
LINE
  5
CB0
330
2
100
AcDbEntity
  8
0
100
AcDbLine
 10
891.5436926522104
 20
729.5374195530074
 30
0.0
 11
890.0235382661746
 21
787.5897734496224
 31
0.0
  0
LINE
  5
CB1
330
2
100
AcDbEntity
  8
0
100
AcDbLine
 10
907.5946935603168
 20
727.5897734496225
 30
0.0
 11
907.5946935603168
 21
847.5897734496225
 31
0.0
  0
LINE
  5
CB2
330
2
100
AcDbEntity
  8
0
100
AcDbLine
 10
712.9891975088683
 20
720.5897734496239
 30
0.0
 11
846.2001896117651
 21
720.5897734496296
 31
0.0
  0
LINE
  5
CB3
330
2
100
AcDbEntity
  8
0
100
AcDbLine
 10
849.7326427821587
 20
790.5897734496227
 30
0.0
 11
876.9545775945996
 21
790.5897734496234
 31
0.0
  0
ARC
  5
CB4
330
2
100
AcDbEntity
  8
0
100
AcDbCircle
 10
864.3604593789085
 20
793.5897734496229
 30
0.0
 40
3.0
100
AcDbArc
 50
270.0
 51
358.4999999999972
  0
ARC
  5
CB5
330
2
100
AcDbEntity
  8
0
100
AcDbCircle
 10
849.7326427821587
 20
793.5897734496227
 30
0.0
 40
3.0
100
AcDbArc
 50
180.5000000000045
 51
270.0
  0
LINE
  5
CB6
330
2
100
AcDbEntity
  8
0
100
AcDbLine
 10
849.7326427821496
 20
784.5897734496225
 30
0.0
 11
876.9545555945549
 21
784.5897734496218
 31
0.0
  0
ARC
  5
CB7
330
2
100
AcDbEntity
  8
0
100
AcDbCircle
 10
876.9545555945549
 20
781.5897734496222
 30
0.0
 40
3.0
100
AcDbArc
 50
1.500000000041816
 51
90.0
  0
LINE
  5
CB8
330
2
100
AcDbEntity
  8
0
100
AcDbLine
 10
828.9984506469433
 20
787.5897734496224
 30
0.0
 11
907.5946935603168
 21
787.5897734496224
 31
0.0
  0
ARC
  5
CB9
330
2
100
AcDbEntity
  8
0
100
AcDbCircle
 10
828.9984506469433
 20
788.5897734496225
 30
0.0
 40
1.0
100
AcDbArc
 50
181.5000000000027
 51
270.0
  0
LINE
  5
CBA
330
2
100
AcDbEntity
  8
0
100
AcDbLine
 10
722.0946935603181
 20
822.5897734496175
 30
0.0
 11
722.0946935603167
 21
722.0897734496239
 31
0.0
  0
LINE
  5
CBB
330
2
100
AcDbEntity
  8
0
100
AcDbLine
 10
867.3594313538339
 20
781.6683042945458
 30
0.0
 11
868.0181921981555
 21
756.5112426046989
 31
0.0
  0
ARC
  5
CBC
330
2
100
AcDbEntity
  8
0
100
AcDbCircle
 10
864.3604593789076
 20
781.5897734496222
 30
0.0
 40
3.0
100
AcDbArc
 50
1.500000000002719
 51
90.0
  0
LINE
  5
CBD
330
2
100
AcDbEntity
  8
0
100
AcDbLine
 10
865.1010843899809
 20
758.5897734496224
 30
0.0
 11
849.5057442195955
 21
758.5897734496227
 31
0.0
  0
ARC
  5
CBE
330
2
100
AcDbEntity
  8
0
100
AcDbCircle
 10
871.0171641730809
 20
756.5897734496225
 30
0.0
 40
3.0
100
AcDbArc
 50
181.5000000000027
 51
270.0
  0
ARC
  5
CBF
330
2
100
AcDbEntity
  8
0
100
AcDbCircle
 10
865.1010843899809
 20
755.5897734496227
 30
0.0
 40
3.0
100
AcDbArc
 50
9.594068226868996
 51
90.0
  0
LINE
  5
CC0
330
2
100
AcDbEntity
  8
0
100
AcDbLine
 10
865.1010843899809
 20
816.589773449623
 30
0.0
 11
849.5057442195991
 21
816.5897734496224
 31
0.0
  0
ARC
  5
CC1
330
2
100
AcDbEntity
  8
0
100
AcDbCircle
 10
849.5057442195991
 20
819.5897734496224
 30
0.0
 40
3.0
100
AcDbArc
 50
180.5000000000045
 51
270.0
  0
ARC
  5
CC2
330
2
100
AcDbEntity
  8
0
100
AcDbCircle
 10
871.0171641730809
 20
818.5897734496229
 30
0.0
 40
3.0
100
AcDbArc
 50
90.0
 51
178.4999999999972
  0
ARC
  5
CC3
330
2
100
AcDbEntity
  8
0
100
AcDbCircle
 10
865.1010843899809
 20
819.5897734496227
 30
0.0
 40
3.0
100
AcDbArc
 50
270.0
 51
350.4059317731516
  0
LINE
  5
CC4
330
2
100
AcDbEntity
  8
0
100
AcDbLine
 10
867.3594313538348
 20
793.5112426046996
 30
0.0
 11
868.0181921981555
 21
818.6683042945457
 31
0.0
  0
LINE
  5
CC5
330
2
100
AcDbEntity
  8
0
100
AcDbLine
 10
732.0946935603176
 20
722.0897734496246
 30
0.0
 11
732.0946935603176
 21
822.5897734496177
 31
0.0
  0
LINE
  5
CC6
330
2
100
AcDbEntity
  8
0
100
AcDbLine
 10
755.0339032696135
 20
722.0897734496255
 30
0.0
 11
755.0339032696131
 21
822.5897734496179
 31
0.0
  0
LINE
  5
CC7
330
2
100
AcDbEntity
  8
0
100
AcDbLine
 10
837.0946935603154
 20
822.5897734496186
 30
0.0
 11
837.0946935603168
 21
722.0897734496239
 31
0.0
  0
LINE
  5
CC8
330
2
100
AcDbEntity
  8
0
100
AcDbLine
 10
827.0946935603157
 20
722.0897734496246
 30
0.0
 11
827.0946935603157
 21
787.5897734496227
 31
0.0
  0
LINE
  5
CC9
330
2
100
AcDbEntity
  8
0
100
AcDbLine
 10
804.1554838510199
 20
722.0897734496255
 30
0.0
 11
804.1554838510212
 21
822.5897734496182
 31
0.0
  0
LINE
  5
CCA
330
2
100
AcDbEntity
  8
0
100
AcDbLine
 10
907.5946935603212
 20
727.5897734496225
 30
0.0
 11
907.5946935603212
 21
847.5897734496225
 31
0.0
  0
LINE
  5
CCB
330
2
100
AcDbEntity
  8
0
 48
0.5
100
AcDbLine
 10
719.5946935603167
 20
720.5897734496221
 30
0.0
 11
719.5946935603158
 21
715.5897734496207
 31
0.0
  0
LINE
  5
CCC
330
2
100
AcDbEntity
  8
0
 48
0.5
100
AcDbLine
 10
839.5946935603166
 20
720.5897734496221
 30
0.0
 11
839.5946935603166
 21
715.5897734496222
 31
0.0
  0
ARC
  5
CCD
330
2
100
AcDbEntity
  8
0
100
AcDbCircle
 10
879.2411037425342
 20
737.4580442595653
 30
0.0
 40
3.0
100
AcDbArc
 50
37.24958326181089
 51
114.9999999999782
  0
LINE
  5
CCE
330
2
100
AcDbEntity
  8
0
100
AcDbLine
 10
877.9732489573133
 20
740.1769676206753
 30
0.0
 11
847.9575100243453
 21
726.180398691051
 31
0.0
  0
ARC
  5
CCF
330
2
100
AcDbEntity
  8
0
100
AcDbCircle
 10
849.2253648095672
 20
723.461475329941
 30
0.0
 40
3.0
100
AcDbArc
 50
114.9999999999782
 51
179.5000000000084
  0
ARC
  5
CD0
330
2
100
AcDbEntity
  8
0
100
AcDbCircle
 10
878.2096439054173
 20
835.5973238934454
 30
0.0
 40
3.0
100
AcDbArc
 50
294.9999999999781
 51
345.4480092603792
  0
LINE
  5
CD1
330
2
100
AcDbEntity
  8
0
100
AcDbLine
 10
879.4774986906393
 20
832.878400532336
 30
0.0
 11
849.3417905265904
 21
818.8258890315141
 31
0.0
  0
ARC
  5
CD2
330
2
100
AcDbEntity
  8
0
100
AcDbCircle
 10
848.4965540031087
 20
820.6385046055874
 30
0.0
 40
2.0
100
AcDbArc
 50
180.5000000024668
 51
294.9999999999781
  0
LINE
  5
CD3
330
2
100
AcDbEntity
  8
0
100
AcDbLine
 10
735.8032773166467
 20
703.2424770942882
 30
0.0
 11
734.7917808050777
 21
708.9789588709561
 31
0.0
  0
LINE
  5
CD4
330
2
100
AcDbEntity
  8
0
100
AcDbLine
 10
823.3861098039866
 20
703.2424770942882
 30
0.0
 11
824.3976063155557
 21
708.9789588709578
 31
0.0
  0
ARC
  5
CD5
330
2
100
AcDbEntity
  8
0
100
AcDbCircle
 10
821.4164942979621
 20
703.5897734496221
 30
0.0
 40
2.0
100
AcDbArc
 50
270.0
 51
350.0000000000006
  0
LINE
  5
CD6
330
2
100
AcDbEntity
  8
0
100
AcDbLine
 10
737.7728928226713
 20
701.5897734496221
 30
0.0
 11
821.4164942979621
 21
701.5897734496221
 31
0.0
  0
ARC
  5
CD7
330
2
100
AcDbEntity
  8
0
100
AcDbCircle
 10
737.7728928226713
 20
703.5897734496221
 30
0.0
 40
2.0
100
AcDbArc
 50
189.9999999999993
 51
270.0
  0
ARC
  5
CD8
330
2
100
AcDbEntity
  8
0
100
AcDbCircle
 10
726.9133187809805
 20
707.5897734496207
 30
0.0
 40
8.0
100
AcDbArc
 50
9.999999999999365
 51
90.0
  0
ARC
  5
CD9
330
2
100
AcDbEntity
  8
0
100
AcDbCircle
 10
832.2760683396534
 20
707.5897734496223
 30
0.0
 40
8.0
100
AcDbArc
 50
90.0
 51
170.0000000000006
  0
LINE
  5
CDA
330
2
100
AcDbEntity
  8
CENTER
100
AcDbLine
 10
1294.28197905378
 20
462.2584425339625
 30
0.0
 11
1294.28197905378
 21
307.877288579392
 31
0.0
  0
LINE
  5
CDB
330
2
100
AcDbEntity
  8
CENTER
100
AcDbLine
 10
1364.78162907625
 20
385.0678655566772
 30
0.0
 11
1141.28197905378
 21
385.0678655566772
 31
0.0
  0
LINE
  5
CDC
330
2
100
AcDbEntity
  8
0
100
AcDbLine
 10
1344.365309493745
 20
445.1505044696779
 30
0.0
 11
1294.28197905378
 21
445.5678655566773
 31
0.0
  0
ARC
  5
CDE
330
2
100
AcDbEntity
  8
0
100
AcDbCircle
 10
1344.28197905378
 20
435.150851673815
 30
0.0
 40
10.0
100
AcDbArc
 50
44.08702223734358
 51
89.52254622268922
  0
LINE
  5
CEA
330
2
100
AcDbEntity
  8
0
 48
0.5
100
AcDbLine
 10
1329.281979053773
 20
452.563502122781
 30
0.0
 11
1227.28197905378
 21
451.6733616081257
 31
0.0
  0
LINE
  5
CEB
330
2
100
AcDbEntity
  8
0
100
AcDbLine
 10
1222.281979053779
 20
445.0678655566782
 30
0.0
 11
1222.28197905378
 21
325.0678655566773
 31
0.0
  0
LINE
  5
CEC
330
2
100
AcDbEntity
  8
0
 48
0.5
100
AcDbLine
 10
1329.281979053772
 20
317.5722289905735
 30
0.0
 11
1227.28197905378
 21
318.4623695052289
 31
0.0
  0
LINE
  5
CED
330
2
100
AcDbEntity
  8
0
100
AcDbLine
 10
1329.281979053772
 20
452.5678655566763
 30
0.0
 11
1329.281979053772
 21
445.2720322233437
 31
0.0
  0
LINE
  5
CEE
330
2
100
AcDbEntity
  8
0
100
AcDbLine
 10
1329.281979053772
 20
324.8636988900108
 30
0.0
 11
1329.281979053772
 21
317.5678655566782
 31
0.0
  0
LINE
  5
CEF
330
2
100
AcDbEntity
  8
0
 48
0.5
100
AcDbLine
 10
1294.28197905378
 20
452.2580617501064
 30
0.0
 11
1329.281979053772
 21
451.952621377429
 31
0.0
  0
LINE
  5
CF0
330
2
100
AcDbEntity
  8
0
 48
0.5
100
AcDbLine
 10
1294.28197905378
 20
317.8776693632473
 30
0.0
 11
1329.281979053772
 21
318.1831097359248
 31
0.0
  0
LINE
  5
CF1
330
2
100
AcDbEntity
  8
0
100
AcDbLine
 10
1244.198648613815
 20
445.1505044696779
 30
0.0
 11
1294.28197905378
 21
445.5678655566773
 31
0.0
  0
ARC
  5
CF3
330
2
100
AcDbEntity
  8
0
100
AcDbCircle
 10
1244.281979053781
 20
435.1508516738169
 30
0.0
 40
10.0
100
AcDbArc
 50
90.47745377731077
 51
135.9129777623322
  0
LINE
  5
CF5
330
2
100
AcDbEntity
  8
0
100
AcDbLine
 10
1344.365309493745
 20
324.9852266436784
 30
0.0
 11
1294.28197905378
 21
324.5678655566773
 31
0.0
  0
ARC
  5
CF7
330
2
100
AcDbEntity
  8
0
100
AcDbCircle
 10
1344.28197905378
 20
334.9848794395394
 30
0.0
 40
10.0
100
AcDbArc
 50
270.4774537773107
 51
315.9129777632486
  0
LINE
  5
CF9
330
2
100
AcDbEntity
  8
0
100
AcDbLine
 10
1244.198648613815
 20
324.9852266436775
 30
0.0
 11
1294.28197905378
 21
324.5678655566773
 31
0.0
  0
ARC
  5
CFB
330
2
100
AcDbEntity
  8
0
100
AcDbCircle
 10
1244.28197905378
 20
334.9848794395386
 30
0.0
 40
10.0
100
AcDbArc
 50
224.0870222372323
 51
269.5225462226892
  0
LINE
  5
CFD
330
2
100
AcDbEntity
  8
0
 48
0.5
100
AcDbLine
 10
1227.28197905378
 20
445.0678655566773
 30
0.0
 11
1222.281979053779
 21
445.0678655566782
 31
0.0
  0
LINE
  5
CFE
330
2
100
AcDbEntity
  8
0
 48
0.5
100
AcDbLine
 10
1227.28197905378
 20
325.0678655566773
 30
0.0
 11
1222.28197905378
 21
325.0678655566773
 31
0.0
  0
LINE
  5
CFF
330
2
100
AcDbEntity
  8
0
100
AcDbLine
 10
1227.28197905378
 20
318.4623695052288
 30
0.0
 11
1227.28197905378
 21
451.6733616081256
 31
0.0
  0
LINE
  5
D0A
330
2
100
AcDbEntity
  8
CENTER
100
AcDbLine
 10
-24.48957474645272
 20
385.0678655566773
 30
0.0
 11
275.5104252535509
 21
385.0678655566773
 31
0.0
  0
LINE
  5
D0B
330
2
100
AcDbEntity
  8
0
100
AcDbLine
 10
104.5104252535522
 20
419.0678655566773
 30
0.0
 11
106.5104252535486
 21
419.0678655566773
 31
0.0
  0
LINE
  5
D0C
330
2
100
AcDbEntity
  8
0
100
AcDbLine
 10
91.01042525355229
 20
335.5678655566773
 30
0.0
 11
93.51042525355229
 21
335.5678655566773
 31
0.0
  0
LINE
  5
D0D
330
2
100
AcDbEntity
  8
0
100
AcDbLine
 10
91.01042525355229
 20
434.5678655566772
 30
0.0
 11
93.51042525355229
 21
434.5678655566772
 31
0.0
  0
ARC
  5
D0E
330
2
100
AcDbEntity
  8
0
100
AcDbCircle
 10
91.01042525355229
 20
439.5678655566773
 30
0.0
 40
5.0
100
AcDbArc
 50
180.0
 51
270.0
  0
LINE
  5
D0F
330
2
100
AcDbEntity
  8
0
100
AcDbLine
 10
96.51042525355229
 20
338.5678655566773
 30
0.0
 11
96.51042525355229
 21
431.5678655566773
 31
0.0
  0
ARC
  5
D10
330
2
100
AcDbEntity
  8
0
100
AcDbCircle
 10
104.5104252535522
 20
427.0678655566773
 30
0.0
 40
8.0
100
AcDbArc
 50
180.0
 51
270.0
  0
ARC
  5
D11
330
2
100
AcDbEntity
  8
0
100
AcDbCircle
 10
93.51042525355229
 20
338.5678655566773
 30
0.0
 40
3.0
100
AcDbArc
 50
270.0
 51
0.0
  0
ARC
  5
D12
330
2
100
AcDbEntity
  8
0
100
AcDbCircle
 10
98.74099099130695
 20
335.6282767992099
 30
0.0
 40
3.0
100
AcDbArc
 50
79.99999999999484
 51
150.6639232879818
  0
ARC
  5
D13
330
2
100
AcDbEntity
  8
0
100
AcDbCircle
 10
93.51042525355229
 20
431.5678655566773
 30
0.0
 40
3.0
100
AcDbArc
 50
0.0
 51
90.0
  0
ARC
  5
D14
330
2
100
AcDbEntity
  8
0
100
AcDbCircle
 10
98.74099099130695
 20
434.5074543141446
 30
0.0
 40
3.0
100
AcDbArc
 50
209.3360767120179
 51
279.9999999999522
  0
LINE
  5
D15
330
2
100
AcDbEntity
  8
0
100
AcDbLine
 10
86.01042525355229
 20
326.5678655566773
 30
0.0
 11
86.01042525355229
 21
443.5678655566773
 31
0.0
  0
ARC
  5
D16
330
2
100
AcDbEntity
  8
0
100
AcDbCircle
 10
84.01042525355228
 20
443.5678655566773
 30
0.0
 40
2.0
100
AcDbArc
 50
0.0
 51
90.0
  0
ARC
  5
D17
330
2
100
AcDbEntity
  8
0
100
AcDbCircle
 10
84.01042525355228
 20
327.0678655566773
 30
0.0
 40
2.0
100
AcDbArc
 50
270.0
 51
0.0
  0
ARC
  5
D18
330
2
100
AcDbEntity
  8
0
100
AcDbCircle
 10
84.01042525355228
 20
443.0678655566772
 30
0.0
 40
2.0
100
AcDbArc
 50
0.0
 51
90.0
  0
LINE
  5
D19
330
2
100
AcDbEntity
  8
CENTER
100
AcDbLine
 10
198.0104252535504
 20
307.5678655566773
 30
0.0
 11
198.0104252535513
 21
462.5678655566773
 31
0.0
  0
ARC
  5
D1A
330
2
100
AcDbEntity
  8
0
100
AcDbCircle
 10
91.01042525355229
 20
330.5678655566773
 30
0.0
 40
5.0
100
AcDbArc
 50
90.0
 51
180.0
  0
LINE
  5
D1B
330
2
100
AcDbEntity
  8
0
100
AcDbLine
 10
104.5104252535522
 20
351.0678655566771
 30
0.0
 11
106.5104252535486
 21
351.0678655566771
 31
0.0
  0
ARC
  5
D1C
330
2
100
AcDbEntity
  8
0
100
AcDbCircle
 10
104.5104252535522
 20
343.0678655566771
 30
0.0
 40
8.0
100
AcDbArc
 50
90.0
 51
180.0
  0
LINE
  5
D1D
330
2
100
AcDbEntity
  8
0
100
AcDbLine
 10
84.01042525355228
 20
325.0678655566773
 30
0.0
 11
70.01042525354591
 21
325.0678655566771
 31
0.0
  0
LINE
  5
D1E
330
2
100
AcDbEntity
  8
0
100
AcDbLine
 10
84.01042525355228
 20
445.067865556677
 30
0.0
 11
70.01042525354591
 21
445.0678655566768
 31
0.0
  0
LINE
  5
D1F
330
2
100
AcDbEntity
  8
0
100
AcDbLine
 10
70.01042525354591
 20
445.5678655566773
 30
0.0
 11
70.01042525354591
 21
324.5678655566773
 31
0.0
  0
LINE
  5
D20
330
2
100
AcDbEntity
  8
0
100
AcDbLine
 10
99.26193552430618
 20
431.5530310551079
 30
0.0
 11
128.3411735931333
 21
436.6804853050868
 31
0.0
  0
LINE
  5
D21
330
2
100
AcDbEntity
  8
0
100
AcDbLine
 10
99.26193552430801
 20
338.5827000582466
 30
0.0
 11
128.3411735931279
 21
333.4552458082685
 31
0.0
  0
ARC
  5
D22
330
2
100
AcDbEntity
  8
0
100
AcDbCircle
 10
127.8202290601268
 20
330.5008225492317
 30
0.0
 40
3.0
100
AcDbArc
 50
0.0
 51
79.99999999999484
  0
ARC
  5
D23
330
2
100
AcDbEntity
  8
0
100
AcDbCircle
 10
127.8202290601295
 20
417.0678655566772
 30
0.0
 40
3.0
100
AcDbArc
 50
270.0
 51
0.0
  0
ARC
  5
D24
330
2
100
AcDbEntity
  8
0
100
AcDbCircle
 10
127.8202290601323
 20
439.6349085641236
 30
0.0
 40
3.0
100
AcDbArc
 50
280.0000000000051
 51
0.0
  0
LINE
  5
D25
330
2
100
AcDbEntity
  8
0
100
AcDbLine
 10
104.5104252535522
 20
419.0678655566773
 30
0.0
 11
106.5104252535486
 21
419.0678655566773
 31
0.0
  0
ARC
  5
D26
330
2
100
AcDbEntity
  8
0
100
AcDbCircle
 10
106.5104252535486
 20
416.0678655566773
 30
0.0
 40
3.0
100
AcDbArc
 50
0.0
 51
90.0
  0
ARC
  5
D27
330
2
100
AcDbEntity
  8
0
100
AcDbCircle
 10
112.4265050366477
 20
417.0678655566775
 30
0.0
 40
3.0
100
AcDbArc
 50
189.5940682268688
 51
270.0
  0
LINE
  5
D28
330
2
100
AcDbEntity
  8
0
100
AcDbLine
 10
104.5104252535522
 20
351.0678655566771
 30
0.0
 11
106.5104252535486
 21
351.0678655566773
 31
0.0
  0
LINE
  5
D29
330
2
100
AcDbEntity
  8
0
100
AcDbLine
 10
109.5104252535486
 20
416.0678655566773
 30
0.0
 11
109.5104252535486
 21
388.0678655566752
 31
0.0
  0
LINE
  5
D2A
330
2
100
AcDbEntity
  8
0
100
AcDbLine
 10
109.5104252535486
 20
382.0678655566748
 30
0.0
 11
109.5104252535486
 21
354.0678655566773
 31
0.0
  0
ARC
  5
D2B
330
2
100
AcDbEntity
  8
0
100
AcDbCircle
 10
106.5104252535486
 20
354.0678655566773
 30
0.0
 40
3.0
100
AcDbArc
 50
270.0
 51
0.0
  0
ARC
  5
D2C
330
2
100
AcDbEntity
  8
0
100
AcDbCircle
 10
112.4265050366486
 20
353.0678655566775
 30
0.0
 40
3.0
100
AcDbArc
 50
90.0
 51
170.4059317731516
  0
LINE
  5
D2D
330
2
100
AcDbEntity
  8
0
100
AcDbLine
 10
112.4265050366477
 20
414.0678655566775
 30
0.0
 11
127.8202290601295
 21
414.0678655566772
 31
0.0
  0
LINE
  5
D2E
330
2
100
AcDbEntity
  8
0
100
AcDbLine
 10
112.4265050366486
 20
356.0678655566775
 30
0.0
 11
127.8202290601323
 21
356.0678655566775
 31
0.0
  0
ARC
  5
D2F
330
2
100
AcDbEntity
  8
0
100
AcDbCircle
 10
127.8202290601323
 20
353.0678655566775
 30
0.0
 40
3.0
100
AcDbArc
 50
0.0
 51
90.0
  0
LINE
  5
D30
330
2
100
AcDbEntity
  8
0
100
AcDbLine
 10
130.8202290601232
 20
442.5678655566775
 30
0.0
 11
130.8202290601232
 21
327.5678655566773
 31
0.0
  0
ARC
  5
D31
330
2
100
AcDbEntity
  8
0
100
AcDbCircle
 10
140.8202290601232
 20
442.5678655566775
 30
0.0
 40
10.0
100
AcDbArc
 50
90.0
 51
180.0
  0
ARC
  5
D32
330
2
100
AcDbEntity
  8
0
100
AcDbCircle
 10
140.8202290601232
 20
327.5678655566773
 30
0.0
 40
10.0
100
AcDbArc
 50
180.0
 51
270.0
  0
ARC
  5
D33
330
2
100
AcDbEntity
  8
0
100
AcDbCircle
 10
99.51042525355184
 20
391.067865556675
 30
0.0
 40
3.0
100
AcDbArc
 50
180.0
 51
270.0
  0
ARC
  5
D34
330
2
100
AcDbEntity
  8
0
100
AcDbCircle
 10
127.8202290601218
 20
391.067865556675
 30
0.0
 40
3.0
100
AcDbArc
 50
270.0
 51
0.0
  0
LINE
  5
D35
330
2
100
AcDbEntity
  8
0
100
AcDbLine
 10
127.8202290601218
 20
382.0678655566748
 30
0.0
 11
99.51042525355184
 21
382.0678655566747
 31
0.0
  0
ARC
  5
D36
330
2
100
AcDbEntity
  8
0
100
AcDbCircle
 10
99.51042525355184
 20
379.0678655566745
 30
0.0
 40
3.0
100
AcDbArc
 50
90.0
 51
180.0
  0
ARC
  5
D37
330
2
100
AcDbEntity
  8
0
100
AcDbCircle
 10
127.8202290601218
 20
379.0678655566748
 30
0.0
 40
3.0
100
AcDbArc
 50
0.0
 51
90.0
  0
LINE
  5
D38
330
2
100
AcDbEntity
  8
0
100
AcDbLine
 10
127.8202290601218
 20
388.067865556675
 30
0.0
 11
99.51042525355184
 21
388.0678655566752
 31
0.0
  0
LINE
  5
D39
330
2
100
AcDbEntity
  8
CENTER
100
AcDbLine
 10
339.414448437318
 20
385.0678655566773
 30
0.0
 11
562.4144484373094
 21
385.0678655566773
 31
0.0
  0
LINE
  5
D3A
330
2
100
AcDbEntity
  8
0
100
AcDbLine
 10
481.4144484373107
 20
325.0678655566762
 30
0.0
 11
481.4144484373088
 21
445.0678655566773
 31
0.0
  0
LINE
  5
D3B
330
2
100
AcDbEntity
  8
CENTER
100
AcDbLine
 10
409.4144484373089
 20
307.8729251454964
 30
0.0
 11
409.4144484373089
 21
462.2628059678582
 31
0.0
  0
LINE
  5
D3C
330
2
100
AcDbEntity
  8
0
100
AcDbLine
 10
374.4144484373098
 20
452.5678655566773
 30
0.0
 11
374.4144484373171
 21
317.5678655566782
 31
0.0
  0
LINE
  5
D3D
330
2
100
AcDbEntity
  8
0
100
AcDbLine
 10
476.4144484373093
 20
318.4623695052288
 30
0.0
 11
476.414448437302
 21
451.6733616081258
 31
0.0
  0
LINE
  5
D3E
330
2
100
AcDbEntity
  8
0
100
AcDbLine
 10
374.4144484373139
 20
327.5678655566782
 30
0.0
 11
474.9144484373075
 21
327.5678655566772
 31
0.0
  0
LINE
  5
D3F
330
2
100
AcDbEntity
  8
0
100
AcDbLine
 10
474.914448437307
 20
337.5678655566782
 30
0.0
 11
374.4144484373134
 21
337.5678655566782
 31
0.0
  0
LINE
  5
D40
330
2
100
AcDbEntity
  8
0
100
AcDbLine
 10
474.9144484373061
 20
360.5070752659741
 30
0.0
 11
374.4144484373134
 21
360.5070752659732
 31
0.0
  0
LINE
  5
D41
330
2
100
AcDbEntity
  8
0
100
AcDbLine
 10
374.4144484373134
 20
442.5678655566764
 30
0.0
 11
474.9144484373075
 21
442.5678655566772
 31
0.0
  0
LINE
  5
D42
330
2
100
AcDbEntity
  8
0
100
AcDbLine
 10
474.914448437307
 20
432.5678655566764
 30
0.0
 11
374.4144484373134
 21
432.5678655566764
 31
0.0
  0
LINE
  5
D43
330
2
100
AcDbEntity
  8
0
100
AcDbLine
 10
474.9144484373061
 20
409.6286558473805
 30
0.0
 11
374.4144484373134
 21
409.6286558473813
 31
0.0
  0
LINE
  5
D44
330
2
100
AcDbEntity
  8
0
 48
0.5
100
AcDbLine
 10
476.4144484373093
 20
325.0678655566773
 30
0.0
 11
481.4144484373107
 21
325.0678655566763
 31
0.0
  0
LINE
  5
D45
330
2
100
AcDbEntity
  8
0
 48
0.5
100
AcDbLine
 10
476.4144484373093
 20
445.0678655566773
 30
0.0
 11
481.4144484373088
 21
445.0678655566773
 31
0.0
  0
LINE
  5
D46
330
2
100
AcDbEntity
  8
0
100
AcDbLine
 10
493.7617447926434
 20
341.2764493130075
 30
0.0
 11
488.0252630159755
 21
340.2649528014383
 31
0.0
  0
LINE
  5
D47
330
2
100
AcDbEntity
  8
0
100
AcDbLine
 10
493.7617447926434
 20
428.8592818003472
 30
0.0
 11
488.0252630159737
 21
429.8707783119166
 31
0.0
  0
ARC
  5
D48
330
2
100
AcDbEntity
  8
0
100
AcDbCircle
 10
493.4144484373093
 20
426.8896662943228
 30
0.0
 40
2.0
100
AcDbArc
 50
0.0
 51
79.99999999999484
  0
LINE
  5
D49
330
2
100
AcDbEntity
  8
0
100
AcDbLine
 10
495.4144484373093
 20
343.2460648190319
 30
0.0
 11
495.4144484373093
 21
426.8896662943228
 31
0.0
  0
ARC
  5
D4A
330
2
100
AcDbEntity
  8
0
100
AcDbCircle
 10
493.4144484373093
 20
343.2460648190319
 30
0.0
 40
2.0
100
AcDbArc
 50
280.0000000000051
 51
0.0
  0
ARC
  5
D4B
330
2
100
AcDbEntity
  8
0
100
AcDbCircle
 10
489.4144484373107
 20
332.3864907773409
 30
0.0
 40
8.0
100
AcDbArc
 50
100.0000000000051
 51
180.0
  0
ARC
  5
D4C
330
2
100
AcDbEntity
  8
0
100
AcDbCircle
 10
489.4144484373093
 20
437.7492403360142
 30
0.0
 40
8.0
100
AcDbArc
 50
180.0
 51
259.9999999999948
  0
LINE
  5
D4D
330
2
100
AcDbEntity
  8
0
100
AcDbLine
 10
349.414448437318
 20
385.0678655566771
 30
0.0
 11
349.414448437318
 21
426.9905152874897
 31
0.0
  0
LINE
  5
D4E
330
2
100
AcDbEntity
  8
0
 48
0.5
100
AcDbLine
 10
366.3969953663165
 20
452.4978983037079
 30
0.0
 11
374.414448437313
 21
452.5678655566771
 31
0.0
  0
ARC
  5
D4F
330
2
100
AcDbEntity
  8
0
100
AcDbCircle
 10
366.4144484373134
 20
450.4979744575796
 30
0.0
 40
2.0
100
AcDbArc
 50
90.49999999999155
 51
180.0
  0
ARC
  5
D50
330
2
100
AcDbEntity
  8
0
 48
0.5
100
AcDbCircle
 10
351.6144484373137
 20
427.2678655566772
 30
0.0
 40
0.3
100
AcDbArc
 50
0.0000000000065138
 51
90.0
  0
ARC
  5
D51
330
2
100
AcDbEntity
  8
0
100
AcDbCircle
 10
352.2144484373136
 20
427.1678655566772
 30
0.0
 40
0.3
100
AcDbArc
 50
180.0000000000065
 51
270.0
  0
LINE
  5
D52
330
2
100
AcDbEntity
  8
0
100
AcDbLine
 10
357.4144484373134
 20
429.5678655566776
 30
0.0
 11
357.4144484373139
 21
427.5678655566776
 31
0.0
  0
LINE
  5
D53
330
2
100
AcDbEntity
  8
0
 48
0.5
100
AcDbLine
 10
354.1144484373137
 20
427.5678655566776
 30
0.0
 11
357.4144484373139
 21
427.5678655566776
 31
0.0
  0
LINE
  5
D54
330
2
100
AcDbEntity
  8
0
 48
0.5
100
AcDbLine
 10
352.2144484373136
 20
426.8678655566773
 30
0.0
 11
353.6144484373137
 21
426.8678655566773
 31
0.0
  0
LINE
  5
D55
330
2
100
AcDbEntity
  8
0
 48
0.5
100
AcDbLine
 10
353.9144484373134
 20
427.3678655566773
 30
0.0
 11
354.1144484373137
 21
427.5678655566776
 31
0.0
  0
LINE
  5
D56
330
2
100
AcDbEntity
  8
0
100
AcDbLine
 10
353.9144484373134
 20
427.3678655566773
 30
0.0
 11
353.9144484373139
 21
342.767865556677
 31
0.0
  0
ARC
  5
D57
330
2
100
AcDbEntity
  8
0
100
AcDbCircle
 10
353.6144484373137
 20
427.1678655566775
 30
0.0
 40
0.3
100
AcDbArc
 50
270.0
 51
0.0000000000065138
  0
ARC
  5
D58
330
2
100
AcDbEntity
  8
HIDS
  6
SEKKEI_H
100
AcDbCircle
 10
359.9144484373084
 20
440.2394384319301
 30
0.0
 40
2.0
100
AcDbArc
 50
135.0000000000074
 51
180.0000000000065
  0
ARC
  5
D59
330
2
100
AcDbEntity
  8
HIDS
  6
SEKKEI_H
100
AcDbCircle
 10
362.414448437313
 20
448.3962926814235
 30
0.0
 40
2.0
100
AcDbArc
 50
315.0000000000074
 51
0.0
  0
LINE
  5
D5A
330
2
100
AcDbEntity
  8
HIDS
  6
SEKKEI_H
100
AcDbLine
 10
363.8286619996863
 20
446.9820791190504
 30
0.0
 11
358.5002348749374
 21
441.6536519943007
 31
0.0
  0
LINE
  5
D5B
330
2
100
AcDbEntity
  8
0
 48
0.5
100
AcDbLine
 10
357.9144484373134
 20
430.0678655566776
 30
0.0
 11
357.4144484373134
 21
429.5678655566776
 31
0.0
  0
LINE
  5
D5C
330
2
100
AcDbEntity
  8
0
100
AcDbLine
 10
357.9144484373134
 20
436.0678655566773
 30
0.0
 11
357.9144484373139
 21
430.0678655566779
 31
0.0
  0
LINE
  5
D5D
330
2
100
AcDbEntity
  8
0
100
AcDbLine
 10
350.4144484373139
 20
427.5678655566771
 30
0.0
 11
349.4144484373139
 21
426.9905152874872
 31
0.0
  0
LINE
  5
D5E
330
2
100
AcDbEntity
  8
0
 48
0.5
100
AcDbLine
 10
350.4144484373134
 20
427.5678655566771
 30
0.0
 11
351.6144484373137
 21
427.5678655566771
 31
0.0
  0
LINE
  5
D5F
330
2
100
AcDbEntity
  8
0
100
AcDbLine
 10
351.9144484373139
 20
427.2678655566772
 30
0.0
 11
351.9144484373139
 21
342.8678655566772
 31
0.0
  0
LINE
  5
D60
330
2
100
AcDbEntity
  8
0
100
AcDbLine
 10
349.414448437318
 20
385.0678655566771
 30
0.0
 11
349.4144484373184
 21
343.1452158258647
 31
0.0
  0
LINE
  5
D61
330
2
100
AcDbEntity
  8
0
 48
0.5
100
AcDbLine
 10
366.396995366317
 20
317.6378328096466
 30
0.0
 11
374.4144484373134
 21
317.5678655566774
 31
0.0
  0
LINE
  5
D62
330
2
100
AcDbEntity
  8
0
100
AcDbLine
 10
364.4144484373139
 20
319.637756655775
 30
0.0
 11
364.4144484373134
 21
450.4979744575796
 31
0.0
  0
ARC
  5
D63
330
2
100
AcDbEntity
  8
0
100
AcDbCircle
 10
366.4144484373139
 20
319.637756655775
 30
0.0
 40
2.0
100
AcDbArc
 50
180.0
 51
269.5000000000084
  0
ARC
  5
D64
330
2
100
AcDbEntity
  8
0
 48
0.5
100
AcDbCircle
 10
351.6144484373142
 20
342.8678655566772
 30
0.0
 40
0.3
100
AcDbArc
 50
270.0
 51
359.9999999999934
  0
ARC
  5
D65
330
2
100
AcDbEntity
  8
0
100
AcDbCircle
 10
352.2144484373141
 20
342.9678655566771
 30
0.0
 40
0.3
100
AcDbArc
 50
90.0
 51
179.9999999999934
  0
LINE
  5
D66
330
2
100
AcDbEntity
  8
0
100
AcDbLine
 10
357.4144484373139
 20
340.5678655566767
 30
0.0
 11
357.4144484373139
 21
342.5678655566767
 31
0.0
  0
LINE
  5
D67
330
2
100
AcDbEntity
  8
0
 48
0.5
100
AcDbLine
 10
354.1144484373142
 20
342.5678655566767
 30
0.0
 11
357.4144484373139
 21
342.5678655566767
 31
0.0
  0
LINE
  5
D68
330
2
100
AcDbEntity
  8
0
 48
0.5
100
AcDbLine
 10
352.2144484373141
 20
343.267865556677
 30
0.0
 11
353.6144484373142
 21
343.267865556677
 31
0.0
  0
LINE
  5
D69
330
2
100
AcDbEntity
  8
0
 48
0.5
100
AcDbLine
 10
353.9144484373139
 20
342.767865556677
 30
0.0
 11
354.1144484373142
 21
342.5678655566767
 31
0.0
  0
ARC
  5
D6A
330
2
100
AcDbEntity
  8
0
100
AcDbCircle
 10
353.6144484373142
 20
342.9678655566768
 30
0.0
 40
0.3
100
AcDbArc
 50
359.9999999999934
 51
90.0
  0
ARC
  5
D6B
330
2
100
AcDbEntity
  8
HIDS
  6
SEKKEI_H
100
AcDbCircle
 10
359.9144484373089
 20
329.8962926814243
 30
0.0
 40
2.0
100
AcDbArc
 50
179.9999999999934
 51
224.9999999999926
  0
ARC
  5
D6C
330
2
100
AcDbEntity
  8
HIDS
  6
SEKKEI_H
100
AcDbCircle
 10
362.4144484373134
 20
321.7394384319309
 30
0.0
 40
2.0
100
AcDbArc
 50
0.0
 51
44.99999999999262
  0
LINE
  5
D6D
330
2
100
AcDbEntity
  8
HIDS
  6
SEKKEI_H
100
AcDbLine
 10
363.8286619996867
 20
323.1536519943041
 30
0.0
 11
358.5002348749378
 21
328.4820791190536
 31
0.0
  0
LINE
  5
D6E
330
2
100
AcDbEntity
  8
0
 48
0.5
100
AcDbLine
 10
357.9144484373139
 20
340.0678655566768
 30
0.0
 11
357.4144484373139
 21
340.5678655566767
 31
0.0
  0
LINE
  5
D6F
330
2
100
AcDbEntity
  8
0
100
AcDbLine
 10
357.9144484373139
 20
334.0678655566772
 30
0.0
 11
357.9144484373143
 21
340.0678655566765
 31
0.0
  0
LINE
  5
D70
330
2
100
AcDbEntity
  8
0
100
AcDbLine
 10
350.4144484373139
 20
342.5678655566772
 30
0.0
 11
349.4144484373139
 21
343.1452158258672
 31
0.0
  0
LINE
  5
D71
330
2
100
AcDbEntity
  8
0
 48
0.5
100
AcDbLine
 10
350.4144484373139
 20
342.5678655566772
 30
0.0
 11
351.6144484373142
 21
342.5678655566772
 31
0.0
  0
LINE
  5
D72
330
2
100
AcDbEntity
  8
0
100
AcDbLine
 10
350.4144484373134
 20
427.5678655566771
 30
0.0
 11
350.4144484373139
 21
342.5678655566772
 31
0.0
  0
LINE
  5
D73
330
2
100
AcDbEntity
  8
0
100
AcDbLine
 10
354.1144484373142
 20
342.5678655566767
 30
0.0
 11
354.1144484373137
 21
427.5678655566776
 31
0.0
  0
LINE
  5
D74
330
2
100
AcDbEntity
  8
0
100
AcDbLine
 10
357.4144484373139
 20
427.5678655566776
 30
0.0
 11
357.4144484373139
 21
342.5678655566767
 31
0.0
  0
LINE
  5
D75
330
2
100
AcDbEntity
  8
0
100
AcDbLine
 10
357.9144484373143
 20
340.0678655566765
 30
0.0
 11
357.9144484373139
 21
430.0678655566779
 31
0.0
  0
LINE
  5
D76
330
2
100
AcDbEntity
  8
0
100
AcDbLine
 10
374.414448437313
 20
452.5678655566771
 30
0.0
 11
374.4144484373139
 21
317.5678655566774
 31
0.0
  0
LINE
  5
D77
330
2
100
AcDbEntity
  8
0
100
AcDbLine
 10
374.4144484373134
 20
432.5678655566767
 30
0.0
 11
365.9144484373134
 21
432.5678655566767
 31
0.0
  0
LINE
  5
D78
330
2
100
AcDbEntity
  8
0
100
AcDbLine
 10
374.4144484373134
 20
409.6286558473904
 30
0.0
 11
365.9144484373134
 21
409.6286558473904
 31
0.0
  0
LINE
  5
D79
330
2
100
AcDbEntity
  8
0
100
AcDbLine
 10
374.4144484373134
 20
442.5678655571092
 30
0.0
 11
365.9144484373134
 21
442.5678655571092
 31
0.0
  0
LINE
  5
D7A
330
2
100
AcDbEntity
  8
0
100
AcDbLine
 10
374.4144484373134
 20
337.5678655566779
 30
0.0
 11
365.9144484373134
 21
337.5678655566778
 31
0.0
  0
LINE
  5
D7B
330
2
100
AcDbEntity
  8
0
100
AcDbLine
 10
374.4144484373134
 20
360.507075265964
 30
0.0
 11
365.9144484373134
 21
360.507075265964
 31
0.0
  0
LINE
  5
D7C
330
2
100
AcDbEntity
  8
0
100
AcDbLine
 10
374.4144484373139
 20
327.5678655562452
 30
0.0
 11
365.9144484373139
 21
327.5678655562452
 31
0.0
  0
LINE
  5
D81
330
2
100
AcDbEntity
  8
HIDS
  6
SEKKEI_H
100
AcDbLine
 10
359.331117997344
 20
324.9852266436766
 30
0.0
 11
362.019490454121
 21
324.9628235398702
 31
0.0
  0
ARC
  5
D82
330
2
100
AcDbEntity
  8
0
100
AcDbCircle
 10
359.4144484373093
 20
334.9848794395394
 30
0.0
 40
10.0
100
AcDbArc
 50
180.0
 51
240.00000000003
  0
LINE
  5
D83
330
2
100
AcDbEntity
  8
0
100
AcDbLine
 10
349.4144484373098
 20
334.9848794395394
 30
0.0
 11
349.4144484373093
 21
435.150851673815
 31
0.0
  0
LINE
  5
D84
330
2
100
AcDbEntity
  8
HIDS
  6
SEKKEI_H
100
AcDbLine
 10
359.3311179973436
 20
445.1505044696761
 30
0.0
 11
362.0194904541187
 21
445.1729075734826
 31
0.0
  0
ARC
  5
D85
330
2
100
AcDbEntity
  8
0
100
AcDbCircle
 10
359.4144484373093
 20
435.150851673815
 30
0.0
 40
10.0
100
AcDbArc
 50
119.9999999999698
 51
180.0
  0
LINE
  5
D86
330
2
100
AcDbEntity
  8
0
100
AcDbLine
 10
228.4992779656897
 20
329.0678655571093
 30
0.0
 11
167.521572542276
 21
329.0678655571093
 31
0.0
  0
ARC
  5
D87
330
2
100
AcDbEntity
  8
0
100
AcDbCircle
 10
228.4992779656897
 20
337.0678655571092
 30
0.0
 40
8.0
100
AcDbArc
 50
270.0
 51
315.0000000000074
  0
LINE
  5
D88
330
2
100
AcDbEntity
  8
0
100
AcDbLine
 10
228.4992779656897
 20
441.0678655571093
 30
0.0
 11
167.521572542276
 21
441.0678655571093
 31
0.0
  0
ARC
  5
D89
330
2
100
AcDbEntity
  8
0
100
AcDbCircle
 10
167.521572542276
 20
433.0678655571093
 30
0.0
 40
8.0
100
AcDbArc
 50
90.0
 51
135.0000000000074
  0
LINE
  5
D8A
330
2
100
AcDbEntity
  8
0
100
AcDbLine
 10
228.4992779656897
 20
447.5678655571093
 30
0.0
 11
167.521572542276
 21
447.5678655571093
 31
0.0
  0
ARC
  5
D8B
330
2
100
AcDbEntity
  8
0
100
AcDbCircle
 10
167.521572542276
 20
433.0678655571093
 30
0.0
 40
14.5
100
AcDbArc
 50
90.0
 51
135.0000000000074
  0
LINE
  5
D8C
330
2
100
AcDbEntity
  8
0
100
AcDbLine
 10
228.4992779656897
 20
322.5678655571092
 30
0.0
 11
167.521572542276
 21
322.5678655571093
 31
0.0
  0
ARC
  5
D8D
330
2
100
AcDbEntity
  8
0
100
AcDbCircle
 10
228.4992779656897
 20
337.0678655571092
 30
0.0
 40
14.5
100
AcDbArc
 50
270.0
 51
315.0000000000074
  0
LINE
  5
D8E
330
2
100
AcDbEntity
  8
0
100
AcDbLine
 10
131.120425253983
 20
327.5678655571335
 30
0.0
 11
131.120425253983
 21
442.5678655566772
 31
0.0
  0
ARC
  5
D8F
330
2
100
AcDbEntity
  8
0
100
AcDbCircle
 10
141.120425253983
 20
442.5678655566772
 30
0.0
 40
10.0
100
AcDbArc
 50
90.0
 51
180.0
  0
ARC
  5
D90
330
2
100
AcDbEntity
  8
0
100
AcDbCircle
 10
141.120425253983
 20
327.5678655571335
 30
0.0
 40
10.0
100
AcDbArc
 50
180.0
 51
269.9999999972121
  0
CIRCLE
  5
D91
330
2
100
AcDbEntity
  8
0
100
AcDbCircle
 10
198.0104252539829
 20
385.0678655571093
 30
0.0
 40
36.00000000000003
  0
CIRCLE
  5
D92
330
2
100
AcDbEntity
  8
0
100
AcDbCircle
 10
198.0104252539829
 20
385.0678655571093
 30
0.0
 40
42.50000000000002
  0
CIRCLE
  5
D93
330
2
100
AcDbEntity
  8
0
100
AcDbCircle
 10
198.0104252539829
 20
385.0678655571093
 30
0.0
 40
44.50000000000048
  0
CIRCLE
  5
D94
330
2
100
AcDbEntity
  8
0
100
AcDbCircle
 10
198.0104252539829
 20
385.0678655571093
 30
0.0
 40
41.92264973081003
  0
LINE
  5
D95
330
2
100
AcDbEntity
  8
0
100
AcDbLine
 10
260.5104252539833
 20
415.556718268816
 30
0.0
 11
260.5104252539833
 21
354.5790128454026
 31
0.0
  0
ARC
  5
D96
330
2
100
AcDbEntity
  8
0
100
AcDbCircle
 10
246.0104252539833
 20
415.556718268816
 30
0.0
 40
14.5
100
AcDbArc
 50
0.0
 51
44.99999999999262
  0
LINE
  5
D97
330
2
100
AcDbEntity
  8
0
100
AcDbLine
 10
254.0104252539824
 20
415.5567182688169
 30
0.0
 11
254.0104252539824
 21
354.5790128454017
 31
0.0
  0
ARC
  5
D98
330
2
100
AcDbEntity
  8
0
100
AcDbCircle
 10
246.0104252539824
 20
415.5567182688169
 30
0.0
 40
8.0
100
AcDbArc
 50
0.0
 51
44.99999999999262
  0
LINE
  5
D99
330
2
100
AcDbEntity
  8
0
100
AcDbLine
 10
142.0104252539838
 20
415.5567182688168
 30
0.0
 11
142.0104252539838
 21
354.5790128454019
 31
0.0
  0
ARC
  5
D9A
330
2
100
AcDbEntity
  8
0
100
AcDbCircle
 10
150.0104252539838
 20
354.5790128454019
 30
0.0
 40
8.0
100
AcDbArc
 50
180.0
 51
224.9999999999926
  0
LINE
  5
D9B
330
2
100
AcDbEntity
  8
0
100
AcDbLine
 10
135.5104252539829
 20
415.556718268816
 30
0.0
 11
135.5104252539829
 21
354.5790128454027
 31
0.0
  0
LINE
  5
D9C
330
2
100
AcDbEntity
  8
0
100
AcDbLine
 10
139.757376926778
 20
425.8097665960208
 30
0.0
 11
157.2685242150712
 21
443.3209138843142
 31
0.0
  0
ARC
  5
D9D
330
2
100
AcDbEntity
  8
0
100
AcDbCircle
 10
150.0104252539829
 20
415.556718268816
 30
0.0
 40
14.5
100
AcDbArc
 50
135.0000000000074
 51
180.0
  0
LINE
  5
D9E
330
2
100
AcDbEntity
  8
0
100
AcDbLine
 10
238.7523262928946
 20
326.8148172299043
 30
0.0
 11
256.2634735811882
 21
344.3259645181977
 31
0.0
  0
ARC
  5
D9F
330
2
100
AcDbEntity
  8
0
100
AcDbCircle
 10
246.0104252539833
 20
354.5790128454026
 30
0.0
 40
14.5
100
AcDbArc
 50
315.0000000000074
 51
0.0
  0
LINE
  5
DA0
330
2
100
AcDbEntity
  8
0
100
AcDbLine
 10
234.1561322151822
 20
331.4110113076169
 30
0.0
 11
251.6672795034744
 21
348.9221585959094
 31
0.0
  0
ARC
  5
DA1
330
2
100
AcDbEntity
  8
0
100
AcDbCircle
 10
246.0104252539824
 20
354.5790128454017
 30
0.0
 40
8.0
100
AcDbArc
 50
315.0000000000074
 51
0.0
  0
LINE
  5
DA2
330
2
100
AcDbEntity
  8
0
100
AcDbLine
 10
144.3535710044914
 20
421.2135725183091
 30
0.0
 11
161.8647182927841
 21
438.7247198066017
 31
0.0
  0
ARC
  5
DA3
330
2
100
AcDbEntity
  8
0
100
AcDbCircle
 10
150.0104252539838
 20
415.5567182688168
 30
0.0
 40
8.0
100
AcDbArc
 50
135.0000000000074
 51
180.0
  0
LINE
  5
DA4
330
2
100
AcDbEntity
  8
0
100
AcDbLine
 10
157.2685242150712
 20
326.8148172299043
 30
0.0
 11
139.757376926778
 21
344.3259645181977
 31
0.0
  0
ARC
  5
DA5
330
2
100
AcDbEntity
  8
0
100
AcDbCircle
 10
150.0104252539829
 20
354.5790128454027
 30
0.0
 40
14.5
100
AcDbArc
 50
180.0
 51
224.9999999999926
  0
ARC
  5
DA6
330
2
100
AcDbEntity
  8
0
100
AcDbCircle
 10
167.521572542276
 20
337.0678655571093
 30
0.0
 40
14.5
100
AcDbArc
 50
224.9999999999926
 51
270.0
  0
LINE
  5
DA7
330
2
100
AcDbEntity
  8
0
100
AcDbLine
 10
256.2634735811882
 20
425.8097665960209
 30
0.0
 11
238.7523262928946
 21
443.3209138843142
 31
0.0
  0
ARC
  5
DA8
330
2
100
AcDbEntity
  8
0
100
AcDbCircle
 10
228.4992779656897
 20
433.0678655571093
 30
0.0
 40
14.5
100
AcDbArc
 50
44.99999999999262
 51
90.0
  0
LINE
  5
DA9
330
2
100
AcDbEntity
  8
0
100
AcDbLine
 10
161.8647182927841
 20
331.4110113076169
 30
0.0
 11
144.3535710044914
 21
348.9221585959096
 31
0.0
  0
ARC
  5
DAA
330
2
100
AcDbEntity
  8
0
100
AcDbCircle
 10
167.521572542276
 20
337.0678655571093
 30
0.0
 40
8.0
100
AcDbArc
 50
224.9999999999926
 51
270.0
  0
LINE
  5
DAB
330
2
100
AcDbEntity
  8
0
100
AcDbLine
 10
251.6672795034748
 20
421.2135725183093
 30
0.0
 11
234.1561322151822
 21
438.7247198066017
 31
0.0
  0
ARC
  5
DAC
330
2
100
AcDbEntity
  8
0
100
AcDbCircle
 10
228.4992779656897
 20
433.0678655571093
 30
0.0
 40
8.0
100
AcDbArc
 50
44.99999999999262
 51
90.0
  0
LINE
  5
DAD
330
2
100
AcDbEntity
  8
CENTER
100
AcDbLine
 10
265.5104252544154
 20
327.5678655571092
 30
0.0
 11
245.5104252535513
 21
327.5678655571092
 31
0.0
  0
LINE
  5
DAE
330
2
100
AcDbEntity
  8
CENTER
100
AcDbLine
 10
255.5104252539829
 20
337.5678655575412
 30
0.0
 11
255.5104252539829
 21
317.5678655566772
 31
0.0
  0
LINE
  5
DAF
330
2
100
AcDbEntity
  8
CENTER
100
AcDbLine
 10
265.5104252535509
 20
442.5678655571094
 30
0.0
 11
245.5104252544145
 21
442.5678655571094
 31
0.0
  0
LINE
  5
DB0
330
2
100
AcDbEntity
  8
CENTER
100
AcDbLine
 10
255.5104252539829
 20
432.567865557541
 30
0.0
 11
255.5104252539829
 21
452.5678655566773
 31
0.0
  0
LINE
  5
DB1
330
2
100
AcDbEntity
  8
CENTER
100
AcDbLine
 10
130.5290475935837
 20
327.5678655571092
 30
0.0
 11
150.4918029143821
 21
327.5678655571092
 31
0.0
  0
LINE
  5
DB2
330
2
100
AcDbEntity
  8
CENTER
100
AcDbLine
 10
140.5104252539833
 20
337.5492432175084
 30
0.0
 11
140.5104252539833
 21
317.5864878967102
 31
0.0
  0
LINE
  5
DB3
330
2
100
AcDbEntity
  8
CENTER
100
AcDbLine
 10
130.5056274854298
 20
442.5678655571094
 30
0.0
 11
150.5152230225369
 21
442.5678655571094
 31
0.0
  0
LINE
  5
DB4
330
2
100
AcDbEntity
  8
CENTER
100
AcDbLine
 10
140.5104252539833
 20
432.5630677885557
 30
0.0
 11
140.5104252539833
 21
452.5726633256633
 31
0.0
  0
CIRCLE
  5
DB5
330
2
100
AcDbEntity
  8
HOJO
100
AcDbCircle
 10
258.0104252539829
 20
339.0678655571092
 30
0.0
 40
2.5
  0
CIRCLE
  5
DB6
330
2
100
AcDbEntity
  8
0
100
AcDbCircle
 10
258.0104252539829
 20
339.0678655571092
 30
0.0
 40
2.0
  0
LINE
  5
DB7
330
2
100
AcDbEntity
  8
CENTER
100
AcDbLine
 10
258.0104252539829
 20
331.7018358111993
 30
0.0
 11
258.0104252539829
 21
346.4338953030189
 31
0.0
  0
LINE
  5
DB8
330
2
100
AcDbEntity
  8
CENTER
100
AcDbLine
 10
265.3764549998929
 20
339.0678655571091
 30
0.0
 11
250.6443955080733
 21
339.0678655571091
 31
0.0
  0
CIRCLE
  5
DB9
330
2
100
AcDbEntity
  8
HOJO
100
AcDbCircle
 10
138.0104252539829
 20
431.0678655571093
 30
0.0
 40
2.5
  0
CIRCLE
  5
DBA
330
2
100
AcDbEntity
  8
0
100
AcDbCircle
 10
138.0104252539829
 20
431.0678655571093
 30
0.0
 40
2.0
  0
LINE
  5
DBB
330
2
100
AcDbEntity
  8
CENTER
100
AcDbLine
 10
138.0104252539829
 20
437.9578655571093
 30
0.0
 11
138.0104252539829
 21
424.1778655571093
 31
0.0
  0
LINE
  5
DBC
330
2
100
AcDbEntity
  8
CENTER
100
AcDbLine
 10
131.120425253983
 20
431.0678655571094
 30
0.0
 11
144.9004252539832
 21
431.0678655571094
 31
0.0
  0
LINE
  5
DBD
330
2
100
AcDbEntity
  8
CENTER
100
AcDbLine
 10
127.3702439898854
 20
314.4276842930119
 30
0.0
 11
268.6506065180803
 21
455.708046821207
 31
0.0
  0
LINE
  5
DBE
330
2
100
AcDbEntity
  8
CENTER
100
AcDbLine
 10
268.6506065185128
 20
314.4276842925796
 30
0.0
 11
127.3702439903179
 21
455.7080468207749
 31
0.0
  0
LINE
  5
DBF
330
2
100
AcDbEntity
  8
0
100
AcDbLine
 10
161.9726627729826
 20
323.6716123356957
 30
0.0
 11
164.4601050833555
 21
329.6768292970191
 31
0.0
  0
LINE
  5
DC0
330
2
100
AcDbEntity
  8
0
100
AcDbLine
 10
136.6141720325692
 20
349.0301030761089
 30
0.0
 11
142.6193889938933
 21
351.5175453864813
 31
0.0
  0
LINE
  5
DC1
330
2
100
AcDbEntity
  8
0
100
AcDbLine
 10
259.4066784745325
 20
349.0301030761089
 30
0.0
 11
253.4014615132089
 21
351.5175453864819
 31
0.0
  0
LINE
  5
DC2
330
2
100
AcDbEntity
  8
0
100
AcDbLine
 10
234.0481877341192
 20
323.6716123356957
 30
0.0
 11
231.5607454237467
 21
329.6768292970198
 31
0.0
  0
LINE
  5
DC3
330
2
100
AcDbEntity
  8
0
100
AcDbLine
 10
234.0481877341192
 20
446.4641187776589
 30
0.0
 11
231.5607454237463
 21
440.4589018163355
 31
0.0
  0
LINE
  5
DC4
330
2
100
AcDbEntity
  8
0
100
AcDbLine
 10
259.4066784745325
 20
421.1056280372456
 30
0.0
 11
253.4014615132084
 21
418.6181857268733
 31
0.0
  0
LINE
  5
DC5
330
2
100
AcDbEntity
  8
0
100
AcDbLine
 10
136.6141720325692
 20
421.1056280372457
 30
0.0
 11
142.6193889938924
 21
418.6181857268726
 31
0.0
  0
LINE
  5
DC6
330
2
100
AcDbEntity
  8
0
100
AcDbLine
 10
161.9726627729826
 20
446.464118777659
 30
0.0
 11
164.460105083355
 21
440.4589018163348
 31
0.0
  0
LINE
  5
DC7
330
2
100
AcDbEntity
  8
CENTER
 48
0.2
100
AcDbLine
 10
198.0104252539829
 20
332.099457612758
 30
0.0
 11
198.0104252539829
 21
338.0362735005963
 31
0.0
  0
CIRCLE
  5
DC8
330
2
100
AcDbEntity
  8
0
100
AcDbCircle
 10
198.0104252539829
 20
385.0678655571095
 30
0.0
 40
36.57735026918982
  0
CIRCLE
  5
DC9
330
2
100
AcDbEntity
  8
0
100
AcDbCircle
 10
198.0104252535509
 20
385.0678655566773
 30
0.0
 40
44.99999999956847
  0
ARC
  5
DCA
330
2
100
AcDbEntity
  8
0
100
AcDbCircle
 10
198.0104252535509
 20
657.5678655566774
 30
0.0
 40
340.0
100
AcDbArc
 50
265.8574811972686
 51
274.1425188027313
  0
ARC
  5
DCB
330
2
100
AcDbEntity
  8
0
100
AcDbCircle
 10
255.51042525355
 20
327.5678655566772
 30
0.0
 40
10.0
100
AcDbArc
 50
270.0
 51
0.0
  0
LINE
  5
DCC
330
2
100
AcDbEntity
  8
0
100
AcDbLine
 10
255.51042525355
 20
317.5678655566772
 30
0.0
 11
245.51042525355
 21
317.5678655566772
 31
0.0
  0
ARC
  5
DCD
330
2
100
AcDbEntity
  8
0
100
AcDbCircle
 10
229.7949773944735
 20
218.7173873238274
 30
0.0
 40
100.0
100
AcDbArc
 50
81.63298947741269
 51
94.14251880273134
  0
LINE
  5
DCE
330
2
100
AcDbEntity
  8
0
100
AcDbLine
 10
265.5104252535509
 20
327.5678655566774
 30
0.0
 11
265.5104252535509
 21
337.5678655566774
 31
0.0
  0
ARC
  5
DCF
330
2
100
AcDbEntity
  8
0
100
AcDbCircle
 10
257.5104252535509
 20
337.5678655566774
 30
0.0
 40
8.0
100
AcDbArc
 50
0.0
 51
8.367010522602221
  0
ARC
  5
DD0
330
2
100
AcDbEntity
  8
0
100
AcDbCircle
 10
364.3609034864009
 20
353.2833134157539
 30
0.0
 40
100.0
100
AcDbArc
 50
175.8574811972766
 51
188.3670105226022
  0
ARC
  5
DD1
330
2
100
AcDbEntity
  8
0
100
AcDbCircle
 10
150.5104252535509
 20
325.5678655566772
 30
0.0
 40
8.0
100
AcDbArc
 50
270.0
 51
278.3670105225872
  0
ARC
  5
DD2
330
2
100
AcDbEntity
  8
0
100
AcDbCircle
 10
166.2258731126273
 20
218.7173873238274
 30
0.0
 40
100.0
100
AcDbArc
 50
85.85748119726863
 51
98.3670105225873
  0
LINE
  5
DD3
330
2
100
AcDbEntity
  8
0
100
AcDbLine
 10
141.1204252534969
 20
317.5678655571335
 30
0.0
 11
150.5104252535509
 21
317.5678655566772
 31
0.0
  0
ARC
  5
DD4
330
2
100
AcDbEntity
  8
0
100
AcDbCircle
 10
255.51042525355
 20
442.5678655566772
 30
0.0
 40
10.0
100
AcDbArc
 50
0.0
 51
90.0
  0
LINE
  5
DD5
330
2
100
AcDbEntity
  8
0
100
AcDbLine
 10
255.51042525355
 20
452.5678655566773
 30
0.0
 11
245.51042525355
 21
452.5678655566773
 31
0.0
  0
ARC
  5
DD6
330
2
100
AcDbEntity
  8
0
100
AcDbCircle
 10
245.51042525355
 20
444.5678655566773
 30
0.0
 40
8.0
100
AcDbArc
 50
90.0
 51
98.3670105225873
  0
ARC
  5
DD7
330
2
100
AcDbEntity
  8
0
100
AcDbCircle
 10
229.7949773944735
 20
551.4183437895269
 30
0.0
 40
100.0
100
AcDbArc
 50
265.8574811972686
 51
278.3670105225872
  0
LINE
  5
DD8
330
2
100
AcDbEntity
  8
0
100
AcDbLine
 10
265.5104252535509
 20
442.5678655566768
 30
0.0
 11
265.5104252535509
 21
432.5678655566768
 31
0.0
  0
ARC
  5
DD9
330
2
100
AcDbEntity
  8
0
100
AcDbCircle
 10
257.5104252535509
 20
432.5678655566768
 30
0.0
 40
8.0
100
AcDbArc
 50
351.6329894774042
 51
0.0
  0
ARC
  5
DDA
330
2
100
AcDbEntity
  8
0
100
AcDbCircle
 10
364.3609034864009
 20
416.8524176976004
 30
0.0
 40
100.0
100
AcDbArc
 50
171.6329894773977
 51
184.1425188027296
  0
ARC
  5
DDB
330
2
100
AcDbEntity
  8
0
100
AcDbCircle
 10
150.5104252535509
 20
444.5678655566773
 30
0.0
 40
8.0
100
AcDbArc
 50
81.63298947741269
 51
90.0
  0
ARC
  5
DDC
330
2
100
AcDbEntity
  8
0
100
AcDbCircle
 10
166.2258731126273
 20
551.4183437895269
 30
0.0
 40
100.0
100
AcDbArc
 50
261.6329894774127
 51
274.1425188027313
  0
LINE
  5
DDD
330
2
100
AcDbEntity
  8
0
100
AcDbLine
 10
141.120425253983
 20
452.5678655566773
 30
0.0
 11
150.5104252535509
 21
452.5678655566773
 31
0.0
  0
ARC
  5
DDE
330
2
100
AcDbEntity
  8
0
100
AcDbCircle
 10
198.0104252535509
 20
112.5678655566773
 30
0.0
 40
340.0
100
AcDbArc
 50
85.85748119726863
 51
94.14251880273134
  0
ARC
  5
DDF
330
2
100
AcDbEntity
  8
0
100
AcDbCircle
 10
-74.48957474644908
 20
385.0678655566773
 30
0.0
 40
340.0
100
AcDbArc
 50
355.8574811972766
 51
4.142518802716637
  0
ARC
  5
DE0
330
2
100
AcDbEntity
  8
0
100
AcDbCircle
 10
245.5104252535509
 20
325.5678655566772
 30
0.0
 40
8.0
100
AcDbArc
 50
261.63298947736
 51
270.0
  0
LINE
  5
DE1
330
2
100
AcDbEntity
  8
0
100
AcDbLine
 10
140.8202290609876
 20
317.5678655566773
 30
0.0
 11
141.1204252534969
 21
317.5678655571335
 31
0.0
  0
LINE
  5
DE2
330
2
100
AcDbEntity
  8
0
100
AcDbLine
 10
140.8202290609876
 20
452.5678655566775
 30
0.0
 11
141.120425253983
 21
452.5678655566773
 31
0.0
  0
LINE
  5
DE3
330
2
100
AcDbEntity
  8
0
100
AcDbLine
 10
846.4147263073476
 20
830.6072265206152
 30
0.0
 11
846.4846935603166
 21
822.5897734496186
 31
0.0
  0
ARC
  5
DE4
330
2
100
AcDbEntity
  8
0
100
AcDbCircle
 10
844.4148024612193
 20
830.5897734496184
 30
0.0
 40
2.0
100
AcDbArc
 50
0.499999999998063
 51
90.0
  0
LINE
  5
DE5
330
2
100
AcDbEntity
  8
0
100
AcDbLine
 10
779.5946935603167
 20
847.5897734496136
 30
0.0
 11
821.517343291129
 21
847.5897734496134
 31
0.0
  0
ARC
  5
DE6
330
2
100
AcDbEntity
  8
0
 48
0.5
100
AcDbCircle
 10
821.7946935603166
 20
845.3897734496178
 30
0.0
 40
0.3
100
AcDbArc
 50
270.0
 51
0.0000000000065138
  0
ARC
  5
DE7
330
2
100
AcDbEntity
  8
0
100
AcDbCircle
 10
821.6946935603166
 20
844.789773449618
 30
0.0
 40
0.3
100
AcDbArc
 50
90.0
 51
180.0000000000065
  0
LINE
  5
DE8
330
2
100
AcDbEntity
  8
0
100
AcDbLine
 10
824.0946935603167
 20
839.5897734496179
 30
0.0
 11
822.0946935603167
 21
839.5897734496179
 31
0.0
  0
LINE
  5
DE9
330
2
100
AcDbEntity
  8
0
 48
0.5
100
AcDbLine
 10
822.0946935603167
 20
842.8897734496178
 30
0.0
 11
822.0946935603167
 21
839.5897734496179
 31
0.0
  0
LINE
  5
DEA
330
2
100
AcDbEntity
  8
0
 48
0.5
100
AcDbLine
 10
821.394693560317
 20
844.789773449618
 30
0.0
 11
821.394693560317
 21
843.3897734496179
 31
0.0
  0
LINE
  5
DEB
330
2
100
AcDbEntity
  8
0
 48
0.5
100
AcDbLine
 10
821.8946935603169
 20
843.0897734496179
 30
0.0
 11
822.0946935603167
 21
842.8897734496178
 31
0.0
  0
LINE
  5
DEC
330
2
100
AcDbEntity
  8
0
100
AcDbLine
 10
821.8946935603169
 20
843.0897734496179
 30
0.0
 11
737.2946935603165
 21
843.0897734496172
 31
0.0
  0
ARC
  5
DED
330
2
100
AcDbEntity
  8
0
100
AcDbCircle
 10
821.6946935603171
 20
843.3897734496179
 30
0.0
 40
0.3
100
AcDbArc
 50
180.0
 51
270.0
  0
ARC
  5
DEE
330
2
100
AcDbEntity
  8
HIDS
  6
SEKKEI_H
100
AcDbCircle
 10
834.7662664355695
 20
837.0897734496233
 30
0.0
 40
2.0
100
AcDbArc
 50
44.99999999999243
 51
90.0
  0
ARC
  5
DEF
330
2
100
AcDbEntity
  8
HIDS
  6
SEKKEI_H
100
AcDbCircle
 10
842.9231206850628
 20
834.5897734496187
 30
0.0
 40
2.0
100
AcDbArc
 50
224.9999999999924
 51
270.0
  0
LINE
  5
DF0
330
2
100
AcDbEntity
  8
HIDS
  6
SEKKEI_H
100
AcDbLine
 10
841.5089071226899
 20
833.1755598872454
 30
0.0
 11
836.1804799979402
 21
838.5039870119943
 31
0.0
  0
LINE
  5
DF1
330
2
100
AcDbEntity
  8
0
 48
0.5
100
AcDbLine
 10
824.5946935603168
 20
839.0897734496181
 30
0.0
 11
824.0946935603167
 21
839.5897734496179
 31
0.0
  0
LINE
  5
DF2
330
2
100
AcDbEntity
  8
0
100
AcDbLine
 10
830.5946935603166
 20
839.0897734496183
 30
0.0
 11
824.5946935603171
 21
839.0897734496176
 31
0.0
  0
LINE
  5
DF3
330
2
100
AcDbEntity
  8
0
100
AcDbLine
 10
822.0946935603167
 20
846.5897734496179
 30
0.0
 11
821.5173432911267
 21
847.5897734496179
 31
0.0
  0
LINE
  5
DF4
330
2
100
AcDbEntity
  8
0
 48
0.5
100
AcDbLine
 10
822.0946935603167
 20
846.5897734496179
 30
0.0
 11
822.0946935603167
 21
845.3897734496178
 31
0.0
  0
LINE
  5
DF5
330
2
100
AcDbEntity
  8
0
100
AcDbLine
 10
821.7946935603166
 20
845.0897734496178
 30
0.0
 11
737.3946935603164
 21
845.0897734496173
 31
0.0
  0
LINE
  5
DF6
330
2
100
AcDbEntity
  8
0
100
AcDbLine
 10
779.5946935603167
 20
847.5897734496136
 30
0.0
 11
737.6720438295039
 21
847.5897734496127
 31
0.0
  0
LINE
  5
DF7
330
2
100
AcDbEntity
  8
0
 48
0.5
100
AcDbLine
 10
712.1646608132857
 20
830.6072265206141
 30
0.0
 11
712.0946935603167
 21
822.5897734496175
 31
0.0
  0
LINE
  5
DF8
330
2
100
AcDbEntity
  8
0
100
AcDbLine
 10
714.1645846594144
 20
832.5897734496175
 30
0.0
 11
844.4148024612193
 21
832.5897734496184
 31
0.0
  0
ARC
  5
DF9
330
2
100
AcDbEntity
  8
0
100
AcDbCircle
 10
714.1645846594144
 20
830.5897734496175
 30
0.0
 40
2.0
100
AcDbArc
 50
90.0
 51
179.4999999999954
  0
ARC
  5
DFA
330
2
100
AcDbEntity
  8
0
 48
0.5
100
AcDbCircle
 10
737.3946935603164
 20
845.3897734496171
 30
0.0
 40
0.3
100
AcDbArc
 50
179.9999999999934
 51
270.0
  0
ARC
  5
DFB
330
2
100
AcDbEntity
  8
0
100
AcDbCircle
 10
737.4946935603163
 20
844.7897734496173
 30
0.0
 40
0.3
100
AcDbArc
 50
359.9999999999934
 51
90.0
  0
LINE
  5
DFC
330
2
100
AcDbEntity
  8
0
100
AcDbLine
 10
735.0946935603162
 20
839.5897734496172
 30
0.0
 11
737.0946935603162
 21
839.5897734496172
 31
0.0
  0
LINE
  5
DFD
330
2
100
AcDbEntity
  8
0
 48
0.5
100
AcDbLine
 10
737.0946935603158
 20
842.8897734496171
 30
0.0
 11
737.0946935603162
 21
839.5897734496172
 31
0.0
  0
LINE
  5
DFE
330
2
100
AcDbEntity
  8
0
 48
0.5
100
AcDbLine
 10
737.7946935603165
 20
844.7897734496173
 30
0.0
 11
737.7946935603165
 21
843.3897734496172
 31
0.0
  0
LINE
  5
DFF
330
2
100
AcDbEntity
  8
0
 48
0.5
100
AcDbLine
 10
737.2946935603165
 20
843.0897734496172
 30
0.0
 11
737.0946935603158
 21
842.8897734496171
 31
0.0
  0
ARC
  5
E00
330
2
100
AcDbEntity
  8
0
100
AcDbCircle
 10
737.4946935603163
 20
843.3897734496172
 30
0.0
 40
0.3
100
AcDbArc
 50
270.0
 51
0.0
  0
ARC
  5
E01
330
2
100
AcDbEntity
  8
HIDS
  6
SEKKEI_H
100
AcDbCircle
 10
724.4231206850634
 20
837.0897734496224
 30
0.0
 40
2.0
100
AcDbArc
 50
90.0
 51
135.0000000000075
  0
ARC
  5
E02
330
2
100
AcDbEntity
  8
HIDS
  6
SEKKEI_H
100
AcDbCircle
 10
716.26626643557
 20
834.5897734496174
 30
0.0
 40
2.0
100
AcDbArc
 50
270.0
 51
315.0000000000075
  0
LINE
  5
E03
330
2
100
AcDbEntity
  8
HIDS
  6
SEKKEI_H
100
AcDbLine
 10
717.6804799979434
 20
833.1755598872444
 30
0.0
 11
723.0089071226927
 21
838.5039870119934
 31
0.0
  0
LINE
  5
E04
330
2
100
AcDbEntity
  8
0
 48
0.5
100
AcDbLine
 10
734.5946935603162
 20
839.0897734496174
 30
0.0
 11
735.0946935603162
 21
839.5897734496172
 31
0.0
  0
LINE
  5
E05
330
2
100
AcDbEntity
  8
0
100
AcDbLine
 10
728.5946935603167
 20
839.0897734496174
 30
0.0
 11
734.5946935603158
 21
839.0897734496171
 31
0.0
  0
LINE
  5
E06
330
2
100
AcDbEntity
  8
0
100
AcDbLine
 10
737.0946935603167
 20
846.5897734496172
 30
0.0
 11
737.6720438295067
 21
847.5897734496172
 31
0.0
  0
LINE
  5
E07
330
2
100
AcDbEntity
  8
0
 48
0.5
100
AcDbLine
 10
737.0946935603167
 20
846.5897734496172
 30
0.0
 11
737.0946935603167
 21
845.3897734496171
 31
0.0
  0
LINE
  5
E08
330
2
100
AcDbEntity
  8
0
100
AcDbLine
 10
822.0946935603167
 20
846.5897734496179
 30
0.0
 11
737.0946935603167
 21
846.5897734496172
 31
0.0
  0
LINE
  5
E09
330
2
100
AcDbEntity
  8
0
100
AcDbLine
 10
737.0946935603158
 20
842.8897734496171
 30
0.0
 11
822.0946935603167
 21
842.8897734496178
 31
0.0
  0
LINE
  5
E0A
330
2
100
AcDbEntity
  8
0
100
AcDbLine
 10
822.0946935603167
 20
839.5897734496179
 30
0.0
 11
737.0946935603162
 21
839.5897734496172
 31
0.0
  0
LINE
  5
E0B
330
2
100
AcDbEntity
  8
0
100
AcDbLine
 10
734.5946935603158
 20
839.0897734496171
 30
0.0
 11
824.5946935603171
 21
839.0897734496176
 31
0.0
  0
LINE
  5
E0C
330
2
100
AcDbEntity
  8
0
100
AcDbLine
 10
846.4846935603166
 20
822.5897734496186
 30
0.0
 11
712.0946935603167
 21
822.5897734496175
 31
0.0
  0
LINE
  5
E0D
330
2
100
AcDbEntity
  8
0
100
AcDbLine
 10
827.0946935603163
 20
822.5897734496207
 30
0.0
 11
827.0946935603157
 21
831.0897734496183
 31
0.0
  0
LINE
  5
E0E
330
2
100
AcDbEntity
  8
0
100
AcDbLine
 10
804.1554838510299
 20
822.5897734496195
 30
0.0
 11
804.1554838510299
 21
831.0897734496181
 31
0.0
  0
LINE
  5
E0F
330
2
100
AcDbEntity
  8
0
100
AcDbLine
 10
837.0946935607488
 20
822.5897734496212
 30
0.0
 11
837.0946935607488
 21
831.0897734496183
 31
0.0
  0
LINE
  5
E10
330
2
100
AcDbEntity
  8
0
100
AcDbLine
 10
732.0946935603172
 20
822.5897734496152
 30
0.0
 11
732.0946935603172
 21
831.0897734496174
 31
0.0
  0
LINE
  5
E11
330
2
100
AcDbEntity
  8
0
100
AcDbLine
 10
755.0339032696036
 20
822.5897734496166
 30
0.0
 11
755.0339032696036
 21
831.0897734496176
 31
0.0
  0
LINE
  5
E12
330
2
100
AcDbEntity
  8
0
100
AcDbLine
 10
722.0946935598846
 20
822.5897734496147
 30
0.0
 11
722.0946935598846
 21
831.0897734496174
 31
0.0
  0
LINE
  5
E13
330
2
100
AcDbEntity
  8
0
 48
0.5
100
AcDbLine
 10
1337.29943212477
 20
317.6378328096467
 30
0.0
 11
1329.281979053773
 21
317.5678655566774
 31
0.0
  0
ARC
  5
E14
330
2
100
AcDbEntity
  8
0
100
AcDbCircle
 10
1337.281979053773
 20
319.637756655775
 30
0.0
 40
2.0
100
AcDbArc
 50
270.4999999999915
 51
0.0
  0
ARC
  5
E15
330
2
100
AcDbEntity
  8
0
100
AcDbCircle
 10
1341.281979053773
 20
321.7394384319311
 30
0.0
 40
2.0
100
AcDbArc
 50
135.0000000000074
 51
180.0
  0
LINE
  5
E16
330
2
100
AcDbEntity
  8
0
100
AcDbLine
 10
1339.8677654914
 20
323.1536519943042
 30
0.0
 11
1341.676937036967
 21
324.9628235398719
 31
0.0
  0
LINE
  5
E17
330
2
100
AcDbEntity
  8
0
 48
0.5
100
AcDbLine
 10
1337.299432124769
 20
452.497898303708
 30
0.0
 11
1329.281979053772
 21
452.5678655566771
 31
0.0
  0
LINE
  5
E18
330
2
100
AcDbEntity
  8
0
100
AcDbLine
 10
1339.281979053772
 20
450.4979744575797
 30
0.0
 11
1339.281979053772
 21
445.1928655566777
 31
0.0
  0
LINE
  5
E19
330
2
100
AcDbEntity
  8
0
100
AcDbLine
 10
1339.281979053773
 20
324.9428655566786
 30
0.0
 11
1339.281979053773
 21
319.637756655775
 31
0.0
  0
ARC
  5
E1A
330
2
100
AcDbEntity
  8
0
100
AcDbCircle
 10
1337.281979053772
 20
450.4979744575796
 30
0.0
 40
2.0
100
AcDbArc
 50
0.0
 51
89.50000000000846
  0
ARC
  5
E1B
330
2
100
AcDbEntity
  8
0
100
AcDbCircle
 10
1341.281979053772
 20
448.3962926814236
 30
0.0
 40
2.0
100
AcDbArc
 50
180.0
 51
224.9999999999926
  0
LINE
  5
E1C
330
2
100
AcDbEntity
  8
0
100
AcDbLine
 10
1339.867765491399
 20
446.9820791190506
 30
0.0
 11
1341.676937036965
 21
445.1729075734844
 31
0.0
  0
LINE
  5
E1D
330
2
100
AcDbEntity
  8
0
100
AcDbLine
 10
1329.281979053773
 20
317.5678655566774
 30
0.0
 11
1329.281979053773
 21
324.8595322233449
 31
0.0
  0
LINE
  5
E1E
330
2
100
AcDbEntity
  8
0
100
AcDbLine
 10
1329.281979053772
 20
445.2761988900109
 30
0.0
 11
1329.281979053772
 21
452.5678655566771
 31
0.0
  0
LINE
  5
E1F
330
2
100
AcDbEntity
  8
0
 48
0.3
100
AcDbLine
 10
354.9144484373134
 20
334.0678655566772
 30
0.0
 11
354.9144484373139
 21
321.0678655566773
 31
0.0
  0
LINE
  5
E20
330
2
100
AcDbEntity
  8
0
 48
0.3
100
AcDbLine
 10
354.4144484373134
 20
333.2018401528914
 30
0.0
 11
354.4144484373139
 21
321.9338909604618
 31
0.0
  0
LINE
  5
E21
330
2
100
AcDbEntity
  8
CENTER
 48
0.5
100
AcDbLine
 10
351.4144484373139
 20
327.5678655566772
 30
0.0
 11
370.4144484373139
 21
327.5678655566772
 31
0.0
  0
LINE
  5
E22
330
2
100
AcDbEntity
  8
0
 48
0.3
100
AcDbLine
 10
354.9144484373139
 20
321.0678655566773
 30
0.0
 11
354.4144484373139
 21
321.9338909604618
 31
0.0
  0
LINE
  5
E23
330
2
100
AcDbEntity
  8
0
 48
0.3
100
AcDbLine
 10
354.9144484373139
 20
321.0678655566773
 30
0.0
 11
362.4144484373139
 21
321.0678655566773
 31
0.0
  0
LINE
  5
E24
330
2
100
AcDbEntity
  8
0
 48
0.3
100
AcDbLine
 10
354.9144484373143
 20
334.0678655566768
 30
0.0
 11
354.4144484373143
 21
333.2018401528925
 31
0.0
  0
LINE
  5
E25
330
2
100
AcDbEntity
  8
0
 48
0.3
100
AcDbLine
 10
354.9144484373143
 20
334.0678655566772
 30
0.0
 11
362.4144484373134
 21
334.0678655566772
 31
0.0
  0
LINE
  5
E26
330
2
100
AcDbEntity
  8
0
 48
0.3
100
AcDbLine
 10
354.9144484373134
 20
449.0678655566773
 30
0.0
 11
354.9144484373134
 21
436.0678655566773
 31
0.0
  0
LINE
  5
E27
330
2
100
AcDbEntity
  8
0
 48
0.3
100
AcDbLine
 10
354.4144484373134
 20
448.2018401528914
 30
0.0
 11
354.4144484373134
 21
436.9338909604618
 31
0.0
  0
LINE
  5
E28
330
2
100
AcDbEntity
  8
CENTER
 48
0.5
100
AcDbLine
 10
351.4144484373134
 20
442.5678655566772
 30
0.0
 11
370.4144484373134
 21
442.5678655566772
 31
0.0
  0
LINE
  5
E29
330
2
100
AcDbEntity
  8
0
 48
0.3
100
AcDbLine
 10
354.9144484373134
 20
436.0678655566773
 30
0.0
 11
354.4144484373134
 21
436.9338909604618
 31
0.0
  0
LINE
  5
E2A
330
2
100
AcDbEntity
  8
0
 48
0.3
100
AcDbLine
 10
354.9144484373134
 20
436.0678655566773
 30
0.0
 11
362.4144484373134
 21
436.0678655566773
 31
0.0
  0
LINE
  5
E2B
330
2
100
AcDbEntity
  8
0
 48
0.3
100
AcDbLine
 10
354.9144484373139
 20
449.0678655566768
 30
0.0
 11
354.4144484373139
 21
448.2018401528925
 31
0.0
  0
LINE
  5
E2C
330
2
100
AcDbEntity
  8
0
 48
0.3
100
AcDbLine
 10
354.9144484373143
 20
449.0678655566773
 30
0.0
 11
362.4144484373134
 21
449.0678655566773
 31
0.0
  0
LINE
  5
E2D
330
2
100
AcDbEntity
  8
0
 48
0.3
100
AcDbLine
 10
728.5946935603167
 20
842.0897734496177
 30
0.0
 11
715.5946935603167
 21
842.0897734496175
 31
0.0
  0
LINE
  5
E2E
330
2
100
AcDbEntity
  8
0
 48
0.3
100
AcDbLine
 10
727.7286681565308
 20
842.5897734496176
 30
0.0
 11
716.4607189641012
 21
842.5897734496174
 31
0.0
  0
LINE
  5
E2F
330
2
100
AcDbEntity
  8
CENTER
 48
0.5
100
AcDbLine
 10
722.0946935603167
 20
845.5897734496174
 30
0.0
 11
722.0946935603167
 21
826.5897734496174
 31
0.0
  0
LINE
  5
E30
330
2
100
AcDbEntity
  8
0
 48
0.3
100
AcDbLine
 10
715.5946935603167
 20
842.0897734496175
 30
0.0
 11
716.4607189641012
 21
842.5897734496174
 31
0.0
  0
LINE
  5
E31
330
2
100
AcDbEntity
  8
0
 48
0.3
100
AcDbLine
 10
715.5946935603167
 20
842.0897734496175
 30
0.0
 11
715.5946935603167
 21
834.5897734496174
 31
0.0
  0
LINE
  5
E32
330
2
100
AcDbEntity
  8
0
 48
0.3
100
AcDbLine
 10
728.5946935603162
 20
842.089773449617
 30
0.0
 11
727.7286681565317
 21
842.5897734496171
 31
0.0
  0
LINE
  5
E33
330
2
100
AcDbEntity
  8
0
 48
0.3
100
AcDbLine
 10
728.5946935603167
 20
842.0897734496168
 30
0.0
 11
728.5946935603167
 21
834.5897734496176
 31
0.0
  0
LINE
  5
E34
330
2
100
AcDbEntity
  8
0
 48
0.3
100
AcDbLine
 10
843.5946935603167
 20
842.0897734496184
 30
0.0
 11
830.5946935603166
 21
842.0897734496181
 31
0.0
  0
LINE
  5
E35
330
2
100
AcDbEntity
  8
0
 48
0.3
100
AcDbLine
 10
842.7286681565307
 20
842.5897734496183
 30
0.0
 11
831.4607189641012
 21
842.5897734496182
 31
0.0
  0
LINE
  5
E36
330
2
100
AcDbEntity
  8
CENTER
 48
0.5
100
AcDbLine
 10
837.0946935603168
 20
845.5897734496184
 30
0.0
 11
837.0946935603168
 21
826.5897734496183
 31
0.0
  0
LINE
  5
E37
330
2
100
AcDbEntity
  8
0
 48
0.3
100
AcDbLine
 10
830.5946935603166
 20
842.0897734496181
 30
0.0
 11
831.4607189641012
 21
842.5897734496182
 31
0.0
  0
LINE
  5
E38
330
2
100
AcDbEntity
  8
0
 48
0.3
100
AcDbLine
 10
830.5946935603166
 20
842.0897734496181
 30
0.0
 11
830.5946935603166
 21
834.5897734496181
 31
0.0
  0
LINE
  5
E39
330
2
100
AcDbEntity
  8
0
 48
0.3
100
AcDbLine
 10
843.5946935603162
 20
842.0897734496177
 30
0.0
 11
842.7286681565316
 21
842.589773449618
 31
0.0
  0
LINE
  5
E3A
330
2
100
AcDbEntity
  8
0
 48
0.3
100
AcDbLine
 10
843.5946935603167
 20
842.0897734496175
 30
0.0
 11
843.5946935603167
 21
834.5897734496183
 31
0.0
  0
LINE
  5
E3B
330
2
100
AcDbEntity
  8
0
100
AcDbLine
 10
255.5104252539829
 20
439.1037639419717
 30
0.0
 11
258.5104252539824
 21
440.8358147495406
 31
0.0
  0
LINE
  5
E3C
330
2
100
AcDbEntity
  8
0
100
AcDbLine
 10
252.5104252539829
 20
444.2999163646782
 30
0.0
 11
255.5104252539829
 21
446.0319671722472
 31
0.0
  0
CIRCLE
  5
E3D
330
2
100
AcDbEntity
  8
0
100
AcDbCircle
 10
255.5104252539829
 20
442.5678655571094
 30
0.0
 40
6.5
  0
LINE
  5
E3E
330
2
100
AcDbEntity
  8
0
100
AcDbLine
 10
258.5104252539824
 20
444.2999163646782
 30
0.0
 11
255.5104252539829
 21
446.0319671722471
 31
0.0
  0
LINE
  5
E3F
330
2
100
AcDbEntity
  8
0
100
AcDbLine
 10
255.5104252539829
 20
439.1037639419718
 30
0.0
 11
252.5104252539829
 21
440.8358147495405
 31
0.0
  0
LINE
  5
E40
330
2
100
AcDbEntity
  8
0
100
AcDbLine
 10
258.5104252539824
 20
440.8358147495408
 30
0.0
 11
258.5104252539824
 21
444.2999163646783
 31
0.0
  0
LINE
  5
E41
330
2
100
AcDbEntity
  8
0
100
AcDbLine
 10
252.5104252539829
 20
440.8358147495404
 30
0.0
 11
252.5104252539829
 21
444.2999163646782
 31
0.0
  0
CIRCLE
  5
E42
330
2
100
AcDbEntity
  8
0
100
AcDbCircle
 10
255.5104252539829
 20
442.5678655571094
 30
0.0
 40
5.633974596215466
  0
LINE
  5
E43
330
2
100
AcDbEntity
  8
0
100
AcDbLine
 10
140.5104252539833
 20
439.1037639419717
 30
0.0
 11
143.5104252539833
 21
440.8358147495406
 31
0.0
  0
LINE
  5
E44
330
2
100
AcDbEntity
  8
0
100
AcDbLine
 10
137.5104252539833
 20
444.2999163646782
 30
0.0
 11
140.5104252539833
 21
446.0319671722472
 31
0.0
  0
CIRCLE
  5
E45
330
2
100
AcDbEntity
  8
0
100
AcDbCircle
 10
140.5104252539833
 20
442.5678655571094
 30
0.0
 40
6.5
  0
LINE
  5
E46
330
2
100
AcDbEntity
  8
0
100
AcDbLine
 10
143.5104252539833
 20
444.2999163646782
 30
0.0
 11
140.5104252539833
 21
446.0319671722471
 31
0.0
  0
LINE
  5
E47
330
2
100
AcDbEntity
  8
0
100
AcDbLine
 10
140.5104252539833
 20
439.1037639419718
 30
0.0
 11
137.5104252539833
 21
440.8358147495405
 31
0.0
  0
LINE
  5
E48
330
2
100
AcDbEntity
  8
0
100
AcDbLine
 10
143.5104252539833
 20
440.8358147495408
 30
0.0
 11
143.5104252539833
 21
444.2999163646783
 31
0.0
  0
LINE
  5
E49
330
2
100
AcDbEntity
  8
0
100
AcDbLine
 10
137.5104252539833
 20
440.8358147495404
 30
0.0
 11
137.5104252539833
 21
444.2999163646782
 31
0.0
  0
CIRCLE
  5
E4A
330
2
100
AcDbEntity
  8
0
100
AcDbCircle
 10
140.5104252539833
 20
442.5678655571094
 30
0.0
 40
5.633974596215466
  0
LINE
  5
E4B
330
2
100
AcDbEntity
  8
0
100
AcDbLine
 10
140.5104252539833
 20
324.1037639419715
 30
0.0
 11
143.5104252539833
 21
325.8358147495405
 31
0.0
  0
LINE
  5
E4C
330
2
100
AcDbEntity
  8
0
100
AcDbLine
 10
137.5104252539833
 20
329.2999163646781
 30
0.0
 11
140.5104252539833
 21
331.031967172247
 31
0.0
  0
CIRCLE
  5
E4D
330
2
100
AcDbEntity
  8
0
100
AcDbCircle
 10
140.5104252539833
 20
327.5678655571092
 30
0.0
 40
6.5
  0
LINE
  5
E4E
330
2
100
AcDbEntity
  8
0
100
AcDbLine
 10
143.5104252539833
 20
329.2999163646781
 30
0.0
 11
140.5104252539833
 21
331.0319671722469
 31
0.0
  0
LINE
  5
E4F
330
2
100
AcDbEntity
  8
0
100
AcDbLine
 10
140.5104252539833
 20
324.1037639419717
 30
0.0
 11
137.5104252539833
 21
325.8358147495404
 31
0.0
  0
LINE
  5
E50
330
2
100
AcDbEntity
  8
0
100
AcDbLine
 10
143.5104252539833
 20
325.8358147495406
 30
0.0
 11
143.5104252539833
 21
329.2999163646782
 31
0.0
  0
LINE
  5
E51
330
2
100
AcDbEntity
  8
0
100
AcDbLine
 10
137.5104252539833
 20
325.8358147495403
 30
0.0
 11
137.5104252539833
 21
329.2999163646781
 31
0.0
  0
CIRCLE
  5
E52
330
2
100
AcDbEntity
  8
0
100
AcDbCircle
 10
140.5104252539833
 20
327.5678655571092
 30
0.0
 40
5.633974596215466
  0
LINE
  5
E53
330
2
100
AcDbEntity
  8
0
100
AcDbLine
 10
255.5104252539829
 20
324.1037639419715
 30
0.0
 11
258.5104252539824
 21
325.8358147495405
 31
0.0
  0
LINE
  5
E54
330
2
100
AcDbEntity
  8
0
100
AcDbLine
 10
252.5104252539829
 20
329.2999163646781
 30
0.0
 11
255.5104252539829
 21
331.031967172247
 31
0.0
  0
CIRCLE
  5
E55
330
2
100
AcDbEntity
  8
0
100
AcDbCircle
 10
255.5104252539829
 20
327.5678655571092
 30
0.0
 40
6.5
  0
LINE
  5
E56
330
2
100
AcDbEntity
  8
0
100
AcDbLine
 10
258.5104252539824
 20
329.2999163646781
 30
0.0
 11
255.5104252539829
 21
331.0319671722469
 31
0.0
  0
LINE
  5
E57
330
2
100
AcDbEntity
  8
0
100
AcDbLine
 10
255.5104252539829
 20
324.1037639419717
 30
0.0
 11
252.5104252539829
 21
325.8358147495404
 31
0.0
  0
LINE
  5
E58
330
2
100
AcDbEntity
  8
0
100
AcDbLine
 10
258.5104252539824
 20
325.8358147495406
 30
0.0
 11
258.5104252539824
 21
329.2999163646782
 31
0.0
  0
LINE
  5
E59
330
2
100
AcDbEntity
  8
0
100
AcDbLine
 10
252.5104252539829
 20
325.8358147495403
 30
0.0
 11
252.5104252539829
 21
329.2999163646781
 31
0.0
  0
CIRCLE
  5
E5A
330
2
100
AcDbEntity
  8
0
100
AcDbCircle
 10
255.5104252539829
 20
327.5678655571092
 30
0.0
 40
5.633974596215466
  0
LINE
  5
E5B
330
2
100
AcDbEntity
  8
HIDS
  6
SEKKEI_H
100
AcDbLine
 10
357.9144484373084
 20
440.23943843193
 30
0.0
 11
357.9144484373134
 21
436.0678655566773
 31
0.0
  0
LINE
  5
E5C
330
2
100
AcDbEntity
  8
HIDS
  6
SEKKEI_H
100
AcDbLine
 10
357.9144484373089
 20
329.8962926814245
 30
0.0
 11
357.9144484373139
 21
334.0678655566772
 31
0.0
  0
ARC
  5
E5D
330
2
100
AcDbEntity
  8
HIDS
  6
SEKKEI_H
100
AcDbCircle
 10
359.4144484373093
 20
435.150851673815
 30
0.0
 40
10.00000000000001
100
AcDbArc
 50
90.47745377731077
 51
119.9999999999698
  0
ARC
  5
E5E
330
2
100
AcDbEntity
  8
HIDS
  6
SEKKEI_H
100
AcDbCircle
 10
359.4144484373093
 20
334.9848794395394
 30
0.0
 40
10.00000000000001
100
AcDbArc
 50
240.00000000003
 51
269.5225462226892
  0
LINE
  5
E5F
330
2
100
AcDbEntity
  8
HIDS
  6
SEKKEI_H
100
AcDbLine
 10
728.5946935603167
 20
839.0897734496174
 30
0.0
 11
724.4231206850638
 21
839.0897734496224
 31
0.0
  0
LINE
  5
E60
330
2
100
AcDbEntity
  8
HIDS
  6
SEKKEI_H
100
AcDbLine
 10
830.5946935603166
 20
839.0897734496183
 30
0.0
 11
834.7662664355691
 21
839.0897734496233
 31
0.0
  0
CIRCLE
  5
E61
330
2
100
AcDbEntity
  8
0
100
AcDbCircle
 10
255.5104252539829
 20
327.5678655571092
 30
0.0
 40
7.25
  0
CIRCLE
  5
E62
330
2
100
AcDbEntity
  8
0
100
AcDbCircle
 10
255.5104252539829
 20
442.5678655571094
 30
0.0
 40
7.25
  0
CIRCLE
  5
E63
330
2
100
AcDbEntity
  8
0
100
AcDbCircle
 10
140.5104252539833
 20
442.5678655571095
 30
0.0
 40
7.25
  0
CIRCLE
  5
E64
330
2
100
AcDbEntity
  8
0
100
AcDbCircle
 10
140.5104252539833
 20
327.5678655571092
 30
0.0
 40
7.25
  0
LINE
  5
E65
330
2
100
AcDbEntity
  8
0
 48
0.3
100
AcDbLine
 10
362.4144484373134
 20
449.8178655566773
 30
0.0
 11
362.4144484373134
 21
435.3178655566773
 31
0.0
  0
LINE
  5
E66
330
2
100
AcDbEntity
  8
0
 48
0.3
100
AcDbLine
 10
362.4144484373134
 20
435.3178655566773
 30
0.0
 11
364.4144484373134
 21
435.3178655566773
 31
0.0
  0
LINE
  5
E67
330
2
100
AcDbEntity
  8
0
 48
0.3
100
AcDbLine
 10
362.4144484373134
 20
449.8178655566773
 30
0.0
 11
364.4144484373134
 21
449.8178655566773
 31
0.0
  0
LINE
  5
E68
330
2
100
AcDbEntity
  8
0
100
AcDbLine
 10
364.4144484373134
 20
449.8178655566773
 30
0.0
 11
364.4144484373134
 21
435.3178655566773
 31
0.0
  0
LINE
  5
E69
330
2
100
AcDbEntity
  8
0
 48
0.3
100
AcDbLine
 10
362.4144484373139
 20
334.8178655566773
 30
0.0
 11
362.4144484373139
 21
320.3178655566773
 31
0.0
  0
LINE
  5
E6A
330
2
100
AcDbEntity
  8
0
 48
0.3
100
AcDbLine
 10
362.4144484373139
 20
320.3178655566773
 30
0.0
 11
364.4144484373139
 21
320.3178655566773
 31
0.0
  0
LINE
  5
E6B
330
2
100
AcDbEntity
  8
0
 48
0.3
100
AcDbLine
 10
362.4144484373139
 20
334.8178655566773
 30
0.0
 11
364.4144484373139
 21
334.8178655566773
 31
0.0
  0
LINE
  5
E6C
330
2
100
AcDbEntity
  8
0
100
AcDbLine
 10
364.4144484373139
 20
334.8178655566773
 30
0.0
 11
364.4144484373139
 21
320.3178655566773
 31
0.0
  0
LINE
  5
E6D
330
2
100
AcDbEntity
  8
0
 48
0.3
100
AcDbLine
 10
729.3446935603167
 20
834.5897734496174
 30
0.0
 11
714.8446935603167
 21
834.5897734496174
 31
0.0
  0
LINE
  5
E6E
330
2
100
AcDbEntity
  8
0
 48
0.3
100
AcDbLine
 10
714.8446935603167
 20
834.5897734496174
 30
0.0
 11
714.8446935603167
 21
832.5897734496175
 31
0.0
  0
LINE
  5
E6F
330
2
100
AcDbEntity
  8
0
 48
0.3
100
AcDbLine
 10
729.3446935603167
 20
834.5897734496176
 30
0.0
 11
729.3446935603167
 21
832.5897734496177
 31
0.0
  0
LINE
  5
E70
330
2
100
AcDbEntity
  8
0
100
AcDbLine
 10
729.3446935603167
 20
832.5897734496177
 30
0.0
 11
714.8446935603167
 21
832.5897734496175
 31
0.0
  0
LINE
  5
E71
330
2
100
AcDbEntity
  8
0
 48
0.3
100
AcDbLine
 10
844.3446935603168
 20
834.5897734496183
 30
0.0
 11
829.8446935603166
 21
834.5897734496183
 31
0.0
  0
LINE
  5
E72
330
2
100
AcDbEntity
  8
0
 48
0.3
100
AcDbLine
 10
829.8446935603166
 20
834.5897734496183
 30
0.0
 11
829.8446935603166
 21
832.5897734496182
 31
0.0
  0
LINE
  5
E73
330
2
100
AcDbEntity
  8
0
 48
0.3
100
AcDbLine
 10
844.3446935603168
 20
834.5897734496183
 30
0.0
 11
844.3446935603168
 21
832.5897734496184
 31
0.0
  0
LINE
  5
E74
330
2
100
AcDbEntity
  8
0
100
AcDbLine
 10
844.3446935603168
 20
832.5897734496184
 30
0.0
 11
829.8446935603166
 21
832.5897734496184
 31
0.0
  0
LINE
  5
E75
330
2
100
AcDbEntity
  8
0
 48
0.3
100
AcDbLine
 10
1348.781979053776
 20
444.0811372235631
 30
0.0
 11
1348.781979053776
 21
449.0678655566772
 31
0.0
  0
LINE
  5
E76
330
2
100
AcDbEntity
  8
0
 48
0.3
100
AcDbLine
 10
1349.281979053776
 20
443.811105711662
 30
0.0
 11
1349.281979053776
 21
448.2018401528927
 31
0.0
  0
LINE
  5
E77
330
2
100
AcDbEntity
  8
0
 48
0.3
100
AcDbLine
 10
1348.781979053776
 20
449.0678655566772
 30
0.0
 11
1349.281979053776
 21
448.2018401528927
 31
0.0
  0
LINE
  5
E78
330
2
100
AcDbEntity
  8
0
 48
0.3
100
AcDbLine
 10
1348.781979053776
 20
449.0678655566772
 30
0.0
 11
1341.281979053776
 21
449.0678655566772
 31
0.0
  0
LINE
  5
E79
330
2
100
AcDbEntity
  8
0
 48
0.3
100
AcDbLine
 10
1348.781979053776
 20
321.0678655566772
 30
0.0
 11
1348.781979053776
 21
326.0545938897917
 31
0.0
  0
LINE
  5
E7A
330
2
100
AcDbEntity
  8
0
 48
0.3
100
AcDbLine
 10
1349.281979053776
 20
321.9338909604631
 30
0.0
 11
1349.281979053776
 21
326.324625401693
 31
0.0
  0
LINE
  5
E7B
330
2
100
AcDbEntity
  8
0
 48
0.3
100
AcDbLine
 10
1348.781979053776
 20
321.0678655566777
 30
0.0
 11
1349.281979053776
 21
321.933890960462
 31
0.0
  0
LINE
  5
E7C
330
2
100
AcDbEntity
  8
0
 48
0.3
100
AcDbLine
 10
1348.781979053775
 20
321.0678655566772
 30
0.0
 11
1341.281979053776
 21
321.0678655566772
 31
0.0
  0
LINE
  5
E7D
330
2
100
AcDbEntity
  8
0
 48
0.3
100
AcDbLine
 10
1341.281979053776
 20
320.3178655566772
 30
0.0
 11
1341.281979053776
 21
324.567865556681
 31
0.0
  0
LINE
  5
E7E
330
2
100
AcDbEntity
  8
0
 48
0.3
100
AcDbLine
 10
1341.281979053776
 20
320.3178655566772
 30
0.0
 11
1339.281979053776
 21
320.3178655566772
 31
0.0
  0
LINE
  5
E7F
330
2
100
AcDbEntity
  8
0
100
AcDbLine
 10
1339.281979053776
 20
320.3178655566772
 30
0.0
 11
1339.281979053776
 21
324.9428655566786
 31
0.0
  0
LINE
  5
E80
330
2
100
AcDbEntity
  8
0
 48
0.3
100
AcDbLine
 10
1341.281979053776
 20
445.5678655566734
 30
0.0
 11
1341.281979053776
 21
449.8178655566772
 31
0.0
  0
LINE
  5
E81
330
2
100
AcDbEntity
  8
0
 48
0.3
100
AcDbLine
 10
1341.281979053776
 20
449.8178655566772
 30
0.0
 11
1339.281979053776
 21
449.8178655566772
 31
0.0
  0
LINE
  5
E82
330
2
100
AcDbEntity
  8
0
100
AcDbLine
 10
1339.281979053776
 20
445.1928655566776
 30
0.0
 11
1339.281979053776
 21
449.8178655566772
 31
0.0
  0
LINE
  5
E83
330
2
100
AcDbEntity
  8
0
 48
0.5
100
AcDbLine
 10
374.4144484373171
 20
317.5722289905735
 30
0.0
 11
476.4144484373093
 21
318.4623695052288
 31
0.0
  0
LINE
  5
E84
330
2
100
AcDbEntity
  8
0
 48
0.5
100
AcDbLine
 10
374.4144484373171
 20
452.563502122781
 30
0.0
 11
476.414448437302
 21
451.6733616081258
 31
0.0
  0
LINE
  5
E85
330
2
100
AcDbEntity
  8
0
100
AcDbLine
 10
1209.934682698446
 20
428.8592818003471
 30
0.0
 11
1215.671164475114
 21
429.8707783119163
 31
0.0
  0
LINE
  5
E86
330
2
100
AcDbEntity
  8
0
100
AcDbLine
 10
1209.934682698446
 20
341.2764493130072
 30
0.0
 11
1215.671164475116
 21
340.264952801438
 31
0.0
  0
ARC
  5
E87
330
2
100
AcDbEntity
  8
0
100
AcDbCircle
 10
1210.28197905378
 20
343.2460648190319
 30
0.0
 40
2.0
100
AcDbArc
 50
180.0
 51
259.9999999999948
  0
LINE
  5
E88
330
2
100
AcDbEntity
  8
0
100
AcDbLine
 10
1208.28197905378
 20
426.8896662943227
 30
0.0
 11
1208.28197905378
 21
343.2460648190319
 31
0.0
  0
ARC
  5
E89
330
2
100
AcDbEntity
  8
0
100
AcDbCircle
 10
1210.28197905378
 20
426.8896662943227
 30
0.0
 40
2.0
100
AcDbArc
 50
100.0000000000051
 51
180.0
  0
ARC
  5
E8A
330
2
100
AcDbEntity
  8
0
100
AcDbCircle
 10
1214.281979053779
 20
437.7492403360135
 30
0.0
 40
8.0
100
AcDbArc
 50
280.0000000000051
 51
0.0
  0
ARC
  5
E8B
330
2
100
AcDbEntity
  8
0
100
AcDbCircle
 10
1214.28197905378
 20
332.3864907773403
 30
0.0
 40
8.0
100
AcDbArc
 50
0.0
 51
79.99999999999484
  0
LINE
  5
E8C
330
2
100
AcDbEntity
  8
0
100
AcDbLine
 10
70.01042525354591
 20
445.5678655566773
 30
0.0
 11
84.01042525355228
 21
445.5678655566773
 31
0.0
  0
ARC
  5
E8D
330
2
100
AcDbEntity
  8
0
100
AcDbCircle
 10
84.01042525355228
 20
326.5678655566773
 30
0.0
 40
2.0
100
AcDbArc
 50
270.0
 51
0.0
  0
LINE
  5
E8E
330
2
100
AcDbEntity
  8
0
100
AcDbLine
 10
70.01042525354591
 20
324.5678655566774
 30
0.0
 11
84.01042525355228
 21
324.5678655566773
 31
0.0
  0
LINE
  5
E8F
330
2
100
AcDbEntity
  8
0
100
AcDbLine
 10
907.5946935603218
 20
445.5678655566773
 30
0.0
 11
893.5946935603153
 21
445.5678655566773
 31
0.0
  0
ARC
  5
E90
330
2
100
AcDbEntity
  8
0
100
AcDbCircle
 10
893.5946935603153
 20
443.5678655566773
 30
0.0
 40
2.0
100
AcDbArc
 50
90.0
 51
180.0
  0
LINE
  5
E91
330
2
100
AcDbEntity
  8
0
100
AcDbLine
 10
907.5946935603218
 20
324.567865556677
 30
0.0
 11
893.5946935603153
 21
324.567865556677
 31
0.0
  0
ARC
  5
E92
330
2
100
AcDbEntity
  8
0
100
AcDbCircle
 10
893.5946935603153
 20
326.567865556677
 30
0.0
 40
2.0
100
AcDbArc
 50
180.0
 51
270.0
  0
LINE
  5
1147
330
2
100
AcDbEntity
  8
0
100
AcDbLine
 10
907.5946935603218
 20
445.0678655566789
 30
0.0
 11
907.5946935603218
 21
325.0678655566771
 31
0.0
  0
LINE
  5
1148
330
2
100
AcDbEntity
  8
0
100
AcDbLine
 10
907.5946935603218
 20
445.067865556678
 30
0.0
 11
919.6319951383932
 21
445.0678655566798
 31
0.0
  0
LINE
  5
1149
330
2
100
AcDbEntity
  8
0
100
AcDbLine
 10
907.5946935603218
 20
325.0678655566771
 30
0.0
 11
919.6319951383932
 21
325.0678655566753
 31
0.0
  0
LINE
  5
114A
330
2
100
AcDbEntity
  8
0
100
AcDbLine
 10
957.9231206850719
 20
435.0678655566671
 30
0.0
 11
992.0946935603197
 21
435.0678655566755
 31
0.0
  0
LINE
  5
114B
330
2
100
AcDbEntity
  8
0
 48
0.5
100
AcDbLine
 10
957.923120685071
 20
335.0678655566762
 30
0.0
 11
992.0946935603208
 21
335.0678655566771
 31
0.0
  0
ARC
  5
114C
330
2
100
AcDbEntity
  8
0
 48
0.5
100
AcDbCircle
 10
979.0598413329634
 20
337.0678655566771
 30
0.0
 40
2.0
100
AcDbArc
 50
181.0000000000017
 51
270.0
  0
LINE
  5
114D
330
2
100
AcDbEntity
  8
0
100
AcDbLine
 10
992.0946935603208
 20
335.0678655566771
 30
0.0
 11
992.0946935603199
 21
435.0678655566755
 31
0.0
  0
LINE
  5
114E
330
2
100
AcDbEntity
  8
0
100
AcDbLine
 10
921.6286905287059
 20
327.0329607438006
 30
0.0
 11
922.6416935603209
 21
385.0678655566762
 31
0.0
  0
ARC
  5
114F
330
2
100
AcDbEntity
  8
0
100
AcDbCircle
 10
919.6289951383931
 20
327.0678655566753
 30
0.0
 40
2.0
100
AcDbArc
 50
270.0
 51
358.9999999999982
  0
ARC
  5
1150
330
2
100
AcDbEntity
  8
0
100
AcDbCircle
 10
929.314453503912
 20
324.5678655566762
 30
0.0
 40
8.0
100
AcDbArc
 50
127.3910168722849
 51
165.5224878140713
  0
LINE
  5
1151
330
2
100
AcDbEntity
  8
0
100
AcDbLine
 10
976.8031845281095
 20
351.7542703233702
 30
0.0
 11
977.0601459426506
 21
337.0329607438025
 31
0.0
  0
ARC
  5
1152
330
2
100
AcDbEntity
  8
0
100
AcDbCircle
 10
973.8089812512836
 20
351.5678655566771
 30
0.0
 40
3.0
100
AcDbArc
 50
1.000000000001761
 51
90.0
  0
LINE
  5
1153
330
2
100
AcDbEntity
  8
CENTER
100
AcDbLine
 10
973.5946935603189
 20
428.7195912600432
 30
0.0
 11
973.5946935603189
 21
443.2909506812934
 31
0.0
  0
LINE
  5
1154
330
2
100
AcDbEntity
  8
0
100
AcDbLine
 10
907.5946935603218
 20
385.0678655566771
 30
0.0
 11
992.09469356032
 21
385.0678655566769
 31
0.0
  0
LINE
  5
1155
330
2
100
AcDbEntity
  8
0
 48
0.5
100
AcDbLine
 10
929.3842498466469
 20
332.5678655566761
 30
0.0
 11
953.7662664355769
 21
332.567865556678
 31
0.0
  0
LINE
  5
1156
330
2
100
AcDbEntity
  8
0
 48
0.5
100
AcDbLine
 10
929.3842498468182
 20
437.5678655566771
 30
0.0
 11
953.7662664355769
 21
437.5678655566743
 31
0.0
  0
LINE
  5
1157
330
2
100
AcDbEntity
  8
0
100
AcDbLine
 10
956.5089071227014
 20
435.6536519942956
 30
0.0
 11
955.1804799979484
 21
436.9820791190477
 31
0.0
  0
ARC
  5
1158
330
2
100
AcDbEntity
  8
0
100
AcDbCircle
 10
953.7662664355769
 20
435.5678655566753
 30
0.0
 40
2.0
100
AcDbArc
 50
44.99999999991767
 51
90.0
  0
ARC
  5
1159
330
2
100
AcDbEntity
  8
0
100
AcDbCircle
 10
957.923120685071
 20
437.0678655566662
 30
0.0
 40
2.0
100
AcDbArc
 50
224.999999999917
 51
270.0000000000521
  0
LINE
  5
115A
330
2
100
AcDbEntity
  8
0
100
AcDbLine
 10
956.5089071227014
 20
334.4820791190586
 30
0.0
 11
955.1804799979484
 21
333.1536519943065
 31
0.0
  0
ARC
  5
115B
330
2
100
AcDbEntity
  8
0
100
AcDbCircle
 10
953.7662664355769
 20
334.5678655566789
 30
0.0
 40
2.0
100
AcDbArc
 50
270.0
 51
315.0000000000823
  0
ARC
  5
115C
330
2
100
AcDbEntity
  8
0
100
AcDbCircle
 10
957.923120685071
 20
333.067865556688
 30
0.0
 40
2.0
100
AcDbArc
 50
89.99999999994789
 51
135.0000000000823
  0
LINE
  5
115D
330
2
100
AcDbEntity
  8
0
100
AcDbLine
 10
921.6286905287059
 20
443.1027703695531
 30
0.0
 11
922.2745547568626
 21
406.1012335198935
 31
0.0
  0
ARC
  5
115E
330
2
100
AcDbEntity
  8
0
100
AcDbCircle
 10
919.6289951383931
 20
443.0678655566785
 30
0.0
 40
2.0
100
AcDbArc
 50
1.000000000027812
 51
90.0
  0
ARC
  5
115F
330
2
100
AcDbEntity
  8
0
100
AcDbCircle
 10
929.314453503912
 20
445.5678655566775
 30
0.0
 40
8.0
100
AcDbArc
 50
194.4775121859286
 51
232.608983243395
  0
ARC
  5
1160
330
2
100
AcDbEntity
  8
0
 48
0.5
100
AcDbCircle
 10
979.0598413329634
 20
433.0678655566771
 30
0.0
 40
2.0
100
AcDbArc
 50
90.0
 51
178.9999999999721
  0
LINE
  5
1161
330
2
100
AcDbEntity
  8
0
100
AcDbLine
 10
977.0079697811754
 20
430.1136000806001
 30
0.0
 11
977.0601459426506
 21
433.1027703695517
 31
0.0
  0
ARC
  5
1163
330
2
100
AcDbEntity
  8
0
 48
0.5
100
AcDbCircle
 10
959.060088086553
 20
337.0678655566757
 30
0.0
 40
2.0
100
AcDbArc
 50
181.0000000000017
 51
270.0
  0
LINE
  5
1164
330
2
100
AcDbEntity
  8
0
100
AcDbLine
 10
957.0603926962391
 20
337.0329607438016
 30
0.0
 11
957.017670866762
 21
339.4804927153559
 31
0.0
  0
LINE
  5
1165
330
2
100
AcDbEntity
  8
0
100
AcDbLine
 10
954.0181277812932
 20
342.4281354960426
 30
0.0
 11
973.9689728170503
 21
342.4281354960426
 31
0.0
  0
ARC
  5
1166
330
2
100
AcDbEntity
  8
0
100
AcDbCircle
 10
954.0181277812932
 20
339.428135496044
 30
0.0
 40
3.0
100
AcDbArc
 50
0.9999999999757104
 51
90.0
  0
ARC
  5
1167
330
2
100
AcDbEntity
  8
0
 48
0.5
100
AcDbCircle
 10
959.060088086553
 20
433.0678655566784
 30
0.0
 40
2.0
100
AcDbArc
 50
90.0
 51
179.0000000000242
  0
LINE
  5
1168
330
2
100
AcDbEntity
  8
0
100
AcDbLine
 10
957.0603926962391
 20
433.1027703695526
 30
0.0
 11
957.017670866762
 21
430.6552383979983
 31
0.0
  0
LINE
  5
1169
330
2
100
AcDbEntity
  8
0
100
AcDbLine
 10
954.0181277812932
 20
427.7075956173116
 30
0.0
 11
973.9689728170503
 21
427.7075956173116
 31
0.0
  0
ARC
  5
116A
330
2
100
AcDbEntity
  8
0
100
AcDbCircle
 10
954.0181277812932
 20
430.7075956173102
 30
0.0
 40
3.0
100
AcDbArc
 50
270.0
 51
359.0000000000242
  0
LINE
  5
116B
330
2
100
AcDbEntity
  8
0
100
AcDbLine
 10
959.3105011204395
 20
354.5678655566771
 30
0.0
 11
973.8089812512832
 21
354.5678655566771
 31
0.0
  0
LINE
  5
116C
330
2
100
AcDbEntity
  8
0
100
AcDbLine
 10
959.3105011204395
 20
415.5678655566775
 30
0.0
 11
971.3611029773089
 21
415.5678655566772
 31
0.0
  0
LINE
  5
116D
330
2
100
AcDbEntity
  8
0
100
AcDbLine
 10
957.0946935603203
 20
368.9140186599193
 30
0.0
 11
957.3766600067436
 21
385.0678655566771
 31
0.0
  0
LINE
  5
116E
330
2
100
AcDbEntity
  8
0
100
AcDbLine
 10
957.3108057301267
 20
356.5329607438024
 30
0.0
 11
957.0946935603213
 21
368.9140186599193
 31
0.0
  0
ARC
  5
116F
330
2
100
AcDbEntity
  8
0
100
AcDbCircle
 10
959.3105011204395
 20
356.5678655566771
 30
0.0
 40
2.0
100
AcDbArc
 50
181.0000000000017
 51
270.0
  0
LINE
  5
1170
330
2
100
AcDbEntity
  8
0
100
AcDbLine
 10
957.3108057301267
 20
413.6027703695517
 30
0.0
 11
957.1900045534885
 21
406.6820755949772
 31
0.0
  0
ARC
  5
1171
330
2
100
AcDbEntity
  8
0
100
AcDbCircle
 10
959.3105011204395
 20
413.5678655566771
 30
0.0
 40
2.0
100
AcDbArc
 50
90.0
 51
178.9999999999982
  0
LINE
  5
1173
330
2
100
AcDbEntity
  8
0
100
AcDbLine
 10
907.5946935603212
 20
727.0897734496225
 30
0.0
 11
907.5946935603212
 21
848.0897734496235
 31
0.0
  0
LINE
  5
1174
330
2
100
AcDbEntity
  8
0
 48
0.5
100
AcDbLine
 10
929.2771519258355
 20
840.0897734496224
 30
0.0
 11
955.0946935603246
 21
840.0897734496215
 31
0.0
  0
LINE
  5
1175
330
2
100
AcDbEntity
  8
0
 48
0.5
100
AcDbLine
 10
929.3926525314489
 20
735.0897734496225
 30
0.0
 11
955.0946935603247
 21
735.0897734496243
 31
0.0
  0
LINE
  5
1176
330
2
100
AcDbEntity
  8
0
100
AcDbLine
 10
907.5946935603212
 20
727.5897734496216
 30
0.0
 11
919.5946935603167
 21
727.5897734496193
 31
0.0
  0
LINE
  5
1177
330
2
100
AcDbEntity
  8
0
100
AcDbLine
 10
907.5946935603212
 20
847.5897734496225
 30
0.0
 11
919.5946935603167
 21
847.5897734496239
 31
0.0
  0
ARC
  5
1178
330
2
100
AcDbEntity
  8
0
100
AcDbCircle
 10
919.5946935603167
 20
845.5897734496238
 30
0.0
 40
2.0
100
AcDbArc
 50
0.0
 51
90.0
  0
ARC
  5
1179
330
2
100
AcDbEntity
  8
0
100
AcDbCircle
 10
929.2771519258355
 20
848.0897734496229
 30
0.0
 40
8.0
100
AcDbArc
 50
194.4775121859295
 51
232.6089831570099
  0
ARC
  5
117A
330
2
100
AcDbEntity
  8
0
100
AcDbCircle
 10
929.2771519258355
 20
848.0897734496229
 30
0.0
 40
8.0
100
AcDbArc
 50
268.6931248980217
 51
270.0
  0
LINE
  5
117B
330
2
100
AcDbEntity
  8
0
100
AcDbLine
 10
907.5946935603212
 20
848.0897734496224
 30
0.0
 11
919.5946935603167
 21
848.0897734496229
 31
0.0
  0
ARC
  5
117C
330
2
100
AcDbEntity
  8
0
100
AcDbCircle
 10
919.5946935603167
 20
846.0897734496233
 30
0.0
 40
2.0
100
AcDbArc
 50
11.53695903280527
 51
90.0
  0
ARC
  5
117D
330
2
100
AcDbEntity
  8
0
100
AcDbCircle
 10
929.3926525314498
 20
848.0897734496224
 30
0.0
 40
8.0
100
AcDbArc
 50
191.5369590328181
 51
232.6089831569975
  0
ARC
  5
117E
330
2
100
AcDbEntity
  8
0
100
AcDbCircle
 10
929.3926525314498
 20
848.0897734496224
 30
0.0
 40
8.0
100
AcDbArc
 50
267.8655323847083
 51
270.0
  0
LINE
  5
117F
330
2
100
AcDbEntity
  8
0
100
AcDbLine
 10
958.8027928038716
 20
737.5897734496284
 30
0.0
 11
992.0946935603195
 21
737.5897734496236
 31
0.0
  0
ARC
  5
1180
330
2
100
AcDbEntity
  8
0
100
AcDbCircle
 10
979.0946935603185
 20
739.5897734496251
 30
0.0
 40
2.0
100
AcDbArc
 50
180.0
 51
270.0
  0
LINE
  5
1181
330
2
100
AcDbEntity
  8
0
 48
0.5
100
AcDbLine
 10
958.8027928038711
 20
837.5897734496234
 30
0.0
 11
992.0946935603204
 21
837.5897734496227
 31
0.0
  0
ARC
  5
1182
330
2
100
AcDbEntity
  8
0
 48
0.5
100
AcDbCircle
 10
979.0946935603194
 20
835.5897734496224
 30
0.0
 40
2.0
100
AcDbArc
 50
90.0
 51
180.0
  0
LINE
  5
1183
330
2
100
AcDbEntity
  8
0
100
AcDbLine
 10
992.0946935603202
 20
837.5897734496225
 30
0.0
 11
992.0946935603195
 21
737.5897734496234
 31
0.0
  0
LINE
  5
1184
330
2
100
AcDbEntity
  8
0
100
AcDbLine
 10
921.5946935603167
 20
845.5897734496238
 30
0.0
 11
921.5946935603184
 21
729.5897734496198
 31
0.0
  0
LINE
  5
1185
330
2
100
AcDbEntity
  8
CENTER
 48
0.5
100
AcDbLine
 10
962.8446935603204
 20
767.5897734496224
 30
0.0
 11
984.3446935603203
 21
767.5897734496224
 31
0.0
  0
LINE
  5
1186
330
2
100
AcDbEntity
  8
0
100
AcDbLine
 10
977.0946935603195
 20
754.089773449622
 30
0.0
 11
977.0946935603195
 21
739.5897734496225
 31
0.0
  0
ARC
  5
1187
330
2
100
AcDbEntity
  8
0
100
AcDbCircle
 10
974.0946935603194
 20
754.089773449622
 30
0.0
 40
3.0
100
AcDbArc
 50
0.0
 51
90.0
  0
LINE
  5
1188
330
2
100
AcDbEntity
  8
CENTER
 48
0.5
100
AcDbLine
 10
973.5946935603204
 20
778.3397734496225
 30
0.0
 11
973.5946935603204
 21
756.8397734496224
 31
0.0
  0
LINE
  5
1189
330
2
100
AcDbEntity
  8
0
100
AcDbLine
 10
977.0946935603213
 20
821.0897734496224
 30
0.0
 11
977.0946935603195
 21
835.5897734496224
 31
0.0
  0
LINE
  5
118A
330
2
100
AcDbEntity
  8
0
100
AcDbLine
 10
959.0946935603239
 20
757.0897734496225
 30
0.0
 11
974.0946935603194
 21
757.089773449622
 31
0.0
  0
ARC
  5
118B
330
2
100
AcDbEntity
  8
0
100
AcDbCircle
 10
959.0946935603239
 20
759.0897734496224
 30
0.0
 40
2.0
100
AcDbArc
 50
180.0
 51
270.0
  0
LINE
  5
118C
330
2
100
AcDbEntity
  8
0
100
AcDbLine
 10
957.0946935603249
 20
816.0897734496225
 30
0.0
 11
957.0946935603249
 21
759.0897734496224
 31
0.0
  0
LINE
  5
118D
330
2
100
AcDbEntity
  8
0
100
AcDbLine
 10
907.5946935603212
 20
727.0897734496234
 30
0.0
 11
919.5946935603167
 21
727.0897734496225
 31
0.0
  0
LINE
  5
118E
330
2
100
AcDbEntity
  8
0
100
AcDbLine
 10
959.0946935603239
 20
818.0897734496225
 30
0.0
 11
974.0946935603213
 21
818.0897734496225
 31
0.0
  0
ARC
  5
118F
330
2
100
AcDbEntity
  8
0
100
AcDbCircle
 10
974.0946935603213
 20
821.0897734496224
 30
0.0
 40
3.0
100
AcDbArc
 50
270.0
 51
0.0
  0
ARC
  5
1190
330
2
100
AcDbEntity
  8
0
100
AcDbCircle
 10
959.0946935603239
 20
816.0897734496225
 30
0.0
 40
2.0
100
AcDbArc
 50
90.0
 51
180.0
  0
ARC
  5
1191
330
2
100
AcDbEntity
  8
0
100
AcDbCircle
 10
919.5946935603167
 20
729.5897734496211
 30
0.0
 40
2.0
100
AcDbArc
 50
270.0
 51
0.0
  0
ARC
  5
1192
330
2
100
AcDbEntity
  8
0
100
AcDbCircle
 10
929.2771519258355
 20
727.089773449622
 30
0.0
 40
8.0
100
AcDbArc
 50
90.0
 51
91.30687510195221
  0
ARC
  5
1193
330
2
100
AcDbEntity
  8
0
100
AcDbCircle
 10
929.2771519258355
 20
727.089773449622
 30
0.0
 40
8.0
100
AcDbArc
 50
127.39101684299
 51
165.5224878140705
  0
ARC
  5
1194
330
2
100
AcDbEntity
  8
0
100
AcDbCircle
 10
919.5946935603167
 20
729.0897734496216
 30
0.0
 40
2.0
100
AcDbArc
 50
270.0
 51
348.4630409671945
  0
ARC
  5
1195
330
2
100
AcDbEntity
  8
0
100
AcDbCircle
 10
929.3926525314498
 20
727.0897734496225
 30
0.0
 40
8.0
100
AcDbArc
 50
90.0
 51
92.13446761527864
  0
ARC
  5
1196
330
2
100
AcDbEntity
  8
0
100
AcDbCircle
 10
929.3926525314498
 20
727.0897734496225
 30
0.0
 40
8.0
100
AcDbArc
 50
127.3910168430022
 51
168.4630409671945
  0
LINE
  5
1197
330
2
100
AcDbEntity
  8
0
100
AcDbLine
 10
954.0946935603217
 20
744.7697734496296
 30
0.0
 11
974.0946935603181
 21
744.769773449626
 31
0.0
  0
ARC
  5
1198
330
2
100
AcDbEntity
  8
0
100
AcDbCircle
 10
954.0946935603209
 20
741.7697734496296
 30
0.0
 40
3.0
100
AcDbArc
 50
0.0000000000130276
 51
90.0
  0
LINE
  5
1199
330
2
100
AcDbEntity
  8
0
100
AcDbLine
 10
957.0946935603199
 20
741.76977344963
 30
0.0
 11
957.0946935603199
 21
739.5897734496288
 31
0.0
  0
ARC
  5
119A
330
2
100
AcDbEntity
  8
0
100
AcDbCircle
 10
959.0946935603199
 20
739.5897734496288
 30
0.0
 40
2.0
100
AcDbArc
 50
180.0
 51
270.0
  0
ARC
  5
119B
330
2
100
AcDbEntity
  8
0
100
AcDbCircle
 10
955.0946935603244
 20
737.0897734496229
 30
0.0
 40
2.0
100
AcDbArc
 50
270.0
 51
337.9756871629277
  0
ARC
  5
119C
330
2
100
AcDbEntity
  8
0
100
AcDbCircle
 10
958.8027928038711
 20
735.5897734496211
 30
0.0
 40
2.0
100
AcDbArc
 50
90.0
 51
157.9756871629277
  0
ARC
  5
119D
330
2
100
AcDbEntity
  8
0
 48
0.5
100
AcDbCircle
 10
959.094693560319
 20
835.5897734496235
 30
0.0
 40
2.0
100
AcDbArc
 50
90.0
 51
180.0
  0
LINE
  5
119E
330
2
100
AcDbEntity
  8
0
 48
0.5
100
AcDbLine
 10
954.0946935603189
 20
830.4097734496235
 30
0.0
 11
974.094693560319
 21
830.4097734496235
 31
0.0
  0
ARC
  5
119F
330
2
100
AcDbEntity
  8
0
 48
0.5
100
AcDbCircle
 10
954.0946935603189
 20
833.409773449623
 30
0.0
 40
3.0
100
AcDbArc
 50
270.0
 51
0.0
  0
LINE
  5
11A0
330
2
100
AcDbEntity
  8
0
100
AcDbLine
 10
957.094693560319
 20
835.5897734496235
 30
0.0
 11
957.094693560319
 21
833.409773449623
 31
0.0
  0
ARC
  5
11A1
330
2
100
AcDbEntity
  8
0
100
AcDbCircle
 10
955.0946935603244
 20
838.0897734496221
 30
0.0
 40
2.0
100
AcDbArc
 50
22.02431283707225
 51
90.0
  0
ARC
  5
11A2
330
2
100
AcDbEntity
  8
0
100
AcDbCircle
 10
958.8027928038711
 20
839.5897734496239
 30
0.0
 40
2.0
100
AcDbArc
 50
202.0243128370722
 51
270.0
  0
LINE
  5
11A4
330
2
100
AcDbEntity
  8
0
100
AcDbLine
 10
1344.28197905378
 20
385.0678655566772
 30
0.0
 11
1344.159737968668
 21
427.0911365878766
 31
0.0
  0
LINE
  5
11A6
330
2
100
AcDbEntity
  8
0
100
AcDbLine
 10
1336.159771815025
 20
435.0678655640014
 30
0.0
 11
1252.404186292533
 21
435.0678655640014
 31
0.0
  0
ARC
  5
11A7
330
2
100
AcDbEntity
  8
0
100
AcDbCircle
 10
1336.159771815025
 20
427.0678655640014
 30
0.0
 40
8.0
100
AcDbArc
 50
0.1666666666621034
 51
90.0
  0
ARC
  5
11A8
330
2
100
AcDbEntity
  8
HIDS
  6
SEKKEI_H
100
AcDbCircle
 10
1265.747373579731
 20
433.0678655640014
 30
0.0
 40
2.0
100
AcDbArc
 50
90.0
 51
178.9999999999721
  0
LINE
  5
11A9
330
2
100
AcDbEntity
  8
0
100
AcDbLine
 10
1336.159771815066
 20
335.0678655640014
 30
0.0
 11
1252.40418629249
 21
335.0678655640014
 31
0.0
  0
ARC
  5
11AA
330
2
100
AcDbEntity
  8
0
100
AcDbCircle
 10
1294.281979053774
 20
385.0678655802559
 30
0.0
 40
52.5
100
AcDbArc
 50
162.0797860355227
 51
197.9202139639852
  0
LINE
  5
11AB
330
2
100
AcDbEntity
  8
CENTER
100
AcDbLine
 10
1343.425900347487
 20
346.1739442727786
 30
0.0
 11
1343.425900347487
 21
325.6739442727786
 31
0.0
  0
LINE
  5
11AC
330
2
100
AcDbEntity
  8
CENTER
100
AcDbLine
 10
1333.175900347487
 20
335.9239442727786
 30
0.0
 11
1353.675900347488
 21
335.9239442727786
 31
0.0
  0
ARC
  5
11AD
330
2
100
AcDbEntity
  8
0
100
AcDbCircle
 10
1294.281979053779
 20
385.0678655802559
 30
0.0
 40
52.5
100
AcDbArc
 50
342.0797860360293
 51
17.92021396446399
  0
ARC
  5
11AE
330
2
100
AcDbEntity
  8
HIDS
  6
SEKKEI_H
100
AcDbCircle
 10
1294.281979046459
 20
385.0678655566754
 30
0.0
 40
52.5
100
AcDbArc
 50
17.92021393802714
 51
72.24720986428234
  0
ARC
  5
11AF
330
2
100
AcDbEntity
  8
0
 48
0.5
100
AcDbCircle
 10
1294.281979046459
 20
385.0678655566754
 30
0.0
 40
52.5
100
AcDbArc
 50
72.24720986428234
 51
102.332536991061
  0
ARC
  5
11B0
330
2
100
AcDbEntity
  8
HIDS
  6
SEKKEI_H
100
AcDbCircle
 10
1294.281979046459
 20
385.0678655566754
 30
0.0
 40
52.5
100
AcDbArc
 50
102.332536991061
 51
162.0797860095882
  0
ARC
  5
11B1
330
2
100
AcDbEntity
  8
HIDS
  6
SEKKEI_H
100
AcDbCircle
 10
1260.679789460011
 20
429.2396082775186
 30
0.0
 40
3.0
100
AcDbArc
 50
307.2608602757586
 51
358.9999999999461
  0
CIRCLE
  5
11B2
330
2
100
AcDbEntity
  8
HOJO
100
AcDbCircle
 10
1334.940618969721
 20
344.4092256427921
 30
0.0
 40
3.0
  0
CIRCLE
  5
11B3
330
2
100
AcDbEntity
  8
0
100
AcDbCircle
 10
1334.940618969721
 20
344.4092256427921
 30
0.0
 40
2.5
  0
LINE
  5
11B4
330
2
100
AcDbEntity
  8
CENTER
100
AcDbLine
 10
1325.690618969721
 20
344.4092256427921
 30
0.0
 11
1344.190618969721
 21
344.4092256427921
 31
0.0
  0
LINE
  5
11B5
330
2
100
AcDbEntity
  8
CENTER
100
AcDbLine
 10
1334.940618969721
 20
335.1592256427922
 30
0.0
 11
1334.940618969721
 21
353.6592256427922
 31
0.0
  0
LINE
  5
11B6
330
2
100
AcDbEntity
  8
CENTER
100
AcDbLine
 10
1262.873339137833
 20
425.7265055014687
 30
0.0
 11
1244.373339137833
 21
425.7265055014687
 31
0.0
  0
LINE
  5
11B7
330
2
100
AcDbEntity
  8
CENTER
100
AcDbLine
 10
1253.623339137833
 20
434.9765055014687
 30
0.0
 11
1253.623339137833
 21
416.4765055014687
 31
0.0
  0
LINE
  5
11B8
330
2
100
AcDbEntity
  8
CENTER
100
AcDbLine
 10
1253.623339132569
 20
353.65922564806
 30
0.0
 11
1253.623339132569
 21
335.1592256480599
 31
0.0
  0
LINE
  5
11B9
330
2
100
AcDbEntity
  8
CENTER
100
AcDbLine
 10
1244.373339132569
 20
344.4092256480599
 30
0.0
 11
1262.873339132569
 21
344.4092256480599
 31
0.0
  0
ARC
  5
11BA
330
2
100
AcDbEntity
  8
HIDS
  6
SEKKEI_H
100
AcDbCircle
 10
1294.281979053779
 20
385.0678655802604
 30
0.0
 40
52.5
100
AcDbArc
 50
197.9202139639706
 51
252.2472098962363
  0
ARC
  5
11BB
330
2
100
AcDbEntity
  8
0
 48
0.5
100
AcDbCircle
 10
1294.281979053779
 20
385.0678655802604
 30
0.0
 40
52.5
100
AcDbArc
 50
252.2472098962363
 51
287.7527901037637
  0
ARC
  5
11BC
330
2
100
AcDbEntity
  8
HIDS
  6
SEKKEI_H
100
AcDbCircle
 10
1294.281979053779
 20
385.0678655802604
 30
0.0
 40
52.5
100
AcDbArc
 50
287.7527901037637
 51
342.0797860360293
  0
LINE
  5
11BD
330
2
100
AcDbEntity
  8
CENTER
100
AcDbLine
 10
1325.690618969725
 20
425.7265055014687
 30
0.0
 11
1344.190618969725
 21
425.7265055014687
 31
0.0
  0
LINE
  5
11BE
330
2
100
AcDbEntity
  8
CENTER
100
AcDbLine
 10
1334.940618969725
 20
434.9765055014687
 30
0.0
 11
1334.940618969725
 21
416.4765055014687
 31
0.0
  0
CIRCLE
  5
11BF
330
2
100
AcDbEntity
  8
HOJO
100
AcDbCircle
 10
1334.940618967664
 20
425.7265054726195
 30
0.0
 40
3.0
  0
CIRCLE
  5
11C0
330
2
100
AcDbEntity
  8
0
100
AcDbCircle
 10
1334.940618967664
 20
425.7265054726195
 30
0.0
 40
2.5
  0
CIRCLE
  5
11C1
330
2
100
AcDbEntity
  8
HOJO
100
AcDbCircle
 10
1253.623339137837
 20
425.7265054705623
 30
0.0
 40
3.0
  0
CIRCLE
  5
11C2
330
2
100
AcDbEntity
  8
0
100
AcDbCircle
 10
1253.623339137837
 20
425.7265054705623
 30
0.0
 40
2.5
  0
CIRCLE
  5
11C3
330
2
100
AcDbEntity
  8
HOJO
100
AcDbCircle
 10
1253.623339139894
 20
344.4092256407349
 30
0.0
 40
3.0
  0
CIRCLE
  5
11C4
330
2
100
AcDbEntity
  8
0
100
AcDbCircle
 10
1253.623339139894
 20
344.4092256407349
 30
0.0
 40
2.5
  0
LINE
  5
11C5
330
2
100
AcDbEntity
  8
HIDS
  6
SEKKEI_H
100
AcDbLine
 10
1263.747678189419
 20
433.1027703768778
 30
0.0
 11
1263.67933254548
 21
429.1872510582039
 31
0.0
  0
LINE
  5
11C6
330
2
100
AcDbEntity
  8
0
100
AcDbLine
 10
1344.363301497663
 20
445.0678655566845
 30
0.0
 11
1244.200656609895
 21
445.0678655566863
 31
0.0
  0
LINE
  5
11C7
330
2
100
AcDbEntity
  8
0
100
AcDbLine
 10
1234.201006587427
 20
435.1515281418488
 30
0.0
 11
1233.781979053775
 21
385.0678655566772
 31
0.0
  0
ARC
  5
11C8
330
2
100
AcDbEntity
  8
0
100
AcDbCircle
 10
1244.200656609895
 20
435.0678655566863
 30
0.0
 40
10.0
100
AcDbArc
 50
90.0
 51
179.5206431045574
  0
LINE
  5
11C9
330
2
100
AcDbEntity
  8
0
100
AcDbLine
 10
1244.200656609894
 20
325.067865556679
 30
0.0
 11
1344.363301497663
 21
325.0678655566781
 31
0.0
  0
LINE
  5
11CA
330
2
100
AcDbEntity
  8
0
100
AcDbLine
 10
1234.201006587427
 20
334.9842029715065
 30
0.0
 11
1233.781979053775
 21
385.0678655566781
 31
0.0
  0
ARC
  5
11CB
330
2
100
AcDbEntity
  8
0
100
AcDbCircle
 10
1244.200656609895
 20
335.0678655566699
 30
0.0
 40
10.0
100
AcDbArc
 50
180.4793568954686
 51
270.0
  0
LINE
  5
11CC
330
2
100
AcDbEntity
  8
0
100
AcDbLine
 10
1354.362951520132
 20
435.1515281418488
 30
0.0
 11
1354.781979053783
 21
385.0678655566772
 31
0.0
  0
ARC
  5
11CD
330
2
100
AcDbEntity
  8
0
100
AcDbCircle
 10
1344.363301497663
 20
435.0678655566863
 30
0.0
 40
10.0
100
AcDbArc
 50
0.4793568954425791
 51
90.0
  0
LINE
  5
11CE
330
2
100
AcDbEntity
  8
0
100
AcDbLine
 10
1354.362951520132
 20
334.9842029715074
 30
0.0
 11
1354.781979053783
 21
385.0678655566781
 31
0.0
  0
ARC
  5
11CF
330
2
100
AcDbEntity
  8
0
100
AcDbCircle
 10
1344.363301497663
 20
335.0678655566699
 30
0.0
 40
10.0
100
AcDbArc
 50
270.0
 51
359.5206431045313
  0
LINE
  5
11D0
330
2
100
AcDbEntity
  8
0
100
AcDbLine
 10
1244.281979053778
 20
385.0678655566772
 30
0.0
 11
1244.404220138889
 21
427.091136587876
 31
0.0
  0
ARC
  5
11D1
330
2
100
AcDbEntity
  8
0
100
AcDbCircle
 10
1252.404186292533
 20
427.0678655640014
 30
0.0
 40
8.0
100
AcDbArc
 50
90.0
 51
179.8333333333378
  0
LINE
  5
11D2
330
2
100
AcDbEntity
  8
0
100
AcDbLine
 10
1344.28197905378
 20
385.0678655566772
 30
0.0
 11
1344.159737968711
 21
343.0445945401262
 31
0.0
  0
ARC
  5
11D3
330
2
100
AcDbEntity
  8
0
100
AcDbCircle
 10
1336.159771815066
 20
343.0678655640014
 30
0.0
 40
8.0
100
AcDbArc
 50
270.0
 51
359.8333333333378
  0
LINE
  5
11D4
330
2
100
AcDbEntity
  8
0
100
AcDbLine
 10
1244.281979053778
 20
385.0678655566772
 30
0.0
 11
1244.404220138847
 21
343.0445945401267
 31
0.0
  0
ARC
  5
11D5
330
2
100
AcDbEntity
  8
0
100
AcDbCircle
 10
1252.40418629249
 20
343.0678655640014
 30
0.0
 40
8.0
100
AcDbArc
 50
180.1666666666621
 51
270.0
  0
LINE
  5
11D6
330
2
100
AcDbEntity
  8
0
100
AcDbLine
 10
1344.28197905378
 20
385.0678655566772
 30
0.0
 11
1354.781979053783
 21
385.0678655566781
 31
0.0
  0
LINE
  5
11D7
330
2
100
AcDbEntity
  8
0
100
AcDbLine
 10
1244.281979053778
 20
385.0678655566772
 30
0.0
 11
1233.781979053775
 21
385.0678655566781
 31
0.0
  0
LINE
  5
11D8
330
2
100
AcDbEntity
  8
CENTER
100
AcDbLine
 10
1333.175900337677
 20
434.2117868503847
 30
0.0
 11
1353.675900337677
 21
434.2117868503847
 31
0.0
  0
LINE
  5
11D9
330
2
100
AcDbEntity
  8
CENTER
100
AcDbLine
 10
1343.425900337677
 20
423.9617868503857
 30
0.0
 11
1343.425900337677
 21
444.4617868503857
 31
0.0
  0
LINE
  5
11DA
330
2
100
AcDbEntity
  8
CENTER
100
AcDbLine
 10
1245.138057760071
 20
423.9617868405763
 30
0.0
 11
1245.138057760071
 21
444.4617868405763
 31
0.0
  0
LINE
  5
11DB
330
2
100
AcDbEntity
  8
CENTER
100
AcDbLine
 10
1255.38805776007
 20
434.2117868405763
 30
0.0
 11
1234.88805776007
 21
434.2117868405763
 31
0.0
  0
LINE
  5
11DC
330
2
100
AcDbEntity
  8
CENTER
100
AcDbLine
 10
1255.38805776988
 20
335.9239442629696
 30
0.0
 11
1234.88805776988
 21
335.9239442629696
 31
0.0
  0
LINE
  5
11DD
330
2
100
AcDbEntity
  8
CENTER
100
AcDbLine
 10
1245.13805776988
 20
346.1739442629688
 30
0.0
 11
1245.13805776988
 21
325.6739442629688
 31
0.0
  0
LINE
  5
11DE
330
2
100
AcDbEntity
  8
0
100
AcDbLine
 10
1344.281979061103
 20
385.0678655566772
 30
0.0
 11
1345.781979061102
 21
385.0678655571046
 31
0.0
  0
LINE
  5
11DF
330
2
100
AcDbEntity
  8
0
100
AcDbLine
 10
1242.781979054148
 20
385.0678655566758
 30
0.0
 11
1244.281979054148
 21
385.0678655566749
 31
0.0
  0
LINE
  5
11E0
330
2
100
AcDbEntity
  8
0
100
AcDbLine
 10
1344.281979054149
 20
385.0678655562484
 30
0.0
 11
1345.781979054148
 21
385.0678655566758
 31
0.0
  0
CIRCLE
  5
11E1
330
2
100
AcDbEntity
  8
CENTER
100
AcDbCircle
 10
1294.281979053781
 20
385.0678655566758
 30
0.0
 40
57.49999999531469
  0
CIRCLE
  5
11E2
330
2
100
AcDbEntity
  8
0
100
AcDbCircle
 10
1294.281979046459
 20
385.0678655566754
 30
0.0
 40
40.49999999999863
  0
CIRCLE
  5
11E3
330
2
100
AcDbEntity
  8
0
100
AcDbCircle
 10
1294.28197905378
 20
385.0678655566772
 30
0.0
 40
40.99999999999863
  0
CIRCLE
  5
11E4
330
2
100
AcDbEntity
  8
0
100
AcDbCircle
 10
1294.281979053779
 20
385.0678655566772
 30
0.0
 40
45.50000000000363
  0
CIRCLE
  5
11E5
330
2
100
AcDbEntity
  8
0
100
AcDbCircle
 10
1294.281979053779
 20
385.0678655566772
 30
0.0
 40
46.49999999999929
  0
CIRCLE
  5
11E6
330
2
100
AcDbEntity
  8
0
100
AcDbCircle
 10
1294.28197905378
 20
385.0678655566772
 30
0.0
 40
47.50000000000182
  0
ARC
  5
11E7
330
2
100
AcDbEntity
  8
HIDS
  6
SEKKEI_H
100
AcDbCircle
 10
1322.816584524901
 20
433.0678655570383
 30
0.0
 40
2.0
100
AcDbArc
 50
0.9999999860470655
 51
89.9999999860084
  0
ARC
  5
11E8
330
2
100
AcDbEntity
  8
HIDS
  6
SEKKEI_H
100
AcDbCircle
 10
1327.884168643687
 20
429.2396082693191
 30
0.0
 40
3.0
100
AcDbArc
 50
180.99999998606
 51
232.7391397102595
  0
LINE
  5
11E9
330
2
100
AcDbEntity
  8
HIDS
  6
SEKKEI_H
100
AcDbLine
 10
1324.816279915222
 20
433.1027703694267
 30
0.0
 11
1324.884625558205
 21
429.1872510507365
 31
0.0
  0
ARC
  5
11EA
330
2
100
AcDbEntity
  8
HIDS
  6
SEKKEI_H
100
AcDbCircle
 10
1265.747373579731
 20
337.067865549353
 30
0.0
 40
2.0
100
AcDbArc
 50
181.0000000000278
 51
270.0
  0
ARC
  5
11EB
330
2
100
AcDbEntity
  8
HIDS
  6
SEKKEI_H
100
AcDbCircle
 10
1260.679789460011
 20
340.8961228358358
 30
0.0
 40
3.0
100
AcDbArc
 50
1.00000000005386
 51
52.73913972424142
  0
LINE
  5
11EC
330
2
100
AcDbEntity
  8
HIDS
  6
SEKKEI_H
100
AcDbLine
 10
1263.747678189419
 20
337.0329607364766
 30
0.0
 11
1263.67933254548
 21
340.9484800551505
 31
0.0
  0
ARC
  5
11ED
330
2
100
AcDbEntity
  8
HIDS
  6
SEKKEI_H
100
AcDbCircle
 10
1322.816584524901
 20
337.0678655563161
 30
0.0
 40
2.0
100
AcDbArc
 50
270.0000000139785
 51
359.0000000139529
  0
ARC
  5
11EE
330
2
100
AcDbEntity
  8
HIDS
  6
SEKKEI_H
100
AcDbCircle
 10
1327.884168643687
 20
340.8961228440354
 30
0.0
 40
3.0
100
AcDbArc
 50
127.2608602897404
 51
179.0000000139269
  0
LINE
  5
11EF
330
2
100
AcDbEntity
  8
HIDS
  6
SEKKEI_H
100
AcDbLine
 10
1324.816279915222
 20
337.0329607439277
 30
0.0
 11
1324.884625558205
 21
340.9484800626183
 31
0.0
  0
LINE
  5
11F0
330
2
100
AcDbEntity
  8
HIDS
  6
SEKKEI_H
100
AcDbLine
 10
1279.828332249924
 20
422.9009475654266
 30
0.0
 11
1280.040706593564
 21
435.0678655640011
 31
0.0
  0
LINE
  5
11F1
330
2
100
AcDbEntity
  8
HIDS
  6
SEKKEI_H
100
AcDbLine
 10
1268.845891722711
 20
416.5838212245358
 30
0.0
 11
1268.523251528634
 21
435.0678655640014
 31
0.0
  0
ARC
  5
1208
330
2
100
AcDbEntity
  8
0
100
AcDbCircle
 10
359.3314623201696
 20
435.0678655566873
 30
0.0
 40
10.0
100
AcDbArc
 50
134.6637861676429
 51
179.5225462226762
  0
LINE
  5
1209
330
2
100
AcDbEntity
  8
0
100
AcDbLine
 10
349.3318095243084
 20
435.151195996653
 30
0.0
 11
348.9144484373046
 21
385.0678655566773
 31
0.0
  0
ARC
  5
120C
330
2
100
AcDbEntity
  8
0
100
AcDbCircle
 10
359.3314623201696
 20
335.0678655566677
 30
0.0
 40
10.0
100
AcDbArc
 50
180.4774537773237
 51
225.336213832201
  0
LINE
  5
120D
330
2
100
AcDbEntity
  8
0
100
AcDbLine
 10
349.3318095243084
 20
334.9845351167015
 30
0.0
 11
348.9144484373045
 21
385.0678655566773
 31
0.0
  0
LINE
  5
120F
330
2
100
AcDbEntity
  8
0
100
AcDbLine
 10
70.01042525354591
 20
445.0678655566791
 30
0.0
 11
70.01042525354591
 21
325.0678655566773
 31
0.0
  0
LINE
  5
1210
330
2
100
AcDbEntity
  8
0
100
AcDbLine
 10
70.01042525354591
 20
445.0678655566782
 30
0.0
 11
57.97312367547442
 21
445.06786555668
 31
0.0
  0
LINE
  5
1211
330
2
100
AcDbEntity
  8
0
100
AcDbLine
 10
70.01042525354591
 20
325.0678655566773
 30
0.0
 11
57.97312367547442
 21
325.0678655566755
 31
0.0
  0
LINE
  5
1212
330
2
100
AcDbEntity
  8
0
100
AcDbLine
 10
19.68199812879561
 20
435.0678655566674
 30
0.0
 11
-14.48957474645226
 21
435.0678655566748
 31
0.0
  0
LINE
  5
1213
330
2
100
AcDbEntity
  8
0
 48
0.5
100
AcDbLine
 10
19.68199812879652
 20
335.0678655566764
 30
0.0
 11
-14.48957474645317
 21
335.0678655566771
 31
0.0
  0
ARC
  5
1214
330
2
100
AcDbEntity
  8
0
 48
0.5
100
AcDbCircle
 10
-1.454722519095753
 20
337.0678655566773
 30
0.0
 40
2.0
100
AcDbArc
 50
270.0
 51
358.9999999999982
  0
LINE
  5
1215
330
2
100
AcDbEntity
  8
0
100
AcDbLine
 10
-14.48957474645317
 20
335.0678655566771
 30
0.0
 11
-14.48957474645226
 21
435.0678655566746
 31
0.0
  0
LINE
  5
1216
330
2
100
AcDbEntity
  8
0
100
AcDbLine
 10
55.97642828516166
 20
327.0329607438009
 30
0.0
 11
54.96342525354669
 21
385.0678655566764
 31
0.0
  0
ARC
  5
1217
330
2
100
AcDbEntity
  8
0
100
AcDbCircle
 10
57.97612367547447
 20
327.0678655566755
 30
0.0
 40
2.0
100
AcDbArc
 50
181.0000000000017
 51
270.0
  0
ARC
  5
1218
330
2
100
AcDbEntity
  8
0
100
AcDbCircle
 10
48.29066530995556
 20
324.5678655566764
 30
0.0
 40
8.0
100
AcDbArc
 50
14.47751218592876
 51
52.60898312772035
  0
LINE
  5
1219
330
2
100
AcDbEntity
  8
0
100
AcDbLine
 10
0.8019342857581932
 20
351.7542703233705
 30
0.0
 11
0.5449728712170554
 21
337.0329607438027
 31
0.0
  0
ARC
  5
121A
330
2
100
AcDbEntity
  8
0
100
AcDbCircle
 10
3.796137562584021
 20
351.5678655566773
 30
0.0
 40
3.0
100
AcDbArc
 50
90.0
 51
178.9999999999982
  0
LINE
  5
121B
330
2
100
AcDbEntity
  8
CENTER
100
AcDbLine
 10
4.010425253548646
 20
428.7195912600434
 30
0.0
 11
4.010425253548646
 21
443.2909506812936
 31
0.0
  0
LINE
  5
121C
330
2
100
AcDbEntity
  8
0
100
AcDbLine
 10
70.01042525354591
 20
385.0678655566773
 30
0.0
 11
-14.48957474645271
 21
385.0678655566771
 31
0.0
  0
LINE
  5
121D
330
2
100
AcDbEntity
  8
0
 48
0.5
100
AcDbLine
 10
48.22086896722068
 20
332.5678655566764
 30
0.0
 11
23.83885237829076
 21
332.5678655566782
 31
0.0
  0
LINE
  5
121E
330
2
100
AcDbEntity
  8
0
 48
0.5
100
AcDbLine
 10
48.22086896704965
 20
437.5678655566773
 30
0.0
 11
23.83885237829076
 21
437.5678655566746
 31
0.0
  0
LINE
  5
121F
330
2
100
AcDbEntity
  8
0
100
AcDbLine
 10
21.09621169116621
 20
435.6536519942958
 30
0.0
 11
22.42463881591925
 21
436.982079119048
 31
0.0
  0
ARC
  5
1220
330
2
100
AcDbEntity
  8
0
100
AcDbCircle
 10
23.83885237829076
 20
435.5678655566755
 30
0.0
 40
2.0
100
AcDbArc
 50
90.0
 51
135.0000000000822
  0
ARC
  5
1221
330
2
100
AcDbEntity
  8
0
100
AcDbCircle
 10
19.68199812879652
 20
437.0678655566664
 30
0.0
 40
2.0
100
AcDbArc
 50
269.9999999999478
 51
315.0000000000823
  0
LINE
  5
1222
330
2
100
AcDbEntity
  8
0
100
AcDbLine
 10
21.09621169116621
 20
334.4820791190588
 30
0.0
 11
22.42463881591925
 21
333.1536519943067
 31
0.0
  0
ARC
  5
1223
330
2
100
AcDbEntity
  8
0
100
AcDbCircle
 10
23.83885237829076
 20
334.5678655566791
 30
0.0
 40
2.0
100
AcDbArc
 50
224.9999999999177
 51
270.0
  0
ARC
  5
1224
330
2
100
AcDbEntity
  8
0
100
AcDbCircle
 10
19.68199812879652
 20
333.0678655566882
 30
0.0
 40
2.0
100
AcDbArc
 50
44.99999999991778
 51
90.00000000005213
  0
LINE
  5
1225
330
2
100
AcDbEntity
  8
0
100
AcDbLine
 10
55.97642828516166
 20
443.1027703695533
 30
0.0
 11
54.96342525354669
 21
385.0678655566778
 31
0.0
  0
ARC
  5
1226
330
2
100
AcDbEntity
  8
0
100
AcDbCircle
 10
57.97612367547447
 20
443.0678655566786
 30
0.0
 40
2.0
100
AcDbArc
 50
90.0
 51
178.9999999999721
  0
ARC
  5
1227
330
2
100
AcDbEntity
  8
0
100
AcDbCircle
 10
48.29066530995556
 20
445.5678655566778
 30
0.0
 40
8.0
100
AcDbArc
 50
307.3910167566154
 51
345.5224878140711
  0
ARC
  5
1228
330
2
100
AcDbEntity
  8
0
 48
0.5
100
AcDbCircle
 10
-1.454722519095753
 20
433.0678655566774
 30
0.0
 40
2.0
100
AcDbArc
 50
1.000000000027817
 51
90.0
  0
LINE
  5
1229
330
2
100
AcDbEntity
  8
0
100
AcDbLine
 10
0.8019342857572837
 20
418.3814607899864
 30
0.0
 11
0.5449728712170554
 21
433.102770369552
 31
0.0
  0
ARC
  5
122A
330
2
100
AcDbEntity
  8
0
100
AcDbCircle
 10
3.796137562583112
 20
418.5678655566773
 30
0.0
 40
3.0
100
AcDbArc
 50
181.0000000000017
 51
270.0
  0
ARC
  5
122B
330
2
100
AcDbEntity
  8
0
 48
0.5
100
AcDbCircle
 10
18.54503072731472
 20
337.0678655566759
 30
0.0
 40
2.0
100
AcDbArc
 50
270.0
 51
358.9999999999982
  0
LINE
  5
122C
330
2
100
AcDbEntity
  8
0
100
AcDbLine
 10
20.54472611762844
 20
337.0329607438018
 30
0.0
 11
20.5874479471056
 21
339.4804927153561
 31
0.0
  0
LINE
  5
122D
330
2
100
AcDbEntity
  8
0
100
AcDbLine
 10
23.58699103257436
 20
342.4281354960428
 30
0.0
 11
3.636145996817276
 21
342.4281354960428
 31
0.0
  0
ARC
  5
122E
330
2
100
AcDbEntity
  8
0
100
AcDbCircle
 10
23.58699103257436
 20
339.4281354960442
 30
0.0
 40
3.0
100
AcDbArc
 50
90.0
 51
179.0000000000242
  0
ARC
  5
122F
330
2
100
AcDbEntity
  8
0
 48
0.5
100
AcDbCircle
 10
18.54503072731472
 20
433.0678655566787
 30
0.0
 40
2.0
100
AcDbArc
 50
0.9999999999757099
 51
90.0
  0
LINE
  5
1230
330
2
100
AcDbEntity
  8
0
100
AcDbLine
 10
20.54472611762844
 20
433.1027703695529
 30
0.0
 11
20.5874479471056
 21
430.6552383979985
 31
0.0
  0
LINE
  5
1231
330
2
100
AcDbEntity
  8
0
100
AcDbLine
 10
23.58699103257436
 20
427.7075956173119
 30
0.0
 11
3.636145996817276
 21
427.7075956173119
 31
0.0
  0
ARC
  5
1232
330
2
100
AcDbEntity
  8
0
100
AcDbCircle
 10
23.58699103257436
 20
430.7075956173105
 30
0.0
 40
3.0
100
AcDbArc
 50
180.9999999999757
 51
270.0
  0
LINE
  5
1233
330
2
100
AcDbEntity
  8
0
100
AcDbLine
 10
18.29461769342811
 20
354.5678655566773
 30
0.0
 11
3.796137562584362
 21
354.5678655566773
 31
0.0
  0
LINE
  5
1234
330
2
100
AcDbEntity
  8
0
100
AcDbLine
 10
18.29461769342811
 20
415.5678655566778
 30
0.0
 11
3.796137562583453
 21
415.5678655566773
 31
0.0
  0
LINE
  5
1235
330
2
100
AcDbEntity
  8
0
100
AcDbLine
 10
20.51042525354728
 20
368.9140186599195
 30
0.0
 11
20.22845880712407
 21
385.0678655566773
 31
0.0
  0
LINE
  5
1236
330
2
100
AcDbEntity
  8
0
100
AcDbLine
 10
20.29431308374091
 20
356.5329607438027
 30
0.0
 11
20.51042525354637
 21
368.9140186599195
 31
0.0
  0
ARC
  5
1237
330
2
100
AcDbEntity
  8
0
100
AcDbCircle
 10
18.29461769342811
 20
356.5678655566773
 30
0.0
 40
2.0
100
AcDbArc
 50
270.0
 51
358.9999999999982
  0
LINE
  5
1238
330
2
100
AcDbEntity
  8
0
100
AcDbLine
 10
20.51042525354728
 20
401.2217124534352
 30
0.0
 11
20.22845880712407
 21
385.0678655566773
 31
0.0
  0
LINE
  5
1239
330
2
100
AcDbEntity
  8
0
100
AcDbLine
 10
20.29431308374091
 20
413.6027703695519
 30
0.0
 11
20.51042525354637
 21
401.2217124534352
 31
0.0
  0
ARC
  5
123A
330
2
100
AcDbEntity
  8
0
100
AcDbCircle
 10
18.29461769342811
 20
413.5678655566773
 30
0.0
 40
2.0
100
AcDbArc
 50
1.000000000001765
 51
90.0
  0
LINE
  5
123C
330
2
100
AcDbEntity
  8
0
100
AcDbLine
 10
978.594693560319
 20
439.0678655566712
 30
0.0
 11
968.594693560319
 21
439.0678655566712
 31
0.0
  0
ARC
  5
123D
330
2
100
AcDbEntity
  8
0
100
AcDbCircle
 10
968.594693560319
 20
435.0678655566712
 30
0.0
 40
4.0
100
AcDbArc
 50
90.0
 51
180.0
  0
ARC
  5
123E
330
2
100
AcDbEntity
  8
0
100
AcDbCircle
 10
978.594693560319
 20
435.0678655566712
 30
0.0
 40
4.0
100
AcDbArc
 50
0.0
 51
90.0
  0
LINE
  5
123F
330
2
100
AcDbEntity
  8
0
100
AcDbLine
 10
9.010425253548646
 20
439.0678655566714
 30
0.0
 11
-0.9895747464513533
 21
439.0678655566714
 31
0.0
  0
ARC
  5
1240
330
2
100
AcDbEntity
  8
0
100
AcDbCircle
 10
-0.9895747464513533
 20
435.0678655566714
 30
0.0
 40
4.0
100
AcDbArc
 50
90.0
 51
180.0
  0
ARC
  5
1241
330
2
100
AcDbEntity
  8
0
100
AcDbCircle
 10
9.010425253548646
 20
435.0678655566714
 30
0.0
 40
4.0
100
AcDbArc
 50
0.0
 51
90.0
  0
LINE
  5
1242
330
2
100
AcDbEntity
  8
0
100
AcDbLine
 10
1279.281979061099
 20
439.0678655640014
 30
0.0
 11
1269.281979061099
 21
439.0678655640014
 31
0.0
  0
ARC
  5
1243
330
2
100
AcDbEntity
  8
0
100
AcDbCircle
 10
1269.281979061099
 20
435.0678655640014
 30
0.0
 40
4.0
100
AcDbArc
 50
90.0
 51
180.0
  0
ARC
  5
1244
330
2
100
AcDbEntity
  8
0
100
AcDbCircle
 10
1279.281979061099
 20
435.0678655640014
 30
0.0
 40
4.0
100
AcDbArc
 50
0.0
 51
90.0
  0
CIRCLE
  5
1245
330
2
100
AcDbEntity
  8
0
100
AcDbCircle
 10
973.5946935603204
 20
767.5897734496224
 30
0.0
 40
9.0
  0
LINE
  5
1246
330
2
100
AcDbEntity
  8
0
100
AcDbLine
 10
921.5946935603168
 20
830.9836947408461
 30
0.0
 11
923.0946935603174
 21
830.9836947408461
 31
0.0
  0
LINE
  5
1247
330
2
100
AcDbEntity
  8
0
100
AcDbLine
 10
921.5946935603168
 20
842.4836947408461
 30
0.0
 11
923.0946935603176
 21
842.4836947408461
 31
0.0
  0
LINE
  5
1248
330
2
100
AcDbEntity
  8
0
100
AcDbLine
 10
928.6946935603172
 20
831.7336947408461
 30
0.0
 11
929.0946935603168
 21
832.4265150638733
 31
0.0
  0
LINE
  5
1249
330
2
100
AcDbEntity
  8
0
100
AcDbLine
 10
923.0946935603174
 20
830.9836947408461
 30
0.0
 11
923.0946935603176
 21
842.4836947408461
 31
0.0
  0
LINE
  5
124A
330
2
100
AcDbEntity
  8
0
100
AcDbLine
 10
928.6946935603172
 20
831.7336947408461
 30
0.0
 11
928.6946935603173
 21
841.7336947408461
 31
0.0
  0
LINE
  5
124B
330
2
100
AcDbEntity
  8
0
100
AcDbLine
 10
923.0946935603174
 20
831.7336947408461
 30
0.0
 11
928.6946935603172
 21
831.7336947408461
 31
0.0
  0
LINE
  5
124C
330
2
100
AcDbEntity
  8
0
100
AcDbLine
 10
923.0946935603176
 20
841.7336947408461
 30
0.0
 11
928.6946935603173
 21
841.7336947408461
 31
0.0
  0
LINE
  5
124D
330
2
100
AcDbEntity
  8
0
100
AcDbLine
 10
928.6946935603173
 20
841.7336947408461
 30
0.0
 11
929.0946935603169
 21
841.0408744178189
 31
0.0
  0
LINE
  5
124E
330
2
100
AcDbEntity
  8
0
100
AcDbLine
 10
929.0946935603168
 20
832.4265150638733
 30
0.0
 11
929.0946935603169
 21
841.0408744178189
 31
0.0
  0
LINE
  5
124F
330
2
100
AcDbEntity
  8
0
 48
12.0
100
AcDbLine
 10
921.5946935603168
 20
842.4836947408461
 30
0.0
 11
921.5946935603168
 21
830.9836947408461
 31
0.0
  0
LINE
  5
1250
330
2
100
AcDbEntity
  8
0
100
AcDbLine
 10
921.884249846818
 20
428.4617868405762
 30
0.0
 11
923.3842498468186
 21
428.4617868405762
 31
0.0
  0
LINE
  5
1251
330
2
100
AcDbEntity
  8
0
100
AcDbLine
 10
921.8842498468182
 20
439.9617868405762
 30
0.0
 11
923.3842498468188
 21
439.9617868405762
 31
0.0
  0
LINE
  5
1252
330
2
100
AcDbEntity
  8
0
100
AcDbLine
 10
928.9842498468184
 20
429.2117868405762
 30
0.0
 11
929.384249846818
 21
429.9046071636034
 31
0.0
  0
LINE
  5
1253
330
2
100
AcDbEntity
  8
0
100
AcDbLine
 10
923.3842498468186
 20
428.4617868405762
 30
0.0
 11
923.3842498468188
 21
439.9617868405762
 31
0.0
  0
LINE
  5
1254
330
2
100
AcDbEntity
  8
0
100
AcDbLine
 10
928.9842498468184
 20
429.2117868405762
 30
0.0
 11
928.9842498468185
 21
439.2117868405762
 31
0.0
  0
LINE
  5
1255
330
2
100
AcDbEntity
  8
0
100
AcDbLine
 10
923.3842498468186
 20
429.2117868405762
 30
0.0
 11
928.9842498468184
 21
429.2117868405762
 31
0.0
  0
LINE
  5
1256
330
2
100
AcDbEntity
  8
0
100
AcDbLine
 10
923.3842498468188
 20
439.2117868405762
 30
0.0
 11
928.9842498468185
 21
439.2117868405762
 31
0.0
  0
LINE
  5
1257
330
2
100
AcDbEntity
  8
0
100
AcDbLine
 10
928.9842498468185
 20
439.2117868405762
 30
0.0
 11
929.3842498468182
 21
438.5189665175489
 31
0.0
  0
LINE
  5
1258
330
2
100
AcDbEntity
  8
0
100
AcDbLine
 10
929.384249846818
 20
429.9046071636034
 30
0.0
 11
929.3842498468182
 21
438.5189665175489
 31
0.0
  0
LINE
  5
1259
330
2
100
AcDbEntity
  8
0
 48
12.0
100
AcDbLine
 10
921.8842498468182
 20
439.9617868405762
 30
0.0
 11
921.884249846818
 21
428.4617868405762
 31
0.0
  0
LINE
  5
125A
330
2
100
AcDbEntity
  8
0
100
AcDbLine
 10
921.8842498466468
 20
330.1739442629695
 30
0.0
 11
923.3842498466472
 21
330.1739442629695
 31
0.0
  0
LINE
  5
125B
330
2
100
AcDbEntity
  8
0
100
AcDbLine
 10
921.8842498466468
 20
341.6739442629696
 30
0.0
 11
923.3842498466476
 21
341.6739442629696
 31
0.0
  0
LINE
  5
125C
330
2
100
AcDbEntity
  8
0
100
AcDbLine
 10
928.9842498466471
 20
330.9239442629696
 30
0.0
 11
929.3842498466467
 21
331.6167645859968
 31
0.0
  0
LINE
  5
125D
330
2
100
AcDbEntity
  8
0
100
AcDbLine
 10
923.3842498466474
 20
330.1739442629695
 30
0.0
 11
923.3842498466476
 21
341.6739442629696
 31
0.0
  0
LINE
  5
125E
330
2
100
AcDbEntity
  8
0
100
AcDbLine
 10
928.9842498466471
 20
330.9239442629696
 30
0.0
 11
928.9842498466471
 21
340.9239442629695
 31
0.0
  0
LINE
  5
125F
330
2
100
AcDbEntity
  8
0
100
AcDbLine
 10
923.3842498466472
 20
330.9239442629696
 30
0.0
 11
928.9842498466471
 21
330.9239442629696
 31
0.0
  0
LINE
  5
1260
330
2
100
AcDbEntity
  8
0
100
AcDbLine
 10
923.3842498466476
 20
340.9239442629695
 30
0.0
 11
928.9842498466471
 21
340.9239442629695
 31
0.0
  0
LINE
  5
1261
330
2
100
AcDbEntity
  8
0
100
AcDbLine
 10
928.9842498466471
 20
340.9239442629695
 30
0.0
 11
929.3842498466469
 21
340.2311239399423
 31
0.0
  0
LINE
  5
1262
330
2
100
AcDbEntity
  8
0
100
AcDbLine
 10
929.3842498466467
 20
331.6167645859968
 30
0.0
 11
929.3842498466469
 21
340.2311239399423
 31
0.0
  0
LINE
  5
1263
330
2
100
AcDbEntity
  8
0
 48
12.0
100
AcDbLine
 10
921.8842498466468
 20
341.6739442629696
 30
0.0
 11
921.8842498466468
 21
330.1739442629695
 31
0.0
  0
LINE
  5
1264
330
2
100
AcDbEntity
  8
0
100
AcDbLine
 10
55.72086896722078
 20
341.6739442629698
 30
0.0
 11
54.22086896722021
 21
341.6739442629698
 31
0.0
  0
LINE
  5
1265
330
2
100
AcDbEntity
  8
0
100
AcDbLine
 10
55.72086896722066
 20
330.1739442629698
 30
0.0
 11
54.22086896721987
 21
330.1739442629698
 31
0.0
  0
LINE
  5
1266
330
2
100
AcDbEntity
  8
0
100
AcDbLine
 10
48.62086896722042
 20
340.9239442629698
 30
0.0
 11
48.22086896722078
 21
340.2311239399425
 31
0.0
  0
LINE
  5
1267
330
2
100
AcDbEntity
  8
0
100
AcDbLine
 10
54.22086896722021
 20
341.6739442629698
 30
0.0
 11
54.22086896721987
 21
330.1739442629698
 31
0.0
  0
LINE
  5
1268
330
2
100
AcDbEntity
  8
0
100
AcDbLine
 10
48.62086896722042
 20
340.9239442629698
 30
0.0
 11
48.6208689672203
 21
330.9239442629698
 31
0.0
  0
LINE
  5
1269
330
2
100
AcDbEntity
  8
0
100
AcDbLine
 10
54.22086896722021
 20
340.9239442629698
 30
0.0
 11
48.62086896722042
 21
340.9239442629698
 31
0.0
  0
LINE
  5
126A
330
2
100
AcDbEntity
  8
0
100
AcDbLine
 10
54.22086896721987
 20
330.9239442629698
 30
0.0
 11
48.6208689672203
 21
330.9239442629698
 31
0.0
  0
LINE
  5
126B
330
2
100
AcDbEntity
  8
0
100
AcDbLine
 10
48.6208689672203
 20
330.9239442629698
 30
0.0
 11
48.22086896722066
 21
331.616764585997
 31
0.0
  0
LINE
  5
126C
330
2
100
AcDbEntity
  8
0
100
AcDbLine
 10
48.22086896722078
 20
340.2311239399425
 30
0.0
 11
48.22086896722066
 21
331.616764585997
 31
0.0
  0
LINE
  5
126D
330
2
100
AcDbEntity
  8
0
 48
12.0
100
AcDbLine
 10
55.72086896722066
 20
330.1739442629698
 30
0.0
 11
55.72086896722078
 21
341.6739442629698
 31
0.0
  0
LINE
  5
126E
330
2
100
AcDbEntity
  8
0
100
AcDbLine
 10
55.72086896704968
 20
439.9617868405764
 30
0.0
 11
54.22086896704922
 21
439.9617868405764
 31
0.0
  0
LINE
  5
126F
330
2
100
AcDbEntity
  8
0
100
AcDbLine
 10
55.72086896704957
 20
428.4617868405764
 30
0.0
 11
54.22086896704877
 21
428.4617868405764
 31
0.0
  0
LINE
  5
1270
330
2
100
AcDbEntity
  8
0
100
AcDbLine
 10
48.62086896704932
 20
439.2117868405764
 30
0.0
 11
48.22086896704968
 21
438.5189665175492
 31
0.0
  0
LINE
  5
1271
330
2
100
AcDbEntity
  8
0
100
AcDbLine
 10
54.22086896704911
 20
439.9617868405764
 30
0.0
 11
54.22086896704877
 21
428.4617868405764
 31
0.0
  0
LINE
  5
1272
330
2
100
AcDbEntity
  8
0
100
AcDbLine
 10
48.62086896704932
 20
439.2117868405764
 30
0.0
 11
48.6208689670492
 21
429.2117868405764
 31
0.0
  0
LINE
  5
1273
330
2
100
AcDbEntity
  8
0
100
AcDbLine
 10
54.22086896704922
 20
439.2117868405764
 30
0.0
 11
48.62086896704932
 21
439.2117868405764
 31
0.0
  0
LINE
  5
1274
330
2
100
AcDbEntity
  8
0
100
AcDbLine
 10
54.22086896704877
 20
429.2117868405764
 30
0.0
 11
48.6208689670492
 21
429.2117868405764
 31
0.0
  0
LINE
  5
1275
330
2
100
AcDbEntity
  8
0
100
AcDbLine
 10
48.6208689670492
 20
429.2117868405764
 30
0.0
 11
48.22086896704957
 21
429.9046071636037
 31
0.0
  0
LINE
  5
1276
330
2
100
AcDbEntity
  8
0
100
AcDbLine
 10
48.22086896704968
 20
438.5189665175492
 30
0.0
 11
48.22086896704957
 21
429.9046071636037
 31
0.0
  0
LINE
  5
1277
330
2
100
AcDbEntity
  8
0
 48
12.0
100
AcDbLine
 10
55.72086896704957
 20
428.4617868405764
 30
0.0
 11
55.72086896704968
 21
439.9617868405764
 31
0.0
  0
ARC
  5
1278
330
2
100
AcDbEntity
  8
0
100
AcDbCircle
 10
1343.425900337672
 20
434.2117868503847
 30
0.0
 40
5.000000000000113
100
AcDbArc
 50
275.0016630384282
 51
174.0265442060221
  0
ARC
  5
1279
330
2
100
AcDbEntity
  8
0
100
AcDbCircle
 10
1343.425900337672
 20
434.2117868503847
 30
0.0
 40
4.307179676972509
100
AcDbArc
 50
272.8219851704368
 51
176.2062220740117
  0
LINE
  5
127A
330
2
100
AcDbEntity
  8
0
100
AcDbLine
 10
1345.925900337673
 20
435.6551625233588
 30
0.0
 11
1345.925900337673
 21
432.7684111774106
 31
0.0
  0
LINE
  5
127B
330
2
100
AcDbEntity
  8
0
100
AcDbLine
 10
1343.425900337672
 20
431.3250355044366
 30
0.0
 11
1345.925900337673
 21
432.7684111774106
 31
0.0
  0
LINE
  5
127C
330
2
100
AcDbEntity
  8
0
100
AcDbLine
 10
1345.925900337673
 20
435.6551625233588
 30
0.0
 11
1343.425900337672
 21
437.0985381963329
 31
0.0
  0
LINE
  5
127D
330
2
100
AcDbEntity
  8
0
100
AcDbLine
 10
1340.925900337673
 20
435.6551625233588
 30
0.0
 11
1340.925900337673
 21
433.4931296757405
 31
0.0
  0
LINE
  5
127E
330
2
100
AcDbEntity
  8
0
100
AcDbLine
 10
1343.425900337672
 20
431.3250355044366
 30
0.0
 11
1342.615155370976
 21
431.793119329203
 31
0.0
  0
LINE
  5
127F
330
2
100
AcDbEntity
  8
0
100
AcDbLine
 10
1340.925900337673
 20
435.6551625233588
 30
0.0
 11
1343.425900337672
 21
437.0985381963329
 31
0.0
  0
ARC
  5
1280
330
2
100
AcDbEntity
  8
0
 48
12.0
100
AcDbCircle
 10
1343.425900337677
 20
434.2117868503847
 30
0.0
 40
5.749999999999829
100
AcDbArc
 50
276.0473863444506
 51
172.9808208999609
  0
ARC
  5
1281
330
2
100
AcDbEntity
  8
0
100
AcDbCircle
 10
1245.138057760066
 20
434.2117868405763
 30
0.0
 40
5.000000000000113
100
AcDbArc
 50
5.973455870735777
 51
264.9983370408858
  0
ARC
  5
1282
330
2
100
AcDbEntity
  8
0
100
AcDbCircle
 10
1245.138057760066
 20
434.2117868405763
 30
0.0
 40
4.307179676972509
100
AcDbArc
 50
3.793778002431813
 51
267.1780149091799
  0
LINE
  5
1283
330
2
100
AcDbEntity
  8
0
100
AcDbLine
 10
1247.638057760066
 20
435.6551625135503
 30
0.0
 11
1247.638057760066
 21
433.4931296684572
 31
0.0
  0
LINE
  5
1284
330
2
100
AcDbEntity
  8
0
100
AcDbLine
 10
1245.138057760066
 20
431.3250354946282
 30
0.0
 11
1245.948802731333
 21
431.793119322033
 31
0.0
  0
LINE
  5
1285
330
2
100
AcDbEntity
  8
0
100
AcDbLine
 10
1247.638057760066
 20
435.6551625135503
 30
0.0
 11
1245.138057760066
 21
437.0985381865245
 31
0.0
  0
LINE
  5
1286
330
2
100
AcDbEntity
  8
0
100
AcDbLine
 10
1242.638057760066
 20
435.6551625135503
 30
0.0
 11
1242.638057760066
 21
432.7684111676022
 31
0.0
  0
LINE
  5
1287
330
2
100
AcDbEntity
  8
0
100
AcDbLine
 10
1245.138057760066
 20
431.3250354946282
 30
0.0
 11
1242.638057760066
 21
432.7684111676022
 31
0.0
  0
LINE
  5
1288
330
2
100
AcDbEntity
  8
0
100
AcDbLine
 10
1242.638057760066
 20
435.6551625135503
 30
0.0
 11
1245.138057760066
 21
437.0985381865245
 31
0.0
  0
ARC
  5
1289
330
2
100
AcDbEntity
  8
0
 48
12.0
100
AcDbCircle
 10
1245.138057760071
 20
434.2117868405763
 30
0.0
 40
5.749999999999829
100
AcDbArc
 50
7.019179177061265
 51
263.9526137345189
  0
ARC
  5
128A
330
2
100
AcDbEntity
  8
0
100
AcDbCircle
 10
1245.138057769876
 20
335.9239442629696
 30
0.0
 40
5.000000000000113
100
AcDbArc
 50
95.00166299263135
 51
354.0265443695585
  0
ARC
  5
128B
330
2
100
AcDbEntity
  8
0
100
AcDbCircle
 10
1245.138057769876
 20
335.9239442629696
 30
0.0
 40
4.307179676972509
100
AcDbArc
 50
92.82198509811129
 51
356.2062222640701
  0
LINE
  5
128C
330
2
100
AcDbEntity
  8
0
100
AcDbLine
 10
1247.638057769876
 20
336.6426014522372
 30
0.0
 11
1247.638057769876
 21
334.4805685899956
 31
0.0
  0
LINE
  5
128D
330
2
100
AcDbEntity
  8
0
100
AcDbLine
 10
1245.138057769876
 20
333.0371929170215
 30
0.0
 11
1247.638057769876
 21
334.4805685899956
 31
0.0
  0
LINE
  5
128E
330
2
100
AcDbEntity
  8
0
100
AcDbLine
 10
1245.948802755084
 20
338.3426117734639
 30
0.0
 11
1245.138057769876
 21
338.8106956089178
 31
0.0
  0
LINE
  5
128F
330
2
100
AcDbEntity
  8
0
100
AcDbLine
 10
1242.638057769876
 20
337.3673199359437
 30
0.0
 11
1242.638057769876
 21
334.4805685899956
 31
0.0
  0
LINE
  5
1290
330
2
100
AcDbEntity
  8
0
100
AcDbLine
 10
1245.138057769876
 20
333.0371929170215
 30
0.0
 11
1242.638057769876
 21
334.4805685899956
 31
0.0
  0
LINE
  5
1291
330
2
100
AcDbEntity
  8
0
100
AcDbLine
 10
1242.638057769876
 20
337.3673199359437
 30
0.0
 11
1245.138057769876
 21
338.8106956089178
 31
0.0
  0
ARC
  5
1292
330
2
100
AcDbEntity
  8
0
 48
12.0
100
AcDbCircle
 10
1245.13805776988
 20
335.9239442629696
 30
0.0
 40
5.749999999999829
100
AcDbArc
 50
96.04738631878687
 51
352.9808210434277
  0
ARC
  5
1293
330
2
100
AcDbEntity
  8
0
100
AcDbCircle
 10
1343.425900347482
 20
335.9239442727786
 30
0.0
 40
5.000000000000113
100
AcDbArc
 50
185.9734557072512
 51
84.99833708649967
  0
ARC
  5
1294
330
2
100
AcDbEntity
  8
0
100
AcDbCircle
 10
1343.425900347482
 20
335.9239442727786
 30
0.0
 40
4.307179676972509
100
AcDbArc
 50
183.7937778124514
 51
87.17801498130979
  0
LINE
  5
1295
330
2
100
AcDbEntity
  8
0
100
AcDbLine
 10
1345.925900347482
 20
337.3673199457527
 30
0.0
 11
1345.925900347482
 21
334.4805685998045
 31
0.0
  0
LINE
  5
1296
330
2
100
AcDbEntity
  8
0
100
AcDbLine
 10
1343.425900347482
 20
333.0371929268304
 30
0.0
 11
1345.925900347482
 21
334.4805685998045
 31
0.0
  0
LINE
  5
1297
330
2
100
AcDbEntity
  8
0
100
AcDbLine
 10
1345.925900347482
 20
337.3673199457527
 30
0.0
 11
1343.425900347482
 21
338.8106956187267
 31
0.0
  0
LINE
  5
1298
330
2
100
AcDbEntity
  8
0
100
AcDbLine
 10
1340.925900347482
 20
336.6426014595082
 30
0.0
 11
1340.925900347482
 21
334.4805685998045
 31
0.0
  0
LINE
  5
1299
330
2
100
AcDbEntity
  8
0
100
AcDbLine
 10
1343.425900347482
 20
333.0371929268304
 30
0.0
 11
1340.925900347482
 21
334.4805685998045
 31
0.0
  0
LINE
  5
129A
330
2
100
AcDbEntity
  8
0
100
AcDbLine
 10
1342.615155357733
 20
338.3426117806508
 30
0.0
 11
1343.425900347482
 21
338.8106956187267
 31
0.0
  0
ARC
  5
129B
330
2
100
AcDbEntity
  8
0
 48
12.0
100
AcDbCircle
 10
1343.425900347487
 20
335.9239442727786
 30
0.0
 40
5.749999999999829
100
AcDbArc
 50
187.019179033596
 51
83.95261376019579
  0
LINE
  5
129C
330
2
100
AcDbEntity
  8
0
100
AcDbLine
 10
962.0946935603202
 20
407.2736014803711
 30
0.0
 11
962.0946935603203
 21
385.0678655566771
 31
0.0
  0
LINE
  5
129D
330
2
100
AcDbEntity
  8
0
100
AcDbLine
 10
984.0946935603204
 20
385.0678655566771
 30
0.0
 11
984.0946935603199
 21
412.0678655566794
 31
0.0
  0
LINE
  5
129E
330
2
100
AcDbEntity
  8
0
100
AcDbLine
 10
982.0946935603203
 20
385.0678655566771
 30
0.0
 11
982.0946935603201
 21
397.0678655566798
 31
0.0
  0
LINE
  5
129F
330
2
100
AcDbEntity
  8
0
100
AcDbLine
 10
964.0946935603199
 20
407.8072403616635
 30
0.0
 11
964.0946935603203
 21
385.0678655566771
 31
0.0
  0
LINE
  5
12A0
330
2
100
AcDbEntity
  8
0
100
AcDbLine
 10
920.5946935603206
 20
385.0678655566767
 30
0.0
 11
920.5946935603204
 21
397.567865556678
 31
0.0
  0
LINE
  5
12A1
330
2
100
AcDbEntity
  8
0
 48
0.3
100
AcDbLine
 10
940.5946935603209
 20
397.5678655566785
 30
0.0
 11
920.5946935603204
 21
397.567865556678
 31
0.0
  0
LINE
  5
12A2
330
2
100
AcDbEntity
  8
0
 48
0.3
100
AcDbLine
 10
940.5946935603209
 20
397.0678655566785
 30
0.0
 11
962.0946935603202
 21
397.0678655566789
 31
0.0
  0
LINE
  5
12A3
330
2
100
AcDbEntity
  8
0
100
AcDbLine
 10
940.5946935603209
 20
385.0678655566767
 30
0.0
 11
940.5946935603209
 21
397.5678655566785
 31
0.0
  0
LINE
  5
12A4
330
2
100
AcDbEntity
  8
0
100
AcDbLine
 10
969.4889857114091
 20
412.0678655566794
 30
0.0
 11
984.0946935603199
 21
412.0678655566794
 31
0.0
  0
LINE
  5
12A5
330
2
100
AcDbEntity
  8
0
 48
0.3
100
AcDbLine
 10
964.0946935603201
 20
397.0678655566794
 30
0.0
 11
982.0946935603201
 21
397.0678655566798
 31
0.0
  0
LINE
  5
12A6
330
2
100
AcDbEntity
  8
0
 48
0.3
100
AcDbLine
 10
913.9551654646394
 20
385.067865556678
 30
0.0
 11
920.5946935603204
 21
396.567865556678
 31
0.0
  0
LINE
  5
12A7
330
2
100
AcDbEntity
  8
0
100
AcDbLine
 10
982.0946935603204
 20
397.0678655566753
 30
0.0
 11
984.0946935603206
 21
398.2225660950548
 31
0.0
  0
LINE
  5
12A9
330
2
100
AcDbEntity
  8
0
100
AcDbLine
 10
985.0946935603211
 20
432.5678655566762
 30
0.0
 11
992.0946935603199
 21
432.5678655566762
 31
0.0
  0
LINE
  5
12AA
330
2
100
AcDbEntity
  8
0
100
AcDbLine
 10
984.0946935603264
 20
430.5678655566798
 30
0.0
 11
985.0946935603243
 21
431.5678655566784
 31
0.0
  0
LINE
  5
12AB
330
2
100
AcDbEntity
  8
0
100
AcDbLine
 10
975.1546778137415
 20
426.2871008973158
 30
0.0
 11
983.6034197635404
 21
426.4345742366117
 31
0.0
  0
ARC
  5
12AC
330
2
100
AcDbEntity
  8
0
100
AcDbCircle
 10
983.5946935603228
 20
426.9344980841897
 30
0.0
 40
0.5
100
AcDbArc
 50
270.9999999999757
 51
0.0
  0
LINE
  5
12AD
330
2
100
AcDbEntity
  8
0
100
AcDbLine
 10
985.0946935603211
 20
432.5678655566762
 30
0.0
 11
985.0946935603211
 21
385.0678655566771
 31
0.0
  0
LINE
  5
12AE
330
2
100
AcDbEntity
  8
0
100
AcDbLine
 10
984.0946935603264
 20
430.5678655566798
 30
0.0
 11
984.0946935603264
 21
385.0678655566771
 31
0.0
  0
LINE
  5
12AF
330
2
100
AcDbEntity
  8
CENTER
100
AcDbLine
 10
1274.281979053795
 20
362.193279468505
 30
0.0
 11
1274.281979053795
 21
443.2909506812936
 31
0.0
  0
LINE
  5
12B0
330
2
100
AcDbEntity
  8
HIDS
  6
SEKKEI_H
100
AcDbLine
 10
1269.202106645821
 20
395.0678655566922
 30
0.0
 11
1282.031979053788
 21
395.0678655566917
 31
0.0
  0
LINE
  5
12B1
330
2
100
AcDbEntity
  8
HIDS
  6
SEKKEI_H
100
AcDbLine
 10
1278.781979053788
 20
385.817865556689
 30
0.0
 11
1278.781979053788
 21
395.0678655566917
 31
0.0
  0
LINE
  5
12B2
330
2
100
AcDbEntity
  8
HIDS
  6
SEKKEI_H
100
AcDbLine
 10
1269.781979053788
 20
385.817865556689
 30
0.0
 11
1269.781979053788
 21
395.0678655566922
 31
0.0
  0
LINE
  5
12B3
330
2
100
AcDbEntity
  8
HIDS
  6
SEKKEI_H
100
AcDbLine
 10
1270.881979053788
 20
371.5978989643027
 30
0.0
 11
1270.881979053788
 21
384.3178655566891
 31
0.0
  0
LINE
  5
12B4
330
2
100
AcDbEntity
  8
HIDS
  6
SEKKEI_H
100
AcDbLine
 10
1270.281979053788
 20
372.0678655566922
 30
0.0
 11
1270.281979053788
 21
384.3178655566895
 31
0.0
  0
LINE
  5
12B5
330
2
100
AcDbEntity
  8
HIDS
  6
SEKKEI_H
100
AcDbLine
 10
1278.281979053788
 20
363.3193023857571
 30
0.0
 11
1278.281979053788
 21
384.3178655566895
 31
0.0
  0
LINE
  5
12B6
330
2
100
AcDbEntity
  8
HIDS
  6
SEKKEI_H
100
AcDbLine
 10
1277.681979053788
 20
363.773734909959
 30
0.0
 11
1277.681979053788
 21
384.3178655566895
 31
0.0
  0
LINE
  5
12B7
330
2
100
AcDbEntity
  8
0
100
AcDbLine
 10
1267.292397730618
 20
384.3178655566891
 30
0.0
 11
1282.305439486785
 21
384.3178655566891
 31
0.0
  0
LINE
  5
12B8
330
2
100
AcDbEntity
  8
0
100
AcDbLine
 10
1306.258518620792
 20
384.3178655566891
 30
0.0
 11
1320.290699099836
 21
384.3178655566895
 31
0.0
  0
LINE
  5
12B9
330
2
100
AcDbEntity
  8
0
100
AcDbLine
 10
1267.292397730618
 20
385.817865556689
 30
0.0
 11
1282.305439486785
 21
385.817865556689
 31
0.0
  0
LINE
  5
12BA
330
2
100
AcDbEntity
  8
0
100
AcDbLine
 10
1306.258518620792
 20
385.8178655566895
 30
0.0
 11
1320.290699099836
 21
385.817865556689
 31
0.0
  0
LINE
  5
12BB
330
2
100
AcDbEntity
  8
0
100
AcDbLine
 10
1320.290699099836
 20
385.817865556689
 30
0.0
 11
1320.290699099836
 21
384.3178655566895
 31
0.0
  0
LINE
  5
12BC
330
2
100
AcDbEntity
  8
HIDS
  6
SEKKEI_H
100
AcDbLine
 10
1280.781979053795
 20
404.5678655566922
 30
0.0
 11
1275.607129656809
 21
404.5678655566922
 31
0.0
  0
LINE
  5
12BD
330
2
100
AcDbEntity
  8
HIDS
  6
SEKKEI_H
100
AcDbLine
 10
1279.915953650009
 20
405.0678655566922
 30
0.0
 11
1276.143621906575
 21
405.0678655566922
 31
0.0
  0
LINE
  5
12BE
330
2
100
AcDbEntity
  8
HIDS
  6
SEKKEI_H
100
AcDbLine
 10
1281.531979053795
 20
397.0678655566922
 30
0.0
 11
1270.095205808894
 21
397.0678655566922
 31
0.0
  0
LINE
  5
12BF
330
2
100
AcDbEntity
  8
HIDS
  6
SEKKEI_H
100
AcDbLine
 10
1277.081979053802
 20
372.0678655566922
 30
0.0
 11
1271.481979053788
 21
372.0678655566922
 31
0.0
  0
LINE
  5
12C0
330
2
100
AcDbEntity
  8
HIDS
  6
SEKKEI_H
100
AcDbLine
 10
1278.281979053788
 20
373.267865556692
 30
0.0
 11
1270.281979053788
 21
373.267865556692
 31
0.0
  0
LINE
  5
12C1
330
2
100
AcDbEntity
  8
0
 48
0.3
100
AcDbLine
 10
1267.031979053795
 20
397.0678655566917
 30
0.0
 11
1267.031979053795
 21
395.0678655566917
 31
0.0
  0
LINE
  5
12C2
330
2
100
AcDbEntity
  8
0
 48
0.3
100
AcDbLine
 10
1267.781979053795
 20
404.5678655566917
 30
0.0
 11
1268.64800445758
 21
405.0678655566917
 31
0.0
  0
LINE
  5
12C3
330
2
100
AcDbEntity
  8
0
 48
0.3
100
AcDbLine
 10
1267.781979053795
 20
404.5678655566917
 30
0.0
 11
1267.781979053795
 21
397.0678655566917
 31
0.0
  0
LINE
  5
12C4
330
2
100
AcDbEntity
  8
HIDS
  6
SEKKEI_H
100
AcDbLine
 10
1281.531979053795
 20
397.0678655566922
 30
0.0
 11
1281.531979053795
 21
395.0678655566922
 31
0.0
  0
LINE
  5
12C5
330
2
100
AcDbEntity
  8
HIDS
  6
SEKKEI_H
100
AcDbLine
 10
1280.781979053795
 20
404.5678655566913
 30
0.0
 11
1279.91595365001
 21
405.0678655566917
 31
0.0
  0
LINE
  5
12C6
330
2
100
AcDbEntity
  8
HIDS
  6
SEKKEI_H
100
AcDbLine
 10
1280.781979053795
 20
404.5678655566913
 30
0.0
 11
1280.781979053795
 21
397.0678655566922
 31
0.0
  0
LINE
  5
12C7
330
2
100
AcDbEntity
  8
HIDS
  6
SEKKEI_H
100
AcDbLine
 10
1281.981979053795
 20
395.0678655566922
 30
0.0
 11
1269.202106645821
 21
395.0678655566917
 31
0.0
  0
LINE
  5
12C8
330
2
100
AcDbEntity
  8
HOJO
100
AcDbLine
 10
1270.881979053788
 20
384.3178655566891
 30
0.0
 11
1270.881979053788
 21
385.817865556689
 31
0.0
  0
LINE
  5
12C9
330
2
100
AcDbEntity
  8
0
100
AcDbLine
 10
1270.281979053788
 20
384.3178655566895
 30
0.0
 11
1270.281979053788
 21
385.817865556689
 31
0.0
  0
LINE
  5
12CA
330
2
100
AcDbEntity
  8
HOJO
100
AcDbLine
 10
1277.681979053788
 20
384.3178655566895
 30
0.0
 11
1277.681979053788
 21
385.817865556689
 31
0.0
  0
LINE
  5
12CB
330
2
100
AcDbEntity
  8
0
100
AcDbLine
 10
1278.281979053788
 20
384.3178655566895
 30
0.0
 11
1278.281979053788
 21
385.817865556689
 31
0.0
  0
LINE
  5
12CC
330
2
100
AcDbEntity
  8
HIDS
  6
SEKKEI_H
100
AcDbLine
 10
1278.281979053788
 20
385.817865556689
 30
0.0
 11
1278.281979053788
 21
395.0678655566917
 31
0.0
  0
LINE
  5
12CD
330
2
100
AcDbEntity
  8
HIDS
  6
SEKKEI_H
100
AcDbLine
 10
1277.681979053788
 20
385.817865556689
 30
0.0
 11
1277.681979053788
 21
395.0678655566917
 31
0.0
  0
LINE
  5
12CE
330
2
100
AcDbEntity
  8
HIDS
  6
SEKKEI_H
100
AcDbLine
 10
1270.881979053788
 20
385.817865556689
 30
0.0
 11
1270.881979053788
 21
395.0678655566922
 31
0.0
  0
LINE
  5
12CF
330
2
100
AcDbEntity
  8
HIDS
  6
SEKKEI_H
100
AcDbLine
 10
1270.281979053788
 20
385.817865556689
 30
0.0
 11
1270.281979053788
 21
395.0678655566922
 31
0.0
  0
LINE
  5
12D0
330
2
100
AcDbEntity
  8
0
100
AcDbLine
 10
1276.143621906575
 20
405.0678655566922
 30
0.0
 11
1268.64800445758
 21
405.0678655566917
 31
0.0
  0
LINE
  5
12D1
330
2
100
AcDbEntity
  8
0
100
AcDbLine
 10
1275.607129656809
 20
404.5678655566922
 30
0.0
 11
1267.781979053795
 21
404.5678655566917
 31
0.0
  0
LINE
  5
12D2
330
2
100
AcDbEntity
  8
0
100
AcDbLine
 10
1270.095205808894
 20
397.0678655566922
 30
0.0
 11
1267.031979053795
 21
397.0678655566917
 31
0.0
  0
LINE
  5
12D3
330
2
100
AcDbEntity
  8
0
100
AcDbLine
 10
1269.202106645821
 20
395.0678655566917
 30
0.0
 11
1267.031979053795
 21
395.0678655566917
 31
0.0
  0
LINE
  5
12D4
330
2
100
AcDbEntity
  8
HIDS
  6
SEKKEI_H
100
AcDbLine
 10
1270.281979053788
 20
373.267865556692
 30
0.0
 11
1271.481979053788
 21
372.0678655566922
 31
0.0
  0
LINE
  5
12D5
330
2
100
AcDbEntity
  8
HIDS
  6
SEKKEI_H
100
AcDbLine
 10
1278.281979053802
 20
373.267865556692
 30
0.0
 11
1277.081979053802
 21
372.0678655566922
 31
0.0
  0
ARC
  5
12D6
330
2
100
AcDbEntity
  8
0
100
AcDbCircle
 10
1294.28197905378
 20
385.0678655566772
 30
0.0
 40
13.15470053837729
100
AcDbArc
 50
183.2684247869235
 51
356.7315752130764
  0
ARC
  5
12D7
330
2
100
AcDbEntity
  8
0
100
AcDbCircle
 10
1294.28197905378
 20
385.0678655566772
 30
0.0
 40
13.15470053837729
100
AcDbArc
 50
3.268424787028318
 51
176.7315752129716
  0
CIRCLE
  5
12D8
330
2
100
AcDbEntity
  8
0
100
AcDbCircle
 10
1294.28197905378
 20
385.0678655566772
 30
0.0
 40
12.00000000001165
  0
CIRCLE
  5
12D9
330
2
100
AcDbEntity
  8
0
100
AcDbCircle
 10
1294.28197905378
 20
385.0678655566772
 30
0.0
 40
26.99999999999249
  0
LINE
  5
12DB
330
2
100
AcDbEntity
  8
HIDS
  6
SEKKEI_H
100
AcDbLine
 10
1282.031979053788
 20
395.0678655566917
 30
0.0
 11
1282.031979053788
 21
409.1289856469922
 31
0.0
  0
LINE
  5
12DC
330
2
100
AcDbEntity
  8
0
100
AcDbLine
 10
921.5946935603168
 20
744.1958521583988
 30
0.0
 11
923.0946935603174
 21
744.1958521583988
 31
0.0
  0
LINE
  5
12DD
330
2
100
AcDbEntity
  8
0
100
AcDbLine
 10
921.5946935603168
 20
732.6958521583987
 30
0.0
 11
923.0946935603176
 21
732.6958521583987
 31
0.0
  0
LINE
  5
12DE
330
2
100
AcDbEntity
  8
0
100
AcDbLine
 10
928.6946935603172
 20
743.4458521583987
 30
0.0
 11
929.0946935603168
 21
742.7530318353715
 31
0.0
  0
LINE
  5
12DF
330
2
100
AcDbEntity
  8
0
100
AcDbLine
 10
923.0946935603174
 20
744.1958521583988
 30
0.0
 11
923.0946935603176
 21
732.6958521583987
 31
0.0
  0
LINE
  5
12E0
330
2
100
AcDbEntity
  8
0
100
AcDbLine
 10
928.6946935603172
 20
743.4458521583987
 30
0.0
 11
928.6946935603173
 21
733.4458521583988
 31
0.0
  0
LINE
  5
12E1
330
2
100
AcDbEntity
  8
0
100
AcDbLine
 10
923.0946935603174
 20
743.4458521583987
 30
0.0
 11
928.6946935603172
 21
743.4458521583987
 31
0.0
  0
LINE
  5
12E2
330
2
100
AcDbEntity
  8
0
100
AcDbLine
 10
923.0946935603176
 20
733.4458521583988
 30
0.0
 11
928.6946935603173
 21
733.4458521583988
 31
0.0
  0
LINE
  5
12E3
330
2
100
AcDbEntity
  8
0
100
AcDbLine
 10
928.6946935603173
 20
733.4458521583988
 30
0.0
 11
929.0946935603169
 21
734.1386724814261
 31
0.0
  0
LINE
  5
12E4
330
2
100
AcDbEntity
  8
0
100
AcDbLine
 10
929.0946935603168
 20
742.7530318353715
 30
0.0
 11
929.0946935603169
 21
734.1386724814261
 31
0.0
  0
LINE
  5
12E5
330
2
100
AcDbEntity
  8
0
 48
12.0
100
AcDbLine
 10
921.5946935603168
 20
732.6958521583987
 30
0.0
 11
921.5946935603168
 21
744.1958521583988
 31
0.0
  0
LINE
  5
12E6
330
2
100
AcDbEntity
  8
CENTER
  6
CENTERX2
100
AcDbLine
 10
918.5946935603171
 20
836.7336947408466
 30
0.0
 11
932.0946935603179
 21
836.7336947408462
 31
0.0
  0
LINE
  5
12E7
330
2
100
AcDbEntity
  8
CENTER
  6
CENTERX2
100
AcDbLine
 10
918.5946935603169
 20
738.4458521583992
 30
0.0
 11
932.0946935603178
 21
738.4458521583987
 31
0.0
  0
LINE
  5
12E8
330
2
100
AcDbEntity
  8
CENTER
  6
CENTERX2
100
AcDbLine
 10
918.8842498468183
 20
434.2117868405766
 30
0.0
 11
932.3842498468192
 21
434.2117868405762
 31
0.0
  0
LINE
  5
12E9
330
2
100
AcDbEntity
  8
CENTER
  6
CENTERX2
100
AcDbLine
 10
918.8842498466469
 20
335.92394426297
 30
0.0
 11
932.3842498466479
 21
335.9239442629696
 31
0.0
  0
LINE
  5
12EA
330
2
100
AcDbEntity
  8
CENTER
  6
CENTERX2
100
AcDbLine
 10
58.72086896704968
 20
434.2117868405766
 30
0.0
 11
45.2147596943239
 21
434.2117868405764
 31
0.0
  0
LINE
  5
12EB
330
2
100
AcDbEntity
  8
CENTER
  6
CENTERX2
100
AcDbLine
 10
58.72086896722078
 20
335.92394426297
 30
0.0
 11
45.21475969449499
 21
335.9239442629698
 31
0.0
  0
CIRCLE
  5
12EC
330
2
100
AcDbEntity
  8
0
100
AcDbCircle
 10
1294.281979053781
 20
385.0678655566772
 30
0.0
 40
41.37528389595729
  0
LINE
  5
12ED
330
2
100
AcDbEntity
  8
HIDS
  6
SEKKEI_H
100
AcDbLine
 10
1342.19906721885
 20
354.5678655566749
 30
0.0
 11
1338.531272815598
 21
354.5678655566754
 31
0.0
  0
LINE
  5
12EE
330
2
100
AcDbEntity
  8
HIDS
  6
SEKKEI_H
100
AcDbLine
 10
1250.032685291956
 20
354.5678655566758
 30
0.0
 11
1246.364890888702
 21
354.5678655566768
 31
0.0
  0
ARC
  5
12EF
330
2
100
AcDbEntity
  8
HIDS
  6
SEKKEI_H
100
AcDbCircle
 10
1338.53127282613
 20
418.5678655566763
 30
0.0
 40
3.0
100
AcDbArc
 50
217.1284250626613
 51
270.0
  0
ARC
  5
12F0
330
2
100
AcDbEntity
  8
HIDS
  6
SEKKEI_H
100
AcDbCircle
 10
1250.032685266782
 20
418.5678655566754
 30
0.0
 40
3.0
100
AcDbArc
 50
270.0
 51
322.8715749373749
  0
ARC
  5
12F1
330
2
100
AcDbEntity
  8
HIDS
  6
SEKKEI_H
100
AcDbCircle
 10
1250.032685291955
 20
351.5678655566763
 30
0.0
 40
3.0
100
AcDbArc
 50
37.12842509316489
 51
90.0
  0
ARC
  5
12F2
330
2
100
AcDbEntity
  8
HIDS
  6
SEKKEI_H
100
AcDbCircle
 10
1338.531272815597
 20
351.5678655566754
 30
0.0
 40
3.0
100
AcDbArc
 50
90.0
 51
142.8715749068379
  0
ARC
  5
12F3
330
2
100
AcDbEntity
  8
HIDS
  6
SEKKEI_H
100
AcDbCircle
 10
1342.19906721885
 20
356.5678655566758
 30
0.0
 40
2.0
100
AcDbArc
 50
270.0
 51
359.8333333333248
  0
ARC
  5
12F4
330
2
100
AcDbEntity
  8
HIDS
  6
SEKKEI_H
100
AcDbCircle
 10
1246.364890888702
 20
356.5678655566763
 30
0.0
 40
2.0
100
AcDbArc
 50
180.1666666666751
 51
270.0
  0
LINE
  5
12F5
330
2
100
AcDbEntity
  8
HIDS
  6
SEKKEI_H
100
AcDbLine
 10
1342.19906721885
 20
415.5678655566763
 30
0.0
 11
1338.53127282613
 21
415.5678655566759
 31
0.0
  0
LINE
  5
12F6
330
2
100
AcDbEntity
  8
HIDS
  6
SEKKEI_H
100
AcDbLine
 10
1250.032685266783
 20
415.5678655566759
 30
0.0
 11
1246.364890888702
 21
415.567865556675
 31
0.0
  0
ARC
  5
12F7
330
2
100
AcDbEntity
  8
HIDS
  6
SEKKEI_H
100
AcDbCircle
 10
1342.19906721885
 20
413.5678655566758
 30
0.0
 40
2.0
100
AcDbArc
 50
0.1666666666881579
 51
90.0
  0
ARC
  5
12F8
330
2
100
AcDbEntity
  8
HIDS
  6
SEKKEI_H
100
AcDbCircle
 10
1246.364890888702
 20
413.5678655566754
 30
0.0
 40
2.0
100
AcDbArc
 50
90.0
 51
179.8333333333118
  0
TEXT
  5
1B1C
330
2
100
AcDbEntity
  8
TITLE
100
AcDbText
 10
401.3548919300465
 20
826.6627372190065
 30
0.0
 40
10.0
  1
AFCZ32L-7.5~10M2000K13
100
AcDbText
  0
TEXT
  5
1B1D
330
2
100
AcDbEntity
  8
TITLE
100
AcDbText
 10
401.3548919300465
 20
796.5598301864377
 30
0.0
 40
10.0
  1
AFCZ32L-7.5~10L2000K13
100
AcDbText
  0
TEXT
  5
1B1E
330
2
100
AcDbEntity
  8
TITLE
100
AcDbText
 10
401.3548919300465
 20
811.8818430966687
 30
0.0
 40
10.0
  1
AFCZ32L-3~5M3000K13
100
AcDbText
  0
TEXT
  5
1B1F
330
2
100
AcDbEntity
  8
TITLE
100
AcDbText
 10
401.3548919300465
 20
781.2378151665095
 30
0.0
 40
10.0
  1
AFCZ32L-3~5L3000K13
100
AcDbText
  0
LINE
  5
1D05
330
2
100
AcDbEntity
  8
0
100
AcDbLine
 10
496.0125246486621
 20
409.2999163642463
 30
0.0
 11
496.1644484373094
 21
409.2122031239745
 31
0.0
  0
ARC
  5
1D06
330
2
100
AcDbEntity
  8
0
100
AcDbCircle
 10
495.9144484373093
 20
408.7791904220824
 30
0.0
 40
0.5
100
AcDbArc
 50
0.0
 51
59.99999999999907
  0
LINE
  5
1D07
330
2
100
AcDbEntity
  8
0
100
AcDbLine
 10
496.4144484373093
 20
361.356540691272
 30
0.0
 11
496.4144484373093
 21
408.7791904220824
 31
0.0
  0
LINE
  5
1D08
330
2
100
AcDbEntity
  8
0
100
AcDbLine
 10
497.4144484373093
 20
401.0678655566772
 30
0.0
 11
552.4144484373094
 21
401.0678655566774
 31
0.0
  0
LINE
  5
1D09
330
2
100
AcDbEntity
  8
0
100
AcDbLine
 10
497.4144484373093
 20
367.5678655566773
 30
0.0
 11
497.4144484373093
 21
402.5678655566772
 31
0.0
  0
LINE
  5
1D0A
330
2
100
AcDbEntity
  8
0
100
AcDbLine
 10
496.4144484373093
 20
403.1452158258669
 30
0.0
 11
497.4144484373093
 21
402.5678655566772
 31
0.0
  0
LINE
  5
1D0B
330
2
100
AcDbEntity
  8
0
100
AcDbLine
 10
496.4144484373093
 20
366.9905152874877
 30
0.0
 11
497.4144484373093
 21
367.5678655566773
 31
0.0
  0
LINE
  5
1D0C
330
2
100
AcDbEntity
  8
0
100
AcDbLine
 10
497.4144484373093
 20
369.067865556677
 30
0.0
 11
552.4144484373094
 21
369.0678655566772
 31
0.0
  0
LINE
  5
1D0D
330
2
100
AcDbEntity
  8
0
100
AcDbLine
 10
552.4144484373094
 20
369.0678655566772
 30
0.0
 11
552.4144484373094
 21
401.0678655566774
 31
0.0
  0
ARC
  5
1D0E
330
2
100
AcDbEntity
  8
0
100
AcDbCircle
 10
495.012524648662
 20
407.5678655566774
 30
0.0
 40
2.0
100
AcDbArc
 50
59.99999999999907
 51
78.40678637647568
  0
LINE
  5
1D0F
330
2
100
AcDbEntity
  8
0
100
AcDbLine
 10
496.0125246486622
 20
360.8358147491081
 30
0.0
 11
496.1644484373094
 21
360.9235279893798
 31
0.0
  0
ARC
  5
1D10
330
2
100
AcDbEntity
  8
0
100
AcDbCircle
 10
495.9144484373093
 20
361.356540691272
 30
0.0
 40
0.5
100
AcDbArc
 50
300.0000000000008
 51
0.0
  0
ARC
  5
1D11
330
2
100
AcDbEntity
  8
0
100
AcDbCircle
 10
495.0125246486622
 20
362.5678655566769
 30
0.0
 40
2.0
100
AcDbArc
 50
281.5932136235243
 51
300.0000000000008
  0
LINE
  5
1D12
330
2
100
AcDbEntity
  8
0
100
AcDbLine
 10
507.4144484373094
 20
380.0678655566768
 30
0.0
 11
552.4144484373094
 21
380.0678655566767
 31
0.0
  0
ARC
  5
1D13
330
2
100
AcDbEntity
  8
0
100
AcDbCircle
 10
507.4144484373094
 20
385.0678655566773
 30
0.0
 40
5.0
100
AcDbArc
 50
90.0
 51
270.0
  0
LINE
  5
1D14
330
2
100
AcDbEntity
  8
0
100
AcDbLine
 10
507.4144484373094
 20
390.0678655566773
 30
0.0
 11
552.4144484373094
 21
390.0678655566773
 31
0.0
  0
LINE
  5
1D30
330
2
100
AcDbEntity
  8
0
100
AcDbLine
 10
803.8267443678858
 20
700.9916972382695
 30
0.0
 11
803.7390311276137
 21
700.8397734496225
 31
0.0
  0
ARC
  5
1D31
330
2
100
AcDbEntity
  8
0
100
AcDbCircle
 10
803.3060184257218
 20
701.0897734496225
 30
0.0
 40
0.5
100
AcDbArc
 50
270.0
 51
330.0000000000084
  0
LINE
  5
1D32
330
2
100
AcDbEntity
  8
0
100
AcDbLine
 10
755.8833686949117
 20
700.589773449622
 30
0.0
 11
803.3060184257218
 21
700.5897734496224
 31
0.0
  0
LINE
  5
1D33
330
2
100
AcDbEntity
  8
0
100
AcDbLine
 10
795.5946935603167
 20
699.5897734496223
 30
0.0
 11
795.5946935603167
 21
644.5897734496222
 31
0.0
  0
LINE
  5
1D34
330
2
100
AcDbEntity
  8
0
100
AcDbLine
 10
763.5946935603167
 20
699.589773449622
 30
0.0
 11
763.5946935603167
 21
694.5897734496222
 31
0.0
  0
LINE
  5
1D35
330
2
100
AcDbEntity
  8
0
100
AcDbLine
 10
764.0946935603167
 20
644.5897734496222
 30
0.0
 11
795.5946935603167
 21
644.5897734496222
 31
0.0
  0
ARC
  5
1D36
330
2
100
AcDbEntity
  8
0
100
AcDbCircle
 10
802.0946935603166
 20
701.9916972382695
 30
0.0
 40
2.0
100
AcDbArc
 50
330.0000000000084
 51
348.4067863764762
  0
LINE
  5
1D37
330
2
100
AcDbEntity
  8
0
100
AcDbLine
 10
755.3626427527476
 20
700.9916972382693
 30
0.0
 11
755.4503559930192
 21
700.8397734496222
 31
0.0
  0
ARC
  5
1D38
330
2
100
AcDbEntity
  8
0
100
AcDbCircle
 10
755.8833686949117
 20
701.0897734496222
 30
0.0
 40
0.5
100
AcDbArc
 50
209.9999999999915
 51
270.0
  0
ARC
  5
1D39
330
2
100
AcDbEntity
  8
0
100
AcDbCircle
 10
757.0946935603163
 20
701.9916972382693
 30
0.0
 40
2.0
100
AcDbArc
 50
191.5932136235174
 51
209.9999999999915
  0
LINE
  5
1D3A
330
2
100
AcDbEntity
  8
0
100
AcDbLine
 10
760.5946935603603
 20
644.5897734496222
 30
0.0
 11
760.5946935603785
 21
694.5897734496222
 31
0.0
  0
LINE
  5
1D3B
330
2
100
AcDbEntity
  8
0
100
AcDbLine
 10
764.0946935603167
 20
644.5897734496222
 30
0.0
 11
760.5946935603603
 21
644.5897734496222
 31
0.0
  0
LINE
  5
1D3C
330
2
100
AcDbEntity
  8
0
100
AcDbLine
 10
763.5946935603162
 20
694.5897734496222
 30
0.0
 11
760.594693560379
 21
694.5897734496222
 31
0.0
  0
LINE
  5
1D3D
330
2
100
AcDbEntity
  8
0
100
AcDbLine
 10
764.3960094067463
 20
644.5897734496222
 30
0.0
 11
764.3960094067463
 21
689.5897734496222
 31
0.0
  0
LINE
  5
1D3E
330
2
100
AcDbEntity
  8
0
100
AcDbLine
 10
764.3960094067463
 20
689.5897734496222
 30
0.0
 11
763.5946935603167
 21
694.5897734496222
 31
0.0
  0
LINE
  5
1D3F
330
2
100
AcDbEntity
  8
0
100
AcDbLine
 10
762.0946935603167
 20
699.589773449622
 30
0.0
 11
797.0946935603167
 21
699.5897734496223
 31
0.0
  0
LINE
  5
1D40
330
2
100
AcDbEntity
  8
0
100
AcDbLine
 10
797.6720438295067
 20
700.5897734496224
 30
0.0
 11
797.0946935603167
 21
699.5897734496223
 31
0.0
  0
LINE
  5
1D41
330
2
100
AcDbEntity
  8
0
100
AcDbLine
 10
761.5173432911267
 20
700.5897734496224
 30
0.0
 11
762.0946935603167
 21
699.5897734496223
 31
0.0
  0
CIRCLE
  5
1D51
330
2
100
AcDbEntity
  8
0
100
AcDbCircle
 10
779.5946935603166
 20
385.0678655566771
 30
0.0
 40
24.5
  0
ARC
  5
1D52
330
2
100
AcDbEntity
  8
0
100
AcDbCircle
 10
779.5946935603166
 20
385.0678655566772
 30
0.0
 40
16.0
100
AcDbArc
 50
198.2099568642858
 51
161.7900431357141
  0
LINE
  5
1D53
330
2
100
AcDbEntity
  8
0
100
AcDbLine
 10
760.5946935603165
 20
380.0678655566771
 30
0.0
 11
768.5946935603161
 21
380.0678655566772
 31
0.0
  0
LINE
  5
1D54
330
2
100
AcDbEntity
  8
0
100
AcDbLine
 10
760.5946935603165
 20
390.0678655566772
 30
0.0
 11
768.5946935603165
 21
390.0678655566772
 31
0.0
  0
LINE
  5
1D55
330
2
100
AcDbEntity
  8
0
100
AcDbLine
 10
768.5946935603165
 20
390.0678655566772
 30
0.0
 11
768.5946935603161
 21
380.0678655566772
 31
0.0
  0
LINE
  5
1D56
330
2
100
AcDbEntity
  8
0
100
AcDbLine
 10
760.5946935603165
 20
390.0678655566776
 30
0.0
 11
760.5946935603161
 21
380.0678655566775
 31
0.0
  0
ARC
  5
1D57
330
2
100
AcDbEntity
  8
0
100
AcDbCircle
 10
779.5946935603166
 20
385.0678655566772
 30
0.0
 40
17.49999999999994
100
AcDbArc
 50
196.6015495990203
 51
163.3984504009797
  0
ARC
  5
1D58
330
2
100
AcDbEntity
  8
0
100
AcDbCircle
 10
779.5946935603166
 20
385.0678655566772
 30
0.0
 40
18.0773502691897
100
AcDbArc
 50
196.056743014667
 51
163.9432569853329
  0
LINE
  5
1D6C
330
2
100
AcDbEntity
  8
0
100
AcDbLine
 10
1207.683902842427
 20
360.8358147491083
 30
0.0
 11
1207.53197905378
 21
360.9235279893801
 31
0.0
  0
ARC
  5
1D6D
330
2
100
AcDbEntity
  8
0
100
AcDbCircle
 10
1207.78197905378
 20
361.3565406912722
 30
0.0
 40
0.5
100
AcDbArc
 50
180.0
 51
240.0000000000009
  0
LINE
  5
1D6E
330
2
100
AcDbEntity
  8
0
100
AcDbLine
 10
1207.28197905378
 20
408.7791904220826
 30
0.0
 11
1207.28197905378
 21
361.3565406912722
 31
0.0
  0
LINE
  5
1D6F
330
2
100
AcDbEntity
  8
0
100
AcDbLine
 10
1206.28197905378
 20
369.0678655566774
 30
0.0
 11
1151.28197905378
 21
369.067865556677
 31
0.0
  0
LINE
  5
1D70
330
2
100
AcDbEntity
  8
0
100
AcDbLine
 10
1206.28197905378
 20
402.5678655566772
 30
0.0
 11
1206.28197905378
 21
367.5678655566771
 31
0.0
  0
LINE
  5
1D71
330
2
100
AcDbEntity
  8
0
100
AcDbLine
 10
1207.28197905378
 20
403.1452158258668
 30
0.0
 11
1206.28197905378
 21
402.5678655566772
 31
0.0
  0
LINE
  5
1D72
330
2
100
AcDbEntity
  8
0
100
AcDbLine
 10
1206.28197905378
 20
401.0678655566776
 30
0.0
 11
1151.28197905378
 21
401.0678655566772
 31
0.0
  0
LINE
  5
1D73
330
2
100
AcDbEntity
  8
0
100
AcDbLine
 10
1151.28197905378
 20
401.0678655566772
 30
0.0
 11
1151.28197905378
 21
369.067865556677
 31
0.0
  0
ARC
  5
1D74
330
2
100
AcDbEntity
  8
0
100
AcDbCircle
 10
1208.683902842427
 20
362.5678655566772
 30
0.0
 40
2.0
100
AcDbArc
 50
240.0000000000009
 51
258.4067863764623
  0
LINE
  5
1D75
330
2
100
AcDbEntity
  8
0
100
AcDbLine
 10
1207.683902842427
 20
409.2999163642465
 30
0.0
 11
1207.53197905378
 21
409.2122031239749
 31
0.0
  0
ARC
  5
1D76
330
2
100
AcDbEntity
  8
0
100
AcDbCircle
 10
1207.78197905378
 20
408.7791904220826
 30
0.0
 40
0.5
100
AcDbArc
 50
120.0000000000009
 51
180.0
  0
ARC
  5
1D77
330
2
100
AcDbEntity
  8
0
100
AcDbCircle
 10
1208.683902842427
 20
407.5678655566777
 30
0.0
 40
2.0
100
AcDbArc
 50
101.593213623511
 51
120.0000000000009
  0
LINE
  5
1D78
330
2
100
AcDbEntity
  8
0
100
AcDbLine
 10
1207.28197905378
 20
366.9905152874877
 30
0.0
 11
1206.28197905378
 21
367.5678655566772
 31
0.0
  0
LINE
  5
223D
330
2
100
AcDbEntity
  8
CENTER
100
AcDbLine
 10
779.5946935603206
 20
470.0678655566771
 30
0.0
 11
779.5946935603206
 21
300.0678655566771
 31
0.0
  0
SPLINE
  5
23AF
330
2
100
AcDbEntity
  8
HOJO
100
AcDbSpline
210
0.0
220
0.0
230
1.0
 70
     8
 71
     3
 72
    20
 73
    16
 74
    14
 42
0.0000000001
 43
0.0000000001
 44
0.0000000001
 40
0.0
 40
0.0
 40
0.0
 40
0.0
 40
14.52169659069893
 40
22.36548308125194
 40
28.98533191707967
 40
39.45196448989339
 40
45.93750953072308
 40
54.40392895588402
 40
63.29804273282771
 40
66.38910388412326
 40
71.14314445625265
 40
76.52630951524606
 40
82.04530040687416
 40
92.55882127425721
 40
100.5305202090467
 40
100.5305202090467
 40
100.5305202090467
 40
100.5305202090467
 10
908.8319497327022
 20
385.0678655566773
 30
0.0
 10
910.0281382534317
 20
389.787015629201
 30
0.0
 10
911.8704391137526
 20
397.0551795414341
 30
0.0
 10
918.176235510084
 20
405.0166592800954
 30
0.0
 10
926.4469318655617
 20
407.416192948303
 30
0.0
 10
934.3608460702562
 20
407.129998444445
 30
0.0
 10
942.6978088929045
 20
405.3201900945395
 30
0.0
 10
950.6756603958535
 20
406.2808141016247
 30
0.0
 10
957.4748019558082
 20
406.6309233473197
 30
0.0
 10
963.0010062614482
 20
407.3190195282582
 30
0.0
 10
967.2986359952945
 20
408.9112458369938
 30
0.0
 10
970.5090001659991
 20
413.2993016980582
 30
0.0
 10
973.140346808872
 20
419.9065581061954
 30
0.0
 10
975.1920406057534
 20
427.7586201950469
 30
0.0
 10
978.7090731621406
 20
432.8655265752256
 30
0.0
 10
980.2257835385072
 20
435.0678655566725
 30
0.0
 11
908.8319497327022
 21
385.0678655566773
 31
0.0
 11
913.6950890710723
 21
398.7510504069932
 31
0.0
 11
918.9282934810712
 21
404.5938714818293
 31
0.0
 11
925.1809569218631
 21
406.767945653838
 31
0.0
 11
935.6473689886174
 21
406.7000055097191
 31
0.0
 11
942.066589091832
 21
405.7748526882253
 31
0.0
 11
950.5238784348509
 21
406.1679364594481
 31
0.0
 11
959.3887481891075
 21
406.8885917982117
 31
0.0
 11
962.4456006287468
 21
407.3471898829427
 31
0.0
 11
966.8270871486724
 21
409.1920415401668
 31
0.0
 11
970.2627000053466
 21
413.3363183590367
 31
0.0
 11
972.455618254035
 21
418.4009377935494
 31
0.0
 11
976.0358953311442
 21
428.2860648579844
 31
0.0
 11
980.2257835385072
 21
435.0678655566725
 31
0.0
  0
ENDSEC
  0
SECTION
  2
OBJECTS
  0
DICTIONARY
  5
7
330
0
100
AcDbDictionary
  3
ACAD_COLOR
350
832
  3
ACAD_GROUP
350
75
  3
ACAD_LAYOUT
350
61
  3
ACAD_MATERIAL
350
808
  3
ACAD_MLEADERSTYLE
350
857
  3
ACAD_MLINESTYLE
350
76
  3
ACAD_PLOTSETTINGS
350
77
  3
ACAD_PLOTSTYLENAME
350
6
  3
ACAD_SCALELIST
350
835
  3
ACAD_TABLESTYLE
350
833
  3
ACAD_VISUALSTYLE
350
821
  3
ACADDIM
350
480
  3
ACDB_RECOMPOSE_DATA
350
88E
  3
ACDBHEADERROUNDTRIPXREC
350
2405
  3
ACDBVARIABLEDICTIONARY
350
102
  3
DWGPROPS
350
23D4
  0
DICTIONARY
  5
1BAE
330
6E
100
AcDbDictionary
280
     1
  3
ACAD_XREC_ROUNDTRIP
360
23D8
  0
DICTIONARY
  5
86B
330
66
100
AcDbDictionary
280
     1
  3
ACAD_LAYERSTATES
360
86C
  0
DICTIONARY
  5
1AF7
330
5E
100
AcDbDictionary
280
     1
  3
ADSK_XREC_LAYER_RECONCILED
360
1AF8
  0
DICTIONARY
  5
1AF9
330
3E
100
AcDbDictionary
280
     1
  3
ADSK_XREC_LAYER_RECONCILED
360
1AFA
  0
DICTIONARY
  5
1AFF
330
2B5
100
AcDbDictionary
280
     1
  3
ADSK_XREC_LAYER_RECONCILED
360
1B00
  0
DICTIONARY
  5
1B01
330
2BA
100
AcDbDictionary
280
     1
  3
ADSK_XREC_LAYER_RECONCILED
360
1B02
  0
DICTIONARY
  5
1B05
330
3FA
100
AcDbDictionary
280
     1
  3
ADSK_XREC_LAYER_RECONCILED
360
1B06
  0
DICTIONARY
  5
1D16
330
2
100
AcDbDictionary
280
     1
  3
ACAD_LAYOUTSELFREF
360
2426
  3
ACAD_SORTENTS
360
1D17
  0
DICTIONARY
  5
2427
330
23FF
100
AcDbDictionary
280
     1
  3
ACAD_LAYOUTSELFREF
360
2428
  0
DICTIONARY
  5
832
102
{ACAD_REACTORS
330
7
102
}
330
7
100
AcDbDictionary
  0
DICTIONARY
  5
75
102
{ACAD_REACTORS
330
7
102
}
330
7
100
AcDbDictionary
  0
DICTIONARY
  5
61
102
{ACAD_REACTORS
330
7
102
}
330
7
100
AcDbDictionary
  0
DICTIONARY
  5
808
102
{ACAD_REACTORS
330
7
102
}
330
7
100
AcDbDictionary
  3
BYBLOCK
350
811
  3
BYLAYER
350
809
  3
GLOBAL
350
819
  0
DICTIONARY
  5
857
102
{ACAD_REACTORS
330
7
102
}
330
7
100
AcDbDictionary
  3
STANDARD
350
858
  0
DICTIONARY
  5
76
102
{ACAD_REACTORS
330
7
102
}
330
7
100
AcDbDictionary
  3
STANDARD
350
78
  0
DICTIONARY
  5
77
102
{ACAD_REACTORS
330
7
102
}
330
7
100
AcDbDictionary
  0
ACDBDICTIONARYWDFLT
  5
6
102
{ACAD_REACTORS
330
7
102
}
330
7
100
AcDbDictionary
281
     1
  3
Normal
350
5
100
AcDbDictionaryWithDefault
340
5
  0
DICTIONARY
  5
835
102
{ACAD_REACTORS
330
7
102
}
330
7
100
AcDbDictionary
  3
A0
350
836
  3
A1
350
837
  3
A2
350
838
  3
A3
350
839
  3
A4
350
83A
  3
A5
350
83B
  3
A6
350
83C
  3
A7
350
83D
  3
A8
350
83E
  3
A9
350
83F
  3
B0
350
840
  3
B1
350
841
  3
B2
350
842
  3
B3
350
843
  3
B4
350
844
  3
B5
350
845
  3
B6
350
846
  3
B7
350
847
  3
B8
350
848
  3
B9
350
849
  3
C0
350
84A
  3
C1
350
84B
  3
C2
350
84C
  3
C3
350
84D
  3
C4
350
84E
  3
C5
350
84F
  3
C6
350
850
  3
C7
350
851
  3
C8
350
852
  3
C9
350
853
  3
D0
350
854
  3
D1
350
855
  3
D2
350
856
  0
DICTIONARY
  5
833
102
{ACAD_REACTORS
330
7
102
}
330
7
100
AcDbDictionary
  3
STANDARD
350
834
  0
DICTIONARY
  5
821
102
{ACAD_REACTORS
330
7
102
}
330
7
100
AcDbDictionary
  3
2DWIREFRAME
350
827
  3
3D_HIDDEN
350
829
  3
3DWIREFRAME
350
828
  3
BASIC
350
826
  3
BRIGHTEN
350
82D
  3
COLORCHANGE
350
831
  3
CONCEPTUAL
350
82A
  3
DIM
350
82C
  3
FACEPATTERN
350
830
  3
FLAT
350
822
  3
FLATWITHEDGES
350
823
  3
GOURAUD
350
824
  3
GOURAUDWITHEDGES
350
825
  3
LINEPATTERN
350
82F
  3
REALISTIC
350
82B
  3
THICKEN
350
82E
  0
XRECORD
  5
480
102
{ACAD_REACTORS
330
7
102
}
330
7
100
AcDbXrecord
 90
   990106
  3

 60
     0
 61
     0
 62
     1
 63
     3
 64
     1
 65
     0
 66
     0
 67
     3
 68
     1
 69
     0
 70
     0
 71
     0
 72
     0
 40
0.0
170
     2
340
0
  0
XRECORD
  5
88E
102
{ACAD_REACTORS
330
7
102
}
330
7
100
AcDbXrecord
 90
        1
330
834
  0
DICTIONARY
  5
2405
102
{ACAD_REACTORS
330
7
102
}
330
7
100
AcDbDictionary
  3
CEPSNTYPE
350
240F
  3
DIMSTYLEDATA
350
2413
  3
FINGERPRINTGUID
350
2410
  3
HYPERLINKBASE
350
2408
  3
INSUNITS
350
240E
  3
LAYOUTDICT
350
240A
  3
LWETCUNION
350
240D
  3
PLOTSETDICT
350
240B
  3
PLOTSTYLNAMDICT
350
240C
  3
PSVPSCALE
350
2412
  3
PUCSBASE
350
2416
  3
PUCSORGBACK
350
241C
  3
PUCSORGBOTTOM
350
2418
  3
PUCSORGFRONT
350
241B
  3
PUCSORGLEFT
350
2419
  3
PUCSORGRIGHT
350
241A
  3
PUCSORGTOP
350
2417
  3
PUCSORTHOREF
350
2414
  3
PUCSORTHOVIEW
350
2415
  3
STYLESHEET
350
2409
  3
TSTACKALIGN
350
2406
  3
TSTACKSIZE
350
2407
  3
UCSBASE
350
241F
  3
UCSORGBACK
350
2425
  3
UCSORGBOTTOM
350
2421
  3
UCSORGFRONT
350
2424
  3
UCSORGLEFT
350
2422
  3
UCSORGRIGHT
350
2423
  3
UCSORGTOP
350
2420
  3
UCSORTHOREF
350
241D
  3
UCSORTHOVIEW
350
241E
  3
VERSIONGUID
350
2411
  0
DICTIONARY
  5
102
102
{ACAD_REACTORS
330
7
102
}
330
7
100
AcDbDictionary
  3
CANNOSCALE
350
892
  3
CMLEADERSTYLE
350
890
  3
CTABLESTYLE
350
88F
  3
DIMASSOC
350
103
  3
INDEXCTL
350
1BBB
  3
LIGHTINGUNITS
350
893
  3
MSLTSCALE
350
891
  3
SORTENTS
350
549
  0
XRECORD
  5
23D4
102
{ACAD_REACTORS
330
7
102
}
330
7
100
AcDbXrecord
  1
DWGPROPS COOKIE
  2

  3

  4

  6

  7

  8
knsuzuki
  9

300
=
301
=
302
=
303
=
304
=
305
=
306
=
307
=
308
=
309
=
 40
0.1140820601851852
 41
2454889.454828194
 42
2454904.455452835
  1

 90
        0
  0
XRECORD
  5
23D8
102
{ACAD_REACTORS
330
1BAE
102
}
330
1BAE
100
AcDbXrecord
102
VTR_0.000_0.000_1.000_1.000_VISUALSTYLE
340
827
102
VTR_0.000_0.000_1.000_1.000_GRIDDISPLAY
 70
     3
102
VTR_0.000_0.000_1.000_1.000_GRIDMAJOR
 70
     5
102
VTR_0.000_0.000_1.000_1.000_DEFAULTLIGHTING
280
     1
102
VTR_0.000_0.000_1.000_1.000_DEFAULTLIGHTINGTYPE
 70
     1
102
VTR_0.000_0.000_1.000_1.000_BRIGHTNESS
141
0.0
102
VTR_0.000_0.000_1.000_1.000_CONTRAST
142
0.0
  0
DICTIONARY
  5
86C
102
{ACAD_REACTORS
330
86B
102
}
330
86B
100
AcDbDictionary
  0
XRECORD
  5
1AF8
102
{ACAD_REACTORS
330
1AF7
102
}
330
1AF7
100
AcDbXrecord
290
     1
  0
XRECORD
  5
1AFA
102
{ACAD_REACTORS
330
1AF9
102
}
330
1AF9
100
AcDbXrecord
290
     1
  0
XRECORD
  5
1B00
102
{ACAD_REACTORS
330
1AFF
102
}
330
1AFF
100
AcDbXrecord
290
     1
  0
XRECORD
  5
1B02
102
{ACAD_REACTORS
330
1B01
102
}
330
1B01
100
AcDbXrecord
290
     1
  0
XRECORD
  5
1B06
102
{ACAD_REACTORS
330
1B05
102
}
330
1B05
100
AcDbXrecord
290
     1
  0
XRECORD
  5
2426
102
{ACAD_REACTORS
330
1D16
102
}
330
1D16
100
AcDbXrecord
340
2
  0
SORTENTSTABLE
  5
1D17
102
{ACAD_REACTORS
330
1D16
102
}
330
1D16
100
AcDbSortentsTable
330
2
331
17DA
  5
1841
331
147A
  5
14EF
331
12F0
  5
12F4
331
12D1
  5
12D5
331
12B2
  5
12B6
331
125D
  5
1261
331
123E
  5
1242
331
127C
  5
1280
331
129B
  5
129F
331
11D9
  5
11DD
331
1165
  5
1168
331
1184
  5
1187
331
11BA
  5
11BD
331
1208
  5
120F
331
1227
  5
122B
331
12F1
  5
12F5
331
12D2
  5
12D6
331
12B3
  5
12B7
331
127D
  5
1281
331
1209
  5
1210
331
11BB
  5
11BE
331
1185
  5
1188
331
1147
  5
114A
331
1166
  5
1169
331
11DA
  5
11DE
331
123F
  5
1243
331
125E
  5
1262
331
129C
  5
12A0
331
16BE
  5
1789
331
12F2
  5
12F6
331
12D3
  5
12D7
331
12B4
  5
12B8
331
11DB
  5
11DF
331
1167
  5
116A
331
1186
  5
1189
331
11BC
  5
11BF
331
1240
  5
1244
331
125F
  5
1263
331
127E
  5
1282
331
129D
  5
12A1
331
144E
  5
14BA
331
12F3
  5
12F7
331
12D4
  5
12D8
331
12B5
  5
12B9
331
1241
  5
1245
331
11DC
  5
11E0
331
11BD
  5
11C0
331
1187
  5
118A
331
1260
  5
1264
331
127F
  5
1283
331
129E
  5
12A2
331
13C2
  5
1434
331
12F4
  5
12F8
331
12D5
  5
12D9
331
12B6
  5
12BA
331
1261
  5
1265
331
120C
  5
1211
331
11DD
  5
11E1
331
11BE
  5
11C1
331
1242
  5
1246
331
1280
  5
1284
331
129F
  5
12A3
331
12F5
  5
1316
331
12D6
  5
12DB
331
1281
  5
1285
331
1243
  5
1247
331
120D
  5
1212
331
11BF
  5
11C2
331
11DE
  5
11E2
331
1262
  5
1266
331
12B7
  5
12BB
331
1789
  5
1799
331
17F0
  5
18A2
331
12F6
  5
1378
331
12B8
  5
12BC
331
1263
  5
1267
331
11DF
  5
11E3
331
1244
  5
1248
331
1282
  5
1286
331
12D7
  5
12DC
331
178A
  5
17F0
331
12F7
  5
1392
331
12D8
  5
12DD
331
12B9
  5
12BD
331
1283
  5
1287
331
1245
  5
1249
331
120F
  5
1213
331
1264
  5
1268
331
15F7
  5
16B3
331
12F8
  5
13C2
331
12D9
  5
12DE
331
12BA
  5
12BE
331
1265
  5
1269
331
1246
  5
124A
331
1284
  5
1288
331
13F6
  5
1464
331
14BA
  5
1514
331
12BB
  5
12BF
331
1285
  5
1289
331
1247
  5
124B
331
1266
  5
126A
331
12DB
  5
12DF
331
12BC
  5
12C0
331
1267
  5
126B
331
1286
  5
128A
331
150B
  5
159A
331
12DC
  5
12E0
331
12BD
  5
12C1
331
1287
  5
128B
331
150C
  5
15F7
331
1B1C
  5
1D05
331
12DD
  5
12E1
331
12BE
  5
12C2
331
16F9
  5
178A
331
1682
  5
16F9
331
1B1D
  5
1D06
331
12DE
  5
12E2
331
12BF
  5
12C3
331
1B1E
  5
1D07
331
12DF
  5
12E3
331
1B1F
  5
1D08
331
181C
  5
1B1E
331
C90
  5
C91
331
C91
  5
C92
331
CB0
  5
CB1
331
1D30
  5
1D34
331
CD0
  5
CD1
331
1D58
  5
1D6F
331
CB1
  5
CB2
331
C92
  5
C93
331
1D31
  5
1D35
331
CD1
  5
CD2
331
CB2
  5
CB3
331
C93
  5
C94
331
1D32
  5
1D37
331
CF9
  5
CFB
331
CD2
  5
CD3
331
D18
  5
D19
331
CB3
  5
CB4
331
C94
  5
C95
331
1D33
  5
1D38
331
1E58
  5
1E8A
331
D19
  5
D1A
331
CD3
  5
CD4
331
D38
  5
D39
331
CB4
  5
CB5
331
C95
  5
C96
331
1D34
  5
1D39
331
D1A
  5
D1B
331
D39
  5
D3A
331
D58
  5
D5A
331
CFB
  5
CFD
331
CD4
  5
CD5
331
1DCB
  5
1DF3
331
C96
  5
C97
331
CB5
  5
CB6
331
1D35
  5
1D3A
331
D78
  5
D7A
331
D1B
  5
D1C
331
CD5
  5
CD6
331
D3A
  5
D3B
331
D59
  5
D5B
331
CB6
  5
CB7
331
C97
  5
C98
331
1D36
  5
1D3B
331
1F71
  5
1F87
331
D90
  5
D92
331
CFD
  5
CFE
331
CD6
  5
CD7
331
D1C
  5
D1D
331
D3B
  5
D3C
331
D5A
  5
D5C
331
D79
  5
D7B
331
C98
  5
C99
331
CB7
  5
CB8
331
1D37
  5
1D3C
331
DB0
  5
DB2
331
D91
  5
D93
331
D1D
  5
D1E
331
CFE
  5
CFF
331
CD7
  5
CD8
331
D3C
  5
D3D
331
D5B
  5
D5D
331
D7A
  5
D7C
331
CB8
  5
CB9
331
C99
  5
C9A
331
1D38
  5
1D3D
331
DD0
  5
DD2
331
DB1
  5
DB3
331
CFF
  5
D0A
331
CD8
  5
CD9
331
D1E
  5
D1F
331
D3D
  5
D3E
331
D5C
  5
D5E
331
D7B
  5
D81
331
D92
  5
D94
331
C9A
  5
C9B
331
CB9
  5
CBA
331
1D39
  5
1D3E
331
DF0
  5
DF3
331
DB2
  5
DB4
331
D93
  5
D95
331
D1F
  5
D20
331
CD9
  5
CDA
331
D3E
  5
D3F
331
D5D
  5
D5F
331
D7C
  5
D82
331
DD1
  5
DD3
331
CBA
  5
CBB
331
C9B
  5
C9C
331
1D3A
  5
1D3F
331
E08
  5
E0B
331
DD2
  5
DD4
331
DB3
  5
DB5
331
D94
  5
D96
331
DF1
  5
DF4
331
D20
  5
D21
331
CDA
  5
CDB
331
D3F
  5
D40
331
D5E
  5
D60
331
1FC5
  5
1FEA
331
C9C
  5
C9D
331
CBB
  5
CBC
331
1D3B
  5
1D40
331
C38
  5
C39
331
E28
  5
E2B
331
DF2
  5
DF5
331
DD3
  5
DD5
331
D21
  5
D22
331
CDB
  5
CDC
331
D0A
  5
D0B
331
D40
  5
D41
331
D5F
  5
D61
331
D95
  5
D97
331
DB4
  5
DB6
331
E09
  5
E0C
331
CBC
  5
CBD
331
1D3C
  5
1D41
331
C9D
  5
C9E
331
1D05
  5
1D09
331
C58
  5
C59
331
C39
  5
C3A
331
E48
  5
E4B
331
E0A
  5
E0D
331
DD4
  5
DD6
331
DB5
  5
DB7
331
D41
  5
D42
331
D60
  5
D62
331
D96
  5
D98
331
DF3
  5
DF6
331
E29
  5
E2C
331
D22
  5
D23
331
1E8A
  5
1EA0
331
D0B
  5
D0C
331
CDC
  5
CDE
331
CBD
  5
CBE
331
1D3D
  5
1D42
331
C9E
  5
C9F
331
1D06
  5
1D0A
331
1D6C
  5
1D70
331
1DF3
  5
1E30
331
C78
  5
C79
331
C3A
  5
C3B
331
C59
  5
C5A
331
E68
  5
E6B
331
E49
  5
E4C
331
E2A
  5
E2D
331
DF4
  5
DF7
331
DD5
  5
DD7
331
D97
  5
D99
331
D23
  5
D24
331
D0C
  5
D0D
331
D42
  5
D43
331
D61
  5
D63
331
DB6
  5
DB8
331
E0B
  5
E0E
331
CBE
  5
CBF
331
1D3E
  5
1D51
331
C9F
  5
CA0
331
1D07
  5
1D0B
331
1D6D
  5
1D71
331
C79
  5
C7A
331
C3B
  5
C3C
331
C5A
  5
C5B
331
E80
  5
E83
331
E69
  5
E6C
331
E4A
  5
E4D
331
E0C
  5
E0F
331
DF5
  5
DF8
331
DB7
  5
DB9
331
D98
  5
D9A
331
D24
  5
D25
331
D0D
  5
D0E
331
D43
  5
D44
331
D62
  5
D64
331
D81
  5
D83
331
DD6
  5
DD8
331
E2B
  5
E2E
331
CDE
  5
CEA
331
CBF
  5
CC0
331
1D3F
  5
1D52
331
CA0
  5
CA1
331
1D08
  5
1D0C
331
1D6E
  5
1D72
331
C7A
  5
C7B
331
C3C
  5
C3D
331
C5B
  5
C5C
331
1148
  5
114B
331
E81
  5
E84
331
E6A
  5
E6D
331
E4B
  5
E4E
331
E2C
  5
E2F
331
DF6
  5
DF9
331
DD7
  5
DD9
331
D99
  5
D9B
331
D25
  5
D26
331
D0E
  5
D0F
331
D44
  5
D45
331
D63
  5
D65
331
D82
  5
D84
331
DB8
  5
DBA
331
E0D
  5
E10
331
1D6F
  5
1D73
331
CC0
  5
CC1
331
1D40
  5
1D53
331
CA1
  5
CA2
331
1D09
  5
1D0D
331
C7B
  5
C7C
331
C3D
  5
C3E
331
C5C
  5
C5D
331
1168
  5
116B
331
E82
  5
E85
331
1149
  5
114C
331
E6B
  5
E6E
331
E4C
  5
E4F
331
E0E
  5
E11
331
DF7
  5
DFA
331
DB9
  5
DBB
331
D83
  5
D85
331
D0F
  5
D10
331
D26
  5
D27
331
D45
  5
D46
331
D64
  5
D66
331
D9A
  5
D9C
331
DD8
  5
DDA
331
E2D
  5
E30
331
CC1
  5
CC2
331
1D41
  5
1D54
331
CA2
  5
CA3
331
1D0A
  5
1D0F
331
1D70
  5
1D75
331
C7C
  5
C7D
331
C5D
  5
C5E
331
C3E
  5
C3F
331
1169
  5
116C
331
114A
  5
114D
331
E83
  5
E86
331
1188
  5
118B
331
E6C
  5
E6F
331
E4D
  5
E50
331
E2E
  5
E31
331
DF8
  5
DFB
331
DD9
  5
DDB
331
D84
  5
D86
331
D27
  5
D28
331
D46
  5
D47
331
D65
  5
D67
331
D9B
  5
D9D
331
DBA
  5
DBC
331
E0F
  5
E12
331
CC2
  5
CC3
331
CA3
  5
CA4
331
1D0B
  5
1D10
331
1D71
  5
1D76
331
D10
  5
D11
331
1E30
  5
1E58
331
C7D
  5
C7E
331
C3F
  5
C40
331
C5E
  5
C5F
331
1189
  5
118C
331
116A
  5
116D
331
E84
  5
E87
331
114B
  5
114E
331
11A0
  5
11A4
331
E6D
  5
E70
331
E4E
  5
E51
331
DF9
  5
DFC
331
DDA
  5
DDC
331
DBB
  5
DBD
331
D85
  5
D87
331
D66
  5
D68
331
D9C
  5
D9E
331
E10
  5
E13
331
E2F
  5
E32
331
D47
  5
D48
331
1EFF
  5
1F5B
331
D28
  5
D29
331
1EA0
  5
1EB6
331
CEA
  5
CEB
331
CC3
  5
CC4
331
CA4
  5
CA5
331
1D0C
  5
1D11
331
1D72
  5
1D77
331
D11
  5
D12
331
C7E
  5
C7F
331
C5F
  5
C60
331
C40
  5
C41
331
11A1
  5
11A6
331
118A
  5
118D
331
114C
  5
114F
331
E85
  5
E88
331
116B
  5
116E
331
11C0
  5
11C3
331
E6E
  5
E71
331
E4F
  5
E52
331
E30
  5
E33
331
DFA
  5
DFD
331
DDB
  5
DDD
331
D86
  5
D88
331
D9D
  5
D9F
331
DBC
  5
DBE
331
E11
  5
E14
331
D67
  5
D69
331
D29
  5
D2A
331
D48
  5
D49
331
1F87
  5
1FC5
331
CC4
  5
CC5
331
CEB
  5
CEC
331
CA5
  5
CA6
331
1D0D
  5
1D12
331
1D73
  5
1D78
331
D12
  5
D13
331
C7F
  5
C80
331
C41
  5
C42
331
C60
  5
C61
331
11C1
  5
11C4
331
118B
  5
118E
331
116C
  5
116F
331
E6F
  5
E72
331
E50
  5
E53
331
E31
  5
E34
331
DFB
  5
DFE
331
DDC
  5
DDE
331
DBD
  5
DBF
331
D87
  5
D89
331
D2A
  5
D2B
331
D49
  5
D4A
331
D68
  5
D6A
331
D9E
  5
DA0
331
E12
  5
E15
331
CEC
  5
CED
331
CC5
  5
CC6
331
CA6
  5
CA7
331
1D0E
  5
1D13
331
1D74
  5
1D79
331
D13
  5
D14
331
E86
  5
E89
331
114D
  5
1150
331
11A2
  5
11A7
331
11E0
  5
11E4
331
C80
  5
C81
331
C61
  5
C62
331
C42
  5
C43
331
C23
  5
C23
331
1210
  5
1214
331
11E1
  5
11E5
331
118C
  5
118F
331
114E
  5
1151
331
E70
  5
E73
331
E51
  5
E54
331
E32
  5
E35
331
DFC
  5
DFF
331
DDD
  5
DDF
331
D9F
  5
DA1
331
DBE
  5
DC0
331
E13
  5
E16
331
D2B
  5
D2C
331
D4A
  5
D4B
331
D69
  5
D6B
331
D88
  5
D8A
331
CED
  5
CEE
331
CC6
  5
CC7
331
CA7
  5
CA8
331
1D0F
  5
1D14
331
1D75
  5
1D7A
331
D14
  5
D15
331
E87
  5
E8A
331
116D
  5
1170
331
11C2
  5
11C5
331
C81
  5
C82
331
C62
  5
C63
331
C43
  5
C44
331
C24
  5
C25
331
1228
  5
122C
331
11E2
  5
11E6
331
11C3
  5
11C6
331
11A4
  5
11A8
331
116E
  5
1171
331
E71
  5
E74
331
E52
  5
E55
331
E33
  5
E36
331
DFD
  5
E00
331
DDE
  5
DE0
331
DBF
  5
DC1
331
DA0
  5
DA2
331
E14
  5
E17
331
D2C
  5
D2D
331
D4B
  5
D4C
331
D6A
  5
D6C
331
CEE
  5
CEF
331
CC7
  5
CC8
331
1D76
  5
1D7C
331
D15
  5
D16
331
D89
  5
D8B
331
CA8
  5
CA9
331
1D10
  5
1D15
331
E88
  5
E8B
331
114F
  5
1152
331
118D
  5
1190
331
1211
  5
1215
331
C82
  5
C83
331
C63
  5
C64
331
C25
  5
C26
331
C44
  5
C45
331
1248
  5
124C
331
1212
  5
1216
331
11E3
  5
11E7
331
118E
  5
1191
331
1150
  5
1153
331
E72
  5
E75
331
E53
  5
E56
331
E34
  5
E37
331
DFE
  5
E01
331
DDF
  5
DE1
331
DC0
  5
DC2
331
DA1
  5
DA3
331
E15
  5
E18
331
D2D
  5
D2E
331
D4C
  5
D4D
331
D6B
  5
D6D
331
D8A
  5
D8C
331
CEF
  5
CF0
331
1D77
  5
1D7D
331
D16
  5
D17
331
1FEA
  5
2236
331
CC8
  5
CC9
331
CA9
  5
CAA
331
1D11
  5
1D30
331
E89
  5
E8C
331
116F
  5
1173
331
11C4
  5
11C7
331
1229
  5
122D
331
C83
  5
C84
331
C64
  5
C65
331
C45
  5
C46
331
C26
  5
C27
331
1268
  5
126C
331
122A
  5
122E
331
11E4
  5
11E8
331
11C5
  5
11C8
331
11A6
  5
11A9
331
1170
  5
1174
331
E73
  5
E76
331
E54
  5
E57
331
E35
  5
E38
331
DE0
  5
DE2
331
DC1
  5
DC3
331
DA2
  5
DA4
331
DFF
  5
E02
331
E16
  5
E19
331
D2E
  5
D2F
331
D4D
  5
D4F
331
D6C
  5
D6E
331
D17
  5
D18
331
D8B
  5
D8D
331
CF0
  5
CF1
331
CC9
  5
CCA
331
1D51
  5
1D55
331
CAA
  5
CAB
331
1D12
  5
1D31
331
1D78
  5
1DCB
331
E8A
  5
E8D
331
1151
  5
1154
331
118F
  5
1192
331
1213
  5
1217
331
1249
  5
124D
331
C65
  5
C66
331
C27
  5
C28
331
C46
  5
C47
331
C84
  5
C85
331
1269
  5
126D
331
124A
  5
124E
331
1214
  5
1218
331
11E5
  5
11E9
331
11C6
  5
11C9
331
1190
  5
1193
331
1171
  5
1175
331
1152
  5
1155
331
E74
  5
E77
331
E55
  5
E58
331
E36
  5
E39
331
E17
  5
E1A
331
DE1
  5
DE3
331
DC2
  5
DC4
331
DA3
  5
DA5
331
E00
  5
E03
331
D2F
  5
D30
331
D4E
  5
D50
331
D6D
  5
D6F
331
D8C
  5
D8E
331
CF1
  5
CF3
331
CCA
  5
CCB
331
1D52
  5
1D56
331
CAB
  5
CAC
331
1D13
  5
1D32
331
E8B
  5
E8E
331
11A7
  5
11AA
331
122B
  5
122F
331
1288
  5
128C
331
C66
  5
C67
331
C47
  5
C48
331
C28
  5
C29
331
C85
  5
C86
331
12A0
  5
12A4
331
126A
  5
126E
331
122C
  5
1230
331
11E6
  5
11EA
331
11C7
  5
11CA
331
1191
  5
1194
331
E75
  5
E78
331
E56
  5
E59
331
E18
  5
E1B
331
E37
  5
E3A
331
DC3
  5
DC5
331
DA4
  5
DA6
331
DE2
  5
DE4
331
D4F
  5
D51
331
D6E
  5
D70
331
D8D
  5
D8F
331
E01
  5
E04
331
D30
  5
D31
331
CCB
  5
CCC
331
1D53
  5
1D57
331
CAC
  5
CAD
331
1D14
  5
1D33
331
E8C
  5
E8F
331
1153
  5
1156
331
11A8
  5
11AB
331
1215
  5
1219
331
124B
  5
124F
331
1289
  5
128D
331
C67
  5
C68
331
C48
  5
C49
331
C29
  5
C2A
331
C86
  5
C87
331
12C0
  5
12C4
331
12A1
  5
12A5
331
128A
  5
128E
331
124C
  5
1250
331
1216
  5
121A
331
11E7
  5
11EB
331
11C8
  5
11CB
331
1192
  5
1195
331
1173
  5
1176
331
E76
  5
E79
331
E38
  5
E3B
331
E19
  5
E1C
331
E57
  5
E5A
331
DE3
  5
DE5
331
DC4
  5
DC6
331
DA5
  5
DA7
331
E02
  5
E05
331
D6F
  5
D71
331
D8E
  5
D90
331
CF3
  5
CF5
331
D31
  5
D32
331
D50
  5
D52
331
CAD
  5
CAE
331
CCC
  5
CCD
331
1D54
  5
1D58
331
E8D
  5
E90
331
1154
  5
1157
331
11A9
  5
11AC
331
122D
  5
1231
331
126B
  5
126F
331
C68
  5
C69
331
C2A
  5
C2B
331
C49
  5
C4A
331
C87
  5
C88
331
12E0
  5
12E4
331
12C1
  5
12C5
331
12A2
  5
12A6
331
126C
  5
1270
331
122E
  5
1232
331
11E8
  5
11EC
331
11C9
  5
11CC
331
1193
  5
1196
331
1174
  5
1177
331
E58
  5
E5B
331
E39
  5
E3C
331
E1A
  5
E1D
331
E77
  5
E7A
331
DE4
  5
DE7
331
DA6
  5
DA8
331
DC5
  5
DC7
331
D8F
  5
D91
331
E03
  5
E06
331
D32
  5
D33
331
D51
  5
D53
331
D70
  5
D72
331
CCD
  5
CCE
331
CAE
  5
CAF
331
1D55
  5
1D6C
331
E8E
  5
E91
331
1155
  5
1158
331
11AA
  5
11AD
331
1217
  5
121B
331
124D
  5
1251
331
128B
  5
128F
331
C88
  5
C89
331
C69
  5
C6A
331
C2B
  5
C2C
331
C4A
  5
C4B
331
13CE
  5
144E
331
12E1
  5
12E5
331
12C2
  5
12C6
331
12A3
  5
12A7
331
128C
  5
1290
331
124E
  5
1252
331
1218
  5
121C
331
11E9
  5
11ED
331
11CA
  5
11CD
331
1194
  5
1197
331
1175
  5
1178
331
E59
  5
E5C
331
E3A
  5
E3D
331
E1B
  5
E1E
331
E78
  5
E7B
331
DE5
  5
DE8
331
DC6
  5
DC8
331
DA7
  5
DA9
331
E04
  5
E07
331
CF5
  5
CF7
331
D33
  5
D34
331
D52
  5
D54
331
D71
  5
D73
331
CAF
  5
CB0
331
CCE
  5
CCF
331
1D56
  5
1D6D
331
E8F
  5
E92
331
1156
  5
1159
331
11AB
  5
11AE
331
122F
  5
1233
331
126D
  5
1271
331
C89
  5
C8A
331
C6A
  5
C6B
331
C2C
  5
C2D
331
C4B
  5
C4C
331
1378
  5
13F6
331
12E2
  5
12E6
331
12C3
  5
12C7
331
12A4
  5
12A8
331
126E
  5
1272
331
1219
  5
121D
331
11CB
  5
11CE
331
1195
  5
1198
331
E5A
  5
E5D
331
E3B
  5
E3E
331
E1C
  5
E1F
331
E79
  5
E7C
331
DE6
  5
DE9
331
DC7
  5
DC9
331
E05
  5
E08
331
DA8
  5
DAA
331
D72
  5
D74
331
D34
  5
D35
331
D53
  5
D55
331
1F5B
  5
1F71
331
CCF
  5
CD0
331
1D57
  5
1D6E
331
E90
  5
1147
331
1157
  5
115A
331
1176
  5
1179
331
11AC
  5
11AF
331
11EA
  5
11EE
331
1230
  5
1234
331
124F
  5
1253
331
128D
  5
1291
331
C8A
  5
C8B
331
C6B
  5
C6C
331
C4C
  5
C4D
331
C2D
  5
C2E
331
12E3
  5
12E7
331
12C4
  5
12C8
331
12A5
  5
12A9
331
128E
  5
1292
331
1250
  5
1254
331
121A
  5
121E
331
11EB
  5
11EF
331
11CC
  5
11D0
331
1196
  5
1199
331
1158
  5
115B
331
E5B
  5
E5E
331
E3C
  5
E3F
331
E1D
  5
E20
331
E7A
  5
E7D
331
DE7
  5
DEA
331
E06
  5
E09
331
DC8
  5
DCA
331
CF7
  5
CF9
331
D35
  5
D36
331
D54
  5
D56
331
D73
  5
D75
331
DA9
  5
DAB
331
E91
  5
1148
331
1177
  5
117A
331
11AD
  5
11B0
331
1231
  5
1235
331
126F
  5
1273
331
C8B
  5
C8C
331
C6C
  5
C6D
331
C2E
  5
C2F
331
C4D
  5
C4E
331
12E4
  5
12E8
331
12C5
  5
12C9
331
12A6
  5
12AA
331
1270
  5
1274
331
121B
  5
121F
331
11EC
  5
11F0
331
1178
  5
117B
331
1159
  5
115C
331
E5C
  5
E5F
331
E3D
  5
E40
331
E1E
  5
E21
331
E7B
  5
E7E
331
E07
  5
E0A
331
DE8
  5
DEB
331
DAA
  5
DAC
331
D55
  5
D57
331
D74
  5
D76
331
DC9
  5
DCB
331
D36
  5
D37
331
1EB6
  5
1EFF
331
E92
  5
1149
331
1197
  5
119A
331
11AE
  5
11B1
331
11CD
  5
11D1
331
1232
  5
1236
331
1251
  5
1255
331
128F
  5
1293
331
C8C
  5
C8D
331
C6D
  5
C6E
331
C4E
  5
C4F
331
C2F
  5
C30
331
1514
  5
163D
331
12E5
  5
12E9
331
12C6
  5
12CA
331
1290
  5
1294
331
1271
  5
1275
331
1252
  5
1256
331
121C
  5
1220
331
11ED
  5
11F1
331
11CE
  5
11D2
331
1198
  5
119B
331
1179
  5
117C
331
E5D
  5
E60
331
E3E
  5
E41
331
E1F
  5
E22
331
223D
  5
223D
331
E7C
  5
E7F
331
DCA
  5
DCC
331
D37
  5
D38
331
D56
  5
D58
331
D75
  5
D77
331
DAB
  5
DAD
331
DE9
  5
DEC
331
115A
  5
115D
331
11AF
  5
11B2
331
1233
  5
1237
331
12A7
  5
12AB
331
C8D
  5
C8E
331
C6E
  5
C6F
331
C30
  5
C31
331
C4F
  5
C50
331
1515
  5
1663
331
12E6
  5
12EA
331
1291
  5
1295
331
1272
  5
1276
331
121D
  5
1221
331
11EE
  5
1208
331
1199
  5
119C
331
11B0
  5
11B3
331
117A
  5
117D
331
E5E
  5
E61
331
E3F
  5
E42
331
E7D
  5
E80
331
E20
  5
E23
331
DEA
  5
DED
331
DAC
  5
DAE
331
D57
  5
D59
331
D76
  5
D78
331
DCB
  5
DCD
331
115B
  5
115E
331
11CF
  5
11D3
331
1234
  5
1238
331
1253
  5
1257
331
12C7
  5
12CB
331
C8E
  5
C8F
331
C50
  5
C51
331
C31
  5
C32
331
C6F
  5
C70
331
1490
  5
150B
331
16B3
  5
170F
331
1316
  5
13CE
331
12E7
  5
12EB
331
12C8
  5
12CC
331
1292
  5
1296
331
1273
  5
1277
331
121E
  5
1222
331
11D0
  5
11D4
331
119A
  5
119D
331
11B1
  5
11B4
331
117B
  5
117E
331
E5F
  5
E62
331
E7E
  5
E81
331
E40
  5
E43
331
E21
  5
E24
331
DCC
  5
DCE
331
D77
  5
D79
331
DAD
  5
DAF
331
DEB
  5
DEE
331
115C
  5
115F
331
11EF
  5
1209
331
1235
  5
1239
331
1254
  5
1258
331
12A9
  5
12AD
331
C70
  5
C71
331
C32
  5
C33
331
C51
  5
C52
331
C8F
  5
C90
331
16B4
  5
1767
331
12E8
  5
12EC
331
12C9
  5
12CD
331
1293
  5
1297
331
1274
  5
1278
331
11F0
  5
120C
331
11D1
  5
11D5
331
119B
  5
119E
331
11B2
  5
11B5
331
E7F
  5
E82
331
E60
  5
E63
331
E41
  5
E44
331
E22
  5
E25
331
DEC
  5
DEF
331
DAE
  5
DB0
331
DCD
  5
DCF
331
115D
  5
1160
331
117C
  5
117F
331
121F
  5
1223
331
1236
  5
123A
331
1255
  5
1259
331
12AA
  5
12AE
331
C71
  5
C72
331
C52
  5
C53
331
C33
  5
C34
331
1415
  5
1490
331
179B
  5
181C
331
12E9
  5
12ED
331
12CA
  5
12CE
331
1294
  5
1298
331
1275
  5
1279
331
1256
  5
125A
331
1220
  5
1224
331
11F1
  5
120D
331
11D2
  5
11D6
331
119C
  5
119F
331
117D
  5
1180
331
E61
  5
E64
331
E42
  5
E45
331
DCE
  5
DD0
331
DAF
  5
DB1
331
DED
  5
DF0
331
E23
  5
E26
331
115E
  5
1161
331
11B3
  5
11B6
331
1237
  5
123C
331
12AB
  5
12AF
331
C72
  5
C73
331
C34
  5
C35
331
C53
  5
C54
331
1464
  5
14D0
331
1AE3
  5
1B1F
331
12EA
  5
12EE
331
12CB
  5
12CF
331
1295
  5
1299
331
1276
  5
127A
331
1221
  5
1225
331
1238
  5
123D
331
119D
  5
11A0
331
11B4
  5
11B7
331
E62
  5
E65
331
E43
  5
E46
331
E24
  5
E27
331
DEE
  5
DF1
331
DCF
  5
DD1
331
115F
  5
1162
331
117E
  5
1181
331
11D3
  5
11D7
331
1257
  5
125B
331
12AC
  5
12B0
331
C73
  5
C74
331
C54
  5
C55
331
C35
  5
C36
331
159A
  5
1682
331
12EB
  5
12EF
331
12CC
  5
12D0
331
1296
  5
129A
331
1258
  5
125C
331
1222
  5
1226
331
1239
  5
123E
331
11D4
  5
11D8
331
119E
  5
11A1
331
11B5
  5
11B8
331
1160
  5
1163
331
E63
  5
E66
331
E44
  5
E47
331
DEF
  5
DF2
331
E25
  5
E28
331
117F
  5
1182
331
1277
  5
127B
331
12AD
  5
12B1
331
C74
  5
C75
331
C55
  5
C56
331
1392
  5
1415
331
1767
  5
1792
331
12EC
  5
12F0
331
12CD
  5
12D1
331
1278
  5
127C
331
1259
  5
125D
331
1223
  5
1227
331
119F
  5
11A2
331
1161
  5
1164
331
1180
  5
1183
331
E64
  5
E67
331
E45
  5
E48
331
E26
  5
E29
331
11B6
  5
11B9
331
11D5
  5
11D9
331
123A
  5
123F
331
1297
  5
129B
331
12AE
  5
12B2
331
C75
  5
C76
331
C56
  5
C57
331
C37
  5
C38
331
12ED
  5
12F1
331
12CE
  5
12D2
331
1298
  5
129C
331
1279
  5
127D
331
1224
  5
1228
331
1181
  5
1184
331
E65
  5
E68
331
E46
  5
E49
331
E27
  5
E2A
331
11B7
  5
11BA
331
11D6
  5
11DA
331
125A
  5
125E
331
12AF
  5
12B3
331
C76
  5
C77
331
C57
  5
C58
331
1663
  5
16BE
331
12EE
  5
12F2
331
1299
  5
129D
331
12B0
  5
12B4
331
125B
  5
125F
331
1225
  5
1229
331
11B8
  5
11BB
331
1163
  5
1166
331
1182
  5
1185
331
E66
  5
E69
331
E47
  5
E4A
331
11D7
  5
11DB
331
123C
  5
1240
331
127A
  5
127E
331
12CF
  5
12D3
331
C77
  5
C78
331
14EF
  5
1515
331
163D
  5
16B4
331
12D0
  5
12D4
331
12B1
  5
12B5
331
12EF
  5
12F3
331
127B
  5
127F
331
123D
  5
1241
331
125C
  5
1260
331
129A
  5
129E
331
11D8
  5
11DC
331
11B9
  5
11BC
331
1183
  5
1186
331
1164
  5
1167
331
E67
  5
E6A
331
1226
  5
122A
  0
XRECORD
  5
2428
102
{ACAD_REACTORS
330
2427
102
}
330
2427
100
AcDbXrecord
340
23FF
  0
ACAD_PROXY_OBJECT
  5
811
102
{ACAD_XDICTIONARY
360
812
102
}
102
{ACAD_REACTORS
330
808
102
}
330
808
100
AcDbProxyObject
 90
      499
 91
      512
 93
     1340
310
42109E509B1BD8DAC02004014080404555555555555953FAA155555555555654FEA9AA400014080404555555555555953FAA155555555555654FEA9AA400000000000000E03F4080404555555555555953FAA155555555555654FEA9AA4014080404555555555555953FAA155555555555654FEA9AA4010201011555555555
310
55654FEA8555555555555953FAA6A9005020101155555555555654FEA8555555555555953FAA6A9002
 94
        0
1001
ACAD
1000
AcadProxyRoundTripData
1071
      504
1071
   851991
1070
     0
  0
ACAD_PROXY_OBJECT
  5
809
102
{ACAD_XDICTIONARY
360
80A
102
}
102
{ACAD_REACTORS
330
808
102
}
330
808
100
AcDbProxyObject
 90
      499
 91
      512
 93
     1340
310
42109E53185E595C802004014080404555555555555953FAA155555555555654FEA9AA400014080404555555555555953FAA155555555555654FEA9AA400000000000000E03F4080404555555555555953FAA155555555555654FEA9AA4014080404555555555555953FAA155555555555654FEA9AA4010201011555555555
310
55654FEA8555555555555953FAA6A9005020101155555555555654FEA8555555555555953FAA6A9002
 94
        0
1001
ACAD
1000
AcadProxyRoundTripData
1071
      504
1071
   851991
1070
     0
  0
ACAD_PROXY_OBJECT
  5
819
102
{ACAD_XDICTIONARY
360
81A
102
}
102
{ACAD_REACTORS
330
808
102
}
330
808
100
AcDbProxyObject
 90
      499
 91
      512
 93
     1332
310
41D1DB1BD8985B002004014080404555555555555953FAA155555555555654FEA9AA400014080404555555555555953FAA155555555555654FEA9AA400000000000000E03F4080404555555555555953FAA155555555555654FEA9AA4014080404555555555555953FAA155555555555654FEA9AA401020101155555555555
310
654FEA8555555555555953FAA6A9005020101155555555555654FEA8555555555555953FAA6A9000
 94
        0
1001
ACAD
1000
AcadProxyRoundTripData
1071
      504
1071
   851991
1070
     0
  0
ACAD_PROXY_OBJECT
  5
858
102
{ACAD_REACTORS
330
857
102
}
330
857
100
AcDbProxyObject
 90
      499
 91
      512
 93
      618
310
40901902A4063FBFFFFFE056BD1B81E855B9FC0AD7A3703D0AD73F4254DD185B99185C990000AD7A3703D0AC73F90141901A02B5E8DC0F42B1CFC02B5E8DC0F42B1CFE5764000000000000300FC6
340
6A
340
0
340
16
340
0
 94
        0
1001
ACAD_MLEADERVER
1070
     2
1001
ACAD
1000
AcadProxyRoundTripData
1071
      508
1071
   851991
1070
     0
  0
MLINESTYLE
  5
78
102
{ACAD_REACTORS
330
76
102
}
330
76
100
AcDbMlineStyle
  2
STANDARD
 70
     0
  3

 62
     0
 51
90.0
 52
90.0
 71
     2
 49
0.5
 62
   256
  6
BYLAYER
 49
-0.5
 62
   256
  6
BYLAYER
  0
ACDBPLACEHOLDER
  5
5
102
{ACAD_REACTORS
330
6
102
}
330
6
100
AcDbPlaceHolder
280
     0
  0
ACAD_PROXY_OBJECT
  5
836
102
{ACAD_REACTORS
330
835
102
}
330
835
100
AcDbProxyObject
 90
      499
 91
      512
 93
       49
310
904313A3100598
 94
        0
1001
ACAD
1000
AcadProxyRoundTripData
1071
      507
1071
   851991
1070
     0
  0
ACAD_PROXY_OBJECT
  5
837
102
{ACAD_REACTORS
330
835
102
}
330
835
100
AcDbProxyObject
 90
      499
 91
      512
 93
      113
310
904313A3200400000000000000406B
 94
        0
1001
ACAD
1000
AcadProxyRoundTripData
1071
      507
1071
   851991
1070
     0
  0
ACAD_PROXY_OBJECT
  5
838
102
{ACAD_REACTORS
330
835
102
}
330
835
100
AcDbProxyObject
 90
      499
 91
      512
 93
      113
310
904313A3400400000000000010406B
 94
        0
1001
ACAD
1000
AcadProxyRoundTripData
1071
      507
1071
   851991
1070
     0
  0
ACAD_PROXY_OBJECT
  5
839
102
{ACAD_REACTORS
330
835
102
}
330
835
100
AcDbProxyObject
 90
      499
 91
      512
 93
      113
310
904313A3500400000000000014406B
 94
        0
1001
ACAD
1000
AcadProxyRoundTripData
1071
      507
1071
   851991
1070
     0
  0
ACAD_PROXY_OBJECT
  5
83A
102
{ACAD_REACTORS
330
835
102
}
330
835
100
AcDbProxyObject
 90
      499
 91
      512
 93
      113
310
904313A3800400000000000020406B
 94
        0
1001
ACAD
1000
AcadProxyRoundTripData
1071
      507
1071
   851991
1070
     0
  0
ACAD_PROXY_OBJECT
  5
83B
102
{ACAD_REACTORS
330
835
102
}
330
835
100
AcDbProxyObject
 90
      499
 91
      512
 93
      121
310
905313A3130004000000000000244051
 94
        0
1001
ACAD
1000
AcadProxyRoundTripData
1071
      507
1071
   851991
1070
     0
  0
ACAD_PROXY_OBJECT
  5
83C
102
{ACAD_REACTORS
330
835
102
}
330
835
100
AcDbProxyObject
 90
      499
 91
      512
 93
      121
310
905313A3136004000000000000304051
 94
        0
1001
ACAD
1000
AcadProxyRoundTripData
1071
      507
1071
   851991
1070
     0
  0
ACAD_PROXY_OBJECT
  5
83D
102
{ACAD_REACTORS
330
835
102
}
330
835
100
AcDbProxyObject
 90
      499
 91
      512
 93
      121
310
905313A3230004000000000000344051
 94
        0
1001
ACAD
1000
AcadProxyRoundTripData
1071
      507
1071
   851991
1070
     0
  0
ACAD_PROXY_OBJECT
  5
83E
102
{ACAD_REACTORS
330
835
102
}
330
835
100
AcDbProxyObject
 90
      499
 91
      512
 93
      121
310
905313A33300040000000000003E4051
 94
        0
1001
ACAD
1000
AcadProxyRoundTripData
1071
      507
1071
   851991
1070
     0
  0
ACAD_PROXY_OBJECT
  5
83F
102
{ACAD_REACTORS
330
835
102
}
330
835
100
AcDbProxyObject
 90
      499
 91
      512
 93
      121
310
905313A3430004000000000000444051
 94
        0
1001
ACAD
1000
AcadProxyRoundTripData
1071
      507
1071
   851991
1070
     0
  0
ACAD_PROXY_OBJECT
  5
840
102
{ACAD_REACTORS
330
835
102
}
330
835
100
AcDbProxyObject
 90
      499
 91
      512
 93
      121
310
905313A3530004000000000000494051
 94
        0
1001
ACAD
1000
AcadProxyRoundTripData
1071
      507
1071
   851991
1070
     0
  0
ACAD_PROXY_OBJECT
  5
841
102
{ACAD_REACTORS
330
835
102
}
330
835
100
AcDbProxyObject
 90
      499
 91
      512
 93
      129
310
906313A313030004000000000000594038
 94
        0
1001
ACAD
1000
AcadProxyRoundTripData
1071
      507
1071
   851991
1070
     0
  0
ACAD_PROXY_OBJECT
  5
842
102
{ACAD_REACTORS
330
835
102
}
330
835
100
AcDbProxyObject
 90
      499
 91
      512
 93
      113
310
904323A31000000000000000010159
 94
        0
1001
ACAD
1000
AcadProxyRoundTripData
1071
      507
1071
   851991
1070
     0
  0
ACAD_PROXY_OBJECT
  5
843
102
{ACAD_REACTORS
330
835
102
}
330
835
100
AcDbProxyObject
 90
      499
 91
      512
 93
      113
310
904343A31000000000000000410159
 94
        0
1001
ACAD
1000
AcadProxyRoundTripData
1071
      507
1071
   851991
1070
     0
  0
ACAD_PROXY_OBJECT
  5
844
102
{ACAD_REACTORS
330
835
102
}
330
835
100
AcDbProxyObject
 90
      499
 91
      512
 93
      113
310
904383A31000000000000000810159
 94
        0
1001
ACAD
1000
AcadProxyRoundTripData
1071
      507
1071
   851991
1070
     0
  0
ACAD_PROXY_OBJECT
  5
845
102
{ACAD_REACTORS
330
835
102
}
330
835
100
AcDbProxyObject
 90
      499
 91
      512
 93
      121
310
90531303A31000000000000000910140
 94
        0
1001
ACAD
1000
AcadProxyRoundTripData
1071
      507
1071
   851991
1070
     0
  0
ACAD_PROXY_OBJECT
  5
846
102
{ACAD_REACTORS
330
835
102
}
330
835
100
AcDbProxyObject
 90
      499
 91
      512
 93
      129
310
9063130303A31000000000000001650138
 94
        0
1001
ACAD
1000
AcadProxyRoundTripData
1071
      507
1071
   851991
1070
     0
  0
ACAD_PROXY_OBJECT
  5
847
102
{ACAD_REACTORS
330
835
102
}
330
835
100
AcDbProxyObject
 90
      499
 91
      512
 93
      265
310
90F312F31323822203D2031272D302200000000000000200FC00000000000028402B
 94
        0
1001
ACAD
1000
AcadProxyRoundTripData
1071
      507
1071
   851991
1070
     0
  0
ACAD_PROXY_OBJECT
  5
848
102
{ACAD_REACTORS
330
835
102
}
330
835
100
AcDbProxyObject
 90
      499
 91
      512
 93
      257
310
90E312F363422203D2031272D302200000000000000240FC000000000000284040
 94
        0
1001
ACAD
1000
AcadProxyRoundTripData
1071
      507
1071
   851991
1070
     0
  0
ACAD_PROXY_OBJECT
  5
849
102
{ACAD_REACTORS
330
835
102
}
330
835
100
AcDbProxyObject
 90
      499
 91
      512
 93
      257
310
90E312F333222203D2031272D302200000000000000280FC000000000000284040
 94
        0
1001
ACAD
1000
AcadProxyRoundTripData
1071
      507
1071
   851991
1070
     0
  0
ACAD_PROXY_OBJECT
  5
84A
102
{ACAD_REACTORS
330
835
102
}
330
835
100
AcDbProxyObject
 90
      499
 91
      512
 93
      257
310
90E312F313622203D2031272D3022000000000000002C0FC000000000000284040
 94
        0
1001
ACAD
1000
AcadProxyRoundTripData
1071
      507
1071
   851991
1070
     0
  0
ACAD_PROXY_OBJECT
  5
84B
102
{ACAD_REACTORS
330
835
102
}
330
835
100
AcDbProxyObject
 90
      499
 91
      512
 93
      257
310
90E332F333222203D2031272D3022000000000000002E0FC000000000000284040
 94
        0
1001
ACAD
1000
AcadProxyRoundTripData
1071
      507
1071
   851991
1070
     0
  0
ACAD_PROXY_OBJECT
  5
84C
102
{ACAD_REACTORS
330
835
102
}
330
835
100
AcDbProxyObject
 90
      499
 91
      512
 93
      249
310
90D312F3822203D2031272D302200000000000000300FC000000000000284040
 94
        0
1001
ACAD
1000
AcadProxyRoundTripData
1071
      507
1071
   851991
1070
     0
  0
ACAD_PROXY_OBJECT
  5
84D
102
{ACAD_REACTORS
330
835
102
}
330
835
100
AcDbProxyObject
 90
      499
 91
      512
 93
      257
310
90E332F313622203D2031272D302200000000000000320FC000000000000284040
 94
        0
1001
ACAD
1000
AcadProxyRoundTripData
1071
      507
1071
   851991
1070
     0
  0
ACAD_PROXY_OBJECT
  5
84E
102
{ACAD_REACTORS
330
835
102
}
330
835
100
AcDbProxyObject
 90
      499
 91
      512
 93
      249
310
90D312F3422203D2031272D302200000000000000340FC000000000000284040
 94
        0
1001
ACAD
1000
AcadProxyRoundTripData
1071
      507
1071
   851991
1070
     0
  0
ACAD_PROXY_OBJECT
  5
84F
102
{ACAD_REACTORS
330
835
102
}
330
835
100
AcDbProxyObject
 90
      499
 91
      512
 93
      249
310
90D332F3822203D2031272D302200000000000000360FC000000000000284040
 94
        0
1001
ACAD
1000
AcadProxyRoundTripData
1071
      507
1071
   851991
1070
     0
  0
ACAD_PROXY_OBJECT
  5
850
102
{ACAD_REACTORS
330
835
102
}
330
835
100
AcDbProxyObject
 90
      499
 91
      512
 93
      249
310
90D312F3222203D2031272D302200000000000000380FC000000000000284040
 94
        0
1001
ACAD
1000
AcadProxyRoundTripData
1071
      507
1071
   851991
1070
     0
  0
ACAD_PROXY_OBJECT
  5
851
102
{ACAD_REACTORS
330
835
102
}
330
835
100
AcDbProxyObject
 90
      499
 91
      512
 93
      249
310
90D332F3422203D2031272D3022000000000000003A0FC000000000000284040
 94
        0
1001
ACAD
1000
AcadProxyRoundTripData
1071
      507
1071
   851991
1070
     0
  0
ACAD_PROXY_OBJECT
  5
852
102
{ACAD_REACTORS
330
835
102
}
330
835
100
AcDbProxyObject
 90
      499
 91
      512
 93
      169
310
90B3122203D2031272D3022004000000000000284020
 94
        0
1001
ACAD
1000
AcadProxyRoundTripData
1071
      507
1071
   851991
1070
     0
  0
ACAD_PROXY_OBJECT
  5
853
102
{ACAD_REACTORS
330
835
102
}
330
835
100
AcDbProxyObject
 90
      499
 91
      512
 93
      265
310
90F312D312F3222203D2031272D3022000000000000003E0FC00000000000028402B
 94
        0
1001
ACAD
1000
AcadProxyRoundTripData
1071
      507
1071
   851991
1070
     0
  0
ACAD_PROXY_OBJECT
  5
854
102
{ACAD_REACTORS
330
835
102
}
330
835
100
AcDbProxyObject
 90
      499
 91
      512
 93
      233
310
90B3322203D2031272D30220000000000000002100000000000000284000
 94
        0
1001
ACAD
1000
AcadProxyRoundTripData
1071
      507
1071
   851991
1070
     0
  0
ACAD_PROXY_OBJECT
  5
855
102
{ACAD_REACTORS
330
835
102
}
330
835
100
AcDbProxyObject
 90
      499
 91
      512
 93
      233
310
90B3622203D2031272D30220000000000000006100000000000000284000
 94
        0
1001
ACAD
1000
AcadProxyRoundTripData
1071
      507
1071
   851991
1070
     0
  0
ACAD_PROXY_OBJECT
  5
856
102
{ACAD_REACTORS
330
835
102
}
330
835
100
AcDbProxyObject
 90
      499
 91
      512
 93
      257
310
90E31272D3022203D2031272D3022000000000000000A100000000000000284040
 94
        0
1001
ACAD
1000
AcadProxyRoundTripData
1071
      507
1071
   851991
1070
     0
  0
ACAD_PROXY_OBJECT
  5
834
102
{ACAD_XDICTIONARY
360
88C
102
}
102
{ACAD_REACTORS
330
833
102
}
330
833
100
AcDbProxyObject
 90
      499
 91
      512
 93
     1849
310
4254DD185B99185C990028B81E85EB51B8AE3F2E07A17AD46E2B8FC02B5E8DC0F42B1CFD028000000C1008070000C3001FDFF8000000C1003FBFF000000182007F7FE00000030400FEFFC00000060801FDFF8000000C1003FBFF00000018200000000000000681FA0B0000001820100E000186003FBFF000000182007F7FE0
310
0000030400FEFFC00000060801FDFF8000000C1003FBFF000000182007F7FE000000304000AD7A3703D0AC73F4160000003040201C00030C007F7FE00000030400FEFFC00000060801FDFF8000000C1003FBFF000000182007F7FE00000030400FEFFC000000608076
340
16
340
16
340
16
 94
        0
1001
ACAD
1000
AcadProxyRoundTripData
1071
      506
1071
   851991
1070
     0
  0
ACAD_PROXY_OBJECT
  5
827
102
{ACAD_REACTORS
330
821
102
}
330
821
100
AcDbProxyObject
 90
      499
 91
      512
 93
      444
310
430C9915DA5C99599C985B59401049028333333333333E3BF0000000000000FB0107901411070040501600405405064090741402480A0340
 94
        0
1001
ACAD
1000
AcDbSavedByObjectVersion
1070
     0
1000
AcadProxyRoundTripData
1071
      505
1071
   851991
1070
     0
  0
ACAD_PROXY_OBJECT
  5
829
102
{ACAD_REACTORS
330
821
102
}
330
821
100
AcDbProxyObject
 90
      499
 91
      512
 93
      508
310
428CD108121A5919195B8010640502408333333333333E3BF0000000000000FB01079024090700405020000000000001110200405405064090740C02480A0340
 94
        0
1001
ACAD
1000
AcDbSavedByObjectVersion
1070
     0
1000
AcadProxyRoundTripData
1071
      505
1071
   851991
1070
     0
  0
ACAD_PROXY_OBJECT
  5
828
102
{ACAD_REACTORS
330
821
102
}
330
821
100
AcDbProxyObject
 90
      499
 91
      512
 93
      444
310
430CD915DA5C99599C985B59401059028333333333333E3BF0000000000000FB0107901411070040501600405405064090741402480A0340
 94
        0
1001
ACAD
1000
AcDbSavedByObjectVersion
1070
     0
1000
AcadProxyRoundTripData
1071
      505
1071
   851991
1070
     0
  0
ACAD_PROXY_OBJECT
  5
826
102
{ACAD_REACTORS
330
821
102
}
330
821
100
AcDbProxyObject
 90
      499
 91
      512
 93
      396
310
4190985CDA58C0107406404333333333333E3BF0000000000000FB0107A41107004050150841D405064090741402480A0356
 94
        0
1001
ACAD
1000
AcDbSavedByObjectVersion
1070
     0
1000
AcadProxyRoundTripData
1071
      505
1071
   851991
1070
     0
  0
ACAD_PROXY_OBJECT
  5
82D
102
{ACAD_REACTORS
330
821
102
}
330
821
100
AcDbProxyObject
 90
      499
 91
      512
 93
      436
310
42509C9A59DA1D195B8010C409028333333333333E3BF0000000000000FB010790141107004050150841D405064090741402480A029956
 94
        0
1001
ACAD
1000
AcDbSavedByObjectVersion
1070
     0
1000
AcadProxyRoundTripData
1071
      505
1071
   851991
1070
     0
  0
ACAD_PROXY_OBJECT
  5
831
102
{ACAD_REACTORS
330
821
102
}
330
821
100
AcDbProxyObject
 90
      499
 91
      512
 93
      460
310
4310DBDB1BDC90DA185B99D9401104090240C333333333333E3BF0000000000000FB0108901411070040501508421405064090741402480A0354
 94
        0
1001
ACAD
1000
AcDbSavedByObjectVersion
1070
     0
1000
AcadProxyRoundTripData
1071
      505
1071
   851991
1070
     0
  0
ACAD_PROXY_OBJECT
  5
82A
102
{ACAD_REACTORS
330
821
102
}
330
821
100
AcDbProxyObject
 90
      499
 91
      512
 93
      508
310
42D0DBDB98D95C1D1D585B0010940D028333333333333E3BF0000000000000FB0107902409070040501000000000000111010841D405064090740C02480A0340
 94
        0
1001
ACAD
1000
AcDbSavedByObjectVersion
1070
     0
1000
AcadProxyRoundTripData
1071
      505
1071
   851991
1070
     0
  0
ACAD_PROXY_OBJECT
  5
82C
102
{ACAD_REACTORS
330
821
102
}
330
821
100
AcDbProxyObject
 90
      499
 91
      512
 93
      420
310
41111A5B4010B409028333333333333E3BF0000000000000FB010790141107004050150841D405064090741402480A02677FFFFFDB
 94
        0
1001
ACAD
1000
AcDbSavedByObjectVersion
1070
     0
1000
AcadProxyRoundTripData
1071
      505
1071
   851991
1070
     0
  0
ACAD_PROXY_OBJECT
  5
830
102
{ACAD_REACTORS
330
821
102
}
330
821
100
AcDbProxyObject
 90
      499
 91
      512
 93
      452
310
43119858D95C185D1D195C9B8010F409028333333333333E3BF0000000000000FB010790141107004050150841D405064090741402480A0350
 94
        0
1001
ACAD
1000
AcDbSavedByObjectVersion
1070
     0
1000
AcadProxyRoundTripData
1071
      505
1071
   851991
1070
     0
  0
ACAD_PROXY_OBJECT
  5
822
102
{ACAD_REACTORS
330
821
102
}
330
821
100
AcDbProxyObject
 90
      499
 91
      512
 93
      396
310
41519B185D00240901404333333333333E3BF0000000000000F9010740A41107004050150841D405064090741402480A1B55
 94
        0
1001
ACAD
1000
AcDbSavedByObjectVersion
1070
     0
1000
AcadProxyRoundTripData
1071
      505
1071
   851991
1070
     0
  0
ACAD_PROXY_OBJECT
  5
823
102
{ACAD_REACTORS
330
821
102
}
330
821
100
AcDbProxyObject
 90
      499
 91
      512
 93
      484
310
43919B185D15DA5D1A115919D95CC010140901404333333333333E3BF0000000000000F9010740901411070040501600405405064090741402480A1B50
 94
        0
1001
ACAD
1000
AcDbSavedByObjectVersion
1070
     0
1000
AcadProxyRoundTripData
1071
      505
1071
   851991
1070
     0
  0
ACAD_PROXY_OBJECT
  5
824
102
{ACAD_REACTORS
330
821
102
}
330
821
100
AcDbProxyObject
 90
      499
 91
      512
 93
      420
310
4211DBDD5C985D590010240902404333333333333E3BF0000000000000F9010740A411070040501641D405064090741402480A1B50
 94
        0
1001
ACAD
1000
AcDbSavedByObjectVersion
1070
     0
1000
AcadProxyRoundTripData
1071
      505
1071
   851991
1070
     0
  0
ACAD_PROXY_OBJECT
  5
825
102
{ACAD_REACTORS
330
821
102
}
330
821
100
AcDbProxyObject
 90
      499
 91
      512
 93
      508
310
4451DBDD5C985D5915DA5D1A115919D95CC010340902404333333333333E3BF0000000000000F9010740901411070040501600405405064090741402480A1B50
 94
        0
1001
ACAD
1000
AcDbSavedByObjectVersion
1070
     0
1000
AcadProxyRoundTripData
1071
      505
1071
   851991
1070
     0
  0
ACAD_PROXY_OBJECT
  5
82F
102
{ACAD_REACTORS
330
821
102
}
330
821
100
AcDbProxyObject
 90
      499
 91
      512
 93
      452
310
43131A5B995C185D1D195C9B8010E409028333333333333E3BF0000000000000FB010790141107004050750841D405064090741402483A0350
 94
        0
1001
ACAD
1000
AcDbSavedByObjectVersion
1070
     0
1000
AcadProxyRoundTripData
1071
      505
1071
   851991
1070
     0
  0
ACAD_PROXY_OBJECT
  5
82B
102
{ACAD_REACTORS
330
821
102
}
330
821
100
AcDbProxyObject
 90
      499
 91
      512
 93
      428
310
429499585B1A5CDD1A58C0108409028333333333333E3BF0000000000000FB01079019070040501508421405064090741402480A1B45
 94
        0
1001
ACAD
1000
AcDbSavedByObjectVersion
1070
     0
1000
AcadProxyRoundTripData
1071
      505
1071
   851991
1070
     0
  0
ACAD_PROXY_OBJECT
  5
82E
102
{ACAD_REACTORS
330
821
102
}
330
821
100
AcDbProxyObject
 90
      499
 91
      512
 93
      420
310
42151A1A58DAD95B8010D409028333333333333E3BF0000000000000FB010790141107004050150C41D405064090741402480A0352
 94
        0
1001
ACAD
1000
AcDbSavedByObjectVersion
1070
     0
1000
AcadProxyRoundTripData
1071
      505
1071
   851991
1070
     0
  0
XRECORD
  5
240F
102
{ACAD_REACTORS
330
2405
102
}
330
2405
100
AcDbXrecord
 90
        0
  0
XRECORD
  5
2413
102
{ACAD_REACTORS
330
2405
102
}
330
2405
100
AcDbXrecord
1000
DSTYLE
1002
{
1070
   179
 70
     2
1070
   277
 70
     6
1002
}
  0
XRECORD
  5
2410
102
{ACAD_REACTORS
330
2405
102
}
330
2405
100
AcDbXrecord
  1
{F8E7DCD7-EF2B-4E83-868E-1BB3A7734B1D}
  0
XRECORD
  5
2408
102
{ACAD_REACTORS
330
2405
102
}
330
2405
100
AcDbXrecord
  1

  0
XRECORD
  5
240E
102
{ACAD_REACTORS
330
2405
102
}
330
2405
100
AcDbXrecord
 90
        0
  0
XRECORD
  5
240A
102
{ACAD_REACTORS
330
2405
102
}
330
2405
100
AcDbXrecord
340
61
  0
XRECORD
  5
240D
102
{ACAD_REACTORS
330
2405
102
}
330
2405
100
AcDbXrecord
 90
    10781
  0
XRECORD
  5
240B
102
{ACAD_REACTORS
330
2405
102
}
330
2405
100
AcDbXrecord
340
77
  0
XRECORD
  5
240C
102
{ACAD_REACTORS
330
2405
102
}
330
2405
100
AcDbXrecord
340
6
  0
XRECORD
  5
2412
102
{ACAD_REACTORS
330
2405
102
}
330
2405
100
AcDbXrecord
 40
0.0
  0
XRECORD
  5
2416
102
{ACAD_REACTORS
330
2405
102
}
330
2405
100
AcDbXrecord
340
0
  0
XRECORD
  5
241C
102
{ACAD_REACTORS
330
2405
102
}
330
2405
100
AcDbXrecord
 10
0.0
 20
0.0
 30
0.0
  0
XRECORD
  5
2418
102
{ACAD_REACTORS
330
2405
102
}
330
2405
100
AcDbXrecord
 10
0.0
 20
0.0
 30
0.0
  0
XRECORD
  5
241B
102
{ACAD_REACTORS
330
2405
102
}
330
2405
100
AcDbXrecord
 10
0.0
 20
0.0
 30
0.0
  0
XRECORD
  5
2419
102
{ACAD_REACTORS
330
2405
102
}
330
2405
100
AcDbXrecord
 10
0.0
 20
0.0
 30
0.0
  0
XRECORD
  5
241A
102
{ACAD_REACTORS
330
2405
102
}
330
2405
100
AcDbXrecord
 10
0.0
 20
0.0
 30
0.0
  0
XRECORD
  5
2417
102
{ACAD_REACTORS
330
2405
102
}
330
2405
100
AcDbXrecord
 10
0.0
 20
0.0
 30
0.0
  0
XRECORD
  5
2414
102
{ACAD_REACTORS
330
2405
102
}
330
2405
100
AcDbXrecord
340
0
  0
XRECORD
  5
2415
102
{ACAD_REACTORS
330
2405
102
}
330
2405
100
AcDbXrecord
 70
     0
  0
XRECORD
  5
2409
102
{ACAD_REACTORS
330
2405
102
}
330
2405
100
AcDbXrecord
  1
Sekkei.ctb
  0
XRECORD
  5
2406
102
{ACAD_REACTORS
330
2405
102
}
330
2405
100
AcDbXrecord
 90
        1
  0
XRECORD
  5
2407
102
{ACAD_REACTORS
330
2405
102
}
330
2405
100
AcDbXrecord
 90
       70
  0
XRECORD
  5
241F
102
{ACAD_REACTORS
330
2405
102
}
330
2405
100
AcDbXrecord
340
0
  0
XRECORD
  5
2425
102
{ACAD_REACTORS
330
2405
102
}
330
2405
100
AcDbXrecord
 10
0.0
 20
0.0
 30
0.0
  0
XRECORD
  5
2421
102
{ACAD_REACTORS
330
2405
102
}
330
2405
100
AcDbXrecord
 10
0.0
 20
0.0
 30
0.0
  0
XRECORD
  5
2424
102
{ACAD_REACTORS
330
2405
102
}
330
2405
100
AcDbXrecord
 10
0.0
 20
0.0
 30
0.0
  0
XRECORD
  5
2422
102
{ACAD_REACTORS
330
2405
102
}
330
2405
100
AcDbXrecord
 10
0.0
 20
0.0
 30
0.0
  0
XRECORD
  5
2423
102
{ACAD_REACTORS
330
2405
102
}
330
2405
100
AcDbXrecord
 10
0.0
 20
0.0
 30
0.0
  0
XRECORD
  5
2420
102
{ACAD_REACTORS
330
2405
102
}
330
2405
100
AcDbXrecord
 10
0.0
 20
0.0
 30
0.0
  0
XRECORD
  5
241D
102
{ACAD_REACTORS
330
2405
102
}
330
2405
100
AcDbXrecord
340
0
  0
XRECORD
  5
241E
102
{ACAD_REACTORS
330
2405
102
}
330
2405
100
AcDbXrecord
 70
     0
  0
XRECORD
  5
2411
102
{ACAD_REACTORS
330
2405
102
}
330
2405
100
AcDbXrecord
  1
{C8B10BDF-F214-4DCB-9FF6-56AB0E77AB42}
  0
DICTIONARYVAR
  5
892
102
{ACAD_REACTORS
330
102
102
}
330
102
100
DictionaryVariables
280
     0
  1
1:1
  0
DICTIONARYVAR
  5
890
102
{ACAD_REACTORS
330
102
102
}
330
102
100
DictionaryVariables
280
     0
  1
STANDARD
  0
DICTIONARYVAR
  5
88F
102
{ACAD_REACTORS
330
102
102
}
330
102
100
DictionaryVariables
280
     0
  1
STANDARD
  0
DICTIONARYVAR
  5
103
102
{ACAD_REACTORS
330
102
102
}
330
102
100
DictionaryVariables
280
     0
  1
1
  0
DICTIONARYVAR
  5
1BBB
102
{ACAD_REACTORS
330
102
102
}
330
102
100
DictionaryVariables
280
     0
  1
0
  0
DICTIONARYVAR
  5
893
102
{ACAD_REACTORS
330
102
102
}
330
102
100
DictionaryVariables
280
     0
  1
0
  0
DICTIONARYVAR
  5
891
102
{ACAD_REACTORS
330
102
102
}
330
102
100
DictionaryVariables
280
     0
  1
0
  0
DICTIONARYVAR
  5
549
102
{ACAD_REACTORS
330
102
102
}
330
102
100
DictionaryVariables
280
     0
  1
96
  0
DICTIONARY
  5
812
330
811
100
AcDbDictionary
280
     1
  3
ACAD_XREC_ROUNDTRIP
360
23DC
  3
BUMPTILE
360
814
  3
DIFFUSETILE
360
813
  3
OPACITYTILE
360
817
  3
REFLECTIONTILE
360
816
  3
REFRACTIONTILE
360
818
  3
SPECULARTILE
360
815
  0
DICTIONARY
  5
80A
330
809
100
AcDbDictionary
280
     1
  3
ACAD_XREC_ROUNDTRIP
360
23DB
  3
BUMPTILE
360
80C
  3
DIFFUSETILE
360
80B
  3
OPACITYTILE
360
80F
  3
REFLECTIONTILE
360
80E
  3
REFRACTIONTILE
360
810
  3
SPECULARTILE
360
80D
  0
DICTIONARY
  5
81A
330
819
100
AcDbDictionary
280
     1
  3
ACAD_XREC_ROUNDTRIP
360
23DD
  3
BUMPTILE
360
81C
  3
DIFFUSETILE
360
81B
  3
OPACITYTILE
360
81F
  3
REFLECTIONTILE
360
81E
  3
REFRACTIONTILE
360
820
  3
SPECULARTILE
360
81D
  0
DICTIONARY
  5
88C
330
834
100
AcDbDictionary
280
     1
  3
ACAD_ROUNDTRIP_2008_TABLES
360
23D3
  3
ACAD_XREC_ROUNDTRIP
360
23DE
  0
XRECORD
  5
23DC
102
{ACAD_REACTORS
330
812
102
}
330
812
100
AcDbXrecord
102
MATERIAL
148
0.0
149
0.0
149
0.0
 93
        0
 94
      127
282
     0
 72
     0
 77
     0
171
     0
175
     0
179
     0
273
     0
  0
XRECORD
  5
814
102
{ACAD_REACTORS
330
812
102
}
330
812
100
AcDbXrecord
270
     1
271
     1
  0
XRECORD
  5
813
102
{ACAD_REACTORS
330
812
102
}
330
812
100
AcDbXrecord
270
     1
271
     1
  0
XRECORD
  5
817
102
{ACAD_REACTORS
330
812
102
}
330
812
100
AcDbXrecord
270
     1
271
     1
  0
XRECORD
  5
816
102
{ACAD_REACTORS
330
812
102
}
330
812
100
AcDbXrecord
270
     1
271
     1
  0
XRECORD
  5
818
102
{ACAD_REACTORS
330
812
102
}
330
812
100
AcDbXrecord
270
     1
271
     1
  0
XRECORD
  5
815
102
{ACAD_REACTORS
330
812
102
}
330
812
100
AcDbXrecord
270
     1
271
     1
  0
XRECORD
  5
23DB
102
{ACAD_REACTORS
330
80A
102
}
330
80A
100
AcDbXrecord
102
MATERIAL
148
0.0
149
0.0
149
0.0
 93
        0
 94
      127
282
     0
 72
     0
 77
     0
171
     0
175
     0
179
     0
273
     0
  0
XRECORD
  5
80C
102
{ACAD_REACTORS
330
80A
102
}
330
80A
100
AcDbXrecord
270
     1
271
     1
  0
XRECORD
  5
80B
102
{ACAD_REACTORS
330
80A
102
}
330
80A
100
AcDbXrecord
270
     1
271
     1
  0
XRECORD
  5
80F
102
{ACAD_REACTORS
330
80A
102
}
330
80A
100
AcDbXrecord
270
     1
271
     1
  0
XRECORD
  5
80E
102
{ACAD_REACTORS
330
80A
102
}
330
80A
100
AcDbXrecord
270
     1
271
     1
  0
XRECORD
  5
810
102
{ACAD_REACTORS
330
80A
102
}
330
80A
100
AcDbXrecord
270
     1
271
     1
  0
XRECORD
  5
80D
102
{ACAD_REACTORS
330
80A
102
}
330
80A
100
AcDbXrecord
270
     1
271
     1
  0
XRECORD
  5
23DD
102
{ACAD_REACTORS
330
81A
102
}
330
81A
100
AcDbXrecord
102
MATERIAL
148
0.0
149
0.0
149
0.0
 93
        0
 94
      127
282
     0
 72
     0
 77
     0
171
     0
175
     0
179
     0
273
     0
  0
XRECORD
  5
81C
102
{ACAD_REACTORS
330
81A
102
}
330
81A
100
AcDbXrecord
270
     1
271
     1
  0
XRECORD
  5
81B
102
{ACAD_REACTORS
330
81A
102
}
330
81A
100
AcDbXrecord
270
     1
271
     1
  0
XRECORD
  5
81F
102
{ACAD_REACTORS
330
81A
102
}
330
81A
100
AcDbXrecord
270
     1
271
     1
  0
XRECORD
  5
81E
102
{ACAD_REACTORS
330
81A
102
}
330
81A
100
AcDbXrecord
270
     1
271
     1
  0
XRECORD
  5
820
102
{ACAD_REACTORS
330
81A
102
}
330
81A
100
AcDbXrecord
270
     1
271
     1
  0
XRECORD
  5
81D
102
{ACAD_REACTORS
330
81A
102
}
330
81A
100
AcDbXrecord
270
     1
271
     1
  0
ACAD_PROXY_OBJECT
  5
23D3
102
{ACAD_REACTORS
330
88C
102
}
330
88C
100
AcDbProxyObject
 90
      499
 91
      512
 93
     1044
310
40D054060020000020000003200101A000080002A5058000000C100000000000000340FE901405075F5449544C450041501A8000000C800406800020000A9416000000304000AD7A3703D0AC73FA409014217D2115051115480105406A0000003200101A000080002A5028000000C10002B5E8DC0F42B1CFE903409065F444
310
15441003
340
16
340
16
340
16
 94
        0
1001
ACAD
1000
AcadProxyRoundTripData
1071
      510
1071
   851991
1070
     0
  0
XRECORD
  5
23DE
102
{ACAD_REACTORS
330
88C
102
}
330
88C
100
AcDbXrecord
102
ACAD_ROUNDTRIP_PRE2007_TABLESTYLE
 90
      512
 91
        0
  1

 92
      512
 93
        0
  2

 94
      512
 95
        0
  3

  0
ENDSEC
  0
EOF
