  0
SECTION
  2
HEADER
  9
$ACADVER
  1
AC1014
  9
$ACADMAINTVER
 70
     9
  9
$DWGCODEPAGE
  3
ANSI_932
  9
$INSBASE
 10
0.0
 20
0.0
 30
0.0
  9
$EXTMIN
 10
-32.19406526516673
 20
300.0678655566772
 30
0.0
  9
$EXTMAX
 10
1358.382594463964
 20
857.5897734496136
 30
0.0
  9
$LIMMIN
 10
0.0
 20
0.0
  9
$LIMMAX
 10
297.0
 20
210.0
  9
$ORTHOMODE
 70
     0
  9
$REGENMODE
 70
     1
  9
$FILLMODE
 70
     1
  9
$QTEXTMODE
 70
     0
  9
$MIRRTEXT
 70
     0
  9
$DRAGMODE
 70
     2
  9
$LTSCALE
 40
4.0
  9
$OSMODE
 70
    37
  9
$ATTMODE
 70
     1
  9
$TEXTSIZE
 40
2.0
  9
$TRACEWID
 40
1.0
  9
$TEXTSTYLE
  7
STANDARD
  9
$CLAYER
  8
0
  9
$CELTYPE
  6
BYLAYER
  9
$CECOLOR
 62
   256
  9
$CELTSCALE
 40
1.0
  9
$DELOBJ
 70
     1
  9
$DISPSILH
 70
     0
  9
$DIMSCALE
 40
4.0
  9
$DIMASZ
 40
1.8
  9
$DIMEXO
 40
0.625
  9
$DIMDLI
 40
3.75
  9
$DIMRND
 40
0.0
  9
$DIMDLE
 40
0.0
  9
$DIMEXE
 40
0.8
  9
$DIMTP
 40
0.0
  9
$DIMTM
 40
0.0
  9
$DIMTXT
 40
1.8
  9
$DIMCEN
 40
2.5
  9
$DIMTSZ
 40
0.0
  9
$DIMTOL
 70
     0
  9
$DIMLIM
 70
     0
  9
$DIMTIH
 70
     0
  9
$DIMTOH
 70
     0
  9
$DIMSE1
 70
     0
  9
$DIMSE2
 70
     0
  9
$DIMTAD
 70
     1
  9
$DIMZIN
 70
     8
  9
$DIMBLK
  1

  9
$DIMASO
 70
     1
  9
$DIMSHO
 70
     1
  9
$DIMPOST
  1

  9
$DIMAPOST
  1

  9
$DIMALT
 70
     0
  9
$DIMALTD
 70
     4
  9
$DIMALTF
 40
0.0394
  9
$DIMLFAC
 40
1.0
  9
$DIMTOFL
 70
     1
  9
$DIMTVP
 40
0.0
  9
$DIMTIX
 70
     0
  9
$DIMSOXD
 70
     0
  9
$DIMSAH
 70
     0
  9
$DIMBLK1
  1

  9
$DIMBLK2
  1

  9
$DIMSTYLE
  2
STANDARD
  9
$DIMCLRD
 70
     0
  9
$DIMCLRE
 70
     0
  9
$DIMCLRT
 70
     0
  9
$DIMTFAC
 40
1.0
  9
$DIMGAP
 40
0.75
  9
$DIMJUST
 70
     0
  9
$DIMSD1
 70
     0
  9
$DIMSD2
 70
     0
  9
$DIMTOLJ
 70
     1
  9
$DIMTZIN
 70
     0
  9
$DIMALTZ
 70
     0
  9
$DIMALTTZ
 70
     0
  9
$DIMFIT
 70
     3
  9
$DIMUPT
 70
     0
  9
$DIMUNIT
 70
     8
  9
$DIMDEC
 70
     2
  9
$DIMTDEC
 70
     2
  9
$DIMALTU
 70
     8
  9
$DIMALTTD
 70
     4
  9
$DIMTXSTY
  7
STANDARD
  9
$DIMAUNIT
 70
     0
  9
$LUNITS
 70
     2
  9
$LUPREC
 70
     3
  9
$SKETCHINC
 40
1.0
  9
$FILLETRAD
 40
10.0
  9
$AUNITS
 70
     0
  9
$AUPREC
 70
     2
  9
$MENU
  1
.
  9
$ELEVATION
 40
0.0
  9
$PELEVATION
 40
0.0
  9
$THICKNESS
 40
0.0
  9
$LIMCHECK
 70
     0
  9
$BLIPMODE
 70
     0
  9
$CHAMFERA
 40
0.0
  9
$CHAMFERB
 40
0.0
  9
$CHAMFERC
 40
20.0
  9
$CHAMFERD
 40
0.0
  9
$SKPOLY
 70
     0
  9
$TDCREATE
 40
2454889.454828194
  9
$TDUPDATE
 40
2454909.829900023
  9
$TDINDWG
 40
0.1503857755
  9
$TDUSRTIMER
 40
0.1503855903
  9
$USRTIMER
 70
     1
  9
$ANGBASE
 50
0.0
  9
$ANGDIR
 70
     0
  9
$PDMODE
 70
     0
  9
$PDSIZE
 40
-10.0
  9
$PLINEWID
 40
0.0
  9
$COORDS
 70
     1
  9
$SPLFRAME
 70
     0
  9
$SPLINETYPE
 70
     6
  9
$SPLINESEGS
 70
     8
  9
$ATTDIA
 70
     0
  9
$ATTREQ
 70
     1
  9
$HANDLING
 70
 22529
  9
$HANDSEED
  5
3629
  9
$SURFTAB1
 70
     6
  9
$SURFTAB2
 70
     6
  9
$SURFTYPE
 70
     6
  9
$SURFU
 70
     6
  9
$SURFV
 70
     6
  9
$UCSNAME
  2

  9
$UCSORG
 10
0.0
 20
0.0
 30
0.0
  9
$UCSXDIR
 10
1.0
 20
0.0
 30
0.0
  9
$UCSYDIR
 10
0.0
 20
1.0
 30
0.0
  9
$PUCSNAME
  2

  9
$PUCSORG
 10
0.0
 20
0.0
 30
0.0
  9
$PUCSXDIR
 10
1.0
 20
0.0
 30
0.0
  9
$PUCSYDIR
 10
0.0
 20
1.0
 30
0.0
  9
$USERI1
 70
     0
  9
$USERI2
 70
     0
  9
$USERI3
 70
     0
  9
$USERI4
 70
     0
  9
$USERI5
 70
     0
  9
$USERR1
 40
0.0
  9
$USERR2
 40
0.0
  9
$USERR3
 40
0.0
  9
$USERR4
 40
0.0
  9
$USERR5
 40
0.0
  9
$WORLDVIEW
 70
     1
  9
$SHADEDGE
 70
     3
  9
$SHADEDIF
 70
    70
  9
$TILEMODE
 70
     1
  9
$MAXACTVP
 70
    48
  9
$PINSBASE
 10
0.0
 20
0.0
 30
0.0
  9
$PLIMCHECK
 70
     0
  9
$PEXTMIN
 10
0.0
 20
0.0
 30
0.0
  9
$PEXTMAX
 10
0.0
 20
0.0
 30
0.0
  9
$PLIMMIN
 10
0.0
 20
0.0
  9
$PLIMMAX
 10
12.0
 20
9.0
  9
$UNITMODE
 70
     0
  9
$VISRETAIN
 70
     1
  9
$PLINEGEN
 70
     0
  9
$PSLTSCALE
 70
     1
  9
$TREEDEPTH
 70
  3020
  9
$PICKSTYLE
 70
     1
  9
$CMLSTYLE
  2
STANDARD
  9
$CMLJUST
 70
     0
  9
$CMLSCALE
 40
1.0
  9
$PROXYGRAPHICS
 70
     1
  9
$MEASUREMENT
 70
     0
  0
ENDSEC
  0
SECTION
  2
CLASSES
  0
CLASS
  1
DICTIONARYVAR
  2
AcDbDictionaryVar
  3
AutoCAD 2000
 90
        0
280
     0
281
     0
  0
CLASS
  1
ACDBDICTIONARYWDFLT
  2
AcDbDictionaryWithDefault
  3
AutoCAD 2000
 90
        0
280
     0
281
     0
  0
CLASS
  1
ACDBPLACEHOLDER
  2
AcDbPlaceHolder
  3
AutoCAD 2000
 90
        0
280
     0
281
     0
  0
CLASS
  1
LAYOUT
  2
AcDbLayout
  3
AutoCAD 2000
 90
        0
280
     0
281
     0
  0
CLASS
  1
MATERIAL
  2
AcDbMaterial
  3
ObjectDBX Classes
 90
     1153
280
     0
281
     0
  0
CLASS
  1
VISUALSTYLE
  2
AcDbVisualStyle
  3
ObjectDBX Classes
 90
     4095
280
     0
281
     0
  0
CLASS
  1
TABLESTYLE
  2
AcDbTableStyle
  3
ObjectDBX Classes
 90
     4095
280
     0
281
     0
  0
CLASS
  1
SCALE
  2
AcDbScale
  3
ObjectDBX Classes
 90
     1153
280
     0
281
     0
  0
CLASS
  1
MLEADERSTYLE
  2
AcDbMLeaderStyle
  3
ACDB_MLEADERSTYLE_CLASS
 90
     4095
280
     0
281
     0
  0
CLASS
  1
PLOTSETTINGS
  2
AcDbPlotSettings
  3
AutoCAD 2000
 90
        0
280
     0
281
     0
  0
CLASS
  1
CELLSTYLEMAP
  2
AcDbCellStyleMap
  3
ObjectDBX Classes
 90
     1152
280
     0
281
     0
  0
CLASS
  1
SORTENTSTABLE
  2
AcDbSortentsTable
  3
AutoCAD 2000
 90
        0
280
     0
281
     0
  0
CLASS
  1
ACAD_PROXY_OBJECT_WRAPPER
  2
AcDbProxyObjectWrapper
  3
AutoCAD 2000
 90
        0
280
     0
281
     0
  0
CLASS
  1
LONG_TRANSACTION
  2
AcDbLongTransaction
  3
AutoCAD 2000
 90
        0
280
     0
281
     0
  0
CLASS
  1
LWPOLYLINE
  2
AcDbPolyline
  3
AutoCAD 2000
 90
        0
280
     0
281
     1
  0
CLASS
  1
HATCH
  2
AcDbHatch
  3
AutoCAD 2000
 90
        0
280
     0
281
     1
  0
CLASS
  1
XRECORD
  2
AcDbXrecord
  3
AutoCAD 2000
 90
        0
280
     0
281
     0
  0
ENDSEC
  0
SECTION
  2
TABLES
  0
TABLE
  2
VPORT
  5
6E
102
{ACAD_XDICTIONARY
360
1BAE
102
}
330
0
100
AcDbSymbolTable
 70
     2
  0
VPORT
  5
3604
330
6E
100
AcDbSymbolTableRecord
100
AcDbViewportTableRecord
  2
*ACTIVE
 70
     0
 10
0.0
 20
0.0
 11
1.0
 21
1.0
 12
723.7265624488531
 22
558.245981918051
 13
0.0
 23
0.0
 14
10.0
 24
10.0
 15
10.0
 25
10.0
 16
0.0
 26
0.0
 36
1.0
 17
0.0
 27
0.0
 37
0.0
 40
952.513789546135
 41
1.593429158110883
 42
50.0
 43
0.0
 44
0.0
 50
0.0
 51
0.0
 71
     0
 72
   100
 73
     1
 74
     3
 75
     0
 76
     0
 77
     0
 78
     0
  0
ENDTAB
  0
TABLE
  2
LTYPE
  5
69
330
0
100
AcDbSymbolTable
 70
     7
  0
LTYPE
  5
6A
330
69
100
AcDbSymbolTableRecord
100
AcDbLinetypeTableRecord
  2
BYBLOCK
 70
     0
  3

 72
    65
 73
     0
 40
0.0
  0
LTYPE
  5
6B
330
69
100
AcDbSymbolTableRecord
100
AcDbLinetypeTableRecord
  2
BYLAYER
 70
     0
  3

 72
    65
 73
     0
 40
0.0
  0
LTYPE
  5
8
330
69
100
AcDbSymbolTableRecord
100
AcDbLinetypeTableRecord
  2
CONTINUOUS
 70
     0
  3
Solid line
 72
    65
 73
     0
 40
0.0
  0
LTYPE
  5
27C
330
69
100
AcDbSymbolTableRecord
100
AcDbLinetypeTableRecord
  2
SEKKEI_A2_
 70
     0
  3
center(A2)  ____ _ ____ _ ____ _ ____ _ ____ _ 
 72
    65
 73
     4
 40
14.28749999999999
 49
9.525
 74
     0
 49
-1.587499999999999
 74
     0
 49
1.587499999999999
 74
     0
 49
-1.587499999999999
 74
     0
  0
LTYPE
  5
2B4
330
69
100
AcDbSymbolTableRecord
100
AcDbLinetypeTableRecord
  2
HIDDEN2
 70
     0
  3
Hidden (.5x) _ _ _ _ _ _ _ _ _ _ _ _ _ _ _ _ _
 72
    65
 73
     2
 40
4.762499999999999
 49
3.174999999999999
 74
     0
 49
-1.587499999999999
 74
     0
  0
LTYPE
  5
48F
330
69
100
AcDbSymbolTableRecord
100
AcDbLinetypeTableRecord
  2
SEKKEI_H
 70
     0
  3
Hidden-S _ _ _ _ _ _ _ _ _ _ _ _ _ _ _ _ _
 72
    65
 73
     2
 40
2.381249999999999
 49
1.587499999999999
 74
     0
 49
-0.79375
 74
     0
  0
LTYPE
  5
54A
330
69
100
AcDbSymbolTableRecord
100
AcDbLinetypeTableRecord
  2
CENTERX2
 70
     0
  3
Center (2x) ________  __  ________  __  _____
 72
    65
 73
     4
 40
4.0
 49
2.5
 74
     0
 49
-0.5
 74
     0
 49
0.5
 74
     0
 49
-0.5
 74
     0
  0
ENDTAB
  0
TABLE
  2
LAYER
  5
66
102
{ACAD_XDICTIONARY
360
86B
102
}
330
0
100
AcDbSymbolTable
 70
    10
  0
LAYER
  5
5E
102
{ACAD_XDICTIONARY
360
1AF7
102
}
330
66
100
AcDbSymbolTableRecord
100
AcDbLayerTableRecord
  2
0
 70
     0
 62
     7
  6
CONTINUOUS
  0
LAYER
  5
3E
102
{ACAD_XDICTIONARY
360
1AF9
102
}
330
66
100
AcDbSymbolTableRecord
100
AcDbLayerTableRecord
  2
CENTER
 70
     0
 62
     3
  6
SEKKEI_A2_
  0
LAYER
  5
2B5
102
{ACAD_XDICTIONARY
360
1AFF
102
}
330
66
100
AcDbSymbolTableRecord
100
AcDbLayerTableRecord
  2
HIDS
 70
     0
 62
     1
  6
HIDDEN2
  0
LAYER
  5
2BA
102
{ACAD_XDICTIONARY
360
1B01
102
}
330
66
100
AcDbSymbolTableRecord
100
AcDbLayerTableRecord
  2
HOJO
 70
     0
 62
     4
  6
CONTINUOUS
  0
LAYER
  5
3FA
102
{ACAD_XDICTIONARY
360
1B05
102
}
330
66
100
AcDbSymbolTableRecord
100
AcDbLayerTableRecord
  2
TITLE
 70
     0
 62
     4
  6
CONTINUOUS
  0
ENDTAB
  0
TABLE
  2
STYLE
  5
67
330
0
100
AcDbSymbolTable
 70
     3
  0
STYLE
  5
16
330
67
100
AcDbSymbolTableRecord
100
AcDbTextStyleTableRecord
  2
STANDARD
 70
     0
 40
0.0
 41
1.0
 50
0.0
 71
     0
 42
2.0
  3
simplex.shx
  4
extfont.shx
  0
ENDTAB
  0
TABLE
  2
VIEW
  5
6C
330
0
100
AcDbSymbolTable
 70
     0
  0
ENDTAB
  0
TABLE
  2
UCS
  5
6D
330
0
100
AcDbSymbolTable
 70
     0
  0
ENDTAB
  0
TABLE
  2
APPID
  5
70
330
0
100
AcDbSymbolTable
 70
     7
  0
APPID
  5
71
330
70
100
AcDbSymbolTableRecord
100
AcDbRegAppTableRecord
  2
ACAD
 70
     0
  0
APPID
  5
859
330
70
100
AcDbSymbolTableRecord
100
AcDbRegAppTableRecord
  2
ACAD_MLEADERVER
 70
     0
  0
APPID
  5
866
330
70
100
AcDbSymbolTableRecord
100
AcDbRegAppTableRecord
  2
ACAD_PSEXT
 70
     0
  0
APPID
  5
12FA
330
70
100
AcDbSymbolTableRecord
100
AcDbRegAppTableRecord
  2
ACAD_EXEMPT_FROM_CAD_STANDARDS
 70
     0
  0
APPID
  5
135B
330
70
100
AcDbSymbolTableRecord
100
AcDbRegAppTableRecord
  2
ACAD_DSTYLE_DIMJAG
 70
     0
  0
APPID
  5
135C
330
70
100
AcDbSymbolTableRecord
100
AcDbRegAppTableRecord
  2
ACAD_DSTYLE_DIMTALN
 70
     0
  0
APPID
  5
150D
330
70
100
AcDbSymbolTableRecord
100
AcDbRegAppTableRecord
  2
ACAD_DSTYLE_DIMRADIAL_EXTENSION
 70
     0
  0
ENDTAB
  0
TABLE
  2
DIMSTYLE
  5
72
330
0
100
AcDbSymbolTable
 70
     1
  0
DIMSTYLE
105
73
330
72
100
AcDbSymbolTableRecord
100
AcDbDimStyleTableRecord
  2
STANDARD
 70
     0
  3

  4

  5

  6

  7

 40
4.0
 41
1.8
 42
0.625
 43
3.75
 44
0.8
 45
0.0
 46
0.0
 47
0.0
 48
0.0
140
1.8
141
2.5
142
0.0
143
0.0394
144
1.0
145
0.0
146
1.0
147
0.75
 71
     0
 72
     0
 73
     0
 74
     0
 75
     0
 76
     0
 77
     1
 78
     8
170
     0
171
     4
172
     1
173
     0
174
     0
175
     0
176
     0
177
     0
178
     0
270
     8
271
     2
272
     2
273
     8
274
     4
340
16
275
     0
280
     0
281
     0
282
     0
283
     1
284
     0
285
     0
286
     0
287
     3
288
     0
1001
ACAD_DSTYLE_DIMJAG
1070
   388
1040
1.5
1001
ACAD_DSTYLE_DIMTALN
1070
   392
1070
     0
  0
ENDTAB
  0
TABLE
  2
BLOCK_RECORD
  5
1
330
0
100
AcDbSymbolTable
 70
    44
  0
BLOCK_RECORD
  5
2
102
{ACAD_XDICTIONARY
360
1D16
102
}
330
1
100
AcDbSymbolTableRecord
100
AcDbBlockTableRecord
  2
*MODEL_SPACE
  0
BLOCK_RECORD
  5
35FF
102
{ACAD_XDICTIONARY
360
3627
102
}
330
1
100
AcDbSymbolTableRecord
100
AcDbBlockTableRecord
  2
*PAPER_SPACE
  0
ENDTAB
  0
ENDSEC
  0
SECTION
  2
BLOCKS
  0
BLOCK
  5
5D
330
2
100
AcDbEntity
  8
0
100
AcDbBlockBegin
  2
*MODEL_SPACE
 70
     0
 10
0.0
 20
0.0
 30
0.0
  3
*MODEL_SPACE
  1

  0
ENDBLK
  5
5F
330
2
100
AcDbEntity
  8
0
100
AcDbBlockEnd
  0
BLOCK
  5
3601
330
35FF
100
AcDbEntity
 67
     1
  8
0
100
AcDbBlockBegin
  2
*PAPER_SPACE
 70
     0
 10
0.0
 20
0.0
 30
0.0
  3
*PAPER_SPACE
  1

  0
ENDBLK
  5
3602
330
35FF
100
AcDbEntity
 67
     1
  8
0
100
AcDbBlockEnd
  0
ENDSEC
  0
SECTION
  2
ENTITIES
  0
LINE
  5
C24
330
2
100
AcDbEntity
  8
0
100
AcDbLine
 10
886.5946935603153
 20
335.5678655566773
 30
0.0
 11
884.0946935603154
 21
335.5678655566773
 31
0.0
  0
LINE
  5
C25
330
2
100
AcDbEntity
  8
0
100
AcDbLine
 10
886.5946935603153
 20
434.5678655566773
 30
0.0
 11
884.0946935603154
 21
434.5678655566773
 31
0.0
  0
ARC
  5
C26
330
2
100
AcDbEntity
  8
0
100
AcDbCircle
 10
886.5946935603153
 20
439.5678655566773
 30
0.0
 40
5.0
100
AcDbArc
 50
270.0
 51
0.0
  0
LINE
  5
C27
330
2
100
AcDbEntity
  8
0
100
AcDbLine
 10
850.0946935603172
 20
388.0678655566773
 30
0.0
 11
878.0946935603154
 21
388.0678655566773
 31
0.0
  0
ARC
  5
C28
330
2
100
AcDbEntity
  8
0
100
AcDbCircle
 10
878.0946935603154
 20
391.0678655566775
 30
0.0
 40
3.0
100
AcDbArc
 50
270.0
 51
0.0
  0
LINE
  5
C29
330
2
100
AcDbEntity
  8
0
100
AcDbLine
 10
881.0946935603153
 20
338.5678655566773
 30
0.0
 11
881.0946935603153
 21
431.5678655566773
 31
0.0
  0
ARC
  5
C2A
330
2
100
AcDbEntity
  8
0
100
AcDbCircle
 10
884.0946935603154
 20
338.5678655566773
 30
0.0
 40
3.0
100
AcDbArc
 50
180.0
 51
270.0
  0
ARC
  5
C2B
330
2
100
AcDbEntity
  8
0
100
AcDbCircle
 10
884.0946935603154
 20
431.5678655566773
 30
0.0
 40
3.0
100
AcDbArc
 50
90.0
 51
180.0
  0
LINE
  5
C2C
330
2
100
AcDbEntity
  8
0
100
AcDbLine
 10
891.5946935603153
 20
326.567865556677
 30
0.0
 11
891.5946935603153
 21
443.5678655566773
 31
0.0
  0
ARC
  5
C2D
330
2
100
AcDbEntity
  8
0
100
AcDbCircle
 10
893.5946935603153
 20
327.0678655566773
 30
0.0
 40
2.0
100
AcDbArc
 50
180.0
 51
270.0
  0
ARC
  5
C2E
330
2
100
AcDbEntity
  8
0
100
AcDbCircle
 10
893.5946935603153
 20
443.0678655566773
 30
0.0
 40
2.0
100
AcDbArc
 50
90.0
 51
180.0
  0
LINE
  5
C2F
330
2
100
AcDbEntity
  8
0
100
AcDbLine
 10
850.0946935603172
 20
382.0678655566771
 30
0.0
 11
878.0946935603154
 21
382.0678655566769
 31
0.0
  0
ARC
  5
C30
330
2
100
AcDbEntity
  8
0
100
AcDbCircle
 10
878.0946935603154
 20
379.0678655566771
 30
0.0
 40
3.0
100
AcDbArc
 50
0.0
 51
90.0
  0
CIRCLE
  5
C31
330
2
100
AcDbEntity
  8
HOJO
100
AcDbCircle
 10
723.0261510653938
 20
328.4993230617535
 30
0.0
 40
5.0
  0
CIRCLE
  5
C32
330
2
100
AcDbEntity
  8
0
100
AcDbCircle
 10
723.0261510653938
 20
328.4993230617535
 30
0.0
 40
4.0
  0
CIRCLE
  5
C33
330
2
100
AcDbEntity
  8
HOJO
100
AcDbCircle
 10
723.0261510653938
 20
441.6364080516011
 30
0.0
 40
5.0
  0
CIRCLE
  5
C34
330
2
100
AcDbEntity
  8
0
100
AcDbCircle
 10
723.0261510653938
 20
441.6364080516011
 30
0.0
 40
4.0
  0
ARC
  5
C35
330
2
100
AcDbEntity
  8
0
100
AcDbCircle
 10
850.0946935603117
 20
353.0678655566773
 30
0.0
 40
3.0
100
AcDbArc
 50
90.0
 51
179.9999999999869
  0
LINE
  5
C37
330
2
100
AcDbEntity
  8
0
100
AcDbLine
 10
772.4529228105514
 20
329.5678655543202
 30
0.0
 11
775.3329240518835
 21
329.5678655543197
 31
0.0
  0
LINE
  5
C38
330
2
100
AcDbEntity
  8
0
100
AcDbLine
 10
776.4529228105568
 20
337.5678655543315
 30
0.0
 11
772.4529228105514
 21
329.5678655543202
 31
0.0
  0
ARC
  5
C39
330
2
100
AcDbEntity
  8
0
100
AcDbCircle
 10
782.9229228105671
 20
334.6778655543271
 30
0.0
 40
0.1700000000002474
100
AcDbArc
 50
270.0
 51
90.0
  0
LINE
  5
C3A
330
2
100
AcDbEntity
  8
0
100
AcDbLine
 10
780.7129228105625
 20
334.5078655543265
 30
0.0
 11
782.9229228105671
 21
334.5078655543265
 31
0.0
  0
LINE
  5
C3B
330
2
100
AcDbEntity
  8
0
100
AcDbLine
 10
780.3728500505624
 20
334.8478655543276
 30
0.0
 11
782.9229228105653
 21
334.8478655543276
 31
0.0
  0
LINE
  5
C3C
330
2
100
AcDbEntity
  8
0
100
AcDbLine
 10
776.4529228105568
 20
337.5678655543315
 30
0.0
 11
783.0928500505672
 21
337.5678655543315
 31
0.0
  0
LINE
  5
C3D
330
2
100
AcDbEntity
  8
0
100
AcDbLine
 10
775.9329240518838
 20
330.7678655543218
 30
0.0
 11
777.972922810559
 21
330.7678655543213
 31
0.0
  0
LINE
  5
C3E
330
2
100
AcDbEntity
  8
0
100
AcDbLine
 10
775.9329240518838
 20
330.7678655543218
 30
0.0
 11
775.3329240518835
 21
329.5678655543197
 31
0.0
  0
LINE
  5
C3F
330
2
100
AcDbEntity
  8
0
100
AcDbLine
 10
783.8564630687508
 20
329.5678655543197
 30
0.0
 11
786.7364643100811
 21
329.5678655543202
 31
0.0
  0
LINE
  5
C40
330
2
100
AcDbEntity
  8
0
100
AcDbLine
 10
784.7493954302265
 20
332.690492752712
 30
0.0
 11
786.7364643100811
 21
329.5678655543202
 31
0.0
  0
LINE
  5
C41
330
2
100
AcDbEntity
  8
0
100
AcDbLine
 10
777.972922810559
 20
329.5678655543197
 30
0.0
 11
780.3728500505624
 21
329.5678655543192
 31
0.0
  0
LINE
  5
C42
330
2
100
AcDbEntity
  8
0
100
AcDbLine
 10
777.2129240518864
 20
333.3278655543244
 30
0.0
 11
777.972922810559
 21
333.3278655543249
 31
0.0
  0
LINE
  5
C43
330
2
100
AcDbEntity
  8
0
100
AcDbLine
 10
777.972922810559
 20
330.7678655543213
 30
0.0
 11
777.972922810559
 21
329.5678655543197
 31
0.0
  0
ARC
  5
C44
330
2
100
AcDbEntity
  8
0
100
AcDbCircle
 10
783.0928500505672
 20
334.8478655543272
 30
0.0
 40
2.720000000003957
100
AcDbArc
 50
307.5189678668049
 51
90.0
  0
LINE
  5
C45
330
2
100
AcDbEntity
  8
0
100
AcDbLine
 10
780.7129228105625
 20
334.5078655543265
 30
0.0
 11
783.8564630687508
 21
329.5678655543197
 31
0.0
  0
LINE
  5
C46
330
2
100
AcDbEntity
  8
0
100
AcDbLine
 10
777.972922810559
 20
334.8478630716708
 30
0.0
 11
777.2129240518864
 21
333.3278655543244
 31
0.0
  0
LINE
  5
C47
330
2
100
AcDbEntity
  8
0
100
AcDbLine
 10
777.972922810559
 20
334.8478630716708
 30
0.0
 11
777.972922810559
 21
333.3278655543249
 31
0.0
  0
LINE
  5
C48
330
2
100
AcDbEntity
  8
0
100
AcDbLine
 10
780.3728500505624
 20
334.8478655543276
 30
0.0
 11
780.3728500505624
 21
329.5678655543192
 31
0.0
  0
CIRCLE
  5
C49
330
2
100
AcDbEntity
  8
HOJO
100
AcDbCircle
 10
836.1632360552414
 20
328.4993230617538
 30
0.0
 40
5.0
  0
CIRCLE
  5
C4A
330
2
100
AcDbEntity
  8
0
100
AcDbCircle
 10
836.1632360552414
 20
328.4993230617538
 30
0.0
 40
4.0
  0
CIRCLE
  5
C4B
330
2
100
AcDbEntity
  8
HOJO
100
AcDbCircle
 10
836.1632360552414
 20
441.6364080516011
 30
0.0
 40
5.0
  0
CIRCLE
  5
C4C
330
2
100
AcDbEntity
  8
0
100
AcDbCircle
 10
836.1632360552414
 20
441.6364080516011
 30
0.0
 40
4.0
  0
ARC
  5
C4D
330
2
100
AcDbEntity
  8
0
100
AcDbCircle
 10
886.5946935603153
 20
330.5678655566773
 30
0.0
 40
5.0
100
AcDbArc
 50
0.0
 51
90.0
  0
ARC
  5
C4E
330
2
100
AcDbEntity
  8
0
100
AcDbCircle
 10
850.0946935603172
 20
391.0678655566775
 30
0.0
 40
3.0
100
AcDbArc
 50
180.0
 51
270.0
  0
ARC
  5
C4F
330
2
100
AcDbEntity
  8
0
100
AcDbCircle
 10
850.0946935603172
 20
379.0678655566771
 30
0.0
 40
3.0
100
AcDbArc
 50
90.0
 51
180.0
  0
LINE
  5
C50
330
2
100
AcDbEntity
  8
0
100
AcDbLine
 10
893.5946935603153
 20
325.0678655566773
 30
0.0
 11
907.5946935603218
 21
325.0678655566772
 31
0.0
  0
LINE
  5
C51
330
2
100
AcDbEntity
  8
0
100
AcDbLine
 10
893.5946935603153
 20
445.0678655566771
 30
0.0
 11
907.5946935603218
 21
445.0678655566769
 31
0.0
  0
LINE
  5
C52
330
2
100
AcDbEntity
  8
0
100
AcDbLine
 10
907.5946935603218
 20
445.5678655566773
 30
0.0
 11
907.5946935603218
 21
324.567865556677
 31
0.0
  0
LINE
  5
C53
330
2
100
AcDbEntity
  8
0
100
AcDbLine
 10
873.0946935603153
 20
351.0678655566775
 30
0.0
 11
871.0946935603153
 21
351.0678655566775
 31
0.0
  0
ARC
  5
C54
330
2
100
AcDbEntity
  8
0
100
AcDbCircle
 10
873.0946935603153
 20
343.0678655566775
 30
0.0
 40
8.0
100
AcDbArc
 50
0.0
 51
90.0
  0
ARC
  5
C55
330
2
100
AcDbEntity
  8
0
100
AcDbCircle
 10
878.8641278225608
 20
434.5074543141449
 30
0.0
 40
3.0
100
AcDbArc
 50
259.9999999999948
 51
330.6639232880123
  0
ARC
  5
C56
330
2
100
AcDbEntity
  8
0
100
AcDbCircle
 10
878.8641278225608
 20
335.6282767992102
 30
0.0
 40
3.0
100
AcDbArc
 50
29.33607671198765
 51
99.99999999995232
  0
ARC
  5
C57
330
2
100
AcDbEntity
  8
0
100
AcDbCircle
 10
850.0946935603108
 20
330.5554493190566
 30
0.0
 40
3.0
100
AcDbArc
 50
100.0000000000051
 51
180.000000000013
  0
LINE
  5
C58
330
2
100
AcDbEntity
  8
0
100
AcDbLine
 10
873.0946935603153
 20
419.0678655566776
 30
0.0
 11
871.0946935603162
 21
419.0678655566776
 31
0.0
  0
ARC
  5
C59
330
2
100
AcDbEntity
  8
0
100
AcDbCircle
 10
873.0946935603153
 20
427.0678655566776
 30
0.0
 40
8.0
100
AcDbArc
 50
270.0
 51
0.0
  0
LINE
  5
C5A
330
2
100
AcDbEntity
  8
0
100
AcDbLine
 10
878.3431832895614
 20
338.5827000582469
 30
0.0
 11
849.5737490273096
 21
333.5098725780933
 31
0.0
  0
LINE
  5
C5B
330
2
100
AcDbEntity
  8
0
100
AcDbLine
 10
878.3431832895596
 20
431.5530310551085
 30
0.0
 11
849.5737490272761
 21
436.625858535268
 31
0.0
  0
ARC
  5
C5C
330
2
100
AcDbEntity
  8
0
100
AcDbCircle
 10
850.0946935602771
 20
439.5802817943044
 30
0.0
 40
3.0
100
AcDbArc
 50
180.000000000013
 51
259.9999999999948
  0
LINE
  5
C5D
330
2
100
AcDbEntity
  8
0
100
AcDbLine
 10
873.0946935603153
 20
419.0678655566776
 30
0.0
 11
871.0946935603162
 21
419.0678655566777
 31
0.0
  0
LINE
  5
C5E
330
2
100
AcDbEntity
  8
0
100
AcDbLine
 10
868.0946935603198
 20
416.067865556678
 30
0.0
 11
868.094693560319
 21
391.0678655566771
 31
0.0
  0
ARC
  5
C5F
330
2
100
AcDbEntity
  8
0
100
AcDbCircle
 10
865.094693560319
 20
391.0678655566773
 30
0.0
 40
3.0
100
AcDbArc
 50
270.0
 51
359.9999999999869
  0
LINE
  5
C60
330
2
100
AcDbEntity
  8
0
100
AcDbLine
 10
868.0946935603154
 20
379.0678655566771
 30
0.0
 11
868.0946935603154
 21
354.0678655566775
 31
0.0
  0
ARC
  5
C61
330
2
100
AcDbEntity
  8
0
100
AcDbCircle
 10
865.0946935603153
 20
379.0678655566771
 30
0.0
 40
3.0
100
AcDbArc
 50
359.9999999999869
 51
90.0
  0
ARC
  5
C62
330
2
100
AcDbEntity
  8
0
100
AcDbCircle
 10
871.0946935603153
 20
354.0678655566773
 30
0.0
 40
3.0
100
AcDbArc
 50
179.9999999999869
 51
270.0
  0
ARC
  5
C63
330
2
100
AcDbEntity
  8
0
100
AcDbCircle
 10
865.1786137772162
 20
353.0678655566771
 30
0.0
 40
3.0
100
AcDbArc
 50
9.594068226868955
 51
90.0
  0
ARC
  5
C64
330
2
100
AcDbEntity
  8
0
100
AcDbCircle
 10
871.0946935603162
 20
416.0678655566778
 30
0.0
 40
3.0
100
AcDbArc
 50
90.0
 51
179.9999999999869
  0
ARC
  5
C65
330
2
100
AcDbEntity
  8
0
100
AcDbCircle
 10
865.1786137772162
 20
417.0678655566771
 30
0.0
 40
3.0
100
AcDbArc
 50
270.0
 51
350.4059317731516
  0
LINE
  5
C66
330
2
100
AcDbEntity
  8
0
100
AcDbLine
 10
865.1786137772162
 20
356.0678655566771
 30
0.0
 11
850.0946935603117
 21
356.0678655566773
 31
0.0
  0
LINE
  5
C67
330
2
100
AcDbEntity
  8
0
100
AcDbLine
 10
865.1786137772162
 20
414.0678655566771
 30
0.0
 11
850.0946935603163
 21
414.0678655566771
 31
0.0
  0
ARC
  5
C68
330
2
100
AcDbEntity
  8
0
100
AcDbCircle
 10
850.0946935603163
 20
417.0678655566771
 30
0.0
 40
3.0
100
AcDbArc
 50
180.0
 51
270.0
  0
ARC
  5
C69
330
2
100
AcDbEntity
  8
0
100
AcDbCircle
 10
779.5946935603171
 20
112.5678655566773
 30
0.0
 40
340.0
100
AcDbArc
 50
85.85748119726867
 51
94.14251880273132
  0
ARC
  5
C6A
330
2
100
AcDbEntity
  8
0
100
AcDbCircle
 10
722.0946935603181
 20
442.5678655566773
 30
0.0
 40
10.0
100
AcDbArc
 50
90.0
 51
180.0
  0
LINE
  5
C6B
330
2
100
AcDbEntity
  8
0
100
AcDbLine
 10
722.0946935603181
 20
452.5678655566773
 30
0.0
 11
732.094693560318
 21
452.5678655566773
 31
0.0
  0
ARC
  5
C6C
330
2
100
AcDbEntity
  8
0
100
AcDbCircle
 10
732.094693560318
 20
444.5678655566773
 30
0.0
 40
8.0
100
AcDbArc
 50
81.63298947741271
 51
90.0
  0
ARC
  5
C6D
330
2
100
AcDbEntity
  8
0
100
AcDbCircle
 10
837.0946935603171
 20
442.5678655566773
 30
0.0
 40
10.0
100
AcDbArc
 50
0.0
 51
90.0
  0
ARC
  5
C6E
330
2
100
AcDbEntity
  8
0
100
AcDbCircle
 10
747.8101414193945
 20
551.4183437895272
 30
0.0
 40
100.0
100
AcDbArc
 50
261.6329894774127
 51
274.1425188027313
  0
LINE
  5
C6F
330
2
100
AcDbEntity
  8
0
100
AcDbLine
 10
712.0946935603171
 20
442.5678655566771
 30
0.0
 11
712.0946935603171
 21
432.5678655566771
 31
0.0
  0
ARC
  5
C70
330
2
100
AcDbEntity
  8
0
100
AcDbCircle
 10
720.0946935603171
 20
432.5678655566771
 30
0.0
 40
8.0
100
AcDbArc
 50
180.0
 51
188.3670105225864
  0
ARC
  5
C71
330
2
100
AcDbEntity
  8
0
100
AcDbCircle
 10
613.2442153274671
 20
416.8524176976006
 30
0.0
 40
100.0
100
AcDbArc
 50
355.857481197267
 51
8.36701052258649
  0
ARC
  5
C72
330
2
100
AcDbEntity
  8
0
100
AcDbCircle
 10
827.0946935603172
 20
444.5678655566773
 30
0.0
 40
8.0
100
AcDbArc
 50
90.0
 51
98.3670105225873
  0
ARC
  5
C73
330
2
100
AcDbEntity
  8
0
100
AcDbCircle
 10
811.3792457012406
 20
551.4183437895272
 30
0.0
 40
100.0
100
AcDbArc
 50
265.8574811972686
 51
278.3670105225872
  0
LINE
  5
C74
330
2
100
AcDbEntity
  8
0
100
AcDbLine
 10
837.0946935603171
 20
452.5678655566773
 30
0.0
 11
827.0946935603172
 21
452.5678655566773
 31
0.0
  0
ARC
  5
C75
330
2
100
AcDbEntity
  8
0
100
AcDbCircle
 10
722.0946935603181
 20
327.5678655566773
 30
0.0
 40
10.0
100
AcDbArc
 50
180.0
 51
270.0
  0
LINE
  5
C76
330
2
100
AcDbEntity
  8
0
100
AcDbLine
 10
722.0946935603181
 20
317.5678655566773
 30
0.0
 11
732.094693560318
 21
317.5678655566773
 31
0.0
  0
ARC
  5
C77
330
2
100
AcDbEntity
  8
0
100
AcDbCircle
 10
732.094693560318
 20
325.5678655566773
 30
0.0
 40
8.0
100
AcDbArc
 50
270.0
 51
278.3670105225872
  0
ARC
  5
C78
330
2
100
AcDbEntity
  8
0
100
AcDbCircle
 10
837.0946935603171
 20
327.5678655566773
 30
0.0
 40
10.0
100
AcDbArc
 50
270.0
 51
0.0
  0
ARC
  5
C79
330
2
100
AcDbEntity
  8
0
100
AcDbCircle
 10
747.8101414193945
 20
218.7173873238275
 30
0.0
 40
100.0
100
AcDbArc
 50
85.85748119726867
 51
98.3670105225873
  0
LINE
  5
C7A
330
2
100
AcDbEntity
  8
0
100
AcDbLine
 10
712.0946935603171
 20
327.5678655566776
 30
0.0
 11
712.0946935603171
 21
337.5678655566776
 31
0.0
  0
ARC
  5
C7B
330
2
100
AcDbEntity
  8
0
100
AcDbCircle
 10
720.0946935603171
 20
337.5678655566776
 30
0.0
 40
8.0
100
AcDbArc
 50
171.6329894774135
 51
180.0
  0
ARC
  5
C7C
330
2
100
AcDbEntity
  8
0
100
AcDbCircle
 10
613.2442153274671
 20
353.283313415754
 30
0.0
 40
100.0
100
AcDbArc
 50
351.6329894773889
 51
4.142518802733023
  0
ARC
  5
C7D
330
2
100
AcDbEntity
  8
0
100
AcDbCircle
 10
827.0946935603172
 20
325.5678655566773
 30
0.0
 40
8.0
100
AcDbArc
 50
261.6329894774127
 51
270.0
  0
ARC
  5
C7E
330
2
100
AcDbEntity
  8
0
100
AcDbCircle
 10
811.3792457012406
 20
218.7173873238275
 30
0.0
 40
100.0
100
AcDbArc
 50
81.63298947741271
 51
94.14251880273132
  0
LINE
  5
C7F
330
2
100
AcDbEntity
  8
0
100
AcDbLine
 10
847.0946935603171
 20
327.5678655566776
 30
0.0
 11
847.0946935603171
 21
442.5678655566773
 31
0.0
  0
LINE
  5
C80
330
2
100
AcDbEntity
  8
0
100
AcDbLine
 10
837.0946935603171
 20
317.5678655566773
 30
0.0
 11
827.0946935603172
 21
317.5678655566773
 31
0.0
  0
ARC
  5
C81
330
2
100
AcDbEntity
  8
0
100
AcDbCircle
 10
779.5946935603171
 20
657.5678655566774
 30
0.0
 40
340.0
100
AcDbArc
 50
265.8574811972686
 51
274.1425188027313
  0
ARC
  5
C82
330
2
100
AcDbEntity
  8
0
100
AcDbCircle
 10
1052.094693560317
 20
385.0678655566773
 30
0.0
 40
340.0
100
AcDbArc
 50
175.85748119728
 51
184.1425188027068
  0
CIRCLE
  5
C83
330
2
100
AcDbEntity
  8
0
100
AcDbCircle
 10
779.5946935603167
 20
385.0678655566773
 30
0.0
 40
35.99999999999954
  0
CIRCLE
  5
C84
330
2
100
AcDbEntity
  8
0
100
AcDbCircle
 10
779.5946935603167
 20
385.0678655566773
 30
0.0
 40
36.57735026918968
  0
CIRCLE
  5
C85
330
2
100
AcDbEntity
  8
0
100
AcDbCircle
 10
779.5946935603167
 20
385.0678655566773
 30
0.0
 40
43.49999999999954
  0
CIRCLE
  5
C86
330
2
100
AcDbEntity
  8
0
100
AcDbCircle
 10
779.5946935603167
 20
385.0678655566773
 30
0.0
 40
60.00000000000046
  0
LINE
  5
C87
330
2
100
AcDbEntity
  8
CENTER
100
AcDbLine
 10
836.1632360552418
 20
452.5678655566773
 30
0.0
 11
836.1632360552418
 21
430.7049505465199
 31
0.0
  0
LINE
  5
C88
330
2
100
AcDbEntity
  8
CENTER
100
AcDbLine
 10
825.2317785501615
 20
441.6364080515986
 30
0.0
 11
847.0946935603185
 21
441.6364080515986
 31
0.0
  0
LINE
  5
C89
330
2
100
AcDbEntity
  8
CENTER
100
AcDbLine
 10
723.0261510653924
 20
452.5678655566773
 30
0.0
 11
723.026151065392
 21
430.7049505465215
 31
0.0
  0
LINE
  5
C8A
330
2
100
AcDbEntity
  8
CENTER
100
AcDbLine
 10
733.9576085704736
 20
441.6364080515994
 30
0.0
 11
712.0946935603176
 21
441.6364080515995
 31
0.0
  0
LINE
  5
C8B
330
2
100
AcDbEntity
  8
CENTER
100
AcDbLine
 10
836.1632360552418
 20
317.5678655566773
 30
0.0
 11
836.1632360552418
 21
339.4307805668302
 31
0.0
  0
LINE
  5
C8C
330
2
100
AcDbEntity
  8
CENTER
100
AcDbLine
 10
825.2317785501652
 20
328.4993230617555
 30
0.0
 11
847.0946935603176
 21
328.4993230617553
 31
0.0
  0
LINE
  5
C8D
330
2
100
AcDbEntity
  8
CENTER
100
AcDbLine
 10
723.026151065392
 20
317.5678655566773
 30
0.0
 11
723.026151065392
 21
339.4307805668316
 31
0.0
  0
LINE
  5
C8E
330
2
100
AcDbEntity
  8
CENTER
100
AcDbLine
 10
733.9576085704691
 20
328.499323061755
 30
0.0
 11
712.0946935603149
 21
328.4993230617549
 31
0.0
  0
CIRCLE
  5
C8F
330
2
100
AcDbEntity
  8
CENTER
100
AcDbCircle
 10
779.5946935603167
 20
385.0678655566773
 30
0.0
 40
79.9999999999992
  0
LINE
  5
C90
330
2
100
AcDbEntity
  8
CENTER
100
AcDbLine
 10
716.3982956312331
 20
385.0678655566773
 30
0.0
 11
732.7910914894003
 21
385.0678655566773
 31
0.0
  0
LINE
  5
C91
330
2
100
AcDbEntity
  8
CENTER
100
AcDbLine
 10
851.4875382176704
 20
456.9607102140285
 30
0.0
 11
707.701848902963
 21
313.1750208993261
 31
0.0
  0
LINE
  5
C92
330
2
100
AcDbEntity
  8
CENTER
100
AcDbLine
 10
707.7018489029649
 20
456.9607102140304
 30
0.0
 11
851.4875382176684
 21
313.1750208993242
 31
0.0
  0
LINE
  5
C93
330
2
100
AcDbEntity
  8
0
 48
0.5
100
AcDbLine
 10
712.0990569942129
 20
822.5897734496143
 30
0.0
 11
712.9891975088683
 21
720.5897734496239
 31
0.0
  0
LINE
  5
C94
330
2
100
AcDbEntity
  8
CENTER
100
AcDbLine
 10
779.5946935603167
 20
857.5897734496136
 30
0.0
 11
779.5946935603167
 21
634.5897734496221
 31
0.0
  0
LINE
  5
C95
330
2
100
AcDbEntity
  8
0
100
AcDbLine
 10
827.1077865211015
 20
822.5897734496207
 30
0.0
 11
827.9987933219679
 21
788.5635965013145
 31
0.0
  0
LINE
  5
C96
330
2
100
AcDbEntity
  8
0
100
AcDbLine
 10
719.5946935603158
 20
715.5897734496207
 30
0.0
 11
839.5946935603166
 21
715.5897734496222
 31
0.0
  0
LINE
  5
C97
330
2
100
AcDbEntity
  8
CENTER
100
AcDbLine
 10
702.4041165830315
 20
787.5897734496224
 30
0.0
 11
1002.09469356032
 21
787.5897734496224
 31
0.0
  0
LINE
  5
C98
330
2
100
AcDbEntity
  8
0
100
AcDbLine
 10
846.4794493810689
 20
822.5897734496218
 30
0.0
 11
712.0946935603176
 21
822.5897734496143
 31
0.0
  0
LINE
  5
C99
330
2
100
AcDbEntity
  8
0
100
AcDbLine
 10
879.7984904426591
 20
787.5897734496224
 30
0.0
 11
881.0181921981545
 21
834.1683042945453
 31
0.0
  0
ARC
  5
C9A
330
2
100
AcDbEntity
  8
0
100
AcDbCircle
 10
876.9545775945996
 20
793.5897734496229
 30
0.0
 40
3.0
100
AcDbArc
 50
270.0
 51
358.5000000000103
  0
LINE
  5
C9B
330
2
100
AcDbEntity
  8
0
100
AcDbLine
 10
872.8955568086218
 20
821.5897734496225
 30
0.0
 11
871.0171641730809
 21
821.5897734496222
 31
0.0
  0
ARC
  5
C9C
330
2
100
AcDbEntity
  8
0
100
AcDbCircle
 10
872.8955568086218
 20
829.5897734496225
 30
0.0
 40
8.0
100
AcDbArc
 50
270.0
 51
358.5000000000103
  0
LINE
  5
C9D
330
2
100
AcDbEntity
  8
0
100
AcDbLine
 10
886.4489570292359
 20
738.0897734496222
 30
0.0
 11
884.0171421730817
 21
738.0897734496228
 31
0.0
  0
ARC
  5
C9E
330
2
100
AcDbEntity
  8
0
100
AcDbCircle
 10
886.4489570292342
 20
733.0897734496221
 30
0.0
 40
5.0
100
AcDbArc
 50
1.500000000015752
 51
89.99999999994789
  0
ARC
  5
C9F
330
2
100
AcDbEntity
  8
0
100
AcDbCircle
 10
884.0171421730827
 20
741.0897734496228
 30
0.0
 40
3.0
100
AcDbArc
 50
181.5000000000418
 51
270.0
  0
LINE
  5
CA0
330
2
100
AcDbEntity
  8
0
100
AcDbLine
 10
872.895534808619
 20
753.5897734496221
 30
0.0
 11
871.0171641730809
 21
753.5897734496221
 31
0.0
  0
LINE
  5
CA1
330
2
100
AcDbEntity
  8
0
100
AcDbLine
 10
881.0181701981562
 20
741.0112426046979
 30
0.0
 11
879.798468442607
 21
787.5897734496223
 31
0.0
  0
ARC
  5
CA2
330
2
100
AcDbEntity
  8
0
100
AcDbCircle
 10
872.895534808619
 20
745.5897734496221
 30
0.0
 40
8.0
100
AcDbArc
 50
1.500000000054848
 51
90.0
  0
LINE
  5
CA3
330
2
100
AcDbEntity
  8
0
 48
0.3
100
AcDbLine
 10
893.5430073021604
 20
847.5897734496223
 30
0.0
 11
907.5946935603212
 21
847.5897734496223
 31
0.0
  0
ARC
  5
CA4
330
2
100
AcDbEntity
  8
0
 48
0.5
100
AcDbCircle
 10
893.5430073021604
 20
845.5897734496225
 30
0.0
 40
2.0
100
AcDbArc
 50
90.0
 51
178.4999999999972
  0
LINE
  5
CA5
330
2
100
AcDbEntity
  8
0
100
AcDbLine
 10
891.5436926522104
 20
845.6421273462375
 30
0.0
 11
890.0235382661611
 21
787.5897734496224
 31
0.0
  0
ARC
  5
CA6
330
2
100
AcDbEntity
  8
0
100
AcDbCircle
 10
886.4489570292333
 20
842.0897734496216
 30
0.0
 40
5.0
100
AcDbArc
 50
270.0
 51
358.5000000000103
  0
LINE
  5
CA7
330
2
100
AcDbEntity
  8
0
100
AcDbLine
 10
884.017164173081
 20
837.0897734496216
 30
0.0
 11
886.4489570292333
 21
837.0897734496216
 31
0.0
  0
ARC
  5
CA8
330
2
100
AcDbEntity
  8
0
100
AcDbCircle
 10
884.017164173081
 20
834.0897734496216
 30
0.0
 40
3.0
100
AcDbArc
 50
90.0
 51
178.4999999999972
  0
LINE
  5
CA9
330
2
100
AcDbEntity
  8
0
 48
0.5
100
AcDbLine
 10
846.505858450403
 20
755.6159530561171
 30
0.0
 11
846.4449226865124
 21
748.6334061271133
 31
0.0
  0
ARC
  5
CAA
330
2
100
AcDbEntity
  8
0
 48
0.5
100
AcDbCircle
 10
849.5057442195955
 20
755.5897734496227
 30
0.0
 40
3.0
100
AcDbArc
 50
90.0
 51
179.5000000000084
  0
ARC
  5
CAB
330
2
100
AcDbEntity
  8
0
 48
0.5
100
AcDbCircle
 10
849.7326427821496
 20
781.5897734496225
 30
0.0
 40
3.0
100
AcDbArc
 50
90.0
 51
179.5000000000084
  0
LINE
  5
CAC
330
2
100
AcDbEntity
  8
0
 48
0.5
100
AcDbLine
 10
846.7848897537376
 20
787.5897734496227
 30
0.0
 11
846.2001896117651
 21
720.5897734496293
 31
0.0
  0
LINE
  5
CAD
330
2
100
AcDbEntity
  8
0
 48
0.5
100
AcDbLine
 10
846.7848897537495
 20
787.5897734496224
 30
0.0
 11
846.4794493810693
 21
822.5897734496218
 31
0.0
  0
LINE
  5
CAE
330
2
100
AcDbEntity
  8
0
 48
0.3
100
AcDbLine
 10
893.5430073021604
 20
727.5897734496226
 30
0.0
 11
907.5946935603212
 21
727.5897734496225
 31
0.0
  0
ARC
  5
CAF
330
2
100
AcDbEntity
  8
0
 48
0.5
100
AcDbCircle
 10
893.5430073021604
 20
729.5897734496223
 30
0.0
 40
2.0
100
AcDbArc
 50
181.5000000000157
 51
270.0
  0
LINE
  5
CB0
330
2
100
AcDbEntity
  8
0
100
AcDbLine
 10
891.5436926522104
 20
729.5374195530074
 30
0.0
 11
890.0235382661746
 21
787.5897734496224
 31
0.0
  0
LINE
  5
CB1
330
2
100
AcDbEntity
  8
0
100
AcDbLine
 10
907.5946935603168
 20
727.5897734496225
 30
0.0
 11
907.5946935603168
 21
847.5897734496225
 31
0.0
  0
LINE
  5
CB2
330
2
100
AcDbEntity
  8
0
100
AcDbLine
 10
712.9891975088683
 20
720.5897734496239
 30
0.0
 11
846.2001896117651
 21
720.5897734496296
 31
0.0
  0
LINE
  5
CB3
330
2
100
AcDbEntity
  8
0
100
AcDbLine
 10
849.7326427821587
 20
790.5897734496227
 30
0.0
 11
876.9545775945996
 21
790.5897734496234
 31
0.0
  0
ARC
  5
CB4
330
2
100
AcDbEntity
  8
0
100
AcDbCircle
 10
864.3604593789085
 20
793.5897734496229
 30
0.0
 40
3.0
100
AcDbArc
 50
270.0
 51
358.4999999999972
  0
ARC
  5
CB5
330
2
100
AcDbEntity
  8
0
100
AcDbCircle
 10
849.7326427821587
 20
793.5897734496227
 30
0.0
 40
3.0
100
AcDbArc
 50
180.5000000000045
 51
270.0
  0
LINE
  5
CB6
330
2
100
AcDbEntity
  8
0
100
AcDbLine
 10
849.7326427821496
 20
784.5897734496225
 30
0.0
 11
876.9545555945549
 21
784.5897734496218
 31
0.0
  0
ARC
  5
CB7
330
2
100
AcDbEntity
  8
0
100
AcDbCircle
 10
876.9545555945549
 20
781.5897734496222
 30
0.0
 40
3.0
100
AcDbArc
 50
1.500000000041816
 51
90.0
  0
LINE
  5
CB8
330
2
100
AcDbEntity
  8
0
100
AcDbLine
 10
828.9984506469433
 20
787.5897734496224
 30
0.0
 11
907.5946935603168
 21
787.5897734496224
 31
0.0
  0
ARC
  5
CB9
330
2
100
AcDbEntity
  8
0
100
AcDbCircle
 10
828.9984506469433
 20
788.5897734496225
 30
0.0
 40
1.0
100
AcDbArc
 50
181.5000000000027
 51
270.0
  0
LINE
  5
CBA
330
2
100
AcDbEntity
  8
0
100
AcDbLine
 10
722.0946935603181
 20
822.5897734496175
 30
0.0
 11
722.0946935603167
 21
722.0897734496239
 31
0.0
  0
LINE
  5
CBB
330
2
100
AcDbEntity
  8
0
100
AcDbLine
 10
867.3594313538339
 20
781.6683042945458
 30
0.0
 11
868.0181921981555
 21
756.5112426046989
 31
0.0
  0
ARC
  5
CBC
330
2
100
AcDbEntity
  8
0
100
AcDbCircle
 10
864.3604593789076
 20
781.5897734496222
 30
0.0
 40
3.0
100
AcDbArc
 50
1.500000000002719
 51
90.0
  0
LINE
  5
CBD
330
2
100
AcDbEntity
  8
0
100
AcDbLine
 10
865.1010843899809
 20
758.5897734496224
 30
0.0
 11
849.5057442195955
 21
758.5897734496227
 31
0.0
  0
ARC
  5
CBE
330
2
100
AcDbEntity
  8
0
100
AcDbCircle
 10
871.0171641730809
 20
756.5897734496225
 30
0.0
 40
3.0
100
AcDbArc
 50
181.5000000000027
 51
270.0
  0
ARC
  5
CBF
330
2
100
AcDbEntity
  8
0
100
AcDbCircle
 10
865.1010843899809
 20
755.5897734496227
 30
0.0
 40
3.0
100
AcDbArc
 50
9.594068226868996
 51
90.0
  0
LINE
  5
CC0
330
2
100
AcDbEntity
  8
0
100
AcDbLine
 10
865.1010843899809
 20
816.589773449623
 30
0.0
 11
849.5057442195991
 21
816.5897734496224
 31
0.0
  0
ARC
  5
CC1
330
2
100
AcDbEntity
  8
0
100
AcDbCircle
 10
849.5057442195991
 20
819.5897734496224
 30
0.0
 40
3.0
100
AcDbArc
 50
180.5000000000045
 51
270.0
  0
ARC
  5
CC2
330
2
100
AcDbEntity
  8
0
100
AcDbCircle
 10
871.0171641730809
 20
818.5897734496229
 30
0.0
 40
3.0
100
AcDbArc
 50
90.0
 51
178.4999999999972
  0
ARC
  5
CC3
330
2
100
AcDbEntity
  8
0
100
AcDbCircle
 10
865.1010843899809
 20
819.5897734496227
 30
0.0
 40
3.0
100
AcDbArc
 50
270.0
 51
350.4059317731516
  0
LINE
  5
CC4
330
2
100
AcDbEntity
  8
0
100
AcDbLine
 10
867.3594313538348
 20
793.5112426046996
 30
0.0
 11
868.0181921981555
 21
818.6683042945457
 31
0.0
  0
LINE
  5
CC5
330
2
100
AcDbEntity
  8
0
100
AcDbLine
 10
732.0946935603176
 20
722.0897734496246
 30
0.0
 11
732.0946935603176
 21
822.5897734496177
 31
0.0
  0
LINE
  5
CC6
330
2
100
AcDbEntity
  8
0
100
AcDbLine
 10
755.0339032696135
 20
722.0897734496255
 30
0.0
 11
755.0339032696131
 21
822.5897734496179
 31
0.0
  0
LINE
  5
CC7
330
2
100
AcDbEntity
  8
0
100
AcDbLine
 10
837.0946935603154
 20
822.5897734496186
 30
0.0
 11
837.0946935603168
 21
722.0897734496239
 31
0.0
  0
LINE
  5
CC8
330
2
100
AcDbEntity
  8
0
100
AcDbLine
 10
827.0946935603157
 20
722.0897734496246
 30
0.0
 11
827.0946935603157
 21
787.5897734496227
 31
0.0
  0
LINE
  5
CC9
330
2
100
AcDbEntity
  8
0
100
AcDbLine
 10
804.1554838510199
 20
722.0897734496255
 30
0.0
 11
804.1554838510212
 21
822.5897734496182
 31
0.0
  0
LINE
  5
CCA
330
2
100
AcDbEntity
  8
0
100
AcDbLine
 10
907.5946935603212
 20
727.5897734496225
 30
0.0
 11
907.5946935603212
 21
847.5897734496225
 31
0.0
  0
LINE
  5
CCB
330
2
100
AcDbEntity
  8
0
 48
0.5
100
AcDbLine
 10
719.5946935603167
 20
720.5897734496221
 30
0.0
 11
719.5946935603158
 21
715.5897734496207
 31
0.0
  0
LINE
  5
CCC
330
2
100
AcDbEntity
  8
0
 48
0.5
100
AcDbLine
 10
839.5946935603166
 20
720.5897734496221
 30
0.0
 11
839.5946935603166
 21
715.5897734496222
 31
0.0
  0
ARC
  5
CCD
330
2
100
AcDbEntity
  8
0
100
AcDbCircle
 10
879.2411037425342
 20
737.4580442595653
 30
0.0
 40
3.0
100
AcDbArc
 50
37.24958326181089
 51
114.9999999999782
  0
LINE
  5
CCE
330
2
100
AcDbEntity
  8
0
100
AcDbLine
 10
877.9732489573133
 20
740.1769676206753
 30
0.0
 11
847.9575100243453
 21
726.180398691051
 31
0.0
  0
ARC
  5
CCF
330
2
100
AcDbEntity
  8
0
100
AcDbCircle
 10
849.2253648095672
 20
723.461475329941
 30
0.0
 40
3.0
100
AcDbArc
 50
114.9999999999782
 51
179.5000000000084
  0
ARC
  5
CD0
330
2
100
AcDbEntity
  8
0
100
AcDbCircle
 10
878.2096439054173
 20
835.5973238934454
 30
0.0
 40
3.0
100
AcDbArc
 50
294.9999999999781
 51
345.4480092603792
  0
LINE
  5
CD1
330
2
100
AcDbEntity
  8
0
100
AcDbLine
 10
879.4774986906393
 20
832.878400532336
 30
0.0
 11
849.3417905265904
 21
818.8258890315141
 31
0.0
  0
ARC
  5
CD2
330
2
100
AcDbEntity
  8
0
100
AcDbCircle
 10
848.4965540031087
 20
820.6385046055874
 30
0.0
 40
2.0
100
AcDbArc
 50
180.5000000024668
 51
294.9999999999781
  0
LINE
  5
CD3
330
2
100
AcDbEntity
  8
0
100
AcDbLine
 10
735.8032773166467
 20
703.2424770942882
 30
0.0
 11
734.7917808050777
 21
708.9789588709561
 31
0.0
  0
LINE
  5
CD4
330
2
100
AcDbEntity
  8
0
100
AcDbLine
 10
823.3861098039866
 20
703.2424770942882
 30
0.0
 11
824.3976063155557
 21
708.9789588709578
 31
0.0
  0
ARC
  5
CD5
330
2
100
AcDbEntity
  8
0
100
AcDbCircle
 10
821.4164942979621
 20
703.5897734496221
 30
0.0
 40
2.0
100
AcDbArc
 50
270.0
 51
350.0000000000006
  0
LINE
  5
CD6
330
2
100
AcDbEntity
  8
0
100
AcDbLine
 10
737.7728928226713
 20
701.5897734496221
 30
0.0
 11
821.4164942979621
 21
701.5897734496221
 31
0.0
  0
ARC
  5
CD7
330
2
100
AcDbEntity
  8
0
100
AcDbCircle
 10
737.7728928226713
 20
703.5897734496221
 30
0.0
 40
2.0
100
AcDbArc
 50
189.9999999999993
 51
270.0
  0
ARC
  5
CD8
330
2
100
AcDbEntity
  8
0
100
AcDbCircle
 10
726.9133187809805
 20
707.5897734496207
 30
0.0
 40
8.0
100
AcDbArc
 50
9.999999999999365
 51
90.0
  0
ARC
  5
CD9
330
2
100
AcDbEntity
  8
0
100
AcDbCircle
 10
832.2760683396534
 20
707.5897734496223
 30
0.0
 40
8.0
100
AcDbArc
 50
90.0
 51
170.0000000000006
  0
LINE
  5
CDA
330
2
100
AcDbEntity
  8
CENTER
100
AcDbLine
 10
1285.882594473829
 20
462.2584425339625
 30
0.0
 11
1285.882594473829
 21
307.877288579392
 31
0.0
  0
LINE
  5
CDB
330
2
100
AcDbEntity
  8
CENTER
100
AcDbLine
 10
1356.382244496299
 20
385.0678655566772
 30
0.0
 11
1132.882594473829
 21
385.0678655566772
 31
0.0
  0
LINE
  5
CEA
330
2
100
AcDbEntity
  8
0
 48
0.5
100
AcDbLine
 10
1320.882594473821
 20
452.563502122781
 30
0.0
 11
1218.882594473829
 21
451.6733616081257
 31
0.0
  0
LINE
  5
CEB
330
2
100
AcDbEntity
  8
0
100
AcDbLine
 10
1213.882594473827
 20
445.0678655566782
 30
0.0
 11
1213.882594473829
 21
325.0678655566773
 31
0.0
  0
LINE
  5
CEC
330
2
100
AcDbEntity
  8
0
 48
0.5
100
AcDbLine
 10
1320.882594473821
 20
317.5722289905735
 30
0.0
 11
1218.882594473829
 21
318.4623695052289
 31
0.0
  0
LINE
  5
CED
330
2
100
AcDbEntity
  8
0
100
AcDbLine
 10
1320.882594473821
 20
452.5678655566763
 30
0.0
 11
1320.882594473821
 21
450.0678655566772
 31
0.0
  0
LINE
  5
CEE
330
2
100
AcDbEntity
  8
0
100
AcDbLine
 10
1320.882594473821
 20
320.0678655566772
 30
0.0
 11
1320.882594473821
 21
317.5678655566782
 31
0.0
  0
LINE
  5
CEF
330
2
100
AcDbEntity
  8
0
 48
0.5
100
AcDbLine
 10
1285.882594473829
 20
452.2580617501064
 30
0.0
 11
1320.882594473821
 21
451.952621377429
 31
0.0
  0
LINE
  5
CF0
330
2
100
AcDbEntity
  8
0
 48
0.5
100
AcDbLine
 10
1285.882594473829
 20
317.8776693632473
 30
0.0
 11
1320.882594473821
 21
318.1831097359248
 31
0.0
  0
LINE
  5
CFD
330
2
100
AcDbEntity
  8
0
 48
0.5
100
AcDbLine
 10
1218.882594473829
 20
445.0678655566773
 30
0.0
 11
1213.882594473827
 21
445.0678655566782
 31
0.0
  0
LINE
  5
CFE
330
2
100
AcDbEntity
  8
0
 48
0.5
100
AcDbLine
 10
1218.882594473829
 20
325.0678655566773
 30
0.0
 11
1213.882594473829
 21
325.0678655566773
 31
0.0
  0
LINE
  5
CFF
330
2
100
AcDbEntity
  8
0
100
AcDbLine
 10
1218.882594473829
 20
318.4623695052288
 30
0.0
 11
1218.882594473829
 21
451.6733616081256
 31
0.0
  0
LINE
  5
D0A
330
2
100
AcDbEntity
  8
CENTER
100
AcDbLine
 10
-32.19406526516673
 20
385.0678655566773
 30
0.0
 11
267.8059347348369
 21
385.0678655566773
 31
0.0
  0
LINE
  5
D0B
330
2
100
AcDbEntity
  8
0
100
AcDbLine
 10
96.80593473483828
 20
419.0678655566773
 30
0.0
 11
98.80593473483465
 21
419.0678655566773
 31
0.0
  0
LINE
  5
D0C
330
2
100
AcDbEntity
  8
0
100
AcDbLine
 10
83.30593473483828
 20
335.5678655566773
 30
0.0
 11
85.80593473483828
 21
335.5678655566773
 31
0.0
  0
LINE
  5
D0D
330
2
100
AcDbEntity
  8
0
100
AcDbLine
 10
83.30593473483828
 20
434.5678655566772
 30
0.0
 11
85.80593473483828
 21
434.5678655566772
 31
0.0
  0
ARC
  5
D0E
330
2
100
AcDbEntity
  8
0
100
AcDbCircle
 10
83.30593473483828
 20
439.5678655566773
 30
0.0
 40
5.0
100
AcDbArc
 50
180.0
 51
270.0
  0
LINE
  5
D0F
330
2
100
AcDbEntity
  8
0
100
AcDbLine
 10
88.80593473483827
 20
338.5678655566773
 30
0.0
 11
88.80593473483827
 21
431.5678655566773
 31
0.0
  0
ARC
  5
D10
330
2
100
AcDbEntity
  8
0
100
AcDbCircle
 10
96.80593473483828
 20
427.0678655566773
 30
0.0
 40
8.0
100
AcDbArc
 50
180.0
 51
270.0
  0
ARC
  5
D11
330
2
100
AcDbEntity
  8
0
100
AcDbCircle
 10
85.80593473483828
 20
338.5678655566773
 30
0.0
 40
3.0
100
AcDbArc
 50
270.0
 51
0.0
  0
ARC
  5
D12
330
2
100
AcDbEntity
  8
0
100
AcDbCircle
 10
91.03650047259293
 20
335.6282767992099
 30
0.0
 40
3.0
100
AcDbArc
 50
79.99999999999484
 51
150.6639232879818
  0
ARC
  5
D13
330
2
100
AcDbEntity
  8
0
100
AcDbCircle
 10
85.80593473483828
 20
431.5678655566773
 30
0.0
 40
3.0
100
AcDbArc
 50
0.0
 51
90.0
  0
ARC
  5
D14
330
2
100
AcDbEntity
  8
0
100
AcDbCircle
 10
91.03650047259293
 20
434.5074543141446
 30
0.0
 40
3.0
100
AcDbArc
 50
209.3360767120179
 51
279.9999999999522
  0
LINE
  5
D15
330
2
100
AcDbEntity
  8
0
100
AcDbLine
 10
78.30593473483827
 20
326.5678655566773
 30
0.0
 11
78.30593473483827
 21
443.5678655566773
 31
0.0
  0
ARC
  5
D16
330
2
100
AcDbEntity
  8
0
100
AcDbCircle
 10
76.30593473483827
 20
443.5678655566773
 30
0.0
 40
2.0
100
AcDbArc
 50
0.0
 51
90.0
  0
ARC
  5
D17
330
2
100
AcDbEntity
  8
0
100
AcDbCircle
 10
76.30593473483827
 20
327.0678655566773
 30
0.0
 40
2.0
100
AcDbArc
 50
270.0
 51
0.0
  0
ARC
  5
D18
330
2
100
AcDbEntity
  8
0
100
AcDbCircle
 10
76.30593473483827
 20
443.0678655566772
 30
0.0
 40
2.0
100
AcDbArc
 50
0.0
 51
90.0
  0
LINE
  5
D19
330
2
100
AcDbEntity
  8
CENTER
100
AcDbLine
 10
190.3059347348364
 20
307.5678655566773
 30
0.0
 11
190.3059347348373
 21
462.5678655566773
 31
0.0
  0
ARC
  5
D1A
330
2
100
AcDbEntity
  8
0
100
AcDbCircle
 10
83.30593473483828
 20
330.5678655566773
 30
0.0
 40
5.0
100
AcDbArc
 50
90.0
 51
180.0
  0
LINE
  5
D1B
330
2
100
AcDbEntity
  8
0
100
AcDbLine
 10
96.80593473483828
 20
351.0678655566771
 30
0.0
 11
98.80593473483465
 21
351.0678655566771
 31
0.0
  0
ARC
  5
D1C
330
2
100
AcDbEntity
  8
0
100
AcDbCircle
 10
96.80593473483828
 20
343.0678655566771
 30
0.0
 40
8.0
100
AcDbArc
 50
90.0
 51
180.0
  0
LINE
  5
D1D
330
2
100
AcDbEntity
  8
0
100
AcDbLine
 10
76.30593473483827
 20
325.0678655566773
 30
0.0
 11
62.30593473483191
 21
325.0678655566771
 31
0.0
  0
LINE
  5
D1E
330
2
100
AcDbEntity
  8
0
100
AcDbLine
 10
76.30593473483827
 20
445.067865556677
 30
0.0
 11
62.30593473483191
 21
445.0678655566768
 31
0.0
  0
LINE
  5
D1F
330
2
100
AcDbEntity
  8
0
100
AcDbLine
 10
62.30593473483191
 20
445.5678655566773
 30
0.0
 11
62.30593473483191
 21
324.5678655566773
 31
0.0
  0
LINE
  5
D20
330
2
100
AcDbEntity
  8
0
100
AcDbLine
 10
91.55744500559217
 20
431.5530310551079
 30
0.0
 11
120.6366830744193
 21
436.6804853050868
 31
0.0
  0
LINE
  5
D21
330
2
100
AcDbEntity
  8
0
100
AcDbLine
 10
91.55744500559398
 20
338.5827000582466
 30
0.0
 11
120.6366830744139
 21
333.4552458082685
 31
0.0
  0
ARC
  5
D22
330
2
100
AcDbEntity
  8
0
100
AcDbCircle
 10
120.1157385414128
 20
330.5008225492317
 30
0.0
 40
3.0
100
AcDbArc
 50
0.0
 51
79.99999999999484
  0
ARC
  5
D23
330
2
100
AcDbEntity
  8
0
100
AcDbCircle
 10
120.1157385414155
 20
417.0678655566772
 30
0.0
 40
3.0
100
AcDbArc
 50
270.0
 51
0.0
  0
ARC
  5
D24
330
2
100
AcDbEntity
  8
0
100
AcDbCircle
 10
120.1157385414183
 20
439.6349085641236
 30
0.0
 40
3.0
100
AcDbArc
 50
280.0000000000051
 51
0.0
  0
LINE
  5
D25
330
2
100
AcDbEntity
  8
0
100
AcDbLine
 10
96.80593473483828
 20
419.0678655566773
 30
0.0
 11
98.80593473483465
 21
419.0678655566773
 31
0.0
  0
ARC
  5
D26
330
2
100
AcDbEntity
  8
0
100
AcDbCircle
 10
98.80593473483465
 20
416.0678655566773
 30
0.0
 40
3.0
100
AcDbArc
 50
0.0
 51
90.0
  0
ARC
  5
D27
330
2
100
AcDbEntity
  8
0
100
AcDbCircle
 10
104.7220145179337
 20
417.0678655566775
 30
0.0
 40
3.0
100
AcDbArc
 50
189.5940682268688
 51
270.0
  0
LINE
  5
D28
330
2
100
AcDbEntity
  8
0
100
AcDbLine
 10
96.80593473483828
 20
351.0678655566771
 30
0.0
 11
98.80593473483465
 21
351.0678655566773
 31
0.0
  0
LINE
  5
D29
330
2
100
AcDbEntity
  8
0
100
AcDbLine
 10
101.8059347348346
 20
416.0678655566773
 30
0.0
 11
101.8059347348346
 21
388.0678655566752
 31
0.0
  0
LINE
  5
D2A
330
2
100
AcDbEntity
  8
0
100
AcDbLine
 10
101.8059347348346
 20
382.0678655566748
 30
0.0
 11
101.8059347348346
 21
354.0678655566773
 31
0.0
  0
ARC
  5
D2B
330
2
100
AcDbEntity
  8
0
100
AcDbCircle
 10
98.80593473483465
 20
354.0678655566773
 30
0.0
 40
3.0
100
AcDbArc
 50
270.0
 51
0.0
  0
ARC
  5
D2C
330
2
100
AcDbEntity
  8
0
100
AcDbCircle
 10
104.7220145179346
 20
353.0678655566775
 30
0.0
 40
3.0
100
AcDbArc
 50
90.0
 51
170.4059317731516
  0
LINE
  5
D2D
330
2
100
AcDbEntity
  8
0
100
AcDbLine
 10
104.7220145179337
 20
414.0678655566775
 30
0.0
 11
120.1157385414155
 21
414.0678655566772
 31
0.0
  0
LINE
  5
D2E
330
2
100
AcDbEntity
  8
0
100
AcDbLine
 10
104.7220145179346
 20
356.0678655566775
 30
0.0
 11
120.1157385414183
 21
356.0678655566775
 31
0.0
  0
ARC
  5
D2F
330
2
100
AcDbEntity
  8
0
100
AcDbCircle
 10
120.1157385414183
 20
353.0678655566775
 30
0.0
 40
3.0
100
AcDbArc
 50
0.0
 51
90.0
  0
LINE
  5
D30
330
2
100
AcDbEntity
  8
0
100
AcDbLine
 10
123.1157385414092
 20
442.5678655566775
 30
0.0
 11
123.1157385414092
 21
327.5678655566773
 31
0.0
  0
ARC
  5
D31
330
2
100
AcDbEntity
  8
0
100
AcDbCircle
 10
133.1157385414092
 20
442.5678655566775
 30
0.0
 40
10.0
100
AcDbArc
 50
90.0
 51
180.0
  0
ARC
  5
D32
330
2
100
AcDbEntity
  8
0
100
AcDbCircle
 10
133.1157385414092
 20
327.5678655566773
 30
0.0
 40
10.0
100
AcDbArc
 50
180.0
 51
270.0
  0
ARC
  5
D33
330
2
100
AcDbEntity
  8
0
100
AcDbCircle
 10
91.80593473483781
 20
391.067865556675
 30
0.0
 40
3.0
100
AcDbArc
 50
180.0
 51
270.0
  0
ARC
  5
D34
330
2
100
AcDbEntity
  8
0
100
AcDbCircle
 10
120.1157385414078
 20
391.067865556675
 30
0.0
 40
3.0
100
AcDbArc
 50
270.0
 51
0.0
  0
LINE
  5
D35
330
2
100
AcDbEntity
  8
0
100
AcDbLine
 10
120.1157385414078
 20
382.0678655566748
 30
0.0
 11
91.80593473483781
 21
382.0678655566747
 31
0.0
  0
ARC
  5
D36
330
2
100
AcDbEntity
  8
0
100
AcDbCircle
 10
91.80593473483781
 20
379.0678655566745
 30
0.0
 40
3.0
100
AcDbArc
 50
90.0
 51
180.0
  0
ARC
  5
D37
330
2
100
AcDbEntity
  8
0
100
AcDbCircle
 10
120.1157385414078
 20
379.0678655566748
 30
0.0
 40
3.0
100
AcDbArc
 50
0.0
 51
90.0
  0
LINE
  5
D38
330
2
100
AcDbEntity
  8
0
100
AcDbLine
 10
120.1157385414078
 20
388.067865556675
 30
0.0
 11
91.80593473483781
 21
388.0678655566752
 31
0.0
  0
LINE
  5
D39
330
2
100
AcDbEntity
  8
CENTER
100
AcDbLine
 10
331.709957918604
 20
385.0678655566773
 30
0.0
 11
554.7099579185954
 21
385.0678655566773
 31
0.0
  0
LINE
  5
D3A
330
2
100
AcDbEntity
  8
0
100
AcDbLine
 10
473.7099579185967
 20
325.0678655566762
 30
0.0
 11
473.7099579185949
 21
445.0678655566773
 31
0.0
  0
LINE
  5
D3B
330
2
100
AcDbEntity
  8
CENTER
100
AcDbLine
 10
401.7099579185948
 20
307.8729251454964
 30
0.0
 11
401.7099579185948
 21
462.2628059678582
 31
0.0
  0
LINE
  5
D3C
330
2
100
AcDbEntity
  8
0
100
AcDbLine
 10
366.7099579185958
 20
452.5678655566773
 30
0.0
 11
366.7099579186031
 21
317.5678655566782
 31
0.0
  0
LINE
  5
D3D
330
2
100
AcDbEntity
  8
0
100
AcDbLine
 10
468.7099579185953
 20
318.4623695052288
 30
0.0
 11
468.7099579185881
 21
451.6733616081258
 31
0.0
  0
LINE
  5
D3E
330
2
100
AcDbEntity
  8
0
100
AcDbLine
 10
366.7099579185999
 20
327.5678655566782
 30
0.0
 11
467.2099579185935
 21
327.5678655566772
 31
0.0
  0
LINE
  5
D3F
330
2
100
AcDbEntity
  8
0
100
AcDbLine
 10
467.2099579185931
 20
337.5678655566782
 30
0.0
 11
366.7099579185994
 21
337.5678655566782
 31
0.0
  0
LINE
  5
D40
330
2
100
AcDbEntity
  8
0
100
AcDbLine
 10
467.2099579185921
 20
360.5070752659741
 30
0.0
 11
366.7099579185994
 21
360.5070752659732
 31
0.0
  0
LINE
  5
D41
330
2
100
AcDbEntity
  8
0
100
AcDbLine
 10
366.7099579185994
 20
442.5678655566764
 30
0.0
 11
467.2099579185935
 21
442.5678655566772
 31
0.0
  0
LINE
  5
D42
330
2
100
AcDbEntity
  8
0
100
AcDbLine
 10
467.2099579185931
 20
432.5678655566764
 30
0.0
 11
366.7099579185994
 21
432.5678655566764
 31
0.0
  0
LINE
  5
D43
330
2
100
AcDbEntity
  8
0
100
AcDbLine
 10
467.2099579185921
 20
409.6286558473805
 30
0.0
 11
366.7099579185994
 21
409.6286558473813
 31
0.0
  0
LINE
  5
D44
330
2
100
AcDbEntity
  8
0
 48
0.5
100
AcDbLine
 10
468.7099579185953
 20
325.0678655566773
 30
0.0
 11
473.7099579185967
 21
325.0678655566763
 31
0.0
  0
LINE
  5
D45
330
2
100
AcDbEntity
  8
0
 48
0.5
100
AcDbLine
 10
468.7099579185953
 20
445.0678655566773
 30
0.0
 11
473.7099579185949
 21
445.0678655566773
 31
0.0
  0
LINE
  5
D46
330
2
100
AcDbEntity
  8
0
100
AcDbLine
 10
486.0572542739293
 20
341.2764493130075
 30
0.0
 11
480.3207724972614
 21
340.2649528014383
 31
0.0
  0
LINE
  5
D47
330
2
100
AcDbEntity
  8
0
100
AcDbLine
 10
486.0572542739293
 20
428.8592818003472
 30
0.0
 11
480.3207724972597
 21
429.8707783119166
 31
0.0
  0
ARC
  5
D48
330
2
100
AcDbEntity
  8
0
100
AcDbCircle
 10
485.7099579185954
 20
426.8896662943228
 30
0.0
 40
2.0
100
AcDbArc
 50
0.0
 51
79.99999999999484
  0
LINE
  5
D49
330
2
100
AcDbEntity
  8
0
100
AcDbLine
 10
487.7099579185953
 20
343.2460648190319
 30
0.0
 11
487.7099579185953
 21
426.8896662943228
 31
0.0
  0
ARC
  5
D4A
330
2
100
AcDbEntity
  8
0
100
AcDbCircle
 10
485.7099579185954
 20
343.2460648190319
 30
0.0
 40
2.0
100
AcDbArc
 50
280.0000000000051
 51
0.0
  0
ARC
  5
D4B
330
2
100
AcDbEntity
  8
0
100
AcDbCircle
 10
481.7099579185967
 20
332.3864907773409
 30
0.0
 40
8.0
100
AcDbArc
 50
100.0000000000051
 51
180.0
  0
ARC
  5
D4C
330
2
100
AcDbEntity
  8
0
100
AcDbCircle
 10
481.7099579185954
 20
437.7492403360142
 30
0.0
 40
8.0
100
AcDbArc
 50
180.0
 51
259.9999999999948
  0
LINE
  5
D4D
330
2
100
AcDbEntity
  8
0
100
AcDbLine
 10
341.7099579186039
 20
385.0678655566771
 30
0.0
 11
341.7099579186039
 21
426.9905152874897
 31
0.0
  0
LINE
  5
D4E
330
2
100
AcDbEntity
  8
0
 48
0.5
100
AcDbLine
 10
358.6925048476025
 20
452.4978983037079
 30
0.0
 11
366.709957918599
 21
452.5678655566771
 31
0.0
  0
ARC
  5
D4F
330
2
100
AcDbEntity
  8
0
100
AcDbCircle
 10
358.7099579185994
 20
450.4979744575796
 30
0.0
 40
2.0
100
AcDbArc
 50
90.49999999999155
 51
180.0
  0
ARC
  5
D50
330
2
100
AcDbEntity
  8
0
 48
0.5
100
AcDbCircle
 10
343.9099579185997
 20
427.2678655566772
 30
0.0
 40
0.3
100
AcDbArc
 50
0.0000000000065138
 51
90.0
  0
ARC
  5
D51
330
2
100
AcDbEntity
  8
0
100
AcDbCircle
 10
344.5099579185996
 20
427.1678655566772
 30
0.0
 40
0.3
100
AcDbArc
 50
180.0000000000065
 51
270.0
  0
LINE
  5
D52
330
2
100
AcDbEntity
  8
0
100
AcDbLine
 10
349.7099579185994
 20
429.5678655566776
 30
0.0
 11
349.7099579185999
 21
427.5678655566776
 31
0.0
  0
LINE
  5
D53
330
2
100
AcDbEntity
  8
0
 48
0.5
100
AcDbLine
 10
346.4099579185997
 20
427.5678655566776
 30
0.0
 11
349.7099579185999
 21
427.5678655566776
 31
0.0
  0
LINE
  5
D54
330
2
100
AcDbEntity
  8
0
 48
0.5
100
AcDbLine
 10
344.5099579185996
 20
426.8678655566773
 30
0.0
 11
345.9099579185997
 21
426.8678655566773
 31
0.0
  0
LINE
  5
D55
330
2
100
AcDbEntity
  8
0
 48
0.5
100
AcDbLine
 10
346.2099579185994
 20
427.3678655566773
 30
0.0
 11
346.4099579185997
 21
427.5678655566776
 31
0.0
  0
LINE
  5
D56
330
2
100
AcDbEntity
  8
0
100
AcDbLine
 10
346.2099579185994
 20
427.3678655566773
 30
0.0
 11
346.2099579185998
 21
342.767865556677
 31
0.0
  0
ARC
  5
D57
330
2
100
AcDbEntity
  8
0
100
AcDbCircle
 10
345.9099579185997
 20
427.1678655566775
 30
0.0
 40
0.3
100
AcDbArc
 50
270.0
 51
0.0000000000065138
  0
ARC
  5
D58
330
2
100
AcDbEntity
  8
HIDS
  6
SEKKEI_H
100
AcDbCircle
 10
352.2099579185944
 20
440.2394384319301
 30
0.0
 40
2.0
100
AcDbArc
 50
135.0000000000074
 51
180.0000000000065
  0
ARC
  5
D59
330
2
100
AcDbEntity
  8
HIDS
  6
SEKKEI_H
100
AcDbCircle
 10
354.709957918599
 20
448.3962926814235
 30
0.0
 40
2.0
100
AcDbArc
 50
315.0000000000074
 51
0.0
  0
LINE
  5
D5A
330
2
100
AcDbEntity
  8
HIDS
  6
SEKKEI_H
100
AcDbLine
 10
356.1241714809723
 20
446.9820791190504
 30
0.0
 11
350.7957443562233
 21
441.6536519943007
 31
0.0
  0
LINE
  5
D5B
330
2
100
AcDbEntity
  8
0
 48
0.5
100
AcDbLine
 10
350.2099579185994
 20
430.0678655566776
 30
0.0
 11
349.7099579185994
 21
429.5678655566776
 31
0.0
  0
LINE
  5
D5C
330
2
100
AcDbEntity
  8
0
100
AcDbLine
 10
350.2099579185994
 20
436.0678655566773
 30
0.0
 11
350.2099579185999
 21
430.0678655566779
 31
0.0
  0
LINE
  5
D5D
330
2
100
AcDbEntity
  8
0
100
AcDbLine
 10
342.7099579185999
 20
427.5678655566771
 30
0.0
 11
341.7099579185999
 21
426.9905152874872
 31
0.0
  0
LINE
  5
D5E
330
2
100
AcDbEntity
  8
0
 48
0.5
100
AcDbLine
 10
342.7099579185994
 20
427.5678655566771
 30
0.0
 11
343.9099579185997
 21
427.5678655566771
 31
0.0
  0
LINE
  5
D5F
330
2
100
AcDbEntity
  8
0
100
AcDbLine
 10
344.2099579185999
 20
427.2678655566772
 30
0.0
 11
344.2099579185999
 21
342.8678655566772
 31
0.0
  0
LINE
  5
D60
330
2
100
AcDbEntity
  8
0
100
AcDbLine
 10
341.7099579186039
 20
385.0678655566771
 30
0.0
 11
341.7099579186044
 21
343.1452158258647
 31
0.0
  0
LINE
  5
D61
330
2
100
AcDbEntity
  8
0
 48
0.5
100
AcDbLine
 10
358.692504847603
 20
317.6378328096466
 30
0.0
 11
366.7099579185994
 21
317.5678655566774
 31
0.0
  0
LINE
  5
D62
330
2
100
AcDbEntity
  8
0
100
AcDbLine
 10
356.7099579185999
 20
319.637756655775
 30
0.0
 11
356.7099579185994
 21
450.4979744575796
 31
0.0
  0
ARC
  5
D63
330
2
100
AcDbEntity
  8
0
100
AcDbCircle
 10
358.7099579185998
 20
319.637756655775
 30
0.0
 40
2.0
100
AcDbArc
 50
180.0
 51
269.5000000000084
  0
ARC
  5
D64
330
2
100
AcDbEntity
  8
0
 48
0.5
100
AcDbCircle
 10
343.9099579186001
 20
342.8678655566772
 30
0.0
 40
0.3
100
AcDbArc
 50
270.0
 51
359.9999999999934
  0
ARC
  5
D65
330
2
100
AcDbEntity
  8
0
100
AcDbCircle
 10
344.5099579186
 20
342.9678655566771
 30
0.0
 40
0.3
100
AcDbArc
 50
90.0
 51
179.9999999999934
  0
LINE
  5
D66
330
2
100
AcDbEntity
  8
0
100
AcDbLine
 10
349.7099579185999
 20
340.5678655566767
 30
0.0
 11
349.7099579185999
 21
342.5678655566767
 31
0.0
  0
LINE
  5
D67
330
2
100
AcDbEntity
  8
0
 48
0.5
100
AcDbLine
 10
346.4099579186001
 20
342.5678655566767
 30
0.0
 11
349.7099579185999
 21
342.5678655566767
 31
0.0
  0
LINE
  5
D68
330
2
100
AcDbEntity
  8
0
 48
0.5
100
AcDbLine
 10
344.5099579186
 20
343.267865556677
 30
0.0
 11
345.9099579186001
 21
343.267865556677
 31
0.0
  0
LINE
  5
D69
330
2
100
AcDbEntity
  8
0
 48
0.5
100
AcDbLine
 10
346.2099579185998
 20
342.767865556677
 30
0.0
 11
346.4099579186001
 21
342.5678655566767
 31
0.0
  0
ARC
  5
D6A
330
2
100
AcDbEntity
  8
0
100
AcDbCircle
 10
345.9099579186001
 20
342.9678655566768
 30
0.0
 40
0.3
100
AcDbArc
 50
359.9999999999934
 51
90.0
  0
ARC
  5
D6B
330
2
100
AcDbEntity
  8
HIDS
  6
SEKKEI_H
100
AcDbCircle
 10
352.2099579185949
 20
329.8962926814243
 30
0.0
 40
2.0
100
AcDbArc
 50
179.9999999999934
 51
224.9999999999926
  0
ARC
  5
D6C
330
2
100
AcDbEntity
  8
HIDS
  6
SEKKEI_H
100
AcDbCircle
 10
354.7099579185994
 20
321.7394384319309
 30
0.0
 40
2.0
100
AcDbArc
 50
0.0
 51
44.99999999999262
  0
LINE
  5
D6D
330
2
100
AcDbEntity
  8
HIDS
  6
SEKKEI_H
100
AcDbLine
 10
356.1241714809728
 20
323.1536519943041
 30
0.0
 11
350.7957443562238
 21
328.4820791190536
 31
0.0
  0
LINE
  5
D6E
330
2
100
AcDbEntity
  8
0
 48
0.5
100
AcDbLine
 10
350.2099579185999
 20
340.0678655566768
 30
0.0
 11
349.7099579185999
 21
340.5678655566767
 31
0.0
  0
LINE
  5
D6F
330
2
100
AcDbEntity
  8
0
100
AcDbLine
 10
350.2099579185999
 20
334.0678655566772
 30
0.0
 11
350.2099579186003
 21
340.0678655566765
 31
0.0
  0
LINE
  5
D70
330
2
100
AcDbEntity
  8
0
100
AcDbLine
 10
342.7099579185999
 20
342.5678655566772
 30
0.0
 11
341.7099579185999
 21
343.1452158258672
 31
0.0
  0
LINE
  5
D71
330
2
100
AcDbEntity
  8
0
 48
0.5
100
AcDbLine
 10
342.7099579185999
 20
342.5678655566772
 30
0.0
 11
343.9099579186001
 21
342.5678655566772
 31
0.0
  0
LINE
  5
D72
330
2
100
AcDbEntity
  8
0
100
AcDbLine
 10
342.7099579185994
 20
427.5678655566771
 30
0.0
 11
342.7099579185999
 21
342.5678655566772
 31
0.0
  0
LINE
  5
D73
330
2
100
AcDbEntity
  8
0
100
AcDbLine
 10
346.4099579186001
 20
342.5678655566767
 30
0.0
 11
346.4099579185997
 21
427.5678655566776
 31
0.0
  0
LINE
  5
D74
330
2
100
AcDbEntity
  8
0
100
AcDbLine
 10
349.7099579185999
 20
427.5678655566776
 30
0.0
 11
349.7099579185999
 21
342.5678655566767
 31
0.0
  0
LINE
  5
D75
330
2
100
AcDbEntity
  8
0
100
AcDbLine
 10
350.2099579186003
 20
340.0678655566765
 30
0.0
 11
350.2099579185999
 21
430.0678655566779
 31
0.0
  0
LINE
  5
D76
330
2
100
AcDbEntity
  8
0
100
AcDbLine
 10
366.709957918599
 20
452.5678655566771
 30
0.0
 11
366.7099579185999
 21
317.5678655566774
 31
0.0
  0
LINE
  5
D77
330
2
100
AcDbEntity
  8
0
100
AcDbLine
 10
366.7099579185994
 20
432.5678655566767
 30
0.0
 11
358.2099579185994
 21
432.5678655566767
 31
0.0
  0
LINE
  5
D78
330
2
100
AcDbEntity
  8
0
100
AcDbLine
 10
366.7099579185994
 20
409.6286558473904
 30
0.0
 11
358.2099579185994
 21
409.6286558473904
 31
0.0
  0
LINE
  5
D79
330
2
100
AcDbEntity
  8
0
100
AcDbLine
 10
366.7099579185994
 20
442.5678655571092
 30
0.0
 11
358.2099579185994
 21
442.5678655571092
 31
0.0
  0
LINE
  5
D7A
330
2
100
AcDbEntity
  8
0
100
AcDbLine
 10
366.7099579185994
 20
337.5678655566779
 30
0.0
 11
358.2099579185994
 21
337.5678655566778
 31
0.0
  0
LINE
  5
D7B
330
2
100
AcDbEntity
  8
0
100
AcDbLine
 10
366.7099579185994
 20
360.507075265964
 30
0.0
 11
358.2099579185994
 21
360.507075265964
 31
0.0
  0
LINE
  5
D7C
330
2
100
AcDbEntity
  8
0
100
AcDbLine
 10
366.7099579185999
 20
327.5678655562452
 30
0.0
 11
358.2099579185999
 21
327.5678655562452
 31
0.0
  0
LINE
  5
D81
330
2
100
AcDbEntity
  8
HIDS
  6
SEKKEI_H
100
AcDbLine
 10
351.6266274786301
 20
324.9852266436766
 30
0.0
 11
354.314999935407
 21
324.9628235398702
 31
0.0
  0
ARC
  5
D82
330
2
100
AcDbEntity
  8
0
100
AcDbCircle
 10
351.7099579185953
 20
334.9848794395394
 30
0.0
 40
10.0
100
AcDbArc
 50
180.0
 51
240.00000000003
  0
LINE
  5
D83
330
2
100
AcDbEntity
  8
0
100
AcDbLine
 10
341.7099579185958
 20
334.9848794395394
 30
0.0
 11
341.7099579185953
 21
435.150851673815
 31
0.0
  0
LINE
  5
D84
330
2
100
AcDbEntity
  8
HIDS
  6
SEKKEI_H
100
AcDbLine
 10
351.6266274786296
 20
445.1505044696761
 30
0.0
 11
354.3149999354048
 21
445.1729075734826
 31
0.0
  0
ARC
  5
D85
330
2
100
AcDbEntity
  8
0
100
AcDbCircle
 10
351.7099579185953
 20
435.150851673815
 30
0.0
 40
10.0
100
AcDbArc
 50
119.9999999999698
 51
180.0
  0
LINE
  5
D86
330
2
100
AcDbEntity
  8
0
100
AcDbLine
 10
220.7947874469757
 20
329.0678655571093
 30
0.0
 11
159.817082023562
 21
329.0678655571093
 31
0.0
  0
ARC
  5
D87
330
2
100
AcDbEntity
  8
0
100
AcDbCircle
 10
220.7947874469757
 20
337.0678655571092
 30
0.0
 40
8.0
100
AcDbArc
 50
270.0
 51
315.0000000000074
  0
LINE
  5
D88
330
2
100
AcDbEntity
  8
0
100
AcDbLine
 10
220.7947874469757
 20
441.0678655571093
 30
0.0
 11
159.817082023562
 21
441.0678655571093
 31
0.0
  0
ARC
  5
D89
330
2
100
AcDbEntity
  8
0
100
AcDbCircle
 10
159.817082023562
 20
433.0678655571093
 30
0.0
 40
8.0
100
AcDbArc
 50
90.0
 51
135.0000000000074
  0
LINE
  5
D8A
330
2
100
AcDbEntity
  8
0
100
AcDbLine
 10
220.7947874469757
 20
447.5678655571093
 30
0.0
 11
159.817082023562
 21
447.5678655571093
 31
0.0
  0
ARC
  5
D8B
330
2
100
AcDbEntity
  8
0
100
AcDbCircle
 10
159.817082023562
 20
433.0678655571093
 30
0.0
 40
14.5
100
AcDbArc
 50
90.0
 51
135.0000000000074
  0
LINE
  5
D8C
330
2
100
AcDbEntity
  8
0
100
AcDbLine
 10
220.7947874469757
 20
322.5678655571092
 30
0.0
 11
159.817082023562
 21
322.5678655571093
 31
0.0
  0
ARC
  5
D8D
330
2
100
AcDbEntity
  8
0
100
AcDbCircle
 10
220.7947874469757
 20
337.0678655571092
 30
0.0
 40
14.5
100
AcDbArc
 50
270.0
 51
315.0000000000074
  0
LINE
  5
D8E
330
2
100
AcDbEntity
  8
0
100
AcDbLine
 10
123.415934735269
 20
327.5678655571335
 30
0.0
 11
123.415934735269
 21
442.5678655566772
 31
0.0
  0
ARC
  5
D8F
330
2
100
AcDbEntity
  8
0
100
AcDbCircle
 10
133.415934735269
 20
442.5678655566772
 30
0.0
 40
10.0
100
AcDbArc
 50
90.0
 51
180.0
  0
ARC
  5
D90
330
2
100
AcDbEntity
  8
0
100
AcDbCircle
 10
133.415934735269
 20
327.5678655571335
 30
0.0
 40
10.0
100
AcDbArc
 50
180.0
 51
269.9999999972121
  0
CIRCLE
  5
D91
330
2
100
AcDbEntity
  8
0
100
AcDbCircle
 10
190.3059347352689
 20
385.0678655571093
 30
0.0
 40
36.00000000000003
  0
CIRCLE
  5
D92
330
2
100
AcDbEntity
  8
0
100
AcDbCircle
 10
190.3059347352689
 20
385.0678655571093
 30
0.0
 40
42.50000000000002
  0
CIRCLE
  5
D93
330
2
100
AcDbEntity
  8
0
100
AcDbCircle
 10
190.3059347352689
 20
385.0678655571093
 30
0.0
 40
44.50000000000048
  0
CIRCLE
  5
D94
330
2
100
AcDbEntity
  8
0
100
AcDbCircle
 10
190.3059347352689
 20
385.0678655571093
 30
0.0
 40
41.92264973081003
  0
LINE
  5
D95
330
2
100
AcDbEntity
  8
0
100
AcDbLine
 10
252.8059347352693
 20
415.556718268816
 30
0.0
 11
252.8059347352693
 21
354.5790128454026
 31
0.0
  0
ARC
  5
D96
330
2
100
AcDbEntity
  8
0
100
AcDbCircle
 10
238.3059347352693
 20
415.556718268816
 30
0.0
 40
14.5
100
AcDbArc
 50
0.0
 51
44.99999999999262
  0
LINE
  5
D97
330
2
100
AcDbEntity
  8
0
100
AcDbLine
 10
246.3059347352684
 20
415.5567182688169
 30
0.0
 11
246.3059347352684
 21
354.5790128454017
 31
0.0
  0
ARC
  5
D98
330
2
100
AcDbEntity
  8
0
100
AcDbCircle
 10
238.3059347352684
 20
415.5567182688169
 30
0.0
 40
8.0
100
AcDbArc
 50
0.0
 51
44.99999999999262
  0
LINE
  5
D99
330
2
100
AcDbEntity
  8
0
100
AcDbLine
 10
134.3059347352698
 20
415.5567182688168
 30
0.0
 11
134.3059347352698
 21
354.5790128454019
 31
0.0
  0
ARC
  5
D9A
330
2
100
AcDbEntity
  8
0
100
AcDbCircle
 10
142.3059347352698
 20
354.5790128454019
 30
0.0
 40
8.0
100
AcDbArc
 50
180.0
 51
224.9999999999926
  0
LINE
  5
D9B
330
2
100
AcDbEntity
  8
0
100
AcDbLine
 10
127.8059347352689
 20
415.556718268816
 30
0.0
 11
127.8059347352689
 21
354.5790128454027
 31
0.0
  0
LINE
  5
D9C
330
2
100
AcDbEntity
  8
0
100
AcDbLine
 10
132.052886408064
 20
425.8097665960208
 30
0.0
 11
149.5640336963572
 21
443.3209138843142
 31
0.0
  0
ARC
  5
D9D
330
2
100
AcDbEntity
  8
0
100
AcDbCircle
 10
142.3059347352689
 20
415.556718268816
 30
0.0
 40
14.5
100
AcDbArc
 50
135.0000000000074
 51
180.0
  0
LINE
  5
D9E
330
2
100
AcDbEntity
  8
0
100
AcDbLine
 10
231.0478357741806
 20
326.8148172299043
 30
0.0
 11
248.5589830624742
 21
344.3259645181977
 31
0.0
  0
ARC
  5
D9F
330
2
100
AcDbEntity
  8
0
100
AcDbCircle
 10
238.3059347352693
 20
354.5790128454026
 30
0.0
 40
14.5
100
AcDbArc
 50
315.0000000000074
 51
0.0
  0
LINE
  5
DA0
330
2
100
AcDbEntity
  8
0
100
AcDbLine
 10
226.4516416964681
 20
331.4110113076169
 30
0.0
 11
243.9627889847604
 21
348.9221585959094
 31
0.0
  0
ARC
  5
DA1
330
2
100
AcDbEntity
  8
0
100
AcDbCircle
 10
238.3059347352684
 20
354.5790128454017
 30
0.0
 40
8.0
100
AcDbArc
 50
315.0000000000074
 51
0.0
  0
LINE
  5
DA2
330
2
100
AcDbEntity
  8
0
100
AcDbLine
 10
136.6490804857773
 20
421.2135725183091
 30
0.0
 11
154.16022777407
 21
438.7247198066017
 31
0.0
  0
ARC
  5
DA3
330
2
100
AcDbEntity
  8
0
100
AcDbCircle
 10
142.3059347352698
 20
415.5567182688168
 30
0.0
 40
8.0
100
AcDbArc
 50
135.0000000000074
 51
180.0
  0
LINE
  5
DA4
330
2
100
AcDbEntity
  8
0
100
AcDbLine
 10
149.5640336963572
 20
326.8148172299043
 30
0.0
 11
132.052886408064
 21
344.3259645181977
 31
0.0
  0
ARC
  5
DA5
330
2
100
AcDbEntity
  8
0
100
AcDbCircle
 10
142.3059347352689
 20
354.5790128454027
 30
0.0
 40
14.5
100
AcDbArc
 50
180.0
 51
224.9999999999926
  0
ARC
  5
DA6
330
2
100
AcDbEntity
  8
0
100
AcDbCircle
 10
159.817082023562
 20
337.0678655571093
 30
0.0
 40
14.5
100
AcDbArc
 50
224.9999999999926
 51
270.0
  0
LINE
  5
DA7
330
2
100
AcDbEntity
  8
0
100
AcDbLine
 10
248.5589830624742
 20
425.8097665960209
 30
0.0
 11
231.0478357741806
 21
443.3209138843142
 31
0.0
  0
ARC
  5
DA8
330
2
100
AcDbEntity
  8
0
100
AcDbCircle
 10
220.7947874469757
 20
433.0678655571093
 30
0.0
 40
14.5
100
AcDbArc
 50
44.99999999999262
 51
90.0
  0
LINE
  5
DA9
330
2
100
AcDbEntity
  8
0
100
AcDbLine
 10
154.16022777407
 20
331.4110113076169
 30
0.0
 11
136.6490804857773
 21
348.9221585959096
 31
0.0
  0
ARC
  5
DAA
330
2
100
AcDbEntity
  8
0
100
AcDbCircle
 10
159.817082023562
 20
337.0678655571093
 30
0.0
 40
8.0
100
AcDbArc
 50
224.9999999999926
 51
270.0
  0
LINE
  5
DAB
330
2
100
AcDbEntity
  8
0
100
AcDbLine
 10
243.9627889847609
 20
421.2135725183093
 30
0.0
 11
226.4516416964681
 21
438.7247198066017
 31
0.0
  0
ARC
  5
DAC
330
2
100
AcDbEntity
  8
0
100
AcDbCircle
 10
220.7947874469757
 20
433.0678655571093
 30
0.0
 40
8.0
100
AcDbArc
 50
44.99999999999262
 51
90.0
  0
LINE
  5
DAD
330
2
100
AcDbEntity
  8
CENTER
100
AcDbLine
 10
257.8059347357013
 20
327.5678655571092
 30
0.0
 11
237.8059347348373
 21
327.5678655571092
 31
0.0
  0
LINE
  5
DAE
330
2
100
AcDbEntity
  8
CENTER
100
AcDbLine
 10
247.8059347352689
 20
337.5678655575412
 30
0.0
 11
247.8059347352689
 21
317.5678655566772
 31
0.0
  0
LINE
  5
DAF
330
2
100
AcDbEntity
  8
CENTER
100
AcDbLine
 10
257.8059347348369
 20
442.5678655571094
 30
0.0
 11
237.8059347357004
 21
442.5678655571094
 31
0.0
  0
LINE
  5
DB0
330
2
100
AcDbEntity
  8
CENTER
100
AcDbLine
 10
247.8059347352689
 20
432.567865557541
 30
0.0
 11
247.8059347352689
 21
452.5678655566773
 31
0.0
  0
LINE
  5
DB1
330
2
100
AcDbEntity
  8
CENTER
100
AcDbLine
 10
122.8245570748697
 20
327.5678655571092
 30
0.0
 11
142.7873123956681
 21
327.5678655571092
 31
0.0
  0
LINE
  5
DB2
330
2
100
AcDbEntity
  8
CENTER
100
AcDbLine
 10
132.8059347352693
 20
337.5492432175084
 30
0.0
 11
132.8059347352693
 21
317.5864878967102
 31
0.0
  0
LINE
  5
DB3
330
2
100
AcDbEntity
  8
CENTER
100
AcDbLine
 10
122.8011369667158
 20
442.5678655571094
 30
0.0
 11
142.8107325038229
 21
442.5678655571094
 31
0.0
  0
LINE
  5
DB4
330
2
100
AcDbEntity
  8
CENTER
100
AcDbLine
 10
132.8059347352693
 20
432.5630677885557
 30
0.0
 11
132.8059347352693
 21
452.5726633256633
 31
0.0
  0
CIRCLE
  5
DB5
330
2
100
AcDbEntity
  8
HOJO
100
AcDbCircle
 10
250.3059347352689
 20
339.0678655571092
 30
0.0
 40
2.5
  0
CIRCLE
  5
DB6
330
2
100
AcDbEntity
  8
0
100
AcDbCircle
 10
250.3059347352689
 20
339.0678655571092
 30
0.0
 40
2.0
  0
LINE
  5
DB7
330
2
100
AcDbEntity
  8
CENTER
100
AcDbLine
 10
250.3059347352689
 20
331.7018358111993
 30
0.0
 11
250.3059347352689
 21
346.4338953030189
 31
0.0
  0
LINE
  5
DB8
330
2
100
AcDbEntity
  8
CENTER
100
AcDbLine
 10
257.6719644811789
 20
339.0678655571091
 30
0.0
 11
242.9399049893593
 21
339.0678655571091
 31
0.0
  0
CIRCLE
  5
DB9
330
2
100
AcDbEntity
  8
HOJO
100
AcDbCircle
 10
130.3059347352689
 20
431.0678655571093
 30
0.0
 40
2.5
  0
CIRCLE
  5
DBA
330
2
100
AcDbEntity
  8
0
100
AcDbCircle
 10
130.3059347352689
 20
431.0678655571093
 30
0.0
 40
2.0
  0
LINE
  5
DBB
330
2
100
AcDbEntity
  8
CENTER
100
AcDbLine
 10
130.3059347352689
 20
437.9578655571093
 30
0.0
 11
130.3059347352689
 21
424.1778655571093
 31
0.0
  0
LINE
  5
DBC
330
2
100
AcDbEntity
  8
CENTER
100
AcDbLine
 10
123.415934735269
 20
431.0678655571094
 30
0.0
 11
137.1959347352692
 21
431.0678655571094
 31
0.0
  0
LINE
  5
DBD
330
2
100
AcDbEntity
  8
CENTER
100
AcDbLine
 10
119.6657534711714
 20
314.4276842930119
 30
0.0
 11
260.9461159993663
 21
455.708046821207
 31
0.0
  0
LINE
  5
DBE
330
2
100
AcDbEntity
  8
CENTER
100
AcDbLine
 10
260.9461159997988
 20
314.4276842925796
 30
0.0
 11
119.6657534716039
 21
455.7080468207749
 31
0.0
  0
LINE
  5
DBF
330
2
100
AcDbEntity
  8
0
100
AcDbLine
 10
154.2681722542686
 20
323.6716123356957
 30
0.0
 11
156.7556145646415
 21
329.6768292970191
 31
0.0
  0
LINE
  5
DC0
330
2
100
AcDbEntity
  8
0
100
AcDbLine
 10
128.9096815138552
 20
349.0301030761089
 30
0.0
 11
134.9148984751793
 21
351.5175453864813
 31
0.0
  0
LINE
  5
DC1
330
2
100
AcDbEntity
  8
0
100
AcDbLine
 10
251.7021879558185
 20
349.0301030761089
 30
0.0
 11
245.6969709944949
 21
351.5175453864819
 31
0.0
  0
LINE
  5
DC2
330
2
100
AcDbEntity
  8
0
100
AcDbLine
 10
226.3436972154051
 20
323.6716123356957
 30
0.0
 11
223.8562549050327
 21
329.6768292970198
 31
0.0
  0
LINE
  5
DC3
330
2
100
AcDbEntity
  8
0
100
AcDbLine
 10
226.3436972154051
 20
446.4641187776589
 30
0.0
 11
223.8562549050322
 21
440.4589018163355
 31
0.0
  0
LINE
  5
DC4
330
2
100
AcDbEntity
  8
0
100
AcDbLine
 10
251.7021879558185
 20
421.1056280372456
 30
0.0
 11
245.6969709944944
 21
418.6181857268733
 31
0.0
  0
LINE
  5
DC5
330
2
100
AcDbEntity
  8
0
100
AcDbLine
 10
128.9096815138552
 20
421.1056280372457
 30
0.0
 11
134.9148984751784
 21
418.6181857268726
 31
0.0
  0
LINE
  5
DC6
330
2
100
AcDbEntity
  8
0
100
AcDbLine
 10
154.2681722542686
 20
446.464118777659
 30
0.0
 11
156.755614564641
 21
440.4589018163348
 31
0.0
  0
LINE
  5
DC7
330
2
100
AcDbEntity
  8
CENTER
 48
0.2
100
AcDbLine
 10
190.3059347352689
 20
332.099457612758
 30
0.0
 11
190.3059347352689
 21
338.0362735005963
 31
0.0
  0
CIRCLE
  5
DC8
330
2
100
AcDbEntity
  8
0
100
AcDbCircle
 10
190.3059347352689
 20
385.0678655571095
 30
0.0
 40
36.57735026918982
  0
CIRCLE
  5
DC9
330
2
100
AcDbEntity
  8
0
100
AcDbCircle
 10
190.3059347348369
 20
385.0678655566773
 30
0.0
 40
44.99999999956847
  0
ARC
  5
DCA
330
2
100
AcDbEntity
  8
0
100
AcDbCircle
 10
190.3059347348369
 20
657.5678655566774
 30
0.0
 40
340.0
100
AcDbArc
 50
265.8574811972686
 51
274.1425188027313
  0
ARC
  5
DCB
330
2
100
AcDbEntity
  8
0
100
AcDbCircle
 10
247.8059347348359
 20
327.5678655566772
 30
0.0
 40
10.0
100
AcDbArc
 50
270.0
 51
0.0
  0
LINE
  5
DCC
330
2
100
AcDbEntity
  8
0
100
AcDbLine
 10
247.8059347348359
 20
317.5678655566772
 30
0.0
 11
237.805934734836
 21
317.5678655566772
 31
0.0
  0
ARC
  5
DCD
330
2
100
AcDbEntity
  8
0
100
AcDbCircle
 10
222.0904868757595
 20
218.7173873238274
 30
0.0
 40
100.0
100
AcDbArc
 50
81.63298947741269
 51
94.14251880273134
  0
LINE
  5
DCE
330
2
100
AcDbEntity
  8
0
100
AcDbLine
 10
257.8059347348369
 20
327.5678655566774
 30
0.0
 11
257.8059347348369
 21
337.5678655566774
 31
0.0
  0
ARC
  5
DCF
330
2
100
AcDbEntity
  8
0
100
AcDbCircle
 10
249.8059347348369
 20
337.5678655566774
 30
0.0
 40
8.0
100
AcDbArc
 50
0.0
 51
8.367010522602221
  0
ARC
  5
DD0
330
2
100
AcDbEntity
  8
0
100
AcDbCircle
 10
356.6564129676869
 20
353.2833134157539
 30
0.0
 40
100.0
100
AcDbArc
 50
175.8574811972766
 51
188.3670105226022
  0
ARC
  5
DD1
330
2
100
AcDbEntity
  8
0
100
AcDbCircle
 10
142.8059347348369
 20
325.5678655566772
 30
0.0
 40
8.0
100
AcDbArc
 50
270.0
 51
278.3670105225872
  0
ARC
  5
DD2
330
2
100
AcDbEntity
  8
0
100
AcDbCircle
 10
158.5213825939133
 20
218.7173873238274
 30
0.0
 40
100.0
100
AcDbArc
 50
85.85748119726863
 51
98.3670105225873
  0
LINE
  5
DD3
330
2
100
AcDbEntity
  8
0
100
AcDbLine
 10
133.4159347347829
 20
317.5678655571335
 30
0.0
 11
142.8059347348369
 21
317.5678655566772
 31
0.0
  0
ARC
  5
DD4
330
2
100
AcDbEntity
  8
0
100
AcDbCircle
 10
247.8059347348359
 20
442.5678655566772
 30
0.0
 40
10.0
100
AcDbArc
 50
0.0
 51
90.0
  0
LINE
  5
DD5
330
2
100
AcDbEntity
  8
0
100
AcDbLine
 10
247.8059347348359
 20
452.5678655566773
 30
0.0
 11
237.805934734836
 21
452.5678655566773
 31
0.0
  0
ARC
  5
DD6
330
2
100
AcDbEntity
  8
0
100
AcDbCircle
 10
237.805934734836
 20
444.5678655566773
 30
0.0
 40
8.0
100
AcDbArc
 50
90.0
 51
98.3670105225873
  0
ARC
  5
DD7
330
2
100
AcDbEntity
  8
0
100
AcDbCircle
 10
222.0904868757595
 20
551.4183437895269
 30
0.0
 40
100.0
100
AcDbArc
 50
265.8574811972686
 51
278.3670105225872
  0
LINE
  5
DD8
330
2
100
AcDbEntity
  8
0
100
AcDbLine
 10
257.8059347348369
 20
442.5678655566768
 30
0.0
 11
257.8059347348369
 21
432.5678655566768
 31
0.0
  0
ARC
  5
DD9
330
2
100
AcDbEntity
  8
0
100
AcDbCircle
 10
249.8059347348369
 20
432.5678655566768
 30
0.0
 40
8.0
100
AcDbArc
 50
351.6329894774042
 51
0.0
  0
ARC
  5
DDA
330
2
100
AcDbEntity
  8
0
100
AcDbCircle
 10
356.6564129676869
 20
416.8524176976004
 30
0.0
 40
100.0
100
AcDbArc
 50
171.6329894773977
 51
184.1425188027296
  0
ARC
  5
DDB
330
2
100
AcDbEntity
  8
0
100
AcDbCircle
 10
142.8059347348369
 20
444.5678655566773
 30
0.0
 40
8.0
100
AcDbArc
 50
81.63298947741269
 51
90.0
  0
ARC
  5
DDC
330
2
100
AcDbEntity
  8
0
100
AcDbCircle
 10
158.5213825939133
 20
551.4183437895269
 30
0.0
 40
100.0
100
AcDbArc
 50
261.6329894774127
 51
274.1425188027313
  0
LINE
  5
DDD
330
2
100
AcDbEntity
  8
0
100
AcDbLine
 10
133.415934735269
 20
452.5678655566773
 30
0.0
 11
142.8059347348369
 21
452.5678655566773
 31
0.0
  0
ARC
  5
DDE
330
2
100
AcDbEntity
  8
0
100
AcDbCircle
 10
190.3059347348369
 20
112.5678655566773
 30
0.0
 40
340.0
100
AcDbArc
 50
85.85748119726863
 51
94.14251880273134
  0
ARC
  5
DDF
330
2
100
AcDbEntity
  8
0
100
AcDbCircle
 10
-82.19406526516308
 20
385.0678655566773
 30
0.0
 40
340.0
100
AcDbArc
 50
355.8574811972766
 51
4.142518802716637
  0
ARC
  5
DE0
330
2
100
AcDbEntity
  8
0
100
AcDbCircle
 10
237.8059347348369
 20
325.5678655566772
 30
0.0
 40
8.0
100
AcDbArc
 50
261.63298947736
 51
270.0
  0
LINE
  5
DE1
330
2
100
AcDbEntity
  8
0
100
AcDbLine
 10
133.1157385422736
 20
317.5678655566773
 30
0.0
 11
133.4159347347829
 21
317.5678655571335
 31
0.0
  0
LINE
  5
DE2
330
2
100
AcDbEntity
  8
0
100
AcDbLine
 10
133.1157385422736
 20
452.5678655566775
 30
0.0
 11
133.415934735269
 21
452.5678655566773
 31
0.0
  0
LINE
  5
DE3
330
2
100
AcDbEntity
  8
0
100
AcDbLine
 10
846.4147263073476
 20
830.6072265206152
 30
0.0
 11
846.4846935603166
 21
822.5897734496186
 31
0.0
  0
ARC
  5
DE4
330
2
100
AcDbEntity
  8
0
100
AcDbCircle
 10
844.4148024612193
 20
830.5897734496184
 30
0.0
 40
2.0
100
AcDbArc
 50
0.499999999998063
 51
90.0
  0
LINE
  5
DE5
330
2
100
AcDbEntity
  8
0
100
AcDbLine
 10
779.5946935603167
 20
847.5897734496136
 30
0.0
 11
821.517343291129
 21
847.5897734496134
 31
0.0
  0
ARC
  5
DE6
330
2
100
AcDbEntity
  8
0
 48
0.5
100
AcDbCircle
 10
821.7946935603166
 20
845.3897734496178
 30
0.0
 40
0.3
100
AcDbArc
 50
270.0
 51
0.0000000000065138
  0
ARC
  5
DE7
330
2
100
AcDbEntity
  8
0
100
AcDbCircle
 10
821.6946935603166
 20
844.789773449618
 30
0.0
 40
0.3
100
AcDbArc
 50
90.0
 51
180.0000000000065
  0
LINE
  5
DE8
330
2
100
AcDbEntity
  8
0
100
AcDbLine
 10
824.0946935603167
 20
839.5897734496179
 30
0.0
 11
822.0946935603167
 21
839.5897734496179
 31
0.0
  0
LINE
  5
DE9
330
2
100
AcDbEntity
  8
0
 48
0.5
100
AcDbLine
 10
822.0946935603167
 20
842.8897734496178
 30
0.0
 11
822.0946935603167
 21
839.5897734496179
 31
0.0
  0
LINE
  5
DEA
330
2
100
AcDbEntity
  8
0
 48
0.5
100
AcDbLine
 10
821.394693560317
 20
844.789773449618
 30
0.0
 11
821.394693560317
 21
843.3897734496179
 31
0.0
  0
LINE
  5
DEB
330
2
100
AcDbEntity
  8
0
 48
0.5
100
AcDbLine
 10
821.8946935603169
 20
843.0897734496179
 30
0.0
 11
822.0946935603167
 21
842.8897734496178
 31
0.0
  0
LINE
  5
DEC
330
2
100
AcDbEntity
  8
0
100
AcDbLine
 10
821.8946935603169
 20
843.0897734496179
 30
0.0
 11
737.2946935603165
 21
843.0897734496172
 31
0.0
  0
ARC
  5
DED
330
2
100
AcDbEntity
  8
0
100
AcDbCircle
 10
821.6946935603171
 20
843.3897734496179
 30
0.0
 40
0.3
100
AcDbArc
 50
180.0
 51
270.0
  0
ARC
  5
DEE
330
2
100
AcDbEntity
  8
HIDS
  6
SEKKEI_H
100
AcDbCircle
 10
834.7662664355695
 20
837.0897734496233
 30
0.0
 40
2.0
100
AcDbArc
 50
44.99999999999243
 51
90.0
  0
ARC
  5
DEF
330
2
100
AcDbEntity
  8
HIDS
  6
SEKKEI_H
100
AcDbCircle
 10
842.9231206850628
 20
834.5897734496187
 30
0.0
 40
2.0
100
AcDbArc
 50
224.9999999999924
 51
270.0
  0
LINE
  5
DF0
330
2
100
AcDbEntity
  8
HIDS
  6
SEKKEI_H
100
AcDbLine
 10
841.5089071226899
 20
833.1755598872454
 30
0.0
 11
836.1804799979402
 21
838.5039870119943
 31
0.0
  0
LINE
  5
DF1
330
2
100
AcDbEntity
  8
0
 48
0.5
100
AcDbLine
 10
824.5946935603168
 20
839.0897734496181
 30
0.0
 11
824.0946935603167
 21
839.5897734496179
 31
0.0
  0
LINE
  5
DF2
330
2
100
AcDbEntity
  8
0
100
AcDbLine
 10
830.5946935603166
 20
839.0897734496183
 30
0.0
 11
824.5946935603171
 21
839.0897734496176
 31
0.0
  0
LINE
  5
DF3
330
2
100
AcDbEntity
  8
0
100
AcDbLine
 10
822.0946935603167
 20
846.5897734496179
 30
0.0
 11
821.5173432911267
 21
847.5897734496179
 31
0.0
  0
LINE
  5
DF4
330
2
100
AcDbEntity
  8
0
 48
0.5
100
AcDbLine
 10
822.0946935603167
 20
846.5897734496179
 30
0.0
 11
822.0946935603167
 21
845.3897734496178
 31
0.0
  0
LINE
  5
DF5
330
2
100
AcDbEntity
  8
0
100
AcDbLine
 10
821.7946935603166
 20
845.0897734496178
 30
0.0
 11
737.3946935603164
 21
845.0897734496173
 31
0.0
  0
LINE
  5
DF6
330
2
100
AcDbEntity
  8
0
100
AcDbLine
 10
779.5946935603167
 20
847.5897734496136
 30
0.0
 11
737.6720438295039
 21
847.5897734496127
 31
0.0
  0
LINE
  5
DF7
330
2
100
AcDbEntity
  8
0
 48
0.5
100
AcDbLine
 10
712.1646608132857
 20
830.6072265206141
 30
0.0
 11
712.0946935603167
 21
822.5897734496175
 31
0.0
  0
LINE
  5
DF8
330
2
100
AcDbEntity
  8
0
100
AcDbLine
 10
714.1645846594144
 20
832.5897734496175
 30
0.0
 11
844.4148024612193
 21
832.5897734496184
 31
0.0
  0
ARC
  5
DF9
330
2
100
AcDbEntity
  8
0
100
AcDbCircle
 10
714.1645846594144
 20
830.5897734496175
 30
0.0
 40
2.0
100
AcDbArc
 50
90.0
 51
179.4999999999954
  0
ARC
  5
DFA
330
2
100
AcDbEntity
  8
0
 48
0.5
100
AcDbCircle
 10
737.3946935603164
 20
845.3897734496171
 30
0.0
 40
0.3
100
AcDbArc
 50
179.9999999999934
 51
270.0
  0
ARC
  5
DFB
330
2
100
AcDbEntity
  8
0
100
AcDbCircle
 10
737.4946935603163
 20
844.7897734496173
 30
0.0
 40
0.3
100
AcDbArc
 50
359.9999999999934
 51
90.0
  0
LINE
  5
DFC
330
2
100
AcDbEntity
  8
0
100
AcDbLine
 10
735.0946935603162
 20
839.5897734496172
 30
0.0
 11
737.0946935603162
 21
839.5897734496172
 31
0.0
  0
LINE
  5
DFD
330
2
100
AcDbEntity
  8
0
 48
0.5
100
AcDbLine
 10
737.0946935603158
 20
842.8897734496171
 30
0.0
 11
737.0946935603162
 21
839.5897734496172
 31
0.0
  0
LINE
  5
DFE
330
2
100
AcDbEntity
  8
0
 48
0.5
100
AcDbLine
 10
737.7946935603165
 20
844.7897734496173
 30
0.0
 11
737.7946935603165
 21
843.3897734496172
 31
0.0
  0
LINE
  5
DFF
330
2
100
AcDbEntity
  8
0
 48
0.5
100
AcDbLine
 10
737.2946935603165
 20
843.0897734496172
 30
0.0
 11
737.0946935603158
 21
842.8897734496171
 31
0.0
  0
ARC
  5
E00
330
2
100
AcDbEntity
  8
0
100
AcDbCircle
 10
737.4946935603163
 20
843.3897734496172
 30
0.0
 40
0.3
100
AcDbArc
 50
270.0
 51
0.0
  0
ARC
  5
E01
330
2
100
AcDbEntity
  8
HIDS
  6
SEKKEI_H
100
AcDbCircle
 10
724.4231206850634
 20
837.0897734496224
 30
0.0
 40
2.0
100
AcDbArc
 50
90.0
 51
135.0000000000075
  0
ARC
  5
E02
330
2
100
AcDbEntity
  8
HIDS
  6
SEKKEI_H
100
AcDbCircle
 10
716.26626643557
 20
834.5897734496174
 30
0.0
 40
2.0
100
AcDbArc
 50
270.0
 51
315.0000000000075
  0
LINE
  5
E03
330
2
100
AcDbEntity
  8
HIDS
  6
SEKKEI_H
100
AcDbLine
 10
717.6804799979434
 20
833.1755598872444
 30
0.0
 11
723.0089071226927
 21
838.5039870119934
 31
0.0
  0
LINE
  5
E04
330
2
100
AcDbEntity
  8
0
 48
0.5
100
AcDbLine
 10
734.5946935603162
 20
839.0897734496174
 30
0.0
 11
735.0946935603162
 21
839.5897734496172
 31
0.0
  0
LINE
  5
E05
330
2
100
AcDbEntity
  8
0
100
AcDbLine
 10
728.5946935603167
 20
839.0897734496174
 30
0.0
 11
734.5946935603158
 21
839.0897734496171
 31
0.0
  0
LINE
  5
E06
330
2
100
AcDbEntity
  8
0
100
AcDbLine
 10
737.0946935603167
 20
846.5897734496172
 30
0.0
 11
737.6720438295067
 21
847.5897734496172
 31
0.0
  0
LINE
  5
E07
330
2
100
AcDbEntity
  8
0
 48
0.5
100
AcDbLine
 10
737.0946935603167
 20
846.5897734496172
 30
0.0
 11
737.0946935603167
 21
845.3897734496171
 31
0.0
  0
LINE
  5
E08
330
2
100
AcDbEntity
  8
0
100
AcDbLine
 10
822.0946935603167
 20
846.5897734496179
 30
0.0
 11
737.0946935603167
 21
846.5897734496172
 31
0.0
  0
LINE
  5
E09
330
2
100
AcDbEntity
  8
0
100
AcDbLine
 10
737.0946935603158
 20
842.8897734496171
 30
0.0
 11
822.0946935603167
 21
842.8897734496178
 31
0.0
  0
LINE
  5
E0A
330
2
100
AcDbEntity
  8
0
100
AcDbLine
 10
822.0946935603167
 20
839.5897734496179
 30
0.0
 11
737.0946935603162
 21
839.5897734496172
 31
0.0
  0
LINE
  5
E0B
330
2
100
AcDbEntity
  8
0
100
AcDbLine
 10
734.5946935603158
 20
839.0897734496171
 30
0.0
 11
824.5946935603171
 21
839.0897734496176
 31
0.0
  0
LINE
  5
E0C
330
2
100
AcDbEntity
  8
0
100
AcDbLine
 10
846.4846935603166
 20
822.5897734496186
 30
0.0
 11
712.0946935603167
 21
822.5897734496175
 31
0.0
  0
LINE
  5
E0D
330
2
100
AcDbEntity
  8
0
100
AcDbLine
 10
827.0946935603163
 20
822.5897734496207
 30
0.0
 11
827.0946935603157
 21
831.0897734496183
 31
0.0
  0
LINE
  5
E0E
330
2
100
AcDbEntity
  8
0
100
AcDbLine
 10
804.1554838510299
 20
822.5897734496195
 30
0.0
 11
804.1554838510299
 21
831.0897734496181
 31
0.0
  0
LINE
  5
E0F
330
2
100
AcDbEntity
  8
0
100
AcDbLine
 10
837.0946935607488
 20
822.5897734496212
 30
0.0
 11
837.0946935607488
 21
831.0897734496183
 31
0.0
  0
LINE
  5
E10
330
2
100
AcDbEntity
  8
0
100
AcDbLine
 10
732.0946935603172
 20
822.5897734496152
 30
0.0
 11
732.0946935603172
 21
831.0897734496174
 31
0.0
  0
LINE
  5
E11
330
2
100
AcDbEntity
  8
0
100
AcDbLine
 10
755.0339032696036
 20
822.5897734496166
 30
0.0
 11
755.0339032696036
 21
831.0897734496176
 31
0.0
  0
LINE
  5
E12
330
2
100
AcDbEntity
  8
0
100
AcDbLine
 10
722.0946935598846
 20
822.5897734496147
 30
0.0
 11
722.0946935598846
 21
831.0897734496174
 31
0.0
  0
LINE
  5
E13
330
2
100
AcDbEntity
  8
0
 48
0.5
100
AcDbLine
 10
1328.900047544818
 20
317.6378328096467
 30
0.0
 11
1320.882594473821
 21
317.5678655566774
 31
0.0
  0
ARC
  5
E14
330
2
100
AcDbEntity
  8
0
100
AcDbCircle
 10
1328.882594473821
 20
319.637756655775
 30
0.0
 40
2.0
100
AcDbArc
 50
270.4999999999915
 51
0.0
  0
LINE
  5
E17
330
2
100
AcDbEntity
  8
0
 48
0.5
100
AcDbLine
 10
1328.900047544817
 20
452.497898303708
 30
0.0
 11
1320.882594473821
 21
452.5678655566771
 31
0.0
  0
LINE
  5
E18
330
2
100
AcDbEntity
  8
0
100
AcDbLine
 10
1330.88259447382
 20
450.4979744575797
 30
0.0
 11
1330.88259447382
 21
450.0678655566772
 31
0.0
  0
LINE
  5
E19
330
2
100
AcDbEntity
  8
0
100
AcDbLine
 10
1330.882594473821
 20
320.0678655566771
 30
0.0
 11
1330.882594473821
 21
319.637756655775
 31
0.0
  0
ARC
  5
E1A
330
2
100
AcDbEntity
  8
0
100
AcDbCircle
 10
1328.88259447382
 20
450.4979744575796
 30
0.0
 40
2.0
100
AcDbArc
 50
0.0
 51
89.50000000000846
  0
LINE
  5
E1D
330
2
100
AcDbEntity
  8
0
100
AcDbLine
 10
1320.882594473821
 20
317.5678655566774
 30
0.0
 11
1320.882594473821
 21
320.0678655566771
 31
0.0
  0
LINE
  5
E1E
330
2
100
AcDbEntity
  8
0
100
AcDbLine
 10
1320.88259447382
 20
450.0678655566772
 30
0.0
 11
1320.88259447382
 21
452.5678655566771
 31
0.0
  0
LINE
  5
E1F
330
2
100
AcDbEntity
  8
0
 48
0.3
100
AcDbLine
 10
347.2099579185994
 20
334.0678655566772
 30
0.0
 11
347.2099579185999
 21
321.0678655566773
 31
0.0
  0
LINE
  5
E20
330
2
100
AcDbEntity
  8
0
 48
0.3
100
AcDbLine
 10
346.7099579185994
 20
333.2018401528914
 30
0.0
 11
346.7099579185999
 21
321.9338909604618
 31
0.0
  0
LINE
  5
E21
330
2
100
AcDbEntity
  8
CENTER
 48
0.5
100
AcDbLine
 10
343.7099579185999
 20
327.5678655566772
 30
0.0
 11
362.7099579185999
 21
327.5678655566772
 31
0.0
  0
LINE
  5
E22
330
2
100
AcDbEntity
  8
0
 48
0.3
100
AcDbLine
 10
347.2099579185999
 20
321.0678655566773
 30
0.0
 11
346.7099579185999
 21
321.9338909604618
 31
0.0
  0
LINE
  5
E23
330
2
100
AcDbEntity
  8
0
 48
0.3
100
AcDbLine
 10
347.2099579185999
 20
321.0678655566773
 30
0.0
 11
354.7099579185999
 21
321.0678655566773
 31
0.0
  0
LINE
  5
E24
330
2
100
AcDbEntity
  8
0
 48
0.3
100
AcDbLine
 10
347.2099579186003
 20
334.0678655566768
 30
0.0
 11
346.7099579186003
 21
333.2018401528925
 31
0.0
  0
LINE
  5
E25
330
2
100
AcDbEntity
  8
0
 48
0.3
100
AcDbLine
 10
347.2099579186003
 20
334.0678655566772
 30
0.0
 11
354.7099579185994
 21
334.0678655566772
 31
0.0
  0
LINE
  5
E26
330
2
100
AcDbEntity
  8
0
 48
0.3
100
AcDbLine
 10
347.2099579185994
 20
449.0678655566773
 30
0.0
 11
347.2099579185994
 21
436.0678655566773
 31
0.0
  0
LINE
  5
E27
330
2
100
AcDbEntity
  8
0
 48
0.3
100
AcDbLine
 10
346.7099579185994
 20
448.2018401528914
 30
0.0
 11
346.7099579185994
 21
436.9338909604618
 31
0.0
  0
LINE
  5
E28
330
2
100
AcDbEntity
  8
CENTER
 48
0.5
100
AcDbLine
 10
343.7099579185994
 20
442.5678655566772
 30
0.0
 11
362.7099579185994
 21
442.5678655566772
 31
0.0
  0
LINE
  5
E29
330
2
100
AcDbEntity
  8
0
 48
0.3
100
AcDbLine
 10
347.2099579185994
 20
436.0678655566773
 30
0.0
 11
346.7099579185994
 21
436.9338909604618
 31
0.0
  0
LINE
  5
E2A
330
2
100
AcDbEntity
  8
0
 48
0.3
100
AcDbLine
 10
347.2099579185994
 20
436.0678655566773
 30
0.0
 11
354.7099579185994
 21
436.0678655566773
 31
0.0
  0
LINE
  5
E2B
330
2
100
AcDbEntity
  8
0
 48
0.3
100
AcDbLine
 10
347.2099579185999
 20
449.0678655566768
 30
0.0
 11
346.7099579185999
 21
448.2018401528925
 31
0.0
  0
LINE
  5
E2C
330
2
100
AcDbEntity
  8
0
 48
0.3
100
AcDbLine
 10
347.2099579186003
 20
449.0678655566773
 30
0.0
 11
354.7099579185994
 21
449.0678655566773
 31
0.0
  0
LINE
  5
E2D
330
2
100
AcDbEntity
  8
0
 48
0.3
100
AcDbLine
 10
728.5946935603167
 20
842.0897734496177
 30
0.0
 11
715.5946935603167
 21
842.0897734496175
 31
0.0
  0
LINE
  5
E2E
330
2
100
AcDbEntity
  8
0
 48
0.3
100
AcDbLine
 10
727.7286681565308
 20
842.5897734496176
 30
0.0
 11
716.4607189641012
 21
842.5897734496174
 31
0.0
  0
LINE
  5
E2F
330
2
100
AcDbEntity
  8
CENTER
 48
0.5
100
AcDbLine
 10
722.0946935603167
 20
845.5897734496174
 30
0.0
 11
722.0946935603167
 21
826.5897734496174
 31
0.0
  0
LINE
  5
E30
330
2
100
AcDbEntity
  8
0
 48
0.3
100
AcDbLine
 10
715.5946935603167
 20
842.0897734496175
 30
0.0
 11
716.4607189641012
 21
842.5897734496174
 31
0.0
  0
LINE
  5
E31
330
2
100
AcDbEntity
  8
0
 48
0.3
100
AcDbLine
 10
715.5946935603167
 20
842.0897734496175
 30
0.0
 11
715.5946935603167
 21
834.5897734496174
 31
0.0
  0
LINE
  5
E32
330
2
100
AcDbEntity
  8
0
 48
0.3
100
AcDbLine
 10
728.5946935603162
 20
842.089773449617
 30
0.0
 11
727.7286681565317
 21
842.5897734496171
 31
0.0
  0
LINE
  5
E33
330
2
100
AcDbEntity
  8
0
 48
0.3
100
AcDbLine
 10
728.5946935603167
 20
842.0897734496168
 30
0.0
 11
728.5946935603167
 21
834.5897734496176
 31
0.0
  0
LINE
  5
E34
330
2
100
AcDbEntity
  8
0
 48
0.3
100
AcDbLine
 10
843.5946935603167
 20
842.0897734496184
 30
0.0
 11
830.5946935603166
 21
842.0897734496181
 31
0.0
  0
LINE
  5
E35
330
2
100
AcDbEntity
  8
0
 48
0.3
100
AcDbLine
 10
842.7286681565307
 20
842.5897734496183
 30
0.0
 11
831.4607189641012
 21
842.5897734496182
 31
0.0
  0
LINE
  5
E36
330
2
100
AcDbEntity
  8
CENTER
 48
0.5
100
AcDbLine
 10
837.0946935603168
 20
845.5897734496184
 30
0.0
 11
837.0946935603168
 21
826.5897734496183
 31
0.0
  0
LINE
  5
E37
330
2
100
AcDbEntity
  8
0
 48
0.3
100
AcDbLine
 10
830.5946935603166
 20
842.0897734496181
 30
0.0
 11
831.4607189641012
 21
842.5897734496182
 31
0.0
  0
LINE
  5
E38
330
2
100
AcDbEntity
  8
0
 48
0.3
100
AcDbLine
 10
830.5946935603166
 20
842.0897734496181
 30
0.0
 11
830.5946935603166
 21
834.5897734496181
 31
0.0
  0
LINE
  5
E39
330
2
100
AcDbEntity
  8
0
 48
0.3
100
AcDbLine
 10
843.5946935603162
 20
842.0897734496177
 30
0.0
 11
842.7286681565316
 21
842.589773449618
 31
0.0
  0
LINE
  5
E3A
330
2
100
AcDbEntity
  8
0
 48
0.3
100
AcDbLine
 10
843.5946935603167
 20
842.0897734496175
 30
0.0
 11
843.5946935603167
 21
834.5897734496183
 31
0.0
  0
LINE
  5
E3B
330
2
100
AcDbEntity
  8
0
100
AcDbLine
 10
247.8059347352689
 20
439.1037639419717
 30
0.0
 11
250.8059347352684
 21
440.8358147495406
 31
0.0
  0
LINE
  5
E3C
330
2
100
AcDbEntity
  8
0
100
AcDbLine
 10
244.8059347352689
 20
444.2999163646782
 30
0.0
 11
247.8059347352689
 21
446.0319671722472
 31
0.0
  0
CIRCLE
  5
E3D
330
2
100
AcDbEntity
  8
0
100
AcDbCircle
 10
247.8059347352689
 20
442.5678655571094
 30
0.0
 40
6.5
  0
LINE
  5
E3E
330
2
100
AcDbEntity
  8
0
100
AcDbLine
 10
250.8059347352684
 20
444.2999163646782
 30
0.0
 11
247.8059347352689
 21
446.0319671722471
 31
0.0
  0
LINE
  5
E3F
330
2
100
AcDbEntity
  8
0
100
AcDbLine
 10
247.8059347352689
 20
439.1037639419718
 30
0.0
 11
244.8059347352689
 21
440.8358147495405
 31
0.0
  0
LINE
  5
E40
330
2
100
AcDbEntity
  8
0
100
AcDbLine
 10
250.8059347352684
 20
440.8358147495408
 30
0.0
 11
250.8059347352684
 21
444.2999163646783
 31
0.0
  0
LINE
  5
E41
330
2
100
AcDbEntity
  8
0
100
AcDbLine
 10
244.8059347352689
 20
440.8358147495404
 30
0.0
 11
244.8059347352689
 21
444.2999163646782
 31
0.0
  0
CIRCLE
  5
E42
330
2
100
AcDbEntity
  8
0
100
AcDbCircle
 10
247.8059347352689
 20
442.5678655571094
 30
0.0
 40
5.633974596215466
  0
LINE
  5
E43
330
2
100
AcDbEntity
  8
0
100
AcDbLine
 10
132.8059347352693
 20
439.1037639419717
 30
0.0
 11
135.8059347352693
 21
440.8358147495406
 31
0.0
  0
LINE
  5
E44
330
2
100
AcDbEntity
  8
0
100
AcDbLine
 10
129.8059347352693
 20
444.2999163646782
 30
0.0
 11
132.8059347352693
 21
446.0319671722472
 31
0.0
  0
CIRCLE
  5
E45
330
2
100
AcDbEntity
  8
0
100
AcDbCircle
 10
132.8059347352693
 20
442.5678655571094
 30
0.0
 40
6.5
  0
LINE
  5
E46
330
2
100
AcDbEntity
  8
0
100
AcDbLine
 10
135.8059347352693
 20
444.2999163646782
 30
0.0
 11
132.8059347352693
 21
446.0319671722471
 31
0.0
  0
LINE
  5
E47
330
2
100
AcDbEntity
  8
0
100
AcDbLine
 10
132.8059347352693
 20
439.1037639419718
 30
0.0
 11
129.8059347352693
 21
440.8358147495405
 31
0.0
  0
LINE
  5
E48
330
2
100
AcDbEntity
  8
0
100
AcDbLine
 10
135.8059347352693
 20
440.8358147495408
 30
0.0
 11
135.8059347352693
 21
444.2999163646783
 31
0.0
  0
LINE
  5
E49
330
2
100
AcDbEntity
  8
0
100
AcDbLine
 10
129.8059347352693
 20
440.8358147495404
 30
0.0
 11
129.8059347352693
 21
444.2999163646782
 31
0.0
  0
CIRCLE
  5
E4A
330
2
100
AcDbEntity
  8
0
100
AcDbCircle
 10
132.8059347352693
 20
442.5678655571094
 30
0.0
 40
5.633974596215466
  0
LINE
  5
E4B
330
2
100
AcDbEntity
  8
0
100
AcDbLine
 10
132.8059347352693
 20
324.1037639419715
 30
0.0
 11
135.8059347352693
 21
325.8358147495405
 31
0.0
  0
LINE
  5
E4C
330
2
100
AcDbEntity
  8
0
100
AcDbLine
 10
129.8059347352693
 20
329.2999163646781
 30
0.0
 11
132.8059347352693
 21
331.031967172247
 31
0.0
  0
CIRCLE
  5
E4D
330
2
100
AcDbEntity
  8
0
100
AcDbCircle
 10
132.8059347352693
 20
327.5678655571092
 30
0.0
 40
6.5
  0
LINE
  5
E4E
330
2
100
AcDbEntity
  8
0
100
AcDbLine
 10
135.8059347352693
 20
329.2999163646781
 30
0.0
 11
132.8059347352693
 21
331.0319671722469
 31
0.0
  0
LINE
  5
E4F
330
2
100
AcDbEntity
  8
0
100
AcDbLine
 10
132.8059347352693
 20
324.1037639419717
 30
0.0
 11
129.8059347352693
 21
325.8358147495404
 31
0.0
  0
LINE
  5
E50
330
2
100
AcDbEntity
  8
0
100
AcDbLine
 10
135.8059347352693
 20
325.8358147495406
 30
0.0
 11
135.8059347352693
 21
329.2999163646782
 31
0.0
  0
LINE
  5
E51
330
2
100
AcDbEntity
  8
0
100
AcDbLine
 10
129.8059347352693
 20
325.8358147495403
 30
0.0
 11
129.8059347352693
 21
329.2999163646781
 31
0.0
  0
CIRCLE
  5
E52
330
2
100
AcDbEntity
  8
0
100
AcDbCircle
 10
132.8059347352693
 20
327.5678655571092
 30
0.0
 40
5.633974596215466
  0
LINE
  5
E53
330
2
100
AcDbEntity
  8
0
100
AcDbLine
 10
247.8059347352689
 20
324.1037639419715
 30
0.0
 11
250.8059347352684
 21
325.8358147495405
 31
0.0
  0
LINE
  5
E54
330
2
100
AcDbEntity
  8
0
100
AcDbLine
 10
244.8059347352689
 20
329.2999163646781
 30
0.0
 11
247.8059347352689
 21
331.031967172247
 31
0.0
  0
CIRCLE
  5
E55
330
2
100
AcDbEntity
  8
0
100
AcDbCircle
 10
247.8059347352689
 20
327.5678655571092
 30
0.0
 40
6.5
  0
LINE
  5
E56
330
2
100
AcDbEntity
  8
0
100
AcDbLine
 10
250.8059347352684
 20
329.2999163646781
 30
0.0
 11
247.8059347352689
 21
331.0319671722469
 31
0.0
  0
LINE
  5
E57
330
2
100
AcDbEntity
  8
0
100
AcDbLine
 10
247.8059347352689
 20
324.1037639419717
 30
0.0
 11
244.8059347352689
 21
325.8358147495404
 31
0.0
  0
LINE
  5
E58
330
2
100
AcDbEntity
  8
0
100
AcDbLine
 10
250.8059347352684
 20
325.8358147495406
 30
0.0
 11
250.8059347352684
 21
329.2999163646782
 31
0.0
  0
LINE
  5
E59
330
2
100
AcDbEntity
  8
0
100
AcDbLine
 10
244.8059347352689
 20
325.8358147495403
 30
0.0
 11
244.8059347352689
 21
329.2999163646781
 31
0.0
  0
CIRCLE
  5
E5A
330
2
100
AcDbEntity
  8
0
100
AcDbCircle
 10
247.8059347352689
 20
327.5678655571092
 30
0.0
 40
5.633974596215466
  0
LINE
  5
E5B
330
2
100
AcDbEntity
  8
HIDS
  6
SEKKEI_H
100
AcDbLine
 10
350.2099579185944
 20
440.23943843193
 30
0.0
 11
350.2099579185994
 21
436.0678655566773
 31
0.0
  0
LINE
  5
E5C
330
2
100
AcDbEntity
  8
HIDS
  6
SEKKEI_H
100
AcDbLine
 10
350.2099579185949
 20
329.8962926814245
 30
0.0
 11
350.2099579185999
 21
334.0678655566772
 31
0.0
  0
ARC
  5
E5D
330
2
100
AcDbEntity
  8
HIDS
  6
SEKKEI_H
100
AcDbCircle
 10
351.7099579185953
 20
435.150851673815
 30
0.0
 40
10.00000000000001
100
AcDbArc
 50
90.47745377731077
 51
119.9999999999698
  0
ARC
  5
E5E
330
2
100
AcDbEntity
  8
HIDS
  6
SEKKEI_H
100
AcDbCircle
 10
351.7099579185953
 20
334.9848794395394
 30
0.0
 40
10.00000000000001
100
AcDbArc
 50
240.00000000003
 51
269.5225462226892
  0
LINE
  5
E5F
330
2
100
AcDbEntity
  8
HIDS
  6
SEKKEI_H
100
AcDbLine
 10
728.5946935603167
 20
839.0897734496174
 30
0.0
 11
724.4231206850638
 21
839.0897734496224
 31
0.0
  0
LINE
  5
E60
330
2
100
AcDbEntity
  8
HIDS
  6
SEKKEI_H
100
AcDbLine
 10
830.5946935603166
 20
839.0897734496183
 30
0.0
 11
834.7662664355691
 21
839.0897734496233
 31
0.0
  0
CIRCLE
  5
E61
330
2
100
AcDbEntity
  8
0
100
AcDbCircle
 10
247.8059347352689
 20
327.5678655571092
 30
0.0
 40
7.25
  0
CIRCLE
  5
E62
330
2
100
AcDbEntity
  8
0
100
AcDbCircle
 10
247.8059347352689
 20
442.5678655571094
 30
0.0
 40
7.25
  0
CIRCLE
  5
E63
330
2
100
AcDbEntity
  8
0
100
AcDbCircle
 10
132.8059347352693
 20
442.5678655571095
 30
0.0
 40
7.25
  0
CIRCLE
  5
E64
330
2
100
AcDbEntity
  8
0
100
AcDbCircle
 10
132.8059347352693
 20
327.5678655571092
 30
0.0
 40
7.25
  0
LINE
  5
E65
330
2
100
AcDbEntity
  8
0
 48
0.3
100
AcDbLine
 10
354.7099579185994
 20
449.8178655566773
 30
0.0
 11
354.7099579185994
 21
435.3178655566773
 31
0.0
  0
LINE
  5
E66
330
2
100
AcDbEntity
  8
0
 48
0.3
100
AcDbLine
 10
354.7099579185994
 20
435.3178655566773
 30
0.0
 11
356.7099579185994
 21
435.3178655566773
 31
0.0
  0
LINE
  5
E67
330
2
100
AcDbEntity
  8
0
 48
0.3
100
AcDbLine
 10
354.7099579185994
 20
449.8178655566773
 30
0.0
 11
356.7099579185994
 21
449.8178655566773
 31
0.0
  0
LINE
  5
E68
330
2
100
AcDbEntity
  8
0
100
AcDbLine
 10
356.7099579185994
 20
449.8178655566773
 30
0.0
 11
356.7099579185994
 21
435.3178655566773
 31
0.0
  0
LINE
  5
E69
330
2
100
AcDbEntity
  8
0
 48
0.3
100
AcDbLine
 10
354.7099579185999
 20
334.8178655566773
 30
0.0
 11
354.7099579185999
 21
320.3178655566773
 31
0.0
  0
LINE
  5
E6A
330
2
100
AcDbEntity
  8
0
 48
0.3
100
AcDbLine
 10
354.7099579185999
 20
320.3178655566773
 30
0.0
 11
356.7099579185999
 21
320.3178655566773
 31
0.0
  0
LINE
  5
E6B
330
2
100
AcDbEntity
  8
0
 48
0.3
100
AcDbLine
 10
354.7099579185999
 20
334.8178655566773
 30
0.0
 11
356.7099579185999
 21
334.8178655566773
 31
0.0
  0
LINE
  5
E6C
330
2
100
AcDbEntity
  8
0
100
AcDbLine
 10
356.7099579185999
 20
334.8178655566773
 30
0.0
 11
356.7099579185999
 21
320.3178655566773
 31
0.0
  0
LINE
  5
E6D
330
2
100
AcDbEntity
  8
0
 48
0.3
100
AcDbLine
 10
729.3446935603167
 20
834.5897734496174
 30
0.0
 11
714.8446935603167
 21
834.5897734496174
 31
0.0
  0
LINE
  5
E6E
330
2
100
AcDbEntity
  8
0
 48
0.3
100
AcDbLine
 10
714.8446935603167
 20
834.5897734496174
 30
0.0
 11
714.8446935603167
 21
832.5897734496175
 31
0.0
  0
LINE
  5
E6F
330
2
100
AcDbEntity
  8
0
 48
0.3
100
AcDbLine
 10
729.3446935603167
 20
834.5897734496176
 30
0.0
 11
729.3446935603167
 21
832.5897734496177
 31
0.0
  0
LINE
  5
E70
330
2
100
AcDbEntity
  8
0
100
AcDbLine
 10
729.3446935603167
 20
832.5897734496177
 30
0.0
 11
714.8446935603167
 21
832.5897734496175
 31
0.0
  0
LINE
  5
E71
330
2
100
AcDbEntity
  8
0
 48
0.3
100
AcDbLine
 10
844.3446935603168
 20
834.5897734496183
 30
0.0
 11
829.8446935603166
 21
834.5897734496183
 31
0.0
  0
LINE
  5
E72
330
2
100
AcDbEntity
  8
0
 48
0.3
100
AcDbLine
 10
829.8446935603166
 20
834.5897734496183
 30
0.0
 11
829.8446935603166
 21
832.5897734496182
 31
0.0
  0
LINE
  5
E73
330
2
100
AcDbEntity
  8
0
 48
0.3
100
AcDbLine
 10
844.3446935603168
 20
834.5897734496183
 30
0.0
 11
844.3446935603168
 21
832.5897734496184
 31
0.0
  0
LINE
  5
E74
330
2
100
AcDbEntity
  8
0
100
AcDbLine
 10
844.3446935603168
 20
832.5897734496184
 30
0.0
 11
829.8446935603166
 21
832.5897734496184
 31
0.0
  0
LINE
  5
E83
330
2
100
AcDbEntity
  8
0
 48
0.5
100
AcDbLine
 10
366.7099579186031
 20
317.5722289905735
 30
0.0
 11
468.7099579185953
 21
318.4623695052288
 31
0.0
  0
LINE
  5
E84
330
2
100
AcDbEntity
  8
0
 48
0.5
100
AcDbLine
 10
366.7099579186031
 20
452.563502122781
 30
0.0
 11
468.7099579185881
 21
451.6733616081258
 31
0.0
  0
LINE
  5
E85
330
2
100
AcDbEntity
  8
0
100
AcDbLine
 10
1201.535298118495
 20
428.8592818003471
 30
0.0
 11
1207.271779895163
 21
429.8707783119163
 31
0.0
  0
LINE
  5
E86
330
2
100
AcDbEntity
  8
0
100
AcDbLine
 10
1201.535298118495
 20
341.2764493130072
 30
0.0
 11
1207.271779895165
 21
340.264952801438
 31
0.0
  0
ARC
  5
E87
330
2
100
AcDbEntity
  8
0
100
AcDbCircle
 10
1201.882594473829
 20
343.2460648190319
 30
0.0
 40
2.0
100
AcDbArc
 50
180.0
 51
259.9999999999948
  0
LINE
  5
E88
330
2
100
AcDbEntity
  8
0
100
AcDbLine
 10
1199.882594473829
 20
426.8896662943227
 30
0.0
 11
1199.882594473829
 21
343.2460648190319
 31
0.0
  0
ARC
  5
E89
330
2
100
AcDbEntity
  8
0
100
AcDbCircle
 10
1201.882594473829
 20
426.8896662943227
 30
0.0
 40
2.0
100
AcDbArc
 50
100.0000000000051
 51
180.0
  0
ARC
  5
E8A
330
2
100
AcDbEntity
  8
0
100
AcDbCircle
 10
1205.882594473827
 20
437.7492403360135
 30
0.0
 40
8.0
100
AcDbArc
 50
280.0000000000051
 51
0.0
  0
ARC
  5
E8B
330
2
100
AcDbEntity
  8
0
100
AcDbCircle
 10
1205.882594473829
 20
332.3864907773403
 30
0.0
 40
8.0
100
AcDbArc
 50
0.0
 51
79.99999999999484
  0
LINE
  5
E8C
330
2
100
AcDbEntity
  8
0
100
AcDbLine
 10
62.30593473483191
 20
445.5678655566773
 30
0.0
 11
76.30593473483827
 21
445.5678655566773
 31
0.0
  0
ARC
  5
E8D
330
2
100
AcDbEntity
  8
0
100
AcDbCircle
 10
76.30593473483827
 20
326.5678655566773
 30
0.0
 40
2.0
100
AcDbArc
 50
270.0
 51
0.0
  0
LINE
  5
E8E
330
2
100
AcDbEntity
  8
0
100
AcDbLine
 10
62.30593473483191
 20
324.5678655566774
 30
0.0
 11
76.30593473483827
 21
324.5678655566773
 31
0.0
  0
LINE
  5
E8F
330
2
100
AcDbEntity
  8
0
100
AcDbLine
 10
907.5946935603218
 20
445.5678655566773
 30
0.0
 11
893.5946935603153
 21
445.5678655566773
 31
0.0
  0
ARC
  5
E90
330
2
100
AcDbEntity
  8
0
100
AcDbCircle
 10
893.5946935603153
 20
443.5678655566773
 30
0.0
 40
2.0
100
AcDbArc
 50
90.0
 51
180.0
  0
LINE
  5
E91
330
2
100
AcDbEntity
  8
0
100
AcDbLine
 10
907.5946935603218
 20
324.567865556677
 30
0.0
 11
893.5946935603153
 21
324.567865556677
 31
0.0
  0
ARC
  5
E92
330
2
100
AcDbEntity
  8
0
100
AcDbCircle
 10
893.5946935603153
 20
326.567865556677
 30
0.0
 40
2.0
100
AcDbArc
 50
180.0
 51
270.0
  0
LINE
  5
1147
330
2
100
AcDbEntity
  8
0
100
AcDbLine
 10
907.5946935603218
 20
445.0678655566789
 30
0.0
 11
907.5946935603218
 21
325.0678655566771
 31
0.0
  0
ARC
  5
1208
330
2
100
AcDbEntity
  8
0
100
AcDbCircle
 10
351.6269718014556
 20
435.0678655566873
 30
0.0
 40
10.0
100
AcDbArc
 50
134.6637861676429
 51
179.5225462226762
  0
LINE
  5
1209
330
2
100
AcDbEntity
  8
0
100
AcDbLine
 10
341.6273190055944
 20
435.151195996653
 30
0.0
 11
341.2099579185905
 21
385.0678655566773
 31
0.0
  0
ARC
  5
120C
330
2
100
AcDbEntity
  8
0
100
AcDbCircle
 10
351.6269718014556
 20
335.0678655566677
 30
0.0
 40
10.0
100
AcDbArc
 50
180.4774537773237
 51
225.336213832201
  0
LINE
  5
120D
330
2
100
AcDbEntity
  8
0
100
AcDbLine
 10
341.6273190055944
 20
334.9845351167015
 30
0.0
 11
341.2099579185905
 21
385.0678655566773
 31
0.0
  0
LINE
  5
120F
330
2
100
AcDbEntity
  8
0
100
AcDbLine
 10
62.30593473483191
 20
445.0678655566791
 30
0.0
 11
62.30593473483191
 21
325.0678655566773
 31
0.0
  0
TEXT
  5
1B1C
330
2
100
AcDbEntity
  8
TITLE
100
AcDbText
 10
401.3548919300465
 20
826.6627372190065
 30
0.0
 40
10.0
  1
AFCZ32L-3~5M3000K34
100
AcDbText
  0
TEXT
  5
1B1E
330
2
100
AcDbEntity
  8
TITLE
100
AcDbText
 10
401.3548919300465
 20
811.8818430966687
 30
0.0
 40
10.0
  1
AFCZ32L-3~5L3000K34
100
AcDbText
  0
LINE
  5
1D05
330
2
100
AcDbEntity
  8
0
100
AcDbLine
 10
488.308034129948
 20
409.2999163642463
 30
0.0
 11
488.4599579185953
 21
409.2122031239745
 31
0.0
  0
ARC
  5
1D06
330
2
100
AcDbEntity
  8
0
100
AcDbCircle
 10
488.2099579185953
 20
408.7791904220824
 30
0.0
 40
0.5
100
AcDbArc
 50
0.0
 51
59.99999999999907
  0
LINE
  5
1D07
330
2
100
AcDbEntity
  8
0
100
AcDbLine
 10
488.7099579185953
 20
361.356540691272
 30
0.0
 11
488.7099579185953
 21
408.7791904220824
 31
0.0
  0
LINE
  5
1D08
330
2
100
AcDbEntity
  8
0
100
AcDbLine
 10
489.7099579185954
 20
401.0678655566772
 30
0.0
 11
544.7099579185953
 21
401.0678655566774
 31
0.0
  0
LINE
  5
1D09
330
2
100
AcDbEntity
  8
0
100
AcDbLine
 10
489.7099579185954
 20
367.5678655566773
 30
0.0
 11
489.7099579185954
 21
402.5678655566772
 31
0.0
  0
LINE
  5
1D0A
330
2
100
AcDbEntity
  8
0
100
AcDbLine
 10
488.7099579185953
 20
403.1452158258669
 30
0.0
 11
489.7099579185954
 21
402.5678655566772
 31
0.0
  0
LINE
  5
1D0B
330
2
100
AcDbEntity
  8
0
100
AcDbLine
 10
488.7099579185953
 20
366.9905152874877
 30
0.0
 11
489.7099579185954
 21
367.5678655566773
 31
0.0
  0
LINE
  5
1D0C
330
2
100
AcDbEntity
  8
0
100
AcDbLine
 10
489.7099579185954
 20
369.067865556677
 30
0.0
 11
544.7099579185953
 21
369.0678655566772
 31
0.0
  0
LINE
  5
1D0D
330
2
100
AcDbEntity
  8
0
100
AcDbLine
 10
544.7099579185953
 20
369.0678655566772
 30
0.0
 11
544.7099579185953
 21
401.0678655566774
 31
0.0
  0
ARC
  5
1D0E
330
2
100
AcDbEntity
  8
0
100
AcDbCircle
 10
487.308034129948
 20
407.5678655566774
 30
0.0
 40
2.0
100
AcDbArc
 50
59.99999999999907
 51
78.40678637647568
  0
LINE
  5
1D0F
330
2
100
AcDbEntity
  8
0
100
AcDbLine
 10
488.3080341299482
 20
360.8358147491081
 30
0.0
 11
488.4599579185953
 21
360.9235279893798
 31
0.0
  0
ARC
  5
1D10
330
2
100
AcDbEntity
  8
0
100
AcDbCircle
 10
488.2099579185953
 20
361.356540691272
 30
0.0
 40
0.5
100
AcDbArc
 50
300.0000000000008
 51
0.0
  0
ARC
  5
1D11
330
2
100
AcDbEntity
  8
0
100
AcDbCircle
 10
487.3080341299482
 20
362.5678655566769
 30
0.0
 40
2.0
100
AcDbArc
 50
281.5932136235243
 51
300.0000000000008
  0
LINE
  5
1D12
330
2
100
AcDbEntity
  8
0
100
AcDbLine
 10
499.7099579185953
 20
380.0678655566768
 30
0.0
 11
544.7099579185953
 21
380.0678655566767
 31
0.0
  0
ARC
  5
1D13
330
2
100
AcDbEntity
  8
0
100
AcDbCircle
 10
499.7099579185953
 20
385.0678655566773
 30
0.0
 40
5.0
100
AcDbArc
 50
90.0
 51
270.0
  0
LINE
  5
1D14
330
2
100
AcDbEntity
  8
0
100
AcDbLine
 10
499.7099579185953
 20
390.0678655566773
 30
0.0
 11
544.7099579185953
 21
390.0678655566773
 31
0.0
  0
LINE
  5
1D30
330
2
100
AcDbEntity
  8
0
100
AcDbLine
 10
803.8267443678858
 20
700.9916972382695
 30
0.0
 11
803.7390311276137
 21
700.8397734496225
 31
0.0
  0
ARC
  5
1D31
330
2
100
AcDbEntity
  8
0
100
AcDbCircle
 10
803.3060184257218
 20
701.0897734496225
 30
0.0
 40
0.5
100
AcDbArc
 50
270.0
 51
330.0000000000084
  0
LINE
  5
1D32
330
2
100
AcDbEntity
  8
0
100
AcDbLine
 10
755.8833686949117
 20
700.589773449622
 30
0.0
 11
803.3060184257218
 21
700.5897734496224
 31
0.0
  0
LINE
  5
1D33
330
2
100
AcDbEntity
  8
0
100
AcDbLine
 10
795.5946935603167
 20
699.5897734496223
 30
0.0
 11
795.5946935603167
 21
644.5897734496222
 31
0.0
  0
LINE
  5
1D34
330
2
100
AcDbEntity
  8
0
100
AcDbLine
 10
763.5946935603167
 20
699.589773449622
 30
0.0
 11
763.5946935603167
 21
694.5897734496222
 31
0.0
  0
LINE
  5
1D35
330
2
100
AcDbEntity
  8
0
100
AcDbLine
 10
764.0946935603167
 20
644.5897734496222
 30
0.0
 11
795.5946935603167
 21
644.5897734496222
 31
0.0
  0
ARC
  5
1D36
330
2
100
AcDbEntity
  8
0
100
AcDbCircle
 10
802.0946935603166
 20
701.9916972382695
 30
0.0
 40
2.0
100
AcDbArc
 50
330.0000000000084
 51
348.4067863764762
  0
LINE
  5
1D37
330
2
100
AcDbEntity
  8
0
100
AcDbLine
 10
755.3626427527476
 20
700.9916972382693
 30
0.0
 11
755.4503559930192
 21
700.8397734496222
 31
0.0
  0
ARC
  5
1D38
330
2
100
AcDbEntity
  8
0
100
AcDbCircle
 10
755.8833686949117
 20
701.0897734496222
 30
0.0
 40
0.5
100
AcDbArc
 50
209.9999999999915
 51
270.0
  0
ARC
  5
1D39
330
2
100
AcDbEntity
  8
0
100
AcDbCircle
 10
757.0946935603163
 20
701.9916972382693
 30
0.0
 40
2.0
100
AcDbArc
 50
191.5932136235174
 51
209.9999999999915
  0
LINE
  5
1D3A
330
2
100
AcDbEntity
  8
0
100
AcDbLine
 10
760.5946935603603
 20
644.5897734496222
 30
0.0
 11
760.5946935603785
 21
694.5897734496222
 31
0.0
  0
LINE
  5
1D3B
330
2
100
AcDbEntity
  8
0
100
AcDbLine
 10
764.0946935603167
 20
644.5897734496222
 30
0.0
 11
760.5946935603603
 21
644.5897734496222
 31
0.0
  0
LINE
  5
1D3C
330
2
100
AcDbEntity
  8
0
100
AcDbLine
 10
763.5946935603162
 20
694.5897734496222
 30
0.0
 11
760.594693560379
 21
694.5897734496222
 31
0.0
  0
LINE
  5
1D3D
330
2
100
AcDbEntity
  8
0
100
AcDbLine
 10
764.3960094067463
 20
644.5897734496222
 30
0.0
 11
764.3960094067463
 21
689.5897734496222
 31
0.0
  0
LINE
  5
1D3E
330
2
100
AcDbEntity
  8
0
100
AcDbLine
 10
764.3960094067463
 20
689.5897734496222
 30
0.0
 11
763.5946935603167
 21
694.5897734496222
 31
0.0
  0
LINE
  5
1D3F
330
2
100
AcDbEntity
  8
0
100
AcDbLine
 10
762.0946935603167
 20
699.589773449622
 30
0.0
 11
797.0946935603167
 21
699.5897734496223
 31
0.0
  0
LINE
  5
1D40
330
2
100
AcDbEntity
  8
0
100
AcDbLine
 10
797.6720438295067
 20
700.5897734496224
 30
0.0
 11
797.0946935603167
 21
699.5897734496223
 31
0.0
  0
LINE
  5
1D41
330
2
100
AcDbEntity
  8
0
100
AcDbLine
 10
761.5173432911267
 20
700.5897734496224
 30
0.0
 11
762.0946935603167
 21
699.5897734496223
 31
0.0
  0
CIRCLE
  5
1D51
330
2
100
AcDbEntity
  8
0
100
AcDbCircle
 10
779.5946935603166
 20
385.0678655566771
 30
0.0
 40
24.5
  0
ARC
  5
1D52
330
2
100
AcDbEntity
  8
0
100
AcDbCircle
 10
779.5946935603166
 20
385.0678655566772
 30
0.0
 40
16.0
100
AcDbArc
 50
198.2099568642858
 51
161.7900431357141
  0
LINE
  5
1D53
330
2
100
AcDbEntity
  8
0
100
AcDbLine
 10
760.5946935603165
 20
380.0678655566771
 30
0.0
 11
768.5946935603161
 21
380.0678655566772
 31
0.0
  0
LINE
  5
1D54
330
2
100
AcDbEntity
  8
0
100
AcDbLine
 10
760.5946935603165
 20
390.0678655566772
 30
0.0
 11
768.5946935603165
 21
390.0678655566772
 31
0.0
  0
LINE
  5
1D55
330
2
100
AcDbEntity
  8
0
100
AcDbLine
 10
768.5946935603165
 20
390.0678655566772
 30
0.0
 11
768.5946935603161
 21
380.0678655566772
 31
0.0
  0
LINE
  5
1D56
330
2
100
AcDbEntity
  8
0
100
AcDbLine
 10
760.5946935603165
 20
390.0678655566776
 30
0.0
 11
760.5946935603161
 21
380.0678655566775
 31
0.0
  0
ARC
  5
1D57
330
2
100
AcDbEntity
  8
0
100
AcDbCircle
 10
779.5946935603166
 20
385.0678655566772
 30
0.0
 40
17.49999999999994
100
AcDbArc
 50
196.6015495990203
 51
163.3984504009797
  0
ARC
  5
1D58
330
2
100
AcDbEntity
  8
0
100
AcDbCircle
 10
779.5946935603166
 20
385.0678655566772
 30
0.0
 40
18.0773502691897
100
AcDbArc
 50
196.056743014667
 51
163.9432569853329
  0
LINE
  5
1D6C
330
2
100
AcDbEntity
  8
0
100
AcDbLine
 10
1199.284518262476
 20
360.8358147491083
 30
0.0
 11
1199.132594473829
 21
360.9235279893801
 31
0.0
  0
ARC
  5
1D6D
330
2
100
AcDbEntity
  8
0
100
AcDbCircle
 10
1199.382594473829
 20
361.3565406912722
 30
0.0
 40
0.5
100
AcDbArc
 50
180.0
 51
240.0000000000009
  0
LINE
  5
1D6E
330
2
100
AcDbEntity
  8
0
100
AcDbLine
 10
1198.882594473829
 20
408.7791904220826
 30
0.0
 11
1198.882594473829
 21
361.3565406912722
 31
0.0
  0
LINE
  5
1D6F
330
2
100
AcDbEntity
  8
0
100
AcDbLine
 10
1197.882594473829
 20
369.0678655566774
 30
0.0
 11
1142.882594473829
 21
369.067865556677
 31
0.0
  0
LINE
  5
1D70
330
2
100
AcDbEntity
  8
0
100
AcDbLine
 10
1197.882594473828
 20
402.5678655566772
 30
0.0
 11
1197.882594473829
 21
367.5678655566771
 31
0.0
  0
LINE
  5
1D71
330
2
100
AcDbEntity
  8
0
100
AcDbLine
 10
1198.882594473829
 20
403.1452158258668
 30
0.0
 11
1197.882594473828
 21
402.5678655566772
 31
0.0
  0
LINE
  5
1D72
330
2
100
AcDbEntity
  8
0
100
AcDbLine
 10
1197.882594473828
 20
401.0678655566776
 30
0.0
 11
1142.882594473829
 21
401.0678655566772
 31
0.0
  0
LINE
  5
1D73
330
2
100
AcDbEntity
  8
0
100
AcDbLine
 10
1142.882594473829
 20
401.0678655566772
 30
0.0
 11
1142.882594473829
 21
369.067865556677
 31
0.0
  0
ARC
  5
1D74
330
2
100
AcDbEntity
  8
0
100
AcDbCircle
 10
1200.284518262476
 20
362.5678655566772
 30
0.0
 40
2.0
100
AcDbArc
 50
240.0000000000009
 51
258.4067863764623
  0
LINE
  5
1D75
330
2
100
AcDbEntity
  8
0
100
AcDbLine
 10
1199.284518262476
 20
409.2999163642465
 30
0.0
 11
1199.132594473828
 21
409.2122031239749
 31
0.0
  0
ARC
  5
1D76
330
2
100
AcDbEntity
  8
0
100
AcDbCircle
 10
1199.382594473829
 20
408.7791904220826
 30
0.0
 40
0.5
100
AcDbArc
 50
120.0000000000009
 51
180.0
  0
ARC
  5
1D77
330
2
100
AcDbEntity
  8
0
100
AcDbCircle
 10
1200.284518262476
 20
407.5678655566777
 30
0.0
 40
2.0
100
AcDbArc
 50
101.593213623511
 51
120.0000000000009
  0
LINE
  5
1D78
330
2
100
AcDbEntity
  8
0
100
AcDbLine
 10
1198.882594473829
 20
366.9905152874877
 30
0.0
 11
1197.882594473828
 21
367.5678655566772
 31
0.0
  0
LINE
  5
234F
330
2
100
AcDbEntity
  8
0
100
AcDbLine
 10
907.5946935603218
 20
445.067865556679
 30
0.0
 11
907.5946935603218
 21
325.0678655566772
 31
0.0
  0
LINE
  5
25C2
330
2
100
AcDbEntity
  8
0
100
AcDbLine
 10
907.5946935603218
 20
445.067865556679
 30
0.0
 11
907.5946935603218
 21
325.0678655566772
 31
0.0
  0
LINE
  5
2824
330
2
100
AcDbEntity
  8
0
100
AcDbLine
 10
907.5946935603218
 20
445.067865556679
 30
0.0
 11
907.5946935603218
 21
325.0678655566772
 31
0.0
  0
LINE
  5
2AFC
330
2
100
AcDbEntity
  8
0
100
AcDbLine
 10
907.5946935603218
 20
445.0678655566772
 30
0.0
 11
907.5946935603218
 21
325.0678655566772
 31
0.0
  0
LINE
  5
2B1D
330
2
100
AcDbEntity
  8
0
100
AcDbLine
 10
907.5946935603218
 20
727.0897734496229
 30
0.0
 11
907.5946935603209
 21
848.0897734496224
 31
0.0
  0
LINE
  5
2B1E
330
2
100
AcDbEntity
  8
0
100
AcDbLine
 10
921.5946935603207
 20
729.589773449622
 30
0.0
 11
921.5946935603207
 21
845.5897734496234
 31
0.0
  0
LINE
  5
2B1F
330
2
100
AcDbEntity
  8
0
100
AcDbLine
 10
979.0946935603253
 20
852.589773449622
 30
0.0
 11
992.0946935603245
 21
852.5897734496224
 31
0.0
  0
LINE
  5
2B20
330
2
100
AcDbEntity
  8
0
100
AcDbLine
 10
979.0946935603217
 20
722.5897734496225
 30
0.0
 11
992.0946935603248
 21
722.5897734496231
 31
0.0
  0
LINE
  5
2B21
330
2
100
AcDbEntity
  8
0
100
AcDbLine
 10
966.0946935603245
 20
757.0897734496225
 30
0.0
 11
972.0946935603217
 21
757.0897734496229
 31
0.0
  0
ARC
  5
2B22
330
2
100
AcDbEntity
  8
0
100
AcDbCircle
 10
966.0946935603245
 20
760.0897734496225
 30
0.0
 40
3.0
100
AcDbArc
 50
180.0
 51
270.0
  0
LINE
  5
2B23
330
2
100
AcDbEntity
  8
0
100
AcDbLine
 10
929.3926525314539
 20
735.0897734496234
 30
0.0
 11
967.0946935603216
 21
735.0897734496229
 31
0.0
  0
ARC
  5
2B24
330
2
100
AcDbEntity
  8
0
100
AcDbCircle
 10
967.0946935603216
 20
725.0897734496229
 30
0.0
 40
10.0
100
AcDbArc
 50
0.0
 51
90.0
  0
LINE
  5
2B25
330
2
100
AcDbEntity
  8
0
100
AcDbLine
 10
907.5946935603218
 20
727.589773449622
 30
0.0
 11
919.5946935603208
 21
727.5897734496234
 31
0.0
  0
LINE
  5
2B26
330
2
100
AcDbEntity
  8
0
100
AcDbLine
 10
907.5946935603218
 20
727.089773449622
 30
0.0
 11
919.5946935603208
 21
727.0897734496234
 31
0.0
  0
LINE
  5
2B27
330
2
100
AcDbEntity
  8
0
100
AcDbLine
 10
907.5946935603218
 20
847.589773449622
 30
0.0
 11
919.5946935603208
 21
847.5897734496234
 31
0.0
  0
ARC
  5
2B28
330
2
100
AcDbEntity
  8
0
100
AcDbCircle
 10
919.5946935603208
 20
845.5897734496234
 30
0.0
 40
2.0
100
AcDbArc
 50
0.0
 51
90.0
  0
ARC
  5
2B29
330
2
100
AcDbEntity
  8
0
100
AcDbCircle
 10
929.2771519258396
 20
848.0897734496215
 30
0.0
 40
8.0
100
AcDbArc
 50
194.4775121859168
 51
232.6089831347626
  0
ARC
  5
2B2A
330
2
100
AcDbEntity
  8
0
100
AcDbCircle
 10
929.2771519258396
 20
848.0897734496215
 30
0.0
 40
8.0
100
AcDbArc
 50
268.6931248980347
 51
270.0
  0
LINE
  5
2B2B
330
2
100
AcDbEntity
  8
0
100
AcDbLine
 10
907.5946935603218
 20
848.0897734496224
 30
0.0
 11
919.5946935603208
 21
848.0897734496229
 31
0.0
  0
ARC
  5
2B2C
330
2
100
AcDbEntity
  8
0
100
AcDbCircle
 10
919.5946935603208
 20
846.089773449623
 30
0.0
 40
2.0
100
AcDbArc
 50
11.5369590327913
 51
90.0
  0
ARC
  5
2B2D
330
2
100
AcDbEntity
  8
0
100
AcDbCircle
 10
929.3926525314539
 20
848.089773449622
 30
0.0
 40
8.0
100
AcDbArc
 50
191.5369590328053
 51
232.6089831347626
  0
ARC
  5
2B2E
330
2
100
AcDbEntity
  8
0
100
AcDbCircle
 10
929.3926525314539
 20
848.089773449622
 30
0.0
 40
8.0
100
AcDbArc
 50
267.8655323847083
 51
270.0
  0
LINE
  5
2B2F
330
2
100
AcDbEntity
  8
0
100
AcDbLine
 10
929.3926525314539
 20
840.089773449622
 30
0.0
 11
967.0946935603245
 21
840.0897734496215
 31
0.0
  0
ARC
  5
2B30
330
2
100
AcDbEntity
  8
0
100
AcDbCircle
 10
967.0946935603245
 20
850.0897734496216
 30
0.0
 40
10.0
100
AcDbArc
 50
270.0
 51
0.0
  0
LINE
  5
2B31
330
2
100
AcDbEntity
  8
0
100
AcDbLine
 10
992.0946935603245
 20
852.5897734496224
 30
0.0
 11
992.0946935603245
 21
722.5897734496231
 31
0.0
  0
LINE
  5
2B32
330
2
100
AcDbEntity
  8
0
100
AcDbLine
 10
977.0946935603253
 20
850.5897734496221
 30
0.0
 11
977.0946935603189
 21
780.464166639209
 31
0.0
  0
ARC
  5
2B33
330
2
100
AcDbEntity
  8
0
100
AcDbCircle
 10
979.0946935603253
 20
850.5897734496221
 30
0.0
 40
2.0
100
AcDbArc
 50
90.0
 51
180.0
  0
LINE
  5
2B34
330
2
100
AcDbEntity
  8
0
100
AcDbLine
 10
966.0946935603245
 20
787.5897734496224
 30
0.0
 11
975.0946935603217
 21
787.5897734496224
 31
0.0
  0
ARC
  5
2B35
330
2
100
AcDbEntity
  8
0
100
AcDbCircle
 10
975.0946935603217
 20
789.5897734496225
 30
0.0
 40
2.0
100
AcDbArc
 50
270.0
 51
0.0
  0
LINE
  5
2B36
330
2
100
AcDbEntity
  8
0
100
AcDbLine
 10
963.0946935603244
 20
784.5897734496225
 30
0.0
 11
963.0946935603244
 21
760.0897734496225
 31
0.0
  0
ARC
  5
2B37
330
2
100
AcDbEntity
  8
0
100
AcDbCircle
 10
966.0946935603245
 20
784.5897734496225
 30
0.0
 40
3.0
100
AcDbArc
 50
90.0
 51
180.0
  0
LINE
  5
2B38
330
2
100
AcDbEntity
  8
CENTER
100
AcDbLine
 10
959.8446935603263
 20
767.5897734496224
 30
0.0
 11
987.3446935603253
 21
767.5897734496224
 31
0.0
  0
LINE
  5
2B39
330
2
100
AcDbEntity
  8
CENTER
100
AcDbLine
 10
973.5946935603244
 20
753.8397734496225
 30
0.0
 11
973.5946935603262
 21
781.3397734496224
 31
0.0
  0
ARC
  5
2B3A
330
2
100
AcDbEntity
  8
0
100
AcDbCircle
 10
973.5946935603262
 20
767.5897734496224
 30
0.0
 40
11.99999999999818
100
AcDbArc
 50
293.1323963992815
 51
66.86760360071845
  0
ARC
  5
2B3B
330
2
100
AcDbEntity
  8
0
100
AcDbCircle
 10
979.0946935603217
 20
754.7153802600369
 30
0.0
 40
2.0
100
AcDbArc
 50
113.1323963992815
 51
180.0
  0
ARC
  5
2B3C
330
2
100
AcDbEntity
  8
0
100
AcDbCircle
 10
979.0946935603189
 20
780.4641666392094
 30
0.0
 40
2.0
100
AcDbArc
 50
180.000000000013
 51
246.8676036007184
  0
ARC
  5
2B3D
330
2
100
AcDbEntity
  8
0
100
AcDbCircle
 10
919.5946935603208
 20
729.589773449622
 30
0.0
 40
2.0
100
AcDbArc
 50
270.0
 51
0.0
  0
ARC
  5
2B3E
330
2
100
AcDbEntity
  8
0
100
AcDbCircle
 10
929.2771519258396
 20
727.0897734496229
 30
0.0
 40
8.0
100
AcDbArc
 50
90.0
 51
91.30687510196528
  0
ARC
  5
2B3F
330
2
100
AcDbEntity
  8
0
100
AcDbCircle
 10
929.2771519258396
 20
727.0897734496229
 30
0.0
 40
8.0
100
AcDbArc
 50
127.3910168652374
 51
165.5224878140705
  0
ARC
  5
2B40
330
2
100
AcDbEntity
  8
0
100
AcDbCircle
 10
919.5946935603208
 20
729.089773449622
 30
0.0
 40
2.0
100
AcDbArc
 50
270.0
 51
348.4630409671946
  0
ARC
  5
2B41
330
2
100
AcDbEntity
  8
0
100
AcDbCircle
 10
929.3926525314539
 20
727.0897734496229
 30
0.0
 40
8.0
100
AcDbArc
 50
90.0
 51
92.13446761529167
  0
ARC
  5
2B42
330
2
100
AcDbEntity
  8
0
100
AcDbCircle
 10
929.3926525314539
 20
727.0897734496229
 30
0.0
 40
8.0
100
AcDbArc
 50
127.3910168652374
 51
168.4630409671946
  0
LINE
  5
2B43
330
2
100
AcDbEntity
  8
0
100
AcDbLine
 10
977.0946935603218
 20
754.7153802600369
 30
0.0
 11
977.0946935603218
 21
724.5897734496224
 31
0.0
  0
ARC
  5
2B44
330
2
100
AcDbEntity
  8
0
100
AcDbCircle
 10
972.0946935603217
 20
752.0897734496225
 30
0.0
 40
5.0
100
AcDbArc
 50
0.0
 51
90.0
  0
ARC
  5
2B45
330
2
100
AcDbEntity
  8
0
100
AcDbCircle
 10
979.0946935603217
 20
724.5897734496224
 30
0.0
 40
2.0
100
AcDbArc
 50
180.0
 51
270.0
  0
LINE
  5
2B48
330
2
100
AcDbEntity
  8
0
100
AcDbLine
 10
344.875798474143
 20
320.067865587593
 30
0.0
 11
356.7099579185999
 21
320.0678655875931
 31
0.0
  0
LINE
  5
2B4F
330
2
100
AcDbEntity
  8
0
100
AcDbLine
 10
344.875798474143
 20
450.0678655875935
 30
0.0
 11
356.7099579185994
 21
450.0678655875934
 31
0.0
  0
ARC
  5
2B54
330
2
100
AcDbEntity
  8
0
100
AcDbCircle
 10
344.875798474143
 20
442.0678655875926
 30
0.0
 40
7.999999999999998
100
AcDbArc
 50
90.0
 51
179.833333340008
  0
LINE
  5
2B55
330
2
100
AcDbEntity
  8
0
100
AcDbLine
 10
336.709957887683
 20
385.0678655875926
 30
0.0
 11
336.8758323204963
 21
442.0911366105356
 31
0.0
  0
ARC
  5
2B57
330
2
100
AcDbEntity
  8
0
100
AcDbCircle
 10
344.875798474143
 20
328.0678655875935
 30
0.0
 40
7.999999999999998
100
AcDbArc
 50
180.166666660018
 51
270.0
  0
LINE
  5
2B58
330
2
100
AcDbEntity
  8
0
100
AcDbLine
 10
336.709957887683
 20
385.0678655875935
 30
0.0
 11
336.8758323204981
 21
328.0445945646501
 31
0.0
  0
LINE
  5
2B5E
330
2
100
AcDbEntity
  8
0
100
AcDbLine
 10
336.709957887683
 20
385.0678655875926
 30
0.0
 11
341.2099578876757
 21
385.0678655875926
 31
0.0
  0
LINE
  5
2B65
330
2
100
AcDbEntity
  8
CENTER
100
AcDbLine
 10
454.9063505141401
 20
385.067865556677
 30
0.0
 11
445.90635051414
 21
385.067865556677
 31
0.0
  0
LINE
  5
2B66
330
2
100
AcDbEntity
  8
CENTER
100
AcDbLine
 10
357.5135652921342
 20
385.067865587593
 30
0.0
 11
348.5135652921342
 21
385.067865587593
 31
0.0
  0
LINE
  5
2B77
330
2
100
AcDbEntity
  8
0
100
AcDbLine
 10
341.2099578876748
 20
385.0678655564506
 30
0.0
 11
336.709957887683
 21
385.0678655875935
 31
0.0
  0
LINE
  5
2BC9
330
2
100
AcDbEntity
  8
0
100
AcDbLine
 10
62.30593473483191
 20
445.0678655566774
 30
0.0
 11
62.30593473483191
 21
325.0678655566773
 31
0.0
  0
LINE
  5
2BCA
330
2
100
AcDbEntity
  8
0
100
AcDbLine
 10
47.25863083913941
 20
385.0678655566773
 30
0.0
 11
48.27163387075166
 21
327.0329607438027
 31
0.0
  0
LINE
  5
2BCB
330
2
100
AcDbEntity
  8
0
100
AcDbLine
 10
-9.159459791404287
 20
320.0678655566778
 30
0.0
 11
-22.19406526517173
 21
320.0678655566769
 31
0.0
  0
LINE
  5
2BCC
330
2
100
AcDbEntity
  8
0
100
AcDbLine
 10
40.51607455226144
 20
437.5678655566773
 30
0.0
 11
8.841149520774024
 21
437.5678655566773
 31
0.0
  0
LINE
  5
2BCD
330
2
100
AcDbEntity
  8
0
100
AcDbLine
 10
8.841149520774024
 20
437.5678655566782
 30
0.0
 11
2.851095677589228
 21
437.5678655566773
 31
0.0
  0
ARC
  5
2BCE
330
2
100
AcDbEntity
  8
0
100
AcDbCircle
 10
8.841149520774024
 20
439.5678655566782
 30
0.0
 40
2.0
100
AcDbArc
 50
181.0000000000668
 51
270.0
  0
LINE
  5
2BCF
330
2
100
AcDbEntity
  8
0
100
AcDbLine
 10
62.30593473483191
 20
325.0678655566778
 30
0.0
 11
50.27132926106446
 21
325.0678655566769
 31
0.0
  0
ARC
  5
2BD0
330
2
100
AcDbEntity
  8
0
100
AcDbCircle
 10
50.27132926106446
 20
327.0678655566773
 30
0.0
 40
2.0
100
AcDbArc
 50
194.4775121859294
 51
270.0
  0
ARC
  5
2BD1
330
2
100
AcDbEntity
  8
0
100
AcDbCircle
 10
40.58887089554559
 20
324.5678655566778
 30
0.0
 40
8.0
100
AcDbArc
 50
14.47751218592945
 51
52.6089827676681
  0
LINE
  5
2BD2
330
2
100
AcDbEntity
  8
0
100
AcDbLine
 10
40.51607455334419
 20
332.5678655566778
 30
0.0
 11
2.851095677588318
 21
332.5678655566778
 31
0.0
  0
ARC
  5
2BD3
330
2
100
AcDbEntity
  8
0
100
AcDbCircle
 10
2.851095677588318
 20
322.5678655566773
 30
0.0
 40
10.0
100
AcDbArc
 50
90.0
 51
178.9999999999982
  0
LINE
  5
2BD4
330
2
100
AcDbEntity
  8
0
100
AcDbLine
 10
-22.19406526517127
 20
320.0678655566767
 30
0.0
 11
-22.19406526517218
 21
450.0678655566782
 31
0.0
  0
LINE
  5
2BD5
330
2
100
AcDbEntity
  8
0
100
AcDbLine
 10
-7.15976440108966
 20
322.0329607438027
 30
0.0
 11
-6.059486044835239
 21
385.0678655566778
 31
0.0
  0
ARC
  5
2BD6
330
2
100
AcDbEntity
  8
0
100
AcDbCircle
 10
-9.159459791404287
 20
322.0678655566773
 30
0.0
 40
2.0
100
AcDbArc
 50
270.0
 51
358.9999999999982
  0
LINE
  5
2BD7
330
2
100
AcDbEntity
  8
0
100
AcDbLine
 10
-22.19406526517173
 20
385.0678655566773
 30
0.0
 11
62.30593473483191
 21
385.0678655566773
 31
0.0
  0
LINE
  5
2BD8
330
2
100
AcDbEntity
  8
CENTER
100
AcDbLine
 10
-3.69406526517082
 20
433.5202832131624
 30
0.0
 11
-3.69406526517082
 21
452.7314312420319
 31
0.0
  0
LINE
  5
2BD9
330
2
100
AcDbEntity
  8
0
100
AcDbLine
 10
6.841454130460306
 20
439.5329607438072
 30
0.0
 11
6.840235598910339
 21
439.6027703695519
 31
0.0
  0
ARC
  5
2BDA
330
2
100
AcDbEntity
  8
0
 48
0.5
100
AcDbCircle
 10
4.840540208597531
 20
439.5678655566773
 30
0.0
 40
1.999999999999999
100
AcDbArc
 50
1.000000000001761
 51
90.0
  0
LINE
  5
2BDB
330
2
100
AcDbEntity
  8
0
100
AcDbLine
 10
-4.632219095959726
 20
441.5678655566778
 30
0.0
 11
4.840540208597531
 21
441.5678655566773
 31
0.0
  0
LINE
  5
2BDC
330
2
100
AcDbEntity
  8
0
100
AcDbLine
 10
-9.159459791404287
 20
450.0678655566769
 30
0.0
 11
-22.19406526517173
 21
450.0678655566782
 31
0.0
  0
LINE
  5
2BDD
330
2
100
AcDbEntity
  8
0
100
AcDbLine
 10
62.30593473483191
 20
445.0678655566774
 30
0.0
 11
50.27132926106446
 21
445.0678655566778
 31
0.0
  0
ARC
  5
2BDE
330
2
100
AcDbEntity
  8
0
100
AcDbCircle
 10
50.27132926106538
 20
443.0678655566782
 30
0.0
 40
2.0
100
AcDbArc
 50
90.0
 51
178.9999999999982
  0
ARC
  5
2BDF
330
2
100
AcDbEntity
  8
0
100
AcDbCircle
 10
50.27132926106446
 20
443.0678655566778
 30
0.0
 40
2.0
100
AcDbArc
 50
90.0
 51
165.5224878140705
  0
ARC
  5
2BE0
330
2
100
AcDbEntity
  8
0
100
AcDbCircle
 10
40.58887089554559
 20
445.5678655566769
 30
0.0
 40
8.0
100
AcDbArc
 50
307.3910165006013
 51
345.5224878140705
  0
LINE
  5
2BE1
330
2
100
AcDbEntity
  8
0
100
AcDbLine
 10
-7.15976440108966
 20
448.1027703695519
 30
0.0
 11
-6.059486044835239
 21
385.0678655566773
 31
0.0
  0
ARC
  5
2BE2
330
2
100
AcDbEntity
  8
0
100
AcDbCircle
 10
-9.159459791404287
 20
448.0678655566773
 30
0.0
 40
2.0
100
AcDbArc
 50
1.000000000001761
 51
90.0
  0
LINE
  5
2BE3
330
2
100
AcDbEntity
  8
0
100
AcDbLine
 10
47.25863083913941
 20
385.0678655566773
 30
0.0
 11
48.27163387075166
 21
443.1027703695524
 31
0.0
  0
ARC
  5
2BE4
330
2
100
AcDbEntity
  8
0
100
AcDbCircle
 10
2.851095677588318
 20
447.5678655566769
 30
0.0
 40
10.0
100
AcDbArc
 50
181.0000000000017
 51
213.7489885959046
  0
ARC
  5
2BE5
330
2
100
AcDbEntity
  8
0
100
AcDbCircle
 10
2.851095677588318
 20
447.5678655566769
 30
0.0
 40
10.0
100
AcDbArc
 50
213.7489885959046
 51
270.0
  0
ARC
  5
2BE6
330
2
100
AcDbEntity
  8
0
100
AcDbCircle
 10
-4.632219095959726
 20
442.5678655566773
 30
0.0
 40
1.0
100
AcDbArc
 50
213.7489885959046
 51
269.9999999999478
  0
LINE
  5
2BEA
330
2
100
AcDbEntity
  8
0
100
AcDbLine
 10
1.305934734829179
 20
445.5678655566774
 30
0.0
 11
-6.946863293543856
 21
445.5678655566774
 31
0.0
  0
ARC
  5
2BEB
330
2
100
AcDbEntity
  8
0
100
AcDbCircle
 10
1.305934734829179
 20
441.5678655566773
 30
0.0
 40
4.0
100
AcDbArc
 50
0.0
 51
90.0
  0
CIRCLE
  5
2BF2
330
2
100
AcDbEntity
  8
0
100
AcDbCircle
 10
973.5946935603262
 20
767.5897734496224
 30
0.0
 40
9.0
  0
LINE
  5
2BF4
330
2
100
AcDbEntity
  8
0
100
AcDbLine
 10
5.305934734829179
 20
441.5678655566773
 30
0.0
 11
4.840540208597531
 21
441.5678655566773
 31
0.0
  0
LINE
  5
2C09
330
2
100
AcDbEntity
  8
0
100
AcDbLine
 10
921.5946935603207
 20
830.9836947427299
 30
0.0
 11
923.0946935603217
 21
830.9836947427299
 31
0.0
  0
LINE
  5
2C0A
330
2
100
AcDbEntity
  8
0
100
AcDbLine
 10
921.5946935603207
 20
842.48369474273
 30
0.0
 11
923.0946935603217
 21
842.48369474273
 31
0.0
  0
LINE
  5
2C0B
330
2
100
AcDbEntity
  8
0
100
AcDbLine
 10
928.6946935603211
 20
831.73369474273
 30
0.0
 11
929.0946935603209
 21
832.4265150657572
 31
0.0
  0
LINE
  5
2C0C
330
2
100
AcDbEntity
  8
0
100
AcDbLine
 10
923.0946935603217
 20
830.9836947427299
 30
0.0
 11
923.0946935603217
 21
842.48369474273
 31
0.0
  0
LINE
  5
2C0D
330
2
100
AcDbEntity
  8
0
100
AcDbLine
 10
928.6946935603211
 20
831.73369474273
 30
0.0
 11
928.6946935603211
 21
841.7336947427299
 31
0.0
  0
LINE
  5
2C0E
330
2
100
AcDbEntity
  8
0
100
AcDbLine
 10
923.0946935603217
 20
831.73369474273
 30
0.0
 11
928.6946935603211
 21
831.73369474273
 31
0.0
  0
LINE
  5
2C0F
330
2
100
AcDbEntity
  8
0
100
AcDbLine
 10
923.0946935603217
 20
841.7336947427299
 30
0.0
 11
928.6946935603211
 21
841.7336947427299
 31
0.0
  0
LINE
  5
2C10
330
2
100
AcDbEntity
  8
0
100
AcDbLine
 10
928.6946935603211
 20
841.7336947427299
 30
0.0
 11
929.0946935603209
 21
841.0408744197027
 31
0.0
  0
LINE
  5
2C11
330
2
100
AcDbEntity
  8
0
100
AcDbLine
 10
929.0946935603209
 20
832.4265150657572
 30
0.0
 11
929.0946935603209
 21
841.0408744197027
 31
0.0
  0
LINE
  5
2C12
330
2
100
AcDbEntity
  8
0
 48
12.0
100
AcDbLine
 10
921.5946935603207
 20
842.48369474273
 30
0.0
 11
921.5946935603207
 21
830.9836947427299
 31
0.0
  0
LINE
  5
2C13
330
2
100
AcDbEntity
  8
0
100
AcDbLine
 10
48.01607455334419
 20
341.6739442324444
 30
0.0
 11
46.5160745533442
 21
341.6739442324444
 31
0.0
  0
LINE
  5
2C14
330
2
100
AcDbEntity
  8
0
100
AcDbLine
 10
48.01607455334419
 20
330.1739442324444
 30
0.0
 11
46.51607455334328
 21
330.1739442324444
 31
0.0
  0
LINE
  5
2C15
330
2
100
AcDbEntity
  8
0
100
AcDbLine
 10
40.91607455334383
 20
340.9239442324448
 30
0.0
 11
40.51607455334419
 21
340.2311239094176
 31
0.0
  0
LINE
  5
2C16
330
2
100
AcDbEntity
  8
0
100
AcDbLine
 10
46.5160745533442
 20
341.6739442324444
 30
0.0
 11
46.51607455334328
 21
330.1739442324444
 31
0.0
  0
LINE
  5
2C17
330
2
100
AcDbEntity
  8
0
100
AcDbLine
 10
40.91607455334383
 20
340.9239442324448
 30
0.0
 11
40.91607455334383
 21
330.9239442324449
 31
0.0
  0
LINE
  5
2C18
330
2
100
AcDbEntity
  8
0
100
AcDbLine
 10
46.5160745533442
 20
340.9239442324444
 30
0.0
 11
40.91607455334383
 21
340.9239442324448
 31
0.0
  0
LINE
  5
2C19
330
2
100
AcDbEntity
  8
0
100
AcDbLine
 10
46.51607455334328
 20
330.9239442324444
 30
0.0
 11
40.91607455334383
 21
330.9239442324449
 31
0.0
  0
LINE
  5
2C1A
330
2
100
AcDbEntity
  8
0
100
AcDbLine
 10
40.91607455334383
 20
330.9239442324449
 30
0.0
 11
40.51607455334419
 21
331.6167645554721
 31
0.0
  0
LINE
  5
2C1B
330
2
100
AcDbEntity
  8
0
100
AcDbLine
 10
40.51607455334419
 20
340.2311239094176
 30
0.0
 11
40.51607455334419
 21
331.6167645554721
 31
0.0
  0
LINE
  5
2C1C
330
2
100
AcDbEntity
  8
0
 48
12.0
100
AcDbLine
 10
48.01607455334419
 20
330.1739442324444
 30
0.0
 11
48.01607455334419
 21
341.6739442324444
 31
0.0
  0
LINE
  5
2C1D
330
2
100
AcDbEntity
  8
0
100
AcDbLine
 10
48.01607455226189
 20
439.9617868188681
 30
0.0
 11
46.51607455226098
 21
439.9617868188681
 31
0.0
  0
LINE
  5
2C1E
330
2
100
AcDbEntity
  8
0
100
AcDbLine
 10
48.01607455226189
 20
428.4617868188681
 30
0.0
 11
46.51607455226098
 21
428.4617868188681
 31
0.0
  0
LINE
  5
2C1F
330
2
100
AcDbEntity
  8
0
100
AcDbLine
 10
40.91607455226153
 20
439.2117868188686
 30
0.0
 11
40.51607455226189
 21
438.5189664958414
 31
0.0
  0
LINE
  5
2C20
330
2
100
AcDbEntity
  8
0
100
AcDbLine
 10
46.51607455226098
 20
439.9617868188681
 30
0.0
 11
46.51607455226098
 21
428.4617868188681
 31
0.0
  0
LINE
  5
2C21
330
2
100
AcDbEntity
  8
0
100
AcDbLine
 10
40.91607455226153
 20
439.2117868188686
 30
0.0
 11
40.91607455226153
 21
429.2117868188686
 31
0.0
  0
LINE
  5
2C22
330
2
100
AcDbEntity
  8
0
100
AcDbLine
 10
46.51607455226098
 20
439.2117868188681
 30
0.0
 11
40.91607455226153
 21
439.2117868188686
 31
0.0
  0
LINE
  5
2C23
330
2
100
AcDbEntity
  8
0
100
AcDbLine
 10
46.51607455226098
 20
429.2117868188682
 30
0.0
 11
40.91607455226153
 21
429.2117868188686
 31
0.0
  0
LINE
  5
2C24
330
2
100
AcDbEntity
  8
0
100
AcDbLine
 10
40.91607455226153
 20
429.2117868188686
 30
0.0
 11
40.51607455226189
 21
429.9046071418959
 31
0.0
  0
LINE
  5
2C25
330
2
100
AcDbEntity
  8
0
100
AcDbLine
 10
40.51607455226189
 20
438.5189664958414
 30
0.0
 11
40.51607455226189
 21
429.9046071418959
 31
0.0
  0
LINE
  5
2C26
330
2
100
AcDbEntity
  8
0
 48
12.0
100
AcDbLine
 10
48.01607455226189
 20
428.4617868188681
 30
0.0
 11
48.01607455226189
 21
439.9617868188681
 31
0.0
  0
LINE
  5
2C66
330
2
100
AcDbEntity
  8
0
100
AcDbLine
 10
921.5946935603207
 20
744.1958521565149
 30
0.0
 11
923.0946935603217
 21
744.1958521565149
 31
0.0
  0
LINE
  5
2C67
330
2
100
AcDbEntity
  8
0
100
AcDbLine
 10
921.5946935603207
 20
732.695852156515
 30
0.0
 11
923.0946935603217
 21
732.695852156515
 31
0.0
  0
LINE
  5
2C68
330
2
100
AcDbEntity
  8
0
100
AcDbLine
 10
928.6946935603211
 20
743.445852156515
 30
0.0
 11
929.0946935603209
 21
742.7530318334877
 31
0.0
  0
LINE
  5
2C69
330
2
100
AcDbEntity
  8
0
100
AcDbLine
 10
923.0946935603217
 20
744.1958521565149
 30
0.0
 11
923.0946935603217
 21
732.695852156515
 31
0.0
  0
LINE
  5
2C6A
330
2
100
AcDbEntity
  8
0
100
AcDbLine
 10
928.6946935603211
 20
743.445852156515
 30
0.0
 11
928.6946935603211
 21
733.4458521565149
 31
0.0
  0
LINE
  5
2C6B
330
2
100
AcDbEntity
  8
0
100
AcDbLine
 10
923.0946935603217
 20
743.445852156515
 30
0.0
 11
928.6946935603211
 21
743.445852156515
 31
0.0
  0
LINE
  5
2C6C
330
2
100
AcDbEntity
  8
0
100
AcDbLine
 10
923.0946935603217
 20
733.4458521565149
 30
0.0
 11
928.6946935603211
 21
733.4458521565149
 31
0.0
  0
LINE
  5
2C6D
330
2
100
AcDbEntity
  8
0
100
AcDbLine
 10
928.6946935603211
 20
733.4458521565149
 30
0.0
 11
929.0946935603209
 21
734.1386724795422
 31
0.0
  0
LINE
  5
2C6E
330
2
100
AcDbEntity
  8
0
100
AcDbLine
 10
929.0946935603209
 20
742.7530318334877
 30
0.0
 11
929.0946935603209
 21
734.1386724795422
 31
0.0
  0
LINE
  5
2C6F
330
2
100
AcDbEntity
  8
0
 48
12.0
100
AcDbLine
 10
921.5946935603207
 20
732.695852156515
 30
0.0
 11
921.5946935603207
 21
744.1958521565149
 31
0.0
  0
LINE
  5
2C70
330
2
100
AcDbEntity
  8
CENTER
  6
CENTERX2
100
AcDbLine
 10
918.5946935603208
 20
836.7336947427304
 30
0.0
 11
932.0946935603217
 21
836.73369474273
 31
0.0
  0
LINE
  5
2C71
330
2
100
AcDbEntity
  8
CENTER
  6
CENTERX2
100
AcDbLine
 10
918.5946935603208
 20
738.4458521565155
 30
0.0
 11
932.0946935603217
 21
738.445852156515
 31
0.0
  0
LINE
  5
2C74
330
2
100
AcDbEntity
  8
CENTER
  6
CENTERX2
100
AcDbLine
 10
51.0160745522619
 20
434.2117868188688
 30
0.0
 11
37.50996527953634
 21
434.2117868188686
 31
0.0
  0
LINE
  5
2C75
330
2
100
AcDbEntity
  8
CENTER
  6
CENTERX2
100
AcDbLine
 10
51.0160745533442
 20
335.9239442324451
 30
0.0
 11
37.50996528061864
 21
335.9239442324449
 31
0.0
  0
LINE
  5
2EF4
330
2
100
AcDbEntity
  8
0
100
AcDbLine
 10
907.5946935603218
 20
445.0678655566772
 30
0.0
 11
907.5946935603218
 21
325.0678655566772
 31
0.0
  0
LINE
  5
310A
330
2
100
AcDbEntity
  8
0
100
AcDbLine
 10
907.5946935603218
 20
445.0678655566772
 30
0.0
 11
907.5946935603218
 21
325.0678655566772
 31
0.0
  0
LINE
  5
337D
330
2
100
AcDbEntity
  8
0
100
AcDbLine
 10
907.5946935603218
 20
445.0678655566772
 30
0.0
 11
907.5946935603218
 21
325.0678655566772
 31
0.0
  0
LINE
  5
337E
330
2
100
AcDbEntity
  8
0
100
AcDbLine
 10
922.6419974560142
 20
385.0678655566771
 30
0.0
 11
921.6289944244019
 21
327.0329607438025
 31
0.0
  0
LINE
  5
337F
330
2
100
AcDbEntity
  8
0
100
AcDbLine
 10
929.3845537428907
 20
437.5678655566772
 30
0.0
 11
961.0594787743796
 21
437.5678655566772
 31
0.0
  0
LINE
  5
3380
330
2
100
AcDbEntity
  8
0
100
AcDbLine
 10
961.0594787743796
 20
437.5678655566781
 30
0.0
 11
963.0248733006149
 21
437.5678655566776
 31
0.0
  0
ARC
  5
3381
330
2
100
AcDbEntity
  8
0
100
AcDbCircle
 10
961.0594787743796
 20
439.5678655566781
 30
0.0
 40
2.0
100
AcDbArc
 50
270.0
 51
358.9999999999331
  0
LINE
  5
3382
330
2
100
AcDbEntity
  8
0
100
AcDbLine
 10
907.5946935603218
 20
325.0678655566776
 30
0.0
 11
919.6292990340891
 21
325.0678655566767
 31
0.0
  0
ARC
  5
3383
330
2
100
AcDbEntity
  8
0
100
AcDbCircle
 10
919.6292990340891
 20
327.0678655566772
 30
0.0
 40
2.0
100
AcDbArc
 50
270.0
 51
345.5224878140642
  0
ARC
  5
3384
330
2
100
AcDbEntity
  8
0
100
AcDbCircle
 10
929.3117573996081
 20
324.5678655566776
 30
0.0
 40
8.0
100
AcDbArc
 50
127.3910172323318
 51
165.5224878140642
  0
LINE
  5
3385
330
2
100
AcDbEntity
  8
0
100
AcDbLine
 10
929.3845537418095
 20
332.5678655566776
 30
0.0
 11
967.0495326175652
 21
332.5678655566776
 31
0.0
  0
ARC
  5
3386
330
2
100
AcDbEntity
  8
0
100
AcDbCircle
 10
967.0495326175652
 20
322.5678655566771
 30
0.0
 40
10.0
100
AcDbArc
 50
1.000000000001761
 51
90.0
  0
LINE
  5
3387
330
2
100
AcDbEntity
  8
0
100
AcDbLine
 10
977.0603926962433
 20
322.0329607438025
 30
0.0
 11
975.9601143399889
 21
385.0678655566776
 31
0.0
  0
ARC
  5
3388
330
2
100
AcDbEntity
  8
0
100
AcDbCircle
 10
979.0600880865579
 20
322.0678655566771
 30
0.0
 40
2.0
100
AcDbArc
 50
181.0000000000017
 51
270.0
  0
LINE
  5
3389
330
2
100
AcDbEntity
  8
0
100
AcDbLine
 10
992.0946935603254
 20
385.0678655566771
 30
0.0
 11
907.5946935603218
 21
385.0678655566771
 31
0.0
  0
LINE
  5
338A
330
2
100
AcDbEntity
  8
CENTER
100
AcDbLine
 10
973.5946935603244
 20
431.946122309912
 30
0.0
 11
973.5946935603244
 21
452.7314312420317
 31
0.0
  0
LINE
  5
338B
330
2
100
AcDbEntity
  8
0
100
AcDbLine
 10
962.8856708193282
 20
429.5929607438061
 30
0.0
 11
963.0591741646924
 21
439.5329607438076
 31
0.0
  0
LINE
  5
338C
330
2
100
AcDbEntity
  8
0
100
AcDbLine
 10
963.0591741646933
 20
439.532960743807
 30
0.0
 11
963.0603926962432
 21
439.6027703695517
 31
0.0
  0
ARC
  5
338D
330
2
100
AcDbEntity
  8
0
 48
0.5
100
AcDbCircle
 10
965.060088086556
 20
439.5678655566771
 30
0.0
 40
1.999999999999999
100
AcDbArc
 50
90.0
 51
178.9999999999982
  0
LINE
  5
338E
330
2
100
AcDbEntity
  8
0
100
AcDbLine
 10
974.5328473911133
 20
441.5678655566776
 30
0.0
 11
965.060088086556
 21
441.5678655566772
 31
0.0
  0
LINE
  5
338F
330
2
100
AcDbEntity
  8
0
100
AcDbLine
 10
966.6960578432311
 20
427.6278655566766
 30
0.0
 11
960.8859754290154
 21
427.6278655566762
 31
0.0
  0
ARC
  5
3390
330
2
100
AcDbEntity
  8
0
100
AcDbCircle
 10
960.8859754290154
 20
429.6278655566762
 30
0.0
 40
2.0
100
AcDbArc
 50
270.0
 51
359.0000000001285
  0
LINE
  5
3391
330
2
100
AcDbEntity
  8
0
100
AcDbLine
 10
907.5946935603218
 20
445.0678655566772
 30
0.0
 11
919.6292990340891
 21
445.0678655566776
 31
0.0
  0
ARC
  5
3392
330
2
100
AcDbEntity
  8
0
100
AcDbCircle
 10
919.6292990340882
 20
443.067865556678
 30
0.0
 40
2.0
100
AcDbArc
 50
1.000000000001761
 51
90.0
  0
ARC
  5
3393
330
2
100
AcDbEntity
  8
0
100
AcDbCircle
 10
919.6292990340891
 20
443.0678655566776
 30
0.0
 40
2.0
100
AcDbArc
 50
14.47751218593576
 51
90.0
  0
ARC
  5
3394
330
2
100
AcDbEntity
  8
0
100
AcDbCircle
 10
929.3117573996081
 20
445.5678655566767
 30
0.0
 40
8.0
100
AcDbArc
 50
194.4775121859326
 51
232.6089834994149
  0
LINE
  5
3395
330
2
100
AcDbEntity
  8
0
100
AcDbLine
 10
977.0603926962433
 20
448.1027703695517
 30
0.0
 11
976.9235218986768
 21
440.2614476286118
 31
0.0
  0
ARC
  5
3396
330
2
100
AcDbEntity
  8
0
100
AcDbCircle
 10
979.0600880865579
 20
448.0678655566771
 30
0.0
 40
2.0
100
AcDbArc
 50
90.0
 51
178.9999999999982
  0
LINE
  5
3397
330
2
100
AcDbEntity
  8
0
100
AcDbLine
 10
922.2430779338493
 20
407.9219496752912
 30
0.0
 11
921.6289944244019
 21
443.1027703695522
 31
0.0
  0
ARC
  5
3398
330
2
100
AcDbEntity
  8
0
100
AcDbCircle
 10
967.0495326175652
 20
447.5678655566767
 30
0.0
 40
10.0
100
AcDbArc
 50
326.2510114040953
 51
358.9999999999982
  0
ARC
  5
3399
330
2
100
AcDbEntity
  8
0
100
AcDbCircle
 10
974.5328473911133
 20
442.5678655566771
 30
0.0
 40
1.0
100
AcDbArc
 50
270.0000000000521
 51
326.2510114040953
  0
LINE
  5
339C
330
2
100
AcDbEntity
  8
0
100
AcDbLine
 10
1342.716753887364
 20
320.0678655566772
 30
0.0
 11
1229.048435060295
 21
320.0678655566772
 31
0.0
  0
LINE
  5
339D
330
2
100
AcDbEntity
  8
HIDS
  6
SEKKEI_H
100
AcDbLine
 10
1283.917199947599
 20
441.5678655566836
 30
0.0
 11
1255.03529173694
 21
441.5678655566836
 31
0.0
  0
ARC
  5
339E
330
2
100
AcDbEntity
  8
HIDS
  6
SEKKEI_H
100
AcDbCircle
 10
1255.03529173694
 20
442.5678655566835
 30
0.0
 40
1.0
100
AcDbArc
 50
181.0000000000799
 51
270.0
  0
ARC
  5
339F
330
2
100
AcDbEntity
  8
HIDS
  6
SEKKEI_H
100
AcDbCircle
 10
1283.917199947599
 20
439.5678655566836
 30
0.0
 40
2.0
100
AcDbArc
 50
1.000000000053863
 51
90.0
  0
ARC
  5
33A0
330
2
100
AcDbEntity
  8
HIDS
  6
SEKKEI_H
100
AcDbCircle
 10
1257.347988992739
 20
439.5678655493603
 30
0.0
 40
1.999999999999999
100
AcDbArc
 50
90.0
 51
179.0000000000242
  0
CIRCLE
  5
33A1
330
2
100
AcDbEntity
  8
0
100
AcDbCircle
 10
1337.147836110201
 20
333.802623920301
 30
0.0
 40
3.299999999999999
  0
LINE
  5
33A2
330
2
100
AcDbEntity
  8
CENTER
100
AcDbLine
 10
1327.897836110201
 20
333.802623920301
 30
0.0
 11
1346.397836110201
 21
333.802623920301
 31
0.0
  0
LINE
  5
33A3
330
2
100
AcDbEntity
  8
CENTER
100
AcDbLine
 10
1337.147836110201
 20
324.552623920301
 30
0.0
 11
1337.147836110201
 21
343.052623920301
 31
0.0
  0
LINE
  5
33A4
330
2
100
AcDbEntity
  8
0
100
AcDbLine
 10
1342.716753887364
 20
450.0678655566772
 30
0.0
 11
1229.048435060295
 21
450.0678655566772
 31
0.0
  0
CIRCLE
  5
33A5
330
2
100
AcDbEntity
  8
HIDS
  6
SEKKEI_H
100
AcDbCircle
 10
1285.88259445837
 20
385.0678655412195
 30
0.0
 40
52.49999999999999
  0
ARC
  5
33A6
330
2
100
AcDbEntity
  8
HIDS
  6
SEKKEI_H
100
AcDbCircle
 10
1250.182406964392
 20
430.1427655732205
 30
0.0
 40
5.0
100
AcDbArc
 50
308.3799009024193
 51
358.9999999999982
  0
LINE
  5
33A7
330
2
100
AcDbEntity
  8
CENTER
100
AcDbLine
 10
1337.147836102883
 20
427.0831071857238
 30
0.0
 11
1337.147836102883
 21
445.5831071857239
 31
0.0
  0
LINE
  5
33A8
330
2
100
AcDbEntity
  8
CENTER
100
AcDbLine
 10
1346.397836102883
 20
436.3331071857238
 30
0.0
 11
1327.897836102883
 21
436.3331071857238
 31
0.0
  0
LINE
  5
33A9
330
2
100
AcDbEntity
  8
CENTER
100
AcDbLine
 10
1243.867352837459
 20
436.3331071784052
 30
0.0
 11
1225.367352837459
 21
436.3331071784052
 31
0.0
  0
LINE
  5
33AA
330
2
100
AcDbEntity
  8
CENTER
100
AcDbLine
 10
1234.617352837459
 20
445.5831071784051
 30
0.0
 11
1234.617352837459
 21
427.0831071784051
 31
0.0
  0
LINE
  5
33AB
330
2
100
AcDbEntity
  8
CENTER
100
AcDbLine
 10
1234.617352844777
 20
343.0526239129823
 30
0.0
 11
1234.617352844777
 21
324.5526239129823
 31
0.0
  0
LINE
  5
33AC
330
2
100
AcDbEntity
  8
CENTER
100
AcDbLine
 10
1225.367352844777
 20
333.8026239129823
 30
0.0
 11
1243.867352844777
 21
333.8026239129823
 31
0.0
  0
LINE
  5
33AD
330
2
100
AcDbEntity
  8
0
100
AcDbLine
 10
1342.716753887364
 20
450.0678655566777
 30
0.0
 11
1229.048435060295
 21
450.0678655566767
 31
0.0
  0
ARC
  5
33AE
330
2
100
AcDbEntity
  8
HIDS
  6
SEKKEI_H
100
AcDbCircle
 10
1279.826357051962
 20
448.0678655566772
 30
0.0
 40
2.0
100
AcDbArc
 50
90.0
 51
178.9999999999721
  0
ARC
  5
33AF
330
2
100
AcDbEntity
  8
0
100
AcDbCircle
 10
1229.048435060295
 20
442.0678655566767
 30
0.0
 40
8.0
100
AcDbArc
 50
90.0
 51
179.833333340008
  0
LINE
  5
33B0
330
2
100
AcDbEntity
  8
0
100
AcDbLine
 10
1220.882594473835
 20
385.0678655566767
 30
0.0
 11
1221.048468906648
 21
442.0911365796197
 31
0.0
  0
ARC
  5
33B1
330
2
100
AcDbEntity
  8
0
100
AcDbCircle
 10
1342.716753887364
 20
442.0678655566767
 30
0.0
 40
7.999999999999998
100
AcDbArc
 50
0.1666666599919667
 51
90.0
  0
LINE
  5
33B2
330
2
100
AcDbEntity
  8
0
100
AcDbLine
 10
1350.882594473824
 20
385.0678655566767
 30
0.0
 11
1350.71672004101
 21
442.0911365796197
 31
0.0
  0
ARC
  5
33B3
330
2
100
AcDbEntity
  8
0
100
AcDbCircle
 10
1229.048435060295
 20
328.0678655566777
 30
0.0
 40
8.0
100
AcDbArc
 50
180.166666660018
 51
270.0
  0
LINE
  5
33B4
330
2
100
AcDbEntity
  8
0
100
AcDbLine
 10
1220.882594473835
 20
385.0678655566777
 30
0.0
 11
1221.048468906648
 21
328.0445945337347
 31
0.0
  0
ARC
  5
33B5
330
2
100
AcDbEntity
  8
0
100
AcDbCircle
 10
1342.716753887364
 20
328.0678655566777
 30
0.0
 40
7.999999999999998
100
AcDbArc
 50
270.0
 51
359.8333333399819
  0
LINE
  5
33B6
330
2
100
AcDbEntity
  8
0
100
AcDbLine
 10
1350.882594473824
 20
385.0678655566777
 30
0.0
 11
1350.716720041008
 21
328.0445945337343
 31
0.0
  0
CIRCLE
  5
33B7
330
2
100
AcDbEntity
  8
HOJO
100
AcDbCircle
 10
1337.147836110201
 20
333.802623920301
 30
0.0
 40
4.0
  0
CIRCLE
  5
33B8
330
2
100
AcDbEntity
  8
HOJO
100
AcDbCircle
 10
1337.147836102883
 20
436.3331071857238
 30
0.0
 40
4.0
  0
CIRCLE
  5
33B9
330
2
100
AcDbEntity
  8
HOJO
100
AcDbCircle
 10
1234.617352837459
 20
436.3331071784052
 30
0.0
 40
4.0
  0
CIRCLE
  5
33BA
330
2
100
AcDbEntity
  8
HOJO
100
AcDbCircle
 10
1234.617352844777
 20
333.8026239129823
 30
0.0
 40
4.0
  0
CIRCLE
  5
33BB
330
2
100
AcDbEntity
  8
0
100
AcDbCircle
 10
1234.617352844777
 20
333.8026239129823
 30
0.0
 40
3.299999999999999
  0
CIRCLE
  5
33BC
330
2
100
AcDbEntity
  8
0
100
AcDbCircle
 10
1234.617352837459
 20
436.3331071784052
 30
0.0
 40
3.299999999999999
  0
CIRCLE
  5
33BD
330
2
100
AcDbEntity
  8
0
100
AcDbCircle
 10
1337.147836102883
 20
436.3331071857238
 30
0.0
 40
3.299999999999999
  0
LINE
  5
33BE
330
2
100
AcDbEntity
  8
HIDS
  6
SEKKEI_H
100
AcDbLine
 10
1277.826661661652
 20
448.1027703695541
 30
0.0
 11
1277.729744905876
 21
442.5504131502449
 31
0.0
  0
ARC
  5
33BF
330
2
100
AcDbEntity
  8
HIDS
  6
SEKKEI_H
100
AcDbCircle
 10
1276.729897210719
 20
442.5678655566835
 30
0.0
 40
1.0
100
AcDbArc
 50
270.0
 51
358.99999999992
  0
ARC
  5
33C0
330
2
100
AcDbEntity
  8
HIDS
  6
SEKKEI_H
100
AcDbCircle
 10
1251.938831895696
 20
448.0678655566772
 30
0.0
 40
2.0
100
AcDbArc
 50
1.000000000027812
 51
90.0
  0
LINE
  5
33C1
330
2
100
AcDbEntity
  8
HIDS
  6
SEKKEI_H
100
AcDbLine
 10
1253.938527286008
 20
448.1027703695541
 30
0.0
 11
1254.035444041784
 21
442.5504131502449
 31
0.0
  0
LINE
  5
33C2
330
2
100
AcDbEntity
  8
HIDS
  6
SEKKEI_H
100
AcDbLine
 10
1255.348293602426
 20
439.6027703622349
 30
0.0
 11
1255.181645440175
 21
430.0555035410339
 31
0.0
  0
CIRCLE
  5
33C3
330
2
100
AcDbEntity
  8
CENTER
100
AcDbCircle
 10
1285.882594473829
 20
385.0678655566772
 30
0.0
 40
72.49999999013503
  0
LINE
  5
33C4
330
2
100
AcDbEntity
  8
HIDS
  6
SEKKEI_H
100
AcDbLine
 10
1271.35037196279
 20
427.4359063923967
 30
0.0
 11
1271.644347691007
 21
441.5678655566834
 31
0.0
  0
LINE
  5
33C5
330
2
100
AcDbEntity
  8
HIDS
  6
SEKKEI_H
100
AcDbLine
 10
1260.528064292056
 20
421.9918980372868
 30
0.0
 11
1260.12084125665
 21
441.5678655566834
 31
0.0
  0
CIRCLE
  5
33C6
330
2
100
AcDbEntity
  8
0
100
AcDbCircle
 10
1285.882594473829
 20
385.0678655566772
 30
0.0
 40
40.49999999186812
  0
CIRCLE
  5
33C7
330
2
100
AcDbEntity
  8
0
100
AcDbCircle
 10
1285.882594473829
 20
385.0678655566772
 30
0.0
 40
40.99999999186638
  0
CIRCLE
  5
33C8
330
2
100
AcDbEntity
  8
0
100
AcDbCircle
 10
1285.882594473829
 20
385.0678655566772
 30
0.0
 40
44.79103007709847
  0
CIRCLE
  5
33C9
330
2
100
AcDbEntity
  8
0
100
AcDbCircle
 10
1285.882594473829
 20
385.0678655566772
 30
0.0
 40
52.64999999186921
  0
CIRCLE
  5
33CA
330
2
100
AcDbEntity
  8
0
100
AcDbCircle
 10
1285.882594473829
 20
385.0678655566772
 30
0.0
 40
54.99999999186821
  0
CIRCLE
  5
33CB
330
2
100
AcDbEntity
  8
0
100
AcDbCircle
 10
1285.882594473829
 20
385.0678655566772
 30
0.0
 40
53.64999999186636
  0
LINE
  5
33CC
330
2
100
AcDbEntity
  8
0
100
AcDbLine
 10
1329.755743683323
 20
325.0678655566772
 30
0.0
 11
1306.333755860466
 21
325.0678655566772
 31
0.0
  0
LINE
  5
33CD
330
2
100
AcDbEntity
  8
0
100
AcDbLine
 10
1265.431433056274
 20
325.0678655566777
 30
0.0
 11
1242.009445233416
 21
325.0678655566772
 31
0.0
  0
ARC
  5
33CE
330
2
100
AcDbEntity
  8
0
100
AcDbCircle
 10
1285.882594458369
 20
385.0678655412195
 30
0.0
 40
59.50000000732598
100
AcDbArc
 50
289.4229678492027
 51
308.2936690126922
  0
ARC
  5
33CF
330
2
100
AcDbEntity
  8
0
100
AcDbCircle
 10
1306.333755860466
 20
327.0678655566772
 30
0.0
 40
2.0
100
AcDbArc
 50
109.4229678492027
 51
270.0
  0
LINE
  5
33D0
330
2
100
AcDbEntity
  8
0
100
AcDbLine
 10
1329.755743711491
 20
445.0678655566776
 30
0.0
 11
1306.333755772788
 21
445.0678655566772
 31
0.0
  0
ARC
  5
33D1
330
2
100
AcDbEntity
  8
0
100
AcDbCircle
 10
1285.882594458369
 20
385.0678655412195
 30
0.0
 40
59.50000000732598
100
AcDbArc
 50
51.70633098730779
 51
70.57703223738201
  0
ARC
  5
33D2
330
2
100
AcDbEntity
  8
0
100
AcDbCircle
 10
1325.233056332793
 20
434.9055134712727
 30
0.0
 40
4.0
100
AcDbArc
 50
231.7063309873077
 51
6.832439436223524
  0
ARC
  5
33D3
330
2
100
AcDbEntity
  8
0
100
AcDbCircle
 10
1306.333755772788
 20
443.0678655566777
 30
0.0
 40
2.0
100
AcDbArc
 50
90.0
 51
250.577032237382
  0
ARC
  5
33D4
330
2
100
AcDbEntity
  8
0
100
AcDbCircle
 10
1285.88259445837
 20
385.067865541219
 30
0.0
 40
59.50000000732598
100
AcDbArc
 50
141.7063309709922
 51
160.40959514999
  0
ARC
  5
33D5
330
2
100
AcDbEntity
  8
0
100
AcDbCircle
 10
1227.942607028621
 20
405.6884343389511
 30
0.0
 40
2.0
100
AcDbArc
 50
179.8333333399819
 51
340.40959514999
  0
LINE
  5
33D6
330
2
100
AcDbEntity
  8
0
100
AcDbLine
 10
1225.942615490209
 20
405.6942520946869
 30
0.0
 11
1226.009923014358
 21
428.8328101366674
 31
0.0
  0
ARC
  5
33D7
330
2
100
AcDbEntity
  8
0
100
AcDbCircle
 10
1285.882594458369
 20
385.0678655412203
 30
0.0
 40
59.50000000732598
100
AcDbArc
 50
231.7063309873077
 51
250.5770321507972
  0
ARC
  5
33D8
330
2
100
AcDbEntity
  8
0
100
AcDbCircle
 10
1265.431433056274
 20
327.0678655566777
 30
0.0
 40
2.0
100
AcDbArc
 50
270.0
 51
70.57703215079726
  0
ARC
  5
33D9
330
2
100
AcDbEntity
  8
0
100
AcDbCircle
 10
1285.882594458369
 20
385.0678655412203
 30
0.0
 40
59.50000000732598
100
AcDbArc
 50
199.5904048502326
 51
218.2936690290076
  0
ARC
  5
33DA
330
2
100
AcDbEntity
  8
0
100
AcDbCircle
 10
1227.942607028712
 20
364.4472967432303
 30
0.0
 40
2.0
100
AcDbArc
 50
19.59040485022119
 51
180.1666666599919
  0
LINE
  5
33DB
330
2
100
AcDbEntity
  8
0
100
AcDbLine
 10
1225.942615490299
 20
364.4414789874941
 30
0.0
 11
1226.009923014448
 21
341.3029209457714
 31
0.0
  0
ARC
  5
33DC
330
2
100
AcDbEntity
  8
0
100
AcDbCircle
 10
1234.617352844777
 20
333.8026239129823
 30
0.0
 40
8.0
100
AcDbArc
 50
83.1675605801414
 51
131.3566261312232
  0
ARC
  5
33DD
330
2
100
AcDbEntity
  8
0
100
AcDbCircle
 10
1236.044946539559
 20
345.7174036525585
 30
0.0
 40
4.0
100
AcDbArc
 50
263.1675605801414
 51
38.29366902900771
  0
ARC
  5
33DE
330
2
100
AcDbEntity
  8
0
100
AcDbCircle
 10
1234.617352844777
 20
333.8026239129823
 30
0.0
 40
8.0
100
AcDbArc
 50
317.6640983538037
 51
6.83243943623646
  0
ARC
  5
33DF
330
2
100
AcDbEntity
  8
0
100
AcDbCircle
 10
1246.532132583946
 20
335.2302176111676
 30
0.0
 40
4.0
100
AcDbArc
 50
51.70633098730779
 51
186.8324394362364
  0
ARC
  5
33E0
330
2
100
AcDbEntity
  8
0
100
AcDbCircle
 10
1228.009914552861
 20
341.3087387015076
 30
0.0
 40
2.0
100
AcDbArc
 50
180.1666666600049
 51
311.3566261312232
  0
ARC
  5
33E1
330
2
100
AcDbEntity
  8
0
100
AcDbCircle
 10
1242.009445233416
 20
327.0678655566772
 30
0.0
 40
2.0
100
AcDbArc
 50
137.6640983538036
 51
270.0
  0
ARC
  5
33E2
330
2
100
AcDbEntity
  8
0
100
AcDbCircle
 10
1337.147836071962
 20
333.8026239129823
 30
0.0
 40
8.0
100
AcDbArc
 50
173.1675605637635
 51
222.3359016461963
  0
ARC
  5
33E3
330
2
100
AcDbEntity
  8
0
100
AcDbCircle
 10
1325.233056332793
 20
335.2302176111676
 30
0.0
 40
4.0
100
AcDbArc
 50
353.1675605637635
 51
128.2936690126922
  0
ARC
  5
33E4
330
2
100
AcDbEntity
  8
0
100
AcDbCircle
 10
1329.755743683323
 20
327.0678655566772
 30
0.0
 40
2.0
100
AcDbArc
 50
270.0
 51
42.33590164619631
  0
ARC
  5
33E5
330
2
100
AcDbEntity
  8
0
100
AcDbCircle
 10
1234.617352844777
 20
436.3331071694566
 30
0.0
 40
8.0
100
AcDbArc
 50
228.6433738687767
 51
276.8324394198586
  0
ARC
  5
33E6
330
2
100
AcDbEntity
  8
0
100
AcDbCircle
 10
1236.044946539559
 20
424.4183274298803
 30
0.0
 40
4.0
100
AcDbArc
 50
321.7063309709922
 51
96.83243941985859
  0
ARC
  5
33E7
330
2
100
AcDbEntity
  8
0
100
AcDbCircle
 10
1228.009914552861
 20
428.8269923809313
 30
0.0
 40
2.0
100
AcDbArc
 50
48.64337386870751
 51
179.8333333399819
  0
ARC
  5
33E8
330
2
100
AcDbEntity
  8
0
100
AcDbCircle
 10
1337.147836071962
 20
436.3331071694566
 30
0.0
 40
8.0
100
AcDbArc
 50
137.6640981141743
 51
186.8324394362235
  0
ARC
  5
33E9
330
2
100
AcDbEntity
  8
0
100
AcDbCircle
 10
1329.75574371149
 20
443.0678655566777
 30
0.0
 40
2.0
100
AcDbArc
 50
317.6640981141742
 51
89.99999999994789
  0
LINE
  5
33EB
330
2
100
AcDbEntity
  8
0
100
AcDbLine
 10
976.8474915886983
 20
445.5678655566772
 30
0.0
 11
968.5946935603244
 21
445.5678655566772
 31
0.0
  0
ARC
  5
33EC
330
2
100
AcDbEntity
  8
0
100
AcDbCircle
 10
968.5946935603244
 20
441.5678655566772
 30
0.0
 40
4.0
100
AcDbArc
 50
90.0
 51
180.0
  0
LINE
  5
33ED
330
2
100
AcDbEntity
  8
HIDS
  6
SEKKEI_H
100
AcDbLine
 10
1270.88259447383
 20
445.5678655566836
 30
0.0
 11
1260.88259447383
 21
445.5678655566836
 31
0.0
  0
ARC
  5
33EE
330
2
100
AcDbEntity
  8
HIDS
  6
SEKKEI_H
100
AcDbCircle
 10
1260.88259447383
 20
441.5678655566836
 30
0.0
 40
4.0
100
AcDbArc
 50
90.0
 51
180.0
  0
ARC
  5
33EF
330
2
100
AcDbEntity
  8
HIDS
  6
SEKKEI_H
100
AcDbCircle
 10
1270.88259447383
 20
441.5678655566836
 30
0.0
 40
4.0
100
AcDbArc
 50
0.0
 51
90.0
  0
LINE
  5
33F0
330
2
100
AcDbEntity
  8
0
100
AcDbLine
 10
964.5946935603245
 20
441.5678655566772
 30
0.0
 11
965.060088086556
 21
441.5678655566772
 31
0.0
  0
LINE
  5
33F1
330
2
100
AcDbEntity
  8
0
100
AcDbLine
 10
921.8845537428917
 20
428.4617868188679
 30
0.0
 11
923.3845537428926
 21
428.4617868188679
 31
0.0
  0
LINE
  5
33F2
330
2
100
AcDbEntity
  8
0
100
AcDbLine
 10
921.8845537428917
 20
439.961786818868
 30
0.0
 11
923.3845537428935
 21
439.961786818868
 31
0.0
  0
LINE
  5
33F3
330
2
100
AcDbEntity
  8
0
100
AcDbLine
 10
928.984553742892
 20
429.211786818868
 30
0.0
 11
929.3845537428918
 21
429.9046071418953
 31
0.0
  0
LINE
  5
33F4
330
2
100
AcDbEntity
  8
0
100
AcDbLine
 10
923.3845537428926
 20
428.4617868188679
 30
0.0
 11
923.3845537428935
 21
439.961786818868
 31
0.0
  0
LINE
  5
33F5
330
2
100
AcDbEntity
  8
0
100
AcDbLine
 10
928.984553742892
 20
429.211786818868
 30
0.0
 11
928.984553742892
 21
439.2117868188679
 31
0.0
  0
LINE
  5
33F6
330
2
100
AcDbEntity
  8
0
100
AcDbLine
 10
923.3845537428926
 20
429.211786818868
 30
0.0
 11
928.984553742892
 21
429.211786818868
 31
0.0
  0
LINE
  5
33F7
330
2
100
AcDbEntity
  8
0
100
AcDbLine
 10
923.3845537428935
 20
439.2117868188679
 30
0.0
 11
928.984553742892
 21
439.2117868188679
 31
0.0
  0
LINE
  5
33F8
330
2
100
AcDbEntity
  8
0
100
AcDbLine
 10
928.984553742892
 20
439.2117868188679
 30
0.0
 11
929.3845537428918
 21
438.5189664958407
 31
0.0
  0
LINE
  5
33F9
330
2
100
AcDbEntity
  8
0
100
AcDbLine
 10
929.3845537428918
 20
429.9046071418953
 30
0.0
 11
929.3845537428918
 21
438.5189664958407
 31
0.0
  0
LINE
  5
33FA
330
2
100
AcDbEntity
  8
0
 48
12.0
100
AcDbLine
 10
921.8845537428917
 20
439.961786818868
 30
0.0
 11
921.8845537428917
 21
428.4617868188679
 31
0.0
  0
LINE
  5
33FB
330
2
100
AcDbEntity
  8
0
100
AcDbLine
 10
921.8845537418093
 20
330.1739442324442
 30
0.0
 11
923.3845537418094
 21
330.1739442324442
 31
0.0
  0
LINE
  5
33FC
330
2
100
AcDbEntity
  8
0
100
AcDbLine
 10
921.8845537418093
 20
341.6739442324443
 30
0.0
 11
923.3845537418103
 21
341.6739442324443
 31
0.0
  0
LINE
  5
33FD
330
2
100
AcDbEntity
  8
0
100
AcDbLine
 10
928.9845537418099
 20
330.9239442324443
 30
0.0
 11
929.3845537418095
 21
331.6167645554715
 31
0.0
  0
LINE
  5
33FE
330
2
100
AcDbEntity
  8
0
100
AcDbLine
 10
923.3845537418094
 20
330.1739442324442
 30
0.0
 11
923.3845537418103
 21
341.6739442324443
 31
0.0
  0
LINE
  5
33FF
330
2
100
AcDbEntity
  8
0
100
AcDbLine
 10
928.9845537418099
 20
330.9239442324443
 30
0.0
 11
928.9845537418099
 21
340.9239442324442
 31
0.0
  0
LINE
  5
3400
330
2
100
AcDbEntity
  8
0
100
AcDbLine
 10
923.3845537418094
 20
330.9239442324443
 30
0.0
 11
928.9845537418099
 21
330.9239442324443
 31
0.0
  0
LINE
  5
3401
330
2
100
AcDbEntity
  8
0
100
AcDbLine
 10
923.3845537418103
 20
340.9239442324442
 30
0.0
 11
928.9845537418099
 21
340.9239442324442
 31
0.0
  0
LINE
  5
3402
330
2
100
AcDbEntity
  8
0
100
AcDbLine
 10
928.9845537418099
 20
340.9239442324442
 30
0.0
 11
929.3845537418095
 21
340.231123909417
 31
0.0
  0
LINE
  5
3403
330
2
100
AcDbEntity
  8
0
100
AcDbLine
 10
929.3845537418095
 20
331.6167645554715
 30
0.0
 11
929.3845537418095
 21
340.231123909417
 31
0.0
  0
LINE
  5
3404
330
2
100
AcDbEntity
  8
0
 48
12.0
100
AcDbLine
 10
921.8845537418093
 20
341.6739442324443
 30
0.0
 11
921.8845537418093
 21
330.1739442324442
 31
0.0
  0
LINE
  5
3405
330
2
100
AcDbEntity
  8
0
100
AcDbLine
 10
962.0946935603189
 20
408.6033955080067
 30
0.0
 11
962.0946935603189
 21
385.0678655566771
 31
0.0
  0
LINE
  5
3406
330
2
100
AcDbEntity
  8
0
100
AcDbLine
 10
984.094693560319
 20
385.0678655566771
 30
0.0
 11
984.094693560319
 21
412.0678655566794
 31
0.0
  0
LINE
  5
3407
330
2
100
AcDbEntity
  8
0
100
AcDbLine
 10
982.094693560319
 20
385.0678655566771
 30
0.0
 11
982.0946935603208
 21
399.0678655566794
 31
0.0
  0
LINE
  5
3408
330
2
100
AcDbEntity
  8
0
100
AcDbLine
 10
964.094693560319
 20
409.295962071718
 30
0.0
 11
964.094693560319
 21
385.0678655566771
 31
0.0
  0
LINE
  5
3409
330
2
100
AcDbEntity
  8
0
100
AcDbLine
 10
920.594693560319
 20
385.0678655566767
 30
0.0
 11
920.5946935603199
 21
399.5678655566781
 31
0.0
  0
LINE
  5
340A
330
2
100
AcDbEntity
  8
0
 48
0.3
100
AcDbLine
 10
940.5946935603198
 20
399.5678655566781
 30
0.0
 11
920.594693560319
 21
399.5678655566781
 31
0.0
  0
LINE
  5
340B
330
2
100
AcDbEntity
  8
0
 48
0.3
100
AcDbLine
 10
940.5946935603198
 20
399.0678655566785
 30
0.0
 11
962.0946935603189
 21
399.0678655566785
 31
0.0
  0
LINE
  5
340C
330
2
100
AcDbEntity
  8
0
100
AcDbLine
 10
940.5946935603198
 20
385.0678655566767
 30
0.0
 11
940.5946935603198
 21
399.5678655566781
 31
0.0
  0
LINE
  5
340D
330
2
100
AcDbEntity
  8
0
100
AcDbLine
 10
967.7083928482231
 20
412.0678655566794
 30
0.0
 11
984.094693560319
 21
412.0678655566794
 31
0.0
  0
LINE
  5
340E
330
2
100
AcDbEntity
  8
0
 48
0.3
100
AcDbLine
 10
964.094693560319
 20
399.067865556679
 30
0.0
 11
982.094693560319
 21
399.0678655566794
 31
0.0
  0
LINE
  5
340F
330
2
100
AcDbEntity
  8
0
 48
0.3
100
AcDbLine
 10
912.8004649262587
 20
385.0678655566771
 30
0.0
 11
920.594693560319
 21
398.5678655566781
 31
0.0
  0
LINE
  5
3410
330
2
100
AcDbEntity
  8
0
100
AcDbLine
 10
982.094693560319
 20
399.0678655566753
 30
0.0
 11
984.094693560319
 21
400.2225660950544
 31
0.0
  0
LINE
  5
3412
330
2
100
AcDbEntity
  8
0
100
AcDbLine
 10
985.0946935603253
 20
385.0678655566771
 30
0.0
 11
985.094693560328
 21
440.0678655566771
 31
0.0
  0
LINE
  5
3413
330
2
100
AcDbEntity
  8
0
100
AcDbLine
 10
984.094693560328
 20
385.0678655566771
 30
0.0
 11
984.0946935603298
 21
437.7178655566786
 31
0.0
  0
LINE
  5
3414
330
2
100
AcDbEntity
  8
0
100
AcDbLine
 10
979.9391302211738
 20
429.1261577051713
 30
0.0
 11
979.9629344486595
 21
429.130355032732
 31
0.0
  0
ARC
  5
3415
330
2
100
AcDbEntity
  8
0
100
AcDbCircle
 10
979.0946935603244
 20
434.0543937977932
 30
0.0
 40
5.0
100
AcDbArc
 50
280.000000000005
 51
0.0
  0
LINE
  5
3416
330
2
100
AcDbEntity
  8
0
100
AcDbLine
 10
984.0946935603289
 20
437.7178655566768
 30
0.0
 11
985.0946935603271
 21
438.7178655566755
 31
0.0
  0
LINE
  5
3417
330
2
100
AcDbEntity
  8
CENTER
100
AcDbLine
 10
1265.882594473843
 20
362.193279468505
 30
0.0
 11
1265.882594473843
 21
452.1822882644706
 31
0.0
  0
LINE
  5
3418
330
2
100
AcDbEntity
  8
HIDS
  6
SEKKEI_H
100
AcDbLine
 10
1260.802722065869
 20
395.0678655566927
 30
0.0
 11
1273.632594473837
 21
395.0678655566922
 31
0.0
  0
LINE
  5
3419
330
2
100
AcDbEntity
  8
HIDS
  6
SEKKEI_H
100
AcDbLine
 10
1270.382594473837
 20
385.8178655566895
 30
0.0
 11
1270.382594473837
 21
395.0678655566922
 31
0.0
  0
LINE
  5
341A
330
2
100
AcDbEntity
  8
HIDS
  6
SEKKEI_H
100
AcDbLine
 10
1261.382594473837
 20
385.8178655566895
 30
0.0
 11
1261.382594473837
 21
395.0678655566927
 31
0.0
  0
LINE
  5
341B
330
2
100
AcDbEntity
  8
HIDS
  6
SEKKEI_H
100
AcDbLine
 10
1262.482594473837
 20
371.5978989643032
 30
0.0
 11
1262.482594473837
 21
384.3178655566895
 31
0.0
  0
LINE
  5
341C
330
2
100
AcDbEntity
  8
HIDS
  6
SEKKEI_H
100
AcDbLine
 10
1261.882594473837
 20
372.0678655566922
 30
0.0
 11
1261.882594473837
 21
384.3178655566899
 31
0.0
  0
LINE
  5
341D
330
2
100
AcDbEntity
  8
HIDS
  6
SEKKEI_H
100
AcDbLine
 10
1269.882594473837
 20
363.3193023857576
 30
0.0
 11
1269.882594473837
 21
384.3178655566899
 31
0.0
  0
LINE
  5
341E
330
2
100
AcDbEntity
  8
HIDS
  6
SEKKEI_H
100
AcDbLine
 10
1269.282594473837
 20
363.7737349099594
 30
0.0
 11
1269.282594473837
 21
384.3178655566899
 31
0.0
  0
LINE
  5
341F
330
2
100
AcDbEntity
  8
HIDS
  6
SEKKEI_H
100
AcDbLine
 10
1272.382594473844
 20
404.5678655566927
 30
0.0
 11
1267.207745076857
 21
404.5678655566922
 31
0.0
  0
LINE
  5
3420
330
2
100
AcDbEntity
  8
HIDS
  6
SEKKEI_H
100
AcDbLine
 10
1271.516569070058
 20
405.0678655566927
 30
0.0
 11
1267.744237326623
 21
405.0678655566922
 31
0.0
  0
LINE
  5
3421
330
2
100
AcDbEntity
  8
HIDS
  6
SEKKEI_H
100
AcDbLine
 10
1273.132594473844
 20
397.0678655566927
 30
0.0
 11
1261.695821228943
 21
397.0678655566922
 31
0.0
  0
LINE
  5
3422
330
2
100
AcDbEntity
  8
HIDS
  6
SEKKEI_H
100
AcDbLine
 10
1268.682594473851
 20
372.0678655566922
 30
0.0
 11
1263.082594473837
 21
372.0678655566922
 31
0.0
  0
LINE
  5
3423
330
2
100
AcDbEntity
  8
HIDS
  6
SEKKEI_H
100
AcDbLine
 10
1269.882594473837
 20
373.2678655566925
 30
0.0
 11
1261.882594473837
 21
373.2678655566925
 31
0.0
  0
LINE
  5
3424
330
2
100
AcDbEntity
  8
0
 48
0.3
100
AcDbLine
 10
1258.632594473843
 20
397.0678655566922
 30
0.0
 11
1258.632594473843
 21
395.0678655566922
 31
0.0
  0
LINE
  5
3425
330
2
100
AcDbEntity
  8
0
 48
0.3
100
AcDbLine
 10
1259.382594473843
 20
404.5678655566922
 30
0.0
 11
1260.248619877629
 21
405.0678655566922
 31
0.0
  0
LINE
  5
3426
330
2
100
AcDbEntity
  8
0
 48
0.3
100
AcDbLine
 10
1259.382594473843
 20
404.5678655566922
 30
0.0
 11
1259.382594473843
 21
397.0678655566922
 31
0.0
  0
LINE
  5
3427
330
2
100
AcDbEntity
  8
HIDS
  6
SEKKEI_H
100
AcDbLine
 10
1273.132594473844
 20
397.0678655566927
 30
0.0
 11
1273.132594473844
 21
395.0678655566927
 31
0.0
  0
LINE
  5
3428
330
2
100
AcDbEntity
  8
HIDS
  6
SEKKEI_H
100
AcDbLine
 10
1272.382594473844
 20
404.5678655566917
 30
0.0
 11
1271.516569070058
 21
405.0678655566917
 31
0.0
  0
LINE
  5
3429
330
2
100
AcDbEntity
  8
HIDS
  6
SEKKEI_H
100
AcDbLine
 10
1272.382594473844
 20
404.5678655566917
 30
0.0
 11
1272.382594473844
 21
397.0678655566927
 31
0.0
  0
LINE
  5
342A
330
2
100
AcDbEntity
  8
HIDS
  6
SEKKEI_H
100
AcDbLine
 10
1273.582594473843
 20
395.0678655566927
 30
0.0
 11
1260.802722065869
 21
395.0678655566922
 31
0.0
  0
LINE
  5
342B
330
2
100
AcDbEntity
  8
HOJO
100
AcDbLine
 10
1262.482594473837
 20
384.3178655566895
 30
0.0
 11
1262.482594473837
 21
385.8178655566895
 31
0.0
  0
LINE
  5
342C
330
2
100
AcDbEntity
  8
0
100
AcDbLine
 10
1261.882594473837
 20
384.3178655566899
 30
0.0
 11
1261.882594473837
 21
385.8178655566895
 31
0.0
  0
LINE
  5
342D
330
2
100
AcDbEntity
  8
HOJO
100
AcDbLine
 10
1269.282594473837
 20
384.3178655566899
 30
0.0
 11
1269.282594473837
 21
385.8178655566895
 31
0.0
  0
LINE
  5
342E
330
2
100
AcDbEntity
  8
0
100
AcDbLine
 10
1269.882594473837
 20
384.3178655566899
 30
0.0
 11
1269.882594473837
 21
385.8178655566895
 31
0.0
  0
LINE
  5
342F
330
2
100
AcDbEntity
  8
HIDS
  6
SEKKEI_H
100
AcDbLine
 10
1269.882594473837
 20
385.8178655566895
 30
0.0
 11
1269.882594473837
 21
395.0678655566922
 31
0.0
  0
LINE
  5
3430
330
2
100
AcDbEntity
  8
HIDS
  6
SEKKEI_H
100
AcDbLine
 10
1269.282594473837
 20
385.8178655566895
 30
0.0
 11
1269.282594473837
 21
395.0678655566922
 31
0.0
  0
LINE
  5
3431
330
2
100
AcDbEntity
  8
HIDS
  6
SEKKEI_H
100
AcDbLine
 10
1262.482594473837
 20
385.8178655566895
 30
0.0
 11
1262.482594473837
 21
395.0678655566922
 31
0.0
  0
LINE
  5
3432
330
2
100
AcDbEntity
  8
HIDS
  6
SEKKEI_H
100
AcDbLine
 10
1261.882594473837
 20
385.8178655566895
 30
0.0
 11
1261.882594473837
 21
395.0678655566927
 31
0.0
  0
LINE
  5
3433
330
2
100
AcDbEntity
  8
0
100
AcDbLine
 10
1267.744237326623
 20
405.0678655566922
 30
0.0
 11
1260.248619877629
 21
405.0678655566922
 31
0.0
  0
LINE
  5
3434
330
2
100
AcDbEntity
  8
0
100
AcDbLine
 10
1267.207745076857
 20
404.5678655566922
 30
0.0
 11
1259.382594473843
 21
404.5678655566922
 31
0.0
  0
LINE
  5
3435
330
2
100
AcDbEntity
  8
0
100
AcDbLine
 10
1261.695821228943
 20
397.0678655566922
 30
0.0
 11
1258.632594473843
 21
397.0678655566922
 31
0.0
  0
LINE
  5
3436
330
2
100
AcDbEntity
  8
0
100
AcDbLine
 10
1260.802722065869
 20
395.0678655566922
 30
0.0
 11
1258.632594473843
 21
395.0678655566922
 31
0.0
  0
LINE
  5
3437
330
2
100
AcDbEntity
  8
HIDS
  6
SEKKEI_H
100
AcDbLine
 10
1261.882594473837
 20
373.2678655566925
 30
0.0
 11
1263.082594473837
 21
372.0678655566922
 31
0.0
  0
LINE
  5
3438
330
2
100
AcDbEntity
  8
HIDS
  6
SEKKEI_H
100
AcDbLine
 10
1269.882594473851
 20
373.2678655566925
 30
0.0
 11
1268.682594473851
 21
372.0678655566922
 31
0.0
  0
CIRCLE
  5
3439
330
2
100
AcDbEntity
  8
0
100
AcDbCircle
 10
1285.882594473829
 20
385.0678655566777
 30
0.0
 40
26.99999999999249
  0
LINE
  5
343A
330
2
100
AcDbEntity
  8
0
100
AcDbLine
 10
1258.893013150667
 20
384.3178655566891
 30
0.0
 11
1271.90269819381
 21
384.3178655566891
 31
0.0
  0
LINE
  5
343B
330
2
100
AcDbEntity
  8
0
100
AcDbLine
 10
1299.862490753848
 20
384.3178655566891
 30
0.0
 11
1311.891314519885
 21
384.3178655566895
 31
0.0
  0
LINE
  5
343C
330
2
100
AcDbEntity
  8
0
100
AcDbLine
 10
1258.893013150667
 20
385.817865556689
 30
0.0
 11
1271.902698193811
 21
385.817865556689
 31
0.0
  0
LINE
  5
343D
330
2
100
AcDbEntity
  8
0
100
AcDbLine
 10
1299.862490753847
 20
385.8178655566895
 30
0.0
 11
1311.891314519885
 21
385.817865556689
 31
0.0
  0
LINE
  5
343E
330
2
100
AcDbEntity
  8
0
100
AcDbLine
 10
1311.891314519885
 20
385.817865556689
 30
0.0
 11
1311.891314519885
 21
384.3178655566895
 31
0.0
  0
CIRCLE
  5
343F
330
2
100
AcDbEntity
  8
0
100
AcDbCircle
 10
1285.882594473829
 20
385.0678655566772
 30
0.0
 40
14.00000000000233
  0
ARC
  5
3440
330
2
100
AcDbEntity
  8
0
100
AcDbCircle
 10
1285.882594473829
 20
385.067865556679
 30
0.0
 40
15.15470053837555
100
AcDbArc
 50
2.83670371014079
 51
177.1632962898592
  0
ARC
  5
3441
330
2
100
AcDbEntity
  8
0
100
AcDbCircle
 10
1285.882594473829
 20
385.067865556679
 30
0.0
 40
15.15470053837555
100
AcDbArc
 50
182.8367037100627
 51
357.1632962899372
  0
LINE
  5
3442
330
2
100
AcDbEntity
  8
HIDS
  6
SEKKEI_H
100
AcDbLine
 10
1273.632594473837
 20
395.0678655566922
 30
0.0
 11
1273.632594473837
 21
409.1289856469926
 31
0.0
  0
LINE
  5
3443
330
2
100
AcDbEntity
  8
CENTER
  6
CENTERX2
100
AcDbLine
 10
918.8845537428917
 20
434.2117868188684
 30
0.0
 11
932.3845537428926
 21
434.211786818868
 31
0.0
  0
LINE
  5
3444
330
2
100
AcDbEntity
  8
CENTER
  6
CENTERX2
100
AcDbLine
 10
918.8845537418094
 20
335.9239442324447
 30
0.0
 11
932.3845537418103
 21
335.9239442324442
 31
0.0
  0
LINE
  5
3445
330
2
100
AcDbEntity
  8
0
100
AcDbLine
 10
979.0600880865579
 20
320.0678655566776
 30
0.0
 11
992.0946935603254
 21
320.0678655566765
 31
0.0
  0
LINE
  5
3446
330
2
100
AcDbEntity
  8
0
100
AcDbLine
 10
992.0946935603254
 20
320.0678655566765
 30
0.0
 11
992.0946935603254
 21
450.0678655566776
 31
0.0
  0
LINE
  5
3447
330
2
100
AcDbEntity
  8
0
100
AcDbLine
 10
979.0600880865579
 20
450.0678655566767
 30
0.0
 11
992.0946935603254
 21
450.0678655566776
 31
0.0
  0
LINE
  5
3448
330
2
100
AcDbEntity
  8
0
100
AcDbLine
 10
985.0946935603271
 20
440.0678655566776
 30
0.0
 11
992.0946935603254
 21
440.0678655566771
 31
0.0
  0
ARC
  5
3449
330
2
100
AcDbEntity
  8
HIDS
  6
SEKKEI_H
100
AcDbCircle
 10
1287.918473232996
 20
439.5298265563691
 30
0.0
 40
2.0
100
AcDbArc
 50
181.0000000000538
 51
267.8591851842378
  0
LINE
  5
344A
330
2
100
AcDbEntity
  8
HIDS
  6
SEKKEI_H
100
AcDbLine
 10
1285.916895338039
 20
439.6027703091609
 30
0.0
 11
1285.918777842682
 21
439.4949216903984
 31
0.0
  0
LINE
  5
34B1
330
2
100
AcDbEntity
  8
CENTER
100
AcDbLine
 10
1002.094693560316
 20
385.0678655566772
 30
0.0
 11
694.5946935603168
 21
385.0678655566772
 31
0.0
  0
LINE
  5
34B2
330
2
100
AcDbEntity
  8
CENTER
100
AcDbLine
 10
779.5946935603168
 20
470.0678655566772
 30
0.0
 11
779.5946935603168
 21
300.0678655566772
 31
0.0
  0
SPLINE
  5
3579
330
2
100
AcDbEntity
  8
HOJO
100
AcDbSpline
210
0.0
220
0.0
230
1.0
 70
     8
 71
     3
 72
    20
 73
    16
 74
    14
 42
0.0000000001
 43
0.0000000001
 44
0.0000000001
 40
0.0
 40
0.0
 40
0.0
 40
0.0
 40
13.66004597705051
 40
23.21099378859128
 40
30.11035718500943
 40
40.18359664285921
 40
48.69324575619264
 40
56.88016730666946
 40
64.38379888686326
 40
68.4820619423195
 40
73.10799867900872
 40
85.82226062248221
 40
96.27190180045591
 40
107.8453228109554
 40
120.8771095880874
 40
120.8771095880874
 40
120.8771095880874
 40
120.8771095880874
 10
908.4893700098248
 20
385.0678655566653
 30
0.0
 10
909.5919416332039
 20
389.434672602629
 30
0.0
 10
911.4654187170094
 20
396.854701158179
 30
0.0
 10
916.4871585732987
 20
406.334146245747
 30
0.0
 10
925.5177181924636
 20
409.1154698573586
 30
0.0
 10
933.9220211484333
 20
407.187795061052
 30
0.0
 10
942.8916630366519
 20
408.4743546032825
 30
0.0
 10
950.8591544322518
 20
406.3892639082419
 30
0.0
 10
957.4789325520805
 20
407.614019478887
 30
0.0
 10
962.7160527127436
 20
408.6130709978318
 30
0.0
 10
969.7413935876069
 20
411.7040536549802
 30
0.0
 10
969.3111436508482
 20
422.9359680078921
 30
0.0
 10
973.2849779688406
 20
433.1239805271439
 30
0.0
 10
978.4223419656818
 20
445.1856133034405
 30
0.0
 10
987.360650027259
 20
445.5825696730872
 30
0.0
 10
992.0946935603254
 20
445.7928117817377
 30
0.0
 11
908.4893700098248
 21
385.0678655566653
 31
0.0
 11
912.4889569615447
 21
398.1292651872855
 31
0.0
 11
917.89256352654
 21
406.0046470948196
 31
0.0
 11
924.4071923662282
 21
408.2763923175367
 31
0.0
 11
934.4664062579909
 21
407.7450082239194
 31
0.0
 11
942.9744991892357
 21
407.9077433011399
 31
0.0
 11
951.1067077151674
 21
406.9628258632512
 31
0.0
 11
958.5608510795255
 21
407.8231941535075
 31
0.0
 11
962.5553342053354
 21
408.7396354387721
 31
0.0
 11
966.6673518040747
 21
410.8587394851815
 31
0.0
 11
970.1824601200859
 21
423.0774329625533
 31
0.0
 11
973.3158550225475
 21
433.0462261259022
 31
0.0
 11
979.3883626873043
 21
442.8985722702345
 31
0.0
 11
992.0946935603254
 21
445.7928117817377
 31
0.0
  0
LINE
  5
357A
330
2
100
AcDbEntity
  8
0
100
AcDbLine
 10
971.2765428912328
 20
427.5987098361597
 30
0.0
 11
979.9629344486598
 21
429.1303550327319
 31
0.0
  0
ENDSEC
  0
SECTION
  2
OBJECTS
  0
DICTIONARY
  5
7
330
0
100
AcDbDictionary
  3
ACAD_COLOR
350
832
  3
ACAD_GROUP
350
75
  3
ACAD_LAYOUT
350
61
  3
ACAD_MATERIAL
350
808
  3
ACAD_MLEADERSTYLE
350
857
  3
ACAD_MLINESTYLE
350
76
  3
ACAD_PLOTSETTINGS
350
77
  3
ACAD_PLOTSTYLENAME
350
6
  3
ACAD_SCALELIST
350
835
  3
ACAD_TABLESTYLE
350
833
  3
ACAD_VISUALSTYLE
350
821
  3
ACADDIM
350
480
  3
ACDB_RECOMPOSE_DATA
350
88E
  3
ACDBHEADERROUNDTRIPXREC
350
3605
  3
ACDBVARIABLEDICTIONARY
350
102
  3
DWGPROPS
350
35DB
  0
DICTIONARY
  5
1BAE
330
6E
100
AcDbDictionary
280
     1
  3
ACAD_XREC_ROUNDTRIP
360
35DF
  0
DICTIONARY
  5
86B
330
66
100
AcDbDictionary
280
     1
  3
ACAD_LAYERSTATES
360
86C
  0
DICTIONARY
  5
1AF7
330
5E
100
AcDbDictionary
280
     1
  3
ADSK_XREC_LAYER_RECONCILED
360
1AF8
  0
DICTIONARY
  5
1AF9
330
3E
100
AcDbDictionary
280
     1
  3
ADSK_XREC_LAYER_RECONCILED
360
1AFA
  0
DICTIONARY
  5
1AFF
330
2B5
100
AcDbDictionary
280
     1
  3
ADSK_XREC_LAYER_RECONCILED
360
1B00
  0
DICTIONARY
  5
1B01
330
2BA
100
AcDbDictionary
280
     1
  3
ADSK_XREC_LAYER_RECONCILED
360
1B02
  0
DICTIONARY
  5
1B05
330
3FA
100
AcDbDictionary
280
     1
  3
ADSK_XREC_LAYER_RECONCILED
360
1B06
  0
DICTIONARY
  5
1D16
330
2
100
AcDbDictionary
280
     1
  3
ACAD_LAYOUTSELFREF
360
3626
  3
ACAD_SORTENTS
360
1D17
  0
DICTIONARY
  5
3627
330
35FF
100
AcDbDictionary
280
     1
  3
ACAD_LAYOUTSELFREF
360
3628
  0
DICTIONARY
  5
832
102
{ACAD_REACTORS
330
7
102
}
330
7
100
AcDbDictionary
  0
DICTIONARY
  5
75
102
{ACAD_REACTORS
330
7
102
}
330
7
100
AcDbDictionary
  0
DICTIONARY
  5
61
102
{ACAD_REACTORS
330
7
102
}
330
7
100
AcDbDictionary
  0
DICTIONARY
  5
808
102
{ACAD_REACTORS
330
7
102
}
330
7
100
AcDbDictionary
  3
BYBLOCK
350
811
  3
BYLAYER
350
809
  3
GLOBAL
350
819
  0
DICTIONARY
  5
857
102
{ACAD_REACTORS
330
7
102
}
330
7
100
AcDbDictionary
  3
STANDARD
350
858
  0
DICTIONARY
  5
76
102
{ACAD_REACTORS
330
7
102
}
330
7
100
AcDbDictionary
  3
STANDARD
350
78
  0
DICTIONARY
  5
77
102
{ACAD_REACTORS
330
7
102
}
330
7
100
AcDbDictionary
  0
ACDBDICTIONARYWDFLT
  5
6
102
{ACAD_REACTORS
330
7
102
}
330
7
100
AcDbDictionary
281
     1
  3
Normal
350
5
100
AcDbDictionaryWithDefault
340
5
  0
DICTIONARY
  5
835
102
{ACAD_REACTORS
330
7
102
}
330
7
100
AcDbDictionary
  3
A0
350
836
  3
A1
350
837
  3
A2
350
838
  3
A3
350
839
  3
A4
350
83A
  3
A5
350
83B
  3
A6
350
83C
  3
A7
350
83D
  3
A8
350
83E
  3
A9
350
83F
  3
B0
350
840
  3
B1
350
841
  3
B2
350
842
  3
B3
350
843
  3
B4
350
844
  3
B5
350
845
  3
B6
350
846
  3
B7
350
847
  3
B8
350
848
  3
B9
350
849
  3
C0
350
84A
  3
C1
350
84B
  3
C2
350
84C
  3
C3
350
84D
  3
C4
350
84E
  3
C5
350
84F
  3
C6
350
850
  3
C7
350
851
  3
C8
350
852
  3
C9
350
853
  3
D0
350
854
  3
D1
350
855
  3
D2
350
856
  0
DICTIONARY
  5
833
102
{ACAD_REACTORS
330
7
102
}
330
7
100
AcDbDictionary
  3
STANDARD
350
834
  0
DICTIONARY
  5
821
102
{ACAD_REACTORS
330
7
102
}
330
7
100
AcDbDictionary
  3
2DWIREFRAME
350
827
  3
3D_HIDDEN
350
829
  3
3DWIREFRAME
350
828
  3
BASIC
350
826
  3
BRIGHTEN
350
82D
  3
COLORCHANGE
350
831
  3
CONCEPTUAL
350
82A
  3
DIM
350
82C
  3
FACEPATTERN
350
830
  3
FLAT
350
822
  3
FLATWITHEDGES
350
823
  3
GOURAUD
350
824
  3
GOURAUDWITHEDGES
350
825
  3
LINEPATTERN
350
82F
  3
REALISTIC
350
82B
  3
THICKEN
350
82E
  0
XRECORD
  5
480
102
{ACAD_REACTORS
330
7
102
}
330
7
100
AcDbXrecord
 90
   990106
  3

 60
     0
 61
     0
 62
     1
 63
     3
 64
     1
 65
     0
 66
     0
 67
     3
 68
     1
 69
     0
 70
     0
 71
     0
 72
     0
 40
0.0
170
     2
340
0
  0
XRECORD
  5
88E
102
{ACAD_REACTORS
330
7
102
}
330
7
100
AcDbXrecord
 90
        1
330
834
  0
DICTIONARY
  5
3605
102
{ACAD_REACTORS
330
7
102
}
330
7
100
AcDbDictionary
  3
CEPSNTYPE
350
360F
  3
DIMSTYLEDATA
350
3613
  3
FINGERPRINTGUID
350
3610
  3
HYPERLINKBASE
350
3608
  3
INSUNITS
350
360E
  3
LAYOUTDICT
350
360A
  3
LWETCUNION
350
360D
  3
PLOTSETDICT
350
360B
  3
PLOTSTYLNAMDICT
350
360C
  3
PSVPSCALE
350
3612
  3
PUCSBASE
350
3616
  3
PUCSORGBACK
350
361C
  3
PUCSORGBOTTOM
350
3618
  3
PUCSORGFRONT
350
361B
  3
PUCSORGLEFT
350
3619
  3
PUCSORGRIGHT
350
361A
  3
PUCSORGTOP
350
3617
  3
PUCSORTHOREF
350
3614
  3
PUCSORTHOVIEW
350
3615
  3
STYLESHEET
350
3609
  3
TSTACKALIGN
350
3606
  3
TSTACKSIZE
350
3607
  3
UCSBASE
350
361F
  3
UCSORGBACK
350
3625
  3
UCSORGBOTTOM
350
3621
  3
UCSORGFRONT
350
3624
  3
UCSORGLEFT
350
3622
  3
UCSORGRIGHT
350
3623
  3
UCSORGTOP
350
3620
  3
UCSORTHOREF
350
361D
  3
UCSORTHOVIEW
350
361E
  3
VERSIONGUID
350
3611
  0
DICTIONARY
  5
102
102
{ACAD_REACTORS
330
7
102
}
330
7
100
AcDbDictionary
  3
CANNOSCALE
350
892
  3
CMLEADERSTYLE
350
890
  3
CTABLESTYLE
350
88F
  3
DIMASSOC
350
103
  3
INDEXCTL
350
1BBB
  3
LIGHTINGUNITS
350
893
  3
MSLTSCALE
350
891
  3
SORTENTS
350
549
  0
XRECORD
  5
35DB
102
{ACAD_REACTORS
330
7
102
}
330
7
100
AcDbXrecord
  1
DWGPROPS COOKIE
  2

  3

  4

  6

  7

  8
knsuzuki
  9

300
=
301
=
302
=
303
=
304
=
305
=
306
=
307
=
308
=
309
=
 40
0.1494451851851852
 41
2454889.454828194
 42
2454907.75376537
  1

 90
        0
  0
XRECORD
  5
35DF
102
{ACAD_REACTORS
330
1BAE
102
}
330
1BAE
100
AcDbXrecord
102
VTR_0.000_0.000_1.000_1.000_VISUALSTYLE
340
827
102
VTR_0.000_0.000_1.000_1.000_GRIDDISPLAY
 70
     3
102
VTR_0.000_0.000_1.000_1.000_GRIDMAJOR
 70
     5
102
VTR_0.000_0.000_1.000_1.000_DEFAULTLIGHTING
280
     1
102
VTR_0.000_0.000_1.000_1.000_DEFAULTLIGHTINGTYPE
 70
     1
102
VTR_0.000_0.000_1.000_1.000_BRIGHTNESS
141
0.0
102
VTR_0.000_0.000_1.000_1.000_CONTRAST
142
0.0
  0
DICTIONARY
  5
86C
102
{ACAD_REACTORS
330
86B
102
}
330
86B
100
AcDbDictionary
  0
XRECORD
  5
1AF8
102
{ACAD_REACTORS
330
1AF7
102
}
330
1AF7
100
AcDbXrecord
290
     1
  0
XRECORD
  5
1AFA
102
{ACAD_REACTORS
330
1AF9
102
}
330
1AF9
100
AcDbXrecord
290
     1
  0
XRECORD
  5
1B00
102
{ACAD_REACTORS
330
1AFF
102
}
330
1AFF
100
AcDbXrecord
290
     1
  0
XRECORD
  5
1B02
102
{ACAD_REACTORS
330
1B01
102
}
330
1B01
100
AcDbXrecord
290
     1
  0
XRECORD
  5
1B06
102
{ACAD_REACTORS
330
1B05
102
}
330
1B05
100
AcDbXrecord
290
     1
  0
XRECORD
  5
3626
102
{ACAD_REACTORS
330
1D16
102
}
330
1D16
100
AcDbXrecord
340
2
  0
SORTENTSTABLE
  5
1D17
102
{ACAD_REACTORS
330
1D16
102
}
330
1D16
100
AcDbSortentsTable
330
2
331
1392
  5
13F6
331
1D6F
  5
1D72
331
1D0C
  5
1D10
331
13C2
  5
1415
331
1D14
  5
1D32
331
1D77
  5
1D7C
331
15F7
  5
1682
331
1D34
  5
1D38
331
C37
  5
C37
331
C76
  5
C76
331
C3F
  5
C3F
331
C7E
  5
C7E
331
C86
  5
C86
331
C47
  5
C47
331
CAB
  5
CAB
331
D31
  5
D31
331
D70
  5
D71
331
C4F
  5
C4F
331
CB3
  5
CB3
331
D39
  5
D39
331
D78
  5
D79
331
DAF
  5
DB0
331
DEE
  5
DF0
331
E25
  5
E27
331
E64
  5
E66
331
D0A
  5
D0A
331
CBB
  5
CBB
331
D41
  5
D41
331
DB7
  5
DB8
331
DF6
  5
DF8
331
E2D
  5
E2F
331
E6C
  5
E6E
331
E74
  5
E76
331
DFE
  5
E00
331
CC3
  5
CC3
331
D49
  5
D49
331
DBF
  5
DC0
331
E35
  5
E37
331
DC7
  5
DC8
331
E3D
  5
E3F
331
1D38
  5
1D3C
331
E84
  5
E86
331
1D40
  5
1D52
331
E8C
  5
E8E
331
1D58
  5
1D6E
331
1D05
  5
1D08
331
C57
  5
C57
331
C5F
  5
C5F
331
C28
  5
C28
331
C67
  5
C67
331
C8C
  5
C8C
331
CCB
  5
CCB
331
D12
  5
D12
331
D51
  5
D52
331
D88
  5
D89
331
C6F
  5
C6F
331
C94
  5
C94
331
CD3
  5
CD3
331
D1A
  5
D1A
331
D59
  5
D5A
331
D90
  5
D91
331
DCF
  5
DD0
331
E06
  5
E08
331
E45
  5
E47
331
C9C
  5
C9C
331
CDB
  5
CDB
331
D22
  5
D22
331
D61
  5
D62
331
D98
  5
D99
331
DD7
  5
DD8
331
E0E
  5
E10
331
E4D
  5
E4F
331
CA4
  5
CA4
331
CEB
  5
CEB
331
D2A
  5
D2A
331
D69
  5
D6A
331
DA0
  5
DA1
331
DDF
  5
DE0
331
E55
  5
E57
331
DE7
  5
DE9
331
E1E
  5
E20
331
E5D
  5
E5F
331
120C
  5
1210
331
1D70
  5
1D73
331
1D0D
  5
1D11
331
1D78
  5
1D7D
331
1D35
  5
1D39
331
C30
  5
C30
331
C38
  5
C38
331
C77
  5
C77
331
C40
  5
C40
331
C7F
  5
C7F
331
C87
  5
C87
331
C48
  5
C48
331
CAC
  5
CAC
331
D32
  5
D32
331
D71
  5
D72
331
DA8
  5
DA9
331
E65
  5
E67
331
CB4
  5
CB4
331
D3A
  5
D3A
331
D79
  5
D7A
331
DB0
  5
DB1
331
DEF
  5
DF1
331
E26
  5
E28
331
D81
  5
D82
331
D0B
  5
D0B
331
CBC
  5
CBC
331
D42
  5
D42
331
DB8
  5
DB9
331
DF7
  5
DF9
331
E2E
  5
E30
331
E6D
  5
E6F
331
DFF
  5
E01
331
CC4
  5
CC4
331
D4A
  5
D4A
331
DC0
  5
DC1
331
E36
  5
E38
331
E3E
  5
E40
331
1D39
  5
1D3D
331
147A
  5
14D0
331
E85
  5
E87
331
1D41
  5
1D53
331
1B1E
  5
1D06
331
E8D
  5
E8F
331
1D51
  5
1D54
331
1D06
  5
1D09
331
C50
  5
C50
331
C58
  5
C58
331
C60
  5
C60
331
C29
  5
C29
331
C68
  5
C68
331
C8D
  5
C8D
331
CCC
  5
CCC
331
D13
  5
D13
331
D52
  5
D53
331
D89
  5
D8A
331
DC8
  5
DC9
331
E46
  5
E48
331
C95
  5
C95
331
CD4
  5
CD4
331
D1B
  5
D1B
331
D5A
  5
D5B
331
D91
  5
D92
331
DD0
  5
DD1
331
E07
  5
E09
331
C9D
  5
C9D
331
D23
  5
D23
331
D62
  5
D63
331
D99
  5
D9A
331
DD8
  5
DD9
331
E0F
  5
E11
331
E4E
  5
E50
331
CA5
  5
CA5
331
CEC
  5
CEC
331
D2B
  5
D2B
331
D6A
  5
D6B
331
DA1
  5
DA2
331
DE0
  5
DE1
331
E17
  5
E19
331
E56
  5
E58
331
E1F
  5
E21
331
E5E
  5
E60
331
120D
  5
1211
331
1D0E
  5
1D12
331
14BA
  5
150B
331
1D71
  5
1D75
331
1D36
  5
1D3A
331
C31
  5
C31
331
C70
  5
C70
331
C39
  5
C39
331
C78
  5
C78
331
C80
  5
C80
331
C41
  5
C41
331
C49
  5
C49
331
CAD
  5
CAD
331
D33
  5
D33
331
D72
  5
D73
331
DA9
  5
DAA
331
DE8
  5
DEA
331
E27
  5
E29
331
CB5
  5
CB5
331
D3B
  5
D3B
331
D7A
  5
D7B
331
DB1
  5
DB2
331
DF0
  5
DF2
331
E66
  5
E68
331
DF8
  5
DFA
331
D82
  5
D83
331
D0C
  5
D0C
331
CBD
  5
CBD
331
D43
  5
D43
331
DB9
  5
DBA
331
E2F
  5
E31
331
E6E
  5
E70
331
CC5
  5
CC5
331
D4B
  5
D4B
331
DC1
  5
DC2
331
E37
  5
E39
331
E3F
  5
E41
331
17F0
  5
1841
331
E86
  5
E88
331
1D3A
  5
1D3E
331
E8E
  5
E90
331
1D52
  5
1D55
331
1D07
  5
1D0A
331
C51
  5
C51
331
C59
  5
C59
331
C61
  5
C61
331
C2A
  5
C2A
331
C69
  5
C69
331
C8E
  5
C8E
331
CCD
  5
CCD
331
D14
  5
D14
331
D53
  5
D54
331
D8A
  5
D8B
331
DC9
  5
DCA
331
E00
  5
E02
331
E08
  5
E0A
331
C96
  5
C96
331
CD5
  5
CD5
331
D1C
  5
D1C
331
D5B
  5
D5C
331
D92
  5
D93
331
DD1
  5
DD2
331
E47
  5
E49
331
C9E
  5
C9E
331
D24
  5
D24
331
D63
  5
D64
331
D9A
  5
D9B
331
DD9
  5
DDA
331
E10
  5
E12
331
E4F
  5
E51
331
CA6
  5
CA6
331
CED
  5
CED
331
D2C
  5
D2C
331
D6B
  5
D6C
331
DA2
  5
DA3
331
DE1
  5
DE2
331
E18
  5
E1A
331
E57
  5
E59
331
E5F
  5
E61
331
1789
  5
1792
331
159A
  5
1663
331
1D0F
  5
1D13
331
1D72
  5
1D76
331
1316
  5
13C2
331
1D37
  5
1D3B
331
1464
  5
14BA
331
C32
  5
C32
331
C71
  5
C71
331
C3A
  5
C3A
331
C79
  5
C79
331
C81
  5
C81
331
C42
  5
C42
331
C4A
  5
C4A
331
CAE
  5
CAE
331
D34
  5
D34
331
D73
  5
D74
331
DAA
  5
DAB
331
DE9
  5
DEB
331
E20
  5
E22
331
CB6
  5
CB6
331
CFD
  5
CFD
331
D3C
  5
D3C
331
D7B
  5
D7C
331
DB2
  5
DB3
331
DF1
  5
DF3
331
E28
  5
E2A
331
E67
  5
E69
331
DF9
  5
DFB
331
D83
  5
D84
331
D0D
  5
D0D
331
CBE
  5
CBE
331
D44
  5
D44
331
DBA
  5
DBB
331
E30
  5
E32
331
E6F
  5
E71
331
CC6
  5
CC6
331
D4C
  5
D4C
331
DC2
  5
DC3
331
E38
  5
E3A
331
E87
  5
E89
331
1D3B
  5
1D3F
331
1682
  5
16BE
331
E8F
  5
E91
331
150B
  5
1515
331
1D53
  5
1D56
331
1147
  5
1149
331
1415
  5
1464
331
C52
  5
C52
331
C5A
  5
C5A
331
C62
  5
C62
331
C2B
  5
C2B
331
C6A
  5
C6A
331
C8F
  5
C8F
331
CCE
  5
CCE
331
D15
  5
D15
331
D54
  5
D55
331
D8B
  5
D8C
331
DCA
  5
DCB
331
E01
  5
E03
331
E40
  5
E42
331
C97
  5
C97
331
CD6
  5
CD6
331
D1D
  5
D1D
331
D5C
  5
D5D
331
D93
  5
D94
331
DD2
  5
DD3
331
E09
  5
E0B
331
E48
  5
E4A
331
C9F
  5
C9F
331
D25
  5
D25
331
D64
  5
D65
331
D9B
  5
D9C
331
DDA
  5
DDB
331
E11
  5
E13
331
E50
  5
E52
331
CA7
  5
CA7
331
CEE
  5
CEE
331
D2D
  5
D2D
331
D6C
  5
D6D
331
DA3
  5
DA4
331
DE2
  5
DE3
331
E19
  5
E1B
331
E58
  5
E5A
331
1D08
  5
1D0B
331
178A
  5
1799
331
120F
  5
1212
331
1D10
  5
1D14
331
1D73
  5
1D77
331
1D30
  5
1D33
331
17DA
  5
181C
331
13CE
  5
1434
331
C33
  5
C33
331
C72
  5
C72
331
C3B
  5
C3B
331
C7A
  5
C7A
331
C82
  5
C82
331
C43
  5
C43
331
C4B
  5
C4B
331
CAF
  5
CAF
331
D35
  5
D35
331
D74
  5
D75
331
DAB
  5
DAC
331
DEA
  5
DEC
331
E21
  5
E23
331
E60
  5
E62
331
CB7
  5
CB7
331
CFE
  5
CFE
331
D3D
  5
D3D
331
D7C
  5
D81
331
DB3
  5
DB4
331
DF2
  5
DF4
331
E29
  5
E2B
331
E68
  5
E6A
331
E70
  5
E72
331
DFA
  5
DFC
331
D84
  5
D85
331
D0E
  5
D0E
331
CBF
  5
CBF
331
D45
  5
D45
331
DBB
  5
DBC
331
E31
  5
E33
331
CC7
  5
CC7
331
D4D
  5
D4D
331
DC3
  5
DC4
331
E39
  5
E3B
331
E88
  5
E8A
331
1D3C
  5
1D40
331
E90
  5
E92
331
13F6
  5
144E
331
150C
  5
159A
331
1D54
  5
1D57
331
1514
  5
15F7
331
C53
  5
C53
331
C5B
  5
C5B
331
C24
  5
C24
331
C63
  5
C63
331
C88
  5
C88
331
C2C
  5
C2C
331
C6B
  5
C6B
331
C90
  5
C90
331
CCF
  5
CCF
331
D16
  5
D16
331
D55
  5
D56
331
D8C
  5
D8D
331
DCB
  5
DCC
331
E02
  5
E04
331
E41
  5
E43
331
D94
  5
D95
331
C98
  5
C98
331
CD7
  5
CD7
331
D1E
  5
D1E
331
D5D
  5
D5E
331
DD3
  5
DD4
331
E0A
  5
E0C
331
E49
  5
E4B
331
CA0
  5
CA0
331
D26
  5
D26
331
D65
  5
D66
331
D9C
  5
D9D
331
DDB
  5
DDC
331
E12
  5
E14
331
E51
  5
E53
331
CEF
  5
CEF
331
D2E
  5
D2E
331
D6D
  5
D6E
331
DA4
  5
DA5
331
DE3
  5
DE4
331
E1A
  5
E1C
331
E59
  5
E5B
331
1208
  5
120D
331
1D09
  5
1D0C
331
1D6C
  5
1D6F
331
1D11
  5
1D15
331
179B
  5
17F0
331
144E
  5
1490
331
1D74
  5
1D78
331
1D31
  5
1D34
331
C34
  5
C34
331
C73
  5
C73
331
C3C
  5
C3C
331
C7B
  5
C7B
331
C83
  5
C83
331
C44
  5
C44
331
CA8
  5
CA8
331
C4C
  5
C4C
331
CB0
  5
CB0
331
D36
  5
D36
331
D75
  5
D76
331
DAC
  5
DAD
331
DEB
  5
DED
331
E22
  5
E24
331
E61
  5
E63
331
CB8
  5
CB8
331
CFF
  5
CFF
331
D3E
  5
D3E
331
DB4
  5
DB5
331
DF3
  5
DF5
331
E2A
  5
E2C
331
E69
  5
E6B
331
E71
  5
E73
331
DFB
  5
DFD
331
D85
  5
D86
331
D0F
  5
D0F
331
CC0
  5
CC0
331
D46
  5
D46
331
DBC
  5
DBD
331
E32
  5
E34
331
D4E
  5
D4F
331
DC4
  5
DC5
331
E3A
  5
E3C
331
E89
  5
E8B
331
1D3D
  5
1D41
331
E91
  5
1147
331
1AE3
  5
1B1E
331
1D55
  5
1D58
331
1378
  5
13CE
331
1515
  5
163D
331
C54
  5
C54
331
C5C
  5
C5C
331
C25
  5
C25
331
C64
  5
C64
331
C89
  5
C89
331
CC8
  5
CC8
331
C2D
  5
C2D
331
C6C
  5
C6C
331
C91
  5
C91
331
CD0
  5
CD0
331
D17
  5
D17
331
D56
  5
D57
331
D8D
  5
D8E
331
DCC
  5
DCD
331
E03
  5
E05
331
E42
  5
E44
331
D5E
  5
D5F
331
C99
  5
C99
331
CD8
  5
CD8
331
D1F
  5
D1F
331
D95
  5
D96
331
DD4
  5
DD5
331
E0B
  5
E0D
331
E4A
  5
E4C
331
CA1
  5
CA1
331
D27
  5
D27
331
D66
  5
D67
331
D9D
  5
D9E
331
DDC
  5
DDD
331
E13
  5
E15
331
E52
  5
E54
331
D2F
  5
D2F
331
D6E
  5
D6F
331
DA5
  5
DA6
331
DE4
  5
DE5
331
E5A
  5
E5C
331
1209
  5
120F
331
1D6D
  5
1D70
331
1D0A
  5
1D0D
331
1D75
  5
1D79
331
1D12
  5
1D30
331
1D32
  5
1D35
331
163D
  5
16B3
331
C35
  5
C35
331
C74
  5
C74
331
C3D
  5
C3D
331
C7C
  5
C7C
331
CA9
  5
CA9
331
CF0
  5
CF0
331
C45
  5
C45
331
C84
  5
C84
331
C4D
  5
C4D
331
CB1
  5
CB1
331
D37
  5
D37
331
D76
  5
D77
331
DAD
  5
DAE
331
DEC
  5
DEE
331
E23
  5
E25
331
E62
  5
E64
331
D3F
  5
D3F
331
CB9
  5
CB9
331
DB5
  5
DB6
331
DF4
  5
DF6
331
E2B
  5
E2D
331
E6A
  5
E6C
331
DFC
  5
DFE
331
D86
  5
D87
331
CC1
  5
CC1
331
D47
  5
D47
331
DBD
  5
DBE
331
E33
  5
E35
331
E72
  5
E74
331
D4F
  5
D50
331
DC5
  5
DC6
331
E3B
  5
E3D
331
1D3E
  5
1D42
331
E8A
  5
E8C
331
181C
  5
18A2
331
E92
  5
1148
331
1D56
  5
1D6C
331
C55
  5
C55
331
C5D
  5
C5D
331
C26
  5
C26
331
C65
  5
C65
331
C8A
  5
C8A
331
CC9
  5
CC9
331
D10
  5
D10
331
C2E
  5
C2E
331
C6D
  5
C6D
331
C92
  5
C92
331
CD1
  5
CD1
331
D18
  5
D18
331
D57
  5
D58
331
D8E
  5
D8F
331
DCD
  5
DCE
331
E04
  5
E06
331
E43
  5
E45
331
D20
  5
D20
331
C9A
  5
C9A
331
CD9
  5
CD9
331
D5F
  5
D60
331
D96
  5
D97
331
DD5
  5
DD6
331
E0C
  5
E0E
331
E4B
  5
E4D
331
CA2
  5
CA2
331
D28
  5
D28
331
D67
  5
D68
331
D9E
  5
D9F
331
DDD
  5
DDE
331
E14
  5
E16
331
E53
  5
E55
331
D6F
  5
D70
331
DA6
  5
DA7
331
DE5
  5
DE7
331
E5B
  5
E5D
331
1D6E
  5
1D71
331
1D0B
  5
1D0F
331
1D76
  5
1D7A
331
1D13
  5
1D31
331
1D33
  5
1D37
331
C75
  5
C75
331
C7D
  5
C7D
331
C3E
  5
C3E
331
CAA
  5
CAA
331
D30
  5
D30
331
C46
  5
C46
331
C85
  5
C85
331
C4E
  5
C4E
331
CB2
  5
CB2
331
D38
  5
D38
331
D77
  5
D78
331
DAE
  5
DAF
331
DED
  5
DEF
331
E24
  5
E26
331
E63
  5
E65
331
D40
  5
D40
331
CBA
  5
CBA
331
DB6
  5
DB7
331
DF5
  5
DF7
331
E2C
  5
E2E
331
E6B
  5
E6D
331
DFD
  5
DFF
331
D87
  5
D88
331
CC2
  5
CC2
331
D48
  5
D48
331
DBE
  5
DBF
331
E34
  5
E36
331
E73
  5
E75
331
DC6
  5
DC7
331
E3C
  5
E3E
331
E83
  5
E85
331
1B1C
  5
1B1F
331
1D3F
  5
1D51
331
14EF
  5
1514
331
E8B
  5
E8D
331
1D57
  5
1D6D
331
1490
  5
14EF
331
16BE
  5
1767
331
C56
  5
C56
331
C5E
  5
C5E
331
C27
  5
C27
331
C66
  5
C66
331
C8B
  5
C8B
331
CCA
  5
CCA
331
D11
  5
D11
331
D50
  5
D51
331
C93
  5
C93
331
CD2
  5
CD2
331
D19
  5
D19
331
D58
  5
D59
331
D8F
  5
D90
331
DCE
  5
DCF
331
E05
  5
E07
331
E44
  5
E46
331
C2F
  5
C2F
331
C6E
  5
C6E
331
CDA
  5
CDA
331
C9B
  5
C9B
331
D21
  5
D21
331
D60
  5
D61
331
D97
  5
D98
331
DD6
  5
DD7
331
E0D
  5
E0F
331
E4C
  5
E4E
331
D9F
  5
DA0
331
DDE
  5
DDF
331
E54
  5
E56
331
CA3
  5
CA3
331
CEA
  5
CEA
331
D29
  5
D29
331
D68
  5
D69
331
DA7
  5
DA8
331
DE6
  5
DE8
331
E1D
  5
E1F
331
E5C
  5
E5E
  0
XRECORD
  5
3628
102
{ACAD_REACTORS
330
3627
102
}
330
3627
100
AcDbXrecord
340
35FF
  0
ACAD_PROXY_OBJECT
  5
811
102
{ACAD_XDICTIONARY
360
812
102
}
102
{ACAD_REACTORS
330
808
102
}
330
808
100
AcDbProxyObject
 90
      499
 91
      512
 93
     1340
310
42109E509B1BD8DAC02004014080404555555555555953FAA155555555555654FEA9AA400014080404555555555555953FAA155555555555654FEA9AA400000000000000E03F4080404555555555555953FAA155555555555654FEA9AA4014080404555555555555953FAA155555555555654FEA9AA4010201011555555555
310
55654FEA8555555555555953FAA6A9005020101155555555555654FEA8555555555555953FAA6A900B
 94
        0
1001
ACAD
1000
AcadProxyRoundTripData
1071
      504
1071
   851991
1070
     0
  0
ACAD_PROXY_OBJECT
  5
809
102
{ACAD_XDICTIONARY
360
80A
102
}
102
{ACAD_REACTORS
330
808
102
}
330
808
100
AcDbProxyObject
 90
      499
 91
      512
 93
     1340
310
42109E53185E595C802004014080404555555555555953FAA155555555555654FEA9AA400014080404555555555555953FAA155555555555654FEA9AA400000000000000E03F4080404555555555555953FAA155555555555654FEA9AA4014080404555555555555953FAA155555555555654FEA9AA4010201011555555555
310
55654FEA8555555555555953FAA6A9005020101155555555555654FEA8555555555555953FAA6A900B
 94
        0
1001
ACAD
1000
AcadProxyRoundTripData
1071
      504
1071
   851991
1070
     0
  0
ACAD_PROXY_OBJECT
  5
819
102
{ACAD_XDICTIONARY
360
81A
102
}
102
{ACAD_REACTORS
330
808
102
}
330
808
100
AcDbProxyObject
 90
      499
 91
      512
 93
     1332
310
41D1DB1BD8985B002004014080404555555555555953FAA155555555555654FEA9AA400014080404555555555555953FAA155555555555654FEA9AA400000000000000E03F4080404555555555555953FAA155555555555654FEA9AA4014080404555555555555953FAA155555555555654FEA9AA401020101155555555555
310
654FEA8555555555555953FAA6A9005020101155555555555654FEA8555555555555953FAA6A9000
 94
        0
1001
ACAD
1000
AcadProxyRoundTripData
1071
      504
1071
   851991
1070
     0
  0
ACAD_PROXY_OBJECT
  5
858
102
{ACAD_REACTORS
330
857
102
}
330
857
100
AcDbProxyObject
 90
      499
 91
      512
 93
      618
310
40901902A4063FBFFFFFE056BD1B81E855B9FC0AD7A3703D0AD73F4254DD185B99185C990000AD7A3703D0AC73F90141901A02B5E8DC0F42B1CFC02B5E8DC0F42B1CFE5764000000000000300FC6
340
6A
340
0
340
16
340
0
 94
        0
1001
ACAD_MLEADERVER
1070
     2
1001
ACAD
1000
AcadProxyRoundTripData
1071
      508
1071
   851991
1070
     0
  0
MLINESTYLE
  5
78
102
{ACAD_REACTORS
330
76
102
}
330
76
100
AcDbMlineStyle
  2
STANDARD
 70
     0
  3

 62
     0
 51
90.0
 52
90.0
 71
     2
 49
0.5
 62
   256
  6
BYLAYER
 49
-0.5
 62
   256
  6
BYLAYER
  0
ACDBPLACEHOLDER
  5
5
102
{ACAD_REACTORS
330
6
102
}
330
6
100
AcDbPlaceHolder
280
     0
  0
ACAD_PROXY_OBJECT
  5
836
102
{ACAD_REACTORS
330
835
102
}
330
835
100
AcDbProxyObject
 90
      499
 91
      512
 93
       49
310
904313A3100598
 94
        0
1001
ACAD
1000
AcadProxyRoundTripData
1071
      507
1071
   851991
1070
     0
  0
ACAD_PROXY_OBJECT
  5
837
102
{ACAD_REACTORS
330
835
102
}
330
835
100
AcDbProxyObject
 90
      499
 91
      512
 93
      113
310
904313A3200400000000000000406B
 94
        0
1001
ACAD
1000
AcadProxyRoundTripData
1071
      507
1071
   851991
1070
     0
  0
ACAD_PROXY_OBJECT
  5
838
102
{ACAD_REACTORS
330
835
102
}
330
835
100
AcDbProxyObject
 90
      499
 91
      512
 93
      113
310
904313A3400400000000000010406B
 94
        0
1001
ACAD
1000
AcadProxyRoundTripData
1071
      507
1071
   851991
1070
     0
  0
ACAD_PROXY_OBJECT
  5
839
102
{ACAD_REACTORS
330
835
102
}
330
835
100
AcDbProxyObject
 90
      499
 91
      512
 93
      113
310
904313A3500400000000000014406B
 94
        0
1001
ACAD
1000
AcadProxyRoundTripData
1071
      507
1071
   851991
1070
     0
  0
ACAD_PROXY_OBJECT
  5
83A
102
{ACAD_REACTORS
330
835
102
}
330
835
100
AcDbProxyObject
 90
      499
 91
      512
 93
      113
310
904313A3800400000000000020406B
 94
        0
1001
ACAD
1000
AcadProxyRoundTripData
1071
      507
1071
   851991
1070
     0
  0
ACAD_PROXY_OBJECT
  5
83B
102
{ACAD_REACTORS
330
835
102
}
330
835
100
AcDbProxyObject
 90
      499
 91
      512
 93
      121
310
905313A3130004000000000000244051
 94
        0
1001
ACAD
1000
AcadProxyRoundTripData
1071
      507
1071
   851991
1070
     0
  0
ACAD_PROXY_OBJECT
  5
83C
102
{ACAD_REACTORS
330
835
102
}
330
835
100
AcDbProxyObject
 90
      499
 91
      512
 93
      121
310
905313A3136004000000000000304051
 94
        0
1001
ACAD
1000
AcadProxyRoundTripData
1071
      507
1071
   851991
1070
     0
  0
ACAD_PROXY_OBJECT
  5
83D
102
{ACAD_REACTORS
330
835
102
}
330
835
100
AcDbProxyObject
 90
      499
 91
      512
 93
      121
310
905313A3230004000000000000344051
 94
        0
1001
ACAD
1000
AcadProxyRoundTripData
1071
      507
1071
   851991
1070
     0
  0
ACAD_PROXY_OBJECT
  5
83E
102
{ACAD_REACTORS
330
835
102
}
330
835
100
AcDbProxyObject
 90
      499
 91
      512
 93
      121
310
905313A33300040000000000003E4051
 94
        0
1001
ACAD
1000
AcadProxyRoundTripData
1071
      507
1071
   851991
1070
     0
  0
ACAD_PROXY_OBJECT
  5
83F
102
{ACAD_REACTORS
330
835
102
}
330
835
100
AcDbProxyObject
 90
      499
 91
      512
 93
      121
310
905313A3430004000000000000444051
 94
        0
1001
ACAD
1000
AcadProxyRoundTripData
1071
      507
1071
   851991
1070
     0
  0
ACAD_PROXY_OBJECT
  5
840
102
{ACAD_REACTORS
330
835
102
}
330
835
100
AcDbProxyObject
 90
      499
 91
      512
 93
      121
310
905313A3530004000000000000494051
 94
        0
1001
ACAD
1000
AcadProxyRoundTripData
1071
      507
1071
   851991
1070
     0
  0
ACAD_PROXY_OBJECT
  5
841
102
{ACAD_REACTORS
330
835
102
}
330
835
100
AcDbProxyObject
 90
      499
 91
      512
 93
      129
310
906313A313030004000000000000594038
 94
        0
1001
ACAD
1000
AcadProxyRoundTripData
1071
      507
1071
   851991
1070
     0
  0
ACAD_PROXY_OBJECT
  5
842
102
{ACAD_REACTORS
330
835
102
}
330
835
100
AcDbProxyObject
 90
      499
 91
      512
 93
      113
310
904323A31000000000000000010159
 94
        0
1001
ACAD
1000
AcadProxyRoundTripData
1071
      507
1071
   851991
1070
     0
  0
ACAD_PROXY_OBJECT
  5
843
102
{ACAD_REACTORS
330
835
102
}
330
835
100
AcDbProxyObject
 90
      499
 91
      512
 93
      113
310
904343A31000000000000000410159
 94
        0
1001
ACAD
1000
AcadProxyRoundTripData
1071
      507
1071
   851991
1070
     0
  0
ACAD_PROXY_OBJECT
  5
844
102
{ACAD_REACTORS
330
835
102
}
330
835
100
AcDbProxyObject
 90
      499
 91
      512
 93
      113
310
904383A31000000000000000810159
 94
        0
1001
ACAD
1000
AcadProxyRoundTripData
1071
      507
1071
   851991
1070
     0
  0
ACAD_PROXY_OBJECT
  5
845
102
{ACAD_REACTORS
330
835
102
}
330
835
100
AcDbProxyObject
 90
      499
 91
      512
 93
      121
310
90531303A31000000000000000910140
 94
        0
1001
ACAD
1000
AcadProxyRoundTripData
1071
      507
1071
   851991
1070
     0
  0
ACAD_PROXY_OBJECT
  5
846
102
{ACAD_REACTORS
330
835
102
}
330
835
100
AcDbProxyObject
 90
      499
 91
      512
 93
      129
310
9063130303A31000000000000001650138
 94
        0
1001
ACAD
1000
AcadProxyRoundTripData
1071
      507
1071
   851991
1070
     0
  0
ACAD_PROXY_OBJECT
  5
847
102
{ACAD_REACTORS
330
835
102
}
330
835
100
AcDbProxyObject
 90
      499
 91
      512
 93
      265
310
90F312F31323822203D2031272D302200000000000000200FC00000000000028402B
 94
        0
1001
ACAD
1000
AcadProxyRoundTripData
1071
      507
1071
   851991
1070
     0
  0
ACAD_PROXY_OBJECT
  5
848
102
{ACAD_REACTORS
330
835
102
}
330
835
100
AcDbProxyObject
 90
      499
 91
      512
 93
      257
310
90E312F363422203D2031272D302200000000000000240FC000000000000284040
 94
        0
1001
ACAD
1000
AcadProxyRoundTripData
1071
      507
1071
   851991
1070
     0
  0
ACAD_PROXY_OBJECT
  5
849
102
{ACAD_REACTORS
330
835
102
}
330
835
100
AcDbProxyObject
 90
      499
 91
      512
 93
      257
310
90E312F333222203D2031272D302200000000000000280FC000000000000284040
 94
        0
1001
ACAD
1000
AcadProxyRoundTripData
1071
      507
1071
   851991
1070
     0
  0
ACAD_PROXY_OBJECT
  5
84A
102
{ACAD_REACTORS
330
835
102
}
330
835
100
AcDbProxyObject
 90
      499
 91
      512
 93
      257
310
90E312F313622203D2031272D3022000000000000002C0FC000000000000284040
 94
        0
1001
ACAD
1000
AcadProxyRoundTripData
1071
      507
1071
   851991
1070
     0
  0
ACAD_PROXY_OBJECT
  5
84B
102
{ACAD_REACTORS
330
835
102
}
330
835
100
AcDbProxyObject
 90
      499
 91
      512
 93
      257
310
90E332F333222203D2031272D3022000000000000002E0FC000000000000284040
 94
        0
1001
ACAD
1000
AcadProxyRoundTripData
1071
      507
1071
   851991
1070
     0
  0
ACAD_PROXY_OBJECT
  5
84C
102
{ACAD_REACTORS
330
835
102
}
330
835
100
AcDbProxyObject
 90
      499
 91
      512
 93
      249
310
90D312F3822203D2031272D302200000000000000300FC000000000000284040
 94
        0
1001
ACAD
1000
AcadProxyRoundTripData
1071
      507
1071
   851991
1070
     0
  0
ACAD_PROXY_OBJECT
  5
84D
102
{ACAD_REACTORS
330
835
102
}
330
835
100
AcDbProxyObject
 90
      499
 91
      512
 93
      257
310
90E332F313622203D2031272D302200000000000000320FC000000000000284040
 94
        0
1001
ACAD
1000
AcadProxyRoundTripData
1071
      507
1071
   851991
1070
     0
  0
ACAD_PROXY_OBJECT
  5
84E
102
{ACAD_REACTORS
330
835
102
}
330
835
100
AcDbProxyObject
 90
      499
 91
      512
 93
      249
310
90D312F3422203D2031272D302200000000000000340FC000000000000284040
 94
        0
1001
ACAD
1000
AcadProxyRoundTripData
1071
      507
1071
   851991
1070
     0
  0
ACAD_PROXY_OBJECT
  5
84F
102
{ACAD_REACTORS
330
835
102
}
330
835
100
AcDbProxyObject
 90
      499
 91
      512
 93
      249
310
90D332F3822203D2031272D302200000000000000360FC000000000000284040
 94
        0
1001
ACAD
1000
AcadProxyRoundTripData
1071
      507
1071
   851991
1070
     0
  0
ACAD_PROXY_OBJECT
  5
850
102
{ACAD_REACTORS
330
835
102
}
330
835
100
AcDbProxyObject
 90
      499
 91
      512
 93
      249
310
90D312F3222203D2031272D302200000000000000380FC000000000000284040
 94
        0
1001
ACAD
1000
AcadProxyRoundTripData
1071
      507
1071
   851991
1070
     0
  0
ACAD_PROXY_OBJECT
  5
851
102
{ACAD_REACTORS
330
835
102
}
330
835
100
AcDbProxyObject
 90
      499
 91
      512
 93
      249
310
90D332F3422203D2031272D3022000000000000003A0FC000000000000284040
 94
        0
1001
ACAD
1000
AcadProxyRoundTripData
1071
      507
1071
   851991
1070
     0
  0
ACAD_PROXY_OBJECT
  5
852
102
{ACAD_REACTORS
330
835
102
}
330
835
100
AcDbProxyObject
 90
      499
 91
      512
 93
      169
310
90B3122203D2031272D3022004000000000000284020
 94
        0
1001
ACAD
1000
AcadProxyRoundTripData
1071
      507
1071
   851991
1070
     0
  0
ACAD_PROXY_OBJECT
  5
853
102
{ACAD_REACTORS
330
835
102
}
330
835
100
AcDbProxyObject
 90
      499
 91
      512
 93
      265
310
90F312D312F3222203D2031272D3022000000000000003E0FC00000000000028402B
 94
        0
1001
ACAD
1000
AcadProxyRoundTripData
1071
      507
1071
   851991
1070
     0
  0
ACAD_PROXY_OBJECT
  5
854
102
{ACAD_REACTORS
330
835
102
}
330
835
100
AcDbProxyObject
 90
      499
 91
      512
 93
      233
310
90B3322203D2031272D30220000000000000002100000000000000284000
 94
        0
1001
ACAD
1000
AcadProxyRoundTripData
1071
      507
1071
   851991
1070
     0
  0
ACAD_PROXY_OBJECT
  5
855
102
{ACAD_REACTORS
330
835
102
}
330
835
100
AcDbProxyObject
 90
      499
 91
      512
 93
      233
310
90B3622203D2031272D30220000000000000006100000000000000284000
 94
        0
1001
ACAD
1000
AcadProxyRoundTripData
1071
      507
1071
   851991
1070
     0
  0
ACAD_PROXY_OBJECT
  5
856
102
{ACAD_REACTORS
330
835
102
}
330
835
100
AcDbProxyObject
 90
      499
 91
      512
 93
      257
310
90E31272D3022203D2031272D3022000000000000000A100000000000000284040
 94
        0
1001
ACAD
1000
AcadProxyRoundTripData
1071
      507
1071
   851991
1070
     0
  0
ACAD_PROXY_OBJECT
  5
834
102
{ACAD_XDICTIONARY
360
88C
102
}
102
{ACAD_REACTORS
330
833
102
}
330
833
100
AcDbProxyObject
 90
      499
 91
      512
 93
     1849
310
4254DD185B99185C990028B81E85EB51B8AE3F2E07A17AD46E2B8FC02B5E8DC0F42B1CFD028000000C1008070000C3001FDFF8000000C1003FBFF000000182007F7FE00000030400FEFFC00000060801FDFF8000000C1003FBFF00000018200000000000000681FA0B0000001820100E000186003FBFF000000182007F7FE0
310
0000030400FEFFC00000060801FDFF8000000C1003FBFF000000182007F7FE000000304000AD7A3703D0AC73F4160000003040201C00030C007F7FE00000030400FEFFC00000060801FDFF8000000C1003FBFF000000182007F7FE00000030400FEFFC000000608014
340
16
340
16
340
16
 94
        0
1001
ACAD
1000
AcadProxyRoundTripData
1071
      506
1071
   851991
1070
     0
  0
ACAD_PROXY_OBJECT
  5
827
102
{ACAD_REACTORS
330
821
102
}
330
821
100
AcDbProxyObject
 90
      499
 91
      512
 93
      444
310
430C9915DA5C99599C985B59401049028333333333333E3BF0000000000000FB0107901411070040501600405405064090741402480A0340
 94
        0
1001
ACAD
1000
AcDbSavedByObjectVersion
1070
     0
1000
AcadProxyRoundTripData
1071
      505
1071
   851991
1070
     0
  0
ACAD_PROXY_OBJECT
  5
829
102
{ACAD_REACTORS
330
821
102
}
330
821
100
AcDbProxyObject
 90
      499
 91
      512
 93
      508
310
428CD108121A5919195B8010640502408333333333333E3BF0000000000000FB01079024090700405020000000000001110200405405064090740C02480A0340
 94
        0
1001
ACAD
1000
AcDbSavedByObjectVersion
1070
     0
1000
AcadProxyRoundTripData
1071
      505
1071
   851991
1070
     0
  0
ACAD_PROXY_OBJECT
  5
828
102
{ACAD_REACTORS
330
821
102
}
330
821
100
AcDbProxyObject
 90
      499
 91
      512
 93
      444
310
430CD915DA5C99599C985B59401059028333333333333E3BF0000000000000FB0107901411070040501600405405064090741402480A0340
 94
        0
1001
ACAD
1000
AcDbSavedByObjectVersion
1070
     0
1000
AcadProxyRoundTripData
1071
      505
1071
   851991
1070
     0
  0
ACAD_PROXY_OBJECT
  5
826
102
{ACAD_REACTORS
330
821
102
}
330
821
100
AcDbProxyObject
 90
      499
 91
      512
 93
      396
310
4190985CDA58C0107406404333333333333E3BF0000000000000FB0107A41107004050150841D405064090741402480A0356
 94
        0
1001
ACAD
1000
AcDbSavedByObjectVersion
1070
     0
1000
AcadProxyRoundTripData
1071
      505
1071
   851991
1070
     0
  0
ACAD_PROXY_OBJECT
  5
82D
102
{ACAD_REACTORS
330
821
102
}
330
821
100
AcDbProxyObject
 90
      499
 91
      512
 93
      436
310
42509C9A59DA1D195B8010C409028333333333333E3BF0000000000000FB010790141107004050150841D405064090741402480A029956
 94
        0
1001
ACAD
1000
AcDbSavedByObjectVersion
1070
     0
1000
AcadProxyRoundTripData
1071
      505
1071
   851991
1070
     0
  0
ACAD_PROXY_OBJECT
  5
831
102
{ACAD_REACTORS
330
821
102
}
330
821
100
AcDbProxyObject
 90
      499
 91
      512
 93
      460
310
4310DBDB1BDC90DA185B99D9401104090240C333333333333E3BF0000000000000FB0108901411070040501508421405064090741402480A0354
 94
        0
1001
ACAD
1000
AcDbSavedByObjectVersion
1070
     0
1000
AcadProxyRoundTripData
1071
      505
1071
   851991
1070
     0
  0
ACAD_PROXY_OBJECT
  5
82A
102
{ACAD_REACTORS
330
821
102
}
330
821
100
AcDbProxyObject
 90
      499
 91
      512
 93
      508
310
42D0DBDB98D95C1D1D585B0010940D028333333333333E3BF0000000000000FB0107902409070040501000000000000111010841D405064090740C02480A0340
 94
        0
1001
ACAD
1000
AcDbSavedByObjectVersion
1070
     0
1000
AcadProxyRoundTripData
1071
      505
1071
   851991
1070
     0
  0
ACAD_PROXY_OBJECT
  5
82C
102
{ACAD_REACTORS
330
821
102
}
330
821
100
AcDbProxyObject
 90
      499
 91
      512
 93
      420
310
41111A5B4010B409028333333333333E3BF0000000000000FB010790141107004050150841D405064090741402480A02677FFFFFDB
 94
        0
1001
ACAD
1000
AcDbSavedByObjectVersion
1070
     0
1000
AcadProxyRoundTripData
1071
      505
1071
   851991
1070
     0
  0
ACAD_PROXY_OBJECT
  5
830
102
{ACAD_REACTORS
330
821
102
}
330
821
100
AcDbProxyObject
 90
      499
 91
      512
 93
      452
310
43119858D95C185D1D195C9B8010F409028333333333333E3BF0000000000000FB010790141107004050150841D405064090741402480A0350
 94
        0
1001
ACAD
1000
AcDbSavedByObjectVersion
1070
     0
1000
AcadProxyRoundTripData
1071
      505
1071
   851991
1070
     0
  0
ACAD_PROXY_OBJECT
  5
822
102
{ACAD_REACTORS
330
821
102
}
330
821
100
AcDbProxyObject
 90
      499
 91
      512
 93
      396
310
41519B185D00240901404333333333333E3BF0000000000000F9010740A41107004050150841D405064090741402480A1B55
 94
        0
1001
ACAD
1000
AcDbSavedByObjectVersion
1070
     0
1000
AcadProxyRoundTripData
1071
      505
1071
   851991
1070
     0
  0
ACAD_PROXY_OBJECT
  5
823
102
{ACAD_REACTORS
330
821
102
}
330
821
100
AcDbProxyObject
 90
      499
 91
      512
 93
      484
310
43919B185D15DA5D1A115919D95CC010140901404333333333333E3BF0000000000000F9010740901411070040501600405405064090741402480A1B50
 94
        0
1001
ACAD
1000
AcDbSavedByObjectVersion
1070
     0
1000
AcadProxyRoundTripData
1071
      505
1071
   851991
1070
     0
  0
ACAD_PROXY_OBJECT
  5
824
102
{ACAD_REACTORS
330
821
102
}
330
821
100
AcDbProxyObject
 90
      499
 91
      512
 93
      420
310
4211DBDD5C985D590010240902404333333333333E3BF0000000000000F9010740A411070040501641D405064090741402480A1B50
 94
        0
1001
ACAD
1000
AcDbSavedByObjectVersion
1070
     0
1000
AcadProxyRoundTripData
1071
      505
1071
   851991
1070
     0
  0
ACAD_PROXY_OBJECT
  5
825
102
{ACAD_REACTORS
330
821
102
}
330
821
100
AcDbProxyObject
 90
      499
 91
      512
 93
      508
310
4451DBDD5C985D5915DA5D1A115919D95CC010340902404333333333333E3BF0000000000000F9010740901411070040501600405405064090741402480A1B50
 94
        0
1001
ACAD
1000
AcDbSavedByObjectVersion
1070
     0
1000
AcadProxyRoundTripData
1071
      505
1071
   851991
1070
     0
  0
ACAD_PROXY_OBJECT
  5
82F
102
{ACAD_REACTORS
330
821
102
}
330
821
100
AcDbProxyObject
 90
      499
 91
      512
 93
      452
310
43131A5B995C185D1D195C9B8010E409028333333333333E3BF0000000000000FB010790141107004050750841D405064090741402483A0350
 94
        0
1001
ACAD
1000
AcDbSavedByObjectVersion
1070
     0
1000
AcadProxyRoundTripData
1071
      505
1071
   851991
1070
     0
  0
ACAD_PROXY_OBJECT
  5
82B
102
{ACAD_REACTORS
330
821
102
}
330
821
100
AcDbProxyObject
 90
      499
 91
      512
 93
      428
310
429499585B1A5CDD1A58C0108409028333333333333E3BF0000000000000FB01079019070040501508421405064090741402480A1B45
 94
        0
1001
ACAD
1000
AcDbSavedByObjectVersion
1070
     0
1000
AcadProxyRoundTripData
1071
      505
1071
   851991
1070
     0
  0
ACAD_PROXY_OBJECT
  5
82E
102
{ACAD_REACTORS
330
821
102
}
330
821
100
AcDbProxyObject
 90
      499
 91
      512
 93
      420
310
42151A1A58DAD95B8010D409028333333333333E3BF0000000000000FB010790141107004050150C41D405064090741402480A0352
 94
        0
1001
ACAD
1000
AcDbSavedByObjectVersion
1070
     0
1000
AcadProxyRoundTripData
1071
      505
1071
   851991
1070
     0
  0
XRECORD
  5
360F
102
{ACAD_REACTORS
330
3605
102
}
330
3605
100
AcDbXrecord
 90
        0
  0
XRECORD
  5
3613
102
{ACAD_REACTORS
330
3605
102
}
330
3605
100
AcDbXrecord
1000
DSTYLE
1002
{
1070
   179
 70
     2
1070
   277
 70
     6
1002
}
  0
XRECORD
  5
3610
102
{ACAD_REACTORS
330
3605
102
}
330
3605
100
AcDbXrecord
  1
{F8E7DCD7-EF2B-4E83-868E-1BB3A7734B1D}
  0
XRECORD
  5
3608
102
{ACAD_REACTORS
330
3605
102
}
330
3605
100
AcDbXrecord
  1

  0
XRECORD
  5
360E
102
{ACAD_REACTORS
330
3605
102
}
330
3605
100
AcDbXrecord
 90
        0
  0
XRECORD
  5
360A
102
{ACAD_REACTORS
330
3605
102
}
330
3605
100
AcDbXrecord
340
61
  0
XRECORD
  5
360D
102
{ACAD_REACTORS
330
3605
102
}
330
3605
100
AcDbXrecord
 90
    10781
  0
XRECORD
  5
360B
102
{ACAD_REACTORS
330
3605
102
}
330
3605
100
AcDbXrecord
340
77
  0
XRECORD
  5
360C
102
{ACAD_REACTORS
330
3605
102
}
330
3605
100
AcDbXrecord
340
6
  0
XRECORD
  5
3612
102
{ACAD_REACTORS
330
3605
102
}
330
3605
100
AcDbXrecord
 40
0.0
  0
XRECORD
  5
3616
102
{ACAD_REACTORS
330
3605
102
}
330
3605
100
AcDbXrecord
340
0
  0
XRECORD
  5
361C
102
{ACAD_REACTORS
330
3605
102
}
330
3605
100
AcDbXrecord
 10
0.0
 20
0.0
 30
0.0
  0
XRECORD
  5
3618
102
{ACAD_REACTORS
330
3605
102
}
330
3605
100
AcDbXrecord
 10
0.0
 20
0.0
 30
0.0
  0
XRECORD
  5
361B
102
{ACAD_REACTORS
330
3605
102
}
330
3605
100
AcDbXrecord
 10
0.0
 20
0.0
 30
0.0
  0
XRECORD
  5
3619
102
{ACAD_REACTORS
330
3605
102
}
330
3605
100
AcDbXrecord
 10
0.0
 20
0.0
 30
0.0
  0
XRECORD
  5
361A
102
{ACAD_REACTORS
330
3605
102
}
330
3605
100
AcDbXrecord
 10
0.0
 20
0.0
 30
0.0
  0
XRECORD
  5
3617
102
{ACAD_REACTORS
330
3605
102
}
330
3605
100
AcDbXrecord
 10
0.0
 20
0.0
 30
0.0
  0
XRECORD
  5
3614
102
{ACAD_REACTORS
330
3605
102
}
330
3605
100
AcDbXrecord
340
0
  0
XRECORD
  5
3615
102
{ACAD_REACTORS
330
3605
102
}
330
3605
100
AcDbXrecord
 70
     0
  0
XRECORD
  5
3609
102
{ACAD_REACTORS
330
3605
102
}
330
3605
100
AcDbXrecord
  1
Sekkei.ctb
  0
XRECORD
  5
3606
102
{ACAD_REACTORS
330
3605
102
}
330
3605
100
AcDbXrecord
 90
        1
  0
XRECORD
  5
3607
102
{ACAD_REACTORS
330
3605
102
}
330
3605
100
AcDbXrecord
 90
       70
  0
XRECORD
  5
361F
102
{ACAD_REACTORS
330
3605
102
}
330
3605
100
AcDbXrecord
340
0
  0
XRECORD
  5
3625
102
{ACAD_REACTORS
330
3605
102
}
330
3605
100
AcDbXrecord
 10
0.0
 20
0.0
 30
0.0
  0
XRECORD
  5
3621
102
{ACAD_REACTORS
330
3605
102
}
330
3605
100
AcDbXrecord
 10
0.0
 20
0.0
 30
0.0
  0
XRECORD
  5
3624
102
{ACAD_REACTORS
330
3605
102
}
330
3605
100
AcDbXrecord
 10
0.0
 20
0.0
 30
0.0
  0
XRECORD
  5
3622
102
{ACAD_REACTORS
330
3605
102
}
330
3605
100
AcDbXrecord
 10
0.0
 20
0.0
 30
0.0
  0
XRECORD
  5
3623
102
{ACAD_REACTORS
330
3605
102
}
330
3605
100
AcDbXrecord
 10
0.0
 20
0.0
 30
0.0
  0
XRECORD
  5
3620
102
{ACAD_REACTORS
330
3605
102
}
330
3605
100
AcDbXrecord
 10
0.0
 20
0.0
 30
0.0
  0
XRECORD
  5
361D
102
{ACAD_REACTORS
330
3605
102
}
330
3605
100
AcDbXrecord
340
0
  0
XRECORD
  5
361E
102
{ACAD_REACTORS
330
3605
102
}
330
3605
100
AcDbXrecord
 70
     0
  0
XRECORD
  5
3611
102
{ACAD_REACTORS
330
3605
102
}
330
3605
100
AcDbXrecord
  1
{2CDF4603-4953-4F60-95DC-32CC8F6BB901}
  0
DICTIONARYVAR
  5
892
102
{ACAD_REACTORS
330
102
102
}
330
102
100
DictionaryVariables
280
     0
  1
1:1
  0
DICTIONARYVAR
  5
890
102
{ACAD_REACTORS
330
102
102
}
330
102
100
DictionaryVariables
280
     0
  1
STANDARD
  0
DICTIONARYVAR
  5
88F
102
{ACAD_REACTORS
330
102
102
}
330
102
100
DictionaryVariables
280
     0
  1
STANDARD
  0
DICTIONARYVAR
  5
103
102
{ACAD_REACTORS
330
102
102
}
330
102
100
DictionaryVariables
280
     0
  1
1
  0
DICTIONARYVAR
  5
1BBB
102
{ACAD_REACTORS
330
102
102
}
330
102
100
DictionaryVariables
280
     0
  1
0
  0
DICTIONARYVAR
  5
893
102
{ACAD_REACTORS
330
102
102
}
330
102
100
DictionaryVariables
280
     0
  1
0
  0
DICTIONARYVAR
  5
891
102
{ACAD_REACTORS
330
102
102
}
330
102
100
DictionaryVariables
280
     0
  1
0
  0
DICTIONARYVAR
  5
549
102
{ACAD_REACTORS
330
102
102
}
330
102
100
DictionaryVariables
280
     0
  1
96
  0
DICTIONARY
  5
812
330
811
100
AcDbDictionary
280
     1
  3
ACAD_XREC_ROUNDTRIP
360
35E3
  3
BUMPTILE
360
814
  3
DIFFUSETILE
360
813
  3
OPACITYTILE
360
817
  3
REFLECTIONTILE
360
816
  3
REFRACTIONTILE
360
818
  3
SPECULARTILE
360
815
  0
DICTIONARY
  5
80A
330
809
100
AcDbDictionary
280
     1
  3
ACAD_XREC_ROUNDTRIP
360
35E2
  3
BUMPTILE
360
80C
  3
DIFFUSETILE
360
80B
  3
OPACITYTILE
360
80F
  3
REFLECTIONTILE
360
80E
  3
REFRACTIONTILE
360
810
  3
SPECULARTILE
360
80D
  0
DICTIONARY
  5
81A
330
819
100
AcDbDictionary
280
     1
  3
ACAD_XREC_ROUNDTRIP
360
35E4
  3
BUMPTILE
360
81C
  3
DIFFUSETILE
360
81B
  3
OPACITYTILE
360
81F
  3
REFLECTIONTILE
360
81E
  3
REFRACTIONTILE
360
820
  3
SPECULARTILE
360
81D
  0
DICTIONARY
  5
88C
330
834
100
AcDbDictionary
280
     1
  3
ACAD_ROUNDTRIP_2008_TABLES
360
35DA
  3
ACAD_XREC_ROUNDTRIP
360
35E5
  0
XRECORD
  5
35E3
102
{ACAD_REACTORS
330
812
102
}
330
812
100
AcDbXrecord
102
MATERIAL
148
0.0
149
0.0
149
0.0
 93
        0
 94
      127
282
     0
 72
     0
 77
     0
171
     0
175
     0
179
     0
273
     0
  0
XRECORD
  5
814
102
{ACAD_REACTORS
330
812
102
}
330
812
100
AcDbXrecord
270
     1
271
     1
  0
XRECORD
  5
813
102
{ACAD_REACTORS
330
812
102
}
330
812
100
AcDbXrecord
270
     1
271
     1
  0
XRECORD
  5
817
102
{ACAD_REACTORS
330
812
102
}
330
812
100
AcDbXrecord
270
     1
271
     1
  0
XRECORD
  5
816
102
{ACAD_REACTORS
330
812
102
}
330
812
100
AcDbXrecord
270
     1
271
     1
  0
XRECORD
  5
818
102
{ACAD_REACTORS
330
812
102
}
330
812
100
AcDbXrecord
270
     1
271
     1
  0
XRECORD
  5
815
102
{ACAD_REACTORS
330
812
102
}
330
812
100
AcDbXrecord
270
     1
271
     1
  0
XRECORD
  5
35E2
102
{ACAD_REACTORS
330
80A
102
}
330
80A
100
AcDbXrecord
102
MATERIAL
148
0.0
149
0.0
149
0.0
 93
        0
 94
      127
282
     0
 72
     0
 77
     0
171
     0
175
     0
179
     0
273
     0
  0
XRECORD
  5
80C
102
{ACAD_REACTORS
330
80A
102
}
330
80A
100
AcDbXrecord
270
     1
271
     1
  0
XRECORD
  5
80B
102
{ACAD_REACTORS
330
80A
102
}
330
80A
100
AcDbXrecord
270
     1
271
     1
  0
XRECORD
  5
80F
102
{ACAD_REACTORS
330
80A
102
}
330
80A
100
AcDbXrecord
270
     1
271
     1
  0
XRECORD
  5
80E
102
{ACAD_REACTORS
330
80A
102
}
330
80A
100
AcDbXrecord
270
     1
271
     1
  0
XRECORD
  5
810
102
{ACAD_REACTORS
330
80A
102
}
330
80A
100
AcDbXrecord
270
     1
271
     1
  0
XRECORD
  5
80D
102
{ACAD_REACTORS
330
80A
102
}
330
80A
100
AcDbXrecord
270
     1
271
     1
  0
XRECORD
  5
35E4
102
{ACAD_REACTORS
330
81A
102
}
330
81A
100
AcDbXrecord
102
MATERIAL
148
0.0
149
0.0
149
0.0
 93
        0
 94
      127
282
     0
 72
     0
 77
     0
171
     0
175
     0
179
     0
273
     0
  0
XRECORD
  5
81C
102
{ACAD_REACTORS
330
81A
102
}
330
81A
100
AcDbXrecord
270
     1
271
     1
  0
XRECORD
  5
81B
102
{ACAD_REACTORS
330
81A
102
}
330
81A
100
AcDbXrecord
270
     1
271
     1
  0
XRECORD
  5
81F
102
{ACAD_REACTORS
330
81A
102
}
330
81A
100
AcDbXrecord
270
     1
271
     1
  0
XRECORD
  5
81E
102
{ACAD_REACTORS
330
81A
102
}
330
81A
100
AcDbXrecord
270
     1
271
     1
  0
XRECORD
  5
820
102
{ACAD_REACTORS
330
81A
102
}
330
81A
100
AcDbXrecord
270
     1
271
     1
  0
XRECORD
  5
81D
102
{ACAD_REACTORS
330
81A
102
}
330
81A
100
AcDbXrecord
270
     1
271
     1
  0
ACAD_PROXY_OBJECT
  5
35DA
102
{ACAD_REACTORS
330
88C
102
}
330
88C
100
AcDbProxyObject
 90
      499
 91
      512
 93
     1044
310
40D054060020000020000003200101A000080002A5058000000C100000000000000340FE901405075F5449544C450041501A8000000C800406800020000A9416000000304000AD7A3703D0AC73FA409014217D2115051115480105406A0000003200101A000080002A5028000000C10002B5E8DC0F42B1CFE903409065F444
310
15441003
340
16
340
16
340
16
 94
        0
1001
ACAD
1000
AcadProxyRoundTripData
1071
      510
1071
   851991
1070
     0
  0
XRECORD
  5
35E5
102
{ACAD_REACTORS
330
88C
102
}
330
88C
100
AcDbXrecord
102
ACAD_ROUNDTRIP_PRE2007_TABLESTYLE
 90
      512
 91
        0
  1

 92
      512
 93
        0
  2

 94
      512
 95
        0
  3

  0
ENDSEC
  0
EOF
