  0
SECTION
  2
HEADER
  9
$ACADVER
  1
AC1014
  9
$ACADMAINTVER
 70
     9
  9
$DWGCODEPAGE
  3
ANSI_932
  9
$INSBASE
 10
0.0
 20
0.0
 30
0.0
  9
$EXTMIN
 10
-57.97616526139677
 20
280.0678655566772
 30
0.0
  9
$EXTMAX
 10
1375.437457023438
 20
894.154232939975
 30
0.0
  9
$LIMMIN
 10
0.0
 20
0.0
  9
$LIMMAX
 10
297.0
 20
210.0
  9
$ORTHOMODE
 70
     0
  9
$REGENMODE
 70
     1
  9
$FILLMODE
 70
     1
  9
$QTEXTMODE
 70
     0
  9
$MIRRTEXT
 70
     0
  9
$DRAGMODE
 70
     2
  9
$LTSCALE
 40
4.0
  9
$OSMODE
 70
    37
  9
$ATTMODE
 70
     1
  9
$TEXTSIZE
 40
2.0
  9
$TRACEWID
 40
1.0
  9
$TEXTSTYLE
  7
STANDARD
  9
$CLAYER
  8
0
  9
$CELTYPE
  6
BYLAYER
  9
$CECOLOR
 62
   256
  9
$CELTSCALE
 40
1.0
  9
$DELOBJ
 70
     1
  9
$DISPSILH
 70
     0
  9
$DIMSCALE
 40
4.0
  9
$DIMASZ
 40
1.8
  9
$DIMEXO
 40
0.625
  9
$DIMDLI
 40
3.75
  9
$DIMRND
 40
0.0
  9
$DIMDLE
 40
0.0
  9
$DIMEXE
 40
0.8
  9
$DIMTP
 40
0.0
  9
$DIMTM
 40
0.0
  9
$DIMTXT
 40
1.8
  9
$DIMCEN
 40
2.5
  9
$DIMTSZ
 40
0.0
  9
$DIMTOL
 70
     0
  9
$DIMLIM
 70
     0
  9
$DIMTIH
 70
     0
  9
$DIMTOH
 70
     0
  9
$DIMSE1
 70
     0
  9
$DIMSE2
 70
     0
  9
$DIMTAD
 70
     1
  9
$DIMZIN
 70
     8
  9
$DIMBLK
  1

  9
$DIMASO
 70
     1
  9
$DIMSHO
 70
     1
  9
$DIMPOST
  1

  9
$DIMAPOST
  1

  9
$DIMALT
 70
     0
  9
$DIMALTD
 70
     4
  9
$DIMALTF
 40
0.0394
  9
$DIMLFAC
 40
1.0
  9
$DIMTOFL
 70
     1
  9
$DIMTVP
 40
0.0
  9
$DIMTIX
 70
     0
  9
$DIMSOXD
 70
     0
  9
$DIMSAH
 70
     0
  9
$DIMBLK1
  1

  9
$DIMBLK2
  1

  9
$DIMSTYLE
  2
STANDARD
  9
$DIMCLRD
 70
     0
  9
$DIMCLRE
 70
     0
  9
$DIMCLRT
 70
     0
  9
$DIMTFAC
 40
1.0
  9
$DIMGAP
 40
0.75
  9
$DIMJUST
 70
     0
  9
$DIMSD1
 70
     0
  9
$DIMSD2
 70
     0
  9
$DIMTOLJ
 70
     1
  9
$DIMTZIN
 70
     0
  9
$DIMALTZ
 70
     0
  9
$DIMALTTZ
 70
     0
  9
$DIMFIT
 70
     3
  9
$DIMUPT
 70
     0
  9
$DIMUNIT
 70
     8
  9
$DIMDEC
 70
     2
  9
$DIMTDEC
 70
     2
  9
$DIMALTU
 70
     8
  9
$DIMALTTD
 70
     4
  9
$DIMTXSTY
  7
STANDARD
  9
$DIMAUNIT
 70
     0
  9
$LUNITS
 70
     2
  9
$LUPREC
 70
     3
  9
$SKETCHINC
 40
1.0
  9
$FILLETRAD
 40
10.0
  9
$AUNITS
 70
     0
  9
$AUPREC
 70
     2
  9
$MENU
  1
.
  9
$ELEVATION
 40
0.0
  9
$PELEVATION
 40
0.0
  9
$THICKNESS
 40
0.0
  9
$LIMCHECK
 70
     0
  9
$BLIPMODE
 70
     0
  9
$CHAMFERA
 40
0.0
  9
$CHAMFERB
 40
0.0
  9
$CHAMFERC
 40
20.0
  9
$CHAMFERD
 40
0.0
  9
$SKPOLY
 70
     0
  9
$TDCREATE
 40
2454889.454828194
  9
$TDUPDATE
 40
2454909.829323842
  9
$TDINDWG
 40
0.2035516435
  9
$TDUSRTIMER
 40
0.2035514583
  9
$USRTIMER
 70
     1
  9
$ANGBASE
 50
0.0
  9
$ANGDIR
 70
     0
  9
$PDMODE
 70
     0
  9
$PDSIZE
 40
-10.0
  9
$PLINEWID
 40
0.0
  9
$COORDS
 70
     1
  9
$SPLFRAME
 70
     0
  9
$SPLINETYPE
 70
     6
  9
$SPLINESEGS
 70
     8
  9
$ATTDIA
 70
     0
  9
$ATTREQ
 70
     1
  9
$HANDLING
 70
 22529
  9
$HANDSEED
  5
444C
  9
$SURFTAB1
 70
     6
  9
$SURFTAB2
 70
     6
  9
$SURFTYPE
 70
     6
  9
$SURFU
 70
     6
  9
$SURFV
 70
     6
  9
$UCSNAME
  2

  9
$UCSORG
 10
0.0
 20
0.0
 30
0.0
  9
$UCSXDIR
 10
1.0
 20
0.0
 30
0.0
  9
$UCSYDIR
 10
0.0
 20
1.0
 30
0.0
  9
$PUCSNAME
  2

  9
$PUCSORG
 10
0.0
 20
0.0
 30
0.0
  9
$PUCSXDIR
 10
1.0
 20
0.0
 30
0.0
  9
$PUCSYDIR
 10
0.0
 20
1.0
 30
0.0
  9
$USERI1
 70
     0
  9
$USERI2
 70
     0
  9
$USERI3
 70
     0
  9
$USERI4
 70
     0
  9
$USERI5
 70
     0
  9
$USERR1
 40
0.0
  9
$USERR2
 40
0.0
  9
$USERR3
 40
0.0
  9
$USERR4
 40
0.0
  9
$USERR5
 40
0.0
  9
$WORLDVIEW
 70
     1
  9
$SHADEDGE
 70
     3
  9
$SHADEDIF
 70
    70
  9
$TILEMODE
 70
     1
  9
$MAXACTVP
 70
    48
  9
$PINSBASE
 10
0.0
 20
0.0
 30
0.0
  9
$PLIMCHECK
 70
     0
  9
$PEXTMIN
 10
0.0
 20
0.0
 30
0.0
  9
$PEXTMAX
 10
0.0
 20
0.0
 30
0.0
  9
$PLIMMIN
 10
0.0
 20
0.0
  9
$PLIMMAX
 10
12.0
 20
9.0
  9
$UNITMODE
 70
     0
  9
$VISRETAIN
 70
     1
  9
$PLINEGEN
 70
     0
  9
$PSLTSCALE
 70
     1
  9
$TREEDEPTH
 70
  3020
  9
$PICKSTYLE
 70
     1
  9
$CMLSTYLE
  2
STANDARD
  9
$CMLJUST
 70
     0
  9
$CMLSCALE
 40
1.0
  9
$PROXYGRAPHICS
 70
     1
  9
$MEASUREMENT
 70
     0
  0
ENDSEC
  0
SECTION
  2
CLASSES
  0
CLASS
  1
DICTIONARYVAR
  2
AcDbDictionaryVar
  3
AutoCAD 2000
 90
        0
280
     0
281
     0
  0
CLASS
  1
ACDBDICTIONARYWDFLT
  2
AcDbDictionaryWithDefault
  3
AutoCAD 2000
 90
        0
280
     0
281
     0
  0
CLASS
  1
ACDBPLACEHOLDER
  2
AcDbPlaceHolder
  3
AutoCAD 2000
 90
        0
280
     0
281
     0
  0
CLASS
  1
LAYOUT
  2
AcDbLayout
  3
AutoCAD 2000
 90
        0
280
     0
281
     0
  0
CLASS
  1
MATERIAL
  2
AcDbMaterial
  3
ObjectDBX Classes
 90
     1153
280
     0
281
     0
  0
CLASS
  1
VISUALSTYLE
  2
AcDbVisualStyle
  3
ObjectDBX Classes
 90
     4095
280
     0
281
     0
  0
CLASS
  1
TABLESTYLE
  2
AcDbTableStyle
  3
ObjectDBX Classes
 90
     4095
280
     0
281
     0
  0
CLASS
  1
SCALE
  2
AcDbScale
  3
ObjectDBX Classes
 90
     1153
280
     0
281
     0
  0
CLASS
  1
MLEADERSTYLE
  2
AcDbMLeaderStyle
  3
ACDB_MLEADERSTYLE_CLASS
 90
     4095
280
     0
281
     0
  0
CLASS
  1
PLOTSETTINGS
  2
AcDbPlotSettings
  3
AutoCAD 2000
 90
        0
280
     0
281
     0
  0
CLASS
  1
CELLSTYLEMAP
  2
AcDbCellStyleMap
  3
ObjectDBX Classes
 90
     1152
280
     0
281
     0
  0
CLASS
  1
SORTENTSTABLE
  2
AcDbSortentsTable
  3
AutoCAD 2000
 90
        0
280
     0
281
     0
  0
CLASS
  1
ACAD_PROXY_OBJECT_WRAPPER
  2
AcDbProxyObjectWrapper
  3
AutoCAD 2000
 90
        0
280
     0
281
     0
  0
CLASS
  1
LONG_TRANSACTION
  2
AcDbLongTransaction
  3
AutoCAD 2000
 90
        0
280
     0
281
     0
  0
CLASS
  1
LWPOLYLINE
  2
AcDbPolyline
  3
AutoCAD 2000
 90
        0
280
     0
281
     1
  0
CLASS
  1
HATCH
  2
AcDbHatch
  3
AutoCAD 2000
 90
        0
280
     0
281
     1
  0
CLASS
  1
XRECORD
  2
AcDbXrecord
  3
AutoCAD 2000
 90
        0
280
     0
281
     0
  0
ENDSEC
  0
SECTION
  2
TABLES
  0
TABLE
  2
VPORT
  5
6E
102
{ACAD_XDICTIONARY
360
1BAE
102
}
330
0
100
AcDbSymbolTable
 70
     2
  0
VPORT
  5
4427
330
6E
100
AcDbSymbolTableRecord
100
AcDbViewportTableRecord
  2
*ACTIVE
 70
     0
 10
0.0
 20
0.0
 11
1.0
 21
1.0
 12
721.2307325031911
 22
571.6783078498052
 13
0.0
 23
0.0
 14
10.0
 24
10.0
 15
10.0
 25
10.0
 16
0.0
 26
0.0
 36
1.0
 17
0.0
 27
0.0
 37
0.0
 40
981.8561470861549
 41
1.593429158110883
 42
50.0
 43
0.0
 44
0.0
 50
0.0
 51
0.0
 71
     0
 72
   100
 73
     1
 74
     3
 75
     0
 76
     0
 77
     0
 78
     0
  0
ENDTAB
  0
TABLE
  2
LTYPE
  5
69
330
0
100
AcDbSymbolTable
 70
     7
  0
LTYPE
  5
6A
330
69
100
AcDbSymbolTableRecord
100
AcDbLinetypeTableRecord
  2
BYBLOCK
 70
     0
  3

 72
    65
 73
     0
 40
0.0
  0
LTYPE
  5
6B
330
69
100
AcDbSymbolTableRecord
100
AcDbLinetypeTableRecord
  2
BYLAYER
 70
     0
  3

 72
    65
 73
     0
 40
0.0
  0
LTYPE
  5
8
330
69
100
AcDbSymbolTableRecord
100
AcDbLinetypeTableRecord
  2
CONTINUOUS
 70
     0
  3
Solid line
 72
    65
 73
     0
 40
0.0
  0
LTYPE
  5
27C
330
69
100
AcDbSymbolTableRecord
100
AcDbLinetypeTableRecord
  2
SEKKEI_A2_
 70
     0
  3
center(A2)  ____ _ ____ _ ____ _ ____ _ ____ _ 
 72
    65
 73
     4
 40
14.28749999999999
 49
9.525
 74
     0
 49
-1.587499999999999
 74
     0
 49
1.587499999999999
 74
     0
 49
-1.587499999999999
 74
     0
  0
LTYPE
  5
2B4
330
69
100
AcDbSymbolTableRecord
100
AcDbLinetypeTableRecord
  2
HIDDEN2
 70
     0
  3
Hidden (.5x) _ _ _ _ _ _ _ _ _ _ _ _ _ _ _ _ _
 72
    65
 73
     2
 40
4.762499999999999
 49
3.174999999999999
 74
     0
 49
-1.587499999999999
 74
     0
  0
LTYPE
  5
48F
330
69
100
AcDbSymbolTableRecord
100
AcDbLinetypeTableRecord
  2
SEKKEI_H
 70
     0
  3
Hidden-S _ _ _ _ _ _ _ _ _ _ _ _ _ _ _ _ _
 72
    65
 73
     2
 40
2.381249999999999
 49
1.587499999999999
 74
     0
 49
-0.79375
 74
     0
  0
LTYPE
  5
54A
330
69
100
AcDbSymbolTableRecord
100
AcDbLinetypeTableRecord
  2
CENTERX2
 70
     0
  3
Center (2x) ________  __  ________  __  _____
 72
    65
 73
     4
 40
4.0
 49
2.5
 74
     0
 49
-0.5
 74
     0
 49
0.5
 74
     0
 49
-0.5
 74
     0
  0
ENDTAB
  0
TABLE
  2
LAYER
  5
66
102
{ACAD_XDICTIONARY
360
86B
102
}
330
0
100
AcDbSymbolTable
 70
    10
  0
LAYER
  5
5E
102
{ACAD_XDICTIONARY
360
1AF7
102
}
330
66
100
AcDbSymbolTableRecord
100
AcDbLayerTableRecord
  2
0
 70
     0
 62
     7
  6
CONTINUOUS
  0
LAYER
  5
3E
102
{ACAD_XDICTIONARY
360
1AF9
102
}
330
66
100
AcDbSymbolTableRecord
100
AcDbLayerTableRecord
  2
CENTER
 70
     0
 62
     3
  6
SEKKEI_A2_
  0
LAYER
  5
2B5
102
{ACAD_XDICTIONARY
360
1AFF
102
}
330
66
100
AcDbSymbolTableRecord
100
AcDbLayerTableRecord
  2
HIDS
 70
     0
 62
     1
  6
HIDDEN2
  0
LAYER
  5
2BA
102
{ACAD_XDICTIONARY
360
1B01
102
}
330
66
100
AcDbSymbolTableRecord
100
AcDbLayerTableRecord
  2
HOJO
 70
     0
 62
     4
  6
CONTINUOUS
  0
LAYER
  5
3FA
102
{ACAD_XDICTIONARY
360
1B05
102
}
330
66
100
AcDbSymbolTableRecord
100
AcDbLayerTableRecord
  2
TITLE
 70
     0
 62
     4
  6
CONTINUOUS
  0
ENDTAB
  0
TABLE
  2
STYLE
  5
67
330
0
100
AcDbSymbolTable
 70
     3
  0
STYLE
  5
16
330
67
100
AcDbSymbolTableRecord
100
AcDbTextStyleTableRecord
  2
STANDARD
 70
     0
 40
0.0
 41
1.0
 50
0.0
 71
     0
 42
2.0
  3
simplex.shx
  4
extfont.shx
  0
ENDTAB
  0
TABLE
  2
VIEW
  5
6C
330
0
100
AcDbSymbolTable
 70
     0
  0
ENDTAB
  0
TABLE
  2
UCS
  5
6D
330
0
100
AcDbSymbolTable
 70
     0
  0
ENDTAB
  0
TABLE
  2
APPID
  5
70
330
0
100
AcDbSymbolTable
 70
     7
  0
APPID
  5
71
330
70
100
AcDbSymbolTableRecord
100
AcDbRegAppTableRecord
  2
ACAD
 70
     0
  0
APPID
  5
859
330
70
100
AcDbSymbolTableRecord
100
AcDbRegAppTableRecord
  2
ACAD_MLEADERVER
 70
     0
  0
APPID
  5
866
330
70
100
AcDbSymbolTableRecord
100
AcDbRegAppTableRecord
  2
ACAD_PSEXT
 70
     0
  0
APPID
  5
12FA
330
70
100
AcDbSymbolTableRecord
100
AcDbRegAppTableRecord
  2
ACAD_EXEMPT_FROM_CAD_STANDARDS
 70
     0
  0
APPID
  5
135B
330
70
100
AcDbSymbolTableRecord
100
AcDbRegAppTableRecord
  2
ACAD_DSTYLE_DIMJAG
 70
     0
  0
APPID
  5
135C
330
70
100
AcDbSymbolTableRecord
100
AcDbRegAppTableRecord
  2
ACAD_DSTYLE_DIMTALN
 70
     0
  0
APPID
  5
150D
330
70
100
AcDbSymbolTableRecord
100
AcDbRegAppTableRecord
  2
ACAD_DSTYLE_DIMRADIAL_EXTENSION
 70
     0
  0
ENDTAB
  0
TABLE
  2
DIMSTYLE
  5
72
330
0
100
AcDbSymbolTable
 70
     1
  0
DIMSTYLE
105
73
330
72
100
AcDbSymbolTableRecord
100
AcDbDimStyleTableRecord
  2
STANDARD
 70
     0
  3

  4

  5

  6

  7

 40
4.0
 41
1.8
 42
0.625
 43
3.75
 44
0.8
 45
0.0
 46
0.0
 47
0.0
 48
0.0
140
1.8
141
2.5
142
0.0
143
0.0394
144
1.0
145
0.0
146
1.0
147
0.75
 71
     0
 72
     0
 73
     0
 74
     0
 75
     0
 76
     0
 77
     1
 78
     8
170
     0
171
     4
172
     1
173
     0
174
     0
175
     0
176
     0
177
     0
178
     0
270
     8
271
     2
272
     2
273
     8
274
     4
340
16
275
     0
280
     0
281
     0
282
     0
283
     1
284
     0
285
     0
286
     0
287
     3
288
     0
1001
ACAD_DSTYLE_DIMJAG
1070
   388
1040
1.5
1001
ACAD_DSTYLE_DIMTALN
1070
   392
1070
     0
  0
ENDTAB
  0
TABLE
  2
BLOCK_RECORD
  5
1
330
0
100
AcDbSymbolTable
 70
    44
  0
BLOCK_RECORD
  5
2
102
{ACAD_XDICTIONARY
360
1D16
102
}
330
1
100
AcDbSymbolTableRecord
100
AcDbBlockTableRecord
  2
*MODEL_SPACE
  0
BLOCK_RECORD
  5
4422
102
{ACAD_XDICTIONARY
360
444A
102
}
330
1
100
AcDbSymbolTableRecord
100
AcDbBlockTableRecord
  2
*PAPER_SPACE
  0
ENDTAB
  0
ENDSEC
  0
SECTION
  2
BLOCKS
  0
BLOCK
  5
5D
330
2
100
AcDbEntity
  8
0
100
AcDbBlockBegin
  2
*MODEL_SPACE
 70
     0
 10
0.0
 20
0.0
 30
0.0
  3
*MODEL_SPACE
  1

  0
ENDBLK
  5
5F
330
2
100
AcDbEntity
  8
0
100
AcDbBlockEnd
  0
BLOCK
  5
4424
330
4422
100
AcDbEntity
 67
     1
  8
0
100
AcDbBlockBegin
  2
*PAPER_SPACE
 70
     0
 10
0.0
 20
0.0
 30
0.0
  3
*PAPER_SPACE
  1

  0
ENDBLK
  5
4425
330
4422
100
AcDbEntity
 67
     1
  8
0
100
AcDbBlockEnd
  0
ENDSEC
  0
SECTION
  2
ENTITIES
  0
LINE
  5
C24
330
2
100
AcDbEntity
  8
0
100
AcDbLine
 10
886.5946935603153
 20
335.5678655566773
 30
0.0
 11
884.0946935603154
 21
335.5678655566773
 31
0.0
  0
LINE
  5
C25
330
2
100
AcDbEntity
  8
0
100
AcDbLine
 10
886.5946935603153
 20
434.5678655566773
 30
0.0
 11
884.0946935603154
 21
434.5678655566773
 31
0.0
  0
ARC
  5
C26
330
2
100
AcDbEntity
  8
0
100
AcDbCircle
 10
886.5946935603153
 20
439.5678655566773
 30
0.0
 40
5.0
100
AcDbArc
 50
270.0
 51
0.0
  0
LINE
  5
C27
330
2
100
AcDbEntity
  8
0
100
AcDbLine
 10
850.0946935603172
 20
388.0678655566773
 30
0.0
 11
878.0946935603154
 21
388.0678655566773
 31
0.0
  0
ARC
  5
C28
330
2
100
AcDbEntity
  8
0
100
AcDbCircle
 10
878.0946935603154
 20
391.0678655566775
 30
0.0
 40
3.0
100
AcDbArc
 50
270.0
 51
0.0
  0
LINE
  5
C29
330
2
100
AcDbEntity
  8
0
100
AcDbLine
 10
881.0946935603153
 20
338.5678655566773
 30
0.0
 11
881.0946935603153
 21
431.5678655566773
 31
0.0
  0
ARC
  5
C2A
330
2
100
AcDbEntity
  8
0
100
AcDbCircle
 10
884.0946935603154
 20
338.5678655566773
 30
0.0
 40
3.0
100
AcDbArc
 50
180.0
 51
270.0
  0
ARC
  5
C2B
330
2
100
AcDbEntity
  8
0
100
AcDbCircle
 10
884.0946935603154
 20
431.5678655566773
 30
0.0
 40
3.0
100
AcDbArc
 50
90.0
 51
180.0
  0
LINE
  5
C2C
330
2
100
AcDbEntity
  8
0
100
AcDbLine
 10
891.5946935603153
 20
326.567865556677
 30
0.0
 11
891.5946935603153
 21
443.5678655566773
 31
0.0
  0
ARC
  5
C2D
330
2
100
AcDbEntity
  8
0
100
AcDbCircle
 10
893.5946935603153
 20
327.0678655566773
 30
0.0
 40
2.0
100
AcDbArc
 50
180.0
 51
270.0
  0
ARC
  5
C2E
330
2
100
AcDbEntity
  8
0
100
AcDbCircle
 10
893.5946935603153
 20
443.0678655566773
 30
0.0
 40
2.0
100
AcDbArc
 50
90.0
 51
180.0
  0
LINE
  5
C2F
330
2
100
AcDbEntity
  8
0
100
AcDbLine
 10
850.0946935603172
 20
382.0678655566771
 30
0.0
 11
878.0946935603154
 21
382.0678655566769
 31
0.0
  0
ARC
  5
C30
330
2
100
AcDbEntity
  8
0
100
AcDbCircle
 10
878.0946935603154
 20
379.0678655566771
 30
0.0
 40
3.0
100
AcDbArc
 50
0.0
 51
90.0
  0
CIRCLE
  5
C31
330
2
100
AcDbEntity
  8
HOJO
100
AcDbCircle
 10
723.0261510653938
 20
328.4993230617535
 30
0.0
 40
5.0
  0
CIRCLE
  5
C32
330
2
100
AcDbEntity
  8
0
100
AcDbCircle
 10
723.0261510653938
 20
328.4993230617535
 30
0.0
 40
4.0
  0
CIRCLE
  5
C33
330
2
100
AcDbEntity
  8
HOJO
100
AcDbCircle
 10
723.0261510653938
 20
441.6364080516011
 30
0.0
 40
5.0
  0
CIRCLE
  5
C34
330
2
100
AcDbEntity
  8
0
100
AcDbCircle
 10
723.0261510653938
 20
441.6364080516011
 30
0.0
 40
4.0
  0
ARC
  5
C35
330
2
100
AcDbEntity
  8
0
100
AcDbCircle
 10
850.0946935603117
 20
353.0678655566773
 30
0.0
 40
3.0
100
AcDbArc
 50
90.0
 51
179.9999999999869
  0
LINE
  5
C37
330
2
100
AcDbEntity
  8
0
100
AcDbLine
 10
772.4529228105514
 20
329.5678655543202
 30
0.0
 11
775.3329240518835
 21
329.5678655543197
 31
0.0
  0
LINE
  5
C38
330
2
100
AcDbEntity
  8
0
100
AcDbLine
 10
776.4529228105568
 20
337.5678655543315
 30
0.0
 11
772.4529228105514
 21
329.5678655543202
 31
0.0
  0
ARC
  5
C39
330
2
100
AcDbEntity
  8
0
100
AcDbCircle
 10
782.9229228105671
 20
334.6778655543271
 30
0.0
 40
0.1700000000002474
100
AcDbArc
 50
270.0
 51
90.0
  0
LINE
  5
C3A
330
2
100
AcDbEntity
  8
0
100
AcDbLine
 10
780.7129228105625
 20
334.5078655543265
 30
0.0
 11
782.9229228105671
 21
334.5078655543265
 31
0.0
  0
LINE
  5
C3B
330
2
100
AcDbEntity
  8
0
100
AcDbLine
 10
780.3728500505624
 20
334.8478655543276
 30
0.0
 11
782.9229228105653
 21
334.8478655543276
 31
0.0
  0
LINE
  5
C3C
330
2
100
AcDbEntity
  8
0
100
AcDbLine
 10
776.4529228105568
 20
337.5678655543315
 30
0.0
 11
783.0928500505672
 21
337.5678655543315
 31
0.0
  0
LINE
  5
C3D
330
2
100
AcDbEntity
  8
0
100
AcDbLine
 10
775.9329240518838
 20
330.7678655543218
 30
0.0
 11
777.972922810559
 21
330.7678655543213
 31
0.0
  0
LINE
  5
C3E
330
2
100
AcDbEntity
  8
0
100
AcDbLine
 10
775.9329240518838
 20
330.7678655543218
 30
0.0
 11
775.3329240518835
 21
329.5678655543197
 31
0.0
  0
LINE
  5
C3F
330
2
100
AcDbEntity
  8
0
100
AcDbLine
 10
783.8564630687508
 20
329.5678655543197
 30
0.0
 11
786.7364643100811
 21
329.5678655543202
 31
0.0
  0
LINE
  5
C40
330
2
100
AcDbEntity
  8
0
100
AcDbLine
 10
784.7493954302265
 20
332.690492752712
 30
0.0
 11
786.7364643100811
 21
329.5678655543202
 31
0.0
  0
LINE
  5
C41
330
2
100
AcDbEntity
  8
0
100
AcDbLine
 10
777.972922810559
 20
329.5678655543197
 30
0.0
 11
780.3728500505624
 21
329.5678655543192
 31
0.0
  0
LINE
  5
C42
330
2
100
AcDbEntity
  8
0
100
AcDbLine
 10
777.2129240518864
 20
333.3278655543244
 30
0.0
 11
777.972922810559
 21
333.3278655543249
 31
0.0
  0
LINE
  5
C43
330
2
100
AcDbEntity
  8
0
100
AcDbLine
 10
777.972922810559
 20
330.7678655543213
 30
0.0
 11
777.972922810559
 21
329.5678655543197
 31
0.0
  0
ARC
  5
C44
330
2
100
AcDbEntity
  8
0
100
AcDbCircle
 10
783.0928500505672
 20
334.8478655543272
 30
0.0
 40
2.720000000003957
100
AcDbArc
 50
307.5189678668049
 51
90.0
  0
LINE
  5
C45
330
2
100
AcDbEntity
  8
0
100
AcDbLine
 10
780.7129228105625
 20
334.5078655543265
 30
0.0
 11
783.8564630687508
 21
329.5678655543197
 31
0.0
  0
LINE
  5
C46
330
2
100
AcDbEntity
  8
0
100
AcDbLine
 10
777.972922810559
 20
334.8478630716708
 30
0.0
 11
777.2129240518864
 21
333.3278655543244
 31
0.0
  0
LINE
  5
C47
330
2
100
AcDbEntity
  8
0
100
AcDbLine
 10
777.972922810559
 20
334.8478630716708
 30
0.0
 11
777.972922810559
 21
333.3278655543249
 31
0.0
  0
LINE
  5
C48
330
2
100
AcDbEntity
  8
0
100
AcDbLine
 10
780.3728500505624
 20
334.8478655543276
 30
0.0
 11
780.3728500505624
 21
329.5678655543192
 31
0.0
  0
CIRCLE
  5
C49
330
2
100
AcDbEntity
  8
HOJO
100
AcDbCircle
 10
836.1632360552414
 20
328.4993230617538
 30
0.0
 40
5.0
  0
CIRCLE
  5
C4A
330
2
100
AcDbEntity
  8
0
100
AcDbCircle
 10
836.1632360552414
 20
328.4993230617538
 30
0.0
 40
4.0
  0
CIRCLE
  5
C4B
330
2
100
AcDbEntity
  8
HOJO
100
AcDbCircle
 10
836.1632360552414
 20
441.6364080516011
 30
0.0
 40
5.0
  0
CIRCLE
  5
C4C
330
2
100
AcDbEntity
  8
0
100
AcDbCircle
 10
836.1632360552414
 20
441.6364080516011
 30
0.0
 40
4.0
  0
ARC
  5
C4D
330
2
100
AcDbEntity
  8
0
100
AcDbCircle
 10
886.5946935603153
 20
330.5678655566773
 30
0.0
 40
5.0
100
AcDbArc
 50
0.0
 51
90.0
  0
ARC
  5
C4E
330
2
100
AcDbEntity
  8
0
100
AcDbCircle
 10
850.0946935603172
 20
391.0678655566775
 30
0.0
 40
3.0
100
AcDbArc
 50
180.0
 51
270.0
  0
ARC
  5
C4F
330
2
100
AcDbEntity
  8
0
100
AcDbCircle
 10
850.0946935603172
 20
379.0678655566771
 30
0.0
 40
3.0
100
AcDbArc
 50
90.0
 51
180.0
  0
LINE
  5
C50
330
2
100
AcDbEntity
  8
0
100
AcDbLine
 10
893.5946935603153
 20
325.0678655566773
 30
0.0
 11
907.5946935603218
 21
325.0678655566772
 31
0.0
  0
LINE
  5
C51
330
2
100
AcDbEntity
  8
0
100
AcDbLine
 10
893.5946935603153
 20
445.0678655566771
 30
0.0
 11
907.5946935603218
 21
445.0678655566769
 31
0.0
  0
LINE
  5
C52
330
2
100
AcDbEntity
  8
0
100
AcDbLine
 10
907.5946935603218
 20
445.5678655566773
 30
0.0
 11
907.5946935603218
 21
324.567865556677
 31
0.0
  0
LINE
  5
C53
330
2
100
AcDbEntity
  8
0
100
AcDbLine
 10
873.0946935603153
 20
351.0678655566775
 30
0.0
 11
871.0946935603153
 21
351.0678655566775
 31
0.0
  0
ARC
  5
C54
330
2
100
AcDbEntity
  8
0
100
AcDbCircle
 10
873.0946935603153
 20
343.0678655566775
 30
0.0
 40
8.0
100
AcDbArc
 50
0.0
 51
90.0
  0
ARC
  5
C55
330
2
100
AcDbEntity
  8
0
100
AcDbCircle
 10
878.8641278225608
 20
434.5074543141449
 30
0.0
 40
3.0
100
AcDbArc
 50
259.9999999999948
 51
330.6639232880123
  0
ARC
  5
C56
330
2
100
AcDbEntity
  8
0
100
AcDbCircle
 10
878.8641278225608
 20
335.6282767992102
 30
0.0
 40
3.0
100
AcDbArc
 50
29.33607671198765
 51
99.99999999995232
  0
ARC
  5
C57
330
2
100
AcDbEntity
  8
0
100
AcDbCircle
 10
850.0946935603108
 20
330.5554493190566
 30
0.0
 40
3.0
100
AcDbArc
 50
100.0000000000051
 51
180.000000000013
  0
LINE
  5
C58
330
2
100
AcDbEntity
  8
0
100
AcDbLine
 10
873.0946935603153
 20
419.0678655566776
 30
0.0
 11
871.0946935603162
 21
419.0678655566776
 31
0.0
  0
ARC
  5
C59
330
2
100
AcDbEntity
  8
0
100
AcDbCircle
 10
873.0946935603153
 20
427.0678655566776
 30
0.0
 40
8.0
100
AcDbArc
 50
270.0
 51
0.0
  0
LINE
  5
C5A
330
2
100
AcDbEntity
  8
0
100
AcDbLine
 10
878.3431832895614
 20
338.5827000582469
 30
0.0
 11
849.5737490273096
 21
333.5098725780933
 31
0.0
  0
LINE
  5
C5B
330
2
100
AcDbEntity
  8
0
100
AcDbLine
 10
878.3431832895596
 20
431.5530310551085
 30
0.0
 11
849.5737490272761
 21
436.625858535268
 31
0.0
  0
ARC
  5
C5C
330
2
100
AcDbEntity
  8
0
100
AcDbCircle
 10
850.0946935602771
 20
439.5802817943044
 30
0.0
 40
3.0
100
AcDbArc
 50
180.000000000013
 51
259.9999999999948
  0
LINE
  5
C5D
330
2
100
AcDbEntity
  8
0
100
AcDbLine
 10
873.0946935603153
 20
419.0678655566776
 30
0.0
 11
871.0946935603162
 21
419.0678655566777
 31
0.0
  0
LINE
  5
C5E
330
2
100
AcDbEntity
  8
0
100
AcDbLine
 10
868.0946935603198
 20
416.067865556678
 30
0.0
 11
868.094693560319
 21
391.0678655566771
 31
0.0
  0
ARC
  5
C5F
330
2
100
AcDbEntity
  8
0
100
AcDbCircle
 10
865.094693560319
 20
391.0678655566773
 30
0.0
 40
3.0
100
AcDbArc
 50
270.0
 51
359.9999999999869
  0
LINE
  5
C60
330
2
100
AcDbEntity
  8
0
100
AcDbLine
 10
868.0946935603154
 20
379.0678655566771
 30
0.0
 11
868.0946935603154
 21
354.0678655566775
 31
0.0
  0
ARC
  5
C61
330
2
100
AcDbEntity
  8
0
100
AcDbCircle
 10
865.0946935603153
 20
379.0678655566771
 30
0.0
 40
3.0
100
AcDbArc
 50
359.9999999999869
 51
90.0
  0
ARC
  5
C62
330
2
100
AcDbEntity
  8
0
100
AcDbCircle
 10
871.0946935603153
 20
354.0678655566773
 30
0.0
 40
3.0
100
AcDbArc
 50
179.9999999999869
 51
270.0
  0
ARC
  5
C63
330
2
100
AcDbEntity
  8
0
100
AcDbCircle
 10
865.1786137772162
 20
353.0678655566771
 30
0.0
 40
3.0
100
AcDbArc
 50
9.594068226868955
 51
90.0
  0
ARC
  5
C64
330
2
100
AcDbEntity
  8
0
100
AcDbCircle
 10
871.0946935603162
 20
416.0678655566778
 30
0.0
 40
3.0
100
AcDbArc
 50
90.0
 51
179.9999999999869
  0
ARC
  5
C65
330
2
100
AcDbEntity
  8
0
100
AcDbCircle
 10
865.1786137772162
 20
417.0678655566771
 30
0.0
 40
3.0
100
AcDbArc
 50
270.0
 51
350.4059317731516
  0
LINE
  5
C66
330
2
100
AcDbEntity
  8
0
100
AcDbLine
 10
865.1786137772162
 20
356.0678655566771
 30
0.0
 11
850.0946935603117
 21
356.0678655566773
 31
0.0
  0
LINE
  5
C67
330
2
100
AcDbEntity
  8
0
100
AcDbLine
 10
865.1786137772162
 20
414.0678655566771
 30
0.0
 11
850.0946935603163
 21
414.0678655566771
 31
0.0
  0
ARC
  5
C68
330
2
100
AcDbEntity
  8
0
100
AcDbCircle
 10
850.0946935603163
 20
417.0678655566771
 30
0.0
 40
3.0
100
AcDbArc
 50
180.0
 51
270.0
  0
ARC
  5
C69
330
2
100
AcDbEntity
  8
0
100
AcDbCircle
 10
779.5946935603171
 20
112.5678655566773
 30
0.0
 40
340.0
100
AcDbArc
 50
85.85748119726867
 51
94.14251880273132
  0
ARC
  5
C6A
330
2
100
AcDbEntity
  8
0
100
AcDbCircle
 10
722.0946935603181
 20
442.5678655566773
 30
0.0
 40
10.0
100
AcDbArc
 50
90.0
 51
180.0
  0
LINE
  5
C6B
330
2
100
AcDbEntity
  8
0
100
AcDbLine
 10
722.0946935603181
 20
452.5678655566773
 30
0.0
 11
732.094693560318
 21
452.5678655566773
 31
0.0
  0
ARC
  5
C6C
330
2
100
AcDbEntity
  8
0
100
AcDbCircle
 10
732.094693560318
 20
444.5678655566773
 30
0.0
 40
8.0
100
AcDbArc
 50
81.63298947741271
 51
90.0
  0
ARC
  5
C6D
330
2
100
AcDbEntity
  8
0
100
AcDbCircle
 10
837.0946935603171
 20
442.5678655566773
 30
0.0
 40
10.0
100
AcDbArc
 50
0.0
 51
90.0
  0
ARC
  5
C6E
330
2
100
AcDbEntity
  8
0
100
AcDbCircle
 10
747.8101414193945
 20
551.4183437895272
 30
0.0
 40
100.0
100
AcDbArc
 50
261.6329894774127
 51
274.1425188027313
  0
LINE
  5
C6F
330
2
100
AcDbEntity
  8
0
100
AcDbLine
 10
712.0946935603171
 20
442.5678655566771
 30
0.0
 11
712.0946935603171
 21
432.5678655566771
 31
0.0
  0
ARC
  5
C70
330
2
100
AcDbEntity
  8
0
100
AcDbCircle
 10
720.0946935603171
 20
432.5678655566771
 30
0.0
 40
8.0
100
AcDbArc
 50
180.0
 51
188.3670105225864
  0
ARC
  5
C71
330
2
100
AcDbEntity
  8
0
100
AcDbCircle
 10
613.2442153274671
 20
416.8524176976006
 30
0.0
 40
100.0
100
AcDbArc
 50
355.857481197267
 51
8.36701052258649
  0
ARC
  5
C72
330
2
100
AcDbEntity
  8
0
100
AcDbCircle
 10
827.0946935603172
 20
444.5678655566773
 30
0.0
 40
8.0
100
AcDbArc
 50
90.0
 51
98.3670105225873
  0
ARC
  5
C73
330
2
100
AcDbEntity
  8
0
100
AcDbCircle
 10
811.3792457012406
 20
551.4183437895272
 30
0.0
 40
100.0
100
AcDbArc
 50
265.8574811972686
 51
278.3670105225872
  0
LINE
  5
C74
330
2
100
AcDbEntity
  8
0
100
AcDbLine
 10
837.0946935603171
 20
452.5678655566773
 30
0.0
 11
827.0946935603172
 21
452.5678655566773
 31
0.0
  0
ARC
  5
C75
330
2
100
AcDbEntity
  8
0
100
AcDbCircle
 10
722.0946935603181
 20
327.5678655566773
 30
0.0
 40
10.0
100
AcDbArc
 50
180.0
 51
270.0
  0
LINE
  5
C76
330
2
100
AcDbEntity
  8
0
100
AcDbLine
 10
722.0946935603181
 20
317.5678655566773
 30
0.0
 11
732.094693560318
 21
317.5678655566773
 31
0.0
  0
ARC
  5
C77
330
2
100
AcDbEntity
  8
0
100
AcDbCircle
 10
732.094693560318
 20
325.5678655566773
 30
0.0
 40
8.0
100
AcDbArc
 50
270.0
 51
278.3670105225872
  0
ARC
  5
C78
330
2
100
AcDbEntity
  8
0
100
AcDbCircle
 10
837.0946935603171
 20
327.5678655566773
 30
0.0
 40
10.0
100
AcDbArc
 50
270.0
 51
0.0
  0
ARC
  5
C79
330
2
100
AcDbEntity
  8
0
100
AcDbCircle
 10
747.8101414193945
 20
218.7173873238275
 30
0.0
 40
100.0
100
AcDbArc
 50
85.85748119726867
 51
98.3670105225873
  0
LINE
  5
C7A
330
2
100
AcDbEntity
  8
0
100
AcDbLine
 10
712.0946935603171
 20
327.5678655566776
 30
0.0
 11
712.0946935603171
 21
337.5678655566776
 31
0.0
  0
ARC
  5
C7B
330
2
100
AcDbEntity
  8
0
100
AcDbCircle
 10
720.0946935603171
 20
337.5678655566776
 30
0.0
 40
8.0
100
AcDbArc
 50
171.6329894774135
 51
180.0
  0
ARC
  5
C7C
330
2
100
AcDbEntity
  8
0
100
AcDbCircle
 10
613.2442153274671
 20
353.283313415754
 30
0.0
 40
100.0
100
AcDbArc
 50
351.6329894773889
 51
4.142518802733023
  0
ARC
  5
C7D
330
2
100
AcDbEntity
  8
0
100
AcDbCircle
 10
827.0946935603172
 20
325.5678655566773
 30
0.0
 40
8.0
100
AcDbArc
 50
261.6329894774127
 51
270.0
  0
ARC
  5
C7E
330
2
100
AcDbEntity
  8
0
100
AcDbCircle
 10
811.3792457012406
 20
218.7173873238275
 30
0.0
 40
100.0
100
AcDbArc
 50
81.63298947741271
 51
94.14251880273132
  0
LINE
  5
C7F
330
2
100
AcDbEntity
  8
0
100
AcDbLine
 10
847.0946935603171
 20
327.5678655566776
 30
0.0
 11
847.0946935603171
 21
442.5678655566773
 31
0.0
  0
LINE
  5
C80
330
2
100
AcDbEntity
  8
0
100
AcDbLine
 10
837.0946935603171
 20
317.5678655566773
 30
0.0
 11
827.0946935603172
 21
317.5678655566773
 31
0.0
  0
ARC
  5
C81
330
2
100
AcDbEntity
  8
0
100
AcDbCircle
 10
779.5946935603171
 20
657.5678655566774
 30
0.0
 40
340.0
100
AcDbArc
 50
265.8574811972686
 51
274.1425188027313
  0
ARC
  5
C82
330
2
100
AcDbEntity
  8
0
100
AcDbCircle
 10
1052.094693560317
 20
385.0678655566773
 30
0.0
 40
340.0
100
AcDbArc
 50
175.85748119728
 51
184.1425188027068
  0
CIRCLE
  5
C83
330
2
100
AcDbEntity
  8
0
100
AcDbCircle
 10
779.5946935603167
 20
385.0678655566773
 30
0.0
 40
35.99999999999954
  0
CIRCLE
  5
C84
330
2
100
AcDbEntity
  8
0
100
AcDbCircle
 10
779.5946935603167
 20
385.0678655566773
 30
0.0
 40
36.57735026918968
  0
CIRCLE
  5
C85
330
2
100
AcDbEntity
  8
0
100
AcDbCircle
 10
779.5946935603167
 20
385.0678655566773
 30
0.0
 40
43.49999999999954
  0
CIRCLE
  5
C86
330
2
100
AcDbEntity
  8
0
100
AcDbCircle
 10
779.5946935603167
 20
385.0678655566773
 30
0.0
 40
60.00000000000046
  0
LINE
  5
C87
330
2
100
AcDbEntity
  8
CENTER
100
AcDbLine
 10
836.1632360552418
 20
452.5678655566773
 30
0.0
 11
836.1632360552418
 21
430.7049505465199
 31
0.0
  0
LINE
  5
C88
330
2
100
AcDbEntity
  8
CENTER
100
AcDbLine
 10
825.2317785501615
 20
441.6364080515986
 30
0.0
 11
847.0946935603185
 21
441.6364080515986
 31
0.0
  0
LINE
  5
C89
330
2
100
AcDbEntity
  8
CENTER
100
AcDbLine
 10
723.0261510653924
 20
452.5678655566773
 30
0.0
 11
723.026151065392
 21
430.7049505465215
 31
0.0
  0
LINE
  5
C8A
330
2
100
AcDbEntity
  8
CENTER
100
AcDbLine
 10
733.9576085704736
 20
441.6364080515994
 30
0.0
 11
712.0946935603176
 21
441.6364080515995
 31
0.0
  0
LINE
  5
C8B
330
2
100
AcDbEntity
  8
CENTER
100
AcDbLine
 10
836.1632360552418
 20
317.5678655566773
 30
0.0
 11
836.1632360552418
 21
339.4307805668302
 31
0.0
  0
LINE
  5
C8C
330
2
100
AcDbEntity
  8
CENTER
100
AcDbLine
 10
825.2317785501652
 20
328.4993230617555
 30
0.0
 11
847.0946935603176
 21
328.4993230617553
 31
0.0
  0
LINE
  5
C8D
330
2
100
AcDbEntity
  8
CENTER
100
AcDbLine
 10
723.026151065392
 20
317.5678655566773
 30
0.0
 11
723.026151065392
 21
339.4307805668316
 31
0.0
  0
LINE
  5
C8E
330
2
100
AcDbEntity
  8
CENTER
100
AcDbLine
 10
733.9576085704691
 20
328.499323061755
 30
0.0
 11
712.0946935603149
 21
328.4993230617549
 31
0.0
  0
CIRCLE
  5
C8F
330
2
100
AcDbEntity
  8
CENTER
100
AcDbCircle
 10
779.5946935603167
 20
385.0678655566773
 30
0.0
 40
79.9999999999992
  0
LINE
  5
C90
330
2
100
AcDbEntity
  8
CENTER
100
AcDbLine
 10
716.3982956312331
 20
385.0678655566773
 30
0.0
 11
732.7910914894003
 21
385.0678655566773
 31
0.0
  0
LINE
  5
C91
330
2
100
AcDbEntity
  8
CENTER
100
AcDbLine
 10
851.4875382176704
 20
456.9607102140285
 30
0.0
 11
707.701848902963
 21
313.1750208993261
 31
0.0
  0
LINE
  5
C92
330
2
100
AcDbEntity
  8
CENTER
100
AcDbLine
 10
707.7018489029649
 20
456.9607102140304
 30
0.0
 11
851.4875382176684
 21
313.1750208993242
 31
0.0
  0
LINE
  5
C93
330
2
100
AcDbEntity
  8
0
 48
0.5
100
AcDbLine
 10
712.0990569942129
 20
840.5329125964067
 30
0.0
 11
712.9891975088683
 21
738.5329125964163
 31
0.0
  0
LINE
  5
C94
330
2
100
AcDbEntity
  8
CENTER
100
AcDbLine
 10
779.5946935603167
 20
875.532912596406
 30
0.0
 11
779.5946935603167
 21
652.5329125964145
 31
0.0
  0
LINE
  5
C95
330
2
100
AcDbEntity
  8
0
100
AcDbLine
 10
827.1077865211015
 20
840.5329125964131
 30
0.0
 11
827.9987933219679
 21
806.5067356481069
 31
0.0
  0
LINE
  5
C96
330
2
100
AcDbEntity
  8
0
100
AcDbLine
 10
719.5946935603158
 20
733.5329125964131
 30
0.0
 11
839.5946935603166
 21
733.5329125964147
 31
0.0
  0
LINE
  5
C97
330
2
100
AcDbEntity
  8
CENTER
100
AcDbLine
 10
702.4041165830315
 20
805.5329125964149
 30
0.0
 11
1012.094693560325
 21
805.5329125964131
 31
0.0
  0
LINE
  5
C98
330
2
100
AcDbEntity
  8
0
100
AcDbLine
 10
846.4794493810689
 20
840.5329125964142
 30
0.0
 11
712.0946935603176
 21
840.5329125964067
 31
0.0
  0
LINE
  5
C99
330
2
100
AcDbEntity
  8
0
100
AcDbLine
 10
879.7984904426591
 20
805.5329125964149
 30
0.0
 11
881.0181921981545
 21
852.1114434413377
 31
0.0
  0
ARC
  5
C9A
330
2
100
AcDbEntity
  8
0
100
AcDbCircle
 10
876.9545775945996
 20
811.5329125964153
 30
0.0
 40
3.0
100
AcDbArc
 50
270.0
 51
358.5000000000103
  0
LINE
  5
C9B
330
2
100
AcDbEntity
  8
0
100
AcDbLine
 10
872.8955568086218
 20
839.5329125964149
 30
0.0
 11
871.0171641730809
 21
839.5329125964147
 31
0.0
  0
ARC
  5
C9C
330
2
100
AcDbEntity
  8
0
100
AcDbCircle
 10
872.8955568086218
 20
847.5329125964149
 30
0.0
 40
8.0
100
AcDbArc
 50
270.0
 51
358.5000000000103
  0
LINE
  5
C9D
330
2
100
AcDbEntity
  8
0
100
AcDbLine
 10
886.4489570292359
 20
756.0329125964146
 30
0.0
 11
884.0171421730817
 21
756.0329125964152
 31
0.0
  0
ARC
  5
C9E
330
2
100
AcDbEntity
  8
0
100
AcDbCircle
 10
886.4489570292342
 20
751.0329125964146
 30
0.0
 40
5.0
100
AcDbArc
 50
1.500000000015752
 51
89.99999999994789
  0
ARC
  5
C9F
330
2
100
AcDbEntity
  8
0
100
AcDbCircle
 10
884.0171421730827
 20
759.0329125964152
 30
0.0
 40
3.0
100
AcDbArc
 50
181.5000000000418
 51
270.0
  0
LINE
  5
CA0
330
2
100
AcDbEntity
  8
0
100
AcDbLine
 10
872.895534808619
 20
771.5329125964146
 30
0.0
 11
871.0171641730809
 21
771.5329125964146
 31
0.0
  0
LINE
  5
CA1
330
2
100
AcDbEntity
  8
0
100
AcDbLine
 10
881.0181701981562
 20
758.9543817514903
 30
0.0
 11
879.798468442607
 21
805.5329125964146
 31
0.0
  0
ARC
  5
CA2
330
2
100
AcDbEntity
  8
0
100
AcDbCircle
 10
872.895534808619
 20
763.5329125964146
 30
0.0
 40
8.0
100
AcDbArc
 50
1.500000000054848
 51
90.0
  0
LINE
  5
CA3
330
2
100
AcDbEntity
  8
0
 48
0.3
100
AcDbLine
 10
893.5430073021604
 20
865.5329125964147
 30
0.0
 11
907.5946935603212
 21
865.5329125964147
 31
0.0
  0
ARC
  5
CA4
330
2
100
AcDbEntity
  8
0
 48
0.5
100
AcDbCircle
 10
893.5430073021604
 20
863.5329125964149
 30
0.0
 40
2.0
100
AcDbArc
 50
90.0
 51
178.4999999999972
  0
LINE
  5
CA5
330
2
100
AcDbEntity
  8
0
100
AcDbLine
 10
891.5436926522104
 20
863.5852664930299
 30
0.0
 11
890.0235382661611
 21
805.5329125964149
 31
0.0
  0
ARC
  5
CA6
330
2
100
AcDbEntity
  8
0
100
AcDbCircle
 10
886.4489570292333
 20
860.032912596414
 30
0.0
 40
5.0
100
AcDbArc
 50
270.0
 51
358.5000000000103
  0
LINE
  5
CA7
330
2
100
AcDbEntity
  8
0
100
AcDbLine
 10
884.017164173081
 20
855.032912596414
 30
0.0
 11
886.4489570292333
 21
855.032912596414
 31
0.0
  0
ARC
  5
CA8
330
2
100
AcDbEntity
  8
0
100
AcDbCircle
 10
884.017164173081
 20
852.032912596414
 30
0.0
 40
3.0
100
AcDbArc
 50
90.0
 51
178.4999999999972
  0
LINE
  5
CA9
330
2
100
AcDbEntity
  8
0
 48
0.5
100
AcDbLine
 10
846.505858450403
 20
773.5590922029095
 30
0.0
 11
846.4449226865124
 21
766.5765452739057
 31
0.0
  0
ARC
  5
CAA
330
2
100
AcDbEntity
  8
0
 48
0.5
100
AcDbCircle
 10
849.5057442195955
 20
773.5329125964151
 30
0.0
 40
3.0
100
AcDbArc
 50
90.0
 51
179.5000000000084
  0
ARC
  5
CAB
330
2
100
AcDbEntity
  8
0
 48
0.5
100
AcDbCircle
 10
849.7326427821496
 20
799.5329125964149
 30
0.0
 40
3.0
100
AcDbArc
 50
90.0
 51
179.5000000000084
  0
LINE
  5
CAC
330
2
100
AcDbEntity
  8
0
 48
0.5
100
AcDbLine
 10
846.7848897537376
 20
805.5329125964151
 30
0.0
 11
846.2001896117651
 21
738.5329125964217
 31
0.0
  0
LINE
  5
CAD
330
2
100
AcDbEntity
  8
0
 48
0.5
100
AcDbLine
 10
846.7848897537495
 20
805.5329125964149
 30
0.0
 11
846.4794493810693
 21
840.5329125964142
 31
0.0
  0
LINE
  5
CAE
330
2
100
AcDbEntity
  8
0
 48
0.3
100
AcDbLine
 10
893.5430073021604
 20
745.532912596415
 30
0.0
 11
907.5946935603212
 21
745.5329125964149
 31
0.0
  0
ARC
  5
CAF
330
2
100
AcDbEntity
  8
0
 48
0.5
100
AcDbCircle
 10
893.5430073021604
 20
747.5329125964147
 30
0.0
 40
2.0
100
AcDbArc
 50
181.5000000000157
 51
270.0
  0
LINE
  5
CB0
330
2
100
AcDbEntity
  8
0
100
AcDbLine
 10
891.5436926522104
 20
747.4805586997998
 30
0.0
 11
890.0235382661746
 21
805.5329125964149
 31
0.0
  0
LINE
  5
CB1
330
2
100
AcDbEntity
  8
0
100
AcDbLine
 10
907.5946935603168
 20
745.5329125964149
 30
0.0
 11
907.5946935603168
 21
865.5329125964149
 31
0.0
  0
LINE
  5
CB2
330
2
100
AcDbEntity
  8
0
100
AcDbLine
 10
712.9891975088683
 20
738.5329125964163
 30
0.0
 11
846.2001896117651
 21
738.5329125964219
 31
0.0
  0
LINE
  5
CB3
330
2
100
AcDbEntity
  8
0
100
AcDbLine
 10
849.7326427821587
 20
808.532912596415
 30
0.0
 11
876.9545775945996
 21
808.5329125964157
 31
0.0
  0
ARC
  5
CB4
330
2
100
AcDbEntity
  8
0
100
AcDbCircle
 10
864.3604593789085
 20
811.5329125964153
 30
0.0
 40
3.0
100
AcDbArc
 50
270.0
 51
358.4999999999972
  0
ARC
  5
CB5
330
2
100
AcDbEntity
  8
0
100
AcDbCircle
 10
849.7326427821587
 20
811.5329125964152
 30
0.0
 40
3.0
100
AcDbArc
 50
180.5000000000045
 51
270.0
  0
LINE
  5
CB6
330
2
100
AcDbEntity
  8
0
100
AcDbLine
 10
849.7326427821496
 20
802.5329125964148
 30
0.0
 11
876.9545555945549
 21
802.5329125964143
 31
0.0
  0
ARC
  5
CB7
330
2
100
AcDbEntity
  8
0
100
AcDbCircle
 10
876.9545555945549
 20
799.5329125964147
 30
0.0
 40
3.0
100
AcDbArc
 50
1.500000000041816
 51
90.0
  0
LINE
  5
CB8
330
2
100
AcDbEntity
  8
0
100
AcDbLine
 10
828.9984506469433
 20
805.5329125964149
 30
0.0
 11
907.5946935603168
 21
805.5329125964149
 31
0.0
  0
ARC
  5
CB9
330
2
100
AcDbEntity
  8
0
100
AcDbCircle
 10
828.9984506469433
 20
806.5329125964149
 30
0.0
 40
1.0
100
AcDbArc
 50
181.5000000000027
 51
270.0
  0
LINE
  5
CBA
330
2
100
AcDbEntity
  8
0
100
AcDbLine
 10
722.0946935603181
 20
840.5329125964099
 30
0.0
 11
722.0946935603167
 21
740.0329125964163
 31
0.0
  0
LINE
  5
CBB
330
2
100
AcDbEntity
  8
0
100
AcDbLine
 10
867.3594313538339
 20
799.6114434413382
 30
0.0
 11
868.0181921981555
 21
774.4543817514913
 31
0.0
  0
ARC
  5
CBC
330
2
100
AcDbEntity
  8
0
100
AcDbCircle
 10
864.3604593789076
 20
799.5329125964147
 30
0.0
 40
3.0
100
AcDbArc
 50
1.500000000002719
 51
90.0
  0
LINE
  5
CBD
330
2
100
AcDbEntity
  8
0
100
AcDbLine
 10
865.1010843899809
 20
776.5329125964149
 30
0.0
 11
849.5057442195955
 21
776.5329125964151
 31
0.0
  0
ARC
  5
CBE
330
2
100
AcDbEntity
  8
0
100
AcDbCircle
 10
871.0171641730809
 20
774.5329125964149
 30
0.0
 40
3.0
100
AcDbArc
 50
181.5000000000027
 51
270.0
  0
ARC
  5
CBF
330
2
100
AcDbEntity
  8
0
100
AcDbCircle
 10
865.1010843899809
 20
773.5329125964151
 30
0.0
 40
3.0
100
AcDbArc
 50
9.594068226868996
 51
90.0
  0
LINE
  5
CC0
330
2
100
AcDbEntity
  8
0
100
AcDbLine
 10
865.1010843899809
 20
834.5329125964154
 30
0.0
 11
849.5057442195991
 21
834.5329125964148
 31
0.0
  0
ARC
  5
CC1
330
2
100
AcDbEntity
  8
0
100
AcDbCircle
 10
849.5057442195991
 20
837.532912596415
 30
0.0
 40
3.0
100
AcDbArc
 50
180.5000000000045
 51
270.0
  0
ARC
  5
CC2
330
2
100
AcDbEntity
  8
0
100
AcDbCircle
 10
871.0171641730809
 20
836.5329125964153
 30
0.0
 40
3.0
100
AcDbArc
 50
90.0
 51
178.4999999999972
  0
ARC
  5
CC3
330
2
100
AcDbEntity
  8
0
100
AcDbCircle
 10
865.1010843899809
 20
837.5329125964151
 30
0.0
 40
3.0
100
AcDbArc
 50
270.0
 51
350.4059317731516
  0
LINE
  5
CC4
330
2
100
AcDbEntity
  8
0
100
AcDbLine
 10
867.3594313538348
 20
811.454381751492
 30
0.0
 11
868.0181921981555
 21
836.6114434413383
 31
0.0
  0
LINE
  5
CC5
330
2
100
AcDbEntity
  8
0
100
AcDbLine
 10
732.0946935603176
 20
740.032912596417
 30
0.0
 11
732.0946935603176
 21
840.5329125964101
 31
0.0
  0
LINE
  5
CC6
330
2
100
AcDbEntity
  8
0
100
AcDbLine
 10
755.0339032696135
 20
740.0329125964179
 30
0.0
 11
755.0339032696131
 21
840.5329125964103
 31
0.0
  0
LINE
  5
CC7
330
2
100
AcDbEntity
  8
0
100
AcDbLine
 10
837.0946935603154
 20
840.532912596411
 30
0.0
 11
837.0946935603168
 21
740.0329125964163
 31
0.0
  0
LINE
  5
CC8
330
2
100
AcDbEntity
  8
0
100
AcDbLine
 10
827.0946935603157
 20
740.032912596417
 30
0.0
 11
827.0946935603157
 21
805.5329125964151
 31
0.0
  0
LINE
  5
CC9
330
2
100
AcDbEntity
  8
0
100
AcDbLine
 10
804.1554838510199
 20
740.0329125964179
 30
0.0
 11
804.1554838510212
 21
840.5329125964106
 31
0.0
  0
LINE
  5
CCA
330
2
100
AcDbEntity
  8
0
100
AcDbLine
 10
907.5946935603212
 20
745.5329125964149
 30
0.0
 11
907.5946935603212
 21
865.5329125964149
 31
0.0
  0
LINE
  5
CCB
330
2
100
AcDbEntity
  8
0
 48
0.5
100
AcDbLine
 10
719.5946935603167
 20
738.5329125964146
 30
0.0
 11
719.5946935603158
 21
733.5329125964131
 31
0.0
  0
LINE
  5
CCC
330
2
100
AcDbEntity
  8
0
 48
0.5
100
AcDbLine
 10
839.5946935603166
 20
738.5329125964146
 30
0.0
 11
839.5946935603166
 21
733.5329125964147
 31
0.0
  0
ARC
  5
CCD
330
2
100
AcDbEntity
  8
0
100
AcDbCircle
 10
879.2411037425342
 20
755.4011834063577
 30
0.0
 40
3.0
100
AcDbArc
 50
37.24958326181086
 51
114.9999999999782
  0
LINE
  5
CCE
330
2
100
AcDbEntity
  8
0
100
AcDbLine
 10
877.9732489573133
 20
758.1201067674677
 30
0.0
 11
847.9575100243453
 21
744.1235378378434
 31
0.0
  0
ARC
  5
CCF
330
2
100
AcDbEntity
  8
0
100
AcDbCircle
 10
849.2253648095672
 20
741.4046144767334
 30
0.0
 40
3.0
100
AcDbArc
 50
114.9999999999782
 51
179.5000000000084
  0
ARC
  5
CD0
330
2
100
AcDbEntity
  8
0
100
AcDbCircle
 10
878.2096439054173
 20
853.5404630402378
 30
0.0
 40
3.0
100
AcDbArc
 50
294.9999999999781
 51
345.4480092603792
  0
LINE
  5
CD1
330
2
100
AcDbEntity
  8
0
100
AcDbLine
 10
879.4774986906393
 20
850.8215396791284
 30
0.0
 11
849.3417905265904
 21
836.7690281783065
 31
0.0
  0
ARC
  5
CD2
330
2
100
AcDbEntity
  8
0
100
AcDbCircle
 10
848.4965540031087
 20
838.5816437523798
 30
0.0
 40
2.0
100
AcDbArc
 50
180.5000000024668
 51
294.9999999999781
  0
LINE
  5
CD3
330
2
100
AcDbEntity
  8
0
100
AcDbLine
 10
735.8032773166467
 20
721.1856162410806
 30
0.0
 11
734.7917808050777
 21
726.9220980177485
 31
0.0
  0
LINE
  5
CD4
330
2
100
AcDbEntity
  8
0
100
AcDbLine
 10
823.3861098039866
 20
721.1856162410806
 30
0.0
 11
824.3976063155557
 21
726.9220980177502
 31
0.0
  0
ARC
  5
CD5
330
2
100
AcDbEntity
  8
0
100
AcDbCircle
 10
821.4164942979621
 20
721.5329125964146
 30
0.0
 40
2.0
100
AcDbArc
 50
270.0
 51
350.0000000000006
  0
LINE
  5
CD6
330
2
100
AcDbEntity
  8
0
100
AcDbLine
 10
737.7728928226713
 20
719.5329125964145
 30
0.0
 11
821.4164942979621
 21
719.5329125964145
 31
0.0
  0
ARC
  5
CD7
330
2
100
AcDbEntity
  8
0
100
AcDbCircle
 10
737.7728928226713
 20
721.5329125964146
 30
0.0
 40
2.0
100
AcDbArc
 50
189.9999999999993
 51
270.0
  0
ARC
  5
CD8
330
2
100
AcDbEntity
  8
0
100
AcDbCircle
 10
726.9133187809805
 20
725.5329125964131
 30
0.0
 40
8.0
100
AcDbArc
 50
9.999999999999365
 51
90.0
  0
ARC
  5
CD9
330
2
100
AcDbEntity
  8
0
100
AcDbCircle
 10
832.2760683396534
 20
725.5329125964147
 30
0.0
 40
8.0
100
AcDbArc
 50
90.0
 51
170.0000000000006
  0
LINE
  5
D0A
330
2
100
AcDbEntity
  8
CENTER
100
AcDbLine
 10
-57.97616526139677
 20
385.0678655566773
 30
0.0
 11
252.0238347386123
 21
385.0678655566773
 31
0.0
  0
LINE
  5
D0B
330
2
100
AcDbEntity
  8
0
100
AcDbLine
 10
81.02383473861369
 20
419.0678655566773
 30
0.0
 11
83.02383473861004
 21
419.0678655566773
 31
0.0
  0
LINE
  5
D0C
330
2
100
AcDbEntity
  8
0
100
AcDbLine
 10
67.52383473861368
 20
335.5678655566773
 30
0.0
 11
70.02383473861368
 21
335.5678655566773
 31
0.0
  0
LINE
  5
D0D
330
2
100
AcDbEntity
  8
0
100
AcDbLine
 10
67.52383473861368
 20
434.5678655566772
 30
0.0
 11
70.02383473861368
 21
434.5678655566772
 31
0.0
  0
ARC
  5
D0E
330
2
100
AcDbEntity
  8
0
100
AcDbCircle
 10
67.52383473861368
 20
439.5678655566773
 30
0.0
 40
5.0
100
AcDbArc
 50
180.0
 51
270.0
  0
LINE
  5
D0F
330
2
100
AcDbEntity
  8
0
100
AcDbLine
 10
73.02383473861368
 20
338.5678655566773
 30
0.0
 11
73.02383473861368
 21
431.5678655566773
 31
0.0
  0
ARC
  5
D10
330
2
100
AcDbEntity
  8
0
100
AcDbCircle
 10
81.02383473861369
 20
427.0678655566773
 30
0.0
 40
8.0
100
AcDbArc
 50
180.0
 51
270.0
  0
ARC
  5
D11
330
2
100
AcDbEntity
  8
0
100
AcDbCircle
 10
70.02383473861368
 20
338.5678655566773
 30
0.0
 40
3.0
100
AcDbArc
 50
270.0
 51
0.0
  0
ARC
  5
D12
330
2
100
AcDbEntity
  8
0
100
AcDbCircle
 10
75.25440047636834
 20
335.6282767992099
 30
0.0
 40
3.0
100
AcDbArc
 50
79.99999999999484
 51
150.6639232879818
  0
ARC
  5
D13
330
2
100
AcDbEntity
  8
0
100
AcDbCircle
 10
70.02383473861368
 20
431.5678655566773
 30
0.0
 40
3.0
100
AcDbArc
 50
0.0
 51
90.0
  0
ARC
  5
D14
330
2
100
AcDbEntity
  8
0
100
AcDbCircle
 10
75.25440047636834
 20
434.5074543141446
 30
0.0
 40
3.0
100
AcDbArc
 50
209.3360767120178
 51
279.9999999999522
  0
LINE
  5
D15
330
2
100
AcDbEntity
  8
0
100
AcDbLine
 10
62.52383473861368
 20
326.5678655566773
 30
0.0
 11
62.52383473861368
 21
443.5678655566773
 31
0.0
  0
ARC
  5
D16
330
2
100
AcDbEntity
  8
0
100
AcDbCircle
 10
60.52383473861368
 20
443.5678655566773
 30
0.0
 40
2.0
100
AcDbArc
 50
0.0
 51
90.0
  0
ARC
  5
D17
330
2
100
AcDbEntity
  8
0
100
AcDbCircle
 10
60.52383473861368
 20
327.0678655566773
 30
0.0
 40
2.0
100
AcDbArc
 50
270.0
 51
0.0
  0
ARC
  5
D18
330
2
100
AcDbEntity
  8
0
100
AcDbCircle
 10
60.52383473861368
 20
443.0678655566772
 30
0.0
 40
2.0
100
AcDbArc
 50
0.0
 51
90.0
  0
LINE
  5
D19
330
2
100
AcDbEntity
  8
CENTER
100
AcDbLine
 10
174.5238347386118
 20
307.5678655566773
 30
0.0
 11
174.5238347386127
 21
462.5678655566773
 31
0.0
  0
ARC
  5
D1A
330
2
100
AcDbEntity
  8
0
100
AcDbCircle
 10
67.52383473861368
 20
330.5678655566773
 30
0.0
 40
5.0
100
AcDbArc
 50
90.0
 51
180.0
  0
LINE
  5
D1B
330
2
100
AcDbEntity
  8
0
100
AcDbLine
 10
81.02383473861369
 20
351.0678655566771
 30
0.0
 11
83.02383473861004
 21
351.0678655566771
 31
0.0
  0
ARC
  5
D1C
330
2
100
AcDbEntity
  8
0
100
AcDbCircle
 10
81.02383473861369
 20
343.0678655566771
 30
0.0
 40
8.0
100
AcDbArc
 50
90.0
 51
180.0
  0
LINE
  5
D1D
330
2
100
AcDbEntity
  8
0
100
AcDbLine
 10
60.52383473861368
 20
325.0678655566773
 30
0.0
 11
46.52383473860732
 21
325.0678655566771
 31
0.0
  0
LINE
  5
D1E
330
2
100
AcDbEntity
  8
0
100
AcDbLine
 10
60.52383473861368
 20
445.067865556677
 30
0.0
 11
46.52383473860732
 21
445.0678655566768
 31
0.0
  0
LINE
  5
D1F
330
2
100
AcDbEntity
  8
0
100
AcDbLine
 10
46.52383473860732
 20
445.5678655566773
 30
0.0
 11
46.52383473860732
 21
324.5678655566773
 31
0.0
  0
LINE
  5
D20
330
2
100
AcDbEntity
  8
0
100
AcDbLine
 10
75.77534500936758
 20
431.5530310551079
 30
0.0
 11
104.8545830781947
 21
436.6804853050868
 31
0.0
  0
LINE
  5
D21
330
2
100
AcDbEntity
  8
0
100
AcDbLine
 10
75.7753450093694
 20
338.5827000582466
 30
0.0
 11
104.8545830781893
 21
333.4552458082685
 31
0.0
  0
ARC
  5
D22
330
2
100
AcDbEntity
  8
0
100
AcDbCircle
 10
104.3336385451882
 20
330.5008225492317
 30
0.0
 40
3.0
100
AcDbArc
 50
0.0
 51
79.99999999999484
  0
ARC
  5
D23
330
2
100
AcDbEntity
  8
0
100
AcDbCircle
 10
104.3336385451909
 20
417.0678655566772
 30
0.0
 40
3.0
100
AcDbArc
 50
270.0
 51
0.0
  0
ARC
  5
D24
330
2
100
AcDbEntity
  8
0
100
AcDbCircle
 10
104.3336385451937
 20
439.6349085641236
 30
0.0
 40
3.0
100
AcDbArc
 50
280.0000000000051
 51
0.0
  0
LINE
  5
D25
330
2
100
AcDbEntity
  8
0
100
AcDbLine
 10
81.02383473861369
 20
419.0678655566773
 30
0.0
 11
83.02383473861004
 21
419.0678655566773
 31
0.0
  0
ARC
  5
D26
330
2
100
AcDbEntity
  8
0
100
AcDbCircle
 10
83.02383473861004
 20
416.0678655566773
 30
0.0
 40
3.0
100
AcDbArc
 50
0.0
 51
90.0
  0
ARC
  5
D27
330
2
100
AcDbEntity
  8
0
100
AcDbCircle
 10
88.93991452170917
 20
417.0678655566775
 30
0.0
 40
3.0
100
AcDbArc
 50
189.5940682268689
 51
270.0
  0
LINE
  5
D28
330
2
100
AcDbEntity
  8
0
100
AcDbLine
 10
81.02383473861369
 20
351.0678655566771
 30
0.0
 11
83.02383473861004
 21
351.0678655566773
 31
0.0
  0
LINE
  5
D29
330
2
100
AcDbEntity
  8
0
100
AcDbLine
 10
86.02383473861005
 20
416.0678655566773
 30
0.0
 11
86.02383473861005
 21
388.0678655566752
 31
0.0
  0
LINE
  5
D2A
330
2
100
AcDbEntity
  8
0
100
AcDbLine
 10
86.02383473861005
 20
382.0678655566748
 30
0.0
 11
86.02383473861005
 21
354.0678655566773
 31
0.0
  0
ARC
  5
D2B
330
2
100
AcDbEntity
  8
0
100
AcDbCircle
 10
83.02383473861004
 20
354.0678655566773
 30
0.0
 40
3.0
100
AcDbArc
 50
270.0
 51
0.0
  0
ARC
  5
D2C
330
2
100
AcDbEntity
  8
0
100
AcDbCircle
 10
88.93991452171007
 20
353.0678655566775
 30
0.0
 40
3.0
100
AcDbArc
 50
90.0
 51
170.4059317731516
  0
LINE
  5
D2D
330
2
100
AcDbEntity
  8
0
100
AcDbLine
 10
88.93991452170917
 20
414.0678655566775
 30
0.0
 11
104.3336385451909
 21
414.0678655566772
 31
0.0
  0
LINE
  5
D2E
330
2
100
AcDbEntity
  8
0
100
AcDbLine
 10
88.93991452171007
 20
356.0678655566775
 30
0.0
 11
104.3336385451937
 21
356.0678655566775
 31
0.0
  0
ARC
  5
D2F
330
2
100
AcDbEntity
  8
0
100
AcDbCircle
 10
104.3336385451937
 20
353.0678655566775
 30
0.0
 40
3.0
100
AcDbArc
 50
0.0
 51
90.0
  0
LINE
  5
D30
330
2
100
AcDbEntity
  8
0
100
AcDbLine
 10
107.3336385451846
 20
442.5678655566775
 30
0.0
 11
107.3336385451846
 21
327.5678655566773
 31
0.0
  0
ARC
  5
D31
330
2
100
AcDbEntity
  8
0
100
AcDbCircle
 10
117.3336385451846
 20
442.5678655566775
 30
0.0
 40
10.0
100
AcDbArc
 50
90.0
 51
180.0
  0
ARC
  5
D32
330
2
100
AcDbEntity
  8
0
100
AcDbCircle
 10
117.3336385451846
 20
327.5678655566773
 30
0.0
 40
10.0
100
AcDbArc
 50
180.0
 51
270.0
  0
ARC
  5
D33
330
2
100
AcDbEntity
  8
0
100
AcDbCircle
 10
76.02383473861323
 20
391.067865556675
 30
0.0
 40
3.0
100
AcDbArc
 50
180.0
 51
270.0
  0
ARC
  5
D34
330
2
100
AcDbEntity
  8
0
100
AcDbCircle
 10
104.3336385451832
 20
391.067865556675
 30
0.0
 40
3.0
100
AcDbArc
 50
270.0
 51
0.0
  0
LINE
  5
D35
330
2
100
AcDbEntity
  8
0
100
AcDbLine
 10
104.3336385451832
 20
382.0678655566748
 30
0.0
 11
76.02383473861323
 21
382.0678655566747
 31
0.0
  0
ARC
  5
D36
330
2
100
AcDbEntity
  8
0
100
AcDbCircle
 10
76.02383473861323
 20
379.0678655566745
 30
0.0
 40
3.0
100
AcDbArc
 50
90.0
 51
180.0
  0
ARC
  5
D37
330
2
100
AcDbEntity
  8
0
100
AcDbCircle
 10
104.3336385451832
 20
379.0678655566748
 30
0.0
 40
3.0
100
AcDbArc
 50
0.0
 51
90.0
  0
LINE
  5
D38
330
2
100
AcDbEntity
  8
0
100
AcDbLine
 10
104.3336385451832
 20
388.067865556675
 30
0.0
 11
76.02383473861323
 21
388.0678655566752
 31
0.0
  0
LINE
  5
D39
330
2
100
AcDbEntity
  8
CENTER
100
AcDbLine
 10
303.7099579185948
 20
385.0678655566773
 30
0.0
 11
554.7099579185954
 21
385.0678655566773
 31
0.0
  0
LINE
  5
D3A
330
2
100
AcDbEntity
  8
0
100
AcDbLine
 10
473.7099579185967
 20
325.0678655566762
 30
0.0
 11
473.7099579185949
 21
445.0678655566773
 31
0.0
  0
LINE
  5
D3C
330
2
100
AcDbEntity
  8
0
100
AcDbLine
 10
366.7099579185958
 20
452.5678655566773
 30
0.0
 11
366.7099579186031
 21
317.5678655566782
 31
0.0
  0
LINE
  5
D3D
330
2
100
AcDbEntity
  8
0
100
AcDbLine
 10
468.7099579185953
 20
318.4623695052288
 30
0.0
 11
468.7099579185881
 21
451.6733616081258
 31
0.0
  0
LINE
  5
D3E
330
2
100
AcDbEntity
  8
0
100
AcDbLine
 10
366.7099579185999
 20
327.5678655566782
 30
0.0
 11
467.2099579185935
 21
327.5678655566772
 31
0.0
  0
LINE
  5
D3F
330
2
100
AcDbEntity
  8
0
100
AcDbLine
 10
467.2099579185931
 20
337.5678655566782
 30
0.0
 11
366.7099579185994
 21
337.5678655566782
 31
0.0
  0
LINE
  5
D40
330
2
100
AcDbEntity
  8
0
100
AcDbLine
 10
467.2099579185921
 20
360.5070752659741
 30
0.0
 11
366.7099579185994
 21
360.5070752659732
 31
0.0
  0
LINE
  5
D41
330
2
100
AcDbEntity
  8
0
100
AcDbLine
 10
366.7099579185994
 20
442.5678655566764
 30
0.0
 11
467.2099579185935
 21
442.5678655566772
 31
0.0
  0
LINE
  5
D42
330
2
100
AcDbEntity
  8
0
100
AcDbLine
 10
467.2099579185931
 20
432.5678655566764
 30
0.0
 11
366.7099579185994
 21
432.5678655566764
 31
0.0
  0
LINE
  5
D43
330
2
100
AcDbEntity
  8
0
100
AcDbLine
 10
467.2099579185921
 20
409.6286558473805
 30
0.0
 11
366.7099579185994
 21
409.6286558473813
 31
0.0
  0
LINE
  5
D44
330
2
100
AcDbEntity
  8
0
 48
0.5
100
AcDbLine
 10
468.7099579185953
 20
325.0678655566773
 30
0.0
 11
473.7099579185967
 21
325.0678655566763
 31
0.0
  0
LINE
  5
D45
330
2
100
AcDbEntity
  8
0
 48
0.5
100
AcDbLine
 10
468.7099579185953
 20
445.0678655566773
 30
0.0
 11
473.7099579185949
 21
445.0678655566773
 31
0.0
  0
LINE
  5
D46
330
2
100
AcDbEntity
  8
0
100
AcDbLine
 10
486.0572542739293
 20
341.2764493130075
 30
0.0
 11
480.3207724972614
 21
340.2649528014383
 31
0.0
  0
LINE
  5
D47
330
2
100
AcDbEntity
  8
0
100
AcDbLine
 10
486.0572542739293
 20
428.8592818003472
 30
0.0
 11
480.3207724972597
 21
429.8707783119166
 31
0.0
  0
ARC
  5
D48
330
2
100
AcDbEntity
  8
0
100
AcDbCircle
 10
485.7099579185954
 20
426.8896662943228
 30
0.0
 40
2.0
100
AcDbArc
 50
0.0
 51
79.99999999999484
  0
LINE
  5
D49
330
2
100
AcDbEntity
  8
0
100
AcDbLine
 10
487.7099579185953
 20
343.2460648190319
 30
0.0
 11
487.7099579185953
 21
426.8896662943228
 31
0.0
  0
ARC
  5
D4A
330
2
100
AcDbEntity
  8
0
100
AcDbCircle
 10
485.7099579185954
 20
343.2460648190319
 30
0.0
 40
2.0
100
AcDbArc
 50
280.0000000000051
 51
0.0
  0
ARC
  5
D4B
330
2
100
AcDbEntity
  8
0
100
AcDbCircle
 10
481.7099579185967
 20
332.3864907773409
 30
0.0
 40
8.0
100
AcDbArc
 50
100.0000000000051
 51
180.0
  0
ARC
  5
D4C
330
2
100
AcDbEntity
  8
0
100
AcDbCircle
 10
481.7099579185954
 20
437.7492403360142
 30
0.0
 40
8.0
100
AcDbArc
 50
180.0
 51
259.9999999999948
  0
LINE
  5
D4D
330
2
100
AcDbEntity
  8
0
100
AcDbLine
 10
341.7099579186039
 20
385.0678655566771
 30
0.0
 11
341.7099579186039
 21
426.9905152874897
 31
0.0
  0
LINE
  5
D4E
330
2
100
AcDbEntity
  8
0
 48
0.5
100
AcDbLine
 10
358.6925048476025
 20
452.4978983037079
 30
0.0
 11
366.709957918599
 21
452.5678655566771
 31
0.0
  0
ARC
  5
D4F
330
2
100
AcDbEntity
  8
0
100
AcDbCircle
 10
358.7099579185994
 20
450.4979744575796
 30
0.0
 40
2.0
100
AcDbArc
 50
90.49999999999155
 51
180.0
  0
ARC
  5
D50
330
2
100
AcDbEntity
  8
0
 48
0.5
100
AcDbCircle
 10
343.9099579185997
 20
427.2678655566772
 30
0.0
 40
0.3
100
AcDbArc
 50
0.0000000000065138
 51
90.0
  0
ARC
  5
D51
330
2
100
AcDbEntity
  8
0
100
AcDbCircle
 10
344.5099579185996
 20
427.1678655566772
 30
0.0
 40
0.3
100
AcDbArc
 50
180.0000000000065
 51
270.0
  0
LINE
  5
D52
330
2
100
AcDbEntity
  8
0
100
AcDbLine
 10
349.7099579185994
 20
429.5678655566776
 30
0.0
 11
349.7099579185999
 21
427.5678655566776
 31
0.0
  0
LINE
  5
D53
330
2
100
AcDbEntity
  8
0
 48
0.5
100
AcDbLine
 10
346.4099579185997
 20
427.5678655566776
 30
0.0
 11
349.7099579185999
 21
427.5678655566776
 31
0.0
  0
LINE
  5
D54
330
2
100
AcDbEntity
  8
0
 48
0.5
100
AcDbLine
 10
344.5099579185996
 20
426.8678655566773
 30
0.0
 11
345.9099579185997
 21
426.8678655566773
 31
0.0
  0
LINE
  5
D55
330
2
100
AcDbEntity
  8
0
 48
0.5
100
AcDbLine
 10
346.2099579185994
 20
427.3678655566773
 30
0.0
 11
346.4099579185997
 21
427.5678655566776
 31
0.0
  0
LINE
  5
D56
330
2
100
AcDbEntity
  8
0
100
AcDbLine
 10
346.2099579185994
 20
427.3678655566773
 30
0.0
 11
346.2099579185998
 21
342.767865556677
 31
0.0
  0
ARC
  5
D57
330
2
100
AcDbEntity
  8
0
100
AcDbCircle
 10
345.9099579185997
 20
427.1678655566775
 30
0.0
 40
0.3
100
AcDbArc
 50
270.0
 51
0.0000000000065138
  0
ARC
  5
D58
330
2
100
AcDbEntity
  8
HIDS
  6
SEKKEI_H
100
AcDbCircle
 10
352.2099579185944
 20
440.2394384319301
 30
0.0
 40
2.0
100
AcDbArc
 50
135.0000000000074
 51
180.0000000000065
  0
ARC
  5
D59
330
2
100
AcDbEntity
  8
HIDS
  6
SEKKEI_H
100
AcDbCircle
 10
354.709957918599
 20
448.3962926814235
 30
0.0
 40
2.0
100
AcDbArc
 50
315.0000000000074
 51
0.0
  0
LINE
  5
D5A
330
2
100
AcDbEntity
  8
HIDS
  6
SEKKEI_H
100
AcDbLine
 10
356.1241714809723
 20
446.9820791190504
 30
0.0
 11
350.7957443562233
 21
441.6536519943007
 31
0.0
  0
LINE
  5
D5B
330
2
100
AcDbEntity
  8
0
 48
0.5
100
AcDbLine
 10
350.2099579185994
 20
430.0678655566776
 30
0.0
 11
349.7099579185994
 21
429.5678655566776
 31
0.0
  0
LINE
  5
D5C
330
2
100
AcDbEntity
  8
0
100
AcDbLine
 10
350.2099579185994
 20
436.0678655566773
 30
0.0
 11
350.2099579185999
 21
430.0678655566779
 31
0.0
  0
LINE
  5
D5D
330
2
100
AcDbEntity
  8
0
100
AcDbLine
 10
342.7099579185999
 20
427.5678655566771
 30
0.0
 11
341.7099579185999
 21
426.9905152874872
 31
0.0
  0
LINE
  5
D5E
330
2
100
AcDbEntity
  8
0
 48
0.5
100
AcDbLine
 10
342.7099579185994
 20
427.5678655566771
 30
0.0
 11
343.9099579185997
 21
427.5678655566771
 31
0.0
  0
LINE
  5
D5F
330
2
100
AcDbEntity
  8
0
100
AcDbLine
 10
344.2099579185999
 20
427.2678655566772
 30
0.0
 11
344.2099579185999
 21
342.8678655566772
 31
0.0
  0
LINE
  5
D60
330
2
100
AcDbEntity
  8
0
100
AcDbLine
 10
341.7099579186039
 20
385.0678655566771
 30
0.0
 11
341.7099579186044
 21
343.1452158258647
 31
0.0
  0
LINE
  5
D61
330
2
100
AcDbEntity
  8
0
 48
0.5
100
AcDbLine
 10
358.692504847603
 20
317.6378328096466
 30
0.0
 11
366.7099579185994
 21
317.5678655566774
 31
0.0
  0
LINE
  5
D62
330
2
100
AcDbEntity
  8
0
100
AcDbLine
 10
356.7099579185999
 20
319.637756655775
 30
0.0
 11
356.7099579185994
 21
450.4979744575796
 31
0.0
  0
ARC
  5
D63
330
2
100
AcDbEntity
  8
0
100
AcDbCircle
 10
358.7099579185998
 20
319.637756655775
 30
0.0
 40
2.0
100
AcDbArc
 50
180.0
 51
269.5000000000084
  0
ARC
  5
D64
330
2
100
AcDbEntity
  8
0
 48
0.5
100
AcDbCircle
 10
343.9099579186001
 20
342.8678655566772
 30
0.0
 40
0.3
100
AcDbArc
 50
270.0
 51
359.9999999999934
  0
ARC
  5
D65
330
2
100
AcDbEntity
  8
0
100
AcDbCircle
 10
344.5099579186
 20
342.9678655566771
 30
0.0
 40
0.3
100
AcDbArc
 50
90.0
 51
179.9999999999934
  0
LINE
  5
D66
330
2
100
AcDbEntity
  8
0
100
AcDbLine
 10
349.7099579185999
 20
340.5678655566767
 30
0.0
 11
349.7099579185999
 21
342.5678655566767
 31
0.0
  0
LINE
  5
D67
330
2
100
AcDbEntity
  8
0
 48
0.5
100
AcDbLine
 10
346.4099579186001
 20
342.5678655566767
 30
0.0
 11
349.7099579185999
 21
342.5678655566767
 31
0.0
  0
LINE
  5
D68
330
2
100
AcDbEntity
  8
0
 48
0.5
100
AcDbLine
 10
344.5099579186
 20
343.267865556677
 30
0.0
 11
345.9099579186001
 21
343.267865556677
 31
0.0
  0
LINE
  5
D69
330
2
100
AcDbEntity
  8
0
 48
0.5
100
AcDbLine
 10
346.2099579185998
 20
342.767865556677
 30
0.0
 11
346.4099579186001
 21
342.5678655566767
 31
0.0
  0
ARC
  5
D6A
330
2
100
AcDbEntity
  8
0
100
AcDbCircle
 10
345.9099579186001
 20
342.9678655566768
 30
0.0
 40
0.3
100
AcDbArc
 50
359.9999999999934
 51
90.0
  0
ARC
  5
D6B
330
2
100
AcDbEntity
  8
HIDS
  6
SEKKEI_H
100
AcDbCircle
 10
352.2099579185949
 20
329.8962926814243
 30
0.0
 40
2.0
100
AcDbArc
 50
179.9999999999934
 51
224.9999999999926
  0
ARC
  5
D6C
330
2
100
AcDbEntity
  8
HIDS
  6
SEKKEI_H
100
AcDbCircle
 10
354.7099579185994
 20
321.7394384319309
 30
0.0
 40
2.0
100
AcDbArc
 50
0.0
 51
44.99999999999262
  0
LINE
  5
D6D
330
2
100
AcDbEntity
  8
HIDS
  6
SEKKEI_H
100
AcDbLine
 10
356.1241714809728
 20
323.1536519943041
 30
0.0
 11
350.7957443562238
 21
328.4820791190536
 31
0.0
  0
LINE
  5
D6E
330
2
100
AcDbEntity
  8
0
 48
0.5
100
AcDbLine
 10
350.2099579185999
 20
340.0678655566768
 30
0.0
 11
349.7099579185999
 21
340.5678655566767
 31
0.0
  0
LINE
  5
D6F
330
2
100
AcDbEntity
  8
0
100
AcDbLine
 10
350.2099579185999
 20
334.0678655566772
 30
0.0
 11
350.2099579186003
 21
340.0678655566765
 31
0.0
  0
LINE
  5
D70
330
2
100
AcDbEntity
  8
0
100
AcDbLine
 10
342.7099579185999
 20
342.5678655566772
 30
0.0
 11
341.7099579185999
 21
343.1452158258672
 31
0.0
  0
LINE
  5
D71
330
2
100
AcDbEntity
  8
0
 48
0.5
100
AcDbLine
 10
342.7099579185999
 20
342.5678655566772
 30
0.0
 11
343.9099579186001
 21
342.5678655566772
 31
0.0
  0
LINE
  5
D72
330
2
100
AcDbEntity
  8
0
100
AcDbLine
 10
342.7099579185994
 20
427.5678655566771
 30
0.0
 11
342.7099579185999
 21
342.5678655566772
 31
0.0
  0
LINE
  5
D73
330
2
100
AcDbEntity
  8
0
100
AcDbLine
 10
346.4099579186001
 20
342.5678655566767
 30
0.0
 11
346.4099579185997
 21
427.5678655566776
 31
0.0
  0
LINE
  5
D74
330
2
100
AcDbEntity
  8
0
100
AcDbLine
 10
349.7099579185999
 20
427.5678655566776
 30
0.0
 11
349.7099579185999
 21
342.5678655566767
 31
0.0
  0
LINE
  5
D75
330
2
100
AcDbEntity
  8
0
100
AcDbLine
 10
350.2099579186003
 20
340.0678655566765
 30
0.0
 11
350.2099579185999
 21
430.0678655566779
 31
0.0
  0
LINE
  5
D76
330
2
100
AcDbEntity
  8
0
100
AcDbLine
 10
366.709957918599
 20
452.5678655566771
 30
0.0
 11
366.7099579185999
 21
317.5678655566774
 31
0.0
  0
LINE
  5
D77
330
2
100
AcDbEntity
  8
0
100
AcDbLine
 10
366.7099579185994
 20
432.5678655566767
 30
0.0
 11
358.2099579185994
 21
432.5678655566767
 31
0.0
  0
LINE
  5
D78
330
2
100
AcDbEntity
  8
0
100
AcDbLine
 10
366.7099579185994
 20
409.6286558473904
 30
0.0
 11
358.2099579185994
 21
409.6286558473904
 31
0.0
  0
LINE
  5
D79
330
2
100
AcDbEntity
  8
0
100
AcDbLine
 10
366.7099579185994
 20
442.5678655571092
 30
0.0
 11
358.2099579185994
 21
442.5678655571092
 31
0.0
  0
LINE
  5
D7A
330
2
100
AcDbEntity
  8
0
100
AcDbLine
 10
366.7099579185994
 20
337.5678655566779
 30
0.0
 11
358.2099579185994
 21
337.5678655566778
 31
0.0
  0
LINE
  5
D7B
330
2
100
AcDbEntity
  8
0
100
AcDbLine
 10
366.7099579185994
 20
360.507075265964
 30
0.0
 11
358.2099579185994
 21
360.507075265964
 31
0.0
  0
LINE
  5
D7C
330
2
100
AcDbEntity
  8
0
100
AcDbLine
 10
366.7099579185999
 20
327.5678655562452
 30
0.0
 11
358.2099579185999
 21
327.5678655562452
 31
0.0
  0
LINE
  5
D81
330
2
100
AcDbEntity
  8
HIDS
  6
SEKKEI_H
100
AcDbLine
 10
351.6266274786301
 20
324.9852266436766
 30
0.0
 11
354.314999935407
 21
324.9628235398702
 31
0.0
  0
ARC
  5
D82
330
2
100
AcDbEntity
  8
0
100
AcDbCircle
 10
351.7099579185953
 20
334.9848794395394
 30
0.0
 40
10.0
100
AcDbArc
 50
180.0
 51
240.00000000003
  0
LINE
  5
D83
330
2
100
AcDbEntity
  8
0
100
AcDbLine
 10
341.7099579185958
 20
334.9848794395394
 30
0.0
 11
341.7099579185953
 21
435.150851673815
 31
0.0
  0
LINE
  5
D84
330
2
100
AcDbEntity
  8
HIDS
  6
SEKKEI_H
100
AcDbLine
 10
351.6266274786296
 20
445.1505044696761
 30
0.0
 11
354.3149999354048
 21
445.1729075734826
 31
0.0
  0
ARC
  5
D85
330
2
100
AcDbEntity
  8
0
100
AcDbCircle
 10
351.7099579185953
 20
435.150851673815
 30
0.0
 40
10.0
100
AcDbArc
 50
119.9999999999698
 51
180.0
  0
LINE
  5
D86
330
2
100
AcDbEntity
  8
0
100
AcDbLine
 10
205.0126874507511
 20
329.0678655571093
 30
0.0
 11
144.0349820273374
 21
329.0678655571093
 31
0.0
  0
ARC
  5
D87
330
2
100
AcDbEntity
  8
0
100
AcDbCircle
 10
205.0126874507511
 20
337.0678655571092
 30
0.0
 40
8.0
100
AcDbArc
 50
270.0
 51
315.0000000000074
  0
LINE
  5
D88
330
2
100
AcDbEntity
  8
0
100
AcDbLine
 10
205.0126874507511
 20
441.0678655571093
 30
0.0
 11
144.0349820273374
 21
441.0678655571093
 31
0.0
  0
ARC
  5
D89
330
2
100
AcDbEntity
  8
0
100
AcDbCircle
 10
144.0349820273374
 20
433.0678655571093
 30
0.0
 40
8.0
100
AcDbArc
 50
90.0
 51
135.0000000000074
  0
LINE
  5
D8A
330
2
100
AcDbEntity
  8
0
100
AcDbLine
 10
205.0126874507511
 20
447.5678655571093
 30
0.0
 11
144.0349820273374
 21
447.5678655571093
 31
0.0
  0
ARC
  5
D8B
330
2
100
AcDbEntity
  8
0
100
AcDbCircle
 10
144.0349820273374
 20
433.0678655571093
 30
0.0
 40
14.5
100
AcDbArc
 50
90.0
 51
135.0000000000074
  0
LINE
  5
D8C
330
2
100
AcDbEntity
  8
0
100
AcDbLine
 10
205.0126874507511
 20
322.5678655571092
 30
0.0
 11
144.0349820273374
 21
322.5678655571093
 31
0.0
  0
ARC
  5
D8D
330
2
100
AcDbEntity
  8
0
100
AcDbCircle
 10
205.0126874507511
 20
337.0678655571092
 30
0.0
 40
14.5
100
AcDbArc
 50
270.0
 51
315.0000000000074
  0
LINE
  5
D8E
330
2
100
AcDbEntity
  8
0
100
AcDbLine
 10
107.6338347390444
 20
327.5678655571335
 30
0.0
 11
107.6338347390444
 21
442.5678655566772
 31
0.0
  0
ARC
  5
D8F
330
2
100
AcDbEntity
  8
0
100
AcDbCircle
 10
117.6338347390444
 20
442.5678655566772
 30
0.0
 40
10.0
100
AcDbArc
 50
90.0
 51
180.0
  0
ARC
  5
D90
330
2
100
AcDbEntity
  8
0
100
AcDbCircle
 10
117.6338347390444
 20
327.5678655571335
 30
0.0
 40
10.0
100
AcDbArc
 50
180.0
 51
269.9999999972121
  0
CIRCLE
  5
D91
330
2
100
AcDbEntity
  8
0
100
AcDbCircle
 10
174.5238347390443
 20
385.0678655571093
 30
0.0
 40
36.00000000000003
  0
CIRCLE
  5
D92
330
2
100
AcDbEntity
  8
0
100
AcDbCircle
 10
174.5238347390443
 20
385.0678655571093
 30
0.0
 40
42.50000000000002
  0
CIRCLE
  5
D93
330
2
100
AcDbEntity
  8
0
100
AcDbCircle
 10
174.5238347390443
 20
385.0678655571093
 30
0.0
 40
44.50000000000048
  0
CIRCLE
  5
D94
330
2
100
AcDbEntity
  8
0
100
AcDbCircle
 10
174.5238347390443
 20
385.0678655571093
 30
0.0
 40
41.92264973081003
  0
LINE
  5
D95
330
2
100
AcDbEntity
  8
0
100
AcDbLine
 10
237.0238347390448
 20
415.556718268816
 30
0.0
 11
237.0238347390448
 21
354.5790128454026
 31
0.0
  0
ARC
  5
D96
330
2
100
AcDbEntity
  8
0
100
AcDbCircle
 10
222.5238347390448
 20
415.556718268816
 30
0.0
 40
14.5
100
AcDbArc
 50
0.0
 51
44.99999999999262
  0
LINE
  5
D97
330
2
100
AcDbEntity
  8
0
100
AcDbLine
 10
230.5238347390438
 20
415.5567182688169
 30
0.0
 11
230.5238347390438
 21
354.5790128454017
 31
0.0
  0
ARC
  5
D98
330
2
100
AcDbEntity
  8
0
100
AcDbCircle
 10
222.5238347390438
 20
415.5567182688169
 30
0.0
 40
8.0
100
AcDbArc
 50
0.0
 51
44.99999999999262
  0
LINE
  5
D99
330
2
100
AcDbEntity
  8
0
100
AcDbLine
 10
118.5238347390452
 20
415.5567182688168
 30
0.0
 11
118.5238347390452
 21
354.5790128454019
 31
0.0
  0
ARC
  5
D9A
330
2
100
AcDbEntity
  8
0
100
AcDbCircle
 10
126.5238347390452
 20
354.5790128454019
 30
0.0
 40
8.0
100
AcDbArc
 50
180.0
 51
224.9999999999926
  0
LINE
  5
D9B
330
2
100
AcDbEntity
  8
0
100
AcDbLine
 10
112.0238347390443
 20
415.556718268816
 30
0.0
 11
112.0238347390443
 21
354.5790128454027
 31
0.0
  0
LINE
  5
D9C
330
2
100
AcDbEntity
  8
0
100
AcDbLine
 10
116.2707864118394
 20
425.8097665960208
 30
0.0
 11
133.7819337001326
 21
443.3209138843142
 31
0.0
  0
ARC
  5
D9D
330
2
100
AcDbEntity
  8
0
100
AcDbCircle
 10
126.5238347390443
 20
415.556718268816
 30
0.0
 40
14.5
100
AcDbArc
 50
135.0000000000074
 51
180.0
  0
LINE
  5
D9E
330
2
100
AcDbEntity
  8
0
100
AcDbLine
 10
215.265735777956
 20
326.8148172299043
 30
0.0
 11
232.7768830662496
 21
344.3259645181977
 31
0.0
  0
ARC
  5
D9F
330
2
100
AcDbEntity
  8
0
100
AcDbCircle
 10
222.5238347390448
 20
354.5790128454026
 30
0.0
 40
14.5
100
AcDbArc
 50
315.0000000000074
 51
0.0
  0
LINE
  5
DA0
330
2
100
AcDbEntity
  8
0
100
AcDbLine
 10
210.6695417002435
 20
331.4110113076169
 30
0.0
 11
228.1806889885358
 21
348.9221585959094
 31
0.0
  0
ARC
  5
DA1
330
2
100
AcDbEntity
  8
0
100
AcDbCircle
 10
222.5238347390438
 20
354.5790128454017
 30
0.0
 40
8.0
100
AcDbArc
 50
315.0000000000074
 51
0.0
  0
LINE
  5
DA2
330
2
100
AcDbEntity
  8
0
100
AcDbLine
 10
120.8669804895528
 20
421.2135725183091
 30
0.0
 11
138.3781277778455
 21
438.7247198066017
 31
0.0
  0
ARC
  5
DA3
330
2
100
AcDbEntity
  8
0
100
AcDbCircle
 10
126.5238347390452
 20
415.5567182688168
 30
0.0
 40
8.0
100
AcDbArc
 50
135.0000000000074
 51
180.0
  0
LINE
  5
DA4
330
2
100
AcDbEntity
  8
0
100
AcDbLine
 10
133.7819337001326
 20
326.8148172299043
 30
0.0
 11
116.2707864118394
 21
344.3259645181977
 31
0.0
  0
ARC
  5
DA5
330
2
100
AcDbEntity
  8
0
100
AcDbCircle
 10
126.5238347390443
 20
354.5790128454027
 30
0.0
 40
14.5
100
AcDbArc
 50
180.0
 51
224.9999999999926
  0
ARC
  5
DA6
330
2
100
AcDbEntity
  8
0
100
AcDbCircle
 10
144.0349820273374
 20
337.0678655571093
 30
0.0
 40
14.5
100
AcDbArc
 50
224.9999999999926
 51
270.0
  0
LINE
  5
DA7
330
2
100
AcDbEntity
  8
0
100
AcDbLine
 10
232.7768830662496
 20
425.8097665960209
 30
0.0
 11
215.265735777956
 21
443.3209138843142
 31
0.0
  0
ARC
  5
DA8
330
2
100
AcDbEntity
  8
0
100
AcDbCircle
 10
205.0126874507511
 20
433.0678655571093
 30
0.0
 40
14.5
100
AcDbArc
 50
44.99999999999262
 51
90.0
  0
LINE
  5
DA9
330
2
100
AcDbEntity
  8
0
100
AcDbLine
 10
138.3781277778455
 20
331.4110113076169
 30
0.0
 11
120.8669804895528
 21
348.9221585959096
 31
0.0
  0
ARC
  5
DAA
330
2
100
AcDbEntity
  8
0
100
AcDbCircle
 10
144.0349820273374
 20
337.0678655571093
 30
0.0
 40
8.0
100
AcDbArc
 50
224.9999999999926
 51
270.0
  0
LINE
  5
DAB
330
2
100
AcDbEntity
  8
0
100
AcDbLine
 10
228.1806889885363
 20
421.2135725183093
 30
0.0
 11
210.6695417002435
 21
438.7247198066017
 31
0.0
  0
ARC
  5
DAC
330
2
100
AcDbEntity
  8
0
100
AcDbCircle
 10
205.0126874507511
 20
433.0678655571093
 30
0.0
 40
8.0
100
AcDbArc
 50
44.99999999999262
 51
90.0
  0
LINE
  5
DAD
330
2
100
AcDbEntity
  8
CENTER
100
AcDbLine
 10
242.0238347394767
 20
327.5678655571092
 30
0.0
 11
222.0238347386128
 21
327.5678655571092
 31
0.0
  0
LINE
  5
DAE
330
2
100
AcDbEntity
  8
CENTER
100
AcDbLine
 10
232.0238347390443
 20
337.5678655575412
 30
0.0
 11
232.0238347390443
 21
317.5678655566772
 31
0.0
  0
LINE
  5
DAF
330
2
100
AcDbEntity
  8
CENTER
100
AcDbLine
 10
242.0238347386123
 20
442.5678655571094
 30
0.0
 11
222.0238347394758
 21
442.5678655571094
 31
0.0
  0
LINE
  5
DB0
330
2
100
AcDbEntity
  8
CENTER
100
AcDbLine
 10
232.0238347390443
 20
432.567865557541
 30
0.0
 11
232.0238347390443
 21
452.5678655566773
 31
0.0
  0
LINE
  5
DB1
330
2
100
AcDbEntity
  8
CENTER
100
AcDbLine
 10
107.0424570786451
 20
327.5678655571092
 30
0.0
 11
127.0052123994435
 21
327.5678655571092
 31
0.0
  0
LINE
  5
DB2
330
2
100
AcDbEntity
  8
CENTER
100
AcDbLine
 10
117.0238347390447
 20
337.5492432175084
 30
0.0
 11
117.0238347390447
 21
317.5864878967102
 31
0.0
  0
LINE
  5
DB3
330
2
100
AcDbEntity
  8
CENTER
100
AcDbLine
 10
107.0190369704912
 20
442.5678655571094
 30
0.0
 11
127.0286325075983
 21
442.5678655571094
 31
0.0
  0
LINE
  5
DB4
330
2
100
AcDbEntity
  8
CENTER
100
AcDbLine
 10
117.0238347390447
 20
432.5630677885557
 30
0.0
 11
117.0238347390447
 21
452.5726633256633
 31
0.0
  0
CIRCLE
  5
DB5
330
2
100
AcDbEntity
  8
HOJO
100
AcDbCircle
 10
234.5238347390443
 20
339.0678655571092
 30
0.0
 40
2.5
  0
CIRCLE
  5
DB6
330
2
100
AcDbEntity
  8
0
100
AcDbCircle
 10
234.5238347390443
 20
339.0678655571092
 30
0.0
 40
2.0
  0
LINE
  5
DB7
330
2
100
AcDbEntity
  8
CENTER
100
AcDbLine
 10
234.5238347390443
 20
331.7018358111993
 30
0.0
 11
234.5238347390443
 21
346.4338953030189
 31
0.0
  0
LINE
  5
DB8
330
2
100
AcDbEntity
  8
CENTER
100
AcDbLine
 10
241.8898644849543
 20
339.0678655571091
 30
0.0
 11
227.1578049931347
 21
339.0678655571091
 31
0.0
  0
CIRCLE
  5
DB9
330
2
100
AcDbEntity
  8
HOJO
100
AcDbCircle
 10
114.5238347390443
 20
431.0678655571093
 30
0.0
 40
2.5
  0
CIRCLE
  5
DBA
330
2
100
AcDbEntity
  8
0
100
AcDbCircle
 10
114.5238347390443
 20
431.0678655571093
 30
0.0
 40
2.0
  0
LINE
  5
DBB
330
2
100
AcDbEntity
  8
CENTER
100
AcDbLine
 10
114.5238347390443
 20
437.9578655571093
 30
0.0
 11
114.5238347390443
 21
424.1778655571093
 31
0.0
  0
LINE
  5
DBC
330
2
100
AcDbEntity
  8
CENTER
100
AcDbLine
 10
107.6338347390444
 20
431.0678655571094
 30
0.0
 11
121.4138347390446
 21
431.0678655571094
 31
0.0
  0
LINE
  5
DBD
330
2
100
AcDbEntity
  8
CENTER
100
AcDbLine
 10
103.8836534749468
 20
314.4276842930119
 30
0.0
 11
245.1640160031418
 21
455.708046821207
 31
0.0
  0
LINE
  5
DBE
330
2
100
AcDbEntity
  8
CENTER
100
AcDbLine
 10
245.1640160035742
 20
314.4276842925796
 30
0.0
 11
103.8836534753793
 21
455.7080468207749
 31
0.0
  0
LINE
  5
DBF
330
2
100
AcDbEntity
  8
0
100
AcDbLine
 10
138.486072258044
 20
323.6716123356957
 30
0.0
 11
140.9735145684169
 21
329.6768292970191
 31
0.0
  0
LINE
  5
DC0
330
2
100
AcDbEntity
  8
0
100
AcDbLine
 10
113.1275815176306
 20
349.0301030761089
 30
0.0
 11
119.1327984789547
 21
351.5175453864813
 31
0.0
  0
LINE
  5
DC1
330
2
100
AcDbEntity
  8
0
100
AcDbLine
 10
235.9200879595939
 20
349.0301030761089
 30
0.0
 11
229.9148709982703
 21
351.5175453864819
 31
0.0
  0
LINE
  5
DC2
330
2
100
AcDbEntity
  8
0
100
AcDbLine
 10
210.5615972191805
 20
323.6716123356957
 30
0.0
 11
208.0741549088081
 21
329.6768292970198
 31
0.0
  0
LINE
  5
DC3
330
2
100
AcDbEntity
  8
0
100
AcDbLine
 10
210.5615972191805
 20
446.4641187776589
 30
0.0
 11
208.0741549088076
 21
440.4589018163355
 31
0.0
  0
LINE
  5
DC4
330
2
100
AcDbEntity
  8
0
100
AcDbLine
 10
235.9200879595939
 20
421.1056280372456
 30
0.0
 11
229.9148709982698
 21
418.6181857268733
 31
0.0
  0
LINE
  5
DC5
330
2
100
AcDbEntity
  8
0
100
AcDbLine
 10
113.1275815176306
 20
421.1056280372457
 30
0.0
 11
119.1327984789538
 21
418.6181857268726
 31
0.0
  0
LINE
  5
DC6
330
2
100
AcDbEntity
  8
0
100
AcDbLine
 10
138.486072258044
 20
446.464118777659
 30
0.0
 11
140.9735145684164
 21
440.4589018163348
 31
0.0
  0
LINE
  5
DC7
330
2
100
AcDbEntity
  8
CENTER
 48
0.2
100
AcDbLine
 10
174.5238347390443
 20
332.099457612758
 30
0.0
 11
174.5238347390443
 21
338.0362735005963
 31
0.0
  0
CIRCLE
  5
DC8
330
2
100
AcDbEntity
  8
0
100
AcDbCircle
 10
174.5238347390443
 20
385.0678655571095
 30
0.0
 40
36.57735026918982
  0
CIRCLE
  5
DC9
330
2
100
AcDbEntity
  8
0
100
AcDbCircle
 10
174.5238347386123
 20
385.0678655566773
 30
0.0
 40
44.99999999956847
  0
ARC
  5
DCA
330
2
100
AcDbEntity
  8
0
100
AcDbCircle
 10
174.5238347386123
 20
657.5678655566774
 30
0.0
 40
340.0
100
AcDbArc
 50
265.8574811972686
 51
274.1425188027313
  0
ARC
  5
DCB
330
2
100
AcDbEntity
  8
0
100
AcDbCircle
 10
232.0238347386114
 20
327.5678655566772
 30
0.0
 40
10.0
100
AcDbArc
 50
270.0
 51
0.0
  0
LINE
  5
DCC
330
2
100
AcDbEntity
  8
0
100
AcDbLine
 10
232.0238347386114
 20
317.5678655566772
 30
0.0
 11
222.0238347386114
 21
317.5678655566772
 31
0.0
  0
ARC
  5
DCD
330
2
100
AcDbEntity
  8
0
100
AcDbCircle
 10
206.3083868795349
 20
218.7173873238274
 30
0.0
 40
100.0
100
AcDbArc
 50
81.63298947741269
 51
94.14251880273134
  0
LINE
  5
DCE
330
2
100
AcDbEntity
  8
0
100
AcDbLine
 10
242.0238347386123
 20
327.5678655566774
 30
0.0
 11
242.0238347386123
 21
337.5678655566774
 31
0.0
  0
ARC
  5
DCF
330
2
100
AcDbEntity
  8
0
100
AcDbCircle
 10
234.0238347386123
 20
337.5678655566774
 30
0.0
 40
8.0
100
AcDbArc
 50
0.0
 51
8.367010522602235
  0
ARC
  5
DD0
330
2
100
AcDbEntity
  8
0
100
AcDbCircle
 10
340.8743129714623
 20
353.2833134157539
 30
0.0
 40
100.0
100
AcDbArc
 50
175.8574811972766
 51
188.3670105226022
  0
ARC
  5
DD1
330
2
100
AcDbEntity
  8
0
100
AcDbCircle
 10
127.0238347386123
 20
325.5678655566772
 30
0.0
 40
8.0
100
AcDbArc
 50
270.0
 51
278.3670105225872
  0
ARC
  5
DD2
330
2
100
AcDbEntity
  8
0
100
AcDbCircle
 10
142.7392825976887
 20
218.7173873238274
 30
0.0
 40
100.0
100
AcDbArc
 50
85.85748119726863
 51
98.3670105225873
  0
LINE
  5
DD3
330
2
100
AcDbEntity
  8
0
100
AcDbLine
 10
117.6338347385583
 20
317.5678655571335
 30
0.0
 11
127.0238347386123
 21
317.5678655566772
 31
0.0
  0
ARC
  5
DD4
330
2
100
AcDbEntity
  8
0
100
AcDbCircle
 10
232.0238347386114
 20
442.5678655566772
 30
0.0
 40
10.0
100
AcDbArc
 50
0.0
 51
90.0
  0
LINE
  5
DD5
330
2
100
AcDbEntity
  8
0
100
AcDbLine
 10
232.0238347386114
 20
452.5678655566773
 30
0.0
 11
222.0238347386114
 21
452.5678655566773
 31
0.0
  0
ARC
  5
DD6
330
2
100
AcDbEntity
  8
0
100
AcDbCircle
 10
222.0238347386114
 20
444.5678655566773
 30
0.0
 40
8.0
100
AcDbArc
 50
90.0
 51
98.3670105225873
  0
ARC
  5
DD7
330
2
100
AcDbEntity
  8
0
100
AcDbCircle
 10
206.3083868795349
 20
551.4183437895269
 30
0.0
 40
100.0
100
AcDbArc
 50
265.8574811972686
 51
278.3670105225872
  0
LINE
  5
DD8
330
2
100
AcDbEntity
  8
0
100
AcDbLine
 10
242.0238347386123
 20
442.5678655566768
 30
0.0
 11
242.0238347386123
 21
432.5678655566768
 31
0.0
  0
ARC
  5
DD9
330
2
100
AcDbEntity
  8
0
100
AcDbCircle
 10
234.0238347386123
 20
432.5678655566768
 30
0.0
 40
8.0
100
AcDbArc
 50
351.6329894774042
 51
0.0
  0
ARC
  5
DDA
330
2
100
AcDbEntity
  8
0
100
AcDbCircle
 10
340.8743129714623
 20
416.8524176976004
 30
0.0
 40
100.0
100
AcDbArc
 50
171.6329894773977
 51
184.1425188027296
  0
ARC
  5
DDB
330
2
100
AcDbEntity
  8
0
100
AcDbCircle
 10
127.0238347386123
 20
444.5678655566773
 30
0.0
 40
8.0
100
AcDbArc
 50
81.63298947741269
 51
90.0
  0
ARC
  5
DDC
330
2
100
AcDbEntity
  8
0
100
AcDbCircle
 10
142.7392825976887
 20
551.4183437895269
 30
0.0
 40
100.0
100
AcDbArc
 50
261.6329894774127
 51
274.1425188027313
  0
LINE
  5
DDD
330
2
100
AcDbEntity
  8
0
100
AcDbLine
 10
117.6338347390444
 20
452.5678655566773
 30
0.0
 11
127.0238347386123
 21
452.5678655566773
 31
0.0
  0
ARC
  5
DDE
330
2
100
AcDbEntity
  8
0
100
AcDbCircle
 10
174.5238347386123
 20
112.5678655566773
 30
0.0
 40
340.0
100
AcDbArc
 50
85.85748119726863
 51
94.14251880273134
  0
ARC
  5
DDF
330
2
100
AcDbEntity
  8
0
100
AcDbCircle
 10
-97.97616526138767
 20
385.0678655566773
 30
0.0
 40
340.0
100
AcDbArc
 50
355.8574811972766
 51
4.142518802716627
  0
ARC
  5
DE0
330
2
100
AcDbEntity
  8
0
100
AcDbCircle
 10
222.0238347386123
 20
325.5678655566772
 30
0.0
 40
8.0
100
AcDbArc
 50
261.63298947736
 51
270.0
  0
LINE
  5
DE1
330
2
100
AcDbEntity
  8
0
100
AcDbLine
 10
117.333638546049
 20
317.5678655566773
 30
0.0
 11
117.6338347385583
 21
317.5678655571335
 31
0.0
  0
LINE
  5
DE2
330
2
100
AcDbEntity
  8
0
100
AcDbLine
 10
117.333638546049
 20
452.5678655566775
 30
0.0
 11
117.6338347390444
 21
452.5678655566773
 31
0.0
  0
LINE
  5
DE3
330
2
100
AcDbEntity
  8
0
100
AcDbLine
 10
846.4147263073476
 20
848.5503656674078
 30
0.0
 11
846.4846935603166
 21
840.532912596411
 31
0.0
  0
ARC
  5
DE4
330
2
100
AcDbEntity
  8
0
100
AcDbCircle
 10
844.4148024612193
 20
848.5329125964108
 30
0.0
 40
2.0
100
AcDbArc
 50
0.499999999998063
 51
90.0
  0
LINE
  5
DE5
330
2
100
AcDbEntity
  8
0
100
AcDbLine
 10
779.5946935603167
 20
865.532912596406
 30
0.0
 11
821.517343291129
 21
865.5329125964058
 31
0.0
  0
ARC
  5
DE6
330
2
100
AcDbEntity
  8
0
 48
0.5
100
AcDbCircle
 10
821.7946935603166
 20
863.3329125964102
 30
0.0
 40
0.3
100
AcDbArc
 50
270.0
 51
0.0000000000065138
  0
ARC
  5
DE7
330
2
100
AcDbEntity
  8
0
100
AcDbCircle
 10
821.6946935603166
 20
862.7329125964104
 30
0.0
 40
0.3
100
AcDbArc
 50
90.0
 51
180.0000000000065
  0
LINE
  5
DE8
330
2
100
AcDbEntity
  8
0
100
AcDbLine
 10
824.0946935603167
 20
857.5329125964103
 30
0.0
 11
822.0946935603167
 21
857.5329125964103
 31
0.0
  0
LINE
  5
DE9
330
2
100
AcDbEntity
  8
0
 48
0.5
100
AcDbLine
 10
822.0946935603167
 20
860.8329125964102
 30
0.0
 11
822.0946935603167
 21
857.5329125964103
 31
0.0
  0
LINE
  5
DEA
330
2
100
AcDbEntity
  8
0
 48
0.5
100
AcDbLine
 10
821.394693560317
 20
862.7329125964104
 30
0.0
 11
821.394693560317
 21
861.3329125964103
 31
0.0
  0
LINE
  5
DEB
330
2
100
AcDbEntity
  8
0
 48
0.5
100
AcDbLine
 10
821.8946935603169
 20
861.0329125964103
 30
0.0
 11
822.0946935603167
 21
860.8329125964102
 31
0.0
  0
LINE
  5
DEC
330
2
100
AcDbEntity
  8
0
100
AcDbLine
 10
821.8946935603169
 20
861.0329125964103
 30
0.0
 11
737.2946935603165
 21
861.0329125964097
 31
0.0
  0
ARC
  5
DED
330
2
100
AcDbEntity
  8
0
100
AcDbCircle
 10
821.6946935603171
 20
861.3329125964103
 30
0.0
 40
0.3
100
AcDbArc
 50
180.0
 51
270.0
  0
ARC
  5
DEE
330
2
100
AcDbEntity
  8
HIDS
  6
SEKKEI_H
100
AcDbCircle
 10
834.7662664355695
 20
855.0329125964157
 30
0.0
 40
2.0
100
AcDbArc
 50
44.99999999999241
 51
90.0
  0
ARC
  5
DEF
330
2
100
AcDbEntity
  8
HIDS
  6
SEKKEI_H
100
AcDbCircle
 10
842.9231206850628
 20
852.5329125964111
 30
0.0
 40
2.0
100
AcDbArc
 50
224.9999999999924
 51
270.0
  0
LINE
  5
DF0
330
2
100
AcDbEntity
  8
HIDS
  6
SEKKEI_H
100
AcDbLine
 10
841.5089071226899
 20
851.1186990340378
 30
0.0
 11
836.1804799979402
 21
856.4471261587867
 31
0.0
  0
LINE
  5
DF1
330
2
100
AcDbEntity
  8
0
 48
0.5
100
AcDbLine
 10
824.5946935603168
 20
857.0329125964105
 30
0.0
 11
824.0946935603167
 21
857.5329125964103
 31
0.0
  0
LINE
  5
DF2
330
2
100
AcDbEntity
  8
0
100
AcDbLine
 10
830.5946935603166
 20
857.0329125964107
 30
0.0
 11
824.5946935603171
 21
857.0329125964102
 31
0.0
  0
LINE
  5
DF3
330
2
100
AcDbEntity
  8
0
100
AcDbLine
 10
822.0946935603167
 20
864.5329125964103
 30
0.0
 11
821.5173432911267
 21
865.5329125964103
 31
0.0
  0
LINE
  5
DF4
330
2
100
AcDbEntity
  8
0
 48
0.5
100
AcDbLine
 10
822.0946935603167
 20
864.5329125964103
 30
0.0
 11
822.0946935603167
 21
863.3329125964102
 31
0.0
  0
LINE
  5
DF5
330
2
100
AcDbEntity
  8
0
100
AcDbLine
 10
821.7946935603166
 20
863.0329125964104
 30
0.0
 11
737.3946935603164
 21
863.0329125964097
 31
0.0
  0
LINE
  5
DF6
330
2
100
AcDbEntity
  8
0
100
AcDbLine
 10
779.5946935603167
 20
865.532912596406
 30
0.0
 11
737.6720438295039
 21
865.5329125964051
 31
0.0
  0
LINE
  5
DF7
330
2
100
AcDbEntity
  8
0
 48
0.5
100
AcDbLine
 10
712.1646608132857
 20
848.5503656674065
 30
0.0
 11
712.0946935603167
 21
840.5329125964099
 31
0.0
  0
LINE
  5
DF8
330
2
100
AcDbEntity
  8
0
100
AcDbLine
 10
714.1645846594144
 20
850.5329125964099
 30
0.0
 11
844.4148024612193
 21
850.5329125964108
 31
0.0
  0
ARC
  5
DF9
330
2
100
AcDbEntity
  8
0
100
AcDbCircle
 10
714.1645846594144
 20
848.5329125964099
 30
0.0
 40
2.0
100
AcDbArc
 50
90.0
 51
179.4999999999954
  0
ARC
  5
DFA
330
2
100
AcDbEntity
  8
0
 48
0.5
100
AcDbCircle
 10
737.3946935603164
 20
863.3329125964095
 30
0.0
 40
0.3
100
AcDbArc
 50
179.9999999999934
 51
270.0
  0
ARC
  5
DFB
330
2
100
AcDbEntity
  8
0
100
AcDbCircle
 10
737.4946935603163
 20
862.7329125964097
 30
0.0
 40
0.3
100
AcDbArc
 50
359.9999999999934
 51
90.0
  0
LINE
  5
DFC
330
2
100
AcDbEntity
  8
0
100
AcDbLine
 10
735.0946935603162
 20
857.5329125964097
 30
0.0
 11
737.0946935603162
 21
857.5329125964097
 31
0.0
  0
LINE
  5
DFD
330
2
100
AcDbEntity
  8
0
 48
0.5
100
AcDbLine
 10
737.0946935603158
 20
860.8329125964097
 30
0.0
 11
737.0946935603162
 21
857.5329125964097
 31
0.0
  0
LINE
  5
DFE
330
2
100
AcDbEntity
  8
0
 48
0.5
100
AcDbLine
 10
737.7946935603165
 20
862.7329125964097
 30
0.0
 11
737.7946935603165
 21
861.3329125964096
 31
0.0
  0
LINE
  5
DFF
330
2
100
AcDbEntity
  8
0
 48
0.5
100
AcDbLine
 10
737.2946935603165
 20
861.0329125964097
 30
0.0
 11
737.0946935603158
 21
860.8329125964097
 31
0.0
  0
ARC
  5
E00
330
2
100
AcDbEntity
  8
0
100
AcDbCircle
 10
737.4946935603163
 20
861.3329125964096
 30
0.0
 40
0.3
100
AcDbArc
 50
270.0
 51
0.0
  0
ARC
  5
E01
330
2
100
AcDbEntity
  8
HIDS
  6
SEKKEI_H
100
AcDbCircle
 10
724.4231206850634
 20
855.0329125964148
 30
0.0
 40
2.0
100
AcDbArc
 50
90.0
 51
135.0000000000075
  0
ARC
  5
E02
330
2
100
AcDbEntity
  8
HIDS
  6
SEKKEI_H
100
AcDbCircle
 10
716.26626643557
 20
852.5329125964098
 30
0.0
 40
2.0
100
AcDbArc
 50
270.0
 51
315.0000000000075
  0
LINE
  5
E03
330
2
100
AcDbEntity
  8
HIDS
  6
SEKKEI_H
100
AcDbLine
 10
717.6804799979434
 20
851.1186990340368
 30
0.0
 11
723.0089071226927
 21
856.4471261587858
 31
0.0
  0
LINE
  5
E04
330
2
100
AcDbEntity
  8
0
 48
0.5
100
AcDbLine
 10
734.5946935603162
 20
857.0329125964098
 30
0.0
 11
735.0946935603162
 21
857.5329125964097
 31
0.0
  0
LINE
  5
E05
330
2
100
AcDbEntity
  8
0
100
AcDbLine
 10
728.5946935603167
 20
857.0329125964098
 30
0.0
 11
734.5946935603158
 21
857.0329125964095
 31
0.0
  0
LINE
  5
E06
330
2
100
AcDbEntity
  8
0
100
AcDbLine
 10
737.0946935603167
 20
864.5329125964096
 30
0.0
 11
737.6720438295067
 21
865.5329125964097
 31
0.0
  0
LINE
  5
E07
330
2
100
AcDbEntity
  8
0
 48
0.5
100
AcDbLine
 10
737.0946935603167
 20
864.5329125964096
 30
0.0
 11
737.0946935603167
 21
863.3329125964095
 31
0.0
  0
LINE
  5
E08
330
2
100
AcDbEntity
  8
0
100
AcDbLine
 10
822.0946935603167
 20
864.5329125964103
 30
0.0
 11
737.0946935603167
 21
864.5329125964096
 31
0.0
  0
LINE
  5
E09
330
2
100
AcDbEntity
  8
0
100
AcDbLine
 10
737.0946935603158
 20
860.8329125964097
 30
0.0
 11
822.0946935603167
 21
860.8329125964102
 31
0.0
  0
LINE
  5
E0A
330
2
100
AcDbEntity
  8
0
100
AcDbLine
 10
822.0946935603167
 20
857.5329125964103
 30
0.0
 11
737.0946935603162
 21
857.5329125964097
 31
0.0
  0
LINE
  5
E0B
330
2
100
AcDbEntity
  8
0
100
AcDbLine
 10
734.5946935603158
 20
857.0329125964095
 30
0.0
 11
824.5946935603171
 21
857.0329125964102
 31
0.0
  0
LINE
  5
E0C
330
2
100
AcDbEntity
  8
0
100
AcDbLine
 10
846.4846935603166
 20
840.532912596411
 30
0.0
 11
712.0946935603167
 21
840.5329125964099
 31
0.0
  0
LINE
  5
E0D
330
2
100
AcDbEntity
  8
0
100
AcDbLine
 10
827.0946935603163
 20
840.5329125964131
 30
0.0
 11
827.0946935603157
 21
849.0329125964107
 31
0.0
  0
LINE
  5
E0E
330
2
100
AcDbEntity
  8
0
100
AcDbLine
 10
804.1554838510299
 20
840.5329125964119
 30
0.0
 11
804.1554838510299
 21
849.0329125964105
 31
0.0
  0
LINE
  5
E0F
330
2
100
AcDbEntity
  8
0
100
AcDbLine
 10
837.0946935607488
 20
840.5329125964138
 30
0.0
 11
837.0946935607488
 21
849.0329125964107
 31
0.0
  0
LINE
  5
E10
330
2
100
AcDbEntity
  8
0
100
AcDbLine
 10
732.0946935603172
 20
840.5329125964076
 30
0.0
 11
732.0946935603172
 21
849.0329125964098
 31
0.0
  0
LINE
  5
E11
330
2
100
AcDbEntity
  8
0
100
AcDbLine
 10
755.0339032696036
 20
840.532912596409
 30
0.0
 11
755.0339032696036
 21
849.0329125964102
 31
0.0
  0
LINE
  5
E12
330
2
100
AcDbEntity
  8
0
100
AcDbLine
 10
722.0946935598846
 20
840.5329125964071
 30
0.0
 11
722.0946935598846
 21
849.0329125964098
 31
0.0
  0
LINE
  5
E1F
330
2
100
AcDbEntity
  8
0
 48
0.3
100
AcDbLine
 10
347.2099579185994
 20
334.0678655566772
 30
0.0
 11
347.2099579185999
 21
321.0678655566773
 31
0.0
  0
LINE
  5
E20
330
2
100
AcDbEntity
  8
0
 48
0.3
100
AcDbLine
 10
346.7099579185994
 20
333.2018401528914
 30
0.0
 11
346.7099579185999
 21
321.9338909604618
 31
0.0
  0
LINE
  5
E21
330
2
100
AcDbEntity
  8
CENTER
 48
0.5
100
AcDbLine
 10
343.7099579185999
 20
327.5678655566772
 30
0.0
 11
362.7099579185999
 21
327.5678655566772
 31
0.0
  0
LINE
  5
E22
330
2
100
AcDbEntity
  8
0
 48
0.3
100
AcDbLine
 10
347.2099579185999
 20
321.0678655566773
 30
0.0
 11
346.7099579185999
 21
321.9338909604618
 31
0.0
  0
LINE
  5
E23
330
2
100
AcDbEntity
  8
0
 48
0.3
100
AcDbLine
 10
347.2099579185999
 20
321.0678655566773
 30
0.0
 11
354.7099579185999
 21
321.0678655566773
 31
0.0
  0
LINE
  5
E24
330
2
100
AcDbEntity
  8
0
 48
0.3
100
AcDbLine
 10
347.2099579186003
 20
334.0678655566768
 30
0.0
 11
346.7099579186003
 21
333.2018401528925
 31
0.0
  0
LINE
  5
E25
330
2
100
AcDbEntity
  8
0
 48
0.3
100
AcDbLine
 10
347.2099579186003
 20
334.0678655566772
 30
0.0
 11
354.7099579185994
 21
334.0678655566772
 31
0.0
  0
LINE
  5
E26
330
2
100
AcDbEntity
  8
0
 48
0.3
100
AcDbLine
 10
347.2099579185994
 20
449.0678655566773
 30
0.0
 11
347.2099579185994
 21
436.0678655566773
 31
0.0
  0
LINE
  5
E27
330
2
100
AcDbEntity
  8
0
 48
0.3
100
AcDbLine
 10
346.7099579185994
 20
448.2018401528914
 30
0.0
 11
346.7099579185994
 21
436.9338909604618
 31
0.0
  0
LINE
  5
E28
330
2
100
AcDbEntity
  8
CENTER
 48
0.5
100
AcDbLine
 10
343.7099579185994
 20
442.5678655566772
 30
0.0
 11
362.7099579185994
 21
442.5678655566772
 31
0.0
  0
LINE
  5
E29
330
2
100
AcDbEntity
  8
0
 48
0.3
100
AcDbLine
 10
347.2099579185994
 20
436.0678655566773
 30
0.0
 11
346.7099579185994
 21
436.9338909604618
 31
0.0
  0
LINE
  5
E2A
330
2
100
AcDbEntity
  8
0
 48
0.3
100
AcDbLine
 10
347.2099579185994
 20
436.0678655566773
 30
0.0
 11
354.7099579185994
 21
436.0678655566773
 31
0.0
  0
LINE
  5
E2B
330
2
100
AcDbEntity
  8
0
 48
0.3
100
AcDbLine
 10
347.2099579185999
 20
449.0678655566768
 30
0.0
 11
346.7099579185999
 21
448.2018401528925
 31
0.0
  0
LINE
  5
E2C
330
2
100
AcDbEntity
  8
0
 48
0.3
100
AcDbLine
 10
347.2099579186003
 20
449.0678655566773
 30
0.0
 11
354.7099579185994
 21
449.0678655566773
 31
0.0
  0
LINE
  5
E2D
330
2
100
AcDbEntity
  8
0
 48
0.3
100
AcDbLine
 10
728.5946935603167
 20
860.0329125964101
 30
0.0
 11
715.5946935603167
 21
860.0329125964099
 31
0.0
  0
LINE
  5
E2E
330
2
100
AcDbEntity
  8
0
 48
0.3
100
AcDbLine
 10
727.7286681565308
 20
860.5329125964102
 30
0.0
 11
716.4607189641012
 21
860.5329125964098
 31
0.0
  0
LINE
  5
E2F
330
2
100
AcDbEntity
  8
CENTER
 48
0.5
100
AcDbLine
 10
722.0946935603167
 20
863.53291259641
 30
0.0
 11
722.0946935603167
 21
844.5329125964098
 31
0.0
  0
LINE
  5
E30
330
2
100
AcDbEntity
  8
0
 48
0.3
100
AcDbLine
 10
715.5946935603167
 20
860.0329125964099
 30
0.0
 11
716.4607189641012
 21
860.5329125964098
 31
0.0
  0
LINE
  5
E31
330
2
100
AcDbEntity
  8
0
 48
0.3
100
AcDbLine
 10
715.5946935603167
 20
860.0329125964099
 30
0.0
 11
715.5946935603167
 21
852.5329125964098
 31
0.0
  0
LINE
  5
E32
330
2
100
AcDbEntity
  8
0
 48
0.3
100
AcDbLine
 10
728.5946935603162
 20
860.0329125964094
 30
0.0
 11
727.7286681565317
 21
860.5329125964095
 31
0.0
  0
LINE
  5
E33
330
2
100
AcDbEntity
  8
0
 48
0.3
100
AcDbLine
 10
728.5946935603167
 20
860.0329125964092
 30
0.0
 11
728.5946935603167
 21
852.5329125964102
 31
0.0
  0
LINE
  5
E34
330
2
100
AcDbEntity
  8
0
 48
0.3
100
AcDbLine
 10
843.5946935603167
 20
860.0329125964108
 30
0.0
 11
830.5946935603166
 21
860.0329125964107
 31
0.0
  0
LINE
  5
E35
330
2
100
AcDbEntity
  8
0
 48
0.3
100
AcDbLine
 10
842.7286681565307
 20
860.5329125964107
 30
0.0
 11
831.4607189641012
 21
860.5329125964106
 31
0.0
  0
LINE
  5
E36
330
2
100
AcDbEntity
  8
CENTER
 48
0.5
100
AcDbLine
 10
837.0946935603168
 20
863.5329125964108
 30
0.0
 11
837.0946935603168
 21
844.5329125964107
 31
0.0
  0
LINE
  5
E37
330
2
100
AcDbEntity
  8
0
 48
0.3
100
AcDbLine
 10
830.5946935603166
 20
860.0329125964107
 30
0.0
 11
831.4607189641012
 21
860.5329125964106
 31
0.0
  0
LINE
  5
E38
330
2
100
AcDbEntity
  8
0
 48
0.3
100
AcDbLine
 10
830.5946935603166
 20
860.0329125964107
 30
0.0
 11
830.5946935603166
 21
852.5329125964105
 31
0.0
  0
LINE
  5
E39
330
2
100
AcDbEntity
  8
0
 48
0.3
100
AcDbLine
 10
843.5946935603162
 20
860.0329125964101
 30
0.0
 11
842.7286681565316
 21
860.5329125964104
 31
0.0
  0
LINE
  5
E3A
330
2
100
AcDbEntity
  8
0
 48
0.3
100
AcDbLine
 10
843.5946935603167
 20
860.0329125964099
 30
0.0
 11
843.5946935603167
 21
852.5329125964107
 31
0.0
  0
LINE
  5
E3B
330
2
100
AcDbEntity
  8
0
100
AcDbLine
 10
232.0238347390443
 20
439.1037639419717
 30
0.0
 11
235.0238347390438
 21
440.8358147495406
 31
0.0
  0
LINE
  5
E3C
330
2
100
AcDbEntity
  8
0
100
AcDbLine
 10
229.0238347390443
 20
444.2999163646782
 30
0.0
 11
232.0238347390443
 21
446.0319671722472
 31
0.0
  0
CIRCLE
  5
E3D
330
2
100
AcDbEntity
  8
0
100
AcDbCircle
 10
232.0238347390443
 20
442.5678655571094
 30
0.0
 40
6.5
  0
LINE
  5
E3E
330
2
100
AcDbEntity
  8
0
100
AcDbLine
 10
235.0238347390438
 20
444.2999163646782
 30
0.0
 11
232.0238347390443
 21
446.0319671722471
 31
0.0
  0
LINE
  5
E3F
330
2
100
AcDbEntity
  8
0
100
AcDbLine
 10
232.0238347390443
 20
439.1037639419718
 30
0.0
 11
229.0238347390443
 21
440.8358147495405
 31
0.0
  0
LINE
  5
E40
330
2
100
AcDbEntity
  8
0
100
AcDbLine
 10
235.0238347390438
 20
440.8358147495408
 30
0.0
 11
235.0238347390438
 21
444.2999163646783
 31
0.0
  0
LINE
  5
E41
330
2
100
AcDbEntity
  8
0
100
AcDbLine
 10
229.0238347390443
 20
440.8358147495404
 30
0.0
 11
229.0238347390443
 21
444.2999163646782
 31
0.0
  0
CIRCLE
  5
E42
330
2
100
AcDbEntity
  8
0
100
AcDbCircle
 10
232.0238347390443
 20
442.5678655571094
 30
0.0
 40
5.633974596215466
  0
LINE
  5
E43
330
2
100
AcDbEntity
  8
0
100
AcDbLine
 10
117.0238347390447
 20
439.1037639419717
 30
0.0
 11
120.0238347390447
 21
440.8358147495406
 31
0.0
  0
LINE
  5
E44
330
2
100
AcDbEntity
  8
0
100
AcDbLine
 10
114.0238347390447
 20
444.2999163646782
 30
0.0
 11
117.0238347390447
 21
446.0319671722472
 31
0.0
  0
CIRCLE
  5
E45
330
2
100
AcDbEntity
  8
0
100
AcDbCircle
 10
117.0238347390447
 20
442.5678655571094
 30
0.0
 40
6.5
  0
LINE
  5
E46
330
2
100
AcDbEntity
  8
0
100
AcDbLine
 10
120.0238347390447
 20
444.2999163646782
 30
0.0
 11
117.0238347390447
 21
446.0319671722471
 31
0.0
  0
LINE
  5
E47
330
2
100
AcDbEntity
  8
0
100
AcDbLine
 10
117.0238347390447
 20
439.1037639419718
 30
0.0
 11
114.0238347390447
 21
440.8358147495405
 31
0.0
  0
LINE
  5
E48
330
2
100
AcDbEntity
  8
0
100
AcDbLine
 10
120.0238347390447
 20
440.8358147495408
 30
0.0
 11
120.0238347390447
 21
444.2999163646783
 31
0.0
  0
LINE
  5
E49
330
2
100
AcDbEntity
  8
0
100
AcDbLine
 10
114.0238347390447
 20
440.8358147495404
 30
0.0
 11
114.0238347390447
 21
444.2999163646782
 31
0.0
  0
CIRCLE
  5
E4A
330
2
100
AcDbEntity
  8
0
100
AcDbCircle
 10
117.0238347390447
 20
442.5678655571094
 30
0.0
 40
5.633974596215466
  0
LINE
  5
E4B
330
2
100
AcDbEntity
  8
0
100
AcDbLine
 10
117.0238347390447
 20
324.1037639419715
 30
0.0
 11
120.0238347390447
 21
325.8358147495405
 31
0.0
  0
LINE
  5
E4C
330
2
100
AcDbEntity
  8
0
100
AcDbLine
 10
114.0238347390447
 20
329.2999163646781
 30
0.0
 11
117.0238347390447
 21
331.031967172247
 31
0.0
  0
CIRCLE
  5
E4D
330
2
100
AcDbEntity
  8
0
100
AcDbCircle
 10
117.0238347390447
 20
327.5678655571092
 30
0.0
 40
6.5
  0
LINE
  5
E4E
330
2
100
AcDbEntity
  8
0
100
AcDbLine
 10
120.0238347390447
 20
329.2999163646781
 30
0.0
 11
117.0238347390447
 21
331.0319671722469
 31
0.0
  0
LINE
  5
E4F
330
2
100
AcDbEntity
  8
0
100
AcDbLine
 10
117.0238347390447
 20
324.1037639419717
 30
0.0
 11
114.0238347390447
 21
325.8358147495404
 31
0.0
  0
LINE
  5
E50
330
2
100
AcDbEntity
  8
0
100
AcDbLine
 10
120.0238347390447
 20
325.8358147495406
 30
0.0
 11
120.0238347390447
 21
329.2999163646782
 31
0.0
  0
LINE
  5
E51
330
2
100
AcDbEntity
  8
0
100
AcDbLine
 10
114.0238347390447
 20
325.8358147495403
 30
0.0
 11
114.0238347390447
 21
329.2999163646781
 31
0.0
  0
CIRCLE
  5
E52
330
2
100
AcDbEntity
  8
0
100
AcDbCircle
 10
117.0238347390447
 20
327.5678655571092
 30
0.0
 40
5.633974596215466
  0
LINE
  5
E53
330
2
100
AcDbEntity
  8
0
100
AcDbLine
 10
232.0238347390443
 20
324.1037639419715
 30
0.0
 11
235.0238347390438
 21
325.8358147495405
 31
0.0
  0
LINE
  5
E54
330
2
100
AcDbEntity
  8
0
100
AcDbLine
 10
229.0238347390443
 20
329.2999163646781
 30
0.0
 11
232.0238347390443
 21
331.031967172247
 31
0.0
  0
CIRCLE
  5
E55
330
2
100
AcDbEntity
  8
0
100
AcDbCircle
 10
232.0238347390443
 20
327.5678655571092
 30
0.0
 40
6.5
  0
LINE
  5
E56
330
2
100
AcDbEntity
  8
0
100
AcDbLine
 10
235.0238347390438
 20
329.2999163646781
 30
0.0
 11
232.0238347390443
 21
331.0319671722469
 31
0.0
  0
LINE
  5
E57
330
2
100
AcDbEntity
  8
0
100
AcDbLine
 10
232.0238347390443
 20
324.1037639419717
 30
0.0
 11
229.0238347390443
 21
325.8358147495404
 31
0.0
  0
LINE
  5
E58
330
2
100
AcDbEntity
  8
0
100
AcDbLine
 10
235.0238347390438
 20
325.8358147495406
 30
0.0
 11
235.0238347390438
 21
329.2999163646782
 31
0.0
  0
LINE
  5
E59
330
2
100
AcDbEntity
  8
0
100
AcDbLine
 10
229.0238347390443
 20
325.8358147495403
 30
0.0
 11
229.0238347390443
 21
329.2999163646781
 31
0.0
  0
CIRCLE
  5
E5A
330
2
100
AcDbEntity
  8
0
100
AcDbCircle
 10
232.0238347390443
 20
327.5678655571092
 30
0.0
 40
5.633974596215466
  0
LINE
  5
E5B
330
2
100
AcDbEntity
  8
HIDS
  6
SEKKEI_H
100
AcDbLine
 10
350.2099579185944
 20
440.23943843193
 30
0.0
 11
350.2099579185994
 21
436.0678655566773
 31
0.0
  0
LINE
  5
E5C
330
2
100
AcDbEntity
  8
HIDS
  6
SEKKEI_H
100
AcDbLine
 10
350.2099579185949
 20
329.8962926814245
 30
0.0
 11
350.2099579185999
 21
334.0678655566772
 31
0.0
  0
ARC
  5
E5D
330
2
100
AcDbEntity
  8
HIDS
  6
SEKKEI_H
100
AcDbCircle
 10
351.7099579185953
 20
435.150851673815
 30
0.0
 40
10.00000000000001
100
AcDbArc
 50
90.47745377731077
 51
119.9999999999698
  0
ARC
  5
E5E
330
2
100
AcDbEntity
  8
HIDS
  6
SEKKEI_H
100
AcDbCircle
 10
351.7099579185953
 20
334.9848794395394
 30
0.0
 40
10.00000000000001
100
AcDbArc
 50
240.00000000003
 51
269.5225462226892
  0
LINE
  5
E5F
330
2
100
AcDbEntity
  8
HIDS
  6
SEKKEI_H
100
AcDbLine
 10
728.5946935603167
 20
857.0329125964098
 30
0.0
 11
724.4231206850638
 21
857.0329125964148
 31
0.0
  0
LINE
  5
E60
330
2
100
AcDbEntity
  8
HIDS
  6
SEKKEI_H
100
AcDbLine
 10
830.5946935603166
 20
857.0329125964107
 30
0.0
 11
834.7662664355691
 21
857.0329125964159
 31
0.0
  0
CIRCLE
  5
E61
330
2
100
AcDbEntity
  8
0
100
AcDbCircle
 10
232.0238347390443
 20
327.5678655571092
 30
0.0
 40
7.25
  0
CIRCLE
  5
E62
330
2
100
AcDbEntity
  8
0
100
AcDbCircle
 10
232.0238347390443
 20
442.5678655571094
 30
0.0
 40
7.25
  0
CIRCLE
  5
E63
330
2
100
AcDbEntity
  8
0
100
AcDbCircle
 10
117.0238347390447
 20
442.5678655571095
 30
0.0
 40
7.25
  0
CIRCLE
  5
E64
330
2
100
AcDbEntity
  8
0
100
AcDbCircle
 10
117.0238347390447
 20
327.5678655571092
 30
0.0
 40
7.25
  0
LINE
  5
E65
330
2
100
AcDbEntity
  8
0
 48
0.3
100
AcDbLine
 10
354.7099579185994
 20
449.8178655566773
 30
0.0
 11
354.7099579185994
 21
435.3178655566773
 31
0.0
  0
LINE
  5
E66
330
2
100
AcDbEntity
  8
0
 48
0.3
100
AcDbLine
 10
354.7099579185994
 20
435.3178655566773
 30
0.0
 11
356.7099579185994
 21
435.3178655566773
 31
0.0
  0
LINE
  5
E67
330
2
100
AcDbEntity
  8
0
 48
0.3
100
AcDbLine
 10
354.7099579185994
 20
449.8178655566773
 30
0.0
 11
356.7099579185994
 21
449.8178655566773
 31
0.0
  0
LINE
  5
E68
330
2
100
AcDbEntity
  8
0
100
AcDbLine
 10
356.7099579185994
 20
449.8178655566773
 30
0.0
 11
356.7099579185994
 21
435.3178655566773
 31
0.0
  0
LINE
  5
E69
330
2
100
AcDbEntity
  8
0
 48
0.3
100
AcDbLine
 10
354.7099579185999
 20
334.8178655566773
 30
0.0
 11
354.7099579185999
 21
320.3178655566773
 31
0.0
  0
LINE
  5
E6A
330
2
100
AcDbEntity
  8
0
 48
0.3
100
AcDbLine
 10
354.7099579185999
 20
320.3178655566773
 30
0.0
 11
356.7099579185999
 21
320.3178655566773
 31
0.0
  0
LINE
  5
E6B
330
2
100
AcDbEntity
  8
0
 48
0.3
100
AcDbLine
 10
354.7099579185999
 20
334.8178655566773
 30
0.0
 11
356.7099579185999
 21
334.8178655566773
 31
0.0
  0
LINE
  5
E6C
330
2
100
AcDbEntity
  8
0
100
AcDbLine
 10
356.7099579185999
 20
334.8178655566773
 30
0.0
 11
356.7099579185999
 21
320.3178655566773
 31
0.0
  0
LINE
  5
E6D
330
2
100
AcDbEntity
  8
0
 48
0.3
100
AcDbLine
 10
729.3446935603167
 20
852.5329125964098
 30
0.0
 11
714.8446935603167
 21
852.5329125964098
 31
0.0
  0
LINE
  5
E6E
330
2
100
AcDbEntity
  8
0
 48
0.3
100
AcDbLine
 10
714.8446935603167
 20
852.5329125964098
 30
0.0
 11
714.8446935603167
 21
850.5329125964099
 31
0.0
  0
LINE
  5
E6F
330
2
100
AcDbEntity
  8
0
 48
0.3
100
AcDbLine
 10
729.3446935603167
 20
852.5329125964102
 30
0.0
 11
729.3446935603167
 21
850.5329125964101
 31
0.0
  0
LINE
  5
E70
330
2
100
AcDbEntity
  8
0
100
AcDbLine
 10
729.3446935603167
 20
850.5329125964101
 30
0.0
 11
714.8446935603167
 21
850.5329125964099
 31
0.0
  0
LINE
  5
E71
330
2
100
AcDbEntity
  8
0
 48
0.3
100
AcDbLine
 10
844.3446935603168
 20
852.5329125964107
 30
0.0
 11
829.8446935603166
 21
852.5329125964107
 31
0.0
  0
LINE
  5
E72
330
2
100
AcDbEntity
  8
0
 48
0.3
100
AcDbLine
 10
829.8446935603166
 20
852.5329125964107
 30
0.0
 11
829.8446935603166
 21
850.5329125964106
 31
0.0
  0
LINE
  5
E73
330
2
100
AcDbEntity
  8
0
 48
0.3
100
AcDbLine
 10
844.3446935603168
 20
852.5329125964107
 30
0.0
 11
844.3446935603168
 21
850.5329125964108
 31
0.0
  0
LINE
  5
E74
330
2
100
AcDbEntity
  8
0
100
AcDbLine
 10
844.3446935603168
 20
850.5329125964108
 30
0.0
 11
829.8446935603166
 21
850.5329125964108
 31
0.0
  0
LINE
  5
E83
330
2
100
AcDbEntity
  8
0
 48
0.5
100
AcDbLine
 10
366.7099579186031
 20
317.5722289905735
 30
0.0
 11
468.7099579185953
 21
318.4623695052288
 31
0.0
  0
LINE
  5
E84
330
2
100
AcDbEntity
  8
0
 48
0.5
100
AcDbLine
 10
366.7099579186031
 20
452.563502122781
 30
0.0
 11
468.7099579185881
 21
451.6733616081258
 31
0.0
  0
LINE
  5
E8C
330
2
100
AcDbEntity
  8
0
100
AcDbLine
 10
46.52383473860732
 20
445.5678655566773
 30
0.0
 11
60.52383473861368
 21
445.5678655566773
 31
0.0
  0
ARC
  5
E8D
330
2
100
AcDbEntity
  8
0
100
AcDbCircle
 10
60.52383473861368
 20
326.5678655566773
 30
0.0
 40
2.0
100
AcDbArc
 50
270.0
 51
0.0
  0
LINE
  5
E8E
330
2
100
AcDbEntity
  8
0
100
AcDbLine
 10
46.52383473860732
 20
324.5678655566774
 30
0.0
 11
60.52383473861368
 21
324.5678655566773
 31
0.0
  0
LINE
  5
E8F
330
2
100
AcDbEntity
  8
0
100
AcDbLine
 10
907.5946935603218
 20
445.5678655566773
 30
0.0
 11
893.5946935603153
 21
445.5678655566773
 31
0.0
  0
ARC
  5
E90
330
2
100
AcDbEntity
  8
0
100
AcDbCircle
 10
893.5946935603153
 20
443.5678655566773
 30
0.0
 40
2.0
100
AcDbArc
 50
90.0
 51
180.0
  0
LINE
  5
E91
330
2
100
AcDbEntity
  8
0
100
AcDbLine
 10
907.5946935603218
 20
324.567865556677
 30
0.0
 11
893.5946935603153
 21
324.567865556677
 31
0.0
  0
ARC
  5
E92
330
2
100
AcDbEntity
  8
0
100
AcDbCircle
 10
893.5946935603153
 20
326.567865556677
 30
0.0
 40
2.0
100
AcDbArc
 50
180.0
 51
270.0
  0
LINE
  5
1147
330
2
100
AcDbEntity
  8
0
100
AcDbLine
 10
907.5946935603218
 20
445.0678655566789
 30
0.0
 11
907.5946935603218
 21
325.0678655566771
 31
0.0
  0
ARC
  5
1208
330
2
100
AcDbEntity
  8
0
100
AcDbCircle
 10
351.6269718014556
 20
435.0678655566873
 30
0.0
 40
10.0
100
AcDbArc
 50
134.6637861676429
 51
179.5225462226762
  0
LINE
  5
1209
330
2
100
AcDbEntity
  8
0
100
AcDbLine
 10
341.6273190055944
 20
435.151195996653
 30
0.0
 11
341.2099579185905
 21
385.0678655566773
 31
0.0
  0
ARC
  5
120C
330
2
100
AcDbEntity
  8
0
100
AcDbCircle
 10
351.6269718014556
 20
335.0678655566677
 30
0.0
 40
10.0
100
AcDbArc
 50
180.4774537773237
 51
225.336213832201
  0
LINE
  5
120D
330
2
100
AcDbEntity
  8
0
100
AcDbLine
 10
341.6273190055944
 20
334.9845351167015
 30
0.0
 11
341.2099579185905
 21
385.0678655566773
 31
0.0
  0
LINE
  5
120F
330
2
100
AcDbEntity
  8
0
100
AcDbLine
 10
46.52383473860732
 20
445.0678655566791
 30
0.0
 11
46.52383473860732
 21
325.0678655566773
 31
0.0
  0
TEXT
  5
1B1C
330
2
100
AcDbEntity
  8
TITLE
100
AcDbText
 10
401.3548919300465
 20
844.6058763657989
 30
0.0
 40
10.0
  1
AFCZ32L-7.5~10M2000K75
100
AcDbText
  0
TEXT
  5
1B1E
330
2
100
AcDbEntity
  8
TITLE
100
AcDbText
 10
401.3548919300465
 20
829.8249822434611
 30
0.0
 40
10.0
  1
AFCZ32L-3~5M3000K75
100
AcDbText
  0
LINE
  5
1D05
330
2
100
AcDbEntity
  8
0
100
AcDbLine
 10
488.308034129948
 20
409.2999163642463
 30
0.0
 11
488.4599579185953
 21
409.2122031239745
 31
0.0
  0
ARC
  5
1D06
330
2
100
AcDbEntity
  8
0
100
AcDbCircle
 10
488.2099579185953
 20
408.7791904220824
 30
0.0
 40
0.5
100
AcDbArc
 50
0.0
 51
59.99999999999907
  0
LINE
  5
1D07
330
2
100
AcDbEntity
  8
0
100
AcDbLine
 10
488.7099579185953
 20
361.356540691272
 30
0.0
 11
488.7099579185953
 21
408.7791904220824
 31
0.0
  0
LINE
  5
1D08
330
2
100
AcDbEntity
  8
0
100
AcDbLine
 10
489.7099579185954
 20
401.0678655566772
 30
0.0
 11
544.7099579185953
 21
401.0678655566774
 31
0.0
  0
LINE
  5
1D09
330
2
100
AcDbEntity
  8
0
100
AcDbLine
 10
489.7099579185954
 20
367.5678655566773
 30
0.0
 11
489.7099579185954
 21
402.5678655566772
 31
0.0
  0
LINE
  5
1D0A
330
2
100
AcDbEntity
  8
0
100
AcDbLine
 10
488.7099579185953
 20
403.1452158258669
 30
0.0
 11
489.7099579185954
 21
402.5678655566772
 31
0.0
  0
LINE
  5
1D0B
330
2
100
AcDbEntity
  8
0
100
AcDbLine
 10
488.7099579185953
 20
366.9905152874877
 30
0.0
 11
489.7099579185954
 21
367.5678655566773
 31
0.0
  0
LINE
  5
1D0C
330
2
100
AcDbEntity
  8
0
100
AcDbLine
 10
489.7099579185954
 20
369.067865556677
 30
0.0
 11
544.7099579185953
 21
369.0678655566772
 31
0.0
  0
LINE
  5
1D0D
330
2
100
AcDbEntity
  8
0
100
AcDbLine
 10
544.7099579185953
 20
369.0678655566772
 30
0.0
 11
544.7099579185953
 21
401.0678655566774
 31
0.0
  0
ARC
  5
1D0E
330
2
100
AcDbEntity
  8
0
100
AcDbCircle
 10
487.308034129948
 20
407.5678655566774
 30
0.0
 40
2.0
100
AcDbArc
 50
59.99999999999907
 51
78.40678637647568
  0
LINE
  5
1D0F
330
2
100
AcDbEntity
  8
0
100
AcDbLine
 10
488.3080341299482
 20
360.8358147491081
 30
0.0
 11
488.4599579185953
 21
360.9235279893798
 31
0.0
  0
ARC
  5
1D10
330
2
100
AcDbEntity
  8
0
100
AcDbCircle
 10
488.2099579185953
 20
361.356540691272
 30
0.0
 40
0.5
100
AcDbArc
 50
300.0000000000008
 51
0.0
  0
ARC
  5
1D11
330
2
100
AcDbEntity
  8
0
100
AcDbCircle
 10
487.3080341299482
 20
362.5678655566769
 30
0.0
 40
2.0
100
AcDbArc
 50
281.5932136235243
 51
300.0000000000008
  0
LINE
  5
1D12
330
2
100
AcDbEntity
  8
0
100
AcDbLine
 10
499.7099579185953
 20
380.0678655566768
 30
0.0
 11
544.7099579185953
 21
380.0678655566767
 31
0.0
  0
ARC
  5
1D13
330
2
100
AcDbEntity
  8
0
100
AcDbCircle
 10
499.7099579185953
 20
385.0678655566773
 30
0.0
 40
5.0
100
AcDbArc
 50
90.0
 51
270.0
  0
LINE
  5
1D14
330
2
100
AcDbEntity
  8
0
100
AcDbLine
 10
499.7099579185953
 20
390.0678655566773
 30
0.0
 11
544.7099579185953
 21
390.0678655566773
 31
0.0
  0
LINE
  5
1D30
330
2
100
AcDbEntity
  8
0
100
AcDbLine
 10
803.8267443678858
 20
718.9348363850619
 30
0.0
 11
803.7390311276137
 21
718.7829125964149
 31
0.0
  0
ARC
  5
1D31
330
2
100
AcDbEntity
  8
0
100
AcDbCircle
 10
803.3060184257218
 20
719.0329125964149
 30
0.0
 40
0.5
100
AcDbArc
 50
270.0
 51
330.0000000000084
  0
LINE
  5
1D32
330
2
100
AcDbEntity
  8
0
100
AcDbLine
 10
755.8833686949117
 20
718.5329125964145
 30
0.0
 11
803.3060184257218
 21
718.5329125964149
 31
0.0
  0
LINE
  5
1D33
330
2
100
AcDbEntity
  8
0
100
AcDbLine
 10
795.5946935603167
 20
717.5329125964147
 30
0.0
 11
795.5946935603167
 21
662.5329125964147
 31
0.0
  0
LINE
  5
1D34
330
2
100
AcDbEntity
  8
0
100
AcDbLine
 10
763.5946935603167
 20
717.5329125964144
 30
0.0
 11
763.5946935603167
 21
712.5329125964147
 31
0.0
  0
LINE
  5
1D35
330
2
100
AcDbEntity
  8
0
100
AcDbLine
 10
764.0946935603167
 20
662.5329125964147
 30
0.0
 11
795.5946935603167
 21
662.5329125964147
 31
0.0
  0
ARC
  5
1D36
330
2
100
AcDbEntity
  8
0
100
AcDbCircle
 10
802.0946935603166
 20
719.934836385062
 30
0.0
 40
2.0
100
AcDbArc
 50
330.0000000000084
 51
348.406786376476
  0
LINE
  5
1D37
330
2
100
AcDbEntity
  8
0
100
AcDbLine
 10
755.3626427527476
 20
718.9348363850617
 30
0.0
 11
755.4503559930192
 21
718.7829125964147
 31
0.0
  0
ARC
  5
1D38
330
2
100
AcDbEntity
  8
0
100
AcDbCircle
 10
755.8833686949117
 20
719.0329125964146
 30
0.0
 40
0.5
100
AcDbArc
 50
209.9999999999915
 51
270.0
  0
ARC
  5
1D39
330
2
100
AcDbEntity
  8
0
100
AcDbCircle
 10
757.0946935603163
 20
719.9348363850617
 30
0.0
 40
2.0
100
AcDbArc
 50
191.5932136235172
 51
209.9999999999915
  0
LINE
  5
1D3A
330
2
100
AcDbEntity
  8
0
100
AcDbLine
 10
760.5946935603603
 20
662.5329125964147
 30
0.0
 11
760.5946935603785
 21
712.5329125964147
 31
0.0
  0
LINE
  5
1D3B
330
2
100
AcDbEntity
  8
0
100
AcDbLine
 10
764.0946935603167
 20
662.5329125964147
 30
0.0
 11
760.5946935603603
 21
662.5329125964147
 31
0.0
  0
LINE
  5
1D3C
330
2
100
AcDbEntity
  8
0
100
AcDbLine
 10
763.5946935603162
 20
712.5329125964147
 30
0.0
 11
760.594693560379
 21
712.5329125964147
 31
0.0
  0
LINE
  5
1D3D
330
2
100
AcDbEntity
  8
0
100
AcDbLine
 10
764.3960094067463
 20
662.5329125964147
 30
0.0
 11
764.3960094067463
 21
707.5329125964146
 31
0.0
  0
LINE
  5
1D3E
330
2
100
AcDbEntity
  8
0
100
AcDbLine
 10
764.3960094067463
 20
707.5329125964146
 30
0.0
 11
763.5946935603167
 21
712.5329125964147
 31
0.0
  0
LINE
  5
1D3F
330
2
100
AcDbEntity
  8
0
100
AcDbLine
 10
762.0946935603167
 20
717.5329125964144
 30
0.0
 11
797.0946935603167
 21
717.5329125964147
 31
0.0
  0
LINE
  5
1D40
330
2
100
AcDbEntity
  8
0
100
AcDbLine
 10
797.6720438295067
 20
718.5329125964149
 30
0.0
 11
797.0946935603167
 21
717.5329125964147
 31
0.0
  0
LINE
  5
1D41
330
2
100
AcDbEntity
  8
0
100
AcDbLine
 10
761.5173432911267
 20
718.5329125964149
 30
0.0
 11
762.0946935603167
 21
717.5329125964147
 31
0.0
  0
CIRCLE
  5
1D51
330
2
100
AcDbEntity
  8
0
100
AcDbCircle
 10
779.5946935603166
 20
385.0678655566771
 30
0.0
 40
24.5
  0
ARC
  5
1D52
330
2
100
AcDbEntity
  8
0
100
AcDbCircle
 10
779.5946935603166
 20
385.0678655566772
 30
0.0
 40
16.0
100
AcDbArc
 50
198.2099568642858
 51
161.7900431357141
  0
LINE
  5
1D53
330
2
100
AcDbEntity
  8
0
100
AcDbLine
 10
760.5946935603165
 20
380.0678655566771
 30
0.0
 11
768.5946935603161
 21
380.0678655566772
 31
0.0
  0
LINE
  5
1D54
330
2
100
AcDbEntity
  8
0
100
AcDbLine
 10
760.5946935603165
 20
390.0678655566772
 30
0.0
 11
768.5946935603165
 21
390.0678655566772
 31
0.0
  0
LINE
  5
1D55
330
2
100
AcDbEntity
  8
0
100
AcDbLine
 10
768.5946935603165
 20
390.0678655566772
 30
0.0
 11
768.5946935603161
 21
380.0678655566772
 31
0.0
  0
LINE
  5
1D56
330
2
100
AcDbEntity
  8
0
100
AcDbLine
 10
760.5946935603165
 20
390.0678655566776
 30
0.0
 11
760.5946935603161
 21
380.0678655566775
 31
0.0
  0
ARC
  5
1D57
330
2
100
AcDbEntity
  8
0
100
AcDbCircle
 10
779.5946935603166
 20
385.0678655566772
 30
0.0
 40
17.49999999999994
100
AcDbArc
 50
196.6015495990203
 51
163.3984504009797
  0
ARC
  5
1D58
330
2
100
AcDbEntity
  8
0
100
AcDbCircle
 10
779.5946935603166
 20
385.0678655566772
 30
0.0
 40
18.0773502691897
100
AcDbArc
 50
196.056743014667
 51
163.9432569853329
  0
LINE
  5
234F
330
2
100
AcDbEntity
  8
0
100
AcDbLine
 10
907.5946935603218
 20
445.067865556679
 30
0.0
 11
907.5946935603218
 21
325.0678655566772
 31
0.0
  0
LINE
  5
25C2
330
2
100
AcDbEntity
  8
0
100
AcDbLine
 10
907.5946935603218
 20
445.067865556679
 30
0.0
 11
907.5946935603218
 21
325.0678655566772
 31
0.0
  0
LINE
  5
2824
330
2
100
AcDbEntity
  8
0
100
AcDbLine
 10
907.5946935603218
 20
445.067865556679
 30
0.0
 11
907.5946935603218
 21
325.0678655566772
 31
0.0
  0
LINE
  5
2AFC
330
2
100
AcDbEntity
  8
0
100
AcDbLine
 10
907.5946935603218
 20
445.0678655566772
 30
0.0
 11
907.5946935603218
 21
325.0678655566772
 31
0.0
  0
LINE
  5
2B65
330
2
100
AcDbEntity
  8
CENTER
100
AcDbLine
 10
454.9063505141401
 20
385.067865556677
 30
0.0
 11
445.90635051414
 21
385.067865556677
 31
0.0
  0
LINE
  5
2B66
330
2
100
AcDbEntity
  8
CENTER
100
AcDbLine
 10
357.5135652921342
 20
385.067865587593
 30
0.0
 11
348.5135652921342
 21
385.067865587593
 31
0.0
  0
LINE
  5
2BC9
330
2
100
AcDbEntity
  8
0
100
AcDbLine
 10
46.52383473860732
 20
445.0678655566774
 30
0.0
 11
46.52383473860732
 21
325.0678655566773
 31
0.0
  0
LINE
  5
2EF4
330
2
100
AcDbEntity
  8
0
100
AcDbLine
 10
907.5946935603218
 20
445.0678655566772
 30
0.0
 11
907.5946935603218
 21
325.0678655566772
 31
0.0
  0
LINE
  5
310A
330
2
100
AcDbEntity
  8
0
100
AcDbLine
 10
907.5946935603218
 20
445.0678655566772
 30
0.0
 11
907.5946935603218
 21
325.0678655566772
 31
0.0
  0
LINE
  5
337D
330
2
100
AcDbEntity
  8
0
100
AcDbLine
 10
907.5946935603218
 20
445.0678655566772
 30
0.0
 11
907.5946935603218
 21
325.0678655566772
 31
0.0
  0
LINE
  5
34F7
330
2
100
AcDbEntity
  8
CENTER
100
AcDbLine
 10
1375.437457023438
 20
385.0678655566773
 30
0.0
 11
1117.437457023437
 21
385.0678655566772
 31
0.0
  0
LINE
  5
3525
330
2
100
AcDbEntity
  8
0
100
AcDbLine
 10
1182.437457023437
 20
369.0678655566774
 30
0.0
 11
1127.437457023438
 21
369.067865556677
 31
0.0
  0
LINE
  5
3526
330
2
100
AcDbEntity
  8
0
100
AcDbLine
 10
1182.437457023437
 20
402.5678655566772
 30
0.0
 11
1182.437457023437
 21
367.5678655566771
 31
0.0
  0
LINE
  5
3527
330
2
100
AcDbEntity
  8
0
100
AcDbLine
 10
1182.488448240647
 20
402.5973053496594
 30
0.0
 11
1182.437457023437
 21
402.5678655566772
 31
0.0
  0
LINE
  5
3528
330
2
100
AcDbEntity
  8
0
100
AcDbLine
 10
1182.437457023437
 20
401.0678655566776
 30
0.0
 11
1127.437457023438
 21
401.0678655566772
 31
0.0
  0
LINE
  5
3529
330
2
100
AcDbEntity
  8
0
100
AcDbLine
 10
1127.437457023438
 20
401.0678655566772
 30
0.0
 11
1127.437457023438
 21
369.067865556677
 31
0.0
  0
LINE
  5
353C
330
2
100
AcDbEntity
  8
0
100
AcDbLine
 10
1182.488448240646
 20
367.5384257636955
 30
0.0
 11
1182.437457023437
 21
367.5678655566772
 31
0.0
  0
LINE
  5
36C1
330
2
100
AcDbEntity
  8
0
100
AcDbLine
 10
907.5946935603218
 20
445.0678655566772
 30
0.0
 11
907.5946935603218
 21
325.0678655566772
 31
0.0
  0
LINE
  5
3771
330
2
100
AcDbEntity
  8
0
100
AcDbLine
 10
46.52383473860732
 20
445.0678655566774
 30
0.0
 11
46.52383473860732
 21
325.0678655566773
 31
0.0
  0
LINE
  5
3A2E
330
2
100
AcDbEntity
  8
0
100
AcDbLine
 10
907.5946935603218
 20
445.0678655566772
 30
0.0
 11
907.5946935603218
 21
325.0678655566772
 31
0.0
  0
TEXT
  5
3B75
330
2
100
AcDbEntity
  8
TITLE
100
AcDbText
 10
401.3548919300465
 20
815.0840504802054
 30
0.0
 40
10.0
  1
AFCZ32L-7.5~10L2000K75
100
AcDbText
  0
TEXT
  5
3B76
330
2
100
AcDbEntity
  8
TITLE
100
AcDbText
 10
401.3548919300465
 20
800.3031563578677
 30
0.0
 40
10.0
  1
AFCZ32L-3~5L3000K75
100
AcDbText
  0
LINE
  5
3D6B
330
2
100
AcDbEntity
  8
0
100
AcDbLine
 10
976.7615240462452
 20
444.0678655566749
 30
0.0
 11
922.3882591577702
 21
444.0678655566746
 31
0.0
  0
ARC
  5
3D6C
330
2
100
AcDbEntity
  8
0
100
AcDbCircle
 10
976.7615240462452
 20
454.0678655566749
 30
0.0
 40
10.0
100
AcDbArc
 50
270.0
 51
358.9999999999982
  0
ARC
  5
3D6D
330
2
100
AcDbEntity
  8
0
100
AcDbCircle
 10
974.5171641730919
 20
441.0678655566747
 30
0.0
 40
3.0
100
AcDbArc
 50
90.0
 51
178.4999999999973
  0
LINE
  5
3D6E
330
2
100
AcDbEntity
  8
0
100
AcDbLine
 10
907.5946935603212
 20
325.0678655566772
 30
0.0
 11
918.6466017709742
 21
325.0678655566772
 31
0.0
  0
ARC
  5
3D6F
330
2
100
AcDbEntity
  8
0
100
AcDbCircle
 10
918.6466017709742
 20
328.0678655566771
 30
0.0
 40
3.0
100
AcDbArc
 50
270.0
 51
358.9999999999982
  0
ARC
  5
3D70
330
2
100
AcDbEntity
  8
0
100
AcDbCircle
 10
922.3882591577483
 20
321.5678655566772
 30
0.0
 40
4.5
100
AcDbArc
 50
90.0
 51
119.9264348666192
  0
LINE
  5
3D71
330
2
100
AcDbEntity
  8
0
100
AcDbLine
 10
922.3882591577474
 20
326.0678655566771
 30
0.0
 11
976.7615240462498
 21
326.0678655566781
 31
0.0
  0
LINE
  5
3D72
330
2
100
AcDbEntity
  8
0
100
AcDbLine
 10
987.043242264205
 20
300.0155083373657
 30
0.0
 11
985.5586478466346
 21
385.0678655566774
 31
0.0
  0
ARC
  5
3D73
330
2
100
AcDbEntity
  8
0
100
AcDbCircle
 10
982.6716487845358
 20
378.5678655566774
 30
0.0
 40
3.0
100
AcDbArc
 50
1.000000000001761
 51
90.0
  0
ARC
  5
3D74
330
2
100
AcDbEntity
  8
0
100
AcDbCircle
 10
976.7615240462498
 20
316.0678655566781
 30
0.0
 40
10.0
100
AcDbArc
 50
1.000000000001761
 51
90.0
  0
LINE
  5
3D75
330
2
100
AcDbEntity
  8
0
100
AcDbLine
 10
1002.094693560326
 20
297.0678655566771
 30
0.0
 11
1002.094693560325
 21
473.0678655566793
 31
0.0
  0
LINE
  5
3D76
330
2
100
AcDbEntity
  8
CENTER
100
AcDbLine
 10
983.5946935603258
 20
433.5118692653654
 30
0.0
 11
983.5946935603258
 21
453.1501623147874
 31
0.0
  0
LINE
  5
3D77
330
2
100
AcDbEntity
  8
0
100
AcDbLine
 10
971.3324785358407
 20
434.0542777669971
 30
0.0
 11
971.5181921981645
 21
441.1463964015984
 31
0.0
  0
LINE
  5
3D78
330
2
100
AcDbEntity
  8
0
100
AcDbLine
 10
962.5946935603257
 20
381.5678655566772
 30
0.0
 11
962.5946935603257
 21
385.0678655566776
 31
0.0
  0
LINE
  5
3D79
330
2
100
AcDbEntity
  8
0
100
AcDbLine
 10
921.646144856443
 20
328.0155083373652
 30
0.0
 11
922.6419974560137
 21
385.0678655566774
 31
0.0
  0
LINE
  5
3D7A
330
2
100
AcDbEntity
  8
0
100
AcDbLine
 10
907.5946935603221
 20
325.0678655566772
 30
0.0
 11
907.5946935603212
 21
445.0678655566772
 31
0.0
  0
LINE
  5
3D7B
330
2
100
AcDbEntity
  8
0
100
AcDbLine
 10
1002.094693560326
 20
297.0678655566771
 30
0.0
 11
990.0427853496736
 21
297.0678655566776
 31
0.0
  0
ARC
  5
3D7C
330
2
100
AcDbEntity
  8
0
100
AcDbCircle
 10
990.0427853496736
 20
300.0678655566776
 30
0.0
 40
3.0
100
AcDbArc
 50
181.0000000000017
 51
270.0
  0
LINE
  5
3D7D
330
2
100
AcDbEntity
  8
0
100
AcDbLine
 10
982.6716487845358
 20
381.5678655566774
 30
0.0
 11
965.5946935603259
 21
381.5678655566772
 31
0.0
  0
ARC
  5
3D7E
330
2
100
AcDbEntity
  8
0
100
AcDbCircle
 10
965.5946935603259
 20
378.5678655566771
 30
0.0
 40
3.0
100
AcDbArc
 50
90.0
 51
180.0
  0
LINE
  5
3D7F
330
2
100
AcDbEntity
  8
0
100
AcDbLine
 10
963.4733732167665
 20
325.1891859002374
 30
0.0
 11
986.1576813021024
 21
302.5048778149005
 31
0.0
  0
LINE
  5
3D80
330
2
100
AcDbEntity
  8
0
100
AcDbLine
 10
962.5946935603257
 20
385.0678655566776
 30
0.0
 11
962.5946935603257
 21
381.567865556679
 31
0.0
  0
LINE
  5
3D81
330
2
100
AcDbEntity
  8
0
100
AcDbLine
 10
1002.094693560325
 20
473.0678655566793
 30
0.0
 11
990.0427853496683
 21
473.067865556679
 31
0.0
  0
ARC
  5
3D82
330
2
100
AcDbEntity
  8
0
100
AcDbCircle
 10
990.0427853496683
 20
470.067865556679
 30
0.0
 40
3.0
100
AcDbArc
 50
90.0
 51
178.9999999999982
  0
LINE
  5
3D83
330
2
100
AcDbEntity
  8
0
100
AcDbLine
 10
907.5946935603212
 20
445.067865556679
 30
0.0
 11
918.6466017709879
 21
445.067865556679
 31
0.0
  0
LINE
  5
3D84
330
2
100
AcDbEntity
  8
0
100
AcDbLine
 10
907.5946935603218
 20
385.0678655566771
 30
0.0
 11
1002.094693560326
 21
385.0678655566774
 31
0.0
  0
LINE
  5
3D85
330
2
100
AcDbEntity
  8
0
100
AcDbLine
 10
921.6461448564567
 20
442.1202227759909
 30
0.0
 11
922.1481064443381
 21
413.3628626660868
 31
0.0
  0
ARC
  5
3D86
330
2
100
AcDbEntity
  8
0
100
AcDbCircle
 10
918.6466017709879
 20
442.0678655566789
 30
0.0
 40
3.0
100
AcDbArc
 50
1.000000000001761
 51
90.0
  0
ARC
  5
3D87
330
2
100
AcDbEntity
  8
0
100
AcDbCircle
 10
922.3882591577691
 20
448.5678655566746
 30
0.0
 40
4.5
100
AcDbArc
 50
240.073565133321
 51
270.0
  0
LINE
  5
3D88
330
2
100
AcDbEntity
  8
0
100
AcDbLine
 10
987.0432422641995
 20
470.1202227759909
 30
0.0
 11
986.5620063373652
 21
442.5502349924169
 31
0.0
  0
LINE
  5
3D8A
330
2
100
AcDbEntity
  8
0
100
AcDbLine
 10
982.9884074764212
 20
431.1328086119202
 30
0.0
 11
968.3335065609142
 21
431.1328086119202
 31
0.0
  0
ARC
  5
3D8B
330
2
100
AcDbEntity
  8
0
100
AcDbCircle
 10
968.3335065609142
 20
434.1328086119202
 30
0.0
 40
3.0
100
AcDbArc
 50
270.0
 51
358.5000000000103
  0
ARC
  5
3D8C
330
2
100
AcDbEntity
  8
0
100
AcDbCircle
 10
961.3520528732067
 20
323.0678655566776
 30
0.0
 40
3.0
100
AcDbArc
 50
44.99999999999078
 51
90.0
  0
ARC
  5
3D8D
330
2
100
AcDbEntity
  8
0
100
AcDbCircle
 10
984.0363609585429
 20
300.3835574713408
 30
0.0
 40
3.0
100
AcDbArc
 50
1.000000000001761
 51
44.99999999999078
  0
LINE
  5
3D8E
330
2
100
AcDbEntity
  8
0
100
AcDbLine
 10
963.4733732167674
 20
444.9465452131181
 30
0.0
 11
986.1576813021038
 21
467.6308532984545
 31
0.0
  0
ARC
  5
3D8F
330
2
100
AcDbEntity
  8
0
100
AcDbCircle
 10
961.3520528732079
 20
447.0678655566776
 30
0.0
 40
3.0
100
AcDbArc
 50
270.0
 51
315.0000000000092
  0
ARC
  5
3D90
330
2
100
AcDbEntity
  8
0
100
AcDbCircle
 10
984.0363609585443
 20
469.752173642014
 30
0.0
 40
3.0
100
AcDbArc
 50
315.0000000000092
 51
358.9999999999852
  0
LINE
  5
3D92
330
2
100
AcDbEntity
  8
0
100
AcDbLine
 10
977.0946935603248
 20
864.5329125964128
 30
0.0
 11
922.3363509471043
 21
864.5329125964151
 31
0.0
  0
LINE
  5
3D93
330
2
100
AcDbEntity
  8
0
100
AcDbLine
 10
922.3363509471026
 20
746.5329125964132
 30
0.0
 11
977.0946935603259
 21
746.5329125964155
 31
0.0
  0
LINE
  5
3D94
330
2
100
AcDbEntity
  8
0
100
AcDbLine
 10
987.0946935603255
 20
720.5329125964143
 30
0.0
 11
987.0946935603251
 21
767.5144067618074
 31
0.0
  0
ARC
  5
3D95
330
2
100
AcDbEntity
  8
0
100
AcDbCircle
 10
984.0946935603252
 20
766.0329125964143
 30
0.0
 40
3.0
100
AcDbArc
 50
0.0
 51
90.0
  0
LINE
  5
3D96
330
2
100
AcDbEntity
  8
0
100
AcDbLine
 10
987.0946935603253
 20
794.5514184310212
 30
0.0
 11
987.0946935603251
 21
890.5329125964152
 31
0.0
  0
ARC
  5
3D97
330
2
100
AcDbEntity
  8
0
100
AcDbCircle
 10
984.0946935603255
 20
812.0329125964161
 30
0.0
 40
3.0
100
AcDbArc
 50
270.0
 51
0.0
  0
ARC
  5
3D98
330
2
100
AcDbEntity
  8
0
100
AcDbCircle
 10
984.0946935603254
 20
799.0329125964144
 30
0.0
 40
3.0
100
AcDbArc
 50
0.0
 51
90.0
  0
ARC
  5
3D99
330
2
100
AcDbEntity
  8
0
100
AcDbCircle
 10
977.0946935603259
 20
736.5329125964154
 30
0.0
 40
10.0
100
AcDbArc
 50
0.0
 51
90.0
  0
ARC
  5
3D9A
330
2
100
AcDbEntity
  8
0
100
AcDbCircle
 10
977.094693560326
 20
874.5329125964127
 30
0.0
 40
10.0
100
AcDbArc
 50
270.0
 51
0.0
  0
LINE
  5
3D9B
330
2
100
AcDbEntity
  8
0
100
AcDbLine
 10
1002.094693560325
 20
717.5329125964136
 30
0.0
 11
1002.094693560325
 21
893.5329125964152
 31
0.0
  0
LINE
  5
3D9C
330
2
100
AcDbEntity
  8
0
100
AcDbLine
 10
962.5946935603254
 20
802.0329125964137
 30
0.0
 11
962.5946935603254
 21
809.0329125964137
 31
0.0
  0
LINE
  5
3D9D
330
2
100
AcDbEntity
  8
0
100
AcDbLine
 10
921.5946935603213
 20
748.0329125964114
 30
0.0
 11
921.5946935603213
 21
862.5329125964187
 31
0.0
  0
ARC
  5
3D9E
330
2
100
AcDbEntity
  8
0
100
AcDbCircle
 10
918.5946935603212
 20
748.5329125964096
 30
0.0
 40
3.0
100
AcDbArc
 50
270.0
 51
0.0
  0
ARC
  5
3D9F
330
2
100
AcDbEntity
  8
0
100
AcDbCircle
 10
922.3363509471026
 20
742.0329125964141
 30
0.0
 40
4.5
100
AcDbArc
 50
90.0
 51
119.9264348666788
  0
LINE
  5
3DA0
330
2
100
AcDbEntity
  8
0
100
AcDbLine
 10
907.5946935603212
 20
745.032912596415
 30
0.0
 11
907.5946935603214
 21
866.0329125964159
 31
0.0
  0
LINE
  5
3DA1
330
2
100
AcDbEntity
  8
0
100
AcDbLine
 10
1002.094693560325
 20
717.5329125964135
 30
0.0
 11
990.0946935603256
 21
717.5329125964143
 31
0.0
  0
ARC
  5
3DA2
330
2
100
AcDbEntity
  8
0
100
AcDbCircle
 10
990.0946935603256
 20
720.5329125964143
 30
0.0
 40
3.0
100
AcDbArc
 50
180.0
 51
270.0
  0
LINE
  5
3DA3
330
2
100
AcDbEntity
  8
0
100
AcDbLine
 10
984.0946935603254
 20
802.0329125964144
 30
0.0
 11
965.5946935603253
 21
802.0329125964137
 31
0.0
  0
ARC
  5
3DA4
330
2
100
AcDbEntity
  8
0
100
AcDbCircle
 10
968.5946935603491
 20
799.0329125964136
 30
0.0
 40
3.0
100
AcDbArc
 50
0.0
 51
90.0
  0
ARC
  5
3DA5
330
2
100
AcDbEntity
  8
0
100
AcDbCircle
 10
965.5946935603253
 20
799.0329125964136
 30
0.0
 40
3.0
100
AcDbArc
 50
90.0
 51
180.0
  0
LINE
  5
3DA6
330
2
100
AcDbEntity
  8
0
100
AcDbLine
 10
962.5946935603254
 20
809.0329125964155
 30
0.0
 11
962.5946935603254
 21
802.0329125964154
 31
0.0
  0
LINE
  5
3DA7
330
2
100
AcDbEntity
  8
0
100
AcDbLine
 10
1002.094693560326
 20
893.5329125964152
 30
0.0
 11
990.094693560326
 21
893.5329125964152
 31
0.0
  0
ARC
  5
3DA8
330
2
100
AcDbEntity
  8
0
100
AcDbCircle
 10
990.094693560326
 20
890.5329125964152
 30
0.0
 40
3.0
100
AcDbArc
 50
90.0
 51
180.0
  0
LINE
  5
3DA9
330
2
100
AcDbEntity
  8
0
100
AcDbLine
 10
984.0946935603254
 20
809.0329125964162
 30
0.0
 11
965.5946935603253
 21
809.0329125964155
 31
0.0
  0
ARC
  5
3DAA
330
2
100
AcDbEntity
  8
0
100
AcDbCircle
 10
965.5946935603255
 20
812.0329125964154
 30
0.0
 40
3.0
100
AcDbArc
 50
180.0
 51
270.0
  0
LINE
  5
3DAB
330
2
100
AcDbEntity
  8
0
100
AcDbLine
 10
963.4733732167633
 20
865.4115922528536
 30
0.0
 11
986.216013903885
 21
888.1542329399787
 31
0.0
  0
LINE
  5
3DAC
330
2
100
AcDbEntity
  8
0
100
AcDbLine
 10
907.5946935603214
 20
865.5329125964161
 30
0.0
 11
918.5946935603206
 21
865.5329125964186
 31
0.0
  0
ARC
  5
3DAD
330
2
100
AcDbEntity
  8
0
100
AcDbCircle
 10
918.5946935603212
 20
862.5329125964187
 30
0.0
 40
3.0
100
AcDbArc
 50
0.0
 51
90.0
  0
ARC
  5
3DAE
330
2
100
AcDbEntity
  8
0
100
AcDbCircle
 10
922.3363509471045
 20
869.0329125964131
 30
0.0
 40
4.5
100
AcDbArc
 50
240.0735651333211
 51
270.0
  0
LINE
  5
3DAF
330
2
100
AcDbEntity
  8
0
100
AcDbLine
 10
907.5946935603214
 20
866.0329125964162
 30
0.0
 11
918.5946935603206
 21
866.0329125964187
 31
0.0
  0
ARC
  5
3DB0
330
2
100
AcDbEntity
  8
0
100
AcDbCircle
 10
918.5946935603212
 20
863.0329125964186
 30
0.0
 40
3.0
100
AcDbArc
 50
53.13010235406478
 51
90.0
  0
ARC
  5
3DB1
330
2
100
AcDbEntity
  8
0
100
AcDbCircle
 10
923.0946935603268
 20
869.032912596414
 30
0.0
 40
4.5
100
AcDbArc
 50
233.1301023541299
 51
270.0
  0
LINE
  5
3DB2
330
2
100
AcDbEntity
  8
0
100
AcDbLine
 10
907.5946935603212
 20
745.5329125964141
 30
0.0
 11
918.5946935603203
 21
745.5329125964095
 31
0.0
  0
LINE
  5
3DB3
330
2
100
AcDbEntity
  8
0
100
AcDbLine
 10
907.5946935603212
 20
745.0329125964141
 30
0.0
 11
918.5946935603203
 21
745.0329125964113
 31
0.0
  0
ARC
  5
3DB4
330
2
100
AcDbEntity
  8
0
100
AcDbCircle
 10
918.5946935603212
 20
748.0329125964114
 30
0.0
 40
3.0
100
AcDbArc
 50
270.0
 51
306.86989764587
  0
ARC
  5
3DB5
330
2
100
AcDbEntity
  8
0
100
AcDbCircle
 10
923.0946935603258
 20
742.0329125964148
 30
0.0
 40
4.5
100
AcDbArc
 50
90.0
 51
126.86989764587
  0
LINE
  5
3DB6
330
2
100
AcDbEntity
  8
0
100
AcDbLine
 10
974.5946935603488
 20
769.0329125964145
 30
0.0
 11
984.0946935603252
 21
769.0329125964143
 31
0.0
  0
LINE
  5
3DB7
330
2
100
AcDbEntity
  8
CENTER
100
AcDbLine
 10
972.8446935603487
 20
781.0329125964146
 30
0.0
 11
994.3446935603487
 21
781.0329125964143
 31
0.0
  0
LINE
  5
3DB8
330
2
100
AcDbEntity
  8
CENTER
100
AcDbLine
 10
983.5946935603487
 20
770.2829125964143
 30
0.0
 11
983.5946935603487
 21
791.7829125964143
 31
0.0
  0
LINE
  5
3DB9
330
2
100
AcDbEntity
  8
0
100
AcDbLine
 10
971.5946935603488
 20
772.0329125964146
 30
0.0
 11
971.594693560349
 21
799.0329125964136
 31
0.0
  0
ARC
  5
3DBA
330
2
100
AcDbEntity
  8
0
100
AcDbCircle
 10
974.5946935603488
 20
772.0329125964146
 30
0.0
 40
3.0
100
AcDbArc
 50
180.0
 51
270.0
  0
ARC
  5
3DBB
330
2
100
AcDbEntity
  8
0
100
AcDbCircle
 10
983.5946935603487
 20
781.0329125964143
 30
0.0
 40
12.0
100
AcDbArc
 50
295.6792886193456
 51
64.32071138065437
  0
ARC
  5
3DBC
330
2
100
AcDbEntity
  8
0
100
AcDbCircle
 10
990.0946935603254
 20
794.5514184310212
 30
0.0
 40
3.0
100
AcDbArc
 50
180.0
 51
244.3207113806543
  0
ARC
  5
3DBD
330
2
100
AcDbEntity
  8
0
100
AcDbCircle
 10
990.0946935603251
 20
767.5144067618074
 30
0.0
 40
3.0
100
AcDbArc
 50
115.6792886193456
 51
180.0
  0
ARC
  5
3DBE
330
2
100
AcDbEntity
  8
0
100
AcDbCircle
 10
961.3520528732035
 20
867.5329125964132
 30
0.0
 40
3.0
100
AcDbArc
 50
270.0
 51
315.0000000000093
  0
ARC
  5
3DBF
330
2
100
AcDbEntity
  8
0
100
AcDbCircle
 10
984.0946935603252
 20
890.2755532835382
 30
0.0
 40
3.0
100
AcDbArc
 50
315.0000000000093
 51
0.0
  0
LINE
  5
3DC0
330
2
100
AcDbEntity
  8
0
100
AcDbLine
 10
963.4733732167616
 20
745.6542329399743
 30
0.0
 11
986.2160139038824
 21
722.9115922528486
 31
0.0
  0
ARC
  5
3DC1
330
2
100
AcDbEntity
  8
0
100
AcDbCircle
 10
961.3520528732015
 20
743.5329125964147
 30
0.0
 40
3.0
100
AcDbArc
 50
44.99999999999114
 51
90.0
  0
ARC
  5
3DC2
330
2
100
AcDbEntity
  8
0
100
AcDbCircle
 10
984.0946935603223
 20
720.7902719092893
 30
0.0
 40
3.0
100
AcDbArc
 50
0.0
 51
44.99999999999114
  0
LINE
  5
3DC3
330
2
100
AcDbEntity
  8
CENTER
100
AcDbLine
 10
1270.437457023438
 20
280.0678655566772
 30
0.0
 11
1270.437457023437
 21
490.0678655566772
 31
0.0
  0
LINE
  5
3DC4
330
2
100
AcDbEntity
  8
0
100
AcDbLine
 10
1273.937457023437
 20
451.4001540744256
 30
0.0
 11
1273.937457023437
 21
463.0678655566766
 31
0.0
  0
LINE
  5
3DC5
330
2
100
AcDbEntity
  8
0
100
AcDbLine
 10
1266.937457023436
 20
451.4001540744271
 30
0.0
 11
1266.937457023436
 21
463.0678655566771
 31
0.0
  0
ARC
  5
3DC6
330
2
100
AcDbEntity
  8
0
100
AcDbCircle
 10
1263.937457023436
 20
463.0678655566771
 30
0.0
 40
3.0
100
AcDbArc
 50
0.0
 51
90.0
  0
LINE
  5
3DC8
330
2
100
AcDbEntity
  8
0
100
AcDbLine
 10
1348.210521272604
 20
297.067865556678
 30
0.0
 11
1192.664392774258
 21
297.0678655566753
 31
0.0
  0
ARC
  5
3DC9
330
2
100
AcDbEntity
  8
0
100
AcDbCircle
 10
1192.664392774258
 20
307.0678655566753
 30
0.0
 40
10.0
100
AcDbArc
 50
180.1666666666621
 51
270.0
  0
LINE
  5
3DCA
330
2
100
AcDbEntity
  8
0
100
AcDbLine
 10
1348.210521272602
 20
473.0678655566761
 30
0.0
 11
1192.664392774259
 21
473.0678655566761
 31
0.0
  0
ARC
  5
3DCB
330
2
100
AcDbEntity
  8
0
100
AcDbCircle
 10
1348.210521272602
 20
463.0678655566762
 30
0.0
 40
10.0
100
AcDbArc
 50
0.1666666666621019
 51
90.0
  0
LINE
  5
3DCC
330
2
100
AcDbEntity
  8
CENTER
100
AcDbLine
 10
1330.148135142087
 20
314.357187438025
 30
0.0
 11
1352.148135142087
 21
314.357187438025
 31
0.0
  0
LINE
  5
3DCD
330
2
100
AcDbEntity
  8
CENTER
100
AcDbLine
 10
1341.148135142087
 20
325.3571874380195
 30
0.0
 11
1341.148135142087
 21
303.3571874380195
 31
0.0
  0
LINE
  5
3DCE
330
2
100
AcDbEntity
  8
CENTER
100
AcDbLine
 10
1341.148135142089
 20
444.7785436753283
 30
0.0
 11
1341.148135142089
 21
466.7785436753283
 31
0.0
  0
LINE
  5
3DCF
330
2
100
AcDbEntity
  8
CENTER
100
AcDbLine
 10
1330.148135142095
 20
455.7785436753284
 30
0.0
 11
1352.148135142095
 21
455.7785436753284
 31
0.0
  0
LINE
  5
3DD0
330
2
100
AcDbEntity
  8
CENTER
100
AcDbLine
 10
1210.726778904785
 20
455.7785436753301
 30
0.0
 11
1188.726778904785
 21
455.7785436753301
 31
0.0
  0
LINE
  5
3DD1
330
2
100
AcDbEntity
  8
CENTER
100
AcDbLine
 10
1199.726778904785
 20
444.7785436753356
 30
0.0
 11
1199.726778904785
 21
466.7785436753356
 31
0.0
  0
LINE
  5
3DD2
330
2
100
AcDbEntity
  8
CENTER
100
AcDbLine
 10
1199.726778904783
 20
325.3571874380268
 30
0.0
 11
1199.726778904783
 21
303.3571874380267
 31
0.0
  0
LINE
  5
3DD3
330
2
100
AcDbEntity
  8
CENTER
100
AcDbLine
 10
1210.726778904778
 20
314.3571874380268
 30
0.0
 11
1188.726778904778
 21
314.3571874380268
 31
0.0
  0
ARC
  5
3DD4
330
2
100
AcDbEntity
  8
0
100
AcDbCircle
 10
1270.437457023431
 20
385.0678655566625
 30
0.0
 40
63.650000000006
100
AcDbArc
 50
322.1562536252283
 51
37.84374637478075
  0
ARC
  5
3DD5
330
2
100
AcDbEntity
  8
0
100
AcDbCircle
 10
1270.437457023431
 20
385.0678655566625
 30
0.0
 40
63.650000000006
100
AcDbArc
 50
52.15625362520036
 51
127.8437463747507
  0
ARC
  5
3DD6
330
2
100
AcDbEntity
  8
0
100
AcDbCircle
 10
1270.437457023431
 20
385.0678655566625
 30
0.0
 40
63.650000000006
100
AcDbArc
 50
142.1562536252049
 51
217.843746374769
  0
ARC
  5
3DD7
330
2
100
AcDbEntity
  8
0
100
AcDbCircle
 10
1270.437457023431
 20
385.0678655566625
 30
0.0
 40
63.650000000006
100
AcDbArc
 50
232.1562536252004
 51
307.8437463747832
  0
ARC
  5
3DD8
330
2
100
AcDbEntity
  8
0
100
AcDbCircle
 10
1261.010153491095
 20
451.0477749845563
 30
0.0
 40
3.0
100
AcDbArc
 50
180.0
 51
278.1314658326825
  0
ARC
  5
3DD9
330
2
100
AcDbEntity
  8
0
100
AcDbCircle
 10
1276.937457023437
 20
451.4001540744256
 30
0.0
 40
3.0
100
AcDbArc
 50
180.0
 51
264.4033689414049
  0
ARC
  5
3DDA
330
2
100
AcDbEntity
  8
0
100
AcDbCircle
 10
1263.937457023435
 20
451.4001540744271
 30
0.0
 40
3.0
100
AcDbArc
 50
275.596631058595
 51
0.0
  0
ARC
  5
3DDB
330
2
100
AcDbEntity
  8
0
100
AcDbCircle
 10
1199.726778904785
 20
314.3571874380277
 30
0.0
 40
12.5
100
AcDbArc
 50
331.9476024175648
 51
118.0523975824643
  0
ARC
  5
3DDC
330
2
100
AcDbEntity
  8
0
100
AcDbCircle
 10
1192.437457023436
 20
328.0362146881684
 30
0.0
 40
3.0
100
AcDbArc
 50
180.0
 51
298.0523975824643
  0
LINE
  5
3DDD
330
2
100
AcDbEntity
  8
0
100
AcDbLine
 10
1189.437457023436
 20
442.0995164251857
 30
0.0
 11
1189.437457023436
 21
328.0362146881684
 31
0.0
  0
ARC
  5
3DDE
330
2
100
AcDbEntity
  8
0
100
AcDbCircle
 10
1213.405806154926
 20
307.067865556678
 30
0.0
 40
3.0
100
AcDbArc
 50
151.9476024175356
 51
270.0
  0
LINE
  5
3DDF
330
2
100
AcDbEntity
  8
0
100
AcDbLine
 10
1327.469107891924
 20
304.0678655566762
 30
0.0
 11
1213.405806154926
 21
304.067865556678
 31
0.0
  0
ARC
  5
3DE0
330
2
100
AcDbEntity
  8
0
100
AcDbCircle
 10
1341.148135142065
 20
314.3571874380167
 30
0.0
 40
12.5
100
AcDbArc
 50
61.94760241753566
 51
208.0523975824643
  0
ARC
  5
3DE1
330
2
100
AcDbEntity
  8
0
100
AcDbCircle
 10
1327.469107891924
 20
307.067865556668
 30
0.0
 40
3.0
100
AcDbArc
 50
270.0
 51
28.05239758246432
  0
ARC
  5
3DE2
330
2
100
AcDbEntity
  8
0
100
AcDbCircle
 10
1348.437457023414
 20
328.036214688158
 30
0.0
 40
3.0
100
AcDbArc
 50
241.9476024175356
 51
0.0
  0
LINE
  5
3DE3
330
2
100
AcDbEntity
  8
0
100
AcDbLine
 10
1351.437457023419
 20
442.0995164251985
 30
0.0
 11
1351.437457023414
 21
328.036214688158
 31
0.0
  0
ARC
  5
3DE4
330
2
100
AcDbEntity
  8
0
100
AcDbCircle
 10
1199.726778904785
 20
455.7785436753265
 30
0.0
 40
12.5
100
AcDbArc
 50
241.9476024175356
 51
28.05239758246432
  0
ARC
  5
3DE5
330
2
100
AcDbEntity
  8
0
100
AcDbCircle
 10
1192.437457023436
 20
442.0995164251857
 30
0.0
 40
3.0
100
AcDbArc
 50
61.94760241753566
 51
180.0
  0
ARC
  5
3DE6
330
2
100
AcDbEntity
  8
0
100
AcDbCircle
 10
1213.405806154926
 20
463.0678655566762
 30
0.0
 40
3.0
100
AcDbArc
 50
90.0
 51
208.0523975824643
  0
LINE
  5
3DE7
330
2
100
AcDbEntity
  8
0
100
AcDbLine
 10
1327.469107891924
 20
466.0678655566771
 30
0.0
 11
1213.405806154926
 21
466.0678655566762
 31
0.0
  0
ARC
  5
3DE8
330
2
100
AcDbEntity
  8
0
100
AcDbCircle
 10
1261.010153491095
 20
463.0678655566766
 30
0.0
 40
3.0
100
AcDbArc
 50
90.0
 51
180.0
  0
ARC
  5
3DE9
330
2
100
AcDbEntity
  8
0
100
AcDbCircle
 10
1230.864760555798
 20
463.0678655566762
 30
0.0
 40
3.0
100
AcDbArc
 50
0.0
 51
90.0
  0
ARC
  5
3DEA
330
2
100
AcDbEntity
  8
0
100
AcDbCircle
 10
1276.937457023437
 20
463.0678655566766
 30
0.0
 40
3.0
100
AcDbArc
 50
90.0
 51
180.0
  0
ARC
  5
3DEB
330
2
100
AcDbEntity
  8
0
100
AcDbCircle
 10
1341.148135142065
 20
455.7785436753374
 30
0.0
 40
12.5
100
AcDbArc
 50
151.9476024175356
 51
298.0523975824643
  0
ARC
  5
3DEC
330
2
100
AcDbEntity
  8
0
100
AcDbCircle
 10
1348.437457023418
 20
442.0995164251985
 30
0.0
 40
3.0
100
AcDbArc
 50
0.0
 51
118.0523975824643
  0
ARC
  5
3DED
330
2
100
AcDbEntity
  8
0
100
AcDbCircle
 10
1327.469107891924
 20
463.0678655566862
 30
0.0
 40
3.0
100
AcDbArc
 50
331.9476024175356
 51
90.0
  0
LINE
  5
3DEE
330
2
100
AcDbEntity
  8
0
100
AcDbLine
 10
1204.105168505688
 20
388.5678655566762
 30
0.0
 11
1192.437457023438
 21
388.5678655566762
 31
0.0
  0
LINE
  5
3DEF
330
2
100
AcDbEntity
  8
0
100
AcDbLine
 10
1204.105168505688
 20
381.5678655566753
 30
0.0
 11
1192.437457023438
 21
381.5678655566753
 31
0.0
  0
ARC
  5
3DF0
330
2
100
AcDbEntity
  8
0
100
AcDbCircle
 10
1192.437457023438
 20
378.5678655566753
 30
0.0
 40
3.0
100
AcDbArc
 50
90.0
 51
180.0
  0
ARC
  5
3DF1
330
2
100
AcDbEntity
  8
0
100
AcDbCircle
 10
1204.105168505688
 20
391.5678655566762
 30
0.0
 40
3.0
100
AcDbArc
 50
270.0
 51
354.4033689414049
  0
ARC
  5
3DF2
330
2
100
AcDbEntity
  8
0
100
AcDbCircle
 10
1204.105168505688
 20
378.5678655566744
 30
0.0
 40
3.0
100
AcDbArc
 50
5.59663105859507
 51
90.0
  0
ARC
  5
3DF3
330
2
100
AcDbEntity
  8
0
100
AcDbCircle
 10
1192.437457023438
 20
391.5678655566762
 30
0.0
 40
3.0
100
AcDbArc
 50
180.0
 51
270.0
  0
LINE
  5
3DF4
330
2
100
AcDbEntity
  8
0
100
AcDbLine
 10
1266.937457023439
 20
318.7355770389285
 30
0.0
 11
1266.937457023439
 21
307.0678655566775
 31
0.0
  0
LINE
  5
3DF5
330
2
100
AcDbEntity
  8
0
100
AcDbLine
 10
1273.93745702344
 20
318.7355770389276
 30
0.0
 11
1273.93745702344
 21
307.0678655566771
 31
0.0
  0
ARC
  5
3DF6
330
2
100
AcDbEntity
  8
0
100
AcDbCircle
 10
1276.93745702344
 20
307.0678655566771
 30
0.0
 40
3.0
100
AcDbArc
 50
180.0
 51
270.0
  0
ARC
  5
3DF7
330
2
100
AcDbEntity
  8
0
100
AcDbCircle
 10
1263.937457023439
 20
318.7355770389285
 30
0.0
 40
3.0
100
AcDbArc
 50
0.0
 51
84.40336894140491
  0
ARC
  5
3DF8
330
2
100
AcDbEntity
  8
0
100
AcDbCircle
 10
1276.937457023441
 20
318.7355770389276
 30
0.0
 40
3.0
100
AcDbArc
 50
95.59663105859508
 51
180.0
  0
ARC
  5
3DF9
330
2
100
AcDbEntity
  8
0
100
AcDbCircle
 10
1263.937457023439
 20
307.0678655566775
 30
0.0
 40
3.0
100
AcDbArc
 50
270.0
 51
0.0
  0
LINE
  5
3DFA
330
2
100
AcDbEntity
  8
0
100
AcDbLine
 10
1336.769745541187
 20
381.567865556678
 30
0.0
 11
1348.437457023438
 21
381.567865556678
 31
0.0
  0
LINE
  5
3DFB
330
2
100
AcDbEntity
  8
0
100
AcDbLine
 10
1336.769745541188
 20
388.5678655566789
 30
0.0
 11
1348.437457023438
 21
388.5678655566789
 31
0.0
  0
ARC
  5
3DFC
330
2
100
AcDbEntity
  8
0
100
AcDbCircle
 10
1348.437457023438
 20
391.5678655566789
 30
0.0
 40
3.0
100
AcDbArc
 50
270.0
 51
0.0
  0
ARC
  5
3DFD
330
2
100
AcDbEntity
  8
0
100
AcDbCircle
 10
1336.769745541187
 20
378.567865556678
 30
0.0
 40
3.0
100
AcDbArc
 50
90.0
 51
174.4033689414049
  0
ARC
  5
3DFE
330
2
100
AcDbEntity
  8
0
100
AcDbCircle
 10
1336.769745541188
 20
391.5678655566798
 30
0.0
 40
3.0
100
AcDbArc
 50
185.596631058595
 51
270.0
  0
ARC
  5
3DFF
330
2
100
AcDbEntity
  8
0
100
AcDbCircle
 10
1348.437457023438
 20
378.567865556678
 30
0.0
 40
3.0
100
AcDbArc
 50
0.0
 51
90.0
  0
LINE
  5
3E00
330
2
100
AcDbEntity
  8
0
100
AcDbLine
 10
1358.210478964657
 20
463.0969543365186
 30
0.0
 11
1358.437457023439
 21
385.0678655566771
 31
0.0
  0
LINE
  5
3E01
330
2
100
AcDbEntity
  8
0
100
AcDbLine
 10
1358.210478964658
 20
307.0387767768356
 30
0.0
 11
1358.437457023439
 21
385.0678655566771
 31
0.0
  0
ARC
  5
3E02
330
2
100
AcDbEntity
  8
0
100
AcDbCircle
 10
1348.210521272604
 20
307.067865556678
 30
0.0
 40
10.0
100
AcDbArc
 50
270.0
 51
359.8333333333378
  0
LINE
  5
3E03
330
2
100
AcDbEntity
  8
0
100
AcDbLine
 10
1182.664435082205
 20
463.096954336519
 30
0.0
 11
1182.437457023422
 21
385.0678655566773
 31
0.0
  0
ARC
  5
3E04
330
2
100
AcDbEntity
  8
0
100
AcDbCircle
 10
1192.664392774259
 20
463.0678655566762
 30
0.0
 40
10.0
100
AcDbArc
 50
90.0
 51
179.8333333333378
  0
LINE
  5
3E05
330
2
100
AcDbEntity
  8
0
100
AcDbLine
 10
1182.664435082204
 20
307.0387767768325
 30
0.0
 11
1182.437457023422
 21
385.0678655566773
 31
0.0
  0
CIRCLE
  5
3E06
330
2
100
AcDbEntity
  8
HIDS
  6
SEKKEI_H
100
AcDbCircle
 10
1270.437457023433
 20
385.0678655566516
 30
0.0
 40
59.00000000733051
  0
LINE
  5
3E07
330
2
100
AcDbEntity
  8
0
100
AcDbLine
 10
1258.010153491096
 20
463.0678655566766
 30
0.0
 11
1258.010153491095
 21
451.0477749845567
 31
0.0
  0
CIRCLE
  5
3E08
330
2
100
AcDbEntity
  8
0
100
AcDbCircle
 10
1319.581378315899
 20
335.9239442642001
 30
0.0
 40
5.5
  0
CIRCLE
  5
3E09
330
2
100
AcDbEntity
  8
0
100
AcDbCircle
 10
1319.581378315893
 20
434.2117868491313
 30
0.0
 40
5.5
  0
CIRCLE
  5
3E0A
330
2
100
AcDbEntity
  8
0
100
AcDbCircle
 10
1221.293535730962
 20
434.211786849125
 30
0.0
 40
5.5
  0
CIRCLE
  5
3E0B
330
2
100
AcDbEntity
  8
0
100
AcDbCircle
 10
1221.293535730968
 20
335.9239442641937
 30
0.0
 40
5.5
  0
LINE
  5
3E0C
330
2
100
AcDbEntity
  8
CENTER
100
AcDbLine
 10
1319.581378315887
 20
426.4507052426925
 30
0.0
 11
1319.581378315888
 21
441.9728684555702
 31
0.0
  0
LINE
  5
3E0D
330
2
100
AcDbEntity
  8
CENTER
100
AcDbLine
 10
1311.820296709454
 20
434.2117868491313
 30
0.0
 11
1327.342459922332
 21
434.2117868491313
 31
0.0
  0
CIRCLE
  5
3E0E
330
2
100
AcDbEntity
  8
HOJO
100
AcDbCircle
 10
1341.148135142089
 20
455.7785436753284
 30
0.0
 40
6.0
  0
CIRCLE
  5
3E0F
330
2
100
AcDbEntity
  8
0
100
AcDbCircle
 10
1341.148135142089
 20
455.7785436753284
 30
0.0
 40
5.15
  0
CIRCLE
  5
3E10
330
2
100
AcDbEntity
  8
HOJO
100
AcDbCircle
 10
1199.726778904793
 20
455.7785436753301
 30
0.0
 40
6.0
  0
CIRCLE
  5
3E11
330
2
100
AcDbEntity
  8
0
100
AcDbCircle
 10
1199.726778904793
 20
455.7785436753301
 30
0.0
 40
5.15
  0
CIRCLE
  5
3E12
330
2
100
AcDbEntity
  8
HOJO
100
AcDbCircle
 10
1199.726778904783
 20
314.357187438025
 30
0.0
 40
6.0
  0
CIRCLE
  5
3E13
330
2
100
AcDbEntity
  8
0
100
AcDbCircle
 10
1199.726778904783
 20
314.357187438025
 30
0.0
 40
5.15
  0
CIRCLE
  5
3E14
330
2
100
AcDbEntity
  8
HOJO
100
AcDbCircle
 10
1341.148135142087
 20
314.3571874380186
 30
0.0
 40
6.0
  0
CIRCLE
  5
3E15
330
2
100
AcDbEntity
  8
0
100
AcDbCircle
 10
1341.148135142087
 20
314.3571874380186
 30
0.0
 40
5.15
  0
CIRCLE
  5
3E16
330
2
100
AcDbEntity
  8
0
100
AcDbCircle
 10
1270.437457023438
 20
385.0678655566789
 30
0.0
 40
57.14999999998963
  0
CIRCLE
  5
3E17
330
2
100
AcDbEntity
  8
CENTER
100
AcDbCircle
 10
1270.437457023436
 20
385.0678655566771
 30
0.0
 40
99.99999999999339
  0
LINE
  5
3E18
330
2
100
AcDbEntity
  8
0
100
AcDbLine
 10
1215.240701684026
 20
324.921362748958
 30
0.0
 11
1212.151527010006
 21
321.8321880749381
 31
0.0
  0
LINE
  5
3E19
330
2
100
AcDbEntity
  8
0
100
AcDbLine
 10
1210.290954215721
 20
329.871110217264
 30
0.0
 11
1207.201779541701
 21
326.781935543245
 31
0.0
  0
ARC
  5
3E1A
330
2
100
AcDbEntity
  8
0
100
AcDbCircle
 10
1230.864760555801
 20
438.698306486086
 30
0.0
 40
3.0
100
AcDbArc
 50
306.4227819605217
 51
0.0
  0
ARC
  5
3E1B
330
2
100
AcDbEntity
  8
0
100
AcDbCircle
 10
1307.646848999926
 20
337.1733601438222
 30
0.0
 40
3.0
100
AcDbArc
 50
307.8437463747832
 51
354.023523082027
  0
ARC
  5
3E1C
330
2
100
AcDbEntity
  8
0
100
AcDbCircle
 10
1214.272847353566
 20
319.7108677313786
 30
0.0
 40
3.0
100
AcDbArc
 50
135.0000000000091
 51
200.206137536943
  0
ARC
  5
3E1D
330
2
100
AcDbEntity
  8
0
100
AcDbCircle
 10
1205.080459198141
 20
328.9032558868045
 30
0.0
 40
3.0
100
AcDbArc
 50
249.7938624630321
 51
315.0000000000092
  0
LINE
  5
3E1E
330
2
100
AcDbEntity
  8
0
100
AcDbLine
 10
1330.583959831142
 20
329.8711102172501
 30
0.0
 11
1333.673134505154
 21
326.7819355432338
 31
0.0
  0
LINE
  5
3E1F
330
2
100
AcDbEntity
  8
0
100
AcDbLine
 10
1325.634212362834
 20
324.9213627489439
 30
0.0
 11
1328.723387036848
 21
321.832188074929
 31
0.0
  0
ARC
  5
3E20
330
2
100
AcDbEntity
  8
0
100
AcDbCircle
 10
1335.794454848714
 20
328.9032558867938
 30
0.0
 40
3.0
100
AcDbArc
 50
224.9999999999908
 51
290.2061375369678
  0
ARC
  5
3E21
330
2
100
AcDbEntity
  8
0
100
AcDbCircle
 10
1326.602066693288
 20
319.710867731369
 30
0.0
 40
3.0
100
AcDbArc
 50
339.793862463031
 51
44.99999999999077
  0
LINE
  5
3E22
330
2
100
AcDbEntity
  8
0
100
AcDbLine
 10
1215.240701684025
 20
445.2143683643932
 30
0.0
 11
1212.151527010006
 21
448.3035430384124
 31
0.0
  0
LINE
  5
3E23
330
2
100
AcDbEntity
  8
0
100
AcDbLine
 10
1210.290954215718
 20
440.2646208960891
 30
0.0
 11
1207.201779541701
 21
443.3537955701058
 31
0.0
  0
ARC
  5
3E24
330
2
100
AcDbEntity
  8
0
100
AcDbCircle
 10
1214.272847353566
 20
450.424863381972
 30
0.0
 40
3.0
100
AcDbArc
 50
159.7938624630569
 51
224.9999999999908
  0
ARC
  5
3E25
330
2
100
AcDbEntity
  8
0
100
AcDbCircle
 10
1205.080459198141
 20
441.2324752265463
 30
0.0
 40
3.0
100
AcDbArc
 50
44.99999999999077
 51
110.2061375369678
  0
LINE
  5
3E26
330
2
100
AcDbEntity
  8
0
100
AcDbLine
 10
1330.583959831141
 20
440.2646208961045
 30
0.0
 11
1333.673134505154
 21
443.3537955701167
 31
0.0
  0
LINE
  5
3E27
330
2
100
AcDbEntity
  8
0
100
AcDbLine
 10
1325.634212362837
 20
445.2143683644107
 30
0.0
 11
1328.723387036848
 21
448.3035430384216
 31
0.0
  0
ARC
  5
3E28
330
2
100
AcDbEntity
  8
0
100
AcDbCircle
 10
1335.794454848714
 20
441.2324752265567
 30
0.0
 40
3.0
100
AcDbArc
 50
69.79386246303215
 51
135.0000000000091
  0
ARC
  5
3E29
330
2
100
AcDbEntity
  8
0
100
AcDbCircle
 10
1326.602066693288
 20
450.4248633819815
 30
0.0
 40
3.0
100
AcDbArc
 50
315.0000000000092
 51
20.20613753696895
  0
LINE
  5
3E2A
330
2
100
AcDbEntity
  8
0
100
AcDbLine
 10
1233.864760555799
 20
463.0678655566744
 30
0.0
 11
1233.864760555801
 21
438.698306486086
 31
0.0
  0
ARC
  5
3E2B
330
2
100
AcDbEntity
  8
0
100
AcDbCircle
 10
1319.581378315901
 20
335.9239442641988
 30
0.0
 40
8.999751248844436
100
AcDbArc
 50
95.97647691799922
 51
174.0235230820269
  0
ARC
  5
3E2C
330
2
100
AcDbEntity
  8
0
100
AcDbCircle
 10
1318.331962436276
 20
347.8584735801744
 30
0.0
 40
3.0
100
AcDbArc
 50
275.9764769179992
 51
322.156253625214
  0
LINE
  5
3E2D
330
2
100
AcDbEntity
  8
0
100
AcDbLine
 10
1328.462639487584
 20
331.9924305608096
 30
0.0
 11
1323.512892019277
 21
327.0426830924993
 31
0.0
  0
ARC
  5
3E2E
330
2
100
AcDbEntity
  8
0
100
AcDbCircle
 10
1332.705280174702
 20
331.9924305608085
 30
0.0
 40
3.0
100
AcDbArc
 50
135.0000000000091
 51
224.9999999999908
  0
ARC
  5
3E2F
330
2
100
AcDbEntity
  8
0
100
AcDbCircle
 10
1323.512892019274
 20
322.8000424053839
 30
0.0
 40
3.0
100
AcDbArc
 50
44.99999999999077
 51
135.0000000000091
  0
LINE
  5
3E30
330
2
100
AcDbEntity
  8
0
100
AcDbLine
 10
1323.512892019306
 20
443.0930480208234
 30
0.0
 11
1328.462639487616
 21
438.1433005525159
 31
0.0
  0
ARC
  5
3E31
330
2
100
AcDbEntity
  8
0
100
AcDbCircle
 10
1323.512892019307
 20
447.3356887079408
 30
0.0
 40
3.0
100
AcDbArc
 50
224.9999999999908
 51
315.0000000000092
  0
ARC
  5
3E32
330
2
100
AcDbEntity
  8
0
100
AcDbCircle
 10
1332.705280174731
 20
438.1433005525131
 30
0.0
 40
3.0
100
AcDbArc
 50
135.0000000000091
 51
224.9999999999908
  0
LINE
  5
3E33
330
2
100
AcDbEntity
  8
0
100
AcDbLine
 10
1212.412274559292
 20
438.143300552545
 30
0.0
 11
1217.362022027599
 21
443.0930480208551
 31
0.0
  0
ARC
  5
3E34
330
2
100
AcDbEntity
  8
0
100
AcDbCircle
 10
1208.169633872174
 20
438.1433005525459
 30
0.0
 40
3.0
100
AcDbArc
 50
315.0000000000092
 51
44.99999999999077
  0
ARC
  5
3E35
330
2
100
AcDbEntity
  8
0
100
AcDbCircle
 10
1217.362022027602
 20
447.3356887079705
 30
0.0
 40
3.0
100
AcDbArc
 50
224.9999999999908
 51
315.0000000000092
  0
LINE
  5
3E36
330
2
100
AcDbEntity
  8
0
100
AcDbLine
 10
1217.36202202757
 20
327.0426830925307
 30
0.0
 11
1212.41227455926
 21
331.9924305608383
 31
0.0
  0
ARC
  5
3E37
330
2
100
AcDbEntity
  8
0
100
AcDbCircle
 10
1217.362022027569
 20
322.8000424054134
 30
0.0
 40
3.0
100
AcDbArc
 50
44.99999999999077
 51
135.0000000000091
  0
ARC
  5
3E38
330
2
100
AcDbEntity
  8
0
100
AcDbCircle
 10
1208.169633872144
 20
331.992430560841
 30
0.0
 40
3.0
100
AcDbArc
 50
315.0000000000092
 51
44.99999999999077
  0
ARC
  5
3E39
330
2
100
AcDbEntity
  8
0
100
AcDbCircle
 10
1318.331962436293
 20
422.2772575331646
 30
0.0
 40
3.0
100
AcDbArc
 50
37.84374637479502
 51
84.02352308205285
  0
ARC
  5
3E3A
330
2
100
AcDbEntity
  8
0
100
AcDbCircle
 10
1319.581378315917
 20
434.2117868491405
 30
0.0
 40
8.999751248844436
100
AcDbArc
 50
185.9764769179996
 51
264.0235230820529
  0
ARC
  5
3E3B
330
2
100
AcDbEntity
  8
0
100
AcDbCircle
 10
1307.646848999941
 20
432.9623709695152
 30
0.0
 40
3.0
100
AcDbArc
 50
5.976476917999615
 51
52.15625362521466
  0
ARC
  5
3E3C
330
2
100
AcDbEntity
  8
0
100
AcDbCircle
 10
1233.22806504695
 20
432.9623709695324
 30
0.0
 40
3.0
100
AcDbArc
 50
127.8437463748505
 51
174.0235230820133
  0
ARC
  5
3E3D
330
2
100
AcDbEntity
  8
0
100
AcDbCircle
 10
1221.293535730975
 20
434.2117868491559
 30
0.0
 40
8.999751248844436
100
AcDbArc
 50
275.976476917947
 51
354.0235230820133
  0
ARC
  5
3E3E
330
2
100
AcDbEntity
  8
0
100
AcDbCircle
 10
1222.5429516106
 20
422.27725753318
 30
0.0
 40
3.0
100
AcDbArc
 50
95.97647691794714
 51
142.156253625214
  0
ARC
  5
3E3F
330
2
100
AcDbEntity
  8
0
100
AcDbCircle
 10
1222.542951610583
 20
347.8584735801896
 30
0.0
 40
3.0
100
AcDbArc
 50
217.8437463747859
 51
264.0235230820529
  0
ARC
  5
3E40
330
2
100
AcDbEntity
  8
0
100
AcDbCircle
 10
1221.293535730959
 20
335.9239442642138
 30
0.0
 40
8.999751248844436
100
AcDbArc
 50
5.976476917999615
 51
84.02352308205285
  0
ARC
  5
3E41
330
2
100
AcDbEntity
  8
0
100
AcDbCircle
 10
1233.228065046935
 20
337.173360143839
 30
0.0
 40
3.0
100
AcDbArc
 50
185.9764769179996
 51
232.1562536252146
  0
LINE
  5
3E43
330
2
100
AcDbEntity
  8
0
100
AcDbLine
 10
-22.64299574731626
 20
444.0678655566751
 30
0.0
 11
31.73026914115894
 21
444.0678655566748
 31
0.0
  0
ARC
  5
3E44
330
2
100
AcDbEntity
  8
0
100
AcDbCircle
 10
-22.64299574731626
 20
454.067865556675
 30
0.0
 40
10.0
100
AcDbArc
 50
181.0000000000017
 51
270.0
  0
LINE
  5
3E45
330
2
100
AcDbEntity
  8
0
100
AcDbLine
 10
46.52383473860777
 20
325.0678655566773
 30
0.0
 11
35.47192652795479
 21
325.0678655566773
 31
0.0
  0
ARC
  5
3E46
330
2
100
AcDbEntity
  8
0
100
AcDbCircle
 10
35.47192652795479
 20
328.0678655566773
 30
0.0
 40
3.0
100
AcDbArc
 50
181.0000000000017
 51
270.0
  0
ARC
  5
3E47
330
2
100
AcDbEntity
  8
0
100
AcDbCircle
 10
31.73026914118077
 20
321.5678655566773
 30
0.0
 40
4.5
100
AcDbArc
 50
60.07356513338102
 51
90.0
  0
LINE
  5
3E48
330
2
100
AcDbEntity
  8
0
100
AcDbLine
 10
31.73026914118167
 20
326.0678655566773
 30
0.0
 11
-22.64299574732081
 21
326.0678655566782
 31
0.0
  0
LINE
  5
3E49
330
2
100
AcDbEntity
  8
0
100
AcDbLine
 10
-32.92471396527594
 20
300.0155083373658
 30
0.0
 11
-31.44011954770553
 21
385.0678655566775
 31
0.0
  0
ARC
  5
3E4A
330
2
100
AcDbEntity
  8
0
100
AcDbCircle
 10
-28.55312048560676
 20
378.5678655566775
 30
0.0
 40
3.0
100
AcDbArc
 50
90.0
 51
178.9999999999851
  0
ARC
  5
3E4B
330
2
100
AcDbEntity
  8
0
100
AcDbCircle
 10
-22.64299574732081
 20
316.0678655566782
 30
0.0
 40
10.0
100
AcDbArc
 50
90.0
 51
178.9999999999982
  0
LINE
  5
3E4C
330
2
100
AcDbEntity
  8
0
100
AcDbLine
 10
-47.97616526139745
 20
297.0678655566773
 30
0.0
 11
-47.97616526139677
 21
473.0678655566794
 31
0.0
  0
LINE
  5
3E4D
330
2
100
AcDbEntity
  8
0
100
AcDbLine
 10
-8.476165261396772
 20
381.5678655566773
 30
0.0
 11
-8.476165261396772
 21
388.5678655566773
 31
0.0
  0
LINE
  5
3E4E
330
2
100
AcDbEntity
  8
0
100
AcDbLine
 10
32.47238344248603
 20
328.0155083373654
 30
0.0
 11
31.47653084291528
 21
385.0678655566775
 31
0.0
  0
LINE
  5
3E4F
330
2
100
AcDbEntity
  8
0
100
AcDbLine
 10
46.52383473860687
 20
325.0678655566773
 30
0.0
 11
46.52383473860777
 21
445.0678655566774
 31
0.0
  0
LINE
  5
3E50
330
2
100
AcDbEntity
  8
0
100
AcDbLine
 10
-47.97616526139745
 20
297.0678655566773
 30
0.0
 11
-35.9242570507447
 21
297.0678655566778
 31
0.0
  0
ARC
  5
3E51
330
2
100
AcDbEntity
  8
0
100
AcDbCircle
 10
-35.9242570507447
 20
300.0678655566778
 30
0.0
 40
3.0
100
AcDbArc
 50
270.0
 51
358.9999999999982
  0
LINE
  5
3E52
330
2
100
AcDbEntity
  8
0
100
AcDbLine
 10
-28.55312048560676
 20
381.5678655566776
 30
0.0
 11
-11.47616526139677
 21
381.5678655566773
 31
0.0
  0
ARC
  5
3E53
330
2
100
AcDbEntity
  8
0
100
AcDbCircle
 10
-11.47616526139677
 20
378.5678655566773
 30
0.0
 40
3.0
100
AcDbArc
 50
0.0
 51
90.0
  0
LINE
  5
3E54
330
2
100
AcDbEntity
  8
0
100
AcDbLine
 10
-9.354844917837453
 20
325.1891859002375
 30
0.0
 11
-32.03915300317339
 21
302.5048778149007
 31
0.0
  0
LINE
  5
3E55
330
2
100
AcDbEntity
  8
0
100
AcDbLine
 10
-8.476165261396772
 20
388.5678655566792
 30
0.0
 11
-8.476165261396772
 21
381.5678655566792
 31
0.0
  0
LINE
  5
3E56
330
2
100
AcDbEntity
  8
0
100
AcDbLine
 10
-47.97616526139677
 20
473.0678655566794
 30
0.0
 11
-35.92425705073924
 21
473.0678655566792
 31
0.0
  0
ARC
  5
3E57
330
2
100
AcDbEntity
  8
0
100
AcDbCircle
 10
-35.92425705073924
 20
470.0678655566791
 30
0.0
 40
3.0
100
AcDbArc
 50
1.000000000001762
 51
90.0
  0
LINE
  5
3E58
330
2
100
AcDbEntity
  8
0
100
AcDbLine
 10
-28.55312048560767
 20
388.5678655566792
 30
0.0
 11
-11.47616526139677
 21
388.5678655566792
 31
0.0
  0
ARC
  5
3E59
330
2
100
AcDbEntity
  8
0
100
AcDbCircle
 10
-11.47616526139677
 20
391.5678655566791
 30
0.0
 40
3.0
100
AcDbArc
 50
270.0
 51
0.0
  0
LINE
  5
3E5A
330
2
100
AcDbEntity
  8
0
100
AcDbLine
 10
46.52383473860777
 20
445.0678655566791
 30
0.0
 11
35.47192652794115
 21
445.0678655566791
 31
0.0
  0
LINE
  5
3E5B
330
2
100
AcDbEntity
  8
0
100
AcDbLine
 10
46.52383473860732
 20
385.0678655566773
 30
0.0
 11
-47.97616526139722
 21
385.0678655566775
 31
0.0
  0
LINE
  5
3E5C
330
2
100
AcDbEntity
  8
0
100
AcDbLine
 10
32.47238344247239
 20
442.1202227759911
 30
0.0
 11
31.47653084290345
 21
385.0678655566591
 31
0.0
  0
ARC
  5
3E5D
330
2
100
AcDbEntity
  8
0
100
AcDbCircle
 10
35.47192652794115
 20
442.0678655566791
 30
0.0
 40
3.0
100
AcDbArc
 50
90.0
 51
178.9999999999982
  0
ARC
  5
3E5E
330
2
100
AcDbEntity
  8
0
100
AcDbCircle
 10
31.73026914115985
 20
448.5678655566748
 30
0.0
 40
4.5
100
AcDbArc
 50
270.0
 51
299.926434866679
  0
LINE
  5
3E5F
330
2
100
AcDbEntity
  8
0
100
AcDbLine
 10
-32.92471396527048
 20
470.1202227759911
 30
0.0
 11
-31.44011954770371
 21
385.0678655566775
 31
0.0
  0
ARC
  5
3E60
330
2
100
AcDbEntity
  8
0
100
AcDbCircle
 10
-28.55312048560767
 20
391.5678655566791
 30
0.0
 40
3.0
100
AcDbArc
 50
181.0000000000017
 51
270.0
  0
ARC
  5
3E61
330
2
100
AcDbEntity
  8
0
100
AcDbCircle
 10
-7.23352457427768
 20
323.0678655566778
 30
0.0
 40
3.0
100
AcDbArc
 50
90.0
 51
135.000000000009
  0
ARC
  5
3E62
330
2
100
AcDbEntity
  8
0
100
AcDbCircle
 10
-29.91783265961385
 20
300.3835574713409
 30
0.0
 40
3.0
100
AcDbArc
 50
135.000000000009
 51
178.9999999999982
  0
LINE
  5
3E63
330
2
100
AcDbEntity
  8
0
100
AcDbLine
 10
-9.354844917838363
 20
444.9465452131183
 30
0.0
 11
-32.03915300317476
 21
467.6308532984546
 31
0.0
  0
ARC
  5
3E64
330
2
100
AcDbEntity
  8
0
100
AcDbCircle
 10
-7.233524574278817
 20
447.0678655566778
 30
0.0
 40
3.0
100
AcDbArc
 50
224.9999999999908
 51
270.0
  0
ARC
  5
3E65
330
2
100
AcDbEntity
  8
0
100
AcDbCircle
 10
-29.91783265961521
 20
469.7521736420141
 30
0.0
 40
3.0
100
AcDbArc
 50
181.0000000000017
 51
224.9999999999908
  0
LINE
  5
3E67
330
2
100
AcDbEntity
  8
0
100
AcDbLine
 10
921.8845653171255
 20
428.4617868492619
 30
0.0
 11
923.3845653171263
 21
428.4617868492619
 31
0.0
  0
LINE
  5
3E68
330
2
100
AcDbEntity
  8
0
100
AcDbLine
 10
921.8845653171259
 20
439.9617868492619
 30
0.0
 11
923.3845653171265
 21
439.9617868492619
 31
0.0
  0
LINE
  5
3E69
330
2
100
AcDbEntity
  8
0
100
AcDbLine
 10
928.984565317126
 20
429.2117868492617
 30
0.0
 11
929.3845653171256
 21
429.904607172289
 31
0.0
  0
LINE
  5
3E6A
330
2
100
AcDbEntity
  8
0
100
AcDbLine
 10
923.3845653171263
 20
428.4617868492619
 30
0.0
 11
923.3845653171265
 21
439.9617868492619
 31
0.0
  0
LINE
  5
3E6B
330
2
100
AcDbEntity
  8
0
100
AcDbLine
 10
928.984565317126
 20
429.2117868492617
 30
0.0
 11
928.9845653171262
 21
439.2117868492617
 31
0.0
  0
LINE
  5
3E6C
330
2
100
AcDbEntity
  8
0
100
AcDbLine
 10
923.3845653171263
 20
429.2117868492619
 30
0.0
 11
928.984565317126
 21
429.2117868492617
 31
0.0
  0
LINE
  5
3E6D
330
2
100
AcDbEntity
  8
0
100
AcDbLine
 10
923.3845653171265
 20
439.2117868492619
 30
0.0
 11
928.9845653171262
 21
439.2117868492617
 31
0.0
  0
LINE
  5
3E6E
330
2
100
AcDbEntity
  8
0
100
AcDbLine
 10
928.9845653171262
 20
439.2117868492617
 30
0.0
 11
929.3845653171258
 21
438.5189665262344
 31
0.0
  0
LINE
  5
3E6F
330
2
100
AcDbEntity
  8
0
100
AcDbLine
 10
929.3845653171256
 20
429.904607172289
 30
0.0
 11
929.3845653171258
 21
438.5189665262344
 31
0.0
  0
LINE
  5
3E70
330
2
100
AcDbEntity
  8
0
 48
12.0
100
AcDbLine
 10
921.8845653171259
 20
439.9617868492619
 30
0.0
 11
921.8845653171255
 21
428.4617868492619
 31
0.0
  0
LINE
  5
3E71
330
2
100
AcDbEntity
  8
0
100
AcDbLine
 10
921.5946935603213
 20
848.9268338888781
 30
0.0
 11
923.0946935603219
 21
848.9268338888781
 31
0.0
  0
LINE
  5
3E72
330
2
100
AcDbEntity
  8
0
100
AcDbLine
 10
921.5946935603215
 20
860.4268338888781
 30
0.0
 11
923.0946935603222
 21
860.4268338888781
 31
0.0
  0
LINE
  5
3E73
330
2
100
AcDbEntity
  8
0
100
AcDbLine
 10
928.6946935603216
 20
849.6768338888777
 30
0.0
 11
929.0946935603212
 21
850.3696542119051
 31
0.0
  0
LINE
  5
3E74
330
2
100
AcDbEntity
  8
0
100
AcDbLine
 10
923.0946935603219
 20
848.9268338888781
 30
0.0
 11
923.0946935603222
 21
860.4268338888781
 31
0.0
  0
LINE
  5
3E75
330
2
100
AcDbEntity
  8
0
100
AcDbLine
 10
928.6946935603216
 20
849.6768338888777
 30
0.0
 11
928.6946935603218
 21
859.6768338888777
 31
0.0
  0
LINE
  5
3E76
330
2
100
AcDbEntity
  8
0
100
AcDbLine
 10
923.0946935603219
 20
849.6768338888781
 30
0.0
 11
928.6946935603216
 21
849.6768338888777
 31
0.0
  0
LINE
  5
3E77
330
2
100
AcDbEntity
  8
0
100
AcDbLine
 10
923.0946935603222
 20
859.6768338888781
 30
0.0
 11
928.6946935603218
 21
859.6768338888777
 31
0.0
  0
LINE
  5
3E78
330
2
100
AcDbEntity
  8
0
100
AcDbLine
 10
928.6946935603218
 20
859.6768338888777
 30
0.0
 11
929.0946935603214
 21
858.9840135658505
 31
0.0
  0
LINE
  5
3E79
330
2
100
AcDbEntity
  8
0
100
AcDbLine
 10
929.0946935603212
 20
850.3696542119051
 30
0.0
 11
929.0946935603214
 21
858.9840135658505
 31
0.0
  0
LINE
  5
3E7A
330
2
100
AcDbEntity
  8
0
 48
12.0
100
AcDbLine
 10
921.5946935603215
 20
860.4268338888781
 30
0.0
 11
921.5946935603213
 21
848.9268338888781
 31
0.0
  0
LINE
  5
3E7B
330
2
100
AcDbEntity
  8
0
100
AcDbLine
 10
32.23398613131371
 20
341.6732811473032
 30
0.0
 11
30.73398613131326
 21
341.6732811473032
 31
0.0
  0
LINE
  5
3E7C
330
2
100
AcDbEntity
  8
0
100
AcDbLine
 10
32.23398613131348
 20
330.1732811473032
 30
0.0
 11
30.7339861313128
 21
330.1732811473032
 31
0.0
  0
LINE
  5
3E7D
330
2
100
AcDbEntity
  8
0
100
AcDbLine
 10
25.13398613131335
 20
340.9232811473034
 30
0.0
 11
24.73398613131371
 21
340.2304608242761
 31
0.0
  0
LINE
  5
3E7E
330
2
100
AcDbEntity
  8
0
100
AcDbLine
 10
30.73398613131326
 20
341.6732811473032
 30
0.0
 11
30.7339861313128
 21
330.1732811473032
 31
0.0
  0
LINE
  5
3E7F
330
2
100
AcDbEntity
  8
0
100
AcDbLine
 10
25.13398613131335
 20
340.9232811473034
 30
0.0
 11
25.13398613131312
 21
330.9232811473034
 31
0.0
  0
LINE
  5
3E80
330
2
100
AcDbEntity
  8
0
100
AcDbLine
 10
30.73398613131326
 20
340.9232811473032
 30
0.0
 11
25.13398613131335
 21
340.9232811473034
 31
0.0
  0
LINE
  5
3E81
330
2
100
AcDbEntity
  8
0
100
AcDbLine
 10
30.7339861313128
 20
330.9232811473032
 30
0.0
 11
25.13398613131312
 21
330.9232811473034
 31
0.0
  0
LINE
  5
3E82
330
2
100
AcDbEntity
  8
0
100
AcDbLine
 10
25.13398613131312
 20
330.9232811473034
 30
0.0
 11
24.73398613131348
 21
331.6161014703307
 31
0.0
  0
LINE
  5
3E83
330
2
100
AcDbEntity
  8
0
100
AcDbLine
 10
24.73398613131371
 20
340.2304608242761
 30
0.0
 11
24.73398613131348
 21
331.6161014703307
 31
0.0
  0
LINE
  5
3E84
330
2
100
AcDbEntity
  8
0
 48
12.0
100
AcDbLine
 10
32.23398613131348
 20
330.1732811473032
 30
0.0
 11
32.23398613131371
 21
341.6732811473032
 31
0.0
  0
LINE
  5
3E85
330
2
100
AcDbEntity
  8
0
100
AcDbLine
 10
32.23396298180341
 20
439.9611237322362
 30
0.0
 11
30.73396298180296
 21
439.9611237322362
 31
0.0
  0
LINE
  5
3E86
330
2
100
AcDbEntity
  8
0
100
AcDbLine
 10
32.23396298180341
 20
428.4611237322362
 30
0.0
 11
30.7339629818025
 21
428.4611237322362
 31
0.0
  0
LINE
  5
3E87
330
2
100
AcDbEntity
  8
0
100
AcDbLine
 10
25.13396298180305
 20
439.2111237322365
 30
0.0
 11
24.73396298180341
 21
438.5183034092092
 31
0.0
  0
LINE
  5
3E88
330
2
100
AcDbEntity
  8
0
100
AcDbLine
 10
30.73396298180296
 20
439.9611237322362
 30
0.0
 11
30.7339629818025
 21
428.4611237322362
 31
0.0
  0
LINE
  5
3E89
330
2
100
AcDbEntity
  8
0
100
AcDbLine
 10
25.13396298180305
 20
439.2111237322365
 30
0.0
 11
25.13396298180305
 21
429.2111237322365
 31
0.0
  0
LINE
  5
3E8A
330
2
100
AcDbEntity
  8
0
100
AcDbLine
 10
30.73396298180296
 20
439.2111237322362
 30
0.0
 11
25.13396298180305
 21
439.2111237322365
 31
0.0
  0
LINE
  5
3E8B
330
2
100
AcDbEntity
  8
0
100
AcDbLine
 10
30.7339629818025
 20
429.2111237322362
 30
0.0
 11
25.13396298180305
 21
429.2111237322365
 31
0.0
  0
LINE
  5
3E8C
330
2
100
AcDbEntity
  8
0
100
AcDbLine
 10
25.13396298180305
 20
429.2111237322365
 30
0.0
 11
24.73396298180341
 21
429.9039440552637
 31
0.0
  0
LINE
  5
3E8D
330
2
100
AcDbEntity
  8
0
100
AcDbLine
 10
24.73396298180341
 20
438.5183034092092
 30
0.0
 11
24.73396298180341
 21
429.9039440552637
 31
0.0
  0
LINE
  5
3E8E
330
2
100
AcDbEntity
  8
0
 48
12.0
100
AcDbLine
 10
32.23396298180341
 20
428.4611237322362
 30
0.0
 11
32.23396298180341
 21
439.9611237322362
 31
0.0
  0
CIRCLE
  5
3E8F
330
2
100
AcDbEntity
  8
0
100
AcDbCircle
 10
983.5946935603487
 20
781.0329125964143
 30
0.0
 40
9.0
  0
LINE
  5
3E90
330
2
100
AcDbEntity
  8
0
100
AcDbLine
 10
984.7615240462449
 20
448.0678655566745
 30
0.0
 11
978.5946935603258
 21
448.0678655566745
 31
0.0
  0
ARC
  5
3E91
330
2
100
AcDbEntity
  8
0
100
AcDbCircle
 10
978.5946935603258
 20
444.0678655566745
 30
0.0
 40
4.0
100
AcDbArc
 50
90.0
 51
180.0
  0
LINE
  5
3E92
330
2
100
AcDbEntity
  8
0
100
AcDbLine
 10
972.0946935603265
 20
385.0678655566774
 30
0.0
 11
972.0946935603267
 21
412.5504895736303
 31
0.0
  0
LINE
  5
3E93
330
2
100
AcDbEntity
  8
0
100
AcDbLine
 10
994.0946935603262
 20
385.0678655566774
 30
0.0
 11
994.0946935603262
 21
417.0678655566776
 31
0.0
  0
LINE
  5
3E94
330
2
100
AcDbEntity
  8
0
100
AcDbLine
 10
992.0946935603263
 20
385.0678655566774
 30
0.0
 11
992.0946935603263
 21
402.5678655566776
 31
0.0
  0
LINE
  5
3E95
330
2
100
AcDbEntity
  8
0
100
AcDbLine
 10
974.0946935603265
 20
385.0678655566774
 30
0.0
 11
974.0946935603265
 21
413.2821200150597
 31
0.0
  0
LINE
  5
3E96
330
2
100
AcDbEntity
  8
0
100
AcDbLine
 10
978.3573904785946
 20
417.0678655566776
 30
0.0
 11
994.0946935603262
 21
417.0678655566776
 31
0.0
  0
LINE
  5
3E97
330
2
100
AcDbEntity
  8
0
100
AcDbLine
 10
920.5946935603263
 20
385.0678655566774
 30
0.0
 11
920.5946935603263
 21
403.0678655566772
 31
0.0
  0
LINE
  5
3E98
330
2
100
AcDbEntity
  8
0
 48
0.3
100
AcDbLine
 10
940.5946935603267
 20
402.5678655566771
 30
0.0
 11
972.0946935603263
 21
402.5678655566771
 31
0.0
  0
LINE
  5
3E99
330
2
100
AcDbEntity
  8
0
 48
0.3
100
AcDbLine
 10
974.0946935603263
 20
402.5678655566776
 30
0.0
 11
992.0946935603263
 21
402.5678655566776
 31
0.0
  0
LINE
  5
3E9A
330
2
100
AcDbEntity
  8
0
100
AcDbLine
 10
940.5946935603267
 20
385.0678655566774
 30
0.0
 11
940.5946935603267
 21
403.0678655566772
 31
0.0
  0
LINE
  5
3E9B
330
2
100
AcDbEntity
  8
0
100
AcDbLine
 10
920.5946935603263
 20
402.0678655566771
 30
0.0
 11
910.7797389841037
 21
385.0678655566776
 31
0.0
  0
LINE
  5
3E9C
330
2
100
AcDbEntity
  8
0
100
AcDbLine
 10
940.5946935603262
 20
403.0678655566772
 30
0.0
 11
920.5946935603263
 21
403.0678655566772
 31
0.0
  0
LINE
  5
3E9D
330
2
100
AcDbEntity
  8
0
100
AcDbLine
 10
992.0946935603263
 20
402.5678655566776
 30
0.0
 11
994.0946935603262
 21
403.7225660950569
 31
0.0
  0
LINE
  5
3E9E
330
2
100
AcDbEntity
  8
0
100
AcDbLine
 10
995.0946935603308
 20
442.2178655566781
 30
0.0
 11
995.0946935603262
 21
385.0678655566778
 31
0.0
  0
LINE
  5
3E9F
330
2
100
AcDbEntity
  8
0
100
AcDbLine
 10
994.5946935603267
 20
440.3178655566783
 30
0.0
 11
994.5946935603247
 21
385.0678655566771
 31
0.0
  0
LINE
  5
3EA0
330
2
100
AcDbEntity
  8
0
100
AcDbLine
 10
983.6058252811406
 20
433.5094251671939
 30
0.0
 11
992.1156380933277
 21
435.0099347667604
 31
0.0
  0
ARC
  5
3EA1
330
2
100
AcDbEntity
  8
0
100
AcDbCircle
 10
991.5946935603267
 20
437.9643580257971
 30
0.0
 40
3.0
100
AcDbArc
 50
280.000000000005
 51
0.0
  0
LINE
  5
3EA2
330
2
100
AcDbEntity
  8
0
100
AcDbLine
 10
995.0946935603308
 20
440.8178655566796
 30
0.0
 11
994.5946935603267
 21
440.3178655566783
 31
0.0
  0
LINE
  5
3EA3
330
2
100
AcDbEntity
  8
0
100
AcDbLine
 10
1002.094693560326
 20
442.217865556678
 30
0.0
 11
995.0946935603308
 21
442.2178655566781
 31
0.0
  0
LINE
  5
3EA5
330
2
100
AcDbEntity
  8
CENTER
100
AcDbLine
 10
1245.937457023438
 20
362.1932794685087
 30
0.0
 11
1245.937457023446
 21
478.0678655566762
 31
0.0
  0
LINE
  5
3EA6
330
2
100
AcDbEntity
  8
HIDS
  6
SEKKEI_H
100
AcDbLine
 10
1240.040088716305
 20
395.0678655566962
 30
0.0
 11
1253.687457023431
 21
395.0678655566957
 31
0.0
  0
LINE
  5
3EA7
330
2
100
AcDbEntity
  8
HIDS
  6
SEKKEI_H
100
AcDbLine
 10
1253.687457023431
 20
395.0678655566957
 30
0.0
 11
1253.687457023431
 21
412.3339158757162
 31
0.0
  0
LINE
  5
3EA8
330
2
100
AcDbEntity
  8
HIDS
  6
SEKKEI_H
100
AcDbLine
 10
1250.437457023431
 20
385.817865556693
 30
0.0
 11
1250.437457023431
 21
395.067865556696
 31
0.0
  0
LINE
  5
3EAC
330
2
100
AcDbEntity
  8
0
100
AcDbLine
 10
1238.446247293271
 20
384.317865556693
 30
0.0
 11
1252.953535838539
 21
384.317865556693
 31
0.0
  0
LINE
  5
3EAD
330
2
100
AcDbEntity
  8
0
100
AcDbLine
 10
1287.921378208353
 20
384.317865556693
 30
0.0
 11
1300.523578667832
 21
384.3178655566934
 31
0.0
  0
LINE
  5
3EAE
330
2
100
AcDbEntity
  8
0
100
AcDbLine
 10
1238.446247293271
 20
385.817865556693
 30
0.0
 11
1252.95353583854
 21
385.817865556693
 31
0.0
  0
LINE
  5
3EAF
330
2
100
AcDbEntity
  8
0
100
AcDbLine
 10
1287.921378208351
 20
385.8178655566934
 30
0.0
 11
1300.523578667832
 21
385.817865556693
 31
0.0
  0
LINE
  5
3EB1
330
2
100
AcDbEntity
  8
HIDS
  6
SEKKEI_H
100
AcDbLine
 10
1241.437457023445
 20
385.817865556693
 30
0.0
 11
1241.437457023445
 21
395.067865556696
 31
0.0
  0
LINE
  5
3EB2
330
2
100
AcDbEntity
  8
0
100
AcDbLine
 10
1300.523578667832
 20
384.3178655566934
 30
0.0
 11
1300.523578667832
 21
385.817865556693
 31
0.0
  0
ARC
  5
3EB3
330
2
100
AcDbEntity
  8
0
100
AcDbCircle
 10
1270.437457023438
 20
385.0678655566771
 30
0.0
 40
18.65470053837964
100
AcDbArc
 50
182.3041602576043
 51
357.6958397423956
  0
ARC
  5
3EB4
330
2
100
AcDbEntity
  8
0
100
AcDbCircle
 10
1270.437457023438
 20
385.0678655566771
 30
0.0
 40
18.65470053837964
100
AcDbArc
 50
2.304160257695482
 51
177.6958397423045
  0
CIRCLE
  5
3EB5
330
2
100
AcDbEntity
  8
0
100
AcDbCircle
 10
1270.437457023438
 20
385.0678655566771
 30
0.0
 40
17.50000000000857
  0
CIRCLE
  5
3EB6
330
2
100
AcDbEntity
  8
0
100
AcDbCircle
 10
1270.437457023438
 20
385.0678655566771
 30
0.0
 40
31.99999999999173
  0
LINE
  5
3EB7
330
2
100
AcDbEntity
  8
HIDS
  6
SEKKEI_H
100
AcDbLine
 10
1252.43745702344
 20
404.5678655566962
 30
0.0
 11
1245.065228110733
 21
404.5678655566964
 31
0.0
  0
LINE
  5
3EB8
330
2
100
AcDbEntity
  8
HIDS
  6
SEKKEI_H
100
AcDbLine
 10
1251.571431619654
 20
405.0678655566962
 30
0.0
 11
1245.45746502987
 21
405.0678655566962
 31
0.0
  0
LINE
  5
3EB9
330
2
100
AcDbEntity
  8
HIDS
  6
SEKKEI_H
100
AcDbLine
 10
1253.18745702344
 20
397.0678655566962
 30
0.0
 11
1240.772663075072
 21
397.0678655566962
 31
0.0
  0
LINE
  5
3EBC
330
2
100
AcDbEntity
  8
0
 48
0.3
100
AcDbLine
 10
1238.68745702344
 20
397.067865556696
 30
0.0
 11
1238.68745702344
 21
395.067865556696
 31
0.0
  0
LINE
  5
3EBD
330
2
100
AcDbEntity
  8
0
 48
0.3
100
AcDbLine
 10
1239.43745702344
 20
404.567865556696
 30
0.0
 11
1240.303482427225
 21
405.067865556696
 31
0.0
  0
LINE
  5
3EBE
330
2
100
AcDbEntity
  8
0
 48
0.3
100
AcDbLine
 10
1239.43745702344
 20
404.567865556696
 30
0.0
 11
1239.43745702344
 21
397.067865556696
 31
0.0
  0
LINE
  5
3EBF
330
2
100
AcDbEntity
  8
HIDS
  6
SEKKEI_H
100
AcDbLine
 10
1253.18745702344
 20
397.0678655566962
 30
0.0
 11
1253.18745702344
 21
395.0678655566962
 31
0.0
  0
LINE
  5
3EC0
330
2
100
AcDbEntity
  8
HIDS
  6
SEKKEI_H
100
AcDbLine
 10
1252.43745702344
 20
404.5678655566955
 30
0.0
 11
1251.571431619656
 21
405.0678655566957
 31
0.0
  0
LINE
  5
3EC1
330
2
100
AcDbEntity
  8
HIDS
  6
SEKKEI_H
100
AcDbLine
 10
1252.43745702344
 20
404.5678655566953
 30
0.0
 11
1252.43745702344
 21
397.0678655566962
 31
0.0
  0
LINE
  5
3EC2
330
2
100
AcDbEntity
  8
0
100
AcDbLine
 10
1245.45746502987
 20
405.0678655566962
 30
0.0
 11
1240.303482427225
 21
405.067865556696
 31
0.0
  0
LINE
  5
3EC3
330
2
100
AcDbEntity
  8
0
100
AcDbLine
 10
1245.065228110733
 20
404.5678655566962
 30
0.0
 11
1239.43745702344
 21
404.567865556696
 31
0.0
  0
LINE
  5
3EC4
330
2
100
AcDbEntity
  8
0
100
AcDbLine
 10
1240.772663075072
 20
397.067865556696
 30
0.0
 11
1238.68745702344
 21
397.067865556696
 31
0.0
  0
LINE
  5
3EC5
330
2
100
AcDbEntity
  8
0
100
AcDbLine
 10
1240.040088716312
 20
395.0678655566962
 30
0.0
 11
1238.68745702344
 21
395.067865556696
 31
0.0
  0
LINE
  5
3EC7
330
2
100
AcDbEntity
  8
HIDS
  6
SEKKEI_H
100
AcDbLine
 10
1240.857584615465
 20
395.067865556696
 30
0.0
 11
1253.18745702344
 21
395.0678655566962
 31
0.0
  0
LINE
  5
3EC8
330
2
100
AcDbEntity
  8
HOJO
100
AcDbLine
 10
1242.537457023433
 20
384.317865556693
 30
0.0
 11
1242.537457023433
 21
385.817865556693
 31
0.0
  0
LINE
  5
3EC9
330
2
100
AcDbEntity
  8
0
100
AcDbLine
 10
1241.937457023433
 20
384.3178655566934
 30
0.0
 11
1241.937457023433
 21
385.817865556693
 31
0.0
  0
LINE
  5
3ECA
330
2
100
AcDbEntity
  8
HOJO
100
AcDbLine
 10
1249.337457023433
 20
384.3178655566934
 30
0.0
 11
1249.337457023433
 21
385.817865556693
 31
0.0
  0
LINE
  5
3ECB
330
2
100
AcDbEntity
  8
0
100
AcDbLine
 10
1249.937457023433
 20
384.3178655566934
 30
0.0
 11
1249.937457023433
 21
385.817865556693
 31
0.0
  0
LINE
  5
3ECC
330
2
100
AcDbEntity
  8
HIDS
  6
SEKKEI_H
100
AcDbLine
 10
1249.937457023433
 20
385.817865556693
 30
0.0
 11
1249.937457023433
 21
395.0678655566957
 31
0.0
  0
LINE
  5
3ECD
330
2
100
AcDbEntity
  8
HIDS
  6
SEKKEI_H
100
AcDbLine
 10
1249.337457023433
 20
385.817865556693
 30
0.0
 11
1249.337457023433
 21
395.0678655566957
 31
0.0
  0
LINE
  5
3ECE
330
2
100
AcDbEntity
  8
HIDS
  6
SEKKEI_H
100
AcDbLine
 10
1242.537457023433
 20
385.817865556693
 30
0.0
 11
1242.537457023433
 21
395.0678655566962
 31
0.0
  0
LINE
  5
3ECF
330
2
100
AcDbEntity
  8
HIDS
  6
SEKKEI_H
100
AcDbLine
 10
1241.937457023433
 20
385.817865556693
 30
0.0
 11
1241.937457023433
 21
395.0678655566962
 31
0.0
  0
LINE
  5
3ED5
330
2
100
AcDbEntity
  8
CENTER
100
AcDbLine
 10
401.7099579185963
 20
287.06786555679
 30
0.0
 11
401.7099579185935
 21
483.0678655567896
 31
0.0
  0
LINE
  5
3ED7
330
2
100
AcDbEntity
  8
CENTER
  6
CENTERX2
100
AcDbLine
 10
426.2099579185997
 20
435.6988355442713
 30
0.0
 11
426.2099579185997
 21
478.0678655567895
 31
0.0
  0
LINE
  5
3ED8
330
2
100
AcDbEntity
  8
CENTER
100
AcDbLine
 10
341.9992797999448
 20
314.3571874381402
 30
0.0
 11
319.9992797999448
 21
314.3571874381402
 31
0.0
  0
LINE
  5
3ED9
330
2
100
AcDbEntity
  8
CENTER
100
AcDbLine
 10
330.9992797999448
 20
325.3571874381347
 30
0.0
 11
330.9992797999448
 21
303.3571874381347
 31
0.0
  0
LINE
  5
3EDA
330
2
100
AcDbEntity
  8
CENTER
100
AcDbLine
 10
330.9992797999429
 20
444.7785436754435
 30
0.0
 11
330.9992797999429
 21
466.7785436754435
 31
0.0
  0
LINE
  5
3EDB
330
2
100
AcDbEntity
  8
CENTER
100
AcDbLine
 10
341.9992797999375
 20
455.7785436754436
 30
0.0
 11
319.9992797999375
 21
455.7785436754436
 31
0.0
  0
LINE
  5
3EDC
330
2
100
AcDbEntity
  8
CENTER
100
AcDbLine
 10
461.4206360372472
 20
455.7785436754453
 30
0.0
 11
483.4206360372473
 21
455.7785436754453
 31
0.0
  0
LINE
  5
3EDD
330
2
100
AcDbEntity
  8
CENTER
100
AcDbLine
 10
472.4206360372472
 20
444.7785436754508
 30
0.0
 11
472.4206360372472
 21
466.7785436754508
 31
0.0
  0
LINE
  5
3EDE
330
2
100
AcDbEntity
  8
CENTER
100
AcDbLine
 10
472.420636037249
 20
325.357187438142
 30
0.0
 11
472.420636037249
 21
303.357187438142
 31
0.0
  0
LINE
  5
3EDF
330
2
100
AcDbEntity
  8
CENTER
100
AcDbLine
 10
461.4206360372545
 20
314.357187438142
 30
0.0
 11
483.4206360372546
 21
314.357187438142
 31
0.0
  0
LINE
  5
3EED
330
2
100
AcDbEntity
  8
0
100
AcDbLine
 10
479.4830221677739
 20
297.0678655567914
 30
0.0
 11
323.9368936694281
 21
297.0678655567887
 31
0.0
  0
ARC
  5
3EEE
330
2
100
AcDbEntity
  8
0
100
AcDbCircle
 10
479.4830221677739
 20
307.0678655567914
 30
0.0
 40
10.0
100
AcDbArc
 50
270.0
 51
359.8333333333378
  0
LINE
  5
3EEF
330
2
100
AcDbEntity
  8
0
100
AcDbLine
 10
479.4830221677739
 20
473.0678655567896
 30
0.0
 11
323.936893578646
 21
473.0678655567896
 31
0.0
  0
ARC
  5
3EF0
330
2
100
AcDbEntity
  8
0
100
AcDbCircle
 10
479.4830221677739
 20
463.0678655567896
 30
0.0
 40
10.0
100
AcDbArc
 50
0.166666666662102
 51
90.0
  0
LINE
  5
3EF8
330
2
100
AcDbEntity
  8
0
100
AcDbLine
 10
313.7099579185942
 20
385.0678655566204
 30
0.0
 11
341.209957918596
 21
385.0678655567891
 31
0.0
  0
LINE
  5
3EFF
330
2
100
AcDbEntity
  8
0
100
AcDbLine
 10
404.2086317476314
 20
469.0678655568014
 30
0.0
 11
399.2086317476314
 21
469.0678655568014
 31
0.0
  0
LINE
  5
3F00
330
2
100
AcDbEntity
  8
0
100
AcDbLine
 10
398.7880367475936
 20
465.9893347118783
 30
0.0
 11
398.4292204284312
 21
452.2866923124379
 31
0.0
  0
LINE
  5
3F01
330
2
100
AcDbEntity
  8
0
100
AcDbLine
 10
404.6318790895939
 20
465.9893347118779
 30
0.0
 11
404.9921951868072
 21
452.2294180994076
 31
0.0
  0
ARC
  5
3F02
330
2
100
AcDbEntity
  8
0
100
AcDbCircle
 10
407.6308510645203
 20
466.0678655568023
 30
0.0
 40
3.0
100
AcDbArc
 50
90.0
 51
181.5000000000158
  0
ARC
  5
3F03
330
2
100
AcDbEntity
  8
0
100
AcDbCircle
 10
395.7890647726653
 20
466.0678655568023
 30
0.0
 40
3.000000000000001
100
AcDbArc
 50
358.4999999999841
 51
90.0
  0
LINE
  5
3F06
330
2
100
AcDbEntity
  8
0
100
AcDbLine
 10
399.2112840895606
 20
301.0678655567832
 30
0.0
 11
404.2112840895606
 21
301.0678655567832
 31
0.0
  0
LINE
  5
3F07
330
2
100
AcDbEntity
  8
0
100
AcDbLine
 10
404.6318790895984
 20
304.1463964017063
 30
0.0
 11
404.992195186805
 21
317.9063130139468
 31
0.0
  0
LINE
  5
3F08
330
2
100
AcDbEntity
  8
0
100
AcDbLine
 10
398.7880367475982
 20
304.1463964017068
 30
0.0
 11
398.4292204284411
 21
317.8490388009166
 31
0.0
  0
ARC
  5
3F09
330
2
100
AcDbEntity
  8
0
100
AcDbCircle
 10
395.7890647726717
 20
304.0678655567823
 30
0.0
 40
3.0
100
AcDbArc
 50
270.0
 51
1.500000000015846
  0
ARC
  5
3F0A
330
2
100
AcDbEntity
  8
0
100
AcDbCircle
 10
407.6308510645267
 20
304.0678655567823
 30
0.0
 40
3.000000000000001
100
AcDbArc
 50
178.4999999999841
 51
270.0
  0
LINE
  5
3F0C
330
2
100
AcDbEntity
  8
0
100
AcDbLine
 10
313.9369359773736
 20
463.0969543366279
 30
0.0
 11
313.7099579185503
 21
385.0678655420431
 31
0.0
  0
ARC
  5
3F0D
330
2
100
AcDbEntity
  8
0
100
AcDbCircle
 10
323.9368936693935
 20
463.0678655567905
 30
0.0
 40
10.0
100
AcDbArc
 50
90.0
 51
179.8333333333639
  0
LINE
  5
3F0E
330
2
100
AcDbEntity
  8
0
100
AcDbLine
 10
313.9369359773736
 20
307.0387767769463
 30
0.0
 11
313.7099579186362
 21
385.0678655420428
 31
0.0
  0
ARC
  5
3F0F
330
2
100
AcDbEntity
  8
0
100
AcDbCircle
 10
323.9368936694281
 20
307.0678655567887
 30
0.0
 40
10.0
100
AcDbArc
 50
180.1666666666621
 51
270.0
  0
LINE
  5
3F10
330
2
100
AcDbEntity
  8
0
100
AcDbLine
 10
489.4829798598284
 20
463.096954336632
 30
0.0
 11
489.6589667013863
 21
402.5973053496591
 31
0.0
  0
LINE
  5
3F11
330
2
100
AcDbEntity
  8
0
100
AcDbLine
 10
489.4829798598284
 20
307.038776776949
 30
0.0
 11
489.6589667013858
 21
367.538425763695
 31
0.0
  0
ARC
  5
3F14
330
2
100
AcDbEntity
  8
HOJO
100
AcDbCircle
 10
472.4206360372468
 20
455.7785436754452
 30
0.0
 40
6.0
100
AcDbArc
 50
231.7972324982368
 51
223.0959104295572
  0
CIRCLE
  5
3F15
330
2
100
AcDbEntity
  8
0
100
AcDbCircle
 10
472.4206360372468
 20
455.7785436754452
 30
0.0
 40
5.15
  0
CIRCLE
  5
3F16
330
2
100
AcDbEntity
  8
HOJO
100
AcDbCircle
 10
330.9992797999425
 20
455.7785436754433
 30
0.0
 40
6.0
  0
CIRCLE
  5
3F17
330
2
100
AcDbEntity
  8
0
100
AcDbCircle
 10
330.9992797999425
 20
455.7785436754433
 30
0.0
 40
5.15
  0
CIRCLE
  5
3F18
330
2
100
AcDbEntity
  8
HOJO
100
AcDbCircle
 10
330.9992797999443
 20
314.3571874381348
 30
0.0
 40
6.0
  0
CIRCLE
  5
3F19
330
2
100
AcDbEntity
  8
0
100
AcDbCircle
 10
330.9992797999443
 20
314.3571874381348
 30
0.0
 40
5.15
  0
ARC
  5
3F1A
330
2
100
AcDbEntity
  8
HOJO
100
AcDbCircle
 10
472.4206360372486
 20
314.3571874381419
 30
0.0
 40
6.0
100
AcDbArc
 50
136.9040895735085
 51
128.2027675016966
  0
CIRCLE
  5
3F1B
330
2
100
AcDbEntity
  8
0
100
AcDbCircle
 10
472.4206360372486
 20
314.3571874381419
 30
0.0
 40
5.15
  0
ARC
  5
3F24
330
2
100
AcDbEntity
  8
0
100
AcDbCircle
 10
340.0544012944674
 20
391.5634768514242
 30
0.0
 40
3.0
100
AcDbArc
 50
270.0040782805166
 51
293.3646506109868
  0
LINE
  5
3F25
330
2
100
AcDbEntity
  8
0
100
AcDbLine
 10
320.7129476592915
 20
388.5621001303135
 30
0.0
 11
340.054614832736
 21
388.563476859024
 31
0.0
  0
ARC
  5
3F26
330
2
100
AcDbEntity
  8
0
100
AcDbCircle
 10
320.7127341210227
 20
391.5621001227129
 30
0.0
 40
3.0
100
AcDbArc
 50
180.0040782801648
 51
270.004078280217
  0
ARC
  5
3F27
330
2
100
AcDbEntity
  8
0
100
AcDbCircle
 10
340.0553265303049
 20
378.5648031076829
 30
0.0
 40
3.0
100
AcDbArc
 50
66.64350593013506
 51
90.00407826059754
  0
LINE
  5
3F28
330
2
100
AcDbEntity
  8
0
100
AcDbLine
 10
320.7134458196344
 20
381.5634263780988
 30
0.0
 11
340.0551129930797
 21
381.5648031000832
 31
0.0
  0
ARC
  5
3F29
330
2
100
AcDbEntity
  8
0
100
AcDbCircle
 10
320.71365935686
 20
378.5634263856994
 30
0.0
 40
3.0
100
AcDbArc
 50
90.00407826091018
 51
180.0040782609557
  0
LINE
  5
3F2A
330
2
100
AcDbEntity
  8
0
100
AcDbLine
 10
317.7099579185849
 20
387.5665393858257
 30
0.0
 11
317.7099579185849
 21
382.5665393858256
 31
0.0
  0
ARC
  5
3F2B
330
2
100
AcDbEntity
  8
0
100
AcDbCircle
 10
410.5280955801409
 20
470.0678655567896
 30
0.0
 40
3.0
100
AcDbArc
 50
1.499999999996311
 51
90.0
  0
LINE
  5
3F2C
330
2
100
AcDbEntity
  8
0
100
AcDbLine
 10
413.998298227998
 20
452.1508230288575
 30
0.0
 11
413.5270675550682
 21
470.1463964017126
 31
0.0
  0
ARC
  5
3F2D
330
2
100
AcDbEntity
  8
0
100
AcDbCircle
 10
441.8918056551729
 20
470.0673079332482
 30
0.0
 40
3.000000000000001
100
AcDbArc
 50
90.0
 51
178.5000000000036
  0
LINE
  5
3F2E
330
2
100
AcDbEntity
  8
0
100
AcDbLine
 10
438.4160376411267
 20
451.9377326452503
 30
0.0
 11
438.8928336802464
 21
470.1458387781714
 31
0.0
  0
LINE
  5
3F32
330
2
100
AcDbEntity
  8
0
100
AcDbLine
 10
921.5946935603199
 20
762.1389913039512
 30
0.0
 11
923.0946935603206
 21
762.1389913039511
 31
0.0
  0
LINE
  5
3F33
330
2
100
AcDbEntity
  8
0
100
AcDbLine
 10
921.5946935603197
 20
750.6389913039512
 30
0.0
 11
923.0946935603206
 21
750.6389913039511
 31
0.0
  0
LINE
  5
3F34
330
2
100
AcDbEntity
  8
0
100
AcDbLine
 10
928.6946935603202
 20
761.3889913039512
 30
0.0
 11
929.09469356032
 21
760.6961709809239
 31
0.0
  0
LINE
  5
3F35
330
2
100
AcDbEntity
  8
0
100
AcDbLine
 10
923.0946935603206
 20
762.1389913039511
 30
0.0
 11
923.0946935603206
 21
750.6389913039511
 31
0.0
  0
LINE
  5
3F36
330
2
100
AcDbEntity
  8
0
100
AcDbLine
 10
928.6946935603202
 20
761.3889913039512
 30
0.0
 11
928.69469356032
 21
751.3889913039512
 31
0.0
  0
LINE
  5
3F37
330
2
100
AcDbEntity
  8
0
100
AcDbLine
 10
923.0946935603206
 20
761.3889913039511
 30
0.0
 11
928.6946935603202
 21
761.3889913039512
 31
0.0
  0
LINE
  5
3F38
330
2
100
AcDbEntity
  8
0
100
AcDbLine
 10
923.0946935603206
 20
751.3889913039511
 30
0.0
 11
928.69469356032
 21
751.3889913039512
 31
0.0
  0
LINE
  5
3F39
330
2
100
AcDbEntity
  8
0
100
AcDbLine
 10
928.69469356032
 20
751.3889913039512
 30
0.0
 11
929.0946935603196
 21
752.0818116269785
 31
0.0
  0
LINE
  5
3F3A
330
2
100
AcDbEntity
  8
0
100
AcDbLine
 10
929.09469356032
 20
760.6961709809239
 30
0.0
 11
929.0946935603196
 21
752.0818116269785
 31
0.0
  0
LINE
  5
3F3B
330
2
100
AcDbEntity
  8
0
 48
12.0
100
AcDbLine
 10
921.5946935603197
 20
750.6389913039512
 30
0.0
 11
921.5946935603199
 21
762.1389913039512
 31
0.0
  0
LINE
  5
3F3C
330
2
100
AcDbEntity
  8
0
100
AcDbLine
 10
921.8845653171252
 20
341.6739442640937
 30
0.0
 11
923.3845653171256
 21
341.6739442640937
 31
0.0
  0
LINE
  5
3F3D
330
2
100
AcDbEntity
  8
0
100
AcDbLine
 10
921.8845653171252
 20
330.1739442640938
 30
0.0
 11
923.3845653171256
 21
330.1739442640938
 31
0.0
  0
LINE
  5
3F3E
330
2
100
AcDbEntity
  8
0
100
AcDbLine
 10
928.9845653171255
 20
340.9239442640938
 30
0.0
 11
929.3845653171251
 21
340.2311239410666
 31
0.0
  0
LINE
  5
3F3F
330
2
100
AcDbEntity
  8
0
100
AcDbLine
 10
923.3845653171256
 20
341.6739442640937
 30
0.0
 11
923.3845653171256
 21
330.1739442640938
 31
0.0
  0
LINE
  5
3F40
330
2
100
AcDbEntity
  8
0
100
AcDbLine
 10
928.9845653171255
 20
340.9239442640938
 30
0.0
 11
928.9845653171255
 21
330.9239442640939
 31
0.0
  0
LINE
  5
3F41
330
2
100
AcDbEntity
  8
0
100
AcDbLine
 10
923.3845653171256
 20
340.9239442640938
 30
0.0
 11
928.9845653171255
 21
340.9239442640938
 31
0.0
  0
LINE
  5
3F42
330
2
100
AcDbEntity
  8
0
100
AcDbLine
 10
923.3845653171256
 20
330.9239442640937
 30
0.0
 11
928.9845653171255
 21
330.9239442640939
 31
0.0
  0
LINE
  5
3F43
330
2
100
AcDbEntity
  8
0
100
AcDbLine
 10
928.9845653171255
 20
330.9239442640939
 30
0.0
 11
929.3845653171251
 21
331.6167645871211
 31
0.0
  0
LINE
  5
3F44
330
2
100
AcDbEntity
  8
0
100
AcDbLine
 10
929.3845653171251
 20
340.2311239410666
 30
0.0
 11
929.3845653171251
 21
331.6167645871211
 31
0.0
  0
LINE
  5
3F45
330
2
100
AcDbEntity
  8
0
 48
12.0
100
AcDbLine
 10
921.8845653171252
 20
330.1739442640938
 30
0.0
 11
921.8845653171252
 21
341.6739442640937
 31
0.0
  0
LINE
  5
3F46
330
2
100
AcDbEntity
  8
CENTER
  6
CENTERX2
100
AcDbLine
 10
918.5946935603215
 20
854.6768338888782
 30
0.0
 11
932.0946935603224
 21
854.6768338888778
 31
0.0
  0
LINE
  5
3F47
330
2
100
AcDbEntity
  8
CENTER
  6
CENTERX2
100
AcDbLine
 10
918.5946935603201
 20
756.3889913039515
 30
0.0
 11
932.094693560321
 21
756.3889913039511
 31
0.0
  0
LINE
  5
3F48
330
2
100
AcDbEntity
  8
CENTER
  6
CENTERX2
100
AcDbLine
 10
918.8845653171261
 20
434.2117868492622
 30
0.0
 11
932.384565317127
 21
434.2117868492618
 31
0.0
  0
LINE
  5
3F49
330
2
100
AcDbEntity
  8
CENTER
  6
CENTERX2
100
AcDbLine
 10
918.8845653171252
 20
335.9239442640943
 30
0.0
 11
932.3845653171261
 21
335.9239442640939
 31
0.0
  0
LINE
  5
3F4A
330
2
100
AcDbEntity
  8
CENTER
  6
CENTERX2
100
AcDbLine
 10
35.23396298180341
 20
434.2111237322368
 30
0.0
 11
21.72785370907763
 21
434.2111237322366
 31
0.0
  0
LINE
  5
3F4B
330
2
100
AcDbEntity
  8
CENTER
  6
CENTERX2
100
AcDbLine
 10
35.23398613131371
 20
335.9232811473038
 30
0.0
 11
21.72787685858793
 21
335.9232811473035
 31
0.0
  0
CIRCLE
  5
3F4C
330
2
100
AcDbEntity
  8
0
100
AcDbCircle
 10
1270.437457023438
 20
385.0678655566772
 30
0.0
 40
45.99999999998874
  0
CIRCLE
  5
3F4D
330
2
100
AcDbEntity
  8
0
100
AcDbCircle
 10
1270.437457023438
 20
385.0678655566772
 30
0.0
 40
46.4999999999892
  0
CIRCLE
  5
3F4E
330
2
100
AcDbEntity
  8
0
100
AcDbCircle
 10
1270.437457023438
 20
385.0678655566772
 30
0.0
 40
50.37919357557564
  0
CIRCLE
  5
3F4F
330
2
100
AcDbEntity
  8
0
100
AcDbCircle
 10
1270.437457023438
 20
385.0678655566772
 30
0.0
 40
55.24999999998965
  0
CIRCLE
  5
3F50
330
2
100
AcDbEntity
  8
0
100
AcDbCircle
 10
1270.437457023438
 20
385.0678655566772
 30
0.0
 40
55.74999999999104
  0
LINE
  5
3F51
330
2
100
AcDbEntity
  8
CENTER
100
AcDbLine
 10
1221.293535730961
 20
426.4507052426861
 30
0.0
 11
1221.293535730962
 21
441.9728684555638
 31
0.0
  0
LINE
  5
3F52
330
2
100
AcDbEntity
  8
CENTER
100
AcDbLine
 10
1213.532454124529
 20
434.211786849125
 30
0.0
 11
1229.054617337406
 21
434.211786849125
 31
0.0
  0
LINE
  5
3F53
330
2
100
AcDbEntity
  8
CENTER
100
AcDbLine
 10
1221.293535730968
 20
328.1628626577548
 30
0.0
 11
1221.293535730968
 21
343.6850258706326
 31
0.0
  0
LINE
  5
3F54
330
2
100
AcDbEntity
  8
CENTER
100
AcDbLine
 10
1213.532454124535
 20
335.9239442641937
 30
0.0
 11
1229.054617337413
 21
335.9239442641937
 31
0.0
  0
LINE
  5
3F55
330
2
100
AcDbEntity
  8
CENTER
100
AcDbLine
 10
1319.581378315899
 20
328.1628626577612
 30
0.0
 11
1319.581378315899
 21
343.685025870639
 31
0.0
  0
LINE
  5
3F56
330
2
100
AcDbEntity
  8
CENTER
100
AcDbLine
 10
1311.820296709466
 20
335.9239442642001
 30
0.0
 11
1327.342459922344
 21
335.9239442642001
 31
0.0
  0
LINE
  5
4221
330
2
100
AcDbEntity
  8
CENTER
100
AcDbLine
 10
1012.094693560326
 20
385.0678655566772
 30
0.0
 11
694.5946935603168
 21
385.0678655566772
 31
0.0
  0
LINE
  5
4222
330
2
100
AcDbEntity
  8
CENTER
100
AcDbLine
 10
779.5946935603168
 20
470.0678655566772
 30
0.0
 11
779.5946935603168
 21
300.0678655566772
 31
0.0
  0
LINE
  5
4277
330
2
100
AcDbEntity
  8
HIDS
  6
SEKKEI_H
100
AcDbLine
 10
1249.937457023431
 20
360.4965408060987
 30
0.0
 11
1249.937457023431
 21
384.3178655566984
 31
0.0
  0
LINE
  5
4278
330
2
100
AcDbEntity
  8
HIDS
  6
SEKKEI_H
100
AcDbLine
 10
1249.337457023431
 20
361.0098107725019
 30
0.0
 11
1249.337457023431
 21
384.3178655566984
 31
0.0
  0
LINE
  5
4279
330
2
100
AcDbEntity
  8
HIDS
  6
SEKKEI_H
100
AcDbLine
 10
1241.93745702343
 20
370.5162333458584
 30
0.0
 11
1241.937457023433
 21
384.3178655566979
 31
0.0
  0
LINE
  5
427A
330
2
100
AcDbEntity
  8
HIDS
  6
SEKKEI_H
100
AcDbLine
 10
1242.537457023433
 20
384.3178655566979
 30
0.0
 11
1242.537457023445
 21
369.3965541884575
 31
0.0
  0
LINE
  5
427B
330
2
100
AcDbEntity
  8
HIDS
  6
SEKKEI_H
100
AcDbLine
 10
1248.737457023448
 20
372.0678655567011
 30
0.0
 11
1243.137457023434
 21
372.0678655567011
 31
0.0
  0
LINE
  5
427C
330
2
100
AcDbEntity
  8
HIDS
  6
SEKKEI_H
100
AcDbLine
 10
1249.937457023434
 20
373.2678655567012
 30
0.0
 11
1241.937457023434
 21
373.2678655567009
 31
0.0
  0
LINE
  5
427D
330
2
100
AcDbEntity
  8
HIDS
  6
SEKKEI_H
100
AcDbLine
 10
1241.937457023434
 20
373.2678655567009
 30
0.0
 11
1243.137457023434
 21
372.0678655567011
 31
0.0
  0
LINE
  5
427E
330
2
100
AcDbEntity
  8
HIDS
  6
SEKKEI_H
100
AcDbLine
 10
1249.937457023448
 20
373.2678655567009
 30
0.0
 11
1248.737457023447
 21
372.0678655567011
 31
0.0
  0
SPLINE
  5
436A
330
2
100
AcDbEntity
  8
HOJO
100
AcDbSpline
210
0.0
220
0.0
230
1.0
 70
     8
 71
     3
 72
    21
 73
    17
 74
    15
 42
0.0000000001
 43
0.0000000001
 44
0.0000000001
 40
0.0
 40
0.0
 40
0.0
 40
0.0
 40
9.634164564468115
 40
15.25055571708112
 40
26.41850204930545
 40
34.3920634693519
 40
47.06796833141576
 40
54.09595855280389
 40
66.71884038850736
 40
80.64775812888111
 40
91.88687819068613
 40
99.21329587729481
 40
107.2245208990503
 40
115.4887742063672
 40
120.7000556987149
 40
134.5571991491902
 40
134.5571991491902
 40
134.5571991491902
 40
134.5571991491902
 10
1002.094693560325
 20
448.0519957328159
 30
0.0
 10
998.8318037315851
 20
448.1113390558289
 30
0.0
 10
993.6667598091014
 20
448.2052775232475
 30
0.0
 10
985.5945283827498
 20
443.464623432
 30
0.0
 10
984.0529979403093
 20
434.5161151768744
 30
0.0
 10
981.1183556659941
 20
424.7977535812135
 30
0.0
 10
978.7760518103281
 20
414.5081608801408
 30
0.0
 10
967.6710307498886
 20
411.0047309064176
 30
0.0
 10
956.6002326634606
 20
412.9918641268625
 30
0.0
 10
944.0260273270419
 20
412.4361506947054
 30
0.0
 10
933.0282788225884
 20
410.9882779466055
 30
0.0
 10
924.5953632834877
 20
414.9461057738093
 30
0.0
 10
916.3613355047425
 20
411.0650000680058
 30
0.0
 10
914.0169718477016
 20
404.0261959612284
 30
0.0
 10
910.1643689473844
 20
395.8081708499681
 30
0.0
 10
908.6761740691573
 20
389.5880593882159
 30
0.0
 10
907.5946935603216
 20
385.0678655566908
 30
0.0
 11
1002.094693560325
 21
448.0519957328159
 31
0.0
 11
992.507639038096
 21
447.1004115573263
 31
0.0
 11
987.7480445805558
 21
444.1187827777993
 31
0.0
 11
983.6588246330766
 21
433.7264151216499
 31
0.0
 11
981.5754867386594
 21
426.0298324425034
 31
0.0
 11
976.1868733726496
 21
414.5563233862575
 31
0.0
 11
969.627790709287
 21
412.0322233155187
 31
0.0
 11
957.012544716154
 21
412.4712157651954
 31
0.0
 11
943.0869610755399
 21
412.1664704840865
 31
0.0
 11
931.8478990850904
 21
412.1303410154843
 31
0.0
 11
924.7021806981598
 21
413.7474695982921
 31
0.0
 11
917.3950809189705
 21
410.4632620582339
 31
0.0
 11
913.5224710263328
 21
403.1625240580765
 31
0.0
 11
911.4726159961291
 21
398.3713290977733
 31
0.0
 11
907.5946935603216
 21
385.0678655566908
 31
0.0
  0
ENDSEC
  0
SECTION
  2
OBJECTS
  0
DICTIONARY
  5
7
330
0
100
AcDbDictionary
  3
ACAD_COLOR
350
832
  3
ACAD_GROUP
350
75
  3
ACAD_LAYOUT
350
61
  3
ACAD_MATERIAL
350
808
  3
ACAD_MLEADERSTYLE
350
857
  3
ACAD_MLINESTYLE
350
76
  3
ACAD_PLOTSETTINGS
350
77
  3
ACAD_PLOTSTYLENAME
350
6
  3
ACAD_SCALELIST
350
835
  3
ACAD_TABLESTYLE
350
833
  3
ACAD_VISUALSTYLE
350
821
  3
ACADDIM
350
480
  3
ACDB_RECOMPOSE_DATA
350
88E
  3
ACDBHEADERROUNDTRIPXREC
350
4428
  3
ACDBVARIABLEDICTIONARY
350
102
  3
DWGPROPS
350
43F7
  0
DICTIONARY
  5
1BAE
330
6E
100
AcDbDictionary
280
     1
  3
ACAD_XREC_ROUNDTRIP
360
43FB
  0
DICTIONARY
  5
86B
330
66
100
AcDbDictionary
280
     1
  3
ACAD_LAYERSTATES
360
86C
  0
DICTIONARY
  5
1AF7
330
5E
100
AcDbDictionary
280
     1
  3
ADSK_XREC_LAYER_RECONCILED
360
1AF8
  0
DICTIONARY
  5
1AF9
330
3E
100
AcDbDictionary
280
     1
  3
ADSK_XREC_LAYER_RECONCILED
360
1AFA
  0
DICTIONARY
  5
1AFF
330
2B5
100
AcDbDictionary
280
     1
  3
ADSK_XREC_LAYER_RECONCILED
360
1B00
  0
DICTIONARY
  5
1B01
330
2BA
100
AcDbDictionary
280
     1
  3
ADSK_XREC_LAYER_RECONCILED
360
1B02
  0
DICTIONARY
  5
1B05
330
3FA
100
AcDbDictionary
280
     1
  3
ADSK_XREC_LAYER_RECONCILED
360
1B06
  0
DICTIONARY
  5
1D16
330
2
100
AcDbDictionary
280
     1
  3
ACAD_LAYOUTSELFREF
360
4449
  3
ACAD_SORTENTS
360
1D17
  0
DICTIONARY
  5
444A
330
4422
100
AcDbDictionary
280
     1
  3
ACAD_LAYOUTSELFREF
360
444B
  0
DICTIONARY
  5
832
102
{ACAD_REACTORS
330
7
102
}
330
7
100
AcDbDictionary
  0
DICTIONARY
  5
75
102
{ACAD_REACTORS
330
7
102
}
330
7
100
AcDbDictionary
  0
DICTIONARY
  5
61
102
{ACAD_REACTORS
330
7
102
}
330
7
100
AcDbDictionary
  0
DICTIONARY
  5
808
102
{ACAD_REACTORS
330
7
102
}
330
7
100
AcDbDictionary
  3
BYBLOCK
350
811
  3
BYLAYER
350
809
  3
GLOBAL
350
819
  0
DICTIONARY
  5
857
102
{ACAD_REACTORS
330
7
102
}
330
7
100
AcDbDictionary
  3
STANDARD
350
858
  0
DICTIONARY
  5
76
102
{ACAD_REACTORS
330
7
102
}
330
7
100
AcDbDictionary
  3
STANDARD
350
78
  0
DICTIONARY
  5
77
102
{ACAD_REACTORS
330
7
102
}
330
7
100
AcDbDictionary
  0
ACDBDICTIONARYWDFLT
  5
6
102
{ACAD_REACTORS
330
7
102
}
330
7
100
AcDbDictionary
281
     1
  3
Normal
350
5
100
AcDbDictionaryWithDefault
340
5
  0
DICTIONARY
  5
835
102
{ACAD_REACTORS
330
7
102
}
330
7
100
AcDbDictionary
  3
A0
350
836
  3
A1
350
837
  3
A2
350
838
  3
A3
350
839
  3
A4
350
83A
  3
A5
350
83B
  3
A6
350
83C
  3
A7
350
83D
  3
A8
350
83E
  3
A9
350
83F
  3
B0
350
840
  3
B1
350
841
  3
B2
350
842
  3
B3
350
843
  3
B4
350
844
  3
B5
350
845
  3
B6
350
846
  3
B7
350
847
  3
B8
350
848
  3
B9
350
849
  3
C0
350
84A
  3
C1
350
84B
  3
C2
350
84C
  3
C3
350
84D
  3
C4
350
84E
  3
C5
350
84F
  3
C6
350
850
  3
C7
350
851
  3
C8
350
852
  3
C9
350
853
  3
D0
350
854
  3
D1
350
855
  3
D2
350
856
  0
DICTIONARY
  5
833
102
{ACAD_REACTORS
330
7
102
}
330
7
100
AcDbDictionary
  3
STANDARD
350
834
  0
DICTIONARY
  5
821
102
{ACAD_REACTORS
330
7
102
}
330
7
100
AcDbDictionary
  3
2DWIREFRAME
350
827
  3
3D_HIDDEN
350
829
  3
3DWIREFRAME
350
828
  3
BASIC
350
826
  3
BRIGHTEN
350
82D
  3
COLORCHANGE
350
831
  3
CONCEPTUAL
350
82A
  3
DIM
350
82C
  3
FACEPATTERN
350
830
  3
FLAT
350
822
  3
FLATWITHEDGES
350
823
  3
GOURAUD
350
824
  3
GOURAUDWITHEDGES
350
825
  3
LINEPATTERN
350
82F
  3
REALISTIC
350
82B
  3
THICKEN
350
82E
  0
XRECORD
  5
480
102
{ACAD_REACTORS
330
7
102
}
330
7
100
AcDbXrecord
 90
   990106
  3

 60
     0
 61
     0
 62
     1
 63
     3
 64
     1
 65
     0
 66
     0
 67
     3
 68
     1
 69
     0
 70
     0
 71
     0
 72
     0
 40
0.0
170
     2
340
0
  0
XRECORD
  5
88E
102
{ACAD_REACTORS
330
7
102
}
330
7
100
AcDbXrecord
 90
        1
330
834
  0
DICTIONARY
  5
4428
102
{ACAD_REACTORS
330
7
102
}
330
7
100
AcDbDictionary
  3
CEPSNTYPE
350
4432
  3
DIMSTYLEDATA
350
4436
  3
FINGERPRINTGUID
350
4433
  3
HYPERLINKBASE
350
442B
  3
INSUNITS
350
4431
  3
LAYOUTDICT
350
442D
  3
LWETCUNION
350
4430
  3
PLOTSETDICT
350
442E
  3
PLOTSTYLNAMDICT
350
442F
  3
PSVPSCALE
350
4435
  3
PUCSBASE
350
4439
  3
PUCSORGBACK
350
443F
  3
PUCSORGBOTTOM
350
443B
  3
PUCSORGFRONT
350
443E
  3
PUCSORGLEFT
350
443C
  3
PUCSORGRIGHT
350
443D
  3
PUCSORGTOP
350
443A
  3
PUCSORTHOREF
350
4437
  3
PUCSORTHOVIEW
350
4438
  3
STYLESHEET
350
442C
  3
TSTACKALIGN
350
4429
  3
TSTACKSIZE
350
442A
  3
UCSBASE
350
4442
  3
UCSORGBACK
350
4448
  3
UCSORGBOTTOM
350
4444
  3
UCSORGFRONT
350
4447
  3
UCSORGLEFT
350
4445
  3
UCSORGRIGHT
350
4446
  3
UCSORGTOP
350
4443
  3
UCSORTHOREF
350
4440
  3
UCSORTHOVIEW
350
4441
  3
VERSIONGUID
350
4434
  0
DICTIONARY
  5
102
102
{ACAD_REACTORS
330
7
102
}
330
7
100
AcDbDictionary
  3
CANNOSCALE
350
892
  3
CMLEADERSTYLE
350
890
  3
CTABLESTYLE
350
88F
  3
DIMASSOC
350
103
  3
INDEXCTL
350
1BBB
  3
LIGHTINGUNITS
350
893
  3
MSLTSCALE
350
891
  3
SORTENTS
350
549
  0
XRECORD
  5
43F7
102
{ACAD_REACTORS
330
7
102
}
330
7
100
AcDbXrecord
  1
DWGPROPS COOKIE
  2

  3

  4

  6

  7

  8
knsuzuki
  9

300
=
301
=
302
=
303
=
304
=
305
=
306
=
307
=
308
=
309
=
 40
0.201846087962963
 41
2454889.454828194
 42
2454907.761879872
  1

 90
        0
  0
XRECORD
  5
43FB
102
{ACAD_REACTORS
330
1BAE
102
}
330
1BAE
100
AcDbXrecord
102
VTR_0.000_0.000_1.000_1.000_VISUALSTYLE
340
827
102
VTR_0.000_0.000_1.000_1.000_GRIDDISPLAY
 70
     3
102
VTR_0.000_0.000_1.000_1.000_GRIDMAJOR
 70
     5
102
VTR_0.000_0.000_1.000_1.000_DEFAULTLIGHTING
280
     1
102
VTR_0.000_0.000_1.000_1.000_DEFAULTLIGHTINGTYPE
 70
     1
102
VTR_0.000_0.000_1.000_1.000_BRIGHTNESS
141
0.0
102
VTR_0.000_0.000_1.000_1.000_CONTRAST
142
0.0
  0
DICTIONARY
  5
86C
102
{ACAD_REACTORS
330
86B
102
}
330
86B
100
AcDbDictionary
  0
XRECORD
  5
1AF8
102
{ACAD_REACTORS
330
1AF7
102
}
330
1AF7
100
AcDbXrecord
290
     1
  0
XRECORD
  5
1AFA
102
{ACAD_REACTORS
330
1AF9
102
}
330
1AF9
100
AcDbXrecord
290
     1
  0
XRECORD
  5
1B00
102
{ACAD_REACTORS
330
1AFF
102
}
330
1AFF
100
AcDbXrecord
290
     1
  0
XRECORD
  5
1B02
102
{ACAD_REACTORS
330
1B01
102
}
330
1B01
100
AcDbXrecord
290
     1
  0
XRECORD
  5
1B06
102
{ACAD_REACTORS
330
1B05
102
}
330
1B05
100
AcDbXrecord
290
     1
  0
XRECORD
  5
4449
102
{ACAD_REACTORS
330
1D16
102
}
330
1D16
100
AcDbXrecord
340
2
  0
SORTENTSTABLE
  5
1D17
102
{ACAD_REACTORS
330
1D16
102
}
330
1D16
100
AcDbSortentsTable
330
2
331
3DD2
  5
3DD7
331
3D9C
  5
3D9F
331
3D7D
  5
3D80
331
3A2E
  5
3B76
331
3DBB
  5
3DBE
331
3DF1
  5
3DF6
331
3E10
  5
3E15
331
3E2F
  5
3E34
331
1D39
  5
1D3D
331
147A
  5
14D0
331
16BE
  5
1767
331
3DD3
  5
3DD8
331
3D9D
  5
3DA0
331
3D7E
  5
3D81
331
3DBC
  5
3DBF
331
3DF2
  5
3DF7
331
3E11
  5
3E16
331
3E30
  5
3E35
331
2824
  5
2824
331
1B1C
  5
1B1F
331
1D3A
  5
1D3E
331
3DD4
  5
3DD9
331
3D9E
  5
3DA1
331
3D7F
  5
3D82
331
3DBD
  5
3DC0
331
3DF3
  5
3DF8
331
3E12
  5
3E17
331
3E31
  5
3E36
331
36C1
  5
3A2E
331
13F6
  5
144E
331
1D3B
  5
1D3F
331
3DD5
  5
3DDA
331
3D9F
  5
3DA2
331
3D80
  5
3D83
331
3DBE
  5
3DC1
331
3DF4
  5
3DF9
331
3E13
  5
3E18
331
3E32
  5
3E37
331
1E8A
  5
1E8A
331
1DCB
  5
1DCB
331
1D3C
  5
1D40
331
1B1E
  5
1D06
331
17F0
  5
1841
331
1D05
  5
1D08
331
3DD6
  5
3DDB
331
3D81
  5
3D84
331
3DA0
  5
3DA3
331
3DBF
  5
3DC2
331
3DF5
  5
3DFA
331
3E14
  5
3E19
331
3E33
  5
3E38
331
1D3D
  5
1D41
331
1514
  5
15F7
331
1D06
  5
1D09
331
3E34
  5
3E39
331
3DD7
  5
3DDC
331
3DF6
  5
3DFB
331
3E15
  5
3E1A
331
3DA1
  5
3DA4
331
3D82
  5
3D85
331
3DC0
  5
3DC3
331
1D3E
  5
1D42
331
1515
  5
163D
331
1D07
  5
1D0A
331
3E35
  5
3E3A
331
3DD8
  5
3DDD
331
3DF7
  5
3DFC
331
3E16
  5
3E1B
331
3DA2
  5
3DA5
331
3D83
  5
3D86
331
3DC1
  5
3DC5
331
1FEA
  5
1FEA
331
1D08
  5
1D0B
331
1D3F
  5
1D51
331
3E36
  5
3E3B
331
3DD9
  5
3DDE
331
3DF8
  5
3DFD
331
3E17
  5
3E1C
331
3DA3
  5
3DA6
331
34F7
  5
34F7
331
3B75
  5
3D6B
331
3D84
  5
3D87
331
3DC2
  5
3DC6
331
1D40
  5
1D52
331
1D09
  5
1D0C
331
3E37
  5
3E3C
331
3E18
  5
3E1D
331
3DDA
  5
3DDF
331
3DF9
  5
3DFE
331
3DA4
  5
3DA7
331
3B76
  5
3D6C
331
3D85
  5
3D88
331
3DC3
  5
3DC8
331
1D41
  5
1D53
331
1D0A
  5
1D0D
331
3E19
  5
3E1E
331
3DDB
  5
3DE0
331
3DFA
  5
3DFF
331
3DA5
  5
3DA8
331
3D86
  5
3D89
331
3DC4
  5
3DCA
331
1EFF
  5
1EFF
331
3E38
  5
3E3D
331
1D0B
  5
1D0F
331
3E1A
  5
3E1F
331
3DDC
  5
3DE1
331
3DFB
  5
3E00
331
3DA6
  5
3DA9
331
3D87
  5
3D8A
331
3DC5
  5
3DCB
331
1F87
  5
1F87
331
3E39
  5
3E3E
331
1D0C
  5
1D10
331
3E1B
  5
3E20
331
3DDD
  5
3DE2
331
3DFC
  5
3E01
331
3DA7
  5
3DAA
331
3DC6
  5
3DCC
331
2EF4
  5
2EF4
331
3D88
  5
3D8B
331
3E3A
  5
3E3F
331
1D0D
  5
1D11
331
1DF3
  5
1DF3
331
3E1C
  5
3E21
331
3DDE
  5
3DE3
331
3DFD
  5
3E02
331
3DA8
  5
3DAB
331
3E3B
  5
3E40
331
1D0E
  5
1D12
331
3E1D
  5
3E22
331
3DDF
  5
3DE4
331
3DFE
  5
3E03
331
3DA9
  5
3DAC
331
3525
  5
3528
331
3D6B
  5
3D6D
331
3D8A
  5
3D8D
331
3E3C
  5
3E41
331
1D0F
  5
1D13
331
3E1E
  5
3E23
331
3DFF
  5
3E04
331
3DAA
  5
3DAD
331
3526
  5
3529
331
3D6C
  5
3D6E
331
3D8B
  5
3D8E
331
3DE0
  5
3DE5
331
3E3D
  5
3E42
331
3E1F
  5
3E24
331
3DAB
  5
3DAE
331
3527
  5
352A
331
3D6D
  5
3D6F
331
3D8C
  5
3D8F
331
3DE1
  5
3DE6
331
3E00
  5
3E05
331
3E3E
  5
3E44
331
3DAC
  5
3DAF
331
3D6E
  5
3D70
331
3D8D
  5
3D90
331
3DE2
  5
3DE7
331
3E01
  5
3E06
331
3E20
  5
3E25
331
3E3F
  5
3E45
331
3DAD
  5
3DB0
331
3D6F
  5
3D71
331
3D8E
  5
3D92
331
3DE3
  5
3DE8
331
3E02
  5
3E07
331
3E21
  5
3E26
331
3E40
  5
3E46
331
3DAE
  5
3DB1
331
3D8F
  5
3D93
331
3DE4
  5
3DE9
331
3E03
  5
3E08
331
3E22
  5
3E27
331
C90
  5
C90
331
3E60
  5
3E65
331
3E41
  5
3E47
331
CB0
  5
CB0
331
3DAF
  5
3DB2
331
3DE5
  5
3DEA
331
3E04
  5
3E09
331
3E23
  5
3E28
331
C91
  5
C91
331
3E80
  5
3E85
331
3E61
  5
3E66
331
CD0
  5
CD0
331
CB1
  5
CB1
331
3DE6
  5
3DEB
331
3E05
  5
3E0A
331
3E24
  5
3E29
331
C92
  5
C92
331
3EA0
  5
3EA5
331
3E81
  5
3E86
331
D18
  5
D18
331
3E62
  5
3E68
331
CD1
  5
CD1
331
3E43
  5
3E48
331
CB2
  5
CB2
331
3DE7
  5
3DEC
331
3E06
  5
3E0B
331
3E25
  5
3E2A
331
C93
  5
C93
331
3EB8
  5
3EBD
331
3EA1
  5
3EA6
331
D30
  5
D30
331
3E82
  5
3E87
331
D19
  5
D19
331
3E63
  5
3E69
331
CD2
  5
CD2
331
3E44
  5
3E49
331
CB3
  5
CB3
331
3E07
  5
3E0C
331
3E26
  5
3E2B
331
C94
  5
C94
331
3ED8
  5
3EDE
331
3EB9
  5
3EBE
331
D50
  5
D51
331
3EA2
  5
3EA7
331
D31
  5
D31
331
3E83
  5
3E88
331
D1A
  5
D1A
331
3E64
  5
3E6A
331
CD3
  5
CD3
331
3E45
  5
3E4A
331
CB4
  5
CB4
331
3E27
  5
3E2C
331
C95
  5
C95
331
3F00
  5
3F08
331
3ED9
  5
3EDF
331
D70
  5
D71
331
D51
  5
D52
331
3EA3
  5
3EA8
331
D32
  5
D32
331
3E84
  5
3E89
331
D1B
  5
D1B
331
3E65
  5
3E6B
331
CD4
  5
CD4
331
3E46
  5
3E4B
331
CB5
  5
CB5
331
C96
  5
C96
331
3F01
  5
3F09
331
D90
  5
D91
331
3EDA
  5
3EED
331
D71
  5
D72
331
D52
  5
D53
331
D33
  5
D33
331
3E85
  5
3E8A
331
D1C
  5
D1C
331
CD5
  5
CD5
331
3E47
  5
3E4C
331
CB6
  5
CB6
331
C97
  5
C97
331
3F38
  5
3F3E
331
DA8
  5
DA9
331
3F02
  5
3F0A
331
D91
  5
D92
331
3EDB
  5
3EEE
331
D72
  5
D73
331
3EBC
  5
3EC1
331
D53
  5
D54
331
3EA5
  5
3EAA
331
D34
  5
D34
331
3E86
  5
3E8B
331
D1D
  5
D1D
331
3E67
  5
3E6C
331
CD6
  5
CD6
331
3E48
  5
3E4D
331
CB7
  5
CB7
331
C98
  5
C98
331
3F39
  5
3F3F
331
DC8
  5
DC9
331
DA9
  5
DAA
331
3F03
  5
3F0C
331
D92
  5
D93
331
3EDC
  5
3EEF
331
D73
  5
D74
331
3EBD
  5
3EC2
331
D54
  5
D55
331
3EA6
  5
3EAB
331
D35
  5
D35
331
3E87
  5
3E8C
331
D1E
  5
D1E
331
3E68
  5
3E6D
331
CD7
  5
CD7
331
3E49
  5
3E4E
331
CB8
  5
CB8
331
C99
  5
C99
331
DE8
  5
DEA
331
3F3A
  5
3F40
331
DC9
  5
DCA
331
DAA
  5
DAB
331
D93
  5
D94
331
3EDD
  5
3EF0
331
D74
  5
D75
331
3EBE
  5
3EC3
331
D55
  5
D56
331
3EA7
  5
3EAC
331
D36
  5
D36
331
3E88
  5
3E8D
331
D1F
  5
D1F
331
3E69
  5
3E6E
331
CD8
  5
CD8
331
3E4A
  5
3E4F
331
C9A
  5
C9A
331
CB9
  5
CB9
331
E08
  5
E0A
331
DE9
  5
DEB
331
3F3B
  5
3F41
331
DCA
  5
DCB
331
3F24
  5
3F2A
331
D94
  5
D95
331
3EDE
  5
3EF8
331
D75
  5
D76
331
3EBF
  5
3EC4
331
D56
  5
D57
331
3EA8
  5
3EAD
331
3E89
  5
3E8E
331
D20
  5
D20
331
3E6A
  5
3E6F
331
CD9
  5
CD9
331
3E4B
  5
3E50
331
CBA
  5
CBA
331
C9B
  5
C9B
331
D37
  5
D37
331
DAB
  5
DAC
331
E09
  5
E0B
331
DEA
  5
DEC
331
3F3C
  5
3F42
331
DCB
  5
DCC
331
3F25
  5
3F2B
331
3F06
  5
3F0D
331
D95
  5
D96
331
3EDF
  5
3EFF
331
D76
  5
D77
331
3EC0
  5
3EC5
331
D57
  5
D58
331
3E8A
  5
3E8F
331
3E6B
  5
3E70
331
D21
  5
D21
331
3E4C
  5
3E51
331
CBB
  5
CBB
331
C9C
  5
C9C
331
D38
  5
D38
331
DAC
  5
DAD
331
E20
  5
E22
331
C38
  5
C38
331
E40
  5
E42
331
E0A
  5
E0C
331
DEB
  5
DED
331
3F3D
  5
3F43
331
DCC
  5
DCD
331
3F26
  5
3F2C
331
3F07
  5
3F0E
331
D96
  5
D97
331
D77
  5
D78
331
3EC1
  5
3EC6
331
D58
  5
D59
331
3E8B
  5
3E90
331
3E6C
  5
3E71
331
D22
  5
D22
331
3E4D
  5
3E52
331
CBC
  5
CBC
331
C9D
  5
C9D
331
D39
  5
D39
331
DAD
  5
DAE
331
E21
  5
E23
331
C39
  5
C39
331
C58
  5
C58
331
E60
  5
E62
331
E0B
  5
E0D
331
DEC
  5
DEE
331
3F3E
  5
3F44
331
DCD
  5
DCE
331
3F27
  5
3F2D
331
3F08
  5
3F0F
331
D97
  5
D98
331
D78
  5
D79
331
3EC2
  5
3EC7
331
D59
  5
D5A
331
3E8C
  5
3E91
331
3E6D
  5
3E72
331
D23
  5
D23
331
3E4E
  5
3E53
331
CBD
  5
CBD
331
C9E
  5
C9E
331
D3A
  5
D3A
331
DAE
  5
DAF
331
E22
  5
E24
331
E41
  5
E43
331
C3A
  5
C3A
331
C59
  5
C59
331
C78
  5
C78
331
E42
  5
E44
331
E0C
  5
E0E
331
DED
  5
DEF
331
3F3F
  5
3F45
331
DCE
  5
DCF
331
3F28
  5
3F2E
331
3F09
  5
3F10
331
D98
  5
D99
331
D79
  5
D7A
331
3EAC
  5
3EB1
331
3EC3
  5
3EC8
331
3E8D
  5
3E92
331
3E6E
  5
3E73
331
D24
  5
D24
331
3E4F
  5
3E54
331
CBE
  5
CBE
331
C9F
  5
C9F
331
D5A
  5
D5B
331
DAF
  5
DB0
331
E23
  5
E25
331
E61
  5
E63
331
C3B
  5
C3B
331
C5A
  5
C5A
331
C79
  5
C79
331
1208
  5
120D
331
E62
  5
E64
331
E0D
  5
E0F
331
DEE
  5
DF0
331
3F40
  5
3F46
331
DCF
  5
DD0
331
3F29
  5
3F32
331
3F0A
  5
3F11
331
D99
  5
D9A
331
D7A
  5
D7B
331
3EC4
  5
3EC9
331
D5B
  5
D5C
331
3EAD
  5
3EB2
331
3E8E
  5
3E93
331
3E6F
  5
3E74
331
D25
  5
D25
331
3E50
  5
3E55
331
CA0
  5
CA0
331
CBF
  5
CBF
331
D3C
  5
D3C
331
DB0
  5
DB1
331
E24
  5
E26
331
E43
  5
E45
331
C3C
  5
C3C
331
C5B
  5
C5B
331
C7A
  5
C7A
331
1209
  5
120F
331
E44
  5
E46
331
E0E
  5
E10
331
DEF
  5
DF1
331
3F41
  5
3F47
331
DD0
  5
DD1
331
3F2A
  5
3F33
331
D9A
  5
D9B
331
D7B
  5
D7C
331
3EC5
  5
3ECA
331
D5C
  5
D5D
331
3EAE
  5
3EB3
331
3E8F
  5
3E94
331
3E70
  5
3E75
331
3E51
  5
3E56
331
CA1
  5
CA1
331
CC0
  5
CC0
331
D26
  5
D26
331
D3D
  5
D3D
331
DB1
  5
DB2
331
E25
  5
E27
331
E63
  5
E65
331
C3D
  5
C3D
331
C5C
  5
C5C
331
C7B
  5
C7B
331
E64
  5
E66
331
E0F
  5
E11
331
DF0
  5
DF2
331
3F42
  5
3F48
331
DD1
  5
DD2
331
3F2B
  5
3F34
331
3F0C
  5
3F14
331
D9B
  5
D9C
331
3EED
  5
3F00
331
D7C
  5
D81
331
D5D
  5
D5E
331
3EAF
  5
3EB4
331
3E71
  5
3E76
331
3E90
  5
3E95
331
3E52
  5
3E57
331
CC1
  5
CC1
331
CA2
  5
CA2
331
D27
  5
D27
331
D3E
  5
D3E
331
DB2
  5
DB3
331
E26
  5
E28
331
E45
  5
E47
331
4221
  5
4240
331
C3E
  5
C3E
331
C5D
  5
C5D
331
C7C
  5
C7C
331
E46
  5
E48
331
E10
  5
E12
331
DF1
  5
DF3
331
3F43
  5
3F49
331
DD2
  5
DD3
331
3F2C
  5
3F35
331
3F0D
  5
3F15
331
3EEE
  5
3F01
331
D9C
  5
D9D
331
3EC7
  5
3ECC
331
D5E
  5
D5F
331
D28
  5
D28
331
3E72
  5
3E77
331
3E91
  5
3E96
331
3E53
  5
3E58
331
CA3
  5
CA3
331
CC2
  5
CC2
331
D3F
  5
D3F
331
DB3
  5
DB4
331
E27
  5
E29
331
E65
  5
E67
331
E8C
  5
E8E
331
4222
  5
4241
331
C7D
  5
C7D
331
C3F
  5
C3F
331
C5E
  5
C5E
331
13C2
  5
1415
331
120C
  5
1210
331
E11
  5
E13
331
3F44
  5
3F4A
331
DD3
  5
DD4
331
3F2D
  5
3F36
331
3F0E
  5
3F16
331
3EEF
  5
3F02
331
D9D
  5
D9E
331
3EC8
  5
3ECD
331
D40
  5
D40
331
D5F
  5
D60
331
DB4
  5
DB5
331
DF2
  5
DF4
331
E28
  5
E2A
331
E47
  5
E49
331
E66
  5
E68
331
E8D
  5
E8F
331
D29
  5
D29
331
3E92
  5
3E97
331
3E73
  5
3E78
331
D0A
  5
D0A
331
3E54
  5
3E59
331
CC3
  5
CC3
331
CA4
  5
CA4
331
3EB1
  5
3EB6
331
C40
  5
C40
331
C5F
  5
C5F
331
C7E
  5
C7E
331
1490
  5
14EF
331
120D
  5
1211
331
E12
  5
E14
331
DF3
  5
DF5
331
3F45
  5
3F4B
331
DD4
  5
DD5
331
3F2E
  5
3F37
331
3F0F
  5
3F17
331
3EF0
  5
3F03
331
3EC9
  5
3ECE
331
D60
  5
D61
331
D41
  5
D41
331
D9E
  5
D9F
331
DB5
  5
DB6
331
E29
  5
E2B
331
E48
  5
E4A
331
E67
  5
E69
331
E8E
  5
E90
331
3EB2
  5
3EB7
331
3E93
  5
3E98
331
3E74
  5
3E79
331
D0B
  5
D0B
331
3E55
  5
3E5A
331
CA5
  5
CA5
331
CC4
  5
CC4
331
D2A
  5
D2A
331
C7F
  5
C7F
331
C41
  5
C41
331
C60
  5
C60
331
E2A
  5
E2C
331
3F46
  5
3F4C
331
DD5
  5
DD6
331
3F10
  5
3F18
331
3ECA
  5
3ECF
331
D42
  5
D42
331
D61
  5
D62
331
D9F
  5
DA0
331
DB6
  5
DB7
331
DF4
  5
DF6
331
E49
  5
E4B
331
E68
  5
E6A
331
E8F
  5
E91
331
3EB3
  5
3EB8
331
3E94
  5
3E99
331
3E75
  5
3E7A
331
D0C
  5
D0C
331
3E56
  5
3E5B
331
CC5
  5
CC5
331
CA6
  5
CA6
331
D2B
  5
D2B
331
C80
  5
C80
331
C61
  5
C61
331
C42
  5
C42
331
120F
  5
1212
331
E90
  5
E92
331
DF5
  5
DF7
331
3F47
  5
3F4D
331
DD6
  5
DD7
331
DB7
  5
DB8
331
E2B
  5
E2D
331
E4A
  5
E4C
331
E69
  5
E6B
331
3F11
  5
3F19
331
3ECB
  5
3ED0
331
D62
  5
D63
331
D43
  5
D43
331
D81
  5
D82
331
3EB4
  5
3EB9
331
DA0
  5
DA1
331
3E95
  5
3E9A
331
3E76
  5
3E7B
331
D0D
  5
D0D
331
3E57
  5
3E5C
331
CA7
  5
CA7
331
CC6
  5
CC6
331
D2C
  5
D2C
331
C81
  5
C81
331
C43
  5
C43
331
C24
  5
C24
331
C62
  5
C62
331
1EA0
  5
1EA0
331
E91
  5
1147
331
3F48
  5
3F4E
331
DB8
  5
DB9
331
DD7
  5
DD8
331
DF6
  5
DF8
331
E2C
  5
E2E
331
E4B
  5
E4D
331
E6A
  5
E6C
331
3ECC
  5
3ED1
331
D44
  5
D44
331
D63
  5
D64
331
D82
  5
D83
331
3EB5
  5
3EBA
331
3E96
  5
3E9B
331
3E77
  5
3E7C
331
D0E
  5
D0E
331
CC7
  5
CC7
331
CA8
  5
CA8
331
3E58
  5
3E5D
331
D2D
  5
D2D
331
DA1
  5
DA2
331
4188
  5
423F
331
C82
  5
C82
331
C63
  5
C63
331
C44
  5
C44
331
C25
  5
C25
331
159A
  5
1663
331
E92
  5
1148
331
3F49
  5
3F4F
331
DB9
  5
DBA
331
DD8
  5
DD9
331
DF7
  5
DF9
331
E2D
  5
E2F
331
E4C
  5
E4E
331
E6B
  5
E6D
331
3F32
  5
3F38
331
3ECD
  5
3ED2
331
D64
  5
D65
331
D45
  5
D45
331
D83
  5
D84
331
3EB6
  5
3EBB
331
3E97
  5
3E9C
331
D0F
  5
D0F
331
CC8
  5
CC8
331
3E78
  5
3E7D
331
CA9
  5
CA9
331
3E59
  5
3E5E
331
D2E
  5
D2E
331
DA2
  5
DA3
331
C83
  5
C83
331
C26
  5
C26
331
C45
  5
C45
331
C64
  5
C64
331
1789
  5
1792
331
144E
  5
1490
331
3F4A
  5
3F50
331
DD9
  5
DDA
331
DBA
  5
DBB
331
DF8
  5
DFA
331
E2E
  5
E30
331
E4D
  5
E4F
331
E6C
  5
E6E
331
3F33
  5
3F39
331
3F14
  5
3F1A
331
3ECE
  5
3ED3
331
D46
  5
D46
331
D65
  5
D66
331
D84
  5
D85
331
3EB7
  5
3EBC
331
DA3
  5
DA4
331
D10
  5
D10
331
3E98
  5
3E9D
331
CC9
  5
CC9
331
3E79
  5
3E7E
331
CAA
  5
CAA
331
3E5A
  5
3E5F
331
D2F
  5
D2F
331
C84
  5
C84
331
C65
  5
C65
331
C46
  5
C46
331
C27
  5
C27
331
178A
  5
1799
331
DF9
  5
DFB
331
3F4B
  5
3F51
331
DBB
  5
DBC
331
DDA
  5
DDB
331
E2F
  5
E31
331
E4E
  5
E50
331
E6D
  5
E6F
331
3F34
  5
3F3A
331
3F15
  5
3F1B
331
D85
  5
D86
331
3ECF
  5
3ED4
331
D66
  5
D67
331
D47
  5
D47
331
D11
  5
D11
331
3E99
  5
3E9E
331
CCA
  5
CCA
331
3E7A
  5
3E7F
331
CAB
  5
CAB
331
3E5B
  5
3E60
331
DA4
  5
DA5
331
C66
  5
C66
331
C47
  5
C47
331
C28
  5
C28
331
C85
  5
C85
331
DFA
  5
DFC
331
3F4C
  5
3F52
331
DDB
  5
DDC
331
DBC
  5
DBD
331
E30
  5
E32
331
E4F
  5
E51
331
E6E
  5
E70
331
3F35
  5
3F3B
331
3F16
  5
3F24
331
D86
  5
D87
331
D48
  5
D48
331
D67
  5
D68
331
D12
  5
D12
331
3E9A
  5
3E9F
331
CCB
  5
CCB
331
3E7B
  5
3E80
331
CAC
  5
CAC
331
3E5C
  5
3E61
331
DA5
  5
DA6
331
C67
  5
C67
331
C48
  5
C48
331
C29
  5
C29
331
C86
  5
C86
331
14EF
  5
1514
331
163D
  5
16B3
331
1D10
  5
1D14
331
DFB
  5
DFD
331
3F4D
  5
3F53
331
DBD
  5
DBE
331
DDC
  5
DDD
331
E31
  5
E33
331
E50
  5
E52
331
E6F
  5
E71
331
3F36
  5
3F3C
331
3F17
  5
3F25
331
D87
  5
D88
331
3EF8
  5
3F06
331
DA6
  5
DA7
331
D68
  5
D69
331
3E9B
  5
3EA0
331
3E7C
  5
3E81
331
D13
  5
D13
331
3E5D
  5
3E62
331
CAD
  5
CAD
331
CCC
  5
CCC
331
D49
  5
D49
331
C87
  5
C87
331
C68
  5
C68
331
C49
  5
C49
331
C2A
  5
C2A
331
181C
  5
18A2
331
1D11
  5
1D15
331
DFC
  5
DFE
331
3F4E
  5
3F54
331
DDD
  5
DDE
331
DBE
  5
DBF
331
E32
  5
E34
331
E51
  5
E53
331
E70
  5
E72
331
3F37
  5
3F3D
331
3F18
  5
3F26
331
DA7
  5
DA8
331
D88
  5
D89
331
3E9C
  5
3EA1
331
D4A
  5
D4A
331
3E7D
  5
3E82
331
D14
  5
D14
331
3E5E
  5
3E63
331
CCD
  5
CCD
331
CAE
  5
CAE
331
D69
  5
D6A
331
C88
  5
C88
331
C69
  5
C69
331
C4A
  5
C4A
331
C2B
  5
C2B
331
3528
  5
353D
331
1D51
  5
1D54
331
1D12
  5
1D30
331
1E30
  5
1E30
331
DFD
  5
DFF
331
3F4F
  5
3F55
331
DDE
  5
DDF
331
DBF
  5
DC0
331
E33
  5
E35
331
E52
  5
E54
331
E71
  5
E73
331
3F19
  5
3F27
331
D89
  5
D8A
331
D6A
  5
D6B
331
3E9D
  5
3EA2
331
3E7E
  5
3E83
331
D15
  5
D15
331
3E5F
  5
3E64
331
CCE
  5
CCE
331
CAF
  5
CAF
331
D4B
  5
D4B
331
C89
  5
C89
331
C6A
  5
C6A
331
C4B
  5
C4B
331
C2C
  5
C2C
331
3529
  5
36C2
331
2AFC
  5
2AFC
331
310A
  5
310A
331
1D13
  5
1D31
331
13CE
  5
1434
331
1415
  5
1464
331
1D52
  5
1D55
331
DFE
  5
E00
331
DDF
  5
DE0
331
E34
  5
E36
331
E53
  5
E55
331
E72
  5
E74
331
3F50
  5
3F56
331
3F1A
  5
3F28
331
DC0
  5
DC1
331
D8A
  5
D8B
331
3E9E
  5
3EA3
331
D4C
  5
D4C
331
3E7F
  5
3E84
331
D16
  5
D16
331
CCF
  5
CCF
331
D6B
  5
D6C
331
C8A
  5
C8A
331
C6B
  5
C6B
331
C4C
  5
C4C
331
C2D
  5
C2D
331
3771
  5
3B75
331
3D70
  5
3D72
331
1D53
  5
1D56
331
1D14
  5
1D32
331
1378
  5
13CE
331
DFF
  5
E01
331
E35
  5
E37
331
E54
  5
E56
331
E73
  5
E75
331
3F51
  5
3F57
331
DE0
  5
DE1
331
3F1B
  5
3F29
331
D8B
  5
D8C
331
3ED5
  5
3EDC
331
D6C
  5
D6D
331
3E9F
  5
3EA4
331
D4D
  5
D4D
331
D17
  5
D17
331
DC1
  5
DC2
331
C8B
  5
C8B
331
C6C
  5
C6C
331
C4D
  5
C4D
331
C2E
  5
C2E
331
234F
  5
234F
331
3D71
  5
3D73
331
3D90
  5
3D94
331
1D54
  5
1D57
331
E36
  5
E38
331
E55
  5
E57
331
E74
  5
E76
331
E1F
  5
E21
331
E00
  5
E02
331
3F52
  5
3F58
331
DC2
  5
DC3
331
D8C
  5
D8D
331
D4E
  5
D4F
331
D6D
  5
D6E
331
DE1
  5
DE2
331
C8C
  5
C8C
331
C6D
  5
C6D
331
C4E
  5
C4E
331
C2F
  5
C2F
331
3DB0
  5
3DB3
331
3D72
  5
3D74
331
1D55
  5
1D58
331
E37
  5
E39
331
E56
  5
E58
331
E01
  5
E03
331
3F53
  5
4188
331
DE2
  5
DE3
331
D8D
  5
D8E
331
3ED7
  5
3EDD
331
D6E
  5
D6F
331
D4F
  5
D50
331
DC3
  5
DC4
331
C8D
  5
C8D
331
C6E
  5
C6E
331
C30
  5
C30
331
C4F
  5
C4F
331
3DB1
  5
3DB4
331
3D92
  5
3D95
331
1F5B
  5
1F5B
331
3D73
  5
3D75
331
3DC8
  5
3DCD
331
1D56
  5
1D6C
331
179B
  5
17F0
331
E57
  5
E59
331
E02
  5
E04
331
3F54
  5
4221
331
DC4
  5
DC5
331
3EFF
  5
3F07
331
D8E
  5
D8F
331
D6F
  5
D70
331
DE3
  5
DE4
331
E38
  5
E3A
331
C6F
  5
C6F
331
C50
  5
C50
331
C31
  5
C31
331
C8E
  5
C8E
331
3DB2
  5
3DB5
331
3D93
  5
3D96
331
25C2
  5
25C2
331
3D74
  5
3D77
331
3DC9
  5
3DCE
331
3DE8
  5
3DED
331
1D57
  5
1D6D
331
1AE3
  5
1B1E
331
1D30
  5
1D33
331
E03
  5
E05
331
3F55
  5
4222
331
DE4
  5
DE5
331
D8F
  5
D90
331
DC5
  5
DC6
331
E39
  5
E3B
331
E58
  5
E5A
331
C70
  5
C70
331
C51
  5
C51
331
C32
  5
C32
331
C8F
  5
C8F
331
3E08
  5
3E0D
331
3DB3
  5
3DB6
331
3D94
  5
3D97
331
1EB6
  5
1EB6
331
3D75
  5
3D78
331
3DCA
  5
3DCF
331
3DE9
  5
3DEE
331
1D31
  5
1D34
331
1147
  5
1149
331
E04
  5
E06
331
3F56
  5
4235
331
DC6
  5
DC7
331
DE5
  5
DE7
331
E3A
  5
E3C
331
E59
  5
E5B
331
1316
  5
13C2
331
15F7
  5
1682
331
1D58
  5
1D6E
331
C52
  5
C52
331
C33
  5
C33
331
C71
  5
C71
331
3E28
  5
3E2D
331
3E09
  5
3E0E
331
3DB4
  5
3DB7
331
3D95
  5
3D98
331
1FC5
  5
1FC5
331
3D76
  5
3D79
331
3DCB
  5
3DD0
331
3DEA
  5
3DEF
331
1E58
  5
1E58
331
E05
  5
E07
331
DE6
  5
DE8
331
DC7
  5
DC8
331
E3B
  5
E3D
331
E5A
  5
E5C
331
14BA
  5
150B
331
1D32
  5
1D35
331
C72
  5
C72
331
C34
  5
C34
331
C53
  5
C53
331
3E29
  5
3E2E
331
3E0A
  5
3E0F
331
3DB5
  5
3DB8
331
3D96
  5
3D99
331
3D77
  5
3D7A
331
3DCC
  5
3DD1
331
3DEB
  5
3DF0
331
E06
  5
E08
331
DE7
  5
DE9
331
E3C
  5
E3E
331
E5B
  5
E5D
331
1464
  5
14BA
331
1D33
  5
1D37
331
C73
  5
C73
331
C54
  5
C54
331
C35
  5
C35
331
3E2A
  5
3E2F
331
3E0B
  5
3E10
331
3DB6
  5
3DB9
331
2B65
  5
2B65
331
3D78
  5
3D7B
331
3D97
  5
3D9A
331
3DCD
  5
3DD2
331
3DEC
  5
3DF1
331
E07
  5
E09
331
E3D
  5
E3F
331
E5C
  5
E5E
331
E83
  5
E85
331
150B
  5
1515
331
1D34
  5
1D38
331
C74
  5
C74
331
C55
  5
C55
331
3E2B
  5
3E30
331
3E0C
  5
3E11
331
3D98
  5
3D9B
331
2B66
  5
2B66
331
1F71
  5
1F71
331
3D79
  5
3D7C
331
3DB7
  5
3DBA
331
3DCE
  5
3DD3
331
3DED
  5
3DF2
331
E3E
  5
E40
331
E5D
  5
E5F
331
E84
  5
E86
331
150C
  5
159A
331
1D35
  5
1D39
331
C37
  5
C37
331
C56
  5
C56
331
C75
  5
C75
331
3E2C
  5
3E31
331
3E0D
  5
3E12
331
3D99
  5
3D9C
331
3D7A
  5
3D7D
331
337D
  5
337D
331
353C
  5
3772
331
3DB8
  5
3DBB
331
3DCF
  5
3DD4
331
3DEE
  5
3DF3
331
1D36
  5
1D3A
331
1392
  5
13F6
331
E5E
  5
E60
331
E3F
  5
E41
331
17DA
  5
181C
331
C57
  5
C57
331
C76
  5
C76
331
3E0E
  5
3E13
331
3DEF
  5
3DF4
331
3DD0
  5
3DD5
331
3D9A
  5
3D9D
331
3D7B
  5
3D7E
331
3DB9
  5
3DBC
331
3E2D
  5
3E32
331
E5F
  5
E61
331
1D37
  5
1D3B
331
C77
  5
C77
331
3E0F
  5
3E14
331
3DD1
  5
3DD6
331
3D9B
  5
3D9E
331
2BC9
  5
2BC9
331
3D7C
  5
3D7F
331
3DBA
  5
3DBD
331
3DF0
  5
3DF5
331
3E2E
  5
3E33
331
1D38
  5
1D3C
  0
XRECORD
  5
444B
102
{ACAD_REACTORS
330
444A
102
}
330
444A
100
AcDbXrecord
340
4422
  0
ACAD_PROXY_OBJECT
  5
811
102
{ACAD_XDICTIONARY
360
812
102
}
102
{ACAD_REACTORS
330
808
102
}
330
808
100
AcDbProxyObject
 90
      499
 91
      512
 93
     1340
310
42109E509B1BD8DAC02004014080404555555555555953FAA155555555555654FEA9AA400014080404555555555555953FAA155555555555654FEA9AA400000000000000E03F4080404555555555555953FAA155555555555654FEA9AA4014080404555555555555953FAA155555555555654FEA9AA4010201011555555555
310
55654FEA8555555555555953FAA6A9005020101155555555555654FEA8555555555555953FAA6A900D
 94
        0
1001
ACAD
1000
AcadProxyRoundTripData
1071
      504
1071
   851991
1070
     0
  0
ACAD_PROXY_OBJECT
  5
809
102
{ACAD_XDICTIONARY
360
80A
102
}
102
{ACAD_REACTORS
330
808
102
}
330
808
100
AcDbProxyObject
 90
      499
 91
      512
 93
     1340
310
42109E53185E595C802004014080404555555555555953FAA155555555555654FEA9AA400014080404555555555555953FAA155555555555654FEA9AA400000000000000E03F4080404555555555555953FAA155555555555654FEA9AA4014080404555555555555953FAA155555555555654FEA9AA4010201011555555555
310
55654FEA8555555555555953FAA6A9005020101155555555555654FEA8555555555555953FAA6A900D
 94
        0
1001
ACAD
1000
AcadProxyRoundTripData
1071
      504
1071
   851991
1070
     0
  0
ACAD_PROXY_OBJECT
  5
819
102
{ACAD_XDICTIONARY
360
81A
102
}
102
{ACAD_REACTORS
330
808
102
}
330
808
100
AcDbProxyObject
 90
      499
 91
      512
 93
     1332
310
41D1DB1BD8985B002004014080404555555555555953FAA155555555555654FEA9AA400014080404555555555555953FAA155555555555654FEA9AA400000000000000E03F4080404555555555555953FAA155555555555654FEA9AA4014080404555555555555953FAA155555555555654FEA9AA401020101155555555555
310
654FEA8555555555555953FAA6A9005020101155555555555654FEA8555555555555953FAA6A9000
 94
        0
1001
ACAD
1000
AcadProxyRoundTripData
1071
      504
1071
   851991
1070
     0
  0
ACAD_PROXY_OBJECT
  5
858
102
{ACAD_REACTORS
330
857
102
}
330
857
100
AcDbProxyObject
 90
      499
 91
      512
 93
      618
310
40901902A4063FBFFFFFE056BD1B81E855B9FC0AD7A3703D0AD73F4254DD185B99185C990000AD7A3703D0AC73F90141901A02B5E8DC0F42B1CFC02B5E8DC0F42B1CFE5764000000000000300FC6
340
6A
340
0
340
16
340
0
 94
        0
1001
ACAD_MLEADERVER
1070
     2
1001
ACAD
1000
AcadProxyRoundTripData
1071
      508
1071
   851991
1070
     0
  0
MLINESTYLE
  5
78
102
{ACAD_REACTORS
330
76
102
}
330
76
100
AcDbMlineStyle
  2
STANDARD
 70
     0
  3

 62
     0
 51
90.0
 52
90.0
 71
     2
 49
0.5
 62
   256
  6
BYLAYER
 49
-0.5
 62
   256
  6
BYLAYER
  0
ACDBPLACEHOLDER
  5
5
102
{ACAD_REACTORS
330
6
102
}
330
6
100
AcDbPlaceHolder
280
     0
  0
ACAD_PROXY_OBJECT
  5
836
102
{ACAD_REACTORS
330
835
102
}
330
835
100
AcDbProxyObject
 90
      499
 91
      512
 93
       49
310
904313A3100598
 94
        0
1001
ACAD
1000
AcadProxyRoundTripData
1071
      507
1071
   851991
1070
     0
  0
ACAD_PROXY_OBJECT
  5
837
102
{ACAD_REACTORS
330
835
102
}
330
835
100
AcDbProxyObject
 90
      499
 91
      512
 93
      113
310
904313A3200400000000000000406B
 94
        0
1001
ACAD
1000
AcadProxyRoundTripData
1071
      507
1071
   851991
1070
     0
  0
ACAD_PROXY_OBJECT
  5
838
102
{ACAD_REACTORS
330
835
102
}
330
835
100
AcDbProxyObject
 90
      499
 91
      512
 93
      113
310
904313A3400400000000000010406B
 94
        0
1001
ACAD
1000
AcadProxyRoundTripData
1071
      507
1071
   851991
1070
     0
  0
ACAD_PROXY_OBJECT
  5
839
102
{ACAD_REACTORS
330
835
102
}
330
835
100
AcDbProxyObject
 90
      499
 91
      512
 93
      113
310
904313A3500400000000000014406B
 94
        0
1001
ACAD
1000
AcadProxyRoundTripData
1071
      507
1071
   851991
1070
     0
  0
ACAD_PROXY_OBJECT
  5
83A
102
{ACAD_REACTORS
330
835
102
}
330
835
100
AcDbProxyObject
 90
      499
 91
      512
 93
      113
310
904313A3800400000000000020406B
 94
        0
1001
ACAD
1000
AcadProxyRoundTripData
1071
      507
1071
   851991
1070
     0
  0
ACAD_PROXY_OBJECT
  5
83B
102
{ACAD_REACTORS
330
835
102
}
330
835
100
AcDbProxyObject
 90
      499
 91
      512
 93
      121
310
905313A3130004000000000000244051
 94
        0
1001
ACAD
1000
AcadProxyRoundTripData
1071
      507
1071
   851991
1070
     0
  0
ACAD_PROXY_OBJECT
  5
83C
102
{ACAD_REACTORS
330
835
102
}
330
835
100
AcDbProxyObject
 90
      499
 91
      512
 93
      121
310
905313A3136004000000000000304051
 94
        0
1001
ACAD
1000
AcadProxyRoundTripData
1071
      507
1071
   851991
1070
     0
  0
ACAD_PROXY_OBJECT
  5
83D
102
{ACAD_REACTORS
330
835
102
}
330
835
100
AcDbProxyObject
 90
      499
 91
      512
 93
      121
310
905313A3230004000000000000344051
 94
        0
1001
ACAD
1000
AcadProxyRoundTripData
1071
      507
1071
   851991
1070
     0
  0
ACAD_PROXY_OBJECT
  5
83E
102
{ACAD_REACTORS
330
835
102
}
330
835
100
AcDbProxyObject
 90
      499
 91
      512
 93
      121
310
905313A33300040000000000003E4051
 94
        0
1001
ACAD
1000
AcadProxyRoundTripData
1071
      507
1071
   851991
1070
     0
  0
ACAD_PROXY_OBJECT
  5
83F
102
{ACAD_REACTORS
330
835
102
}
330
835
100
AcDbProxyObject
 90
      499
 91
      512
 93
      121
310
905313A3430004000000000000444051
 94
        0
1001
ACAD
1000
AcadProxyRoundTripData
1071
      507
1071
   851991
1070
     0
  0
ACAD_PROXY_OBJECT
  5
840
102
{ACAD_REACTORS
330
835
102
}
330
835
100
AcDbProxyObject
 90
      499
 91
      512
 93
      121
310
905313A3530004000000000000494051
 94
        0
1001
ACAD
1000
AcadProxyRoundTripData
1071
      507
1071
   851991
1070
     0
  0
ACAD_PROXY_OBJECT
  5
841
102
{ACAD_REACTORS
330
835
102
}
330
835
100
AcDbProxyObject
 90
      499
 91
      512
 93
      129
310
906313A313030004000000000000594038
 94
        0
1001
ACAD
1000
AcadProxyRoundTripData
1071
      507
1071
   851991
1070
     0
  0
ACAD_PROXY_OBJECT
  5
842
102
{ACAD_REACTORS
330
835
102
}
330
835
100
AcDbProxyObject
 90
      499
 91
      512
 93
      113
310
904323A31000000000000000010159
 94
        0
1001
ACAD
1000
AcadProxyRoundTripData
1071
      507
1071
   851991
1070
     0
  0
ACAD_PROXY_OBJECT
  5
843
102
{ACAD_REACTORS
330
835
102
}
330
835
100
AcDbProxyObject
 90
      499
 91
      512
 93
      113
310
904343A31000000000000000410159
 94
        0
1001
ACAD
1000
AcadProxyRoundTripData
1071
      507
1071
   851991
1070
     0
  0
ACAD_PROXY_OBJECT
  5
844
102
{ACAD_REACTORS
330
835
102
}
330
835
100
AcDbProxyObject
 90
      499
 91
      512
 93
      113
310
904383A31000000000000000810159
 94
        0
1001
ACAD
1000
AcadProxyRoundTripData
1071
      507
1071
   851991
1070
     0
  0
ACAD_PROXY_OBJECT
  5
845
102
{ACAD_REACTORS
330
835
102
}
330
835
100
AcDbProxyObject
 90
      499
 91
      512
 93
      121
310
90531303A31000000000000000910140
 94
        0
1001
ACAD
1000
AcadProxyRoundTripData
1071
      507
1071
   851991
1070
     0
  0
ACAD_PROXY_OBJECT
  5
846
102
{ACAD_REACTORS
330
835
102
}
330
835
100
AcDbProxyObject
 90
      499
 91
      512
 93
      129
310
9063130303A31000000000000001650138
 94
        0
1001
ACAD
1000
AcadProxyRoundTripData
1071
      507
1071
   851991
1070
     0
  0
ACAD_PROXY_OBJECT
  5
847
102
{ACAD_REACTORS
330
835
102
}
330
835
100
AcDbProxyObject
 90
      499
 91
      512
 93
      265
310
90F312F31323822203D2031272D302200000000000000200FC00000000000028402B
 94
        0
1001
ACAD
1000
AcadProxyRoundTripData
1071
      507
1071
   851991
1070
     0
  0
ACAD_PROXY_OBJECT
  5
848
102
{ACAD_REACTORS
330
835
102
}
330
835
100
AcDbProxyObject
 90
      499
 91
      512
 93
      257
310
90E312F363422203D2031272D302200000000000000240FC000000000000284040
 94
        0
1001
ACAD
1000
AcadProxyRoundTripData
1071
      507
1071
   851991
1070
     0
  0
ACAD_PROXY_OBJECT
  5
849
102
{ACAD_REACTORS
330
835
102
}
330
835
100
AcDbProxyObject
 90
      499
 91
      512
 93
      257
310
90E312F333222203D2031272D302200000000000000280FC000000000000284040
 94
        0
1001
ACAD
1000
AcadProxyRoundTripData
1071
      507
1071
   851991
1070
     0
  0
ACAD_PROXY_OBJECT
  5
84A
102
{ACAD_REACTORS
330
835
102
}
330
835
100
AcDbProxyObject
 90
      499
 91
      512
 93
      257
310
90E312F313622203D2031272D3022000000000000002C0FC000000000000284040
 94
        0
1001
ACAD
1000
AcadProxyRoundTripData
1071
      507
1071
   851991
1070
     0
  0
ACAD_PROXY_OBJECT
  5
84B
102
{ACAD_REACTORS
330
835
102
}
330
835
100
AcDbProxyObject
 90
      499
 91
      512
 93
      257
310
90E332F333222203D2031272D3022000000000000002E0FC000000000000284040
 94
        0
1001
ACAD
1000
AcadProxyRoundTripData
1071
      507
1071
   851991
1070
     0
  0
ACAD_PROXY_OBJECT
  5
84C
102
{ACAD_REACTORS
330
835
102
}
330
835
100
AcDbProxyObject
 90
      499
 91
      512
 93
      249
310
90D312F3822203D2031272D302200000000000000300FC000000000000284040
 94
        0
1001
ACAD
1000
AcadProxyRoundTripData
1071
      507
1071
   851991
1070
     0
  0
ACAD_PROXY_OBJECT
  5
84D
102
{ACAD_REACTORS
330
835
102
}
330
835
100
AcDbProxyObject
 90
      499
 91
      512
 93
      257
310
90E332F313622203D2031272D302200000000000000320FC000000000000284040
 94
        0
1001
ACAD
1000
AcadProxyRoundTripData
1071
      507
1071
   851991
1070
     0
  0
ACAD_PROXY_OBJECT
  5
84E
102
{ACAD_REACTORS
330
835
102
}
330
835
100
AcDbProxyObject
 90
      499
 91
      512
 93
      249
310
90D312F3422203D2031272D302200000000000000340FC000000000000284040
 94
        0
1001
ACAD
1000
AcadProxyRoundTripData
1071
      507
1071
   851991
1070
     0
  0
ACAD_PROXY_OBJECT
  5
84F
102
{ACAD_REACTORS
330
835
102
}
330
835
100
AcDbProxyObject
 90
      499
 91
      512
 93
      249
310
90D332F3822203D2031272D302200000000000000360FC000000000000284040
 94
        0
1001
ACAD
1000
AcadProxyRoundTripData
1071
      507
1071
   851991
1070
     0
  0
ACAD_PROXY_OBJECT
  5
850
102
{ACAD_REACTORS
330
835
102
}
330
835
100
AcDbProxyObject
 90
      499
 91
      512
 93
      249
310
90D312F3222203D2031272D302200000000000000380FC000000000000284040
 94
        0
1001
ACAD
1000
AcadProxyRoundTripData
1071
      507
1071
   851991
1070
     0
  0
ACAD_PROXY_OBJECT
  5
851
102
{ACAD_REACTORS
330
835
102
}
330
835
100
AcDbProxyObject
 90
      499
 91
      512
 93
      249
310
90D332F3422203D2031272D3022000000000000003A0FC000000000000284040
 94
        0
1001
ACAD
1000
AcadProxyRoundTripData
1071
      507
1071
   851991
1070
     0
  0
ACAD_PROXY_OBJECT
  5
852
102
{ACAD_REACTORS
330
835
102
}
330
835
100
AcDbProxyObject
 90
      499
 91
      512
 93
      169
310
90B3122203D2031272D3022004000000000000284020
 94
        0
1001
ACAD
1000
AcadProxyRoundTripData
1071
      507
1071
   851991
1070
     0
  0
ACAD_PROXY_OBJECT
  5
853
102
{ACAD_REACTORS
330
835
102
}
330
835
100
AcDbProxyObject
 90
      499
 91
      512
 93
      265
310
90F312D312F3222203D2031272D3022000000000000003E0FC00000000000028402B
 94
        0
1001
ACAD
1000
AcadProxyRoundTripData
1071
      507
1071
   851991
1070
     0
  0
ACAD_PROXY_OBJECT
  5
854
102
{ACAD_REACTORS
330
835
102
}
330
835
100
AcDbProxyObject
 90
      499
 91
      512
 93
      233
310
90B3322203D2031272D30220000000000000002100000000000000284000
 94
        0
1001
ACAD
1000
AcadProxyRoundTripData
1071
      507
1071
   851991
1070
     0
  0
ACAD_PROXY_OBJECT
  5
855
102
{ACAD_REACTORS
330
835
102
}
330
835
100
AcDbProxyObject
 90
      499
 91
      512
 93
      233
310
90B3622203D2031272D30220000000000000006100000000000000284000
 94
        0
1001
ACAD
1000
AcadProxyRoundTripData
1071
      507
1071
   851991
1070
     0
  0
ACAD_PROXY_OBJECT
  5
856
102
{ACAD_REACTORS
330
835
102
}
330
835
100
AcDbProxyObject
 90
      499
 91
      512
 93
      257
310
90E31272D3022203D2031272D3022000000000000000A100000000000000284040
 94
        0
1001
ACAD
1000
AcadProxyRoundTripData
1071
      507
1071
   851991
1070
     0
  0
ACAD_PROXY_OBJECT
  5
834
102
{ACAD_XDICTIONARY
360
88C
102
}
102
{ACAD_REACTORS
330
833
102
}
330
833
100
AcDbProxyObject
 90
      499
 91
      512
 93
     1849
310
4254DD185B99185C990028B81E85EB51B8AE3F2E07A17AD46E2B8FC02B5E8DC0F42B1CFD028000000C1008070000C3001FDFF8000000C1003FBFF000000182007F7FE00000030400FEFFC00000060801FDFF8000000C1003FBFF00000018200000000000000681FA0B0000001820100E000186003FBFF000000182007F7FE0
310
0000030400FEFFC00000060801FDFF8000000C1003FBFF000000182007F7FE000000304000AD7A3703D0AC73F4160000003040201C00030C007F7FE00000030400FEFFC00000060801FDFF8000000C1003FBFF000000182007F7FE00000030400FEFFC000000608025
340
16
340
16
340
16
 94
        0
1001
ACAD
1000
AcadProxyRoundTripData
1071
      506
1071
   851991
1070
     0
  0
ACAD_PROXY_OBJECT
  5
827
102
{ACAD_REACTORS
330
821
102
}
330
821
100
AcDbProxyObject
 90
      499
 91
      512
 93
      444
310
430C9915DA5C99599C985B59401049028333333333333E3BF0000000000000FB0107901411070040501600405405064090741402480A0340
 94
        0
1001
ACAD
1000
AcDbSavedByObjectVersion
1070
     0
1000
AcadProxyRoundTripData
1071
      505
1071
   851991
1070
     0
  0
ACAD_PROXY_OBJECT
  5
829
102
{ACAD_REACTORS
330
821
102
}
330
821
100
AcDbProxyObject
 90
      499
 91
      512
 93
      508
310
428CD108121A5919195B8010640502408333333333333E3BF0000000000000FB01079024090700405020000000000001110200405405064090740C02480A0340
 94
        0
1001
ACAD
1000
AcDbSavedByObjectVersion
1070
     0
1000
AcadProxyRoundTripData
1071
      505
1071
   851991
1070
     0
  0
ACAD_PROXY_OBJECT
  5
828
102
{ACAD_REACTORS
330
821
102
}
330
821
100
AcDbProxyObject
 90
      499
 91
      512
 93
      444
310
430CD915DA5C99599C985B59401059028333333333333E3BF0000000000000FB0107901411070040501600405405064090741402480A0340
 94
        0
1001
ACAD
1000
AcDbSavedByObjectVersion
1070
     0
1000
AcadProxyRoundTripData
1071
      505
1071
   851991
1070
     0
  0
ACAD_PROXY_OBJECT
  5
826
102
{ACAD_REACTORS
330
821
102
}
330
821
100
AcDbProxyObject
 90
      499
 91
      512
 93
      396
310
4190985CDA58C0107406404333333333333E3BF0000000000000FB0107A41107004050150841D405064090741402480A0356
 94
        0
1001
ACAD
1000
AcDbSavedByObjectVersion
1070
     0
1000
AcadProxyRoundTripData
1071
      505
1071
   851991
1070
     0
  0
ACAD_PROXY_OBJECT
  5
82D
102
{ACAD_REACTORS
330
821
102
}
330
821
100
AcDbProxyObject
 90
      499
 91
      512
 93
      436
310
42509C9A59DA1D195B8010C409028333333333333E3BF0000000000000FB010790141107004050150841D405064090741402480A029956
 94
        0
1001
ACAD
1000
AcDbSavedByObjectVersion
1070
     0
1000
AcadProxyRoundTripData
1071
      505
1071
   851991
1070
     0
  0
ACAD_PROXY_OBJECT
  5
831
102
{ACAD_REACTORS
330
821
102
}
330
821
100
AcDbProxyObject
 90
      499
 91
      512
 93
      460
310
4310DBDB1BDC90DA185B99D9401104090240C333333333333E3BF0000000000000FB0108901411070040501508421405064090741402480A0354
 94
        0
1001
ACAD
1000
AcDbSavedByObjectVersion
1070
     0
1000
AcadProxyRoundTripData
1071
      505
1071
   851991
1070
     0
  0
ACAD_PROXY_OBJECT
  5
82A
102
{ACAD_REACTORS
330
821
102
}
330
821
100
AcDbProxyObject
 90
      499
 91
      512
 93
      508
310
42D0DBDB98D95C1D1D585B0010940D028333333333333E3BF0000000000000FB0107902409070040501000000000000111010841D405064090740C02480A0340
 94
        0
1001
ACAD
1000
AcDbSavedByObjectVersion
1070
     0
1000
AcadProxyRoundTripData
1071
      505
1071
   851991
1070
     0
  0
ACAD_PROXY_OBJECT
  5
82C
102
{ACAD_REACTORS
330
821
102
}
330
821
100
AcDbProxyObject
 90
      499
 91
      512
 93
      420
310
41111A5B4010B409028333333333333E3BF0000000000000FB010790141107004050150841D405064090741402480A02677FFFFFDB
 94
        0
1001
ACAD
1000
AcDbSavedByObjectVersion
1070
     0
1000
AcadProxyRoundTripData
1071
      505
1071
   851991
1070
     0
  0
ACAD_PROXY_OBJECT
  5
830
102
{ACAD_REACTORS
330
821
102
}
330
821
100
AcDbProxyObject
 90
      499
 91
      512
 93
      452
310
43119858D95C185D1D195C9B8010F409028333333333333E3BF0000000000000FB010790141107004050150841D405064090741402480A0350
 94
        0
1001
ACAD
1000
AcDbSavedByObjectVersion
1070
     0
1000
AcadProxyRoundTripData
1071
      505
1071
   851991
1070
     0
  0
ACAD_PROXY_OBJECT
  5
822
102
{ACAD_REACTORS
330
821
102
}
330
821
100
AcDbProxyObject
 90
      499
 91
      512
 93
      396
310
41519B185D00240901404333333333333E3BF0000000000000F9010740A41107004050150841D405064090741402480A1B55
 94
        0
1001
ACAD
1000
AcDbSavedByObjectVersion
1070
     0
1000
AcadProxyRoundTripData
1071
      505
1071
   851991
1070
     0
  0
ACAD_PROXY_OBJECT
  5
823
102
{ACAD_REACTORS
330
821
102
}
330
821
100
AcDbProxyObject
 90
      499
 91
      512
 93
      484
310
43919B185D15DA5D1A115919D95CC010140901404333333333333E3BF0000000000000F9010740901411070040501600405405064090741402480A1B50
 94
        0
1001
ACAD
1000
AcDbSavedByObjectVersion
1070
     0
1000
AcadProxyRoundTripData
1071
      505
1071
   851991
1070
     0
  0
ACAD_PROXY_OBJECT
  5
824
102
{ACAD_REACTORS
330
821
102
}
330
821
100
AcDbProxyObject
 90
      499
 91
      512
 93
      420
310
4211DBDD5C985D590010240902404333333333333E3BF0000000000000F9010740A411070040501641D405064090741402480A1B50
 94
        0
1001
ACAD
1000
AcDbSavedByObjectVersion
1070
     0
1000
AcadProxyRoundTripData
1071
      505
1071
   851991
1070
     0
  0
ACAD_PROXY_OBJECT
  5
825
102
{ACAD_REACTORS
330
821
102
}
330
821
100
AcDbProxyObject
 90
      499
 91
      512
 93
      508
310
4451DBDD5C985D5915DA5D1A115919D95CC010340902404333333333333E3BF0000000000000F9010740901411070040501600405405064090741402480A1B50
 94
        0
1001
ACAD
1000
AcDbSavedByObjectVersion
1070
     0
1000
AcadProxyRoundTripData
1071
      505
1071
   851991
1070
     0
  0
ACAD_PROXY_OBJECT
  5
82F
102
{ACAD_REACTORS
330
821
102
}
330
821
100
AcDbProxyObject
 90
      499
 91
      512
 93
      452
310
43131A5B995C185D1D195C9B8010E409028333333333333E3BF0000000000000FB010790141107004050750841D405064090741402483A0350
 94
        0
1001
ACAD
1000
AcDbSavedByObjectVersion
1070
     0
1000
AcadProxyRoundTripData
1071
      505
1071
   851991
1070
     0
  0
ACAD_PROXY_OBJECT
  5
82B
102
{ACAD_REACTORS
330
821
102
}
330
821
100
AcDbProxyObject
 90
      499
 91
      512
 93
      428
310
429499585B1A5CDD1A58C0108409028333333333333E3BF0000000000000FB01079019070040501508421405064090741402480A1B45
 94
        0
1001
ACAD
1000
AcDbSavedByObjectVersion
1070
     0
1000
AcadProxyRoundTripData
1071
      505
1071
   851991
1070
     0
  0
ACAD_PROXY_OBJECT
  5
82E
102
{ACAD_REACTORS
330
821
102
}
330
821
100
AcDbProxyObject
 90
      499
 91
      512
 93
      420
310
42151A1A58DAD95B8010D409028333333333333E3BF0000000000000FB010790141107004050150C41D405064090741402480A0352
 94
        0
1001
ACAD
1000
AcDbSavedByObjectVersion
1070
     0
1000
AcadProxyRoundTripData
1071
      505
1071
   851991
1070
     0
  0
XRECORD
  5
4432
102
{ACAD_REACTORS
330
4428
102
}
330
4428
100
AcDbXrecord
 90
        0
  0
XRECORD
  5
4436
102
{ACAD_REACTORS
330
4428
102
}
330
4428
100
AcDbXrecord
1000
DSTYLE
1002
{
1070
   179
 70
     2
1070
   277
 70
     6
1002
}
  0
XRECORD
  5
4433
102
{ACAD_REACTORS
330
4428
102
}
330
4428
100
AcDbXrecord
  1
{F8E7DCD7-EF2B-4E83-868E-1BB3A7734B1D}
  0
XRECORD
  5
442B
102
{ACAD_REACTORS
330
4428
102
}
330
4428
100
AcDbXrecord
  1

  0
XRECORD
  5
4431
102
{ACAD_REACTORS
330
4428
102
}
330
4428
100
AcDbXrecord
 90
        0
  0
XRECORD
  5
442D
102
{ACAD_REACTORS
330
4428
102
}
330
4428
100
AcDbXrecord
340
61
  0
XRECORD
  5
4430
102
{ACAD_REACTORS
330
4428
102
}
330
4428
100
AcDbXrecord
 90
    10781
  0
XRECORD
  5
442E
102
{ACAD_REACTORS
330
4428
102
}
330
4428
100
AcDbXrecord
340
77
  0
XRECORD
  5
442F
102
{ACAD_REACTORS
330
4428
102
}
330
4428
100
AcDbXrecord
340
6
  0
XRECORD
  5
4435
102
{ACAD_REACTORS
330
4428
102
}
330
4428
100
AcDbXrecord
 40
0.0
  0
XRECORD
  5
4439
102
{ACAD_REACTORS
330
4428
102
}
330
4428
100
AcDbXrecord
340
0
  0
XRECORD
  5
443F
102
{ACAD_REACTORS
330
4428
102
}
330
4428
100
AcDbXrecord
 10
0.0
 20
0.0
 30
0.0
  0
XRECORD
  5
443B
102
{ACAD_REACTORS
330
4428
102
}
330
4428
100
AcDbXrecord
 10
0.0
 20
0.0
 30
0.0
  0
XRECORD
  5
443E
102
{ACAD_REACTORS
330
4428
102
}
330
4428
100
AcDbXrecord
 10
0.0
 20
0.0
 30
0.0
  0
XRECORD
  5
443C
102
{ACAD_REACTORS
330
4428
102
}
330
4428
100
AcDbXrecord
 10
0.0
 20
0.0
 30
0.0
  0
XRECORD
  5
443D
102
{ACAD_REACTORS
330
4428
102
}
330
4428
100
AcDbXrecord
 10
0.0
 20
0.0
 30
0.0
  0
XRECORD
  5
443A
102
{ACAD_REACTORS
330
4428
102
}
330
4428
100
AcDbXrecord
 10
0.0
 20
0.0
 30
0.0
  0
XRECORD
  5
4437
102
{ACAD_REACTORS
330
4428
102
}
330
4428
100
AcDbXrecord
340
0
  0
XRECORD
  5
4438
102
{ACAD_REACTORS
330
4428
102
}
330
4428
100
AcDbXrecord
 70
     0
  0
XRECORD
  5
442C
102
{ACAD_REACTORS
330
4428
102
}
330
4428
100
AcDbXrecord
  1
Sekkei.ctb
  0
XRECORD
  5
4429
102
{ACAD_REACTORS
330
4428
102
}
330
4428
100
AcDbXrecord
 90
        1
  0
XRECORD
  5
442A
102
{ACAD_REACTORS
330
4428
102
}
330
4428
100
AcDbXrecord
 90
       70
  0
XRECORD
  5
4442
102
{ACAD_REACTORS
330
4428
102
}
330
4428
100
AcDbXrecord
340
0
  0
XRECORD
  5
4448
102
{ACAD_REACTORS
330
4428
102
}
330
4428
100
AcDbXrecord
 10
0.0
 20
0.0
 30
0.0
  0
XRECORD
  5
4444
102
{ACAD_REACTORS
330
4428
102
}
330
4428
100
AcDbXrecord
 10
0.0
 20
0.0
 30
0.0
  0
XRECORD
  5
4447
102
{ACAD_REACTORS
330
4428
102
}
330
4428
100
AcDbXrecord
 10
0.0
 20
0.0
 30
0.0
  0
XRECORD
  5
4445
102
{ACAD_REACTORS
330
4428
102
}
330
4428
100
AcDbXrecord
 10
0.0
 20
0.0
 30
0.0
  0
XRECORD
  5
4446
102
{ACAD_REACTORS
330
4428
102
}
330
4428
100
AcDbXrecord
 10
0.0
 20
0.0
 30
0.0
  0
XRECORD
  5
4443
102
{ACAD_REACTORS
330
4428
102
}
330
4428
100
AcDbXrecord
 10
0.0
 20
0.0
 30
0.0
  0
XRECORD
  5
4440
102
{ACAD_REACTORS
330
4428
102
}
330
4428
100
AcDbXrecord
340
0
  0
XRECORD
  5
4441
102
{ACAD_REACTORS
330
4428
102
}
330
4428
100
AcDbXrecord
 70
     0
  0
XRECORD
  5
4434
102
{ACAD_REACTORS
330
4428
102
}
330
4428
100
AcDbXrecord
  1
{872DF02E-3B9F-47AB-B5B3-60F348ED6B53}
  0
DICTIONARYVAR
  5
892
102
{ACAD_REACTORS
330
102
102
}
330
102
100
DictionaryVariables
280
     0
  1
1:1
  0
DICTIONARYVAR
  5
890
102
{ACAD_REACTORS
330
102
102
}
330
102
100
DictionaryVariables
280
     0
  1
STANDARD
  0
DICTIONARYVAR
  5
88F
102
{ACAD_REACTORS
330
102
102
}
330
102
100
DictionaryVariables
280
     0
  1
STANDARD
  0
DICTIONARYVAR
  5
103
102
{ACAD_REACTORS
330
102
102
}
330
102
100
DictionaryVariables
280
     0
  1
1
  0
DICTIONARYVAR
  5
1BBB
102
{ACAD_REACTORS
330
102
102
}
330
102
100
DictionaryVariables
280
     0
  1
0
  0
DICTIONARYVAR
  5
893
102
{ACAD_REACTORS
330
102
102
}
330
102
100
DictionaryVariables
280
     0
  1
0
  0
DICTIONARYVAR
  5
891
102
{ACAD_REACTORS
330
102
102
}
330
102
100
DictionaryVariables
280
     0
  1
0
  0
DICTIONARYVAR
  5
549
102
{ACAD_REACTORS
330
102
102
}
330
102
100
DictionaryVariables
280
     0
  1
96
  0
DICTIONARY
  5
812
330
811
100
AcDbDictionary
280
     1
  3
ACAD_XREC_ROUNDTRIP
360
43FF
  3
BUMPTILE
360
814
  3
DIFFUSETILE
360
813
  3
OPACITYTILE
360
817
  3
REFLECTIONTILE
360
816
  3
REFRACTIONTILE
360
818
  3
SPECULARTILE
360
815
  0
DICTIONARY
  5
80A
330
809
100
AcDbDictionary
280
     1
  3
ACAD_XREC_ROUNDTRIP
360
43FE
  3
BUMPTILE
360
80C
  3
DIFFUSETILE
360
80B
  3
OPACITYTILE
360
80F
  3
REFLECTIONTILE
360
80E
  3
REFRACTIONTILE
360
810
  3
SPECULARTILE
360
80D
  0
DICTIONARY
  5
81A
330
819
100
AcDbDictionary
280
     1
  3
ACAD_XREC_ROUNDTRIP
360
4400
  3
BUMPTILE
360
81C
  3
DIFFUSETILE
360
81B
  3
OPACITYTILE
360
81F
  3
REFLECTIONTILE
360
81E
  3
REFRACTIONTILE
360
820
  3
SPECULARTILE
360
81D
  0
DICTIONARY
  5
88C
330
834
100
AcDbDictionary
280
     1
  3
ACAD_ROUNDTRIP_2008_TABLES
360
43F6
  3
ACAD_XREC_ROUNDTRIP
360
4401
  0
XRECORD
  5
43FF
102
{ACAD_REACTORS
330
812
102
}
330
812
100
AcDbXrecord
102
MATERIAL
148
0.0
149
0.0
149
0.0
 93
        0
 94
      127
282
     0
 72
     0
 77
     0
171
     0
175
     0
179
     0
273
     0
  0
XRECORD
  5
814
102
{ACAD_REACTORS
330
812
102
}
330
812
100
AcDbXrecord
270
     1
271
     1
  0
XRECORD
  5
813
102
{ACAD_REACTORS
330
812
102
}
330
812
100
AcDbXrecord
270
     1
271
     1
  0
XRECORD
  5
817
102
{ACAD_REACTORS
330
812
102
}
330
812
100
AcDbXrecord
270
     1
271
     1
  0
XRECORD
  5
816
102
{ACAD_REACTORS
330
812
102
}
330
812
100
AcDbXrecord
270
     1
271
     1
  0
XRECORD
  5
818
102
{ACAD_REACTORS
330
812
102
}
330
812
100
AcDbXrecord
270
     1
271
     1
  0
XRECORD
  5
815
102
{ACAD_REACTORS
330
812
102
}
330
812
100
AcDbXrecord
270
     1
271
     1
  0
XRECORD
  5
43FE
102
{ACAD_REACTORS
330
80A
102
}
330
80A
100
AcDbXrecord
102
MATERIAL
148
0.0
149
0.0
149
0.0
 93
        0
 94
      127
282
     0
 72
     0
 77
     0
171
     0
175
     0
179
     0
273
     0
  0
XRECORD
  5
80C
102
{ACAD_REACTORS
330
80A
102
}
330
80A
100
AcDbXrecord
270
     1
271
     1
  0
XRECORD
  5
80B
102
{ACAD_REACTORS
330
80A
102
}
330
80A
100
AcDbXrecord
270
     1
271
     1
  0
XRECORD
  5
80F
102
{ACAD_REACTORS
330
80A
102
}
330
80A
100
AcDbXrecord
270
     1
271
     1
  0
XRECORD
  5
80E
102
{ACAD_REACTORS
330
80A
102
}
330
80A
100
AcDbXrecord
270
     1
271
     1
  0
XRECORD
  5
810
102
{ACAD_REACTORS
330
80A
102
}
330
80A
100
AcDbXrecord
270
     1
271
     1
  0
XRECORD
  5
80D
102
{ACAD_REACTORS
330
80A
102
}
330
80A
100
AcDbXrecord
270
     1
271
     1
  0
XRECORD
  5
4400
102
{ACAD_REACTORS
330
81A
102
}
330
81A
100
AcDbXrecord
102
MATERIAL
148
0.0
149
0.0
149
0.0
 93
        0
 94
      127
282
     0
 72
     0
 77
     0
171
     0
175
     0
179
     0
273
     0
  0
XRECORD
  5
81C
102
{ACAD_REACTORS
330
81A
102
}
330
81A
100
AcDbXrecord
270
     1
271
     1
  0
XRECORD
  5
81B
102
{ACAD_REACTORS
330
81A
102
}
330
81A
100
AcDbXrecord
270
     1
271
     1
  0
XRECORD
  5
81F
102
{ACAD_REACTORS
330
81A
102
}
330
81A
100
AcDbXrecord
270
     1
271
     1
  0
XRECORD
  5
81E
102
{ACAD_REACTORS
330
81A
102
}
330
81A
100
AcDbXrecord
270
     1
271
     1
  0
XRECORD
  5
820
102
{ACAD_REACTORS
330
81A
102
}
330
81A
100
AcDbXrecord
270
     1
271
     1
  0
XRECORD
  5
81D
102
{ACAD_REACTORS
330
81A
102
}
330
81A
100
AcDbXrecord
270
     1
271
     1
  0
ACAD_PROXY_OBJECT
  5
43F6
102
{ACAD_REACTORS
330
88C
102
}
330
88C
100
AcDbProxyObject
 90
      499
 91
      512
 93
     1044
310
40D054060020000020000003200101A000080002A5058000000C100000000000000340FE901405075F5449544C450041501A8000000C800406800020000A9416000000304000AD7A3703D0AC73FA409014217D2115051115480105406A0000003200101A000080002A5028000000C10002B5E8DC0F42B1CFE903409065F444
310
15441003
340
16
340
16
340
16
 94
        0
1001
ACAD
1000
AcadProxyRoundTripData
1071
      510
1071
   851991
1070
     0
  0
XRECORD
  5
4401
102
{ACAD_REACTORS
330
88C
102
}
330
88C
100
AcDbXrecord
102
ACAD_ROUNDTRIP_PRE2007_TABLESTYLE
 90
      512
 91
        0
  1

 92
      512
 93
        0
  2

 94
      512
 95
        0
  3

  0
ENDSEC
  0
EOF
